  0
SECTION
  2
HEADER
  9
$ACADVER
  1
AC1009
  9
$DWGCODEPAGE
  3
ansi_1252
  9
$INSBASE
 10
0.0
 20
0.0
 30
0.0
  9
$EXTMIN
 10
1.000000000000000E+20
 20
1.000000000000000E+20
 30
1.000000000000000E+20
  9
$EXTMAX
 10
-1.000000000000000E+20
 20
-1.000000000000000E+20
 30
-1.000000000000000E+20
  9
$LIMMIN
 10
0.0
 20
0.0
  9
$LIMMAX
 10
12.0
 20
9.0
  9
$ORTHOMODE
 70
     0
  9
$REGENMODE
 70
     1
  9
$FILLMODE
 70
     1
  9
$QTEXTMODE
 70
     0
  9
$MIRRTEXT
 70
     1
  9
$DRAGMODE
 70
     2
  9
$LTSCALE
 40
1.0
  9
$OSMODE
 70
    37
  9
$ATTMODE
 70
     1
  9
$TEXTSIZE
 40
0.2
  9
$TRACEWID
 40
0.05
  9
$TEXTSTYLE
  7
STANDARD
  9
$CLAYER
  8
0
  9
$CELTYPE
  6
BYLAYER
  9
$CECOLOR
 62
   256
  9
$DIMSCALE
 40
1.0
  9
$DIMASZ
 40
0.18
  9
$DIMEXO
 40
0.0625
  9
$DIMDLI
 40
0.38
  9
$DIMRND
 40
0.0
  9
$DIMDLE
 40
0.0
  9
$DIMEXE
 40
0.18
  9
$DIMTP
 40
0.0
  9
$DIMTM
 40
0.0
  9
$DIMTXT
 40
0.18
  9
$DIMCEN
 40
0.09
  9
$DIMTSZ
 40
0.0
  9
$DIMTOL
 70
     0
  9
$DIMLIM
 70
     0
  9
$DIMTIH
 70
     1
  9
$DIMTOH
 70
     1
  9
$DIMSE1
 70
     0
  9
$DIMSE2
 70
     0
  9
$DIMTAD
 70
     0
  9
$DIMZIN
 70
     0
  9
$DIMBLK
  1

  9
$DIMASO
 70
     1
  9
$DIMSHO
 70
     1
  9
$DIMPOST
  1

  9
$DIMAPOST
  1

  9
$DIMALT
 70
     0
  9
$DIMALTD
 70
     2
  9
$DIMALTF
 40
25.4
  9
$DIMLFAC
 40
1.0
  9
$DIMTOFL
 70
     0
  9
$DIMTVP
 40
0.0
  9
$DIMTIX
 70
     0
  9
$DIMSOXD
 70
     0
  9
$DIMSAH
 70
     0
  9
$DIMBLK1
  1

  9
$DIMBLK2
  1

  9
$DIMSTYLE
  2
STANDARD
  9
$DIMCLRD
 70
     0
  9
$DIMCLRE
 70
     0
  9
$DIMCLRT
 70
     0
  9
$DIMTFAC
 40
1.0
  9
$DIMGAP
 40
0.09
  9
$LUNITS
 70
     2
  9
$LUPREC
 70
     4
  9
$SKETCHINC
 40
0.1
  9
$FILLETRAD
 40
0.5
  9
$AUNITS
 70
     0
  9
$AUPREC
 70
     0
  9
$MENU
  1
.
  9
$ELEVATION
 40
0.0
  9
$PELEVATION
 40
0.0
  9
$THICKNESS
 40
0.0
  9
$LIMCHECK
 70
     0
  9
$CHAMFERA
 40
0.5
  9
$CHAMFERB
 40
0.5
  9
$SKPOLY
 70
     0
  9
$TDCREATE
 40
2455378.489676852
  9
$TDUPDATE
 40
2455378.489676852
  9
$TDINDWG
 40
0.0000000116
  9
$TDUSRTIMER
 40
0.0000000116
  9
$USRTIMER
 70
     1
  9
$ANGBASE
 50
0.0
  9
$ANGDIR
 70
     0
  9
$PDMODE
 70
     0
  9
$PDSIZE
 40
0.0
  9
$PLINEWID
 40
0.0
  9
$COORDS
 70
     1
  9
$SPLFRAME
 70
     0
  9
$SPLINETYPE
 70
     6
  9
$SPLINESEGS
 70
     8
  9
$ATTDIA
 70
     0
  9
$ATTREQ
 70
     1
  9
$HANDLING
 70
     1
  9
$HANDSEED
  5
B1D
  9
$SURFTAB1
 70
     6
  9
$SURFTAB2
 70
     6
  9
$SURFTYPE
 70
     6
  9
$SURFU
 70
     6
  9
$SURFV
 70
     6
  9
$UCSNAME
  2

  9
$UCSORG
 10
0.0
 20
0.0
 30
0.0
  9
$UCSXDIR
 10
1.0
 20
0.0
 30
0.0
  9
$UCSYDIR
 10
0.0
 20
1.0
 30
0.0
  9
$PUCSNAME
  2

  9
$PUCSORG
 10
0.0
 20
0.0
 30
0.0
  9
$PUCSXDIR
 10
1.0
 20
0.0
 30
0.0
  9
$PUCSYDIR
 10
0.0
 20
1.0
 30
0.0
  9
$USERI1
 70
     0
  9
$USERI2
 70
     0
  9
$USERI3
 70
     0
  9
$USERI4
 70
     0
  9
$USERI5
 70
     0
  9
$USERR1
 40
0.0
  9
$USERR2
 40
0.0
  9
$USERR3
 40
0.0
  9
$USERR4
 40
0.0
  9
$USERR5
 40
0.0
  9
$WORLDVIEW
 70
     1
  9
$SHADEDGE
 70
     3
  9
$SHADEDIF
 70
    70
  9
$TILEMODE
 70
     1
  9
$MAXACTVP
 70
    64
  9
$PLIMCHECK
 70
     0
  9
$PEXTMIN
 10
1.000000000000000E+20
 20
1.000000000000000E+20
 30
1.000000000000000E+20
  9
$PEXTMAX
 10
-1.000000000000000E+20
 20
-1.000000000000000E+20
 30
-1.000000000000000E+20
  9
$PLIMMIN
 10
0.0
 20
0.0
  9
$PLIMMAX
 10
12.0
 20
9.0
  9
$UNITMODE
 70
     0
  9
$VISRETAIN
 70
     1
  9
$PLINEGEN
 70
     0
  9
$PSLTSCALE
 70
     1
  0
ENDSEC
  0
SECTION
  2
TABLES
  0
TABLE
  2
VPORT
 70
     1
  0
VPORT
  2
*ACTIVE
 70
     0
 10
0.0
 20
0.0
 11
1.0
 21
1.0
 12
0.0
 22
0.0
 13
0.0
 23
0.0
 14
0.5
 24
0.5
 15
0.5
 25
0.5
 16
282.8793334960938
 26
-263.7893981933594
 36
110.909782409668
 17
29.56561279296875
 27
0.0
 37
77.06684112548828
 40
136.4200368469594
 41
1.972972972850329
 42
50.0
 43
0.0
 44
0.0
 50
0.0
 51
0.0
 71
     0
 72
   100
 73
     1
 74
     3
 75
     0
 76
     0
 77
     0
 78
     0
  0
ENDTAB
  0
TABLE
  2
LTYPE
 70
     1
  0
LTYPE
  2
CONTINUOUS
 70
     0
  3
Solid line
 72
    65
 73
     0
 40
0.0
  0
ENDTAB
  0
TABLE
  2
LAYER
 70
     2
  0
LAYER
  2
0
 70
     0
 62
     7
  6
CONTINUOUS
  0
LAYER
  2
LAYER_1
 70
     0
 62
     7
  6
CONTINUOUS
  0
ENDTAB
  0
TABLE
  2
STYLE
 70
     1
  0
STYLE
  2
STANDARD
 70
     0
 40
0.0
 41
1.0
 50
0.0
 71
     0
 42
0.2
  3
txt
  4

  0
ENDTAB
  0
TABLE
  2
VIEW
 70
     0
  0
ENDTAB
  0
TABLE
  2
UCS
 70
     0
  0
ENDTAB
  0
TABLE
  2
APPID
 70
     1
  0
APPID
  2
ACAD
 70
     0
  0
ENDTAB
  0
TABLE
  2
DIMSTYLE
 70
     1
  0
DIMSTYLE
  2
STANDARD
 70
     0
  3

  4

  5

  6

  7

 40
1.0
 41
0.18
 42
0.0625
 43
0.38
 44
0.18
 45
0.0
 46
0.0
 47
0.0
 48
0.0
140
0.18
141
0.09
142
0.0
143
25.4
144
1.0
145
0.0
146
1.0
147
0.09
 71
     0
 72
     0
 73
     1
 74
     1
 75
     0
 76
     0
 77
     0
 78
     0
170
     0
171
     2
172
     0
173
     0
174
     0
175
     0
176
     0
177
     0
178
     0
  0
ENDTAB
  0
ENDSEC
  0
SECTION
  2
BLOCKS
  0
BLOCK
  8
0
  2
$MODEL_SPACE
 70
     0
 10
0.0
 20
0.0
 30
0.0
  3
$MODEL_SPACE
  1

  0
ENDBLK
  5
21
  8
0
  0
BLOCK
 67
     1
  8
0
  2
$PAPER_SPACE
 70
     0
 10
0.0
 20
0.0
 30
0.0
  3
$PAPER_SPACE
  1

  0
ENDBLK
  5
1D
 67
     1
  8
0
  0
BLOCK
  8
0
  2
38
 70
     0
 10
0.0
 20
0.0
 30
0.0
  3
38
  1

  0
POLYLINE
  5
3C
  8
0
 62
     9
 66
     1
 10
0.0
 20
0.0
 30
0.0
 70
    64
 71
   102
 72
   174
  0
VERTEX
  5
3D
  8
0
 10
-0.0408398173749447
 20
23.98930740356445
 30
4.938616275787354
 70
   192
  0
VERTEX
  5
3E
  8
0
 10
-9.229798316955566
 20
22.15151596069336
 30
4.938616275787354
 70
   192
  0
VERTEX
  5
3F
  8
0
 10
-6.245165348052979
 20
27.28569602966309
 30
1.5
 70
   192
  0
VERTEX
  5
40
  8
0
 10
-12.16291236877441
 20
25.19745445251465
 30
1.5
 70
   192
  0
VERTEX
  5
41
  8
0
 10
-16.54682159423828
 20
17.34845542907715
 30
4.938616275787354
 70
   192
  0
VERTEX
  5
42
  8
0
 10
-4.684696674346924
 20
20.46786499023438
 30
11.99953269958496
 70
   192
  0
VERTEX
  5
43
  8
0
 10
-0.0000000000000009
 20
21.00368881225586
 30
11.99953269958496
 70
   192
  0
VERTEX
  5
44
  8
0
 10
-17.46410369873047
 20
21.85578155517578
 30
1.5
 70
   192
  0
VERTEX
  5
45
  8
0
 10
-13.10037803649902
 20
16.39471626281738
 30
11.99953269958496
 70
   192
  0
VERTEX
  5
46
  8
0
 10
-21.17424392700195
 20
11.29292964935303
 30
4.938616275787354
 70
   192
  0
VERTEX
  5
47
  8
0
 10
-21.89053153991699
 20
17.4256420135498
 30
1.5
 70
   192
  0
VERTEX
  5
48
  8
0
 10
-25.21926689147949
 20
12.12350654602051
 30
1.5
 70
   192
  0
VERTEX
  5
49
  8
0
 10
-23.39861297607422
 20
5.26302433013916
 30
4.938616275787354
 70
   192
  0
VERTEX
  5
4A
  8
0
 10
-16.4207820892334
 20
13.0715274810791
 30
11.99953269958496
 70
   192
  0
VERTEX
  5
4B
  8
0
 10
-27.28726577758789
 20
6.215266704559326
 30
1.5
 70
   192
  0
VERTEX
  5
4C
  8
0
 10
-20.46904373168945
 20
4.66226863861084
 30
11.99953269958496
 70
   192
  0
VERTEX
  5
4D
  8
0
 10
-18.91777229309082
 20
9.094226837158203
 30
11.99953269958496
 70
   192
  0
VERTEX
  5
4E
  8
0
 10
-22.50368881225586
 20
0.0000000000000126
 30
9.999532699584961
 70
   192
  0
VERTEX
  5
4F
  8
0
 10
-28.0
 20
0.0000000000000149
 30
1.5
 70
   192
  0
VERTEX
  5
50
  8
0
 10
-23.99747657775879
 20
0.000000000000013
 30
4.938616275787354
 70
   192
  0
VERTEX
  5
51
  8
0
 10
9.111034393310547
 20
18.93190002441406
 30
11.99953269958496
 70
   192
  0
VERTEX
  5
52
  8
0
 10
4.669431209564209
 20
20.47605323791504
 30
11.99953269958496
 70
   192
  0
VERTEX
  5
53
  8
0
 10
9.229798316955566
 20
22.15151596069336
 30
4.938616275787354
 70
   192
  0
VERTEX
  5
54
  8
0
 10
0.0000000000000036
 20
28.0
 30
1.5
 70
   192
  0
VERTEX
  5
55
  8
0
 10
12.14591217041016
 20
25.23810005187988
 30
1.5
 70
   192
  0
VERTEX
  5
56
  8
0
 10
6.224815368652344
 20
27.29660987854004
 30
1.5
 70
   192
  0
VERTEX
  5
57
  8
0
 10
21.89833831787109
 20
17.47015571594238
 30
1.5
 70
   192
  0
VERTEX
  5
58
  8
0
 10
16.5422248840332
 20
17.40995979309082
 30
4.938616275787354
 70
   192
  0
VERTEX
  5
59
  8
0
 10
17.46171188354492
 20
21.90631103515625
 30
1.5
 70
   192
  0
VERTEX
  5
5A
  8
0
 10
18.93085098266602
 20
9.120919227600098
 30
11.99953269958496
 70
   192
  0
VERTEX
  5
5B
  8
0
 10
16.42663764953613
 20
13.10491847991943
 30
11.99953269958496
 70
   192
  0
VERTEX
  5
5C
  8
0
 10
21.17424392700195
 20
11.29292964935303
 30
4.938616275787354
 70
   192
  0
VERTEX
  5
5D
  8
0
 10
25.23670196533203
 20
12.15909004211426
 30
1.5
 70
   192
  0
VERTEX
  5
5E
  8
0
 10
20.48711395263672
 20
4.678955078125
 30
11.99953269958496
 70
   192
  0
VERTEX
  5
5F
  8
0
 10
23.42673683166504
 20
5.277272701263428
 30
4.938616275787354
 70
   192
  0
VERTEX
  5
60
  8
0
 10
23.99747657775879
 20
-0.0000000000000153
 30
4.938616275787354
 70
   192
  0
VERTEX
  5
61
  8
0
 10
27.31135559082031
 20
6.237511157989502
 30
1.5
 70
   192
  0
VERTEX
  5
62
  8
0
 10
28.0
 20
-0.0000000000000113
 30
1.5
 70
   192
  0
VERTEX
  5
63
  8
0
 10
22.50368881225586
 20
-0.0000000000000085
 30
9.999532699584961
 70
   192
  0
VERTEX
  5
64
  8
0
 10
-9.123786926269531
 20
18.90140914916992
 30
11.99953269958496
 70
   192
  0
VERTEX
  5
65
  8
0
 10
13.09858322143555
 20
16.4326171875
 30
11.99953269958496
 70
   192
  0
VERTEX
  5
66
  8
0
 10
3.408079147338867
 20
-27.7895622253418
 30
0.0000000000000032
 70
   192
  0
VERTEX
  5
67
  8
0
 10
-3.377212047576904
 20
-27.79436492919922
 30
0.0000000000000039
 70
   192
  0
VERTEX
  5
68
  8
0
 10
-0.0000000000000275
 20
-28.0
 30
1.5
 70
   192
  0
VERTEX
  5
69
  8
0
 10
-9.927913665771484
 20
-26.18099021911621
 30
0.0000000000000045
 70
   192
  0
VERTEX
  5
6A
  8
0
 10
-6.245165348052979
 20
-27.28569602966309
 30
1.5
 70
   192
  0
VERTEX
  5
6B
  8
0
 10
-12.16291236877441
 20
-25.19745445251465
 30
1.5
 70
   192
  0
VERTEX
  5
6C
  8
0
 10
-15.88218593597412
 20
-23.0594310760498
 30
0.0000000000000049
 70
   192
  0
VERTEX
  5
6D
  8
0
 10
-20.95666313171387
 20
-18.56861305236816
 30
0.0000000000000051
 70
   192
  0
VERTEX
  5
6E
  8
0
 10
-17.46410369873047
 20
-21.85578155517578
 30
1.5
 70
   192
  0
VERTEX
  5
6F
  8
0
 10
-24.79582405090332
 20
-13.00835990905762
 30
0.0000000000000052
 70
   192
  0
VERTEX
  5
70
  8
0
 10
-21.89053153991699
 20
-17.4256420135498
 30
1.5
 70
   192
  0
VERTEX
  5
71
  8
0
 10
-25.21926689147949
 20
-12.12350654602051
 30
1.5
 70
   192
  0
VERTEX
  5
72
  8
0
 10
-27.17782211303711
 20
-6.730429649353027
 30
0.000000000000005
 70
   192
  0
VERTEX
  5
73
  8
0
 10
-28.0
 20
0.0000000000000249
 30
0.0000000000000047
 70
   192
  0
VERTEX
  5
74
  8
0
 10
-27.28726577758789
 20
-6.215266704559326
 30
1.5
 70
   192
  0
VERTEX
  5
75
  8
0
 10
6.224815368652344
 20
-27.29660987854004
 30
1.5
 70
   192
  0
VERTEX
  5
76
  8
0
 10
9.937480926513672
 20
-26.17702674865723
 30
0.0000000000000024
 70
   192
  0
VERTEX
  5
77
  8
0
 10
12.14591217041016
 20
-25.23810005187988
 30
1.5
 70
   192
  0
VERTEX
  5
78
  8
0
 10
17.46171188354492
 20
-21.90631103515625
 30
1.5
 70
   192
  0
VERTEX
  5
79
  8
0
 10
15.88975238800049
 20
-23.05390167236328
 30
0.0000000000000016
 70
   192
  0
VERTEX
  5
7A
  8
0
 10
21.89833831787109
 20
-17.47015571594238
 30
1.5
 70
   192
  0
VERTEX
  5
7B
  8
0
 10
20.9732494354248
 20
-18.54591369628906
 30
0.0000000000000008
 70
   192
  0
VERTEX
  5
7C
  8
0
 10
24.80338859558105
 20
-12.99009609222412
 30
0.0
 70
   192
  0
VERTEX
  5
7D
  8
0
 10
25.23670196533203
 20
-12.15909004211426
 30
1.5
 70
   192
  0
VERTEX
  5
7E
  8
0
 10
27.31135559082031
 20
-6.237511157989502
 30
1.5
 70
   192
  0
VERTEX
  5
7F
  8
0
 10
27.18322563171387
 20
-6.717383861541748
 30
-0.0000000000000007
 70
   192
  0
VERTEX
  5
80
  8
0
 10
28.0
 20
-0.000000000000009
 30
-0.0000000000000012
 70
   192
  0
VERTEX
  5
81
  8
0
 10
-15.88975238800049
 20
23.05390167236328
 30
0.0000000000000019
 70
   192
  0
VERTEX
  5
82
  8
0
 10
-20.9732494354248
 20
18.54591369628906
 30
0.0000000000000027
 70
   192
  0
VERTEX
  5
83
  8
0
 10
-24.80338859558105
 20
12.99009609222412
 30
0.0000000000000035
 70
   192
  0
VERTEX
  5
84
  8
0
 10
-3.408079147338867
 20
27.7895622253418
 30
0.0000000000000003
 70
   192
  0
VERTEX
  5
85
  8
0
 10
3.377212047576904
 20
27.79436492919922
 30
-0.0000000000000004
 70
   192
  0
VERTEX
  5
86
  8
0
 10
-9.937480926513672
 20
26.17702674865723
 30
0.0000000000000011
 70
   192
  0
VERTEX
  5
87
  8
0
 10
15.88218593597412
 20
23.0594310760498
 30
-0.0000000000000014
 70
   192
  0
VERTEX
  5
88
  8
0
 10
9.927913665771484
 20
26.18099021911621
 30
-0.000000000000001
 70
   192
  0
VERTEX
  5
89
  8
0
 10
20.95666313171387
 20
18.56861305236816
 30
-0.0000000000000017
 70
   192
  0
VERTEX
  5
8A
  8
0
 10
24.79582405090332
 20
13.00835990905762
 30
-0.0000000000000017
 70
   192
  0
VERTEX
  5
8B
  8
0
 10
27.17782211303711
 20
6.730429649353027
 30
-0.0000000000000015
 70
   192
  0
VERTEX
  5
8C
  8
0
 10
-27.18322563171387
 20
6.717383861541748
 30
0.0000000000000041
 70
   192
  0
VERTEX
  5
8D
  8
0
 10
-9.229798316955566
 20
-22.15151596069336
 30
4.938616275787354
 70
   192
  0
VERTEX
  5
8E
  8
0
 10
0.0408398173749447
 20
-23.98930740356445
 30
4.938616275787354
 70
   192
  0
VERTEX
  5
8F
  8
0
 10
-21.17424392700195
 20
-11.29292964935303
 30
4.938616275787354
 70
   192
  0
VERTEX
  5
90
  8
0
 10
-23.42673683166504
 20
-5.277272701263428
 30
4.938616275787354
 70
   192
  0
VERTEX
  5
91
  8
0
 10
9.229798316955566
 20
-22.15151596069336
 30
4.938616275787354
 70
   192
  0
VERTEX
  5
92
  8
0
 10
4.684696674346924
 20
-20.46786499023438
 30
11.99953269958496
 70
   192
  0
VERTEX
  5
93
  8
0
 10
-16.5422248840332
 20
-17.40995979309082
 30
4.938616275787354
 70
   192
  0
VERTEX
  5
94
  8
0
 10
16.54682159423828
 20
-17.34845542907715
 30
4.938616275787354
 70
   192
  0
VERTEX
  5
95
  8
0
 10
23.39861297607422
 20
-5.26302433013916
 30
4.938616275787354
 70
   192
  0
VERTEX
  5
96
  8
0
 10
21.17424392700195
 20
-11.29292964935303
 30
4.938616275787354
 70
   192
  0
VERTEX
  5
97
  8
0
 10
20.46904373168945
 20
-4.66226863861084
 30
11.99953269958496
 70
   192
  0
VERTEX
  5
98
  8
0
 10
16.4207820892334
 20
-13.0715274810791
 30
11.99953269958496
 70
   192
  0
VERTEX
  5
99
  8
0
 10
13.10037803649902
 20
-16.39471626281738
 30
11.99953269958496
 70
   192
  0
VERTEX
  5
9A
  8
0
 10
0.0
 20
-21.00368881225586
 30
11.99953269958496
 70
   192
  0
VERTEX
  5
9B
  8
0
 10
-9.111034393310547
 20
-18.93190002441406
 30
11.99953269958496
 70
   192
  0
VERTEX
  5
9C
  8
0
 10
-4.669431209564209
 20
-20.47605323791504
 30
11.99953269958496
 70
   192
  0
VERTEX
  5
9D
  8
0
 10
-16.42663764953613
 20
-13.10491847991943
 30
11.99953269958496
 70
   192
  0
VERTEX
  5
9E
  8
0
 10
-18.93085098266602
 20
-9.120919227600098
 30
11.99953269958496
 70
   192
  0
VERTEX
  5
9F
  8
0
 10
-20.48711395263672
 20
-4.678955078125
 30
11.99953269958496
 70
   192
  0
VERTEX
  5
A0
  8
0
 10
18.91777229309082
 20
-9.094226837158203
 30
11.99953269958496
 70
   192
  0
VERTEX
  5
A1
  8
0
 10
9.123786926269531
 20
-18.90140914916992
 30
11.99953269958496
 70
   192
  0
VERTEX
  5
A2
  8
0
 10
-13.09858322143555
 20
-16.4326171875
 30
11.99953269958496
 70
   192
  0
VERTEX
  5
A3
  8
0
 62
     9
 10
0.0
 20
0.0
 30
0.0
 70
   128
 71
     3
 72
     2
 73
     1
  0
VERTEX
  5
A4
  8
0
 62
     9
 10
0.0
 20
0.0
 30
0.0
 70
   128
 71
     5
 72
     2
 73
     4
  0
VERTEX
  5
A5
  8
0
 62
     9
 10
0.0
 20
0.0
 30
0.0
 70
   128
 71
     7
 72
     1
 73
     6
  0
VERTEX
  5
A6
  8
0
 62
     9
 10
0.0
 20
0.0
 30
0.0
 70
   128
 71
     8
 72
     5
 73
     4
  0
VERTEX
  5
A7
  8
0
 62
     9
 10
0.0
 20
0.0
 30
0.0
 70
   128
 71
     5
 72
     9
 73
     2
  0
VERTEX
  5
A8
  8
0
 62
     9
 10
0.0
 20
0.0
 30
0.0
 70
   128
 71
    11
 72
    10
 73
     5
  0
VERTEX
  5
A9
  8
0
 62
     9
 10
0.0
 20
0.0
 30
0.0
 70
   128
 71
     5
 72
     8
 73
    11
  0
VERTEX
  5
AA
  8
0
 62
     9
 10
0.0
 20
0.0
 30
0.0
 70
   128
 71
    13
 72
    10
 73
    12
  0
VERTEX
  5
AB
  8
0
 62
     9
 10
0.0
 20
0.0
 30
0.0
 70
   128
 71
     9
 72
     5
 73
    14
  0
VERTEX
  5
AC
  8
0
 62
     9
 10
0.0
 20
0.0
 30
0.0
 70
   128
 71
    13
 72
    12
 73
    15
  0
VERTEX
  5
AD
  8
0
 62
     9
 10
0.0
 20
0.0
 30
0.0
 70
   128
 71
    13
 72
    16
 73
    10
  0
VERTEX
  5
AE
  8
0
 62
     9
 10
0.0
 20
0.0
 30
0.0
 70
   128
 71
    10
 72
    16
 73
    17
  0
VERTEX
  5
AF
  8
0
 62
     9
 10
0.0
 20
0.0
 30
0.0
 70
   128
 71
    13
 72
    18
 73
    16
  0
VERTEX
  5
B0
  8
0
 62
     9
 10
0.0
 20
0.0
 30
0.0
 70
   128
 71
    20
 72
    15
 73
    19
  0
VERTEX
  5
B1
  8
0
 62
     9
 10
0.0
 20
0.0
 30
0.0
 70
   128
 71
     2
 72
     6
 73
     1
  0
VERTEX
  5
B2
  8
0
 62
     9
 10
0.0
 20
0.0
 30
0.0
 70
   128
 71
    23
 72
    22
 73
    21
  0
VERTEX
  5
B3
  8
0
 62
     9
 10
0.0
 20
0.0
 30
0.0
 70
   128
 71
    24
 72
     3
 73
     1
  0
VERTEX
  5
B4
  8
0
 62
     9
 10
0.0
 20
0.0
 30
0.0
 70
   128
 71
    26
 72
    23
 73
    25
  0
VERTEX
  5
B5
  8
0
 62
     9
 10
0.0
 20
0.0
 30
0.0
 70
   128
 71
    23
 72
    26
 73
     1
  0
VERTEX
  5
B6
  8
0
 62
     9
 10
0.0
 20
0.0
 30
0.0
 70
   128
 71
    29
 72
    28
 73
    27
  0
VERTEX
  5
B7
  8
0
 62
     9
 10
0.0
 20
0.0
 30
0.0
 70
   128
 71
    25
 72
    23
 73
    29
  0
VERTEX
  5
B8
  8
0
 62
     9
 10
0.0
 20
0.0
 30
0.0
 70
   128
 71
    32
 72
    31
 73
    30
  0
VERTEX
  5
B9
  8
0
 62
     9
 10
0.0
 20
0.0
 30
0.0
 70
   128
 71
    29
 72
    23
 73
    28
  0
VERTEX
  5
BA
  8
0
 62
     9
 10
0.0
 20
0.0
 30
0.0
 70
   128
 71
    27
 72
    32
 73
    33
  0
VERTEX
  5
BB
  8
0
 62
     9
 10
0.0
 20
0.0
 30
0.0
 70
   128
 71
    32
 72
    27
 73
    28
  0
VERTEX
  5
BC
  8
0
 62
     9
 10
0.0
 20
0.0
 30
0.0
 70
   128
 71
    36
 72
    35
 73
    34
  0
VERTEX
  5
BD
  8
0
 62
     9
 10
0.0
 20
0.0
 30
0.0
 70
   128
 71
    33
 72
    32
 73
    37
  0
VERTEX
  5
BE
  8
0
 62
     9
 10
0.0
 20
0.0
 30
0.0
 70
   128
 71
    35
 72
    36
 73
    38
  0
VERTEX
  5
BF
  8
0
 62
     9
 10
0.0
 20
0.0
 30
0.0
 70
   128
 71
    38
 72
    37
 73
    35
  0
VERTEX
  5
C0
  8
0
 62
     9
 10
0.0
 20
0.0
 30
0.0
 70
   128
 71
    39
 72
    36
 73
    34
  0
VERTEX
  5
C1
  8
0
 62
     9
 10
0.0
 20
0.0
 30
0.0
 70
   128
 71
    20
 72
    13
 73
    15
  0
VERTEX
  5
C2
  8
0
 62
     9
 10
0.0
 20
0.0
 30
0.0
 70
   128
 71
    13
 72
    20
 73
    18
  0
VERTEX
  5
C3
  8
0
 62
     9
 10
0.0
 20
0.0
 30
0.0
 70
   128
 71
    10
 72
    17
 73
    14
  0
VERTEX
  5
C4
  8
0
 62
     9
 10
0.0
 20
0.0
 30
0.0
 70
   128
 71
    12
 72
    10
 73
    11
  0
VERTEX
  5
C5
  8
0
 62
     9
 10
0.0
 20
0.0
 30
0.0
 70
   128
 71
     5
 72
    10
 73
    14
  0
VERTEX
  5
C6
  8
0
 62
     9
 10
0.0
 20
0.0
 30
0.0
 70
   128
 71
    40
 72
     2
 73
     9
  0
VERTEX
  5
C7
  8
0
 62
     9
 10
0.0
 20
0.0
 30
0.0
 70
   128
 71
     2
 72
    40
 73
     6
  0
VERTEX
  5
C8
  8
0
 62
     9
 10
0.0
 20
0.0
 30
0.0
 70
   128
 71
     4
 72
     2
 73
     3
  0
VERTEX
  5
C9
  8
0
 62
     9
 10
0.0
 20
0.0
 30
0.0
 70
   128
 71
     1
 72
     7
 73
    22
  0
VERTEX
  5
CA
  8
0
 62
     9
 10
0.0
 20
0.0
 30
0.0
 70
   128
 71
    24
 72
     1
 73
    26
  0
VERTEX
  5
CB
  8
0
 62
     9
 10
0.0
 20
0.0
 30
0.0
 70
   128
 71
    23
 72
     1
 73
    22
  0
VERTEX
  5
CC
  8
0
 62
     9
 10
0.0
 20
0.0
 30
0.0
 70
   128
 71
    41
 72
    28
 73
    21
  0
VERTEX
  5
CD
  8
0
 62
     9
 10
0.0
 20
0.0
 30
0.0
 70
   128
 71
    28
 72
    23
 73
    21
  0
VERTEX
  5
CE
  8
0
 62
     9
 10
0.0
 20
0.0
 30
0.0
 70
   128
 71
    28
 72
    41
 73
    31
  0
VERTEX
  5
CF
  8
0
 62
     9
 10
0.0
 20
0.0
 30
0.0
 70
   128
 71
    32
 72
    28
 73
    31
  0
VERTEX
  5
D0
  8
0
 62
     9
 10
0.0
 20
0.0
 30
0.0
 70
   128
 71
    34
 72
    35
 73
    30
  0
VERTEX
  5
D1
  8
0
 62
     9
 10
0.0
 20
0.0
 30
0.0
 70
   128
 71
    35
 72
    32
 73
    30
  0
VERTEX
  5
D2
  8
0
 62
     9
 10
0.0
 20
0.0
 30
0.0
 70
   128
 71
    32
 72
    35
 73
    37
  0
VERTEX
  5
D3
  8
0
 62
     9
 10
0.0
 20
0.0
 30
0.0
 70
   128
 71
    44
 72
    43
 73
    42
  0
VERTEX
  5
D4
  8
0
 62
     9
 10
0.0
 20
0.0
 30
0.0
 70
   128
 71
    43
 72
    46
 73
    45
  0
VERTEX
  5
D5
  8
0
 62
     9
 10
0.0
 20
0.0
 30
0.0
 70
   128
 71
    46
 72
    43
 73
    44
  0
VERTEX
  5
D6
  8
0
 62
     9
 10
0.0
 20
0.0
 30
0.0
 70
   128
 71
    48
 72
    45
 73
    47
  0
VERTEX
  5
D7
  8
0
 62
     9
 10
0.0
 20
0.0
 30
0.0
 70
   128
 71
    46
 72
    47
 73
    45
  0
VERTEX
  5
D8
  8
0
 62
     9
 10
0.0
 20
0.0
 30
0.0
 70
   128
 71
    50
 72
    49
 73
    48
  0
VERTEX
  5
D9
  8
0
 62
     9
 10
0.0
 20
0.0
 30
0.0
 70
   128
 71
    48
 72
    47
 73
    50
  0
VERTEX
  5
DA
  8
0
 62
     9
 10
0.0
 20
0.0
 30
0.0
 70
   128
 71
    49
 72
    52
 73
    51
  0
VERTEX
  5
DB
  8
0
 62
     9
 10
0.0
 20
0.0
 30
0.0
 70
   128
 71
    52
 72
    49
 73
    50
  0
VERTEX
  5
DC
  8
0
 62
     9
 10
0.0
 20
0.0
 30
0.0
 70
   128
 71
    54
 72
    51
 73
    53
  0
VERTEX
  5
DD
  8
0
 62
     9
 10
0.0
 20
0.0
 30
0.0
 70
   128
 71
    52
 72
    53
 73
    51
  0
VERTEX
  5
DE
  8
0
 62
     9
 10
0.0
 20
0.0
 30
0.0
 70
   128
 71
    56
 72
    55
 73
    54
  0
VERTEX
  5
DF
  8
0
 62
     9
 10
0.0
 20
0.0
 30
0.0
 70
   128
 71
    54
 72
    53
 73
    56
  0
VERTEX
  5
E0
  8
0
 62
     9
 10
0.0
 20
0.0
 30
0.0
 70
   128
 71
    19
 72
    55
 73
    56
  0
VERTEX
  5
E1
  8
0
 62
     9
 10
0.0
 20
0.0
 30
0.0
 70
   128
 71
    57
 72
    44
 73
    42
  0
VERTEX
  5
E2
  8
0
 62
     9
 10
0.0
 20
0.0
 30
0.0
 70
   128
 71
    59
 72
    57
 73
    58
  0
VERTEX
  5
E3
  8
0
 62
     9
 10
0.0
 20
0.0
 30
0.0
 70
   128
 71
    42
 72
    58
 73
    57
  0
VERTEX
  5
E4
  8
0
 62
     9
 10
0.0
 20
0.0
 30
0.0
 70
   128
 71
    61
 72
    60
 73
    59
  0
VERTEX
  5
E5
  8
0
 62
     9
 10
0.0
 20
0.0
 30
0.0
 70
   128
 71
    59
 72
    58
 73
    61
  0
VERTEX
  5
E6
  8
0
 62
     9
 10
0.0
 20
0.0
 30
0.0
 70
   128
 71
    60
 72
    63
 73
    62
  0
VERTEX
  5
E7
  8
0
 62
     9
 10
0.0
 20
0.0
 30
0.0
 70
   128
 71
    63
 72
    60
 73
    61
  0
VERTEX
  5
E8
  8
0
 62
     9
 10
0.0
 20
0.0
 30
0.0
 70
   128
 71
    65
 72
    62
 73
    64
  0
VERTEX
  5
E9
  8
0
 62
     9
 10
0.0
 20
0.0
 30
0.0
 70
   128
 71
    63
 72
    64
 73
    62
  0
VERTEX
  5
EA
  8
0
 62
     9
 10
0.0
 20
0.0
 30
0.0
 70
   128
 71
    67
 72
    66
 73
    65
  0
VERTEX
  5
EB
  8
0
 62
     9
 10
0.0
 20
0.0
 30
0.0
 70
   128
 71
    65
 72
    64
 73
    67
  0
VERTEX
  5
EC
  8
0
 62
     9
 10
0.0
 20
0.0
 30
0.0
 70
   128
 71
    68
 72
    66
 73
    67
  0
VERTEX
  5
ED
  8
0
 62
     9
 10
0.0
 20
0.0
 30
0.0
 70
   128
 71
    68
 72
    38
 73
    66
  0
VERTEX
  5
EE
  8
0
 62
     9
 10
0.0
 20
0.0
 30
0.0
 70
   128
 71
    55
 72
    19
 73
    15
  0
VERTEX
  5
EF
  8
0
 62
     9
 10
0.0
 20
0.0
 30
0.0
 70
   128
 71
    70
 72
     8
 73
    69
  0
VERTEX
  5
F0
  8
0
 62
     9
 10
0.0
 20
0.0
 30
0.0
 70
   128
 71
    71
 72
    12
 73
    11
  0
VERTEX
  5
F1
  8
0
 62
     9
 10
0.0
 20
0.0
 30
0.0
 70
   128
 71
    24
 72
    73
 73
    72
  0
VERTEX
  5
F2
  8
0
 62
     9
 10
0.0
 20
0.0
 30
0.0
 70
   128
 71
     3
 72
    74
 73
     4
  0
VERTEX
  5
F3
  8
0
 62
     9
 10
0.0
 20
0.0
 30
0.0
 70
   128
 71
    29
 72
    75
 73
    25
  0
VERTEX
  5
F4
  8
0
 62
     9
 10
0.0
 20
0.0
 30
0.0
 70
   128
 71
    76
 72
    26
 73
    25
  0
VERTEX
  5
F5
  8
0
 62
     9
 10
0.0
 20
0.0
 30
0.0
 70
   128
 71
    27
 72
    78
 73
    77
  0
VERTEX
  5
F6
  8
0
 62
     9
 10
0.0
 20
0.0
 30
0.0
 70
   128
 71
    77
 72
    29
 73
    27
  0
VERTEX
  5
F7
  8
0
 62
     9
 10
0.0
 20
0.0
 30
0.0
 70
   128
 71
    78
 72
    33
 73
    79
  0
VERTEX
  5
F8
  8
0
 62
     9
 10
0.0
 20
0.0
 30
0.0
 70
   128
 71
    33
 72
    78
 73
    27
  0
VERTEX
  5
F9
  8
0
 62
     9
 10
0.0
 20
0.0
 30
0.0
 70
   128
 71
    68
 72
    79
 73
    37
  0
VERTEX
  5
FA
  8
0
 62
     9
 10
0.0
 20
0.0
 30
0.0
 70
   128
 71
    33
 72
    37
 73
    79
  0
VERTEX
  5
FB
  8
0
 62
     9
 10
0.0
 20
0.0
 30
0.0
 70
   128
 71
    68
 72
    37
 73
    38
  0
VERTEX
  5
FC
  8
0
 62
     9
 10
0.0
 20
0.0
 30
0.0
 70
   128
 71
    25
 72
    75
 73
    76
  0
VERTEX
  5
FD
  8
0
 62
     9
 10
0.0
 20
0.0
 30
0.0
 70
   128
 71
    77
 72
    75
 73
    29
  0
VERTEX
  5
FE
  8
0
 62
     9
 10
0.0
 20
0.0
 30
0.0
 70
   128
 71
    26
 72
    73
 73
    24
  0
VERTEX
  5
FF
  8
0
 62
     9
 10
0.0
 20
0.0
 30
0.0
 70
   128
 71
    76
 72
    73
 73
    26
  0
VERTEX
  5
100
  8
0
 62
     9
 10
0.0
 20
0.0
 30
0.0
 70
   128
 71
     3
 72
    72
 73
    74
  0
VERTEX
  5
101
  8
0
 62
     9
 10
0.0
 20
0.0
 30
0.0
 70
   128
 71
    24
 72
    72
 73
     3
  0
VERTEX
  5
102
  8
0
 62
     9
 10
0.0
 20
0.0
 30
0.0
 70
   128
 71
     8
 72
     4
 73
    69
  0
VERTEX
  5
103
  8
0
 62
     9
 10
0.0
 20
0.0
 30
0.0
 70
   128
 71
     4
 72
    74
 73
    69
  0
VERTEX
  5
104
  8
0
 62
     9
 10
0.0
 20
0.0
 30
0.0
 70
   128
 71
    71
 72
    11
 73
    70
  0
VERTEX
  5
105
  8
0
 62
     9
 10
0.0
 20
0.0
 30
0.0
 70
   128
 71
    11
 72
     8
 73
    70
  0
VERTEX
  5
106
  8
0
 62
     9
 10
0.0
 20
0.0
 30
0.0
 70
   128
 71
    80
 72
    15
 73
    12
  0
VERTEX
  5
107
  8
0
 62
     9
 10
0.0
 20
0.0
 30
0.0
 70
   128
 71
    80
 72
    12
 73
    71
  0
VERTEX
  5
108
  8
0
 62
     9
 10
0.0
 20
0.0
 30
0.0
 70
   128
 71
    15
 72
    80
 73
    55
  0
VERTEX
  5
109
  8
0
 62
     9
 10
0.0
 20
0.0
 30
0.0
 70
   128
 71
    80
 72
    71
 73
    58
  0
VERTEX
  5
10A
  8
0
 62
     9
 10
0.0
 20
0.0
 30
0.0
 70
   128
 71
    63
 72
    69
 73
    64
  0
VERTEX
  5
10B
  8
0
 62
     9
 10
0.0
 20
0.0
 30
0.0
 70
   128
 71
    54
 72
    49
 73
    51
  0
VERTEX
  5
10C
  8
0
 62
     9
 10
0.0
 20
0.0
 30
0.0
 70
   128
 71
    43
 72
    55
 73
    42
  0
VERTEX
  5
10D
  8
0
 62
     9
 10
0.0
 20
0.0
 30
0.0
 70
   128
 71
    49
 72
    54
 73
    48
  0
VERTEX
  5
10E
  8
0
 62
     9
 10
0.0
 20
0.0
 30
0.0
 70
   128
 71
    45
 72
    54
 73
    43
  0
VERTEX
  5
10F
  8
0
 62
     9
 10
0.0
 20
0.0
 30
0.0
 70
   128
 71
    45
 72
    48
 73
    54
  0
VERTEX
  5
110
  8
0
 62
     9
 10
0.0
 20
0.0
 30
0.0
 70
   128
 71
    55
 72
    80
 73
    42
  0
VERTEX
  5
111
  8
0
 62
     9
 10
0.0
 20
0.0
 30
0.0
 70
   128
 71
    54
 72
    55
 73
    43
  0
VERTEX
  5
112
  8
0
 62
     9
 10
0.0
 20
0.0
 30
0.0
 70
   128
 71
    42
 72
    80
 73
    58
  0
VERTEX
  5
113
  8
0
 62
     9
 10
0.0
 20
0.0
 30
0.0
 70
   128
 71
    71
 72
    70
 73
    61
  0
VERTEX
  5
114
  8
0
 62
     9
 10
0.0
 20
0.0
 30
0.0
 70
   128
 71
    58
 72
    71
 73
    61
  0
VERTEX
  5
115
  8
0
 62
     9
 10
0.0
 20
0.0
 30
0.0
 70
   128
 71
    63
 72
    70
 73
    69
  0
VERTEX
  5
116
  8
0
 62
     9
 10
0.0
 20
0.0
 30
0.0
 70
   128
 71
    70
 72
    63
 73
    61
  0
VERTEX
  5
117
  8
0
 62
     9
 10
0.0
 20
0.0
 30
0.0
 70
   128
 71
    69
 72
    74
 73
    64
  0
VERTEX
  5
118
  8
0
 62
     9
 10
0.0
 20
0.0
 30
0.0
 70
   128
 71
    72
 72
    67
 73
    74
  0
VERTEX
  5
119
  8
0
 62
     9
 10
0.0
 20
0.0
 30
0.0
 70
   128
 71
    64
 72
    74
 73
    67
  0
VERTEX
  5
11A
  8
0
 62
     9
 10
0.0
 20
0.0
 30
0.0
 70
   128
 71
    72
 72
    73
 73
    68
  0
VERTEX
  5
11B
  8
0
 62
     9
 10
0.0
 20
0.0
 30
0.0
 70
   128
 71
    68
 72
    67
 73
    72
  0
VERTEX
  5
11C
  8
0
 62
     9
 10
0.0
 20
0.0
 30
0.0
 70
   128
 71
    79
 72
    76
 73
    75
  0
VERTEX
  5
11D
  8
0
 62
     9
 10
0.0
 20
0.0
 30
0.0
 70
   128
 71
    75
 72
    77
 73
    79
  0
VERTEX
  5
11E
  8
0
 62
     9
 10
0.0
 20
0.0
 30
0.0
 70
   128
 71
    78
 72
    79
 73
    77
  0
VERTEX
  5
11F
  8
0
 62
     9
 10
0.0
 20
0.0
 30
0.0
 70
   128
 71
    73
 72
    79
 73
    68
  0
VERTEX
  5
120
  8
0
 62
     9
 10
0.0
 20
0.0
 30
0.0
 70
   128
 71
    76
 72
    79
 73
    73
  0
VERTEX
  5
121
  8
0
 62
     9
 10
0.0
 20
0.0
 30
0.0
 70
   128
 71
    82
 72
    81
 73
    46
  0
VERTEX
  5
122
  8
0
 62
     9
 10
0.0
 20
0.0
 30
0.0
 70
   128
 71
    53
 72
    52
 73
    83
  0
VERTEX
  5
123
  8
0
 62
     9
 10
0.0
 20
0.0
 30
0.0
 70
   128
 71
    56
 72
    53
 73
    83
  0
VERTEX
  5
124
  8
0
 62
     9
 10
0.0
 20
0.0
 30
0.0
 70
   128
 71
    56
 72
    84
 73
    19
  0
VERTEX
  5
125
  8
0
 62
     9
 10
0.0
 20
0.0
 30
0.0
 70
   128
 71
    86
 72
    82
 73
    85
  0
VERTEX
  5
126
  8
0
 62
     9
 10
0.0
 20
0.0
 30
0.0
 70
   128
 71
    52
 72
    50
 73
    87
  0
VERTEX
  5
127
  8
0
 62
     9
 10
0.0
 20
0.0
 30
0.0
 70
   128
 71
    59
 72
    60
 73
    88
  0
VERTEX
  5
128
  8
0
 62
     9
 10
0.0
 20
0.0
 30
0.0
 70
   128
 71
    59
 72
    88
 73
    85
  0
VERTEX
  5
129
  8
0
 62
     9
 10
0.0
 20
0.0
 30
0.0
 70
   128
 71
    90
 72
    65
 73
    89
  0
VERTEX
  5
12A
  8
0
 62
     9
 10
0.0
 20
0.0
 30
0.0
 70
   128
 71
    90
 72
    88
 73
    62
  0
VERTEX
  5
12B
  8
0
 62
     9
 10
0.0
 20
0.0
 30
0.0
 70
   128
 71
    65
 72
    66
 73
    89
  0
VERTEX
  5
12C
  8
0
 62
     9
 10
0.0
 20
0.0
 30
0.0
 70
   128
 71
    91
 72
    90
 73
    89
  0
VERTEX
  5
12D
  8
0
 62
     9
 10
0.0
 20
0.0
 30
0.0
 70
   128
 71
    89
 72
    36
 73
    39
  0
VERTEX
  5
12E
  8
0
 62
     9
 10
0.0
 20
0.0
 30
0.0
 70
   128
 71
    39
 72
    91
 73
    89
  0
VERTEX
  5
12F
  8
0
 62
     9
 10
0.0
 20
0.0
 30
0.0
 70
   128
 71
    93
 72
    88
 73
    92
  0
VERTEX
  5
130
  8
0
 62
     9
 10
0.0
 20
0.0
 30
0.0
 70
   128
 71
    66
 72
    38
 73
    36
  0
VERTEX
  5
131
  8
0
 62
     9
 10
0.0
 20
0.0
 30
0.0
 70
   128
 71
    88
 72
    60
 73
    62
  0
VERTEX
  5
132
  8
0
 62
     9
 10
0.0
 20
0.0
 30
0.0
 70
   128
 71
    94
 72
    82
 73
    86
  0
VERTEX
  5
133
  8
0
 62
     9
 10
0.0
 20
0.0
 30
0.0
 70
   128
 71
    88
 72
    93
 73
    85
  0
VERTEX
  5
134
  8
0
 62
     9
 10
0.0
 20
0.0
 30
0.0
 70
   128
 71
    82
 72
    44
 73
    57
  0
VERTEX
  5
135
  8
0
 62
     9
 10
0.0
 20
0.0
 30
0.0
 70
   128
 71
    82
 72
    57
 73
    85
  0
VERTEX
  5
136
  8
0
 62
     9
 10
0.0
 20
0.0
 30
0.0
 70
   128
 71
    81
 72
    47
 73
    46
  0
VERTEX
  5
137
  8
0
 62
     9
 10
0.0
 20
0.0
 30
0.0
 70
   128
 71
    81
 72
    96
 73
    95
  0
VERTEX
  5
138
  8
0
 62
     9
 10
0.0
 20
0.0
 30
0.0
 70
   128
 71
    81
 72
    87
 73
    50
  0
VERTEX
  5
139
  8
0
 62
     9
 10
0.0
 20
0.0
 30
0.0
 70
   128
 71
    47
 72
    81
 73
    50
  0
VERTEX
  5
13A
  8
0
 62
     9
 10
0.0
 20
0.0
 30
0.0
 70
   128
 71
    83
 72
    52
 73
    87
  0
VERTEX
  5
13B
  8
0
 62
     9
 10
0.0
 20
0.0
 30
0.0
 70
   128
 71
    98
 72
    83
 73
    97
  0
VERTEX
  5
13C
  8
0
 62
     9
 10
0.0
 20
0.0
 30
0.0
 70
   128
 71
    19
 72
    84
 73
    20
  0
VERTEX
  5
13D
  8
0
 62
     9
 10
0.0
 20
0.0
 30
0.0
 70
   128
 71
    84
 72
    99
 73
    20
  0
VERTEX
  5
13E
  8
0
 62
     9
 10
0.0
 20
0.0
 30
0.0
 70
   128
 71
    20
 72
    99
 73
    18
  0
VERTEX
  5
13F
  8
0
 62
     9
 10
0.0
 20
0.0
 30
0.0
 70
   128
 71
   100
 72
    90
 73
    91
  0
VERTEX
  5
140
  8
0
 62
     9
 10
0.0
 20
0.0
 30
0.0
 70
   128
 71
    36
 72
    89
 73
    66
  0
VERTEX
  5
141
  8
0
 62
     9
 10
0.0
 20
0.0
 30
0.0
 70
   128
 71
    90
 72
   100
 73
    92
  0
VERTEX
  5
142
  8
0
 62
     9
 10
0.0
 20
0.0
 30
0.0
 70
   128
 71
    65
 72
    90
 73
    62
  0
VERTEX
  5
143
  8
0
 62
     9
 10
0.0
 20
0.0
 30
0.0
 70
   128
 71
    88
 72
    90
 73
    92
  0
VERTEX
  5
144
  8
0
 62
     9
 10
0.0
 20
0.0
 30
0.0
 70
   128
 71
   101
 72
    85
 73
    93
  0
VERTEX
  5
145
  8
0
 62
     9
 10
0.0
 20
0.0
 30
0.0
 70
   128
 71
    85
 72
   101
 73
    86
  0
VERTEX
  5
146
  8
0
 62
     9
 10
0.0
 20
0.0
 30
0.0
 70
   128
 71
    59
 72
    85
 73
    57
  0
VERTEX
  5
147
  8
0
 62
     9
 10
0.0
 20
0.0
 30
0.0
 70
   128
 71
    82
 72
    94
 73
    96
  0
VERTEX
  5
148
  8
0
 62
     9
 10
0.0
 20
0.0
 30
0.0
 70
   128
 71
    44
 72
    82
 73
    46
  0
VERTEX
  5
149
  8
0
 62
     9
 10
0.0
 20
0.0
 30
0.0
 70
   128
 71
    81
 72
    82
 73
    96
  0
VERTEX
  5
14A
  8
0
 62
     9
 10
0.0
 20
0.0
 30
0.0
 70
   128
 71
   102
 72
    87
 73
    95
  0
VERTEX
  5
14B
  8
0
 62
     9
 10
0.0
 20
0.0
 30
0.0
 70
   128
 71
    87
 72
    81
 73
    95
  0
VERTEX
  5
14C
  8
0
 62
     9
 10
0.0
 20
0.0
 30
0.0
 70
   128
 71
    87
 72
   102
 73
    97
  0
VERTEX
  5
14D
  8
0
 62
     9
 10
0.0
 20
0.0
 30
0.0
 70
   128
 71
    83
 72
    87
 73
    97
  0
VERTEX
  5
14E
  8
0
 62
     9
 10
0.0
 20
0.0
 30
0.0
 70
   128
 71
    99
 72
    84
 73
    98
  0
VERTEX
  5
14F
  8
0
 62
     9
 10
0.0
 20
0.0
 30
0.0
 70
   128
 71
    84
 72
    83
 73
    98
  0
VERTEX
  5
150
  8
0
 62
     9
 10
0.0
 20
0.0
 30
0.0
 70
   128
 71
    83
 72
    84
 73
    56
  0
SEQEND
  5
151
  8
0
 62
     9
  0
ENDBLK
  5
155
  8
0
  0
BLOCK
  8
0
  2
39
 70
     0
 10
0.0
 20
0.0
 30
0.0
  3
39
  1

  0
POLYLINE
  5
157
  8
0
 62
     9
 66
     1
 10
0.0
 20
0.0
 30
0.0
 70
    64
 71
   169
 72
   334
  0
VERTEX
  5
158
  8
0
 10
-33.27299118041992
 20
-0.0000000000003024
 30
67.70001983642578
 70
   192
  0
VERTEX
  5
159
  8
0
 10
-34.10160446166992
 20
1.5066237449646
 30
67.05721282958984
 70
   192
  0
VERTEX
  5
15A
  8
0
 10
-34.54024124145508
 20
1.022641062736511
 30
66.85267639160156
 70
   192
  0
VERTEX
  5
15B
  8
0
 10
-35.34135818481445
 20
1.579189419746399
 30
56.2581901550293
 70
   192
  0
VERTEX
  5
15C
  8
0
 10
-33.7127799987793
 20
1.363882541656494
 30
54.93042755126953
 70
   192
  0
VERTEX
  5
15D
  8
0
 10
-35.1845817565918
 20
-0.0000000000038644
 30
55.90658569335938
 70
   192
  0
VERTEX
  5
15E
  8
0
 10
-31.49082183837891
 20
4.926002025604248
 30
55.96654510498047
 70
   192
  0
VERTEX
  5
15F
  8
0
 10
-31.355224609375
 20
2.760141134262085
 30
54.52622222900391
 70
   192
  0
VERTEX
  5
160
  8
0
 10
-32.92497634887695
 20
3.343589782714844
 30
55.29778671264648
 70
   192
  0
VERTEX
  5
161
  8
0
 10
-33.77857208251953
 20
-0.0000000000019656
 30
54.84540557861328
 70
   192
  0
VERTEX
  5
162
  8
0
 10
-32.16565322875977
 20
-0.0000000000002935
 30
54.1483154296875
 70
   192
  0
VERTEX
  5
163
  8
0
 10
-34.4291877746582
 20
3.871419668197632
 30
56.68354034423828
 70
   192
  0
VERTEX
  5
164
  8
0
 10
-31.93279075622559
 20
5.994140625
 30
64.82595825195312
 70
   192
  0
VERTEX
  5
165
  8
0
 10
-32.68495559692383
 20
6.617640495300293
 30
62.75379180908203
 70
   192
  0
VERTEX
  5
166
  8
0
 10
-33.3332405090332
 20
5.400712966918945
 30
64.82171630859375
 70
   192
  0
VERTEX
  5
167
  8
0
 10
-35.67684936523438
 20
4.07145881652832
 30
58.66181945800781
 70
   192
  0
VERTEX
  5
168
  8
0
 10
-36.37146377563477
 20
3.818071603775024
 30
61.03474426269531
 70
   192
  0
VERTEX
  5
169
  8
0
 10
-34.73379516601562
 20
5.625040531158447
 30
61.79840469360352
 70
   192
  0
VERTEX
  5
16A
  8
0
 10
-35.65141296386719
 20
2.115223407745361
 30
65.42679595947266
 70
   192
  0
VERTEX
  5
16B
  8
0
 10
-36.34183120727539
 20
3.115960836410522
 30
63.41878509521484
 70
   192
  0
VERTEX
  5
16C
  8
0
 10
-34.74413681030273
 20
3.116289615631104
 30
65.84986877441406
 70
   192
  0
VERTEX
  5
16D
  8
0
 10
-36.14979553222656
 20
0.8628199696540833
 30
65.19439697265625
 70
   192
  0
VERTEX
  5
16E
  8
0
 10
-34.78119277954102
 20
0.417145162820816
 30
66.74031829833984
 70
   192
  0
VERTEX
  5
16F
  8
0
 10
-31.74568557739258
 20
7.056821823120117
 30
60.49495315551758
 70
   192
  0
VERTEX
  5
170
  8
0
 10
-30.54928398132324
 20
7.205164432525635
 30
61.85901641845703
 70
   192
  0
VERTEX
  5
171
  8
0
 10
-29.80783462524414
 20
7.174371719360352
 30
60.26897430419922
 70
   192
  0
VERTEX
  5
172
  8
0
 10
-33.55283737182617
 20
1.772484064102173
 30
67.3131103515625
 70
   192
  0
VERTEX
  5
173
  8
0
 10
-33.17328262329102
 20
1.74120032787323
 30
67.48619842529297
 70
   192
  0
VERTEX
  5
174
  8
0
 10
-33.60907363891602
 20
3.666193008422852
 30
66.37915802001953
 70
   192
  0
VERTEX
  5
175
  8
0
 10
-32.90181350708008
 20
3.381434440612793
 30
66.90403747558594
 70
   192
  0
VERTEX
  5
176
  8
0
 10
-32.49136734008789
 20
4.838334560394287
 30
66.0238265991211
 70
   192
  0
VERTEX
  5
177
  8
0
 10
-37.27106857299805
 20
1.557428240776062
 30
60.61525344848633
 70
   192
  0
VERTEX
  5
178
  8
0
 10
-36.63615417480469
 20
1.660787224769592
 30
58.2144889831543
 70
   192
  0
VERTEX
  5
179
  8
0
 10
-37.07600402832031
 20
1.271030426025391
 30
63.07643508911133
 70
   192
  0
VERTEX
  5
17A
  8
0
 10
-30.6911678314209
 20
6.710105895996094
 30
58.42660903930664
 70
   192
  0
VERTEX
  5
17B
  8
0
 10
-33.93049621582031
 20
5.998347282409668
 30
59.47615814208984
 70
   192
  0
VERTEX
  5
17C
  8
0
 10
-29.69659805297852
 20
5.795248985290527
 30
56.80320358276367
 70
   192
  0
VERTEX
  5
17D
  8
0
 10
-29.21518898010254
 20
4.489110946655273
 30
55.52413940429688
 70
   192
  0
VERTEX
  5
17E
  8
0
 10
-30.41151809692383
 20
3.810697317123413
 30
54.96628189086914
 70
   192
  0
VERTEX
  5
17F
  8
0
 10
-27.88460731506348
 20
4.723610877990723
 30
56.14459991455078
 70
   192
  0
VERTEX
  5
180
  8
0
 10
-35.97248840332031
 20
-0.0000000000063918
 30
65.49413299560547
 70
   192
  0
VERTEX
  5
181
  8
0
 10
-34.76554107666016
 20
-0.0000000000038876
 30
66.7742919921875
 70
   192
  0
VERTEX
  5
182
  8
0
 10
-35.00531387329102
 20
4.590643405914307
 30
64.0420150756836
 70
   192
  0
VERTEX
  5
183
  8
0
 10
-36.86097717285156
 20
-0.0000000000079202
 30
63.97955703735352
 70
   192
  0
VERTEX
  5
184
  8
0
 10
-31.27344703674316
 20
6.798437118530273
 30
63.41199111938477
 70
   192
  0
VERTEX
  5
185
  8
0
 10
-37.36411285400391
 20
-0.0000000000085207
 30
62.29854965209961
 70
   192
  0
VERTEX
  5
186
  8
0
 10
-37.08152770996094
 20
-0.0000000000072309
 30
58.81953430175781
 70
   192
  0
VERTEX
  5
187
  8
0
 10
-37.4349250793457
 20
-0.0000000000082268
 30
60.53884887695312
 70
   192
  0
VERTEX
  5
188
  8
0
 10
-29.09016036987305
 20
6.727611064910889
 30
58.72991561889648
 70
   192
  0
VERTEX
  5
189
  8
0
 10
-36.32531356811523
 20
-0.0000000000057036
 30
57.23493957519531
 70
   192
  0
VERTEX
  5
18A
  8
0
 10
-32.76863479614258
 20
5.703636646270752
 30
57.45787048339844
 70
   192
  0
VERTEX
  5
18B
  8
0
 10
-28.43155479431152
 20
5.910940647125244
 30
57.31753158569336
 70
   192
  0
VERTEX
  5
18C
  8
0
 10
-31.95312309265137
 20
1.468133926391602
 30
54.24741744995117
 70
   192
  0
VERTEX
  5
18D
  8
0
 10
-31.80931091308594
 20
1.022641062736511
 30
68.12612915039062
 70
   192
  0
VERTEX
  5
18E
  8
0
 10
-32.24794769287109
 20
1.5066237449646
 30
67.92159271240234
 70
   192
  0
VERTEX
  5
18F
  8
0
 10
-27.82870483398438
 20
6.710105895996094
 30
59.76139450073242
 70
   192
  0
VERTEX
  5
190
  8
0
 10
-27.22440338134766
 20
5.795248985290527
 30
57.95600891113281
 70
   192
  0
VERTEX
  5
191
  8
0
 10
-23.99602699279785
 20
3.343589782714844
 30
59.46142578125
 70
   192
  0
VERTEX
  5
192
  8
0
 10
-25.38307189941406
 20
3.829397678375244
 30
57.31108474731445
 70
   192
  0
VERTEX
  5
193
  8
0
 10
-25.43017959594727
 20
4.926002025604248
 30
58.79266738891602
 70
   192
  0
VERTEX
  5
194
  8
0
 10
-25.7512378692627
 20
5.703636646270752
 30
60.73013305664062
 70
   192
  0
VERTEX
  5
195
  8
0
 10
-26.50025367736816
 20
0.0000000000702594
 30
67.35919189453125
 70
   192
  0
VERTEX
  5
196
  8
0
 10
-25.27582931518555
 20
1.557428240776062
 30
66.20872497558594
 70
   192
  0
VERTEX
  5
197
  8
0
 10
-27.28658676147461
 20
1.271030426025391
 30
67.64131164550781
 70
   192
  0
VERTEX
  5
198
  8
0
 10
-26.55050659179688
 20
5.998347282409668
 30
62.91750335693359
 70
   192
  0
VERTEX
  5
199
  8
0
 10
-27.8130989074707
 20
5.625040531158447
 30
65.02558135986328
 70
   192
  0
VERTEX
  5
19A
  8
0
 10
-26.17543029785156
 20
3.818071603775024
 30
65.78923797607422
 70
   192
  0
VERTEX
  5
19B
  8
0
 10
-30.9100513458252
 20
3.116289615631104
 30
67.63773345947266
 70
   192
  0
VERTEX
  5
19C
  8
0
 10
-29.35727500915527
 20
4.590643405914307
 30
66.67573547363281
 70
   192
  0
VERTEX
  5
19D
  8
0
 10
-30.00277709960938
 20
2.115223407745361
 30
68.06079864501953
 70
   192
  0
VERTEX
  5
19E
  8
0
 10
-32.04511642456055
 20
3.666193008422852
 30
67.10844421386719
 70
   192
  0
VERTEX
  5
19F
  8
0
 10
-32.79671478271484
 20
1.772484064102173
 30
67.66569519042969
 70
   192
  0
VERTEX
  5
1A0
  8
0
 10
-23.8448486328125
 20
1.660787224769592
 30
64.1791763305664
 70
   192
  0
VERTEX
  5
1A1
  8
0
 10
-24.01918792724609
 20
0.0000000000591505
 30
64.904052734375
 70
   192
  0
VERTEX
  5
1A2
  8
0
 10
-23.30564498901367
 20
0.0000000000459345
 30
63.30099487304688
 70
   192
  0
VERTEX
  5
1A3
  8
0
 10
-31.568359375
 20
0.417145162820816
 30
68.23848724365234
 70
   192
  0
VERTEX
  5
1A4
  8
0
 10
-31.5952205657959
 20
0.00000000002999
 30
68.22206115722656
 70
   192
  0
VERTEX
  5
1A5
  8
0
 10
-29.50439643859863
 20
0.8628199696540833
 30
68.29319763183594
 70
   192
  0
VERTEX
  5
1A6
  8
0
 10
-29.83719444274902
 20
0.000000000051549
 30
68.33309173583984
 70
   192
  0
VERTEX
  5
1A7
  8
0
 10
-28.10634803771973
 20
0.0000000000653817
 30
68.06859588623047
 70
   192
  0
VERTEX
  5
1A8
  8
0
 10
-29.8619384765625
 20
6.617640495300293
 30
64.0701904296875
 70
   192
  0
VERTEX
  5
1A9
  8
0
 10
-28.73531723022461
 20
7.056821823120117
 30
61.89870834350586
 70
   192
  0
VERTEX
  5
1AA
  8
0
 10
-31.02935028076172
 20
5.400712966918945
 30
65.89603424072266
 70
   192
  0
VERTEX
  5
1AB
  8
0
 10
-23.17851448059082
 20
1.579189419746399
 30
61.92981338500977
 70
   192
  0
VERTEX
  5
1AC
  8
0
 10
-24.80415344238281
 20
4.07145881652832
 30
63.73184204101562
 70
   192
  0
VERTEX
  5
1AD
  8
0
 10
-23.20822143554688
 20
1.363882541656494
 30
59.82878494262695
 70
   192
  0
VERTEX
  5
1AE
  8
0
 10
-23.81609916687012
 20
1.468130230903625
 30
58.04177474975586
 70
   192
  0
VERTEX
  5
1AF
  8
0
 10
-24.43094444274902
 20
2.788137435913086
 30
57.75506973266602
 70
   192
  0
VERTEX
  5
1B0
  8
0
 10
-23.60356140136719
 20
-0.0000000000003011
 30
58.14088439941406
 70
   192
  0
VERTEX
  5
1B1
  8
0
 10
-28.0207576751709
 20
3.115960836410522
 30
67.29896545410156
 70
   192
  0
VERTEX
  5
1B2
  8
0
 10
-25.11197090148926
 20
0.0000000000678238
 30
66.2851333618164
 70
   192
  0
VERTEX
  5
1B3
  8
0
 10
-22.99287414550781
 20
0.0000000000300186
 30
61.57312774658203
 70
   192
  0
VERTEX
  5
1B4
  8
0
 10
-24.0906867980957
 20
3.871419668197632
 30
61.50446319580078
 70
   192
  0
VERTEX
  5
1B5
  8
0
 10
-23.07442283630371
 20
0.0000000000138913
 30
59.81560516357422
 70
   192
  0
VERTEX
  5
1B6
  8
0
 10
-26.55402946472168
 20
4.489101886749268
 30
56.76505661010742
 70
   192
  0
VERTEX
  5
1B7
  8
0
 10
-32.24794769287109
 20
-1.5066237449646
 30
67.92159271240234
 70
   192
  0
VERTEX
  5
1B8
  8
0
 10
-31.80931091308594
 20
-1.022641062736511
 30
68.12612915039062
 70
   192
  0
VERTEX
  5
1B9
  8
0
 10
-23.17851448059082
 20
-1.579189419746399
 30
61.92981338500977
 70
   192
  0
VERTEX
  5
1BA
  8
0
 10
-23.20822143554688
 20
-1.363882541656494
 30
59.82878494262695
 70
   192
  0
VERTEX
  5
1BB
  8
0
 10
-25.43017959594727
 20
-4.926002025604248
 30
58.79266738891602
 70
   192
  0
VERTEX
  5
1BC
  8
0
 10
-24.41399383544922
 20
-2.760138750076294
 30
57.76297378540039
 70
   192
  0
VERTEX
  5
1BD
  8
0
 10
-23.99602699279785
 20
-3.343589782714844
 30
59.46142578125
 70
   192
  0
VERTEX
  5
1BE
  8
0
 10
-24.0906867980957
 20
-3.871419668197632
 30
61.50446319580078
 70
   192
  0
VERTEX
  5
1BF
  8
0
 10
-31.93279075622559
 20
-5.994140625
 30
64.82595825195312
 70
   192
  0
VERTEX
  5
1C0
  8
0
 10
-29.8619384765625
 20
-6.617640495300293
 30
64.0701904296875
 70
   192
  0
VERTEX
  5
1C1
  8
0
 10
-31.02935028076172
 20
-5.400712966918945
 30
65.89603424072266
 70
   192
  0
VERTEX
  5
1C2
  8
0
 10
-24.80415344238281
 20
-4.07145881652832
 30
63.73184204101562
 70
   192
  0
VERTEX
  5
1C3
  8
0
 10
-26.17543029785156
 20
-3.818071603775024
 30
65.78923797607422
 70
   192
  0
VERTEX
  5
1C4
  8
0
 10
-27.8130989074707
 20
-5.625040531158447
 30
65.02558135986328
 70
   192
  0
VERTEX
  5
1C5
  8
0
 10
-30.00277709960938
 20
-2.115223407745361
 30
68.06079864501953
 70
   192
  0
VERTEX
  5
1C6
  8
0
 10
-28.0207576751709
 20
-3.115960836410522
 30
67.29896545410156
 70
   192
  0
VERTEX
  5
1C7
  8
0
 10
-30.9100513458252
 20
-3.116289615631104
 30
67.63773345947266
 70
   192
  0
VERTEX
  5
1C8
  8
0
 10
-29.50439643859863
 20
-0.8628199696540833
 30
68.29319763183594
 70
   192
  0
VERTEX
  5
1C9
  8
0
 10
-31.568359375
 20
-0.417145162820816
 30
68.23848724365234
 70
   192
  0
VERTEX
  5
1CA
  8
0
 10
-28.73531723022461
 20
-7.056821823120117
 30
61.89870834350586
 70
   192
  0
VERTEX
  5
1CB
  8
0
 10
-30.54928398132324
 20
-7.205164432525635
 30
61.85901641845703
 70
   192
  0
VERTEX
  5
1CC
  8
0
 10
-29.80783462524414
 20
-7.174371719360352
 30
60.26897430419922
 70
   192
  0
VERTEX
  5
1CD
  8
0
 10
-32.79671478271484
 20
-1.772484064102173
 30
67.66569519042969
 70
   192
  0
VERTEX
  5
1CE
  8
0
 10
-33.17328262329102
 20
-1.74120032787323
 30
67.48619842529297
 70
   192
  0
VERTEX
  5
1CF
  8
0
 10
-32.04511642456055
 20
-3.666193008422852
 30
67.10844421386719
 70
   192
  0
VERTEX
  5
1D0
  8
0
 10
-32.90181350708008
 20
-3.381434440612793
 30
66.90403747558594
 70
   192
  0
VERTEX
  5
1D1
  8
0
 10
-32.49136734008789
 20
-4.838334560394287
 30
66.0238265991211
 70
   192
  0
VERTEX
  5
1D2
  8
0
 10
-25.27582931518555
 20
-1.557428240776062
 30
66.20872497558594
 70
   192
  0
VERTEX
  5
1D3
  8
0
 10
-23.8448486328125
 20
-1.660787224769592
 30
64.1791763305664
 70
   192
  0
VERTEX
  5
1D4
  8
0
 10
-27.28658676147461
 20
-1.271030426025391
 30
67.64131164550781
 70
   192
  0
VERTEX
  5
1D5
  8
0
 10
-27.82870483398438
 20
-6.710105895996094
 30
59.76139450073242
 70
   192
  0
VERTEX
  5
1D6
  8
0
 10
-26.55050659179688
 20
-5.998347282409668
 30
62.91750335693359
 70
   192
  0
VERTEX
  5
1D7
  8
0
 10
-27.22440338134766
 20
-5.795248985290527
 30
57.95600891113281
 70
   192
  0
VERTEX
  5
1D8
  8
0
 10
-26.55402946472168
 20
-4.489101886749268
 30
56.76505661010742
 70
   192
  0
VERTEX
  5
1D9
  8
0
 10
-25.35769653320312
 20
-3.810695171356201
 30
57.32291793823242
 70
   192
  0
VERTEX
  5
1DA
  8
0
 10
-27.88460731506348
 20
-4.723610877990723
 30
56.14459991455078
 70
   192
  0
VERTEX
  5
1DB
  8
0
 10
-29.35727500915527
 20
-4.590643405914307
 30
66.67573547363281
 70
   192
  0
VERTEX
  5
1DC
  8
0
 10
-31.27344703674316
 20
-6.798437118530273
 30
63.41199111938477
 70
   192
  0
VERTEX
  5
1DD
  8
0
 10
-29.09016036987305
 20
-6.727611064910889
 30
58.72991561889648
 70
   192
  0
VERTEX
  5
1DE
  8
0
 10
-25.7512378692627
 20
-5.703636646270752
 30
60.73013305664062
 70
   192
  0
VERTEX
  5
1DF
  8
0
 10
-28.43155479431152
 20
-5.910940647125244
 30
57.31753158569336
 70
   192
  0
VERTEX
  5
1E0
  8
0
 10
-23.81609916687012
 20
-1.468130230903625
 30
58.04177474975586
 70
   192
  0
VERTEX
  5
1E1
  8
0
 10
-33.93049621582031
 20
-5.998347282409668
 30
59.47615814208984
 70
   192
  0
VERTEX
  5
1E2
  8
0
 10
-34.73379516601562
 20
-5.625040531158447
 30
61.79840469360352
 70
   192
  0
VERTEX
  5
1E3
  8
0
 10
-36.37146377563477
 20
-3.818071603775024
 30
61.03474426269531
 70
   192
  0
VERTEX
  5
1E4
  8
0
 10
-34.54024124145508
 20
-1.022641062736511
 30
66.85267639160156
 70
   192
  0
VERTEX
  5
1E5
  8
0
 10
-34.74413681030273
 20
-3.116289615631104
 30
65.84986877441406
 70
   192
  0
VERTEX
  5
1E6
  8
0
 10
-34.10160446166992
 20
-1.5066237449646
 30
67.05721282958984
 70
   192
  0
VERTEX
  5
1E7
  8
0
 10
-36.63615417480469
 20
-1.660787224769592
 30
58.2144889831543
 70
   192
  0
VERTEX
  5
1E8
  8
0
 10
-35.34135818481445
 20
-1.579189419746399
 30
56.2581901550293
 70
   192
  0
VERTEX
  5
1E9
  8
0
 10
-29.69659805297852
 20
-5.795248985290527
 30
56.80320358276367
 70
   192
  0
VERTEX
  5
1EA
  8
0
 10
-30.6911678314209
 20
-6.710105895996094
 30
58.42660903930664
 70
   192
  0
VERTEX
  5
1EB
  8
0
 10
-32.76863479614258
 20
-5.703636646270752
 30
57.45787048339844
 70
   192
  0
VERTEX
  5
1EC
  8
0
 10
-35.67684936523438
 20
-4.07145881652832
 30
58.66181945800781
 70
   192
  0
VERTEX
  5
1ED
  8
0
 10
-33.7127799987793
 20
-1.363882541656494
 30
54.93042755126953
 70
   192
  0
VERTEX
  5
1EE
  8
0
 10
-32.92497634887695
 20
-3.343589782714844
 30
55.29778671264648
 70
   192
  0
VERTEX
  5
1EF
  8
0
 10
-31.95312309265137
 20
-1.468133926391602
 30
54.24741744995117
 70
   192
  0
VERTEX
  5
1F0
  8
0
 10
-31.33827209472656
 20
-2.788137435913086
 30
54.53413009643555
 70
   192
  0
VERTEX
  5
1F1
  8
0
 10
-30.38614463806152
 20
-3.829403638839722
 30
54.97811126708984
 70
   192
  0
VERTEX
  5
1F2
  8
0
 10
-31.49082183837891
 20
-4.926002025604248
 30
55.96654510498047
 70
   192
  0
VERTEX
  5
1F3
  8
0
 10
-31.74568557739258
 20
-7.056821823120117
 30
60.49495315551758
 70
   192
  0
VERTEX
  5
1F4
  8
0
 10
-32.68495559692383
 20
-6.617640495300293
 30
62.75379180908203
 70
   192
  0
VERTEX
  5
1F5
  8
0
 10
-37.27106857299805
 20
-1.557428240776062
 30
60.61525344848633
 70
   192
  0
VERTEX
  5
1F6
  8
0
 10
-37.07600402832031
 20
-1.271030426025391
 30
63.07643508911133
 70
   192
  0
VERTEX
  5
1F7
  8
0
 10
-33.3332405090332
 20
-5.400712966918945
 30
64.82171630859375
 70
   192
  0
VERTEX
  5
1F8
  8
0
 10
-35.00531387329102
 20
-4.590643405914307
 30
64.0420150756836
 70
   192
  0
VERTEX
  5
1F9
  8
0
 10
-36.14979553222656
 20
-0.8628199696540833
 30
65.19439697265625
 70
   192
  0
VERTEX
  5
1FA
  8
0
 10
-35.65141296386719
 20
-2.115223407745361
 30
65.42679595947266
 70
   192
  0
VERTEX
  5
1FB
  8
0
 10
-33.60907363891602
 20
-3.666193008422852
 30
66.37915802001953
 70
   192
  0
VERTEX
  5
1FC
  8
0
 10
-33.55283737182617
 20
-1.772484064102173
 30
67.3131103515625
 70
   192
  0
VERTEX
  5
1FD
  8
0
 10
-34.78119277954102
 20
-0.417145162820816
 30
66.74031829833984
 70
   192
  0
VERTEX
  5
1FE
  8
0
 10
-36.34183120727539
 20
-3.115960836410522
 30
63.41878509521484
 70
   192
  0
VERTEX
  5
1FF
  8
0
 10
-34.4291877746582
 20
-3.871419668197632
 30
56.68354034423828
 70
   192
  0
VERTEX
  5
200
  8
0
 10
-29.21518898010254
 20
-4.489110946655273
 30
55.52413940429688
 70
   192
  0
VERTEX
  5
201
  8
0
 62
     9
 10
0.0
 20
0.0
 30
0.0
 70
   128
 71
     3
 72
     2
 73
     1
  0
VERTEX
  5
202
  8
0
 62
     9
 10
0.0
 20
0.0
 30
0.0
 70
   128
 71
     6
 72
     5
 73
     4
  0
VERTEX
  5
203
  8
0
 62
     9
 10
0.0
 20
0.0
 30
0.0
 70
   128
 71
     9
 72
     8
 73
     7
  0
VERTEX
  5
204
  8
0
 62
     9
 10
0.0
 20
0.0
 30
0.0
 70
   128
 71
    11
 72
     5
 73
    10
  0
VERTEX
  5
205
  8
0
 62
     9
 10
0.0
 20
0.0
 30
0.0
 70
   128
 71
    12
 72
     4
 73
     5
  0
VERTEX
  5
206
  8
0
 62
     9
 10
0.0
 20
0.0
 30
0.0
 70
   128
 71
    15
 72
    14
 73
    13
  0
VERTEX
  5
207
  8
0
 62
     9
 10
0.0
 20
0.0
 30
0.0
 70
   128
 71
    18
 72
    17
 73
    16
  0
VERTEX
  5
208
  8
0
 62
     9
 10
0.0
 20
0.0
 30
0.0
 70
   128
 71
     2
 72
     3
 73
    19
  0
VERTEX
  5
209
  8
0
 62
     9
 10
0.0
 20
0.0
 30
0.0
 70
   128
 71
    21
 72
    19
 73
    20
  0
VERTEX
  5
20A
  8
0
 62
     9
 10
0.0
 20
0.0
 30
0.0
 70
   128
 71
    23
 72
    22
 73
     3
  0
VERTEX
  5
20B
  8
0
 62
     9
 10
0.0
 20
0.0
 30
0.0
 70
   128
 71
    26
 72
    25
 73
    24
  0
VERTEX
  5
20C
  8
0
 62
     9
 10
0.0
 20
0.0
 30
0.0
 70
   128
 71
    28
 72
     1
 73
    27
  0
VERTEX
  5
20D
  8
0
 62
     9
 10
0.0
 20
0.0
 30
0.0
 70
   128
 71
    31
 72
    30
 73
    29
  0
VERTEX
  5
20E
  8
0
 62
     9
 10
0.0
 20
0.0
 30
0.0
 70
   128
 71
    15
 72
    31
 73
    29
  0
VERTEX
  5
20F
  8
0
 62
     9
 10
0.0
 20
0.0
 30
0.0
 70
   128
 71
    27
 72
     1
 73
     2
  0
VERTEX
  5
210
  8
0
 62
     9
 10
0.0
 20
0.0
 30
0.0
 70
   128
 71
    33
 72
    17
 73
    32
  0
VERTEX
  5
211
  8
0
 62
     9
 10
0.0
 20
0.0
 30
0.0
 70
   128
 71
    34
 72
    32
 73
    20
  0
VERTEX
  5
212
  8
0
 62
     9
 10
0.0
 20
0.0
 30
0.0
 70
   128
 71
    35
 72
    26
 73
    24
  0
VERTEX
  5
213
  8
0
 62
     9
 10
0.0
 20
0.0
 30
0.0
 70
   128
 71
    25
 72
    14
 73
    24
  0
VERTEX
  5
214
  8
0
 62
     9
 10
0.0
 20
0.0
 30
0.0
 70
   128
 71
    12
 72
    36
 73
    16
  0
VERTEX
  5
215
  8
0
 62
     9
 10
0.0
 20
0.0
 30
0.0
 70
   128
 71
     7
 72
    37
 73
    35
  0
VERTEX
  5
216
  8
0
 62
     9
 10
0.0
 20
0.0
 30
0.0
 70
   128
 71
    37
 72
     7
 73
    38
  0
VERTEX
  5
217
  8
0
 62
     9
 10
0.0
 20
0.0
 30
0.0
 70
   128
 71
     7
 72
    39
 73
    38
  0
VERTEX
  5
218
  8
0
 62
     9
 10
0.0
 20
0.0
 30
0.0
 70
   128
 71
    40
 72
    37
 73
    38
  0
VERTEX
  5
219
  8
0
 62
     9
 10
0.0
 20
0.0
 30
0.0
 70
   128
 71
    28
 72
    27
 73
    30
  0
VERTEX
  5
21A
  8
0
 62
     9
 10
0.0
 20
0.0
 30
0.0
 70
   128
 71
    30
 72
    27
 73
    29
  0
VERTEX
  5
21B
  8
0
 62
     9
 10
0.0
 20
0.0
 30
0.0
 70
   128
 71
    23
 72
     3
 73
     1
  0
VERTEX
  5
21C
  8
0
 62
     9
 10
0.0
 20
0.0
 30
0.0
 70
   128
 71
    27
 72
     2
 73
    21
  0
VERTEX
  5
21D
  8
0
 62
     9
 10
0.0
 20
0.0
 30
0.0
 70
   128
 71
    22
 72
    19
 73
     3
  0
VERTEX
  5
21E
  8
0
 62
     9
 10
0.0
 20
0.0
 30
0.0
 70
   128
 71
    23
 72
    42
 73
    41
  0
VERTEX
  5
21F
  8
0
 62
     9
 10
0.0
 20
0.0
 30
0.0
 70
   128
 71
    42
 72
    23
 73
     1
  0
VERTEX
  5
220
  8
0
 62
     9
 10
0.0
 20
0.0
 30
0.0
 70
   128
 71
    29
 72
    27
 73
    21
  0
VERTEX
  5
221
  8
0
 62
     9
 10
0.0
 20
0.0
 30
0.0
 70
   128
 71
    31
 72
    15
 73
    13
  0
VERTEX
  5
222
  8
0
 62
     9
 10
0.0
 20
0.0
 30
0.0
 70
   128
 71
    22
 72
    34
 73
    19
  0
VERTEX
  5
223
  8
0
 62
     9
 10
0.0
 20
0.0
 30
0.0
 70
   128
 71
     2
 72
    19
 73
    21
  0
VERTEX
  5
224
  8
0
 62
     9
 10
0.0
 20
0.0
 30
0.0
 70
   128
 71
    29
 72
    21
 73
    43
  0
VERTEX
  5
225
  8
0
 62
     9
 10
0.0
 20
0.0
 30
0.0
 70
   128
 71
    41
 72
    22
 73
    23
  0
VERTEX
  5
226
  8
0
 62
     9
 10
0.0
 20
0.0
 30
0.0
 70
   128
 71
    34
 72
    20
 73
    19
  0
VERTEX
  5
227
  8
0
 62
     9
 10
0.0
 20
0.0
 30
0.0
 70
   128
 71
    22
 72
    41
 73
    44
  0
VERTEX
  5
228
  8
0
 62
     9
 10
0.0
 20
0.0
 30
0.0
 70
   128
 71
    29
 72
    43
 73
    15
  0
VERTEX
  5
229
  8
0
 62
     9
 10
0.0
 20
0.0
 30
0.0
 70
   128
 71
    13
 72
    14
 73
    45
  0
VERTEX
  5
22A
  8
0
 62
     9
 10
0.0
 20
0.0
 30
0.0
 70
   128
 71
    32
 72
    34
 73
    46
  0
VERTEX
  5
22B
  8
0
 62
     9
 10
0.0
 20
0.0
 30
0.0
 70
   128
 71
    21
 72
    20
 73
    43
  0
VERTEX
  5
22C
  8
0
 62
     9
 10
0.0
 20
0.0
 30
0.0
 70
   128
 71
    18
 72
    15
 73
    43
  0
VERTEX
  5
22D
  8
0
 62
     9
 10
0.0
 20
0.0
 30
0.0
 70
   128
 71
    22
 72
    44
 73
    34
  0
VERTEX
  5
22E
  8
0
 62
     9
 10
0.0
 20
0.0
 30
0.0
 70
   128
 71
    32
 72
    17
 73
    20
  0
VERTEX
  5
22F
  8
0
 62
     9
 10
0.0
 20
0.0
 30
0.0
 70
   128
 71
    34
 72
    44
 73
    46
  0
VERTEX
  5
230
  8
0
 62
     9
 10
0.0
 20
0.0
 30
0.0
 70
   128
 71
    15
 72
    18
 73
    14
  0
VERTEX
  5
231
  8
0
 62
     9
 10
0.0
 20
0.0
 30
0.0
 70
   128
 71
    14
 72
    25
 73
    45
  0
VERTEX
  5
232
  8
0
 62
     9
 10
0.0
 20
0.0
 30
0.0
 70
   128
 71
    17
 72
    43
 73
    20
  0
VERTEX
  5
233
  8
0
 62
     9
 10
0.0
 20
0.0
 30
0.0
 70
   128
 71
    43
 72
    17
 73
    18
  0
VERTEX
  5
234
  8
0
 62
     9
 10
0.0
 20
0.0
 30
0.0
 70
   128
 71
    36
 72
    14
 73
    18
  0
VERTEX
  5
235
  8
0
 62
     9
 10
0.0
 20
0.0
 30
0.0
 70
   128
 71
    48
 72
    47
 73
    32
  0
VERTEX
  5
236
  8
0
 62
     9
 10
0.0
 20
0.0
 30
0.0
 70
   128
 71
    17
 72
    33
 73
    16
  0
VERTEX
  5
237
  8
0
 62
     9
 10
0.0
 20
0.0
 30
0.0
 70
   128
 71
    48
 72
    32
 73
    46
  0
VERTEX
  5
238
  8
0
 62
     9
 10
0.0
 20
0.0
 30
0.0
 70
   128
 71
    14
 72
    36
 73
    24
  0
VERTEX
  5
239
  8
0
 62
     9
 10
0.0
 20
0.0
 30
0.0
 70
   128
 71
    26
 72
    35
 73
    49
  0
VERTEX
  5
23A
  8
0
 62
     9
 10
0.0
 20
0.0
 30
0.0
 70
   128
 71
     4
 72
    33
 73
    50
  0
VERTEX
  5
23B
  8
0
 62
     9
 10
0.0
 20
0.0
 30
0.0
 70
   128
 71
    18
 72
    16
 73
    36
  0
VERTEX
  5
23C
  8
0
 62
     9
 10
0.0
 20
0.0
 30
0.0
 70
   128
 71
    36
 72
    12
 73
    51
  0
VERTEX
  5
23D
  8
0
 62
     9
 10
0.0
 20
0.0
 30
0.0
 70
   128
 71
    32
 72
    47
 73
    33
  0
VERTEX
  5
23E
  8
0
 62
     9
 10
0.0
 20
0.0
 30
0.0
 70
   128
 71
     4
 72
    12
 73
    16
  0
VERTEX
  5
23F
  8
0
 62
     9
 10
0.0
 20
0.0
 30
0.0
 70
   128
 71
    33
 72
    47
 73
    50
  0
VERTEX
  5
240
  8
0
 62
     9
 10
0.0
 20
0.0
 30
0.0
 70
   128
 71
    24
 72
    51
 73
    35
  0
VERTEX
  5
241
  8
0
 62
     9
 10
0.0
 20
0.0
 30
0.0
 70
   128
 71
    52
 72
    49
 73
    37
  0
VERTEX
  5
242
  8
0
 62
     9
 10
0.0
 20
0.0
 30
0.0
 70
   128
 71
    51
 72
    12
 73
     9
  0
VERTEX
  5
243
  8
0
 62
     9
 10
0.0
 20
0.0
 30
0.0
 70
   128
 71
    36
 72
    51
 73
    24
  0
VERTEX
  5
244
  8
0
 62
     9
 10
0.0
 20
0.0
 30
0.0
 70
   128
 71
     7
 72
    51
 73
     9
  0
VERTEX
  5
245
  8
0
 62
     9
 10
0.0
 20
0.0
 30
0.0
 70
   128
 71
    33
 72
     4
 73
    16
  0
VERTEX
  5
246
  8
0
 62
     9
 10
0.0
 20
0.0
 30
0.0
 70
   128
 71
    12
 72
     5
 73
     9
  0
VERTEX
  5
247
  8
0
 62
     9
 10
0.0
 20
0.0
 30
0.0
 70
   128
 71
     6
 72
     4
 73
    50
  0
VERTEX
  5
248
  8
0
 62
     9
 10
0.0
 20
0.0
 30
0.0
 70
   128
 71
    35
 72
    37
 73
    49
  0
VERTEX
  5
249
  8
0
 62
     9
 10
0.0
 20
0.0
 30
0.0
 70
   128
 71
    52
 72
    37
 73
    40
  0
VERTEX
  5
24A
  8
0
 62
     9
 10
0.0
 20
0.0
 30
0.0
 70
   128
 71
    39
 72
     7
 73
     8
  0
VERTEX
  5
24B
  8
0
 62
     9
 10
0.0
 20
0.0
 30
0.0
 70
   128
 71
    51
 72
     7
 73
    35
  0
VERTEX
  5
24C
  8
0
 62
     9
 10
0.0
 20
0.0
 30
0.0
 70
   128
 71
     9
 72
    53
 73
     8
  0
VERTEX
  5
24D
  8
0
 62
     9
 10
0.0
 20
0.0
 30
0.0
 70
   128
 71
    53
 72
     5
 73
    11
  0
VERTEX
  5
24E
  8
0
 62
     9
 10
0.0
 20
0.0
 30
0.0
 70
   128
 71
     9
 72
     5
 73
    53
  0
VERTEX
  5
24F
  8
0
 62
     9
 10
0.0
 20
0.0
 30
0.0
 70
   128
 71
    10
 72
     5
 73
     6
  0
VERTEX
  5
250
  8
0
 62
     9
 10
0.0
 20
0.0
 30
0.0
 70
   128
 71
    55
 72
    54
 73
     1
  0
VERTEX
  5
251
  8
0
 62
     9
 10
0.0
 20
0.0
 30
0.0
 70
   128
 71
    49
 72
    57
 73
    56
  0
VERTEX
  5
252
  8
0
 62
     9
 10
0.0
 20
0.0
 30
0.0
 70
   128
 71
    60
 72
    59
 73
    58
  0
VERTEX
  5
253
  8
0
 62
     9
 10
0.0
 20
0.0
 30
0.0
 70
   128
 71
    40
 72
    57
 73
    52
  0
VERTEX
  5
254
  8
0
 62
     9
 10
0.0
 20
0.0
 30
0.0
 70
   128
 71
    61
 72
    56
 73
    57
  0
VERTEX
  5
255
  8
0
 62
     9
 10
0.0
 20
0.0
 30
0.0
 70
   128
 71
    64
 72
    63
 73
    62
  0
VERTEX
  5
256
  8
0
 62
     9
 10
0.0
 20
0.0
 30
0.0
 70
   128
 71
    67
 72
    66
 73
    65
  0
VERTEX
  5
257
  8
0
 62
     9
 10
0.0
 20
0.0
 30
0.0
 70
   128
 71
    54
 72
    55
 73
    68
  0
VERTEX
  5
258
  8
0
 62
     9
 10
0.0
 20
0.0
 30
0.0
 70
   128
 71
    70
 72
    68
 73
    69
  0
VERTEX
  5
259
  8
0
 62
     9
 10
0.0
 20
0.0
 30
0.0
 70
   128
 71
    72
 72
    71
 73
    55
  0
VERTEX
  5
25A
  8
0
 62
     9
 10
0.0
 20
0.0
 30
0.0
 70
   128
 71
    75
 72
    74
 73
    73
  0
VERTEX
  5
25B
  8
0
 62
     9
 10
0.0
 20
0.0
 30
0.0
 70
   128
 71
    77
 72
     1
 73
    76
  0
VERTEX
  5
25C
  8
0
 62
     9
 10
0.0
 20
0.0
 30
0.0
 70
   128
 71
    80
 72
    79
 73
    78
  0
VERTEX
  5
25D
  8
0
 62
     9
 10
0.0
 20
0.0
 30
0.0
 70
   128
 71
    64
 72
    80
 73
    78
  0
VERTEX
  5
25E
  8
0
 62
     9
 10
0.0
 20
0.0
 30
0.0
 70
   128
 71
    76
 72
     1
 73
    54
  0
VERTEX
  5
25F
  8
0
 62
     9
 10
0.0
 20
0.0
 30
0.0
 70
   128
 71
    82
 72
    66
 73
    81
  0
VERTEX
  5
260
  8
0
 62
     9
 10
0.0
 20
0.0
 30
0.0
 70
   128
 71
    83
 72
    81
 73
    69
  0
VERTEX
  5
261
  8
0
 62
     9
 10
0.0
 20
0.0
 30
0.0
 70
   128
 71
    84
 72
    75
 73
    73
  0
VERTEX
  5
262
  8
0
 62
     9
 10
0.0
 20
0.0
 30
0.0
 70
   128
 71
    74
 72
    63
 73
    73
  0
VERTEX
  5
263
  8
0
 62
     9
 10
0.0
 20
0.0
 30
0.0
 70
   128
 71
    61
 72
    85
 73
    65
  0
VERTEX
  5
264
  8
0
 62
     9
 10
0.0
 20
0.0
 30
0.0
 70
   128
 71
    58
 72
    86
 73
    84
  0
VERTEX
  5
265
  8
0
 62
     9
 10
0.0
 20
0.0
 30
0.0
 70
   128
 71
    86
 72
    58
 73
    87
  0
VERTEX
  5
266
  8
0
 62
     9
 10
0.0
 20
0.0
 30
0.0
 70
   128
 71
    58
 72
    88
 73
    87
  0
VERTEX
  5
267
  8
0
 62
     9
 10
0.0
 20
0.0
 30
0.0
 70
   128
 71
    89
 72
    86
 73
    87
  0
VERTEX
  5
268
  8
0
 62
     9
 10
0.0
 20
0.0
 30
0.0
 70
   128
 71
    77
 72
    76
 73
    79
  0
VERTEX
  5
269
  8
0
 62
     9
 10
0.0
 20
0.0
 30
0.0
 70
   128
 71
    79
 72
    76
 73
    78
  0
VERTEX
  5
26A
  8
0
 62
     9
 10
0.0
 20
0.0
 30
0.0
 70
   128
 71
    72
 72
    55
 73
     1
  0
VERTEX
  5
26B
  8
0
 62
     9
 10
0.0
 20
0.0
 30
0.0
 70
   128
 71
    76
 72
    54
 73
    70
  0
VERTEX
  5
26C
  8
0
 62
     9
 10
0.0
 20
0.0
 30
0.0
 70
   128
 71
    71
 72
    68
 73
    55
  0
VERTEX
  5
26D
  8
0
 62
     9
 10
0.0
 20
0.0
 30
0.0
 70
   128
 71
    72
 72
    28
 73
    30
  0
VERTEX
  5
26E
  8
0
 62
     9
 10
0.0
 20
0.0
 30
0.0
 70
   128
 71
    28
 72
    72
 73
     1
  0
VERTEX
  5
26F
  8
0
 62
     9
 10
0.0
 20
0.0
 30
0.0
 70
   128
 71
    78
 72
    76
 73
    70
  0
VERTEX
  5
270
  8
0
 62
     9
 10
0.0
 20
0.0
 30
0.0
 70
   128
 71
    80
 72
    64
 73
    62
  0
VERTEX
  5
271
  8
0
 62
     9
 10
0.0
 20
0.0
 30
0.0
 70
   128
 71
    71
 72
    83
 73
    68
  0
VERTEX
  5
272
  8
0
 62
     9
 10
0.0
 20
0.0
 30
0.0
 70
   128
 71
    54
 72
    68
 73
    70
  0
VERTEX
  5
273
  8
0
 62
     9
 10
0.0
 20
0.0
 30
0.0
 70
   128
 71
    78
 72
    70
 73
    90
  0
VERTEX
  5
274
  8
0
 62
     9
 10
0.0
 20
0.0
 30
0.0
 70
   128
 71
    30
 72
    71
 73
    72
  0
VERTEX
  5
275
  8
0
 62
     9
 10
0.0
 20
0.0
 30
0.0
 70
   128
 71
    83
 72
    69
 73
    68
  0
VERTEX
  5
276
  8
0
 62
     9
 10
0.0
 20
0.0
 30
0.0
 70
   128
 71
    71
 72
    30
 73
    31
  0
VERTEX
  5
277
  8
0
 62
     9
 10
0.0
 20
0.0
 30
0.0
 70
   128
 71
    78
 72
    90
 73
    64
  0
VERTEX
  5
278
  8
0
 62
     9
 10
0.0
 20
0.0
 30
0.0
 70
   128
 71
    62
 72
    63
 73
    91
  0
VERTEX
  5
279
  8
0
 62
     9
 10
0.0
 20
0.0
 30
0.0
 70
   128
 71
    81
 72
    83
 73
    13
  0
VERTEX
  5
27A
  8
0
 62
     9
 10
0.0
 20
0.0
 30
0.0
 70
   128
 71
    70
 72
    69
 73
    90
  0
VERTEX
  5
27B
  8
0
 62
     9
 10
0.0
 20
0.0
 30
0.0
 70
   128
 71
    67
 72
    64
 73
    90
  0
VERTEX
  5
27C
  8
0
 62
     9
 10
0.0
 20
0.0
 30
0.0
 70
   128
 71
    71
 72
    31
 73
    83
  0
VERTEX
  5
27D
  8
0
 62
     9
 10
0.0
 20
0.0
 30
0.0
 70
   128
 71
    81
 72
    66
 73
    69
  0
VERTEX
  5
27E
  8
0
 62
     9
 10
0.0
 20
0.0
 30
0.0
 70
   128
 71
    83
 72
    31
 73
    13
  0
VERTEX
  5
27F
  8
0
 62
     9
 10
0.0
 20
0.0
 30
0.0
 70
   128
 71
    64
 72
    67
 73
    63
  0
VERTEX
  5
280
  8
0
 62
     9
 10
0.0
 20
0.0
 30
0.0
 70
   128
 71
    63
 72
    74
 73
    91
  0
VERTEX
  5
281
  8
0
 62
     9
 10
0.0
 20
0.0
 30
0.0
 70
   128
 71
    66
 72
    90
 73
    69
  0
VERTEX
  5
282
  8
0
 62
     9
 10
0.0
 20
0.0
 30
0.0
 70
   128
 71
    90
 72
    66
 73
    67
  0
VERTEX
  5
283
  8
0
 62
     9
 10
0.0
 20
0.0
 30
0.0
 70
   128
 71
    85
 72
    63
 73
    67
  0
VERTEX
  5
284
  8
0
 62
     9
 10
0.0
 20
0.0
 30
0.0
 70
   128
 71
    45
 72
    25
 73
    81
  0
VERTEX
  5
285
  8
0
 62
     9
 10
0.0
 20
0.0
 30
0.0
 70
   128
 71
    66
 72
    82
 73
    65
  0
VERTEX
  5
286
  8
0
 62
     9
 10
0.0
 20
0.0
 30
0.0
 70
   128
 71
    45
 72
    81
 73
    13
  0
VERTEX
  5
287
  8
0
 62
     9
 10
0.0
 20
0.0
 30
0.0
 70
   128
 71
    63
 72
    85
 73
    73
  0
VERTEX
  5
288
  8
0
 62
     9
 10
0.0
 20
0.0
 30
0.0
 70
   128
 71
    75
 72
    84
 73
    92
  0
VERTEX
  5
289
  8
0
 62
     9
 10
0.0
 20
0.0
 30
0.0
 70
   128
 71
    56
 72
    82
 73
    26
  0
VERTEX
  5
28A
  8
0
 62
     9
 10
0.0
 20
0.0
 30
0.0
 70
   128
 71
    67
 72
    65
 73
    85
  0
VERTEX
  5
28B
  8
0
 62
     9
 10
0.0
 20
0.0
 30
0.0
 70
   128
 71
    85
 72
    61
 73
    93
  0
VERTEX
  5
28C
  8
0
 62
     9
 10
0.0
 20
0.0
 30
0.0
 70
   128
 71
    81
 72
    25
 73
    82
  0
VERTEX
  5
28D
  8
0
 62
     9
 10
0.0
 20
0.0
 30
0.0
 70
   128
 71
    56
 72
    61
 73
    65
  0
VERTEX
  5
28E
  8
0
 62
     9
 10
0.0
 20
0.0
 30
0.0
 70
   128
 71
    82
 72
    25
 73
    26
  0
VERTEX
  5
28F
  8
0
 62
     9
 10
0.0
 20
0.0
 30
0.0
 70
   128
 71
    73
 72
    93
 73
    84
  0
VERTEX
  5
290
  8
0
 62
     9
 10
0.0
 20
0.0
 30
0.0
 70
   128
 71
    94
 72
    92
 73
    86
  0
VERTEX
  5
291
  8
0
 62
     9
 10
0.0
 20
0.0
 30
0.0
 70
   128
 71
    93
 72
    61
 73
    60
  0
VERTEX
  5
292
  8
0
 62
     9
 10
0.0
 20
0.0
 30
0.0
 70
   128
 71
    85
 72
    93
 73
    73
  0
VERTEX
  5
293
  8
0
 62
     9
 10
0.0
 20
0.0
 30
0.0
 70
   128
 71
    58
 72
    93
 73
    60
  0
VERTEX
  5
294
  8
0
 62
     9
 10
0.0
 20
0.0
 30
0.0
 70
   128
 71
    82
 72
    56
 73
    65
  0
VERTEX
  5
295
  8
0
 62
     9
 10
0.0
 20
0.0
 30
0.0
 70
   128
 71
    61
 72
    57
 73
    60
  0
VERTEX
  5
296
  8
0
 62
     9
 10
0.0
 20
0.0
 30
0.0
 70
   128
 71
    49
 72
    56
 73
    26
  0
VERTEX
  5
297
  8
0
 62
     9
 10
0.0
 20
0.0
 30
0.0
 70
   128
 71
    84
 72
    86
 73
    92
  0
VERTEX
  5
298
  8
0
 62
     9
 10
0.0
 20
0.0
 30
0.0
 70
   128
 71
    94
 72
    86
 73
    89
  0
VERTEX
  5
299
  8
0
 62
     9
 10
0.0
 20
0.0
 30
0.0
 70
   128
 71
    88
 72
    58
 73
    59
  0
VERTEX
  5
29A
  8
0
 62
     9
 10
0.0
 20
0.0
 30
0.0
 70
   128
 71
    93
 72
    58
 73
    84
  0
VERTEX
  5
29B
  8
0
 62
     9
 10
0.0
 20
0.0
 30
0.0
 70
   128
 71
    60
 72
    95
 73
    59
  0
VERTEX
  5
29C
  8
0
 62
     9
 10
0.0
 20
0.0
 30
0.0
 70
   128
 71
    95
 72
    57
 73
    40
  0
VERTEX
  5
29D
  8
0
 62
     9
 10
0.0
 20
0.0
 30
0.0
 70
   128
 71
    60
 72
    57
 73
    95
  0
VERTEX
  5
29E
  8
0
 62
     9
 10
0.0
 20
0.0
 30
0.0
 70
   128
 71
    52
 72
    57
 73
    49
  0
VERTEX
  5
29F
  8
0
 62
     9
 10
0.0
 20
0.0
 30
0.0
 70
   128
 71
    97
 72
    96
 73
     1
  0
VERTEX
  5
2A0
  8
0
 62
     9
 10
0.0
 20
0.0
 30
0.0
 70
   128
 71
    92
 72
    99
 73
    98
  0
VERTEX
  5
2A1
  8
0
 62
     9
 10
0.0
 20
0.0
 30
0.0
 70
   128
 71
   102
 72
   101
 73
   100
  0
VERTEX
  5
2A2
  8
0
 62
     9
 10
0.0
 20
0.0
 30
0.0
 70
   128
 71
    89
 72
    99
 73
    94
  0
VERTEX
  5
2A3
  8
0
 62
     9
 10
0.0
 20
0.0
 30
0.0
 70
   128
 71
   103
 72
    98
 73
    99
  0
VERTEX
  5
2A4
  8
0
 62
     9
 10
0.0
 20
0.0
 30
0.0
 70
   128
 71
   106
 72
   105
 73
   104
  0
VERTEX
  5
2A5
  8
0
 62
     9
 10
0.0
 20
0.0
 30
0.0
 70
   128
 71
   109
 72
   108
 73
   107
  0
VERTEX
  5
2A6
  8
0
 62
     9
 10
0.0
 20
0.0
 30
0.0
 70
   128
 71
    96
 72
    97
 73
   110
  0
VERTEX
  5
2A7
  8
0
 62
     9
 10
0.0
 20
0.0
 30
0.0
 70
   128
 71
   112
 72
   110
 73
   111
  0
VERTEX
  5
2A8
  8
0
 62
     9
 10
0.0
 20
0.0
 30
0.0
 70
   128
 71
   114
 72
   113
 73
    97
  0
VERTEX
  5
2A9
  8
0
 62
     9
 10
0.0
 20
0.0
 30
0.0
 70
   128
 71
   117
 72
   116
 73
   115
  0
VERTEX
  5
2AA
  8
0
 62
     9
 10
0.0
 20
0.0
 30
0.0
 70
   128
 71
   119
 72
     1
 73
   118
  0
VERTEX
  5
2AB
  8
0
 62
     9
 10
0.0
 20
0.0
 30
0.0
 70
   128
 71
   122
 72
   121
 73
   120
  0
VERTEX
  5
2AC
  8
0
 62
     9
 10
0.0
 20
0.0
 30
0.0
 70
   128
 71
   106
 72
   122
 73
   120
  0
VERTEX
  5
2AD
  8
0
 62
     9
 10
0.0
 20
0.0
 30
0.0
 70
   128
 71
   118
 72
     1
 73
    96
  0
VERTEX
  5
2AE
  8
0
 62
     9
 10
0.0
 20
0.0
 30
0.0
 70
   128
 71
   124
 72
   108
 73
   123
  0
VERTEX
  5
2AF
  8
0
 62
     9
 10
0.0
 20
0.0
 30
0.0
 70
   128
 71
   125
 72
   123
 73
   111
  0
VERTEX
  5
2B0
  8
0
 62
     9
 10
0.0
 20
0.0
 30
0.0
 70
   128
 71
   126
 72
   117
 73
   115
  0
VERTEX
  5
2B1
  8
0
 62
     9
 10
0.0
 20
0.0
 30
0.0
 70
   128
 71
   116
 72
   105
 73
   115
  0
VERTEX
  5
2B2
  8
0
 62
     9
 10
0.0
 20
0.0
 30
0.0
 70
   128
 71
   103
 72
   127
 73
   107
  0
VERTEX
  5
2B3
  8
0
 62
     9
 10
0.0
 20
0.0
 30
0.0
 70
   128
 71
   100
 72
   128
 73
   126
  0
VERTEX
  5
2B4
  8
0
 62
     9
 10
0.0
 20
0.0
 30
0.0
 70
   128
 71
   128
 72
   100
 73
   129
  0
VERTEX
  5
2B5
  8
0
 62
     9
 10
0.0
 20
0.0
 30
0.0
 70
   128
 71
   100
 72
   130
 73
   129
  0
VERTEX
  5
2B6
  8
0
 62
     9
 10
0.0
 20
0.0
 30
0.0
 70
   128
 71
   131
 72
   128
 73
   129
  0
VERTEX
  5
2B7
  8
0
 62
     9
 10
0.0
 20
0.0
 30
0.0
 70
   128
 71
   119
 72
   118
 73
   121
  0
VERTEX
  5
2B8
  8
0
 62
     9
 10
0.0
 20
0.0
 30
0.0
 70
   128
 71
   121
 72
   118
 73
   120
  0
VERTEX
  5
2B9
  8
0
 62
     9
 10
0.0
 20
0.0
 30
0.0
 70
   128
 71
   114
 72
    97
 73
     1
  0
VERTEX
  5
2BA
  8
0
 62
     9
 10
0.0
 20
0.0
 30
0.0
 70
   128
 71
   118
 72
    96
 73
   112
  0
VERTEX
  5
2BB
  8
0
 62
     9
 10
0.0
 20
0.0
 30
0.0
 70
   128
 71
   113
 72
   110
 73
    97
  0
VERTEX
  5
2BC
  8
0
 62
     9
 10
0.0
 20
0.0
 30
0.0
 70
   128
 71
   114
 72
    77
 73
    79
  0
VERTEX
  5
2BD
  8
0
 62
     9
 10
0.0
 20
0.0
 30
0.0
 70
   128
 71
    77
 72
   114
 73
     1
  0
VERTEX
  5
2BE
  8
0
 62
     9
 10
0.0
 20
0.0
 30
0.0
 70
   128
 71
   120
 72
   118
 73
   112
  0
VERTEX
  5
2BF
  8
0
 62
     9
 10
0.0
 20
0.0
 30
0.0
 70
   128
 71
   122
 72
   106
 73
   104
  0
VERTEX
  5
2C0
  8
0
 62
     9
 10
0.0
 20
0.0
 30
0.0
 70
   128
 71
   113
 72
   125
 73
   110
  0
VERTEX
  5
2C1
  8
0
 62
     9
 10
0.0
 20
0.0
 30
0.0
 70
   128
 71
    96
 72
   110
 73
   112
  0
VERTEX
  5
2C2
  8
0
 62
     9
 10
0.0
 20
0.0
 30
0.0
 70
   128
 71
   120
 72
   112
 73
   132
  0
VERTEX
  5
2C3
  8
0
 62
     9
 10
0.0
 20
0.0
 30
0.0
 70
   128
 71
    79
 72
   113
 73
   114
  0
VERTEX
  5
2C4
  8
0
 62
     9
 10
0.0
 20
0.0
 30
0.0
 70
   128
 71
   125
 72
   111
 73
   110
  0
VERTEX
  5
2C5
  8
0
 62
     9
 10
0.0
 20
0.0
 30
0.0
 70
   128
 71
   113
 72
    79
 73
    80
  0
VERTEX
  5
2C6
  8
0
 62
     9
 10
0.0
 20
0.0
 30
0.0
 70
   128
 71
   120
 72
   132
 73
   106
  0
VERTEX
  5
2C7
  8
0
 62
     9
 10
0.0
 20
0.0
 30
0.0
 70
   128
 71
   104
 72
   105
 73
   133
  0
VERTEX
  5
2C8
  8
0
 62
     9
 10
0.0
 20
0.0
 30
0.0
 70
   128
 71
   123
 72
   125
 73
    62
  0
VERTEX
  5
2C9
  8
0
 62
     9
 10
0.0
 20
0.0
 30
0.0
 70
   128
 71
   112
 72
   111
 73
   132
  0
VERTEX
  5
2CA
  8
0
 62
     9
 10
0.0
 20
0.0
 30
0.0
 70
   128
 71
   109
 72
   106
 73
   132
  0
VERTEX
  5
2CB
  8
0
 62
     9
 10
0.0
 20
0.0
 30
0.0
 70
   128
 71
   113
 72
    80
 73
   125
  0
VERTEX
  5
2CC
  8
0
 62
     9
 10
0.0
 20
0.0
 30
0.0
 70
   128
 71
   123
 72
   108
 73
   111
  0
VERTEX
  5
2CD
  8
0
 62
     9
 10
0.0
 20
0.0
 30
0.0
 70
   128
 71
   125
 72
    80
 73
    62
  0
VERTEX
  5
2CE
  8
0
 62
     9
 10
0.0
 20
0.0
 30
0.0
 70
   128
 71
   106
 72
   109
 73
   105
  0
VERTEX
  5
2CF
  8
0
 62
     9
 10
0.0
 20
0.0
 30
0.0
 70
   128
 71
   105
 72
   116
 73
   133
  0
VERTEX
  5
2D0
  8
0
 62
     9
 10
0.0
 20
0.0
 30
0.0
 70
   128
 71
   108
 72
   132
 73
   111
  0
VERTEX
  5
2D1
  8
0
 62
     9
 10
0.0
 20
0.0
 30
0.0
 70
   128
 71
   132
 72
   108
 73
   109
  0
VERTEX
  5
2D2
  8
0
 62
     9
 10
0.0
 20
0.0
 30
0.0
 70
   128
 71
   127
 72
   105
 73
   109
  0
VERTEX
  5
2D3
  8
0
 62
     9
 10
0.0
 20
0.0
 30
0.0
 70
   128
 71
    91
 72
    74
 73
   123
  0
VERTEX
  5
2D4
  8
0
 62
     9
 10
0.0
 20
0.0
 30
0.0
 70
   128
 71
   108
 72
   124
 73
   107
  0
VERTEX
  5
2D5
  8
0
 62
     9
 10
0.0
 20
0.0
 30
0.0
 70
   128
 71
    91
 72
   123
 73
    62
  0
VERTEX
  5
2D6
  8
0
 62
     9
 10
0.0
 20
0.0
 30
0.0
 70
   128
 71
   105
 72
   127
 73
   115
  0
VERTEX
  5
2D7
  8
0
 62
     9
 10
0.0
 20
0.0
 30
0.0
 70
   128
 71
   117
 72
   126
 73
   134
  0
VERTEX
  5
2D8
  8
0
 62
     9
 10
0.0
 20
0.0
 30
0.0
 70
   128
 71
    98
 72
   124
 73
    75
  0
VERTEX
  5
2D9
  8
0
 62
     9
 10
0.0
 20
0.0
 30
0.0
 70
   128
 71
   109
 72
   107
 73
   127
  0
VERTEX
  5
2DA
  8
0
 62
     9
 10
0.0
 20
0.0
 30
0.0
 70
   128
 71
   127
 72
   103
 73
   135
  0
VERTEX
  5
2DB
  8
0
 62
     9
 10
0.0
 20
0.0
 30
0.0
 70
   128
 71
   123
 72
    74
 73
   124
  0
VERTEX
  5
2DC
  8
0
 62
     9
 10
0.0
 20
0.0
 30
0.0
 70
   128
 71
    98
 72
   103
 73
   107
  0
VERTEX
  5
2DD
  8
0
 62
     9
 10
0.0
 20
0.0
 30
0.0
 70
   128
 71
   124
 72
    74
 73
    75
  0
VERTEX
  5
2DE
  8
0
 62
     9
 10
0.0
 20
0.0
 30
0.0
 70
   128
 71
   115
 72
   135
 73
   126
  0
VERTEX
  5
2DF
  8
0
 62
     9
 10
0.0
 20
0.0
 30
0.0
 70
   128
 71
   136
 72
   134
 73
   128
  0
VERTEX
  5
2E0
  8
0
 62
     9
 10
0.0
 20
0.0
 30
0.0
 70
   128
 71
   135
 72
   103
 73
   102
  0
VERTEX
  5
2E1
  8
0
 62
     9
 10
0.0
 20
0.0
 30
0.0
 70
   128
 71
   127
 72
   135
 73
   115
  0
VERTEX
  5
2E2
  8
0
 62
     9
 10
0.0
 20
0.0
 30
0.0
 70
   128
 71
   100
 72
   135
 73
   102
  0
VERTEX
  5
2E3
  8
0
 62
     9
 10
0.0
 20
0.0
 30
0.0
 70
   128
 71
   124
 72
    98
 73
   107
  0
VERTEX
  5
2E4
  8
0
 62
     9
 10
0.0
 20
0.0
 30
0.0
 70
   128
 71
   103
 72
    99
 73
   102
  0
VERTEX
  5
2E5
  8
0
 62
     9
 10
0.0
 20
0.0
 30
0.0
 70
   128
 71
    92
 72
    98
 73
    75
  0
VERTEX
  5
2E6
  8
0
 62
     9
 10
0.0
 20
0.0
 30
0.0
 70
   128
 71
   126
 72
   128
 73
   134
  0
VERTEX
  5
2E7
  8
0
 62
     9
 10
0.0
 20
0.0
 30
0.0
 70
   128
 71
   136
 72
   128
 73
   131
  0
VERTEX
  5
2E8
  8
0
 62
     9
 10
0.0
 20
0.0
 30
0.0
 70
   128
 71
   130
 72
   100
 73
   101
  0
VERTEX
  5
2E9
  8
0
 62
     9
 10
0.0
 20
0.0
 30
0.0
 70
   128
 71
   135
 72
   100
 73
   126
  0
VERTEX
  5
2EA
  8
0
 62
     9
 10
0.0
 20
0.0
 30
0.0
 70
   128
 71
   102
 72
   137
 73
   101
  0
VERTEX
  5
2EB
  8
0
 62
     9
 10
0.0
 20
0.0
 30
0.0
 70
   128
 71
   137
 72
    99
 73
    89
  0
VERTEX
  5
2EC
  8
0
 62
     9
 10
0.0
 20
0.0
 30
0.0
 70
   128
 71
   102
 72
    99
 73
   137
  0
VERTEX
  5
2ED
  8
0
 62
     9
 10
0.0
 20
0.0
 30
0.0
 70
   128
 71
    94
 72
    99
 73
    92
  0
VERTEX
  5
2EE
  8
0
 62
     9
 10
0.0
 20
0.0
 30
0.0
 70
   128
 71
   140
 72
   139
 73
   138
  0
VERTEX
  5
2EF
  8
0
 62
     9
 10
0.0
 20
0.0
 30
0.0
 70
   128
 71
   143
 72
   142
 73
   141
  0
VERTEX
  5
2F0
  8
0
 62
     9
 10
0.0
 20
0.0
 30
0.0
 70
   128
 71
   145
 72
    50
 73
   144
  0
VERTEX
  5
2F1
  8
0
 62
     9
 10
0.0
 20
0.0
 30
0.0
 70
   128
 71
   146
 72
   136
 73
   131
  0
VERTEX
  5
2F2
  8
0
 62
     9
 10
0.0
 20
0.0
 30
0.0
 70
   128
 71
   146
 72
   147
 73
   134
  0
VERTEX
  5
2F3
  8
0
 62
     9
 10
0.0
 20
0.0
 30
0.0
 70
   128
 71
   147
 72
   146
 73
   148
  0
VERTEX
  5
2F4
  8
0
 62
     9
 10
0.0
 20
0.0
 30
0.0
 70
   128
 71
   138
 72
   148
 73
   149
  0
VERTEX
  5
2F5
  8
0
 62
     9
 10
0.0
 20
0.0
 30
0.0
 70
   128
 71
   145
 72
   151
 73
   150
  0
VERTEX
  5
2F6
  8
0
 62
     9
 10
0.0
 20
0.0
 30
0.0
 70
   128
 71
   152
 72
   150
 73
   151
  0
VERTEX
  5
2F7
  8
0
 62
     9
 10
0.0
 20
0.0
 30
0.0
 70
   128
 71
   152
 72
   151
 73
   153
  0
VERTEX
  5
2F8
  8
0
 62
     9
 10
0.0
 20
0.0
 30
0.0
 70
   128
 71
   155
 72
   154
 73
   151
  0
VERTEX
  5
2F9
  8
0
 62
     9
 10
0.0
 20
0.0
 30
0.0
 70
   128
 71
   150
 72
   152
 73
    11
  0
VERTEX
  5
2FA
  8
0
 62
     9
 10
0.0
 20
0.0
 30
0.0
 70
   128
 71
   157
 72
   156
 73
   139
  0
VERTEX
  5
2FB
  8
0
 62
     9
 10
0.0
 20
0.0
 30
0.0
 70
   128
 71
   158
 72
   144
 73
    47
  0
VERTEX
  5
2FC
  8
0
 62
     9
 10
0.0
 20
0.0
 30
0.0
 70
   128
 71
    46
 72
   159
 73
   158
  0
VERTEX
  5
2FD
  8
0
 62
     9
 10
0.0
 20
0.0
 30
0.0
 70
   128
 71
   161
 72
   160
 73
   157
  0
VERTEX
  5
2FE
  8
0
 62
     9
 10
0.0
 20
0.0
 30
0.0
 70
   128
 71
   159
 72
    44
 73
   162
  0
VERTEX
  5
2FF
  8
0
 62
     9
 10
0.0
 20
0.0
 30
0.0
 70
   128
 71
   161
 72
   163
 73
   142
  0
VERTEX
  5
300
  8
0
 62
     9
 10
0.0
 20
0.0
 30
0.0
 70
   128
 71
   144
 72
    50
 73
    47
  0
VERTEX
  5
301
  8
0
 62
     9
 10
0.0
 20
0.0
 30
0.0
 70
   128
 71
   162
 72
    44
 73
    41
  0
VERTEX
  5
302
  8
0
 62
     9
 10
0.0
 20
0.0
 30
0.0
 70
   128
 71
   165
 72
   164
 73
   143
  0
VERTEX
  5
303
  8
0
 62
     9
 10
0.0
 20
0.0
 30
0.0
 70
   128
 71
    42
 72
     1
 73
   166
  0
VERTEX
  5
304
  8
0
 62
     9
 10
0.0
 20
0.0
 30
0.0
 70
   128
 71
   143
 72
   141
 73
     1
  0
VERTEX
  5
305
  8
0
 62
     9
 10
0.0
 20
0.0
 30
0.0
 70
   128
 71
   141
 72
   166
 73
     1
  0
VERTEX
  5
306
  8
0
 62
     9
 10
0.0
 20
0.0
 30
0.0
 70
   128
 71
    42
 72
   166
 73
    41
  0
VERTEX
  5
307
  8
0
 62
     9
 10
0.0
 20
0.0
 30
0.0
 70
   128
 71
    41
 72
   166
 73
   162
  0
VERTEX
  5
308
  8
0
 62
     9
 10
0.0
 20
0.0
 30
0.0
 70
   128
 71
   165
 72
   143
 73
     1
  0
VERTEX
  5
309
  8
0
 62
     9
 10
0.0
 20
0.0
 30
0.0
 70
   128
 71
   166
 72
   141
 73
   163
  0
VERTEX
  5
30A
  8
0
 62
     9
 10
0.0
 20
0.0
 30
0.0
 70
   128
 71
   164
 72
   142
 73
   143
  0
VERTEX
  5
30B
  8
0
 62
     9
 10
0.0
 20
0.0
 30
0.0
 70
   128
 71
   165
 72
   119
 73
   121
  0
VERTEX
  5
30C
  8
0
 62
     9
 10
0.0
 20
0.0
 30
0.0
 70
   128
 71
   119
 72
   165
 73
     1
  0
VERTEX
  5
30D
  8
0
 62
     9
 10
0.0
 20
0.0
 30
0.0
 70
   128
 71
   162
 72
   166
 73
   163
  0
VERTEX
  5
30E
  8
0
 62
     9
 10
0.0
 20
0.0
 30
0.0
 70
   128
 71
    44
 72
   159
 73
    46
  0
VERTEX
  5
30F
  8
0
 62
     9
 10
0.0
 20
0.0
 30
0.0
 70
   128
 71
   164
 72
   160
 73
   142
  0
VERTEX
  5
310
  8
0
 62
     9
 10
0.0
 20
0.0
 30
0.0
 70
   128
 71
   141
 72
   142
 73
   163
  0
VERTEX
  5
311
  8
0
 62
     9
 10
0.0
 20
0.0
 30
0.0
 70
   128
 71
   162
 72
   163
 73
   167
  0
VERTEX
  5
312
  8
0
 62
     9
 10
0.0
 20
0.0
 30
0.0
 70
   128
 71
   121
 72
   164
 73
   165
  0
VERTEX
  5
313
  8
0
 62
     9
 10
0.0
 20
0.0
 30
0.0
 70
   128
 71
   160
 72
   161
 73
   142
  0
VERTEX
  5
314
  8
0
 62
     9
 10
0.0
 20
0.0
 30
0.0
 70
   128
 71
   164
 72
   121
 73
   122
  0
VERTEX
  5
315
  8
0
 62
     9
 10
0.0
 20
0.0
 30
0.0
 70
   128
 71
   162
 72
   167
 73
   159
  0
VERTEX
  5
316
  8
0
 62
     9
 10
0.0
 20
0.0
 30
0.0
 70
   128
 71
    46
 72
   158
 73
    48
  0
VERTEX
  5
317
  8
0
 62
     9
 10
0.0
 20
0.0
 30
0.0
 70
   128
 71
   157
 72
   160
 73
   104
  0
VERTEX
  5
318
  8
0
 62
     9
 10
0.0
 20
0.0
 30
0.0
 70
   128
 71
   163
 72
   161
 73
   167
  0
VERTEX
  5
319
  8
0
 62
     9
 10
0.0
 20
0.0
 30
0.0
 70
   128
 71
   140
 72
   159
 73
   167
  0
VERTEX
  5
31A
  8
0
 62
     9
 10
0.0
 20
0.0
 30
0.0
 70
   128
 71
   164
 72
   122
 73
   160
  0
VERTEX
  5
31B
  8
0
 62
     9
 10
0.0
 20
0.0
 30
0.0
 70
   128
 71
   157
 72
   139
 73
   161
  0
VERTEX
  5
31C
  8
0
 62
     9
 10
0.0
 20
0.0
 30
0.0
 70
   128
 71
   160
 72
   122
 73
   104
  0
VERTEX
  5
31D
  8
0
 62
     9
 10
0.0
 20
0.0
 30
0.0
 70
   128
 71
   159
 72
   140
 73
   158
  0
VERTEX
  5
31E
  8
0
 62
     9
 10
0.0
 20
0.0
 30
0.0
 70
   128
 71
   158
 72
    47
 73
    48
  0
VERTEX
  5
31F
  8
0
 62
     9
 10
0.0
 20
0.0
 30
0.0
 70
   128
 71
   139
 72
   167
 73
   161
  0
VERTEX
  5
320
  8
0
 62
     9
 10
0.0
 20
0.0
 30
0.0
 70
   128
 71
   167
 72
   139
 73
   140
  0
VERTEX
  5
321
  8
0
 62
     9
 10
0.0
 20
0.0
 30
0.0
 70
   128
 71
   149
 72
   158
 73
   140
  0
VERTEX
  5
322
  8
0
 62
     9
 10
0.0
 20
0.0
 30
0.0
 70
   128
 71
   133
 72
   116
 73
   157
  0
VERTEX
  5
323
  8
0
 62
     9
 10
0.0
 20
0.0
 30
0.0
 70
   128
 71
   139
 72
   156
 73
   138
  0
VERTEX
  5
324
  8
0
 62
     9
 10
0.0
 20
0.0
 30
0.0
 70
   128
 71
   133
 72
   157
 73
   104
  0
VERTEX
  5
325
  8
0
 62
     9
 10
0.0
 20
0.0
 30
0.0
 70
   128
 71
   158
 72
   149
 73
   144
  0
VERTEX
  5
326
  8
0
 62
     9
 10
0.0
 20
0.0
 30
0.0
 70
   128
 71
    50
 72
   145
 73
     6
  0
VERTEX
  5
327
  8
0
 62
     9
 10
0.0
 20
0.0
 30
0.0
 70
   128
 71
   147
 72
   156
 73
   117
  0
VERTEX
  5
328
  8
0
 62
     9
 10
0.0
 20
0.0
 30
0.0
 70
   128
 71
   140
 72
   138
 73
   149
  0
VERTEX
  5
329
  8
0
 62
     9
 10
0.0
 20
0.0
 30
0.0
 70
   128
 71
   149
 72
   148
 73
   168
  0
VERTEX
  5
32A
  8
0
 62
     9
 10
0.0
 20
0.0
 30
0.0
 70
   128
 71
   157
 72
   116
 73
   156
  0
VERTEX
  5
32B
  8
0
 62
     9
 10
0.0
 20
0.0
 30
0.0
 70
   128
 71
   147
 72
   148
 73
   138
  0
VERTEX
  5
32C
  8
0
 62
     9
 10
0.0
 20
0.0
 30
0.0
 70
   128
 71
   156
 72
   116
 73
   117
  0
VERTEX
  5
32D
  8
0
 62
     9
 10
0.0
 20
0.0
 30
0.0
 70
   128
 71
   144
 72
   168
 73
   145
  0
VERTEX
  5
32E
  8
0
 62
     9
 10
0.0
 20
0.0
 30
0.0
 70
   128
 71
    10
 72
     6
 73
   150
  0
VERTEX
  5
32F
  8
0
 62
     9
 10
0.0
 20
0.0
 30
0.0
 70
   128
 71
   168
 72
   148
 73
   155
  0
VERTEX
  5
330
  8
0
 62
     9
 10
0.0
 20
0.0
 30
0.0
 70
   128
 71
   149
 72
   168
 73
   144
  0
VERTEX
  5
331
  8
0
 62
     9
 10
0.0
 20
0.0
 30
0.0
 70
   128
 71
   151
 72
   168
 73
   155
  0
VERTEX
  5
332
  8
0
 62
     9
 10
0.0
 20
0.0
 30
0.0
 70
   128
 71
   156
 72
   147
 73
   138
  0
VERTEX
  5
333
  8
0
 62
     9
 10
0.0
 20
0.0
 30
0.0
 70
   128
 71
   148
 72
   146
 73
   155
  0
VERTEX
  5
334
  8
0
 62
     9
 10
0.0
 20
0.0
 30
0.0
 70
   128
 71
   134
 72
   147
 73
   117
  0
VERTEX
  5
335
  8
0
 62
     9
 10
0.0
 20
0.0
 30
0.0
 70
   128
 71
   145
 72
   150
 73
     6
  0
VERTEX
  5
336
  8
0
 62
     9
 10
0.0
 20
0.0
 30
0.0
 70
   128
 71
    10
 72
   150
 73
    11
  0
VERTEX
  5
337
  8
0
 62
     9
 10
0.0
 20
0.0
 30
0.0
 70
   128
 71
   153
 72
   151
 73
   154
  0
VERTEX
  5
338
  8
0
 62
     9
 10
0.0
 20
0.0
 30
0.0
 70
   128
 71
   168
 72
   151
 73
   145
  0
VERTEX
  5
339
  8
0
 62
     9
 10
0.0
 20
0.0
 30
0.0
 70
   128
 71
   155
 72
   169
 73
   154
  0
VERTEX
  5
33A
  8
0
 62
     9
 10
0.0
 20
0.0
 30
0.0
 70
   128
 71
   169
 72
   146
 73
   131
  0
VERTEX
  5
33B
  8
0
 62
     9
 10
0.0
 20
0.0
 30
0.0
 70
   128
 71
   155
 72
   146
 73
   169
  0
VERTEX
  5
33C
  8
0
 62
     9
 10
0.0
 20
0.0
 30
0.0
 70
   128
 71
   136
 72
   146
 73
   134
  0
VERTEX
  5
33D
  8
0
 62
     9
 10
0.0
 20
0.0
 30
0.0
 70
   128
 71
   101
 72
   137
 73
    89
  0
VERTEX
  5
33E
  8
0
 62
     9
 10
0.0
 20
0.0
 30
0.0
 70
   128
 71
   153
 72
   154
 73
    59
  0
VERTEX
  5
33F
  8
0
 62
     9
 10
0.0
 20
0.0
 30
0.0
 70
   128
 71
   129
 72
   101
 73
   131
  0
VERTEX
  5
340
  8
0
 62
     9
 10
0.0
 20
0.0
 30
0.0
 70
   128
 71
   130
 72
   101
 73
   129
  0
VERTEX
  5
341
  8
0
 62
     9
 10
0.0
 20
0.0
 30
0.0
 70
   128
 71
   101
 72
    89
 73
   131
  0
VERTEX
  5
342
  8
0
 62
     9
 10
0.0
 20
0.0
 30
0.0
 70
   128
 71
    87
 72
    88
 73
   154
  0
VERTEX
  5
343
  8
0
 62
     9
 10
0.0
 20
0.0
 30
0.0
 70
   128
 71
    89
 72
   169
 73
   131
  0
VERTEX
  5
344
  8
0
 62
     9
 10
0.0
 20
0.0
 30
0.0
 70
   128
 71
     8
 72
    11
 73
    40
  0
VERTEX
  5
345
  8
0
 62
     9
 10
0.0
 20
0.0
 30
0.0
 70
   128
 71
    95
 72
   152
 73
    59
  0
VERTEX
  5
346
  8
0
 62
     9
 10
0.0
 20
0.0
 30
0.0
 70
   128
 71
    11
 72
     8
 73
    53
  0
VERTEX
  5
347
  8
0
 62
     9
 10
0.0
 20
0.0
 30
0.0
 70
   128
 71
    38
 72
     8
 73
    40
  0
VERTEX
  5
348
  8
0
 62
     9
 10
0.0
 20
0.0
 30
0.0
 70
   128
 71
    39
 72
     8
 73
    38
  0
VERTEX
  5
349
  8
0
 62
     9
 10
0.0
 20
0.0
 30
0.0
 70
   128
 71
    11
 72
   152
 73
    95
  0
VERTEX
  5
34A
  8
0
 62
     9
 10
0.0
 20
0.0
 30
0.0
 70
   128
 71
    11
 72
    95
 73
    40
  0
VERTEX
  5
34B
  8
0
 62
     9
 10
0.0
 20
0.0
 30
0.0
 70
   128
 71
    59
 72
   154
 73
    88
  0
VERTEX
  5
34C
  8
0
 62
     9
 10
0.0
 20
0.0
 30
0.0
 70
   128
 71
   153
 72
    59
 73
   152
  0
VERTEX
  5
34D
  8
0
 62
     9
 10
0.0
 20
0.0
 30
0.0
 70
   128
 71
    87
 72
   154
 73
   169
  0
VERTEX
  5
34E
  8
0
 62
     9
 10
0.0
 20
0.0
 30
0.0
 70
   128
 71
    89
 72
    87
 73
   169
  0
SEQEND
  5
34F
  8
0
 62
     9
  0
ENDBLK
  5
352
  8
0
  0
BLOCK
  8
0
  2
40
 70
     0
 10
0.0
 20
0.0
 30
0.0
  3
40
  1

  0
POLYLINE
  5
354
  8
0
 62
     9
 66
     1
 10
0.0
 20
0.0
 30
0.0
 70
    64
 71
    26
 72
    34
  0
VERTEX
  5
355
  8
0
 10
-16.37029266357422
 20
1.689875602722168
 30
31.31355094909668
 70
   192
  0
VERTEX
  5
356
  8
0
 10
-2.965915441513062
 20
1.639363765716553
 30
3.974914789199829
 70
   192
  0
VERTEX
  5
357
  8
0
 10
-15.092529296875
 20
1.080076336860657
 30
31.90938186645508
 70
   192
  0
VERTEX
  5
358
  8
0
 10
-5.092962265014648
 20
1.018190741539001
 30
3.974914789199829
 70
   192
  0
VERTEX
  5
359
  8
0
 10
-4.140181064605713
 20
1.640962958335876
 30
3.974914789199829
 70
   192
  0
VERTEX
  5
35A
  8
0
 10
-17.557861328125
 20
1.009827494621277
 30
30.75977897644043
 70
   192
  0
VERTEX
  5
35B
  8
0
 10
-2.01446795463562
 20
1.007966876029968
 30
3.974914789199829
 70
   192
  0
VERTEX
  5
35C
  8
0
 10
-1.654156923294067
 20
-0.0000000000002886
 30
3.974914789199829
 70
   192
  0
VERTEX
  5
35D
  8
0
 10
-14.83292770385742
 20
-0.0000000000002936
 30
32.23688125610352
 70
   192
  0
VERTEX
  5
35E
  8
0
 10
-28.01169967651367
 20
-0.0000000000002986
 30
60.49884796142578
 70
   192
  0
VERTEX
  5
35F
  8
0
 10
-28.55428504943848
 20
1.314044117927551
 30
60.24583435058594
 70
   192
  0
VERTEX
  5
360
  8
0
 10
-5.460810661315918
 20
-0.0000000000002886
 30
3.974914789199829
 70
   192
  0
VERTEX
  5
361
  8
0
 10
-30.56828689575195
 20
1.278529405593872
 30
59.30669021606445
 70
   192
  0
VERTEX
  5
362
  8
0
 10
-18.29963684082031
 20
-0.0000000000002939
 30
31.50786399841309
 70
   192
  0
VERTEX
  5
363
  8
0
 10
-31.13846015930176
 20
-0.0000000000002984
 30
59.04081344604492
 70
   192
  0
VERTEX
  5
364
  8
0
 10
-29.57508087158203
 20
1.725000023841858
 30
59.76982879638672
 70
   192
  0
VERTEX
  5
365
  8
0
 10
-30.59587669372559
 20
-1.314044117927551
 30
59.2938232421875
 70
   192
  0
VERTEX
  5
366
  8
0
 10
-16.26418113708496
 20
-1.689875602722168
 30
31.36303329467773
 70
   192
  0
VERTEX
  5
367
  8
0
 10
-17.54194450378418
 20
-1.080076336860657
 30
30.76720237731934
 70
   192
  0
VERTEX
  5
368
  8
0
 10
-15.07661247253418
 20
-1.009827494621277
 30
31.91680526733398
 70
   192
  0
VERTEX
  5
369
  8
0
 10
-28.58187294006348
 20
-1.278529405593872
 30
60.23297119140625
 70
   192
  0
VERTEX
  5
36A
  8
0
 10
-5.100500106811523
 20
-1.007966876029968
 30
3.974914789199829
 70
   192
  0
VERTEX
  5
36B
  8
0
 10
-4.149052143096924
 20
-1.639363765716553
 30
3.974914789199829
 70
   192
  0
VERTEX
  5
36C
  8
0
 10
-29.57508087158203
 20
-1.725000023841858
 30
59.76982879638672
 70
   192
  0
VERTEX
  5
36D
  8
0
 10
-2.022005319595337
 20
-1.018190741539001
 30
3.974914789199829
 70
   192
  0
VERTEX
  5
36E
  8
0
 10
-2.974786520004272
 20
-1.640962958335876
 30
3.974914789199829
 70
   192
  0
VERTEX
  5
36F
  8
0
 62
     9
 10
0.0
 20
0.0
 30
0.0
 70
   128
 71
     3
 72
     2
 73
     1
  0
VERTEX
  5
370
  8
0
 62
     9
 10
0.0
 20
0.0
 30
0.0
 70
   128
 71
     6
 72
     5
 73
     4
  0
VERTEX
  5
371
  8
0
 62
     9
 10
0.0
 20
0.0
 30
0.0
 70
   128
 71
     9
 72
     8
 73
     7
  0
VERTEX
  5
372
  8
0
 62
     9
 10
0.0
 20
0.0
 30
0.0
 70
   128
 71
     7
 72
     2
 73
     3
  0
VERTEX
  5
373
  8
0
 62
     9
 10
0.0
 20
0.0
 30
0.0
 70
   128
 71
     3
 72
    11
 73
    10
  0
VERTEX
  5
374
  8
0
 62
     9
 10
0.0
 20
0.0
 30
0.0
 70
   128
 71
     9
 72
     3
 73
    10
  0
VERTEX
  5
375
  8
0
 62
     9
 10
0.0
 20
0.0
 30
0.0
 70
   128
 71
     1
 72
     5
 73
     6
  0
VERTEX
  5
376
  8
0
 62
     9
 10
0.0
 20
0.0
 30
0.0
 70
   128
 71
     4
 72
    12
 73
     6
  0
VERTEX
  5
377
  8
0
 62
     9
 10
0.0
 20
0.0
 30
0.0
 70
   128
 71
     6
 72
    13
 73
     1
  0
VERTEX
  5
378
  8
0
 62
     9
 10
0.0
 20
0.0
 30
0.0
 70
   128
 71
    14
 72
     6
 73
    12
  0
VERTEX
  5
379
  8
0
 62
     9
 10
0.0
 20
0.0
 30
0.0
 70
   128
 71
    15
 72
    13
 73
     6
  0
VERTEX
  5
37A
  8
0
 62
     9
 10
0.0
 20
0.0
 30
0.0
 70
   128
 71
     6
 72
    14
 73
    15
  0
VERTEX
  5
37B
  8
0
 62
     9
 10
0.0
 20
0.0
 30
0.0
 70
   128
 71
    16
 72
     1
 73
    13
  0
VERTEX
  5
37C
  8
0
 62
     9
 10
0.0
 20
0.0
 30
0.0
 70
   128
 71
     1
 72
    16
 73
    11
  0
VERTEX
  5
37D
  8
0
 62
     9
 10
0.0
 20
0.0
 30
0.0
 70
   128
 71
     5
 72
     1
 73
     2
  0
VERTEX
  5
37E
  8
0
 62
     9
 10
0.0
 20
0.0
 30
0.0
 70
   128
 71
     3
 72
     1
 73
    11
  0
VERTEX
  5
37F
  8
0
 62
     9
 10
0.0
 20
0.0
 30
0.0
 70
   128
 71
     7
 72
     3
 73
     9
  0
VERTEX
  5
380
  8
0
 62
     9
 10
0.0
 20
0.0
 30
0.0
 70
   128
 71
    19
 72
    18
 73
    17
  0
VERTEX
  5
381
  8
0
 62
     9
 10
0.0
 20
0.0
 30
0.0
 70
   128
 71
    10
 72
    21
 73
    20
  0
VERTEX
  5
382
  8
0
 62
     9
 10
0.0
 20
0.0
 30
0.0
 70
   128
 71
    19
 72
    12
 73
    22
  0
VERTEX
  5
383
  8
0
 62
     9
 10
0.0
 20
0.0
 30
0.0
 70
   128
 71
    18
 72
    20
 73
    21
  0
VERTEX
  5
384
  8
0
 62
     9
 10
0.0
 20
0.0
 30
0.0
 70
   128
 71
    19
 72
    15
 73
    14
  0
VERTEX
  5
385
  8
0
 62
     9
 10
0.0
 20
0.0
 30
0.0
 70
   128
 71
    19
 72
    23
 73
    18
  0
VERTEX
  5
386
  8
0
 62
     9
 10
0.0
 20
0.0
 30
0.0
 70
   128
 71
    22
 72
    23
 73
    19
  0
VERTEX
  5
387
  8
0
 62
     9
 10
0.0
 20
0.0
 30
0.0
 70
   128
 71
    21
 72
    24
 73
    18
  0
VERTEX
  5
388
  8
0
 62
     9
 10
0.0
 20
0.0
 30
0.0
 70
   128
 71
    26
 72
    25
 73
    20
  0
VERTEX
  5
389
  8
0
 62
     9
 10
0.0
 20
0.0
 30
0.0
 70
   128
 71
    26
 72
    20
 73
    18
  0
VERTEX
  5
38A
  8
0
 62
     9
 10
0.0
 20
0.0
 30
0.0
 70
   128
 71
    25
 72
     8
 73
     9
  0
VERTEX
  5
38B
  8
0
 62
     9
 10
0.0
 20
0.0
 30
0.0
 70
   128
 71
     9
 72
    20
 73
    25
  0
VERTEX
  5
38C
  8
0
 62
     9
 10
0.0
 20
0.0
 30
0.0
 70
   128
 71
    20
 72
     9
 73
    10
  0
VERTEX
  5
38D
  8
0
 62
     9
 10
0.0
 20
0.0
 30
0.0
 70
   128
 71
    18
 72
    24
 73
    17
  0
VERTEX
  5
38E
  8
0
 62
     9
 10
0.0
 20
0.0
 30
0.0
 70
   128
 71
    18
 72
    23
 73
    26
  0
VERTEX
  5
38F
  8
0
 62
     9
 10
0.0
 20
0.0
 30
0.0
 70
   128
 71
    19
 72
    17
 73
    15
  0
VERTEX
  5
390
  8
0
 62
     9
 10
0.0
 20
0.0
 30
0.0
 70
   128
 71
    19
 72
    14
 73
    12
  0
SEQEND
  5
391
  8
0
 62
     9
  0
ENDBLK
  5
394
  8
0
  0
BLOCK
  8
0
  2
41
 70
     0
 10
0.0
 20
0.0
 30
0.0
  3
41
  1

  0
POLYLINE
  5
396
  8
0
 62
     9
 66
     1
 10
0.0
 20
0.0
 30
0.0
 70
    64
 71
    48
 72
    70
  0
VERTEX
  5
397
  8
0
 10
84.8661880493164
 20
-3.114120006561279
 30
84.01571655273438
 70
   192
  0
VERTEX
  5
398
  8
0
 10
96.5661849975586
 20
-0.0050470610149205
 30
83.6007080078125
 70
   192
  0
VERTEX
  5
399
  8
0
 10
84.8661880493164
 20
-0.0000000000000182
 30
83.59953308105469
 70
   192
  0
VERTEX
  5
39A
  8
0
 10
96.5661849975586
 20
-3.108601093292236
 30
84.00965881347656
 70
   192
  0
VERTEX
  5
39B
  8
0
 10
84.8661880493164
 20
-6.004231452941895
 30
85.22065734863281
 70
   192
  0
VERTEX
  5
39C
  8
0
 10
84.8661880493164
 20
-8.482648849487305
 30
87.12480163574219
 70
   192
  0
VERTEX
  5
39D
  8
0
 10
96.5661849975586
 20
-6.00211763381958
 30
85.20880889892578
 70
   192
  0
VERTEX
  5
39E
  8
0
 10
84.8661880493164
 20
-10.39013195037842
 30
89.6125717163086
 70
   192
  0
VERTEX
  5
39F
  8
0
 10
96.5661849975586
 20
-8.484969139099121
 30
87.11453247070312
 70
   192
  0
VERTEX
  5
3A0
  8
0
 10
96.5661849975586
 20
-10.3929443359375
 30
89.60177612304688
 70
   192
  0
VERTEX
  5
3A1
  8
0
 10
84.8661880493164
 20
-11.58674144744873
 30
92.50312805175781
 70
   192
  0
VERTEX
  5
3A2
  8
0
 10
84.8661880493164
 20
-12.0
 30
95.59953308105469
 70
   192
  0
VERTEX
  5
3A3
  8
0
 10
96.5661849975586
 20
-11.59097480773926
 30
92.49253845214844
 70
   192
  0
VERTEX
  5
3A4
  8
0
 10
96.5661849975586
 20
-11.99781227111816
 30
95.59953308105469
 70
   192
  0
VERTEX
  5
3A5
  8
0
 10
96.5661849975586
 20
3.106089115142822
 30
84.00802612304688
 70
   192
  0
VERTEX
  5
3A6
  8
0
 10
96.5661849975586
 20
5.996882438659668
 30
85.20597076416016
 70
   192
  0
VERTEX
  5
3A7
  8
0
 10
84.8661880493164
 20
3.101319313049316
 30
84.00802612304688
 70
   192
  0
VERTEX
  5
3A8
  8
0
 10
96.5661849975586
 20
8.478994369506836
 30
87.10964965820312
 70
   192
  0
VERTEX
  5
3A9
  8
0
 10
84.8661880493164
 20
5.998661518096924
 30
85.20128631591797
 70
   192
  0
VERTEX
  5
3AA
  8
0
 10
84.8661880493164
 20
8.49207878112793
 30
87.11216735839844
 70
   192
  0
VERTEX
  5
3AB
  8
0
 10
96.5661849975586
 20
10.39161396026611
 30
89.59795379638672
 70
   192
  0
VERTEX
  5
3AC
  8
0
 10
96.5661849975586
 20
11.58882236480713
 30
92.48738098144531
 70
   192
  0
VERTEX
  5
3AD
  8
0
 10
84.8661880493164
 20
10.39672660827637
 30
89.59568786621094
 70
   192
  0
VERTEX
  5
3AE
  8
0
 10
96.5661849975586
 20
12.0
 30
95.59953308105469
 70
   192
  0
VERTEX
  5
3AF
  8
0
 10
84.8661880493164
 20
11.5960578918457
 30
92.48869323730469
 70
   192
  0
VERTEX
  5
3B0
  8
0
 10
84.8661880493164
 20
12.0
 30
95.59953308105469
 70
   192
  0
VERTEX
  5
3B1
  8
0
 10
84.8661880493164
 20
-11.5960578918457
 30
98.71037292480469
 70
   192
  0
VERTEX
  5
3B2
  8
0
 10
96.5661849975586
 20
-11.59068202972412
 30
98.70530700683594
 70
   192
  0
VERTEX
  5
3B3
  8
0
 10
84.8661880493164
 20
-3.101319313049316
 30
107.1910400390625
 70
   192
  0
VERTEX
  5
3B4
  8
0
 10
96.5661849975586
 20
-5.996592044830322
 30
105.9931793212891
 70
   192
  0
VERTEX
  5
3B5
  8
0
 10
84.8661880493164
 20
-5.998661518096924
 30
105.9977798461914
 70
   192
  0
VERTEX
  5
3B6
  8
0
 10
96.5661849975586
 20
-10.39269733428955
 30
101.599235534668
 70
   192
  0
VERTEX
  5
3B7
  8
0
 10
84.8661880493164
 20
-10.39672660827637
 30
101.6033782958984
 70
   192
  0
VERTEX
  5
3B8
  8
0
 10
84.8661880493164
 20
-8.49207878112793
 30
104.0868988037109
 70
   192
  0
VERTEX
  5
3B9
  8
0
 10
84.8661880493164
 20
3.114120006561279
 30
107.183349609375
 70
   192
  0
VERTEX
  5
3BA
  8
0
 10
84.8661880493164
 20
6.004231452941895
 30
105.9784088134766
 70
   192
  0
VERTEX
  5
3BB
  8
0
 10
96.5661849975586
 20
3.108982801437378
 30
107.1892395019531
 70
   192
  0
VERTEX
  5
3BC
  8
0
 10
96.5661849975586
 20
-3.104048013687134
 30
107.1909637451172
 70
   192
  0
VERTEX
  5
3BD
  8
0
 10
84.8661880493164
 20
-0.0000000000000173
 30
107.5995330810547
 70
   192
  0
VERTEX
  5
3BE
  8
0
 10
96.5661849975586
 20
0.0043123862706125
 30
107.5986938476562
 70
   192
  0
VERTEX
  5
3BF
  8
0
 10
84.8661880493164
 20
8.482648849487305
 30
104.0742645263672
 70
   192
  0
VERTEX
  5
3C0
  8
0
 10
84.8661880493164
 20
10.39013195037842
 30
101.5864944458008
 70
   192
  0
VERTEX
  5
3C1
  8
0
 10
96.5661849975586
 20
8.490168571472168
 30
104.0778350830078
 70
   192
  0
VERTEX
  5
3C2
  8
0
 10
96.5661849975586
 20
6.00034761428833
 30
105.9921112060547
 70
   192
  0
VERTEX
  5
3C3
  8
0
 10
84.8661880493164
 20
11.58674144744873
 30
98.69593811035156
 70
   192
  0
VERTEX
  5
3C4
  8
0
 10
96.5661849975586
 20
10.39377117156982
 30
101.59619140625
 70
   192
  0
VERTEX
  5
3C5
  8
0
 10
96.5661849975586
 20
11.59164142608643
 30
98.70421600341797
 70
   192
  0
VERTEX
  5
3C6
  8
0
 10
96.5661849975586
 20
-8.484500885009766
 30
104.0846710205078
 70
   192
  0
VERTEX
  5
3C7
  8
0
 62
     9
 10
0.0
 20
0.0
 30
0.0
 70
   128
 71
     3
 72
     2
 73
     1
  0
VERTEX
  5
3C8
  8
0
 62
     9
 10
0.0
 20
0.0
 30
0.0
 70
   128
 71
     5
 72
     1
 73
     4
  0
VERTEX
  5
3C9
  8
0
 62
     9
 10
0.0
 20
0.0
 30
0.0
 70
   128
 71
     2
 72
     4
 73
     1
  0
VERTEX
  5
3CA
  8
0
 62
     9
 10
0.0
 20
0.0
 30
0.0
 70
   128
 71
     7
 72
     6
 73
     5
  0
VERTEX
  5
3CB
  8
0
 62
     9
 10
0.0
 20
0.0
 30
0.0
 70
   128
 71
     5
 72
     4
 73
     7
  0
VERTEX
  5
3CC
  8
0
 62
     9
 10
0.0
 20
0.0
 30
0.0
 70
   128
 71
     6
 72
     9
 73
     8
  0
VERTEX
  5
3CD
  8
0
 62
     9
 10
0.0
 20
0.0
 30
0.0
 70
   128
 71
     9
 72
     6
 73
     7
  0
VERTEX
  5
3CE
  8
0
 62
     9
 10
0.0
 20
0.0
 30
0.0
 70
   128
 71
    11
 72
     8
 73
    10
  0
VERTEX
  5
3CF
  8
0
 62
     9
 10
0.0
 20
0.0
 30
0.0
 70
   128
 71
     9
 72
    10
 73
     8
  0
VERTEX
  5
3D0
  8
0
 62
     9
 10
0.0
 20
0.0
 30
0.0
 70
   128
 71
    13
 72
    12
 73
    11
  0
VERTEX
  5
3D1
  8
0
 62
     9
 10
0.0
 20
0.0
 30
0.0
 70
   128
 71
    11
 72
    10
 73
    13
  0
VERTEX
  5
3D2
  8
0
 62
     9
 10
0.0
 20
0.0
 30
0.0
 70
   128
 71
    14
 72
    12
 73
    13
  0
VERTEX
  5
3D3
  8
0
 62
     9
 10
0.0
 20
0.0
 30
0.0
 70
   128
 71
    15
 72
     2
 73
     3
  0
VERTEX
  5
3D4
  8
0
 62
     9
 10
0.0
 20
0.0
 30
0.0
 70
   128
 71
    17
 72
    16
 73
    15
  0
VERTEX
  5
3D5
  8
0
 62
     9
 10
0.0
 20
0.0
 30
0.0
 70
   128
 71
    15
 72
     3
 73
    17
  0
VERTEX
  5
3D6
  8
0
 62
     9
 10
0.0
 20
0.0
 30
0.0
 70
   128
 71
    16
 72
    19
 73
    18
  0
VERTEX
  5
3D7
  8
0
 62
     9
 10
0.0
 20
0.0
 30
0.0
 70
   128
 71
    19
 72
    16
 73
    17
  0
VERTEX
  5
3D8
  8
0
 62
     9
 10
0.0
 20
0.0
 30
0.0
 70
   128
 71
    21
 72
    18
 73
    20
  0
VERTEX
  5
3D9
  8
0
 62
     9
 10
0.0
 20
0.0
 30
0.0
 70
   128
 71
    19
 72
    20
 73
    18
  0
VERTEX
  5
3DA
  8
0
 62
     9
 10
0.0
 20
0.0
 30
0.0
 70
   128
 71
    23
 72
    22
 73
    21
  0
VERTEX
  5
3DB
  8
0
 62
     9
 10
0.0
 20
0.0
 30
0.0
 70
   128
 71
    21
 72
    20
 73
    23
  0
VERTEX
  5
3DC
  8
0
 62
     9
 10
0.0
 20
0.0
 30
0.0
 70
   128
 71
    22
 72
    25
 73
    24
  0
VERTEX
  5
3DD
  8
0
 62
     9
 10
0.0
 20
0.0
 30
0.0
 70
   128
 71
    25
 72
    22
 73
    23
  0
VERTEX
  5
3DE
  8
0
 62
     9
 10
0.0
 20
0.0
 30
0.0
 70
   128
 71
    25
 72
    26
 73
    24
  0
VERTEX
  5
3DF
  8
0
 62
     9
 10
0.0
 20
0.0
 30
0.0
 70
   128
 71
    14
 72
    28
 73
    27
  0
VERTEX
  5
3E0
  8
0
 62
     9
 10
0.0
 20
0.0
 30
0.0
 70
   128
 71
    31
 72
    30
 73
    29
  0
VERTEX
  5
3E1
  8
0
 62
     9
 10
0.0
 20
0.0
 30
0.0
 70
   128
 71
    34
 72
    33
 73
    32
  0
VERTEX
  5
3E2
  8
0
 62
     9
 10
0.0
 20
0.0
 30
0.0
 70
   128
 71
    37
 72
    36
 73
    35
  0
VERTEX
  5
3E3
  8
0
 62
     9
 10
0.0
 20
0.0
 30
0.0
 70
   128
 71
    40
 72
    39
 73
    38
  0
VERTEX
  5
3E4
  8
0
 62
     9
 10
0.0
 20
0.0
 30
0.0
 70
   128
 71
    43
 72
    42
 73
    41
  0
VERTEX
  5
3E5
  8
0
 62
     9
 10
0.0
 20
0.0
 30
0.0
 70
   128
 71
    41
 72
    36
 73
    44
  0
VERTEX
  5
3E6
  8
0
 62
     9
 10
0.0
 20
0.0
 30
0.0
 70
   128
 71
    42
 72
    46
 73
    45
  0
VERTEX
  5
3E7
  8
0
 62
     9
 10
0.0
 20
0.0
 30
0.0
 70
   128
 71
    46
 72
    42
 73
    43
  0
VERTEX
  5
3E8
  8
0
 62
     9
 10
0.0
 20
0.0
 30
0.0
 70
   128
 71
    26
 72
    45
 73
    47
  0
VERTEX
  5
3E9
  8
0
 62
     9
 10
0.0
 20
0.0
 30
0.0
 70
   128
 71
    46
 72
    47
 73
    45
  0
VERTEX
  5
3EA
  8
0
 62
     9
 10
0.0
 20
0.0
 30
0.0
 70
   128
 71
    26
 72
    47
 73
    24
  0
VERTEX
  5
3EB
  8
0
 62
     9
 10
0.0
 20
0.0
 30
0.0
 70
   128
 71
    36
 72
    37
 73
    44
  0
VERTEX
  5
3EC
  8
0
 62
     9
 10
0.0
 20
0.0
 30
0.0
 70
   128
 71
    43
 72
    41
 73
    44
  0
VERTEX
  5
3ED
  8
0
 62
     9
 10
0.0
 20
0.0
 30
0.0
 70
   128
 71
    40
 72
    35
 73
    39
  0
VERTEX
  5
3EE
  8
0
 62
     9
 10
0.0
 20
0.0
 30
0.0
 70
   128
 71
    37
 72
    35
 73
    40
  0
VERTEX
  5
3EF
  8
0
 62
     9
 10
0.0
 20
0.0
 30
0.0
 70
   128
 71
    30
 72
    38
 73
    29
  0
VERTEX
  5
3F0
  8
0
 62
     9
 10
0.0
 20
0.0
 30
0.0
 70
   128
 71
    38
 72
    39
 73
    29
  0
VERTEX
  5
3F1
  8
0
 62
     9
 10
0.0
 20
0.0
 30
0.0
 70
   128
 71
    34
 72
    48
 73
    31
  0
VERTEX
  5
3F2
  8
0
 62
     9
 10
0.0
 20
0.0
 30
0.0
 70
   128
 71
    48
 72
    30
 73
    31
  0
VERTEX
  5
3F3
  8
0
 62
     9
 10
0.0
 20
0.0
 30
0.0
 70
   128
 71
    33
 72
    28
 73
    32
  0
VERTEX
  5
3F4
  8
0
 62
     9
 10
0.0
 20
0.0
 30
0.0
 70
   128
 71
    34
 72
    32
 73
    48
  0
VERTEX
  5
3F5
  8
0
 62
     9
 10
0.0
 20
0.0
 30
0.0
 70
   128
 71
    27
 72
    12
 73
    14
  0
VERTEX
  5
3F6
  8
0
 62
     9
 10
0.0
 20
0.0
 30
0.0
 70
   128
 71
    33
 72
    27
 73
    28
  0
VERTEX
  5
3F7
  8
0
 62
     9
 10
0.0
 20
0.0
 30
0.0
 70
   128
 71
    21
 72
    22
 73
    30
  0
VERTEX
  5
3F8
  8
0
 62
     9
 10
0.0
 20
0.0
 30
0.0
 70
   128
 71
    37
 72
    43
 73
    44
  0
VERTEX
  5
3F9
  8
0
 62
     9
 10
0.0
 20
0.0
 30
0.0
 70
   128
 71
    46
 72
    43
 73
    47
  0
VERTEX
  5
3FA
  8
0
 62
     9
 10
0.0
 20
0.0
 30
0.0
 70
   128
 71
    37
 72
    24
 73
    47
  0
VERTEX
  5
3FB
  8
0
 62
     9
 10
0.0
 20
0.0
 30
0.0
 70
   128
 71
    43
 72
    37
 73
    47
  0
VERTEX
  5
3FC
  8
0
 62
     9
 10
0.0
 20
0.0
 30
0.0
 70
   128
 71
    38
 72
    22
 73
    40
  0
VERTEX
  5
3FD
  8
0
 62
     9
 10
0.0
 20
0.0
 30
0.0
 70
   128
 71
    40
 72
    24
 73
    37
  0
VERTEX
  5
3FE
  8
0
 62
     9
 10
0.0
 20
0.0
 30
0.0
 70
   128
 71
    14
 72
    15
 73
    28
  0
VERTEX
  5
3FF
  8
0
 62
     9
 10
0.0
 20
0.0
 30
0.0
 70
   128
 71
    18
 72
    48
 73
    32
  0
VERTEX
  5
400
  8
0
 62
     9
 10
0.0
 20
0.0
 30
0.0
 70
   128
 71
    14
 72
     4
 73
     2
  0
VERTEX
  5
401
  8
0
 62
     9
 10
0.0
 20
0.0
 30
0.0
 70
   128
 71
     7
 72
     4
 73
    10
  0
VERTEX
  5
402
  8
0
 62
     9
 10
0.0
 20
0.0
 30
0.0
 70
   128
 71
    13
 72
    10
 73
     4
  0
VERTEX
  5
403
  8
0
 62
     9
 10
0.0
 20
0.0
 30
0.0
 70
   128
 71
     7
 72
    10
 73
     9
  0
VERTEX
  5
404
  8
0
 62
     9
 10
0.0
 20
0.0
 30
0.0
 70
   128
 71
     4
 72
    14
 73
    13
  0
VERTEX
  5
405
  8
0
 62
     9
 10
0.0
 20
0.0
 30
0.0
 70
   128
 71
    15
 72
    16
 73
    28
  0
VERTEX
  5
406
  8
0
 62
     9
 10
0.0
 20
0.0
 30
0.0
 70
   128
 71
    15
 72
    14
 73
     2
  0
VERTEX
  5
407
  8
0
 62
     9
 10
0.0
 20
0.0
 30
0.0
 70
   128
 71
    18
 72
    32
 73
    16
  0
VERTEX
  5
408
  8
0
 62
     9
 10
0.0
 20
0.0
 30
0.0
 70
   128
 71
    28
 72
    16
 73
    32
  0
VERTEX
  5
409
  8
0
 62
     9
 10
0.0
 20
0.0
 30
0.0
 70
   128
 71
    18
 72
    21
 73
    30
  0
VERTEX
  5
40A
  8
0
 62
     9
 10
0.0
 20
0.0
 30
0.0
 70
   128
 71
    48
 72
    18
 73
    30
  0
VERTEX
  5
40B
  8
0
 62
     9
 10
0.0
 20
0.0
 30
0.0
 70
   128
 71
    22
 72
    24
 73
    40
  0
VERTEX
  5
40C
  8
0
 62
     9
 10
0.0
 20
0.0
 30
0.0
 70
   128
 71
    30
 72
    22
 73
    38
  0
SEQEND
  5
40D
  8
0
 62
     9
  0
ENDBLK
  5
410
  8
0
  0
BLOCK
  8
0
  2
42
 70
     0
 10
0.0
 20
0.0
 30
0.0
  3
42
  1

  0
POLYLINE
  5
412
  8
0
 62
     9
 66
     1
 10
0.0
 20
0.0
 30
0.0
 70
    64
 71
   118
 72
   198
  0
VERTEX
  5
413
  8
0
 10
69.83000183105469
 20
5.770793914794922
 30
95.59953308105469
 70
   192
  0
VERTEX
  5
414
  8
0
 10
66.62999725341797
 20
5.687217235565186
 30
96.59892272949219
 70
   192
  0
VERTEX
  5
415
  8
0
 10
66.62999725341797
 20
5.686285018920898
 30
94.5938720703125
 70
   192
  0
VERTEX
  5
416
  8
0
 10
66.62999725341797
 20
4.996510028839111
 30
92.70860290527344
 70
   192
  0
VERTEX
  5
417
  8
0
 10
69.83000183105469
 20
5.494686603546143
 30
93.820068359375
 70
   192
  0
VERTEX
  5
418
  8
0
 10
69.83000183105469
 20
4.674339294433594
 30
92.20445251464844
 70
   192
  0
VERTEX
  5
419
  8
0
 10
69.83000183105469
 20
3.392103910446167
 30
90.92089080810547
 70
   192
  0
VERTEX
  5
41A
  8
0
 10
66.62999725341797
 20
3.709435939788818
 30
91.1756362915039
 70
   192
  0
VERTEX
  5
41B
  8
0
 10
66.62999725341797
 20
1.967573165893555
 30
90.19910430908203
 70
   192
  0
VERTEX
  5
41C
  8
0
 10
69.83000183105469
 20
1.778507471084595
 30
90.11248016357422
 70
   192
  0
VERTEX
  5
41D
  8
0
 10
66.62999725341797
 20
-0.0000000000000067
 30
89.82453155517578
 70
   192
  0
VERTEX
  5
41E
  8
0
 10
69.83000183105469
 20
-0.0000000000000081
 30
89.82453155517578
 70
   192
  0
VERTEX
  5
41F
  8
0
 10
69.83000183105469
 20
5.486907005310059
 30
97.39543914794922
 70
   192
  0
VERTEX
  5
420
  8
0
 10
69.83000183105469
 20
4.658982753753662
 30
99.00653839111328
 70
   192
  0
VERTEX
  5
421
  8
0
 10
66.62999725341797
 20
5.003947257995605
 30
98.48448181152344
 70
   192
  0
VERTEX
  5
422
  8
0
 10
66.62999725341797
 20
3.715249538421631
 30
100.0233306884766
 70
   192
  0
VERTEX
  5
423
  8
0
 10
69.83000183105469
 20
3.373951435089111
 30
100.2828674316406
 70
   192
  0
VERTEX
  5
424
  8
0
 10
69.83000183105469
 20
1.774004340171814
 30
101.0541915893555
 70
   192
  0
VERTEX
  5
425
  8
0
 10
66.62999725341797
 20
1.977598667144775
 30
101.0121536254883
 70
   192
  0
VERTEX
  5
426
  8
0
 10
66.62999725341797
 20
-0.0000000000000068
 30
101.3745346069336
 70
   192
  0
VERTEX
  5
427
  8
0
 10
69.83000183105469
 20
-0.0000000000000104
 30
101.3745346069336
 70
   192
  0
VERTEX
  5
428
  8
0
 10
71.82423400878906
 20
6.982422351837158
 30
93.95625305175781
 70
   192
  0
VERTEX
  5
429
  8
0
 10
71.82423400878906
 20
5.935107707977295
 30
91.57099914550781
 70
   192
  0
VERTEX
  5
42A
  8
0
 10
71.82423400878906
 20
4.028533935546875
 30
89.6644287109375
 70
   192
  0
VERTEX
  5
42B
  8
0
 10
74.27179718017578
 20
4.450643539428711
 30
89.04254150390625
 70
   192
  0
VERTEX
  5
42C
  8
0
 10
76.83145904541016
 20
1.801686644554138
 30
87.94401550292969
 70
   192
  0
VERTEX
  5
42D
  8
0
 10
74.27179718017578
 20
1.815460324287415
 30
87.88549041748047
 70
   192
  0
VERTEX
  5
42E
  8
0
 10
74.27179718017578
 20
6.556987762451172
 30
91.14888763427734
 70
   192
  0
VERTEX
  5
42F
  8
0
 10
79.12999725341797
 20
-0.0000000000000109
 30
88.54022979736328
 70
   192
  0
VERTEX
  5
430
  8
0
 10
76.75248718261719
 20
-0.0000000000000079
 30
87.75113677978516
 70
   192
  0
VERTEX
  5
431
  8
0
 10
71.82423400878906
 20
1.643277764320374
 30
88.61711120605469
 70
   192
  0
VERTEX
  5
432
  8
0
 10
74.27179718017578
 20
-0.0000000000000059
 30
87.67474365234375
 70
   192
  0
VERTEX
  5
433
  8
0
 10
71.9046630859375
 20
7.178929328918457
 30
95.59953308105469
 70
   192
  0
VERTEX
  5
434
  8
0
 10
74.27179718017578
 20
7.714040279388428
 30
93.78407287597656
 70
   192
  0
VERTEX
  5
435
  8
0
 10
76.83145904541016
 20
6.507240295410156
 30
91.18265533447266
 70
   192
  0
VERTEX
  5
436
  8
0
 10
76.83145904541016
 20
7.655514717102051
 30
93.79784393310547
 70
   192
  0
VERTEX
  5
437
  8
0
 10
79.12999725341797
 20
6.745964527130127
 30
93.53015899658203
 70
   192
  0
VERTEX
  5
438
  8
0
 10
79.12999725341797
 20
5.746167659759521
 30
91.50000762939453
 70
   192
  0
VERTEX
  5
439
  8
0
 10
79.12999725341797
 20
7.059299945831299
 30
95.59953308105469
 70
   192
  0
VERTEX
  5
43A
  8
0
 10
74.27179718017578
 20
7.92479133605957
 30
95.59953308105469
 70
   192
  0
VERTEX
  5
43B
  8
0
 10
76.83145904541016
 20
4.416876792907715
 30
89.09229278564453
 70
   192
  0
VERTEX
  5
43C
  8
0
 10
79.12999725341797
 20
4.105617046356201
 30
89.85736846923828
 70
   192
  0
VERTEX
  5
43D
  8
0
 10
71.91597747802734
 20
-0.0000000000000059
 30
88.45712280273438
 70
   192
  0
VERTEX
  5
43E
  8
0
 10
76.7514877319336
 20
7.810181140899658
 30
95.59953308105469
 70
   192
  0
VERTEX
  5
43F
  8
0
 10
79.12999725341797
 20
2.078851222991943
 30
88.85149383544922
 70
   192
  0
VERTEX
  5
440
  8
0
 10
71.82423400878906
 20
1.643277764320374
 30
102.5819549560547
 70
   192
  0
VERTEX
  5
441
  8
0
 10
71.82423400878906
 20
4.028533935546875
 30
101.5346374511719
 70
   192
  0
VERTEX
  5
442
  8
0
 10
71.82423400878906
 20
5.935107707977295
 30
99.62806701660156
 70
   192
  0
VERTEX
  5
443
  8
0
 10
74.27179718017578
 20
6.556987762451172
 30
100.050178527832
 70
   192
  0
VERTEX
  5
444
  8
0
 10
76.83145904541016
 20
7.655514717102051
 30
97.4012222290039
 70
   192
  0
VERTEX
  5
445
  8
0
 10
74.27179718017578
 20
7.714040279388428
 30
97.41499328613281
 70
   192
  0
VERTEX
  5
446
  8
0
 10
74.27179718017578
 20
4.450643539428711
 30
102.1565170288086
 70
   192
  0
VERTEX
  5
447
  8
0
 10
71.82423400878906
 20
6.982422351837158
 30
97.24281311035156
 70
   192
  0
VERTEX
  5
448
  8
0
 10
71.9046630859375
 20
-0.0000000000000176
 30
102.7784652709961
 70
   192
  0
VERTEX
  5
449
  8
0
 10
74.27179718017578
 20
1.815460324287415
 30
103.3135757446289
 70
   192
  0
VERTEX
  5
44A
  8
0
 10
76.83145904541016
 20
4.416876792907715
 30
102.1067733764648
 70
   192
  0
VERTEX
  5
44B
  8
0
 10
76.83145904541016
 20
1.801686644554138
 30
103.2550506591797
 70
   192
  0
VERTEX
  5
44C
  8
0
 10
79.12999725341797
 20
2.069375991821289
 30
102.3454971313477
 70
   192
  0
VERTEX
  5
44D
  8
0
 10
79.12999725341797
 20
4.099523544311523
 30
101.345703125
 70
   192
  0
VERTEX
  5
44E
  8
0
 10
79.12999725341797
 20
-0.0000000000000131
 30
102.6588363647461
 70
   192
  0
VERTEX
  5
44F
  8
0
 10
74.27179718017578
 20
-0.0000000000000156
 30
103.5243225097656
 70
   192
  0
VERTEX
  5
450
  8
0
 10
76.83145904541016
 20
6.507240295410156
 30
100.0164108276367
 70
   192
  0
VERTEX
  5
451
  8
0
 10
79.12999725341797
 20
5.742164611816406
 30
99.70514678955078
 70
   192
  0
VERTEX
  5
452
  8
0
 10
76.7514877319336
 20
-0.0000000000000126
 30
103.4097137451172
 70
   192
  0
VERTEX
  5
453
  8
0
 10
79.12999725341797
 20
6.748043060302734
 30
97.67838287353516
 70
   192
  0
VERTEX
  5
454
  8
0
 10
71.82423400878906
 20
-6.982422351837158
 30
97.24281311035156
 70
   192
  0
VERTEX
  5
455
  8
0
 10
69.83000183105469
 20
-5.494686603546143
 30
97.37899780273438
 70
   192
  0
VERTEX
  5
456
  8
0
 10
71.82423400878906
 20
-5.935107707977295
 30
99.62806701660156
 70
   192
  0
VERTEX
  5
457
  8
0
 10
71.82423400878906
 20
-4.028533935546875
 30
101.5346374511719
 70
   192
  0
VERTEX
  5
458
  8
0
 10
69.83000183105469
 20
-3.392103910446167
 30
100.2781753540039
 70
   192
  0
VERTEX
  5
459
  8
0
 10
69.83000183105469
 20
-1.778507471084595
 30
101.0865859985352
 70
   192
  0
VERTEX
  5
45A
  8
0
 10
69.83000183105469
 20
-4.674339294433594
 30
98.99461364746094
 70
   192
  0
VERTEX
  5
45B
  8
0
 10
74.27179718017578
 20
-4.450643539428711
 30
102.1565170288086
 70
   192
  0
VERTEX
  5
45C
  8
0
 10
76.83145904541016
 20
-1.801686644554138
 30
103.2550506591797
 70
   192
  0
VERTEX
  5
45D
  8
0
 10
74.27179718017578
 20
-1.815460324287415
 30
103.3135757446289
 70
   192
  0
VERTEX
  5
45E
  8
0
 10
74.27179718017578
 20
-6.556987762451172
 30
100.050178527832
 70
   192
  0
VERTEX
  5
45F
  8
0
 10
71.82423400878906
 20
-1.643277764320374
 30
102.5819549560547
 70
   192
  0
VERTEX
  5
460
  8
0
 10
71.9046630859375
 20
-7.178929328918457
 30
95.59953308105469
 70
   192
  0
VERTEX
  5
461
  8
0
 10
69.83000183105469
 20
-5.770793914794922
 30
95.59953308105469
 70
   192
  0
VERTEX
  5
462
  8
0
 10
74.27179718017578
 20
-7.714040279388428
 30
97.41499328613281
 70
   192
  0
VERTEX
  5
463
  8
0
 10
76.83145904541016
 20
-6.507240295410156
 30
100.0164108276367
 70
   192
  0
VERTEX
  5
464
  8
0
 10
76.83145904541016
 20
-7.655514717102051
 30
97.4012222290039
 70
   192
  0
VERTEX
  5
465
  8
0
 10
79.12999725341797
 20
-6.745964527130127
 30
97.66890716552734
 70
   192
  0
VERTEX
  5
466
  8
0
 10
79.12999725341797
 20
-5.746167659759521
 30
99.69905853271484
 70
   192
  0
VERTEX
  5
467
  8
0
 10
79.12999725341797
 20
-7.059299945831299
 30
95.59953308105469
 70
   192
  0
VERTEX
  5
468
  8
0
 10
74.27179718017578
 20
-7.92479133605957
 30
95.59953308105469
 70
   192
  0
VERTEX
  5
469
  8
0
 10
76.83145904541016
 20
-4.416876792907715
 30
102.1067733764648
 70
   192
  0
VERTEX
  5
46A
  8
0
 10
79.12999725341797
 20
-4.105617046356201
 30
101.3416976928711
 70
   192
  0
VERTEX
  5
46B
  8
0
 10
76.7514877319336
 20
-7.810181140899658
 30
95.59953308105469
 70
   192
  0
VERTEX
  5
46C
  8
0
 10
79.12999725341797
 20
-2.078851222991943
 30
102.3475723266602
 70
   192
  0
VERTEX
  5
46D
  8
0
 10
69.83000183105469
 20
-1.774004340171814
 30
90.1448745727539
 70
   192
  0
VERTEX
  5
46E
  8
0
 10
69.83000183105469
 20
-3.373951435089111
 30
90.91619873046875
 70
   192
  0
VERTEX
  5
46F
  8
0
 10
71.82423400878906
 20
-4.028533935546875
 30
89.6644287109375
 70
   192
  0
VERTEX
  5
470
  8
0
 10
76.83145904541016
 20
-7.655514717102051
 30
93.79784393310547
 70
   192
  0
VERTEX
  5
471
  8
0
 10
76.83145904541016
 20
-4.416876792907715
 30
89.09229278564453
 70
   192
  0
VERTEX
  5
472
  8
0
 10
79.12999725341797
 20
-2.069375991821289
 30
88.85356903076172
 70
   192
  0
VERTEX
  5
473
  8
0
 10
76.83145904541016
 20
-1.801686644554138
 30
87.94401550292969
 70
   192
  0
VERTEX
  5
474
  8
0
 10
79.12999725341797
 20
-4.099523544311523
 30
89.85336303710938
 70
   192
  0
VERTEX
  5
475
  8
0
 10
71.82423400878906
 20
-5.935107707977295
 30
91.57099914550781
 70
   192
  0
VERTEX
  5
476
  8
0
 10
74.27179718017578
 20
-6.556987762451172
 30
91.14888763427734
 70
   192
  0
VERTEX
  5
477
  8
0
 10
74.27179718017578
 20
-7.714040279388428
 30
93.78407287597656
 70
   192
  0
VERTEX
  5
478
  8
0
 10
74.27179718017578
 20
-4.450643539428711
 30
89.04254150390625
 70
   192
  0
VERTEX
  5
479
  8
0
 10
71.82423400878906
 20
-6.982422351837158
 30
93.95625305175781
 70
   192
  0
VERTEX
  5
47A
  8
0
 10
69.83000183105469
 20
-4.658982753753662
 30
92.1925277709961
 70
   192
  0
VERTEX
  5
47B
  8
0
 10
69.83000183105469
 20
-5.486907005310059
 30
93.80362701416016
 70
   192
  0
VERTEX
  5
47C
  8
0
 10
71.82423400878906
 20
-1.643277764320374
 30
88.61711120605469
 70
   192
  0
VERTEX
  5
47D
  8
0
 10
74.27179718017578
 20
-1.815460324287415
 30
87.88549041748047
 70
   192
  0
VERTEX
  5
47E
  8
0
 10
76.83145904541016
 20
-6.507240295410156
 30
91.18265533447266
 70
   192
  0
VERTEX
  5
47F
  8
0
 10
79.12999725341797
 20
-5.742164611816406
 30
91.4939193725586
 70
   192
  0
VERTEX
  5
480
  8
0
 10
79.12999725341797
 20
-6.748043060302734
 30
93.52068328857422
 70
   192
  0
VERTEX
  5
481
  8
0
 10
66.62999725341797
 20
-5.687217235565186
 30
94.60014343261719
 70
   192
  0
VERTEX
  5
482
  8
0
 10
66.62999725341797
 20
-5.003947257995605
 30
92.71458435058594
 70
   192
  0
VERTEX
  5
483
  8
0
 10
66.62999725341797
 20
-3.715249538421631
 30
91.17573547363281
 70
   192
  0
VERTEX
  5
484
  8
0
 10
66.62999725341797
 20
-4.996510028839111
 30
98.49046325683594
 70
   192
  0
VERTEX
  5
485
  8
0
 10
66.62999725341797
 20
-5.686285018920898
 30
96.60519409179688
 70
   192
  0
VERTEX
  5
486
  8
0
 10
66.62999725341797
 20
-1.967573165893555
 30
100.9999618530273
 70
   192
  0
VERTEX
  5
487
  8
0
 10
66.62999725341797
 20
-3.709435939788818
 30
100.0234298706055
 70
   192
  0
VERTEX
  5
488
  8
0
 10
66.62999725341797
 20
-1.977598667144775
 30
90.1869125366211
 70
   192
  0
VERTEX
  5
489
  8
0
 62
     9
 10
0.0
 20
0.0
 30
0.0
 70
   128
 71
     3
 72
     2
 73
     1
  0
VERTEX
  5
48A
  8
0
 62
     9
 10
0.0
 20
0.0
 30
0.0
 70
   128
 71
     5
 72
     4
 73
     3
  0
VERTEX
  5
48B
  8
0
 62
     9
 10
0.0
 20
0.0
 30
0.0
 70
   128
 71
     3
 72
     1
 73
     5
  0
VERTEX
  5
48C
  8
0
 62
     9
 10
0.0
 20
0.0
 30
0.0
 70
   128
 71
     6
 72
     4
 73
     5
  0
VERTEX
  5
48D
  8
0
 62
     9
 10
0.0
 20
0.0
 30
0.0
 70
   128
 71
     8
 72
     6
 73
     7
  0
VERTEX
  5
48E
  8
0
 62
     9
 10
0.0
 20
0.0
 30
0.0
 70
   128
 71
     6
 72
     8
 73
     4
  0
VERTEX
  5
48F
  8
0
 62
     9
 10
0.0
 20
0.0
 30
0.0
 70
   128
 71
    10
 72
     9
 73
     7
  0
VERTEX
  5
490
  8
0
 62
     9
 10
0.0
 20
0.0
 30
0.0
 70
   128
 71
     8
 72
     7
 73
     9
  0
VERTEX
  5
491
  8
0
 62
     9
 10
0.0
 20
0.0
 30
0.0
 70
   128
 71
    11
 72
     9
 73
    10
  0
VERTEX
  5
492
  8
0
 62
     9
 10
0.0
 20
0.0
 30
0.0
 70
   128
 71
    12
 72
    11
 73
    10
  0
VERTEX
  5
493
  8
0
 62
     9
 10
0.0
 20
0.0
 30
0.0
 70
   128
 71
    13
 72
     1
 73
     2
  0
VERTEX
  5
494
  8
0
 62
     9
 10
0.0
 20
0.0
 30
0.0
 70
   128
 71
    13
 72
    15
 73
    14
  0
VERTEX
  5
495
  8
0
 62
     9
 10
0.0
 20
0.0
 30
0.0
 70
   128
 71
    15
 72
    13
 73
     2
  0
VERTEX
  5
496
  8
0
 62
     9
 10
0.0
 20
0.0
 30
0.0
 70
   128
 71
    17
 72
    14
 73
    16
  0
VERTEX
  5
497
  8
0
 62
     9
 10
0.0
 20
0.0
 30
0.0
 70
   128
 71
    15
 72
    16
 73
    14
  0
VERTEX
  5
498
  8
0
 62
     9
 10
0.0
 20
0.0
 30
0.0
 70
   128
 71
    19
 72
    18
 73
    17
  0
VERTEX
  5
499
  8
0
 62
     9
 10
0.0
 20
0.0
 30
0.0
 70
   128
 71
    17
 72
    16
 73
    19
  0
VERTEX
  5
49A
  8
0
 62
     9
 10
0.0
 20
0.0
 30
0.0
 70
   128
 71
    20
 72
    18
 73
    19
  0
VERTEX
  5
49B
  8
0
 62
     9
 10
0.0
 20
0.0
 30
0.0
 70
   128
 71
    20
 72
    21
 73
    18
  0
VERTEX
  5
49C
  8
0
 62
     9
 10
0.0
 20
0.0
 30
0.0
 70
   128
 71
    23
 72
     5
 73
    22
  0
VERTEX
  5
49D
  8
0
 62
     9
 10
0.0
 20
0.0
 30
0.0
 70
   128
 71
    10
 72
     7
 73
    24
  0
VERTEX
  5
49E
  8
0
 62
     9
 10
0.0
 20
0.0
 30
0.0
 70
   128
 71
    24
 72
     6
 73
    23
  0
VERTEX
  5
49F
  8
0
 62
     9
 10
0.0
 20
0.0
 30
0.0
 70
   128
 71
    25
 72
    24
 73
    23
  0
VERTEX
  5
4A0
  8
0
 62
     9
 10
0.0
 20
0.0
 30
0.0
 70
   128
 71
    27
 72
    25
 73
    26
  0
VERTEX
  5
4A1
  8
0
 62
     9
 10
0.0
 20
0.0
 30
0.0
 70
   128
 71
    23
 72
    28
 73
    25
  0
VERTEX
  5
4A2
  8
0
 62
     9
 10
0.0
 20
0.0
 30
0.0
 70
   128
 71
    30
 72
    26
 73
    29
  0
VERTEX
  5
4A3
  8
0
 62
     9
 10
0.0
 20
0.0
 30
0.0
 70
   128
 71
     5
 72
    23
 73
     6
  0
VERTEX
  5
4A4
  8
0
 62
     9
 10
0.0
 20
0.0
 30
0.0
 70
   128
 71
    12
 72
    10
 73
    31
  0
VERTEX
  5
4A5
  8
0
 62
     9
 10
0.0
 20
0.0
 30
0.0
 70
   128
 71
    27
 72
    32
 73
    31
  0
VERTEX
  5
4A6
  8
0
 62
     9
 10
0.0
 20
0.0
 30
0.0
 70
   128
 71
     1
 72
    33
 73
    22
  0
VERTEX
  5
4A7
  8
0
 62
     9
 10
0.0
 20
0.0
 30
0.0
 70
   128
 71
     1
 72
    22
 73
     5
  0
VERTEX
  5
4A8
  8
0
 62
     9
 10
0.0
 20
0.0
 30
0.0
 70
   128
 71
    36
 72
    35
 73
    34
  0
VERTEX
  5
4A9
  8
0
 62
     9
 10
0.0
 20
0.0
 30
0.0
 70
   128
 71
    35
 72
    36
 73
    37
  0
VERTEX
  5
4AA
  8
0
 62
     9
 10
0.0
 20
0.0
 30
0.0
 70
   128
 71
    38
 72
    35
 73
    37
  0
VERTEX
  5
4AB
  8
0
 62
     9
 10
0.0
 20
0.0
 30
0.0
 70
   128
 71
    36
 72
    39
 73
    37
  0
VERTEX
  5
4AC
  8
0
 62
     9
 10
0.0
 20
0.0
 30
0.0
 70
   128
 71
    34
 72
    33
 73
    40
  0
VERTEX
  5
4AD
  8
0
 62
     9
 10
0.0
 20
0.0
 30
0.0
 70
   128
 71
    42
 72
    41
 73
    35
  0
VERTEX
  5
4AE
  8
0
 62
     9
 10
0.0
 20
0.0
 30
0.0
 70
   128
 71
    22
 72
    33
 73
    34
  0
VERTEX
  5
4AF
  8
0
 62
     9
 10
0.0
 20
0.0
 30
0.0
 70
   128
 71
    43
 72
    31
 73
    32
  0
VERTEX
  5
4B0
  8
0
 62
     9
 10
0.0
 20
0.0
 30
0.0
 70
   128
 71
    24
 72
    31
 73
    10
  0
VERTEX
  5
4B1
  8
0
 62
     9
 10
0.0
 20
0.0
 30
0.0
 70
   128
 71
    24
 72
     7
 73
     6
  0
VERTEX
  5
4B2
  8
0
 62
     9
 10
0.0
 20
0.0
 30
0.0
 70
   128
 71
    25
 72
    27
 73
    24
  0
VERTEX
  5
4B3
  8
0
 62
     9
 10
0.0
 20
0.0
 30
0.0
 70
   128
 71
    31
 72
    43
 73
    12
  0
VERTEX
  5
4B4
  8
0
 62
     9
 10
0.0
 20
0.0
 30
0.0
 70
   128
 71
    28
 72
    22
 73
    34
  0
VERTEX
  5
4B5
  8
0
 62
     9
 10
0.0
 20
0.0
 30
0.0
 70
   128
 71
    40
 72
    44
 73
    36
  0
VERTEX
  5
4B6
  8
0
 62
     9
 10
0.0
 20
0.0
 30
0.0
 70
   128
 71
    41
 72
    25
 73
    28
  0
VERTEX
  5
4B7
  8
0
 62
     9
 10
0.0
 20
0.0
 30
0.0
 70
   128
 71
    28
 72
    23
 73
    22
  0
VERTEX
  5
4B8
  8
0
 62
     9
 10
0.0
 20
0.0
 30
0.0
 70
   128
 71
    41
 72
    28
 73
    35
  0
VERTEX
  5
4B9
  8
0
 62
     9
 10
0.0
 20
0.0
 30
0.0
 70
   128
 71
    31
 72
    24
 73
    27
  0
VERTEX
  5
4BA
  8
0
 62
     9
 10
0.0
 20
0.0
 30
0.0
 70
   128
 71
    41
 72
    26
 73
    25
  0
VERTEX
  5
4BB
  8
0
 62
     9
 10
0.0
 20
0.0
 30
0.0
 70
   128
 71
    32
 72
    27
 73
    30
  0
VERTEX
  5
4BC
  8
0
 62
     9
 10
0.0
 20
0.0
 30
0.0
 70
   128
 71
    36
 72
    34
 73
    40
  0
VERTEX
  5
4BD
  8
0
 62
     9
 10
0.0
 20
0.0
 30
0.0
 70
   128
 71
    36
 72
    44
 73
    39
  0
VERTEX
  5
4BE
  8
0
 62
     9
 10
0.0
 20
0.0
 30
0.0
 70
   128
 71
    35
 72
    38
 73
    42
  0
VERTEX
  5
4BF
  8
0
 62
     9
 10
0.0
 20
0.0
 30
0.0
 70
   128
 71
    35
 72
    28
 73
    34
  0
VERTEX
  5
4C0
  8
0
 62
     9
 10
0.0
 20
0.0
 30
0.0
 70
   128
 71
    45
 72
    41
 73
    42
  0
VERTEX
  5
4C1
  8
0
 62
     9
 10
0.0
 20
0.0
 30
0.0
 70
   128
 71
    30
 72
    27
 73
    26
  0
VERTEX
  5
4C2
  8
0
 62
     9
 10
0.0
 20
0.0
 30
0.0
 70
   128
 71
    45
 72
    26
 73
    41
  0
VERTEX
  5
4C3
  8
0
 62
     9
 10
0.0
 20
0.0
 30
0.0
 70
   128
 71
    26
 72
    45
 73
    29
  0
VERTEX
  5
4C4
  8
0
 62
     9
 10
0.0
 20
0.0
 30
0.0
 70
   128
 71
    47
 72
    18
 73
    46
  0
VERTEX
  5
4C5
  8
0
 62
     9
 10
0.0
 20
0.0
 30
0.0
 70
   128
 71
    13
 72
    14
 73
    48
  0
VERTEX
  5
4C6
  8
0
 62
     9
 10
0.0
 20
0.0
 30
0.0
 70
   128
 71
    48
 72
    17
 73
    47
  0
VERTEX
  5
4C7
  8
0
 62
     9
 10
0.0
 20
0.0
 30
0.0
 70
   128
 71
    49
 72
    48
 73
    47
  0
VERTEX
  5
4C8
  8
0
 62
     9
 10
0.0
 20
0.0
 30
0.0
 70
   128
 71
    51
 72
    49
 73
    50
  0
VERTEX
  5
4C9
  8
0
 62
     9
 10
0.0
 20
0.0
 30
0.0
 70
   128
 71
    47
 72
    52
 73
    49
  0
VERTEX
  5
4CA
  8
0
 62
     9
 10
0.0
 20
0.0
 30
0.0
 70
   128
 71
    44
 72
    50
 73
    39
  0
VERTEX
  5
4CB
  8
0
 62
     9
 10
0.0
 20
0.0
 30
0.0
 70
   128
 71
    18
 72
    47
 73
    17
  0
VERTEX
  5
4CC
  8
0
 62
     9
 10
0.0
 20
0.0
 30
0.0
 70
   128
 71
     1
 72
    13
 73
    53
  0
VERTEX
  5
4CD
  8
0
 62
     9
 10
0.0
 20
0.0
 30
0.0
 70
   128
 71
    51
 72
    40
 73
    53
  0
VERTEX
  5
4CE
  8
0
 62
     9
 10
0.0
 20
0.0
 30
0.0
 70
   128
 71
    21
 72
    54
 73
    46
  0
VERTEX
  5
4CF
  8
0
 62
     9
 10
0.0
 20
0.0
 30
0.0
 70
   128
 71
    21
 72
    46
 73
    18
  0
VERTEX
  5
4D0
  8
0
 62
     9
 10
0.0
 20
0.0
 30
0.0
 70
   128
 71
    57
 72
    56
 73
    55
  0
VERTEX
  5
4D1
  8
0
 62
     9
 10
0.0
 20
0.0
 30
0.0
 70
   128
 71
    56
 72
    57
 73
    58
  0
VERTEX
  5
4D2
  8
0
 62
     9
 10
0.0
 20
0.0
 30
0.0
 70
   128
 71
    59
 72
    56
 73
    58
  0
VERTEX
  5
4D3
  8
0
 62
     9
 10
0.0
 20
0.0
 30
0.0
 70
   128
 71
    57
 72
    60
 73
    58
  0
VERTEX
  5
4D4
  8
0
 62
     9
 10
0.0
 20
0.0
 30
0.0
 70
   128
 71
    55
 72
    54
 73
    61
  0
VERTEX
  5
4D5
  8
0
 62
     9
 10
0.0
 20
0.0
 30
0.0
 70
   128
 71
    63
 72
    62
 73
    56
  0
VERTEX
  5
4D6
  8
0
 62
     9
 10
0.0
 20
0.0
 30
0.0
 70
   128
 71
    46
 72
    54
 73
    55
  0
VERTEX
  5
4D7
  8
0
 62
     9
 10
0.0
 20
0.0
 30
0.0
 70
   128
 71
    33
 72
    53
 73
    40
  0
VERTEX
  5
4D8
  8
0
 62
     9
 10
0.0
 20
0.0
 30
0.0
 70
   128
 71
    48
 72
    53
 73
    13
  0
VERTEX
  5
4D9
  8
0
 62
     9
 10
0.0
 20
0.0
 30
0.0
 70
   128
 71
    48
 72
    14
 73
    17
  0
VERTEX
  5
4DA
  8
0
 62
     9
 10
0.0
 20
0.0
 30
0.0
 70
   128
 71
    49
 72
    51
 73
    48
  0
VERTEX
  5
4DB
  8
0
 62
     9
 10
0.0
 20
0.0
 30
0.0
 70
   128
 71
    53
 72
    33
 73
     1
  0
VERTEX
  5
4DC
  8
0
 62
     9
 10
0.0
 20
0.0
 30
0.0
 70
   128
 71
    52
 72
    46
 73
    55
  0
VERTEX
  5
4DD
  8
0
 62
     9
 10
0.0
 20
0.0
 30
0.0
 70
   128
 71
    61
 72
    64
 73
    57
  0
VERTEX
  5
4DE
  8
0
 62
     9
 10
0.0
 20
0.0
 30
0.0
 70
   128
 71
    62
 72
    49
 73
    52
  0
VERTEX
  5
4DF
  8
0
 62
     9
 10
0.0
 20
0.0
 30
0.0
 70
   128
 71
    52
 72
    47
 73
    46
  0
VERTEX
  5
4E0
  8
0
 62
     9
 10
0.0
 20
0.0
 30
0.0
 70
   128
 71
    62
 72
    52
 73
    56
  0
VERTEX
  5
4E1
  8
0
 62
     9
 10
0.0
 20
0.0
 30
0.0
 70
   128
 71
    53
 72
    48
 73
    51
  0
VERTEX
  5
4E2
  8
0
 62
     9
 10
0.0
 20
0.0
 30
0.0
 70
   128
 71
    62
 72
    50
 73
    49
  0
VERTEX
  5
4E3
  8
0
 62
     9
 10
0.0
 20
0.0
 30
0.0
 70
   128
 71
    40
 72
    51
 73
    44
  0
VERTEX
  5
4E4
  8
0
 62
     9
 10
0.0
 20
0.0
 30
0.0
 70
   128
 71
    57
 72
    55
 73
    61
  0
VERTEX
  5
4E5
  8
0
 62
     9
 10
0.0
 20
0.0
 30
0.0
 70
   128
 71
    57
 72
    64
 73
    60
  0
VERTEX
  5
4E6
  8
0
 62
     9
 10
0.0
 20
0.0
 30
0.0
 70
   128
 71
    56
 72
    59
 73
    63
  0
VERTEX
  5
4E7
  8
0
 62
     9
 10
0.0
 20
0.0
 30
0.0
 70
   128
 71
    56
 72
    52
 73
    55
  0
VERTEX
  5
4E8
  8
0
 62
     9
 10
0.0
 20
0.0
 30
0.0
 70
   128
 71
    65
 72
    62
 73
    63
  0
VERTEX
  5
4E9
  8
0
 62
     9
 10
0.0
 20
0.0
 30
0.0
 70
   128
 71
    44
 72
    51
 73
    50
  0
VERTEX
  5
4EA
  8
0
 62
     9
 10
0.0
 20
0.0
 30
0.0
 70
   128
 71
    65
 72
    50
 73
    62
  0
VERTEX
  5
4EB
  8
0
 62
     9
 10
0.0
 20
0.0
 30
0.0
 70
   128
 71
    50
 72
    65
 73
    39
  0
VERTEX
  5
4EC
  8
0
 62
     9
 10
0.0
 20
0.0
 30
0.0
 70
   128
 71
    68
 72
    67
 73
    66
  0
VERTEX
  5
4ED
  8
0
 62
     9
 10
0.0
 20
0.0
 30
0.0
 70
   128
 71
    71
 72
    70
 73
    69
  0
VERTEX
  5
4EE
  8
0
 62
     9
 10
0.0
 20
0.0
 30
0.0
 70
   128
 71
    69
 72
    72
 73
    68
  0
VERTEX
  5
4EF
  8
0
 62
     9
 10
0.0
 20
0.0
 30
0.0
 70
   128
 71
    73
 72
    69
 73
    68
  0
VERTEX
  5
4F0
  8
0
 62
     9
 10
0.0
 20
0.0
 30
0.0
 70
   128
 71
    75
 72
    73
 73
    74
  0
VERTEX
  5
4F1
  8
0
 62
     9
 10
0.0
 20
0.0
 30
0.0
 70
   128
 71
    68
 72
    76
 73
    73
  0
VERTEX
  5
4F2
  8
0
 62
     9
 10
0.0
 20
0.0
 30
0.0
 70
   128
 71
    64
 72
    74
 73
    60
  0
VERTEX
  5
4F3
  8
0
 62
     9
 10
0.0
 20
0.0
 30
0.0
 70
   128
 71
    67
 72
    68
 73
    72
  0
VERTEX
  5
4F4
  8
0
 62
     9
 10
0.0
 20
0.0
 30
0.0
 70
   128
 71
    21
 72
    71
 73
    77
  0
VERTEX
  5
4F5
  8
0
 62
     9
 10
0.0
 20
0.0
 30
0.0
 70
   128
 71
    75
 72
    61
 73
    77
  0
VERTEX
  5
4F6
  8
0
 62
     9
 10
0.0
 20
0.0
 30
0.0
 70
   128
 71
    79
 72
    78
 73
    66
  0
VERTEX
  5
4F7
  8
0
 62
     9
 10
0.0
 20
0.0
 30
0.0
 70
   128
 71
    79
 72
    66
 73
    67
  0
VERTEX
  5
4F8
  8
0
 62
     9
 10
0.0
 20
0.0
 30
0.0
 70
   128
 71
    82
 72
    81
 73
    80
  0
VERTEX
  5
4F9
  8
0
 62
     9
 10
0.0
 20
0.0
 30
0.0
 70
   128
 71
    81
 72
    82
 73
    83
  0
VERTEX
  5
4FA
  8
0
 62
     9
 10
0.0
 20
0.0
 30
0.0
 70
   128
 71
    84
 72
    81
 73
    83
  0
VERTEX
  5
4FB
  8
0
 62
     9
 10
0.0
 20
0.0
 30
0.0
 70
   128
 71
    82
 72
    85
 73
    83
  0
VERTEX
  5
4FC
  8
0
 62
     9
 10
0.0
 20
0.0
 30
0.0
 70
   128
 71
    80
 72
    78
 73
    86
  0
VERTEX
  5
4FD
  8
0
 62
     9
 10
0.0
 20
0.0
 30
0.0
 70
   128
 71
    88
 72
    87
 73
    81
  0
VERTEX
  5
4FE
  8
0
 62
     9
 10
0.0
 20
0.0
 30
0.0
 70
   128
 71
    66
 72
    78
 73
    80
  0
VERTEX
  5
4FF
  8
0
 62
     9
 10
0.0
 20
0.0
 30
0.0
 70
   128
 71
    54
 72
    77
 73
    61
  0
VERTEX
  5
500
  8
0
 62
     9
 10
0.0
 20
0.0
 30
0.0
 70
   128
 71
    69
 72
    77
 73
    71
  0
VERTEX
  5
501
  8
0
 62
     9
 10
0.0
 20
0.0
 30
0.0
 70
   128
 71
    69
 72
    70
 73
    72
  0
VERTEX
  5
502
  8
0
 62
     9
 10
0.0
 20
0.0
 30
0.0
 70
   128
 71
    73
 72
    75
 73
    69
  0
VERTEX
  5
503
  8
0
 62
     9
 10
0.0
 20
0.0
 30
0.0
 70
   128
 71
    77
 72
    54
 73
    21
  0
VERTEX
  5
504
  8
0
 62
     9
 10
0.0
 20
0.0
 30
0.0
 70
   128
 71
    76
 72
    66
 73
    80
  0
VERTEX
  5
505
  8
0
 62
     9
 10
0.0
 20
0.0
 30
0.0
 70
   128
 71
    86
 72
    89
 73
    82
  0
VERTEX
  5
506
  8
0
 62
     9
 10
0.0
 20
0.0
 30
0.0
 70
   128
 71
    87
 72
    73
 73
    76
  0
VERTEX
  5
507
  8
0
 62
     9
 10
0.0
 20
0.0
 30
0.0
 70
   128
 71
    76
 72
    68
 73
    66
  0
VERTEX
  5
508
  8
0
 62
     9
 10
0.0
 20
0.0
 30
0.0
 70
   128
 71
    87
 72
    76
 73
    81
  0
VERTEX
  5
509
  8
0
 62
     9
 10
0.0
 20
0.0
 30
0.0
 70
   128
 71
    77
 72
    69
 73
    75
  0
VERTEX
  5
50A
  8
0
 62
     9
 10
0.0
 20
0.0
 30
0.0
 70
   128
 71
    87
 72
    74
 73
    73
  0
VERTEX
  5
50B
  8
0
 62
     9
 10
0.0
 20
0.0
 30
0.0
 70
   128
 71
    61
 72
    75
 73
    64
  0
VERTEX
  5
50C
  8
0
 62
     9
 10
0.0
 20
0.0
 30
0.0
 70
   128
 71
    82
 72
    80
 73
    86
  0
VERTEX
  5
50D
  8
0
 62
     9
 10
0.0
 20
0.0
 30
0.0
 70
   128
 71
    82
 72
    89
 73
    85
  0
VERTEX
  5
50E
  8
0
 62
     9
 10
0.0
 20
0.0
 30
0.0
 70
   128
 71
    81
 72
    84
 73
    88
  0
VERTEX
  5
50F
  8
0
 62
     9
 10
0.0
 20
0.0
 30
0.0
 70
   128
 71
    81
 72
    76
 73
    80
  0
VERTEX
  5
510
  8
0
 62
     9
 10
0.0
 20
0.0
 30
0.0
 70
   128
 71
    90
 72
    87
 73
    88
  0
VERTEX
  5
511
  8
0
 62
     9
 10
0.0
 20
0.0
 30
0.0
 70
   128
 71
    64
 72
    75
 73
    74
  0
VERTEX
  5
512
  8
0
 62
     9
 10
0.0
 20
0.0
 30
0.0
 70
   128
 71
    90
 72
    74
 73
    87
  0
VERTEX
  5
513
  8
0
 62
     9
 10
0.0
 20
0.0
 30
0.0
 70
   128
 71
    74
 72
    90
 73
    60
  0
VERTEX
  5
514
  8
0
 62
     9
 10
0.0
 20
0.0
 30
0.0
 70
   128
 71
    93
 72
    92
 73
    91
  0
VERTEX
  5
515
  8
0
 62
     9
 10
0.0
 20
0.0
 30
0.0
 70
   128
 71
    89
 72
    94
 73
    85
  0
VERTEX
  5
516
  8
0
 62
     9
 10
0.0
 20
0.0
 30
0.0
 70
   128
 71
    97
 72
    96
 73
    95
  0
VERTEX
  5
517
  8
0
 62
     9
 10
0.0
 20
0.0
 30
0.0
 70
   128
 71
    95
 72
    96
 73
    98
  0
VERTEX
  5
518
  8
0
 62
     9
 10
0.0
 20
0.0
 30
0.0
 70
   128
 71
    99
 72
    92
 73
    93
  0
VERTEX
  5
519
  8
0
 62
     9
 10
0.0
 20
0.0
 30
0.0
 70
   128
 71
    96
 72
    97
 73
    29
  0
VERTEX
  5
51A
  8
0
 62
     9
 10
0.0
 20
0.0
 30
0.0
 70
   128
 71
   100
 72
    99
 73
    93
  0
VERTEX
  5
51B
  8
0
 62
     9
 10
0.0
 20
0.0
 30
0.0
 70
   128
 71
   100
 72
    94
 73
   101
  0
VERTEX
  5
51C
  8
0
 62
     9
 10
0.0
 20
0.0
 30
0.0
 70
   128
 71
    93
 72
   102
 73
   100
  0
VERTEX
  5
51D
  8
0
 62
     9
 10
0.0
 20
0.0
 30
0.0
 70
   128
 71
    86
 72
   103
 73
   101
  0
VERTEX
  5
51E
  8
0
 62
     9
 10
0.0
 20
0.0
 30
0.0
 70
   128
 71
   105
 72
   104
 73
    99
  0
VERTEX
  5
51F
  8
0
 62
     9
 10
0.0
 20
0.0
 30
0.0
 70
   128
 71
   103
 72
    79
 73
   105
  0
VERTEX
  5
520
  8
0
 62
     9
 10
0.0
 20
0.0
 30
0.0
 70
   128
 71
   106
 72
    93
 73
    91
  0
VERTEX
  5
521
  8
0
 62
     9
 10
0.0
 20
0.0
 30
0.0
 70
   128
 71
    97
 72
    95
 73
   107
  0
VERTEX
  5
522
  8
0
 62
     9
 10
0.0
 20
0.0
 30
0.0
 70
   128
 71
   106
 72
    12
 73
    43
  0
VERTEX
  5
523
  8
0
 62
     9
 10
0.0
 20
0.0
 30
0.0
 70
   128
 71
    12
 72
   106
 73
    91
  0
VERTEX
  5
524
  8
0
 62
     9
 10
0.0
 20
0.0
 30
0.0
 70
   128
 71
   107
 72
    43
 73
    32
  0
VERTEX
  5
525
  8
0
 62
     9
 10
0.0
 20
0.0
 30
0.0
 70
   128
 71
   109
 72
   108
 73
    95
  0
VERTEX
  5
526
  8
0
 62
     9
 10
0.0
 20
0.0
 30
0.0
 70
   128
 71
   106
 72
    43
 73
   107
  0
VERTEX
  5
527
  8
0
 62
     9
 10
0.0
 20
0.0
 30
0.0
 70
   128
 71
    78
 72
   103
 73
    86
  0
VERTEX
  5
528
  8
0
 62
     9
 10
0.0
 20
0.0
 30
0.0
 70
   128
 71
    99
 72
   103
 73
   105
  0
VERTEX
  5
529
  8
0
 62
     9
 10
0.0
 20
0.0
 30
0.0
 70
   128
 71
    99
 72
   104
 73
    92
  0
VERTEX
  5
52A
  8
0
 62
     9
 10
0.0
 20
0.0
 30
0.0
 70
   128
 71
   100
 72
   101
 73
    99
  0
VERTEX
  5
52B
  8
0
 62
     9
 10
0.0
 20
0.0
 30
0.0
 70
   128
 71
   103
 72
    78
 73
    79
  0
VERTEX
  5
52C
  8
0
 62
     9
 10
0.0
 20
0.0
 30
0.0
 70
   128
 71
   102
 72
   106
 73
   107
  0
VERTEX
  5
52D
  8
0
 62
     9
 10
0.0
 20
0.0
 30
0.0
 70
   128
 71
    32
 72
    30
 73
    97
  0
VERTEX
  5
52E
  8
0
 62
     9
 10
0.0
 20
0.0
 30
0.0
 70
   128
 71
   108
 72
   100
 73
   102
  0
VERTEX
  5
52F
  8
0
 62
     9
 10
0.0
 20
0.0
 30
0.0
 70
   128
 71
   102
 72
    93
 73
   106
  0
VERTEX
  5
530
  8
0
 62
     9
 10
0.0
 20
0.0
 30
0.0
 70
   128
 71
   108
 72
   102
 73
    95
  0
VERTEX
  5
531
  8
0
 62
     9
 10
0.0
 20
0.0
 30
0.0
 70
   128
 71
   103
 72
    99
 73
   101
  0
VERTEX
  5
532
  8
0
 62
     9
 10
0.0
 20
0.0
 30
0.0
 70
   128
 71
   108
 72
    94
 73
   100
  0
VERTEX
  5
533
  8
0
 62
     9
 10
0.0
 20
0.0
 30
0.0
 70
   128
 71
    86
 72
   101
 73
    89
  0
VERTEX
  5
534
  8
0
 62
     9
 10
0.0
 20
0.0
 30
0.0
 70
   128
 71
    97
 72
   107
 73
    32
  0
VERTEX
  5
535
  8
0
 62
     9
 10
0.0
 20
0.0
 30
0.0
 70
   128
 71
    97
 72
    30
 73
    29
  0
VERTEX
  5
536
  8
0
 62
     9
 10
0.0
 20
0.0
 30
0.0
 70
   128
 71
    95
 72
    98
 73
   109
  0
VERTEX
  5
537
  8
0
 62
     9
 10
0.0
 20
0.0
 30
0.0
 70
   128
 71
    95
 72
   102
 73
   107
  0
VERTEX
  5
538
  8
0
 62
     9
 10
0.0
 20
0.0
 30
0.0
 70
   128
 71
   110
 72
   108
 73
   109
  0
VERTEX
  5
539
  8
0
 62
     9
 10
0.0
 20
0.0
 30
0.0
 70
   128
 71
    89
 72
   101
 73
    94
  0
VERTEX
  5
53A
  8
0
 62
     9
 10
0.0
 20
0.0
 30
0.0
 70
   128
 71
   110
 72
    94
 73
   108
  0
VERTEX
  5
53B
  8
0
 62
     9
 10
0.0
 20
0.0
 30
0.0
 70
   128
 71
    94
 72
   110
 73
    85
  0
VERTEX
  5
53C
  8
0
 62
     9
 10
0.0
 20
0.0
 30
0.0
 70
   128
 71
    11
 72
    12
 73
    91
  0
VERTEX
  5
53D
  8
0
 62
     9
 10
0.0
 20
0.0
 30
0.0
 70
   128
 71
   112
 72
   105
 73
   111
  0
VERTEX
  5
53E
  8
0
 62
     9
 10
0.0
 20
0.0
 30
0.0
 70
   128
 71
   113
 72
    92
 73
   104
  0
VERTEX
  5
53F
  8
0
 62
     9
 10
0.0
 20
0.0
 30
0.0
 70
   128
 71
    67
 72
    72
 73
   114
  0
VERTEX
  5
540
  8
0
 62
     9
 10
0.0
 20
0.0
 30
0.0
 70
   128
 71
    67
 72
   115
 73
    79
  0
VERTEX
  5
541
  8
0
 62
     9
 10
0.0
 20
0.0
 30
0.0
 70
   128
 71
   117
 72
    70
 73
   116
  0
VERTEX
  5
542
  8
0
 62
     9
 10
0.0
 20
0.0
 30
0.0
 70
   128
 71
    70
 72
   117
 73
    72
  0
VERTEX
  5
543
  8
0
 62
     9
 10
0.0
 20
0.0
 30
0.0
 70
   128
 71
    20
 72
   116
 73
    71
  0
VERTEX
  5
544
  8
0
 62
     9
 10
0.0
 20
0.0
 30
0.0
 70
   128
 71
    70
 72
    71
 73
   116
  0
VERTEX
  5
545
  8
0
 62
     9
 10
0.0
 20
0.0
 30
0.0
 70
   128
 71
    20
 72
    71
 73
    21
  0
VERTEX
  5
546
  8
0
 62
     9
 10
0.0
 20
0.0
 30
0.0
 70
   128
 71
    67
 72
   114
 73
   115
  0
VERTEX
  5
547
  8
0
 62
     9
 10
0.0
 20
0.0
 30
0.0
 70
   128
 71
    72
 72
   117
 73
   114
  0
VERTEX
  5
548
  8
0
 62
     9
 10
0.0
 20
0.0
 30
0.0
 70
   128
 71
   105
 72
    79
 73
   111
  0
VERTEX
  5
549
  8
0
 62
     9
 10
0.0
 20
0.0
 30
0.0
 70
   128
 71
    79
 72
   115
 73
   111
  0
VERTEX
  5
54A
  8
0
 62
     9
 10
0.0
 20
0.0
 30
0.0
 70
   128
 71
   113
 72
   104
 73
   112
  0
VERTEX
  5
54B
  8
0
 62
     9
 10
0.0
 20
0.0
 30
0.0
 70
   128
 71
   104
 72
   105
 73
   112
  0
VERTEX
  5
54C
  8
0
 62
     9
 10
0.0
 20
0.0
 30
0.0
 70
   128
 71
   118
 72
    91
 73
    92
  0
VERTEX
  5
54D
  8
0
 62
     9
 10
0.0
 20
0.0
 30
0.0
 70
   128
 71
   118
 72
    92
 73
   113
  0
VERTEX
  5
54E
  8
0
 62
     9
 10
0.0
 20
0.0
 30
0.0
 70
   128
 71
    91
 72
   118
 73
    11
  0
SEQEND
  5
54F
  8
0
 62
     9
  0
ENDBLK
  5
552
  8
0
  0
BLOCK
  8
0
  2
43
 70
     0
 10
0.0
 20
0.0
 30
0.0
  3
43
  1

  0
POLYLINE
  5
554
  8
0
 62
     9
 66
     1
 10
0.0
 20
0.0
 30
0.0
 70
    64
 71
   108
 72
   212
  0
VERTEX
  5
555
  8
0
 10
89.26618957519531
 20
-3.292627096176147
 30
107.9165191650391
 70
   192
  0
VERTEX
  5
556
  8
0
 10
89.26618957519531
 20
-0.0000000000000104
 30
108.3495330810547
 70
   192
  0
VERTEX
  5
557
  8
0
 10
81.26618957519531
 20
-0.0000000000000244
 30
108.3495330810547
 70
   192
  0
VERTEX
  5
558
  8
0
 10
81.26618957519531
 20
-3.308752298355103
 30
107.907341003418
 70
   192
  0
VERTEX
  5
559
  8
0
 10
89.26618957519531
 20
-6.367847919464111
 30
106.6447982788086
 70
   192
  0
VERTEX
  5
55A
  8
0
 10
81.26618957519531
 20
-6.379495620727539
 30
106.6270904541016
 70
   192
  0
VERTEX
  5
55B
  8
0
 10
89.26618957519531
 20
-9.01561164855957
 30
104.6151428222656
 70
   192
  0
VERTEX
  5
55C
  8
0
 10
89.26618957519531
 20
-11.0376615524292
 30
101.980712890625
 70
   192
  0
VERTEX
  5
55D
  8
0
 10
81.26618957519531
 20
-9.01281452178955
 30
104.6039352416992
 70
   192
  0
VERTEX
  5
55E
  8
0
 10
81.26618957519531
 20
-11.03951549530029
 30
101.9606781005859
 70
   192
  0
VERTEX
  5
55F
  8
0
 10
89.26618957519531
 20
-12.31293201446533
 30
98.90696716308594
 70
   192
  0
VERTEX
  5
560
  8
0
 10
81.26618957519531
 20
-12.3109130859375
 30
98.88946533203125
 70
   192
  0
VERTEX
  5
561
  8
0
 10
89.26618957519531
 20
-12.75
 30
95.59953308105469
 70
   192
  0
VERTEX
  5
562
  8
0
 10
81.26618957519531
 20
-12.75
 30
95.59953308105469
 70
   192
  0
VERTEX
  5
563
  8
0
 10
81.26618957519531
 20
3.295151948928833
 30
107.9155120849609
 70
   192
  0
VERTEX
  5
564
  8
0
 10
89.26618957519531
 20
3.307435989379883
 30
107.912467956543
 70
   192
  0
VERTEX
  5
565
  8
0
 10
81.26618957519531
 20
6.373578071594238
 30
106.6476745605469
 70
   192
  0
VERTEX
  5
566
  8
0
 10
81.26618957519531
 20
9.022833824157715
 30
104.6173629760742
 70
   192
  0
VERTEX
  5
567
  8
0
 10
89.26618957519531
 20
6.381183624267578
 30
106.6371917724609
 70
   192
  0
VERTEX
  5
568
  8
0
 10
89.26618957519531
 20
9.01561164855957
 30
104.6151428222656
 70
   192
  0
VERTEX
  5
569
  8
0
 10
81.26618957519531
 20
11.04652214050293
 30
101.9786224365234
 70
   192
  0
VERTEX
  5
56A
  8
0
 10
89.26618957519531
 20
11.04526805877686
 30
101.9673843383789
 70
   192
  0
VERTEX
  5
56B
  8
0
 10
81.26618957519531
 20
12.32081127166748
 30
98.90480041503906
 70
   192
  0
VERTEX
  5
56C
  8
0
 10
81.26618957519531
 20
12.75
 30
95.59953308105469
 70
   192
  0
VERTEX
  5
56D
  8
0
 10
89.26618957519531
 20
12.3161506652832
 30
98.89751434326172
 70
   192
  0
VERTEX
  5
56E
  8
0
 10
89.26618957519531
 20
12.75
 30
95.59953308105469
 70
   192
  0
VERTEX
  5
56F
  8
0
 10
79.79119110107422
 20
-3.492976188659668
 30
106.3167877197266
 70
   192
  0
VERTEX
  5
570
  8
0
 10
79.79119110107422
 20
-6.630118370056152
 30
104.7136154174805
 70
   192
  0
VERTEX
  5
571
  8
0
 10
79.79119110107422
 20
-9.12760066986084
 30
102.2198867797852
 70
   192
  0
VERTEX
  5
572
  8
0
 10
79.79119110107422
 20
-10.66116619110107
 30
99.06841278076172
 70
   192
  0
VERTEX
  5
573
  8
0
 10
79.79119110107422
 20
-0.0000000000000155
 30
106.8745346069336
 70
   192
  0
VERTEX
  5
574
  8
0
 10
79.79119110107422
 20
-11.27499961853027
 30
95.59953308105469
 70
   192
  0
VERTEX
  5
575
  8
0
 10
79.79119110107422
 20
3.476937294006348
 30
106.3242874145508
 70
   192
  0
VERTEX
  5
576
  8
0
 10
79.79119110107422
 20
6.623429775238037
 30
104.7273483276367
 70
   192
  0
VERTEX
  5
577
  8
0
 10
79.79119110107422
 20
9.121649742126465
 30
102.2332153320312
 70
   192
  0
VERTEX
  5
578
  8
0
 10
79.79119110107422
 20
10.68368816375732
 30
99.08715057373047
 70
   192
  0
VERTEX
  5
579
  8
0
 10
79.79119110107422
 20
11.27499961853027
 30
95.59953308105469
 70
   192
  0
VERTEX
  5
57A
  8
0
 10
71.76618957519531
 20
-1.612184166908264
 30
106.7576751708984
 70
   192
  0
VERTEX
  5
57B
  8
0
 10
71.76618957519531
 20
1.596512317657471
 30
106.7598419189453
 70
   192
  0
VERTEX
  5
57C
  8
0
 10
71.76618957519531
 20
-4.686630725860596
 30
105.8509750366211
 70
   192
  0
VERTEX
  5
57D
  8
0
 10
71.76618957519531
 20
-7.386631011962891
 30
104.1115264892578
 70
   192
  0
VERTEX
  5
57E
  8
0
 10
71.76618957519531
 20
-9.494091033935547
 30
101.6877822875977
 70
   192
  0
VERTEX
  5
57F
  8
0
 10
71.76618957519531
 20
-10.74995231628418
 30
98.76167297363281
 70
   192
  0
VERTEX
  5
580
  8
0
 10
71.76618957519531
 20
-11.27499961853027
 30
95.59953308105469
 70
   192
  0
VERTEX
  5
581
  8
0
 10
71.76618957519531
 20
4.680642127990723
 30
105.8578414916992
 70
   192
  0
VERTEX
  5
582
  8
0
 10
71.76618957519531
 20
7.382877826690674
 30
104.1267166137695
 70
   192
  0
VERTEX
  5
583
  8
0
 10
71.76618957519531
 20
9.48239517211914
 30
101.7042007446289
 70
   192
  0
VERTEX
  5
584
  8
0
 10
71.76618957519531
 20
10.76831245422363
 30
98.77703094482422
 70
   192
  0
VERTEX
  5
585
  8
0
 10
71.76618957519531
 20
11.27499961853027
 30
95.59953308105469
 70
   192
  0
VERTEX
  5
586
  8
0
 10
71.26618957519531
 20
-5.396865844726562
 30
104.9250793457031
 70
   192
  0
VERTEX
  5
587
  8
0
 10
71.26618957519531
 20
-1.883293509483337
 30
106.2076721191406
 70
   192
  0
VERTEX
  5
588
  8
0
 10
71.26618957519531
 20
-10.12911224365234
 30
99.27359771728516
 70
   192
  0
VERTEX
  5
589
  8
0
 10
71.26618957519531
 20
-8.260260581970215
 30
102.5175247192383
 70
   192
  0
VERTEX
  5
58A
  8
0
 10
71.26618957519531
 20
-10.7726583480835
 30
95.59953308105469
 70
   192
  0
VERTEX
  5
58B
  8
0
 10
71.26618957519531
 20
1.864882588386536
 30
106.2118301391602
 70
   192
  0
VERTEX
  5
58C
  8
0
 10
71.26618957519531
 20
5.380877494812012
 30
104.9341735839844
 70
   192
  0
VERTEX
  5
58D
  8
0
 10
71.26618957519531
 20
8.24790096282959
 30
102.5316772460938
 70
   192
  0
VERTEX
  5
58E
  8
0
 10
71.26618957519531
 20
10.12339973449707
 30
99.28924560546875
 70
   192
  0
VERTEX
  5
58F
  8
0
 10
71.26618957519531
 20
10.77499961853027
 30
95.59953308105469
 70
   192
  0
VERTEX
  5
590
  8
0
 10
71.26618957519531
 20
1.877957105636597
 30
84.98980712890625
 70
   192
  0
VERTEX
  5
591
  8
0
 10
71.26618957519531
 20
10.12671661376953
 30
91.91804504394531
 70
   192
  0
VERTEX
  5
592
  8
0
 10
71.26618957519531
 20
8.259495735168457
 30
88.68154907226562
 70
   192
  0
VERTEX
  5
593
  8
0
 10
71.26618957519531
 20
-10.1209602355957
 30
91.90332794189453
 70
   192
  0
VERTEX
  5
594
  8
0
 10
71.26618957519531
 20
-5.377353668212891
 30
86.26285552978516
 70
   192
  0
VERTEX
  5
595
  8
0
 10
71.26618957519531
 20
-8.248554229736328
 30
88.66692352294922
 70
   192
  0
VERTEX
  5
596
  8
0
 10
71.26618957519531
 20
-1.860811948776245
 30
84.98683166503906
 70
   192
  0
VERTEX
  5
597
  8
0
 10
71.26618957519531
 20
5.391281127929688
 30
86.2699203491211
 70
   192
  0
VERTEX
  5
598
  8
0
 10
71.76618957519531
 20
-10.66116619110107
 30
92.13065338134766
 70
   192
  0
VERTEX
  5
599
  8
0
 10
71.76618957519531
 20
-6.630118370056152
 30
86.4854507446289
 70
   192
  0
VERTEX
  5
59A
  8
0
 10
71.76618957519531
 20
3.476937294006348
 30
84.8747787475586
 70
   192
  0
VERTEX
  5
59B
  8
0
 10
71.76618957519531
 20
-0.0000000000000077
 30
84.32453155517578
 70
   192
  0
VERTEX
  5
59C
  8
0
 10
71.76618957519531
 20
-3.492976188659668
 30
84.88227844238281
 70
   192
  0
VERTEX
  5
59D
  8
0
 10
71.76618957519531
 20
9.121649742126465
 30
88.96585083007812
 70
   192
  0
VERTEX
  5
59E
  8
0
 10
71.76618957519531
 20
6.623429775238037
 30
86.47171783447266
 70
   192
  0
VERTEX
  5
59F
  8
0
 10
71.76618957519531
 20
10.68368816375732
 30
92.1119155883789
 70
   192
  0
VERTEX
  5
5A0
  8
0
 10
71.76618957519531
 20
-9.12760066986084
 30
88.97917938232422
 70
   192
  0
VERTEX
  5
5A1
  8
0
 10
79.79119110107422
 20
-10.74995231628418
 30
92.43739318847656
 70
   192
  0
VERTEX
  5
5A2
  8
0
 10
79.79119110107422
 20
-1.612184166908264
 30
84.44139099121094
 70
   192
  0
VERTEX
  5
5A3
  8
0
 10
79.79119110107422
 20
-4.686630725860596
 30
85.34809112548828
 70
   192
  0
VERTEX
  5
5A4
  8
0
 10
79.79119110107422
 20
-7.386631011962891
 30
87.08753967285156
 70
   192
  0
VERTEX
  5
5A5
  8
0
 10
79.79119110107422
 20
-9.494091033935547
 30
89.51128387451172
 70
   192
  0
VERTEX
  5
5A6
  8
0
 10
79.79119110107422
 20
4.680642127990723
 30
85.34122467041016
 70
   192
  0
VERTEX
  5
5A7
  8
0
 10
79.79119110107422
 20
7.382877826690674
 30
87.07234954833984
 70
   192
  0
VERTEX
  5
5A8
  8
0
 10
79.79119110107422
 20
1.596512317657471
 30
84.43922424316406
 70
   192
  0
VERTEX
  5
5A9
  8
0
 10
79.79119110107422
 20
9.48239517211914
 30
89.49486541748047
 70
   192
  0
VERTEX
  5
5AA
  8
0
 10
79.79119110107422
 20
10.76831245422363
 30
92.42203521728516
 70
   192
  0
VERTEX
  5
5AB
  8
0
 10
81.26618957519531
 20
-12.3109130859375
 30
92.30960083007812
 70
   192
  0
VERTEX
  5
5AC
  8
0
 10
81.26618957519531
 20
-9.01281452178955
 30
86.59513092041016
 70
   192
  0
VERTEX
  5
5AD
  8
0
 10
81.26618957519531
 20
-11.03951549530029
 30
89.23838806152344
 70
   192
  0
VERTEX
  5
5AE
  8
0
 10
81.26618957519531
 20
3.295151948928833
 30
83.28355407714844
 70
   192
  0
VERTEX
  5
5AF
  8
0
 10
81.26618957519531
 20
-0.0000000000000164
 30
82.84953308105469
 70
   192
  0
VERTEX
  5
5B0
  8
0
 10
81.26618957519531
 20
-3.308752298355103
 30
83.2917251586914
 70
   192
  0
VERTEX
  5
5B1
  8
0
 10
81.26618957519531
 20
-6.379495620727539
 30
84.57197570800781
 70
   192
  0
VERTEX
  5
5B2
  8
0
 10
81.26618957519531
 20
9.022833824157715
 30
86.58170318603516
 70
   192
  0
VERTEX
  5
5B3
  8
0
 10
81.26618957519531
 20
6.373578071594238
 30
84.5513916015625
 70
   192
  0
VERTEX
  5
5B4
  8
0
 10
81.26618957519531
 20
11.04652214050293
 30
89.22044372558594
 70
   192
  0
VERTEX
  5
5B5
  8
0
 10
81.26618957519531
 20
12.32081127166748
 30
92.29426574707031
 70
   192
  0
VERTEX
  5
5B6
  8
0
 10
89.26618957519531
 20
-12.3161506652832
 30
92.30155181884766
 70
   192
  0
VERTEX
  5
5B7
  8
0
 10
89.26618957519531
 20
-3.307435989379883
 30
83.2865982055664
 70
   192
  0
VERTEX
  5
5B8
  8
0
 10
89.26618957519531
 20
-6.381183624267578
 30
84.56187438964844
 70
   192
  0
VERTEX
  5
5B9
  8
0
 10
89.26618957519531
 20
-9.01561164855957
 30
86.58392333984375
 70
   192
  0
VERTEX
  5
5BA
  8
0
 10
89.26618957519531
 20
-11.04526805877686
 30
89.23168182373047
 70
   192
  0
VERTEX
  5
5BB
  8
0
 10
89.26618957519531
 20
3.292627096176147
 30
83.28254699707031
 70
   192
  0
VERTEX
  5
5BC
  8
0
 10
89.26618957519531
 20
6.367847919464111
 30
84.55426788330078
 70
   192
  0
VERTEX
  5
5BD
  8
0
 10
89.26618957519531
 20
-0.0000000000000253
 30
82.84953308105469
 70
   192
  0
VERTEX
  5
5BE
  8
0
 10
89.26618957519531
 20
9.01561164855957
 30
86.58392333984375
 70
   192
  0
VERTEX
  5
5BF
  8
0
 10
89.26618957519531
 20
11.0376615524292
 30
89.21835327148438
 70
   192
  0
VERTEX
  5
5C0
  8
0
 10
89.26618957519531
 20
12.31293201446533
 30
92.29209899902344
 70
   192
  0
VERTEX
  5
5C1
  8
0
 62
     9
 10
0.0
 20
0.0
 30
0.0
 70
   128
 71
     3
 72
     2
 73
     1
  0
VERTEX
  5
5C2
  8
0
 62
     9
 10
0.0
 20
0.0
 30
0.0
 70
   128
 71
     1
 72
     5
 73
     4
  0
VERTEX
  5
5C3
  8
0
 62
     9
 10
0.0
 20
0.0
 30
0.0
 70
   128
 71
     4
 72
     3
 73
     1
  0
VERTEX
  5
5C4
  8
0
 62
     9
 10
0.0
 20
0.0
 30
0.0
 70
   128
 71
     7
 72
     6
 73
     5
  0
VERTEX
  5
5C5
  8
0
 62
     9
 10
0.0
 20
0.0
 30
0.0
 70
   128
 71
     4
 72
     5
 73
     6
  0
VERTEX
  5
5C6
  8
0
 62
     9
 10
0.0
 20
0.0
 30
0.0
 70
   128
 71
     9
 72
     7
 73
     8
  0
VERTEX
  5
5C7
  8
0
 62
     9
 10
0.0
 20
0.0
 30
0.0
 70
   128
 71
     7
 72
     9
 73
     6
  0
VERTEX
  5
5C8
  8
0
 62
     9
 10
0.0
 20
0.0
 30
0.0
 70
   128
 71
     8
 72
    11
 73
    10
  0
VERTEX
  5
5C9
  8
0
 62
     9
 10
0.0
 20
0.0
 30
0.0
 70
   128
 71
    10
 72
     9
 73
     8
  0
VERTEX
  5
5CA
  8
0
 62
     9
 10
0.0
 20
0.0
 30
0.0
 70
   128
 71
    13
 72
    12
 73
    11
  0
VERTEX
  5
5CB
  8
0
 62
     9
 10
0.0
 20
0.0
 30
0.0
 70
   128
 71
    10
 72
    11
 73
    12
  0
VERTEX
  5
5CC
  8
0
 62
     9
 10
0.0
 20
0.0
 30
0.0
 70
   128
 71
    13
 72
    14
 73
    12
  0
VERTEX
  5
5CD
  8
0
 62
     9
 10
0.0
 20
0.0
 30
0.0
 70
   128
 71
     3
 72
    15
 73
     2
  0
VERTEX
  5
5CE
  8
0
 62
     9
 10
0.0
 20
0.0
 30
0.0
 70
   128
 71
    17
 72
    16
 73
    15
  0
VERTEX
  5
5CF
  8
0
 62
     9
 10
0.0
 20
0.0
 30
0.0
 70
   128
 71
     2
 72
    15
 73
    16
  0
VERTEX
  5
5D0
  8
0
 62
     9
 10
0.0
 20
0.0
 30
0.0
 70
   128
 71
    19
 72
    17
 73
    18
  0
VERTEX
  5
5D1
  8
0
 62
     9
 10
0.0
 20
0.0
 30
0.0
 70
   128
 71
    17
 72
    19
 73
    16
  0
VERTEX
  5
5D2
  8
0
 62
     9
 10
0.0
 20
0.0
 30
0.0
 70
   128
 71
    18
 72
    21
 73
    20
  0
VERTEX
  5
5D3
  8
0
 62
     9
 10
0.0
 20
0.0
 30
0.0
 70
   128
 71
    20
 72
    19
 73
    18
  0
VERTEX
  5
5D4
  8
0
 62
     9
 10
0.0
 20
0.0
 30
0.0
 70
   128
 71
    23
 72
    22
 73
    21
  0
VERTEX
  5
5D5
  8
0
 62
     9
 10
0.0
 20
0.0
 30
0.0
 70
   128
 71
    20
 72
    21
 73
    22
  0
VERTEX
  5
5D6
  8
0
 62
     9
 10
0.0
 20
0.0
 30
0.0
 70
   128
 71
    25
 72
    23
 73
    24
  0
VERTEX
  5
5D7
  8
0
 62
     9
 10
0.0
 20
0.0
 30
0.0
 70
   128
 71
    23
 72
    25
 73
    22
  0
VERTEX
  5
5D8
  8
0
 62
     9
 10
0.0
 20
0.0
 30
0.0
 70
   128
 71
    26
 72
    25
 73
    24
  0
VERTEX
  5
5D9
  8
0
 62
     9
 10
0.0
 20
0.0
 30
0.0
 70
   128
 71
     6
 72
    28
 73
    27
  0
VERTEX
  5
5DA
  8
0
 62
     9
 10
0.0
 20
0.0
 30
0.0
 70
   128
 71
    27
 72
     4
 73
     6
  0
VERTEX
  5
5DB
  8
0
 62
     9
 10
0.0
 20
0.0
 30
0.0
 70
   128
 71
    28
 72
     6
 73
     9
  0
VERTEX
  5
5DC
  8
0
 62
     9
 10
0.0
 20
0.0
 30
0.0
 70
   128
 71
    10
 72
    30
 73
    29
  0
VERTEX
  5
5DD
  8
0
 62
     9
 10
0.0
 20
0.0
 30
0.0
 70
   128
 71
    31
 72
     4
 73
    27
  0
VERTEX
  5
5DE
  8
0
 62
     9
 10
0.0
 20
0.0
 30
0.0
 70
   128
 71
     9
 72
    10
 73
    29
  0
VERTEX
  5
5DF
  8
0
 62
     9
 10
0.0
 20
0.0
 30
0.0
 70
   128
 71
    10
 72
    12
 73
    30
  0
VERTEX
  5
5E0
  8
0
 62
     9
 10
0.0
 20
0.0
 30
0.0
 70
   128
 71
    30
 72
    12
 73
    32
  0
VERTEX
  5
5E1
  8
0
 62
     9
 10
0.0
 20
0.0
 30
0.0
 70
   128
 71
     9
 72
    29
 73
    28
  0
VERTEX
  5
5E2
  8
0
 62
     9
 10
0.0
 20
0.0
 30
0.0
 70
   128
 71
    32
 72
    12
 73
    14
  0
VERTEX
  5
5E3
  8
0
 62
     9
 10
0.0
 20
0.0
 30
0.0
 70
   128
 71
    31
 72
    15
 73
     3
  0
VERTEX
  5
5E4
  8
0
 62
     9
 10
0.0
 20
0.0
 30
0.0
 70
   128
 71
     4
 72
    31
 73
     3
  0
VERTEX
  5
5E5
  8
0
 62
     9
 10
0.0
 20
0.0
 30
0.0
 70
   128
 71
    17
 72
    15
 73
    33
  0
VERTEX
  5
5E6
  8
0
 62
     9
 10
0.0
 20
0.0
 30
0.0
 70
   128
 71
    31
 72
    33
 73
    15
  0
VERTEX
  5
5E7
  8
0
 62
     9
 10
0.0
 20
0.0
 30
0.0
 70
   128
 71
    17
 72
    34
 73
    18
  0
VERTEX
  5
5E8
  8
0
 62
     9
 10
0.0
 20
0.0
 30
0.0
 70
   128
 71
    34
 72
    17
 73
    33
  0
VERTEX
  5
5E9
  8
0
 62
     9
 10
0.0
 20
0.0
 30
0.0
 70
   128
 71
    35
 72
    21
 73
    18
  0
VERTEX
  5
5EA
  8
0
 62
     9
 10
0.0
 20
0.0
 30
0.0
 70
   128
 71
    18
 72
    34
 73
    35
  0
VERTEX
  5
5EB
  8
0
 62
     9
 10
0.0
 20
0.0
 30
0.0
 70
   128
 71
    23
 72
    21
 73
    36
  0
VERTEX
  5
5EC
  8
0
 62
     9
 10
0.0
 20
0.0
 30
0.0
 70
   128
 71
    35
 72
    36
 73
    21
  0
VERTEX
  5
5ED
  8
0
 62
     9
 10
0.0
 20
0.0
 30
0.0
 70
   128
 71
    37
 72
    23
 73
    36
  0
VERTEX
  5
5EE
  8
0
 62
     9
 10
0.0
 20
0.0
 30
0.0
 70
   128
 71
    24
 72
    23
 73
    37
  0
VERTEX
  5
5EF
  8
0
 62
     9
 10
0.0
 20
0.0
 30
0.0
 70
   128
 71
    39
 72
    31
 73
    38
  0
VERTEX
  5
5F0
  8
0
 62
     9
 10
0.0
 20
0.0
 30
0.0
 70
   128
 71
    27
 72
    40
 73
    38
  0
VERTEX
  5
5F1
  8
0
 62
     9
 10
0.0
 20
0.0
 30
0.0
 70
   128
 71
    38
 72
    31
 73
    27
  0
VERTEX
  5
5F2
  8
0
 62
     9
 10
0.0
 20
0.0
 30
0.0
 70
   128
 71
    41
 72
    40
 73
    28
  0
VERTEX
  5
5F3
  8
0
 62
     9
 10
0.0
 20
0.0
 30
0.0
 70
   128
 71
    27
 72
    28
 73
    40
  0
VERTEX
  5
5F4
  8
0
 62
     9
 10
0.0
 20
0.0
 30
0.0
 70
   128
 71
    41
 72
    29
 73
    42
  0
VERTEX
  5
5F5
  8
0
 62
     9
 10
0.0
 20
0.0
 30
0.0
 70
   128
 71
    29
 72
    41
 73
    28
  0
VERTEX
  5
5F6
  8
0
 62
     9
 10
0.0
 20
0.0
 30
0.0
 70
   128
 71
    30
 72
    43
 73
    42
  0
VERTEX
  5
5F7
  8
0
 62
     9
 10
0.0
 20
0.0
 30
0.0
 70
   128
 71
    42
 72
    29
 73
    30
  0
VERTEX
  5
5F8
  8
0
 62
     9
 10
0.0
 20
0.0
 30
0.0
 70
   128
 71
    30
 72
    32
 73
    43
  0
VERTEX
  5
5F9
  8
0
 62
     9
 10
0.0
 20
0.0
 30
0.0
 70
   128
 71
    32
 72
    44
 73
    43
  0
VERTEX
  5
5FA
  8
0
 62
     9
 10
0.0
 20
0.0
 30
0.0
 70
   128
 71
    33
 72
    31
 73
    39
  0
VERTEX
  5
5FB
  8
0
 62
     9
 10
0.0
 20
0.0
 30
0.0
 70
   128
 71
    34
 72
    33
 73
    45
  0
VERTEX
  5
5FC
  8
0
 62
     9
 10
0.0
 20
0.0
 30
0.0
 70
   128
 71
    39
 72
    45
 73
    33
  0
VERTEX
  5
5FD
  8
0
 62
     9
 10
0.0
 20
0.0
 30
0.0
 70
   128
 71
    34
 72
    46
 73
    35
  0
VERTEX
  5
5FE
  8
0
 62
     9
 10
0.0
 20
0.0
 30
0.0
 70
   128
 71
    46
 72
    34
 73
    45
  0
VERTEX
  5
5FF
  8
0
 62
     9
 10
0.0
 20
0.0
 30
0.0
 70
   128
 71
    47
 72
    36
 73
    35
  0
VERTEX
  5
600
  8
0
 62
     9
 10
0.0
 20
0.0
 30
0.0
 70
   128
 71
    35
 72
    46
 73
    47
  0
VERTEX
  5
601
  8
0
 62
     9
 10
0.0
 20
0.0
 30
0.0
 70
   128
 71
    37
 72
    36
 73
    48
  0
VERTEX
  5
602
  8
0
 62
     9
 10
0.0
 20
0.0
 30
0.0
 70
   128
 71
    47
 72
    48
 73
    36
  0
VERTEX
  5
603
  8
0
 62
     9
 10
0.0
 20
0.0
 30
0.0
 70
   128
 71
    49
 72
    37
 73
    48
  0
VERTEX
  5
604
  8
0
 62
     9
 10
0.0
 20
0.0
 30
0.0
 70
   128
 71
    40
 72
    41
 73
    50
  0
VERTEX
  5
605
  8
0
 62
     9
 10
0.0
 20
0.0
 30
0.0
 70
   128
 71
    51
 72
    38
 73
    40
  0
VERTEX
  5
606
  8
0
 62
     9
 10
0.0
 20
0.0
 30
0.0
 70
   128
 71
    42
 72
    43
 73
    52
  0
VERTEX
  5
607
  8
0
 62
     9
 10
0.0
 20
0.0
 30
0.0
 70
   128
 71
    53
 72
    50
 73
    41
  0
VERTEX
  5
608
  8
0
 62
     9
 10
0.0
 20
0.0
 30
0.0
 70
   128
 71
    42
 72
    52
 73
    53
  0
VERTEX
  5
609
  8
0
 62
     9
 10
0.0
 20
0.0
 30
0.0
 70
   128
 71
    52
 72
    43
 73
    54
  0
VERTEX
  5
60A
  8
0
 62
     9
 10
0.0
 20
0.0
 30
0.0
 70
   128
 71
    42
 72
    53
 73
    41
  0
VERTEX
  5
60B
  8
0
 62
     9
 10
0.0
 20
0.0
 30
0.0
 70
   128
 71
    43
 72
    44
 73
    54
  0
VERTEX
  5
60C
  8
0
 62
     9
 10
0.0
 20
0.0
 30
0.0
 70
   128
 71
    51
 72
    40
 73
    50
  0
VERTEX
  5
60D
  8
0
 62
     9
 10
0.0
 20
0.0
 30
0.0
 70
   128
 71
    39
 72
    38
 73
    55
  0
VERTEX
  5
60E
  8
0
 62
     9
 10
0.0
 20
0.0
 30
0.0
 70
   128
 71
    51
 72
    55
 73
    38
  0
VERTEX
  5
60F
  8
0
 62
     9
 10
0.0
 20
0.0
 30
0.0
 70
   128
 71
    45
 72
    55
 73
    56
  0
VERTEX
  5
610
  8
0
 62
     9
 10
0.0
 20
0.0
 30
0.0
 70
   128
 71
    55
 72
    45
 73
    39
  0
VERTEX
  5
611
  8
0
 62
     9
 10
0.0
 20
0.0
 30
0.0
 70
   128
 71
    56
 72
    57
 73
    46
  0
VERTEX
  5
612
  8
0
 62
     9
 10
0.0
 20
0.0
 30
0.0
 70
   128
 71
    46
 72
    45
 73
    56
  0
VERTEX
  5
613
  8
0
 62
     9
 10
0.0
 20
0.0
 30
0.0
 70
   128
 71
    58
 72
    47
 73
    57
  0
VERTEX
  5
614
  8
0
 62
     9
 10
0.0
 20
0.0
 30
0.0
 70
   128
 71
    46
 72
    57
 73
    47
  0
VERTEX
  5
615
  8
0
 62
     9
 10
0.0
 20
0.0
 30
0.0
 70
   128
 71
    48
 72
    58
 73
    59
  0
VERTEX
  5
616
  8
0
 62
     9
 10
0.0
 20
0.0
 30
0.0
 70
   128
 71
    58
 72
    48
 73
    47
  0
VERTEX
  5
617
  8
0
 62
     9
 10
0.0
 20
0.0
 30
0.0
 70
   128
 71
    49
 72
    48
 73
    59
  0
VERTEX
  5
618
  8
0
 62
     9
 10
0.0
 20
0.0
 30
0.0
 70
   128
 71
    54
 72
    60
 73
    52
  0
VERTEX
  5
619
  8
0
 62
     9
 10
0.0
 20
0.0
 30
0.0
 70
   128
 71
    62
 72
    61
 73
    50
  0
VERTEX
  5
61A
  8
0
 62
     9
 10
0.0
 20
0.0
 30
0.0
 70
   128
 71
    65
 72
    64
 73
    63
  0
VERTEX
  5
61B
  8
0
 62
     9
 10
0.0
 20
0.0
 30
0.0
 70
   128
 71
    66
 72
    54
 73
    63
  0
VERTEX
  5
61C
  8
0
 62
     9
 10
0.0
 20
0.0
 30
0.0
 70
   128
 71
    63
 72
    64
 73
    66
  0
VERTEX
  5
61D
  8
0
 62
     9
 10
0.0
 20
0.0
 30
0.0
 70
   128
 71
    60
 72
    67
 73
    52
  0
VERTEX
  5
61E
  8
0
 62
     9
 10
0.0
 20
0.0
 30
0.0
 70
   128
 71
    66
 72
    60
 73
    54
  0
VERTEX
  5
61F
  8
0
 62
     9
 10
0.0
 20
0.0
 30
0.0
 70
   128
 71
    53
 72
    52
 73
    67
  0
VERTEX
  5
620
  8
0
 62
     9
 10
0.0
 20
0.0
 30
0.0
 70
   128
 71
    62
 72
    50
 73
    53
  0
VERTEX
  5
621
  8
0
 62
     9
 10
0.0
 20
0.0
 30
0.0
 70
   128
 71
    53
 72
    67
 73
    62
  0
VERTEX
  5
622
  8
0
 62
     9
 10
0.0
 20
0.0
 30
0.0
 70
   128
 71
    50
 72
    61
 73
    51
  0
VERTEX
  5
623
  8
0
 62
     9
 10
0.0
 20
0.0
 30
0.0
 70
   128
 71
    55
 72
    51
 73
    59
  0
VERTEX
  5
624
  8
0
 62
     9
 10
0.0
 20
0.0
 30
0.0
 70
   128
 71
    61
 72
    59
 73
    51
  0
VERTEX
  5
625
  8
0
 62
     9
 10
0.0
 20
0.0
 30
0.0
 70
   128
 71
    58
 72
    57
 73
    56
  0
VERTEX
  5
626
  8
0
 62
     9
 10
0.0
 20
0.0
 30
0.0
 70
   128
 71
    58
 72
    55
 73
    59
  0
VERTEX
  5
627
  8
0
 62
     9
 10
0.0
 20
0.0
 30
0.0
 70
   128
 71
    56
 72
    55
 73
    58
  0
VERTEX
  5
628
  8
0
 62
     9
 10
0.0
 20
0.0
 30
0.0
 70
   128
 71
    63
 72
    54
 73
    68
  0
VERTEX
  5
629
  8
0
 62
     9
 10
0.0
 20
0.0
 30
0.0
 70
   128
 71
    65
 72
    69
 73
    64
  0
VERTEX
  5
62A
  8
0
 62
     9
 10
0.0
 20
0.0
 30
0.0
 70
   128
 71
    70
 72
    67
 73
    60
  0
VERTEX
  5
62B
  8
0
 62
     9
 10
0.0
 20
0.0
 30
0.0
 70
   128
 71
    66
 72
    72
 73
    71
  0
VERTEX
  5
62C
  8
0
 62
     9
 10
0.0
 20
0.0
 30
0.0
 70
   128
 71
    73
 72
    61
 73
    62
  0
VERTEX
  5
62D
  8
0
 62
     9
 10
0.0
 20
0.0
 30
0.0
 70
   128
 71
    62
 72
    74
 73
    73
  0
VERTEX
  5
62E
  8
0
 62
     9
 10
0.0
 20
0.0
 30
0.0
 70
   128
 71
    59
 72
    61
 73
    75
  0
VERTEX
  5
62F
  8
0
 62
     9
 10
0.0
 20
0.0
 30
0.0
 70
   128
 71
    73
 72
    75
 73
    61
  0
VERTEX
  5
630
  8
0
 62
     9
 10
0.0
 20
0.0
 30
0.0
 70
   128
 71
    74
 72
    62
 73
    67
  0
VERTEX
  5
631
  8
0
 62
     9
 10
0.0
 20
0.0
 30
0.0
 70
   128
 71
    49
 72
    59
 73
    75
  0
VERTEX
  5
632
  8
0
 62
     9
 10
0.0
 20
0.0
 30
0.0
 70
   128
 71
    70
 72
    74
 73
    67
  0
VERTEX
  5
633
  8
0
 62
     9
 10
0.0
 20
0.0
 30
0.0
 70
   128
 71
    68
 72
    54
 73
    44
  0
VERTEX
  5
634
  8
0
 62
     9
 10
0.0
 20
0.0
 30
0.0
 70
   128
 71
    60
 72
    66
 73
    71
  0
VERTEX
  5
635
  8
0
 62
     9
 10
0.0
 20
0.0
 30
0.0
 70
   128
 71
    70
 72
    60
 73
    71
  0
VERTEX
  5
636
  8
0
 62
     9
 10
0.0
 20
0.0
 30
0.0
 70
   128
 71
    64
 72
    69
 73
    72
  0
VERTEX
  5
637
  8
0
 62
     9
 10
0.0
 20
0.0
 30
0.0
 70
   128
 71
    66
 72
    64
 73
    72
  0
VERTEX
  5
638
  8
0
 62
     9
 10
0.0
 20
0.0
 30
0.0
 70
   128
 71
    76
 72
    65
 73
    63
  0
VERTEX
  5
639
  8
0
 62
     9
 10
0.0
 20
0.0
 30
0.0
 70
   128
 71
    65
 72
    76
 73
    69
  0
VERTEX
  5
63A
  8
0
 62
     9
 10
0.0
 20
0.0
 30
0.0
 70
   128
 71
    68
 72
    76
 73
    63
  0
VERTEX
  5
63B
  8
0
 62
     9
 10
0.0
 20
0.0
 30
0.0
 70
   128
 71
    68
 72
    44
 73
    77
  0
VERTEX
  5
63C
  8
0
 62
     9
 10
0.0
 20
0.0
 30
0.0
 70
   128
 71
    72
 72
    79
 73
    78
  0
VERTEX
  5
63D
  8
0
 62
     9
 10
0.0
 20
0.0
 30
0.0
 70
   128
 71
    81
 72
    80
 73
    76
  0
VERTEX
  5
63E
  8
0
 62
     9
 10
0.0
 20
0.0
 30
0.0
 70
   128
 71
    83
 72
    74
 73
    82
  0
VERTEX
  5
63F
  8
0
 62
     9
 10
0.0
 20
0.0
 30
0.0
 70
   128
 71
    84
 72
    70
 73
    71
  0
VERTEX
  5
640
  8
0
 62
     9
 10
0.0
 20
0.0
 30
0.0
 70
   128
 71
    75
 72
    73
 73
    85
  0
VERTEX
  5
641
  8
0
 62
     9
 10
0.0
 20
0.0
 30
0.0
 70
   128
 71
    83
 72
    85
 73
    73
  0
VERTEX
  5
642
  8
0
 62
     9
 10
0.0
 20
0.0
 30
0.0
 70
   128
 71
    75
 72
    86
 73
    49
  0
VERTEX
  5
643
  8
0
 62
     9
 10
0.0
 20
0.0
 30
0.0
 70
   128
 71
    86
 72
    75
 73
    85
  0
VERTEX
  5
644
  8
0
 62
     9
 10
0.0
 20
0.0
 30
0.0
 70
   128
 71
    49
 72
    86
 73
    37
  0
VERTEX
  5
645
  8
0
 62
     9
 10
0.0
 20
0.0
 30
0.0
 70
   128
 71
    82
 72
    74
 73
    70
  0
VERTEX
  5
646
  8
0
 62
     9
 10
0.0
 20
0.0
 30
0.0
 70
   128
 71
    83
 72
    73
 73
    74
  0
VERTEX
  5
647
  8
0
 62
     9
 10
0.0
 20
0.0
 30
0.0
 70
   128
 71
    84
 72
    71
 73
    78
  0
VERTEX
  5
648
  8
0
 62
     9
 10
0.0
 20
0.0
 30
0.0
 70
   128
 71
    82
 72
    70
 73
    84
  0
VERTEX
  5
649
  8
0
 62
     9
 10
0.0
 20
0.0
 30
0.0
 70
   128
 71
    72
 72
    69
 73
    79
  0
VERTEX
  5
64A
  8
0
 62
     9
 10
0.0
 20
0.0
 30
0.0
 70
   128
 71
    71
 72
    72
 73
    78
  0
VERTEX
  5
64B
  8
0
 62
     9
 10
0.0
 20
0.0
 30
0.0
 70
   128
 71
    80
 72
    69
 73
    76
  0
VERTEX
  5
64C
  8
0
 62
     9
 10
0.0
 20
0.0
 30
0.0
 70
   128
 71
    69
 72
    80
 73
    79
  0
VERTEX
  5
64D
  8
0
 62
     9
 10
0.0
 20
0.0
 30
0.0
 70
   128
 71
    77
 72
    81
 73
    68
  0
VERTEX
  5
64E
  8
0
 62
     9
 10
0.0
 20
0.0
 30
0.0
 70
   128
 71
    68
 72
    81
 73
    76
  0
VERTEX
  5
64F
  8
0
 62
     9
 10
0.0
 20
0.0
 30
0.0
 70
   128
 71
    32
 72
    77
 73
    44
  0
VERTEX
  5
650
  8
0
 62
     9
 10
0.0
 20
0.0
 30
0.0
 70
   128
 71
    77
 72
    32
 73
    87
  0
VERTEX
  5
651
  8
0
 62
     9
 10
0.0
 20
0.0
 30
0.0
 70
   128
 71
    89
 72
    88
 73
    81
  0
VERTEX
  5
652
  8
0
 62
     9
 10
0.0
 20
0.0
 30
0.0
 70
   128
 71
    91
 72
    90
 73
    84
  0
VERTEX
  5
653
  8
0
 62
     9
 10
0.0
 20
0.0
 30
0.0
 70
   128
 71
    79
 72
    93
 73
    92
  0
VERTEX
  5
654
  8
0
 62
     9
 10
0.0
 20
0.0
 30
0.0
 70
   128
 71
    83
 72
    94
 73
    85
  0
VERTEX
  5
655
  8
0
 62
     9
 10
0.0
 20
0.0
 30
0.0
 70
   128
 71
    82
 72
    90
 73
    95
  0
VERTEX
  5
656
  8
0
 62
     9
 10
0.0
 20
0.0
 30
0.0
 70
   128
 71
    96
 72
    86
 73
    85
  0
VERTEX
  5
657
  8
0
 62
     9
 10
0.0
 20
0.0
 30
0.0
 70
   128
 71
    85
 72
    94
 73
    96
  0
VERTEX
  5
658
  8
0
 62
     9
 10
0.0
 20
0.0
 30
0.0
 70
   128
 71
    37
 72
    86
 73
    97
  0
VERTEX
  5
659
  8
0
 62
     9
 10
0.0
 20
0.0
 30
0.0
 70
   128
 71
    96
 72
    97
 73
    86
  0
VERTEX
  5
65A
  8
0
 62
     9
 10
0.0
 20
0.0
 30
0.0
 70
   128
 71
    83
 72
    95
 73
    94
  0
VERTEX
  5
65B
  8
0
 62
     9
 10
0.0
 20
0.0
 30
0.0
 70
   128
 71
    24
 72
    37
 73
    97
  0
VERTEX
  5
65C
  8
0
 62
     9
 10
0.0
 20
0.0
 30
0.0
 70
   128
 71
    95
 72
    83
 73
    82
  0
VERTEX
  5
65D
  8
0
 62
     9
 10
0.0
 20
0.0
 30
0.0
 70
   128
 71
    88
 72
    80
 73
    81
  0
VERTEX
  5
65E
  8
0
 62
     9
 10
0.0
 20
0.0
 30
0.0
 70
   128
 71
    90
 72
    82
 73
    84
  0
VERTEX
  5
65F
  8
0
 62
     9
 10
0.0
 20
0.0
 30
0.0
 70
   128
 71
    91
 72
    84
 73
    78
  0
VERTEX
  5
660
  8
0
 62
     9
 10
0.0
 20
0.0
 30
0.0
 70
   128
 71
    80
 72
    93
 73
    79
  0
VERTEX
  5
661
  8
0
 62
     9
 10
0.0
 20
0.0
 30
0.0
 70
   128
 71
    78
 72
    79
 73
    92
  0
VERTEX
  5
662
  8
0
 62
     9
 10
0.0
 20
0.0
 30
0.0
 70
   128
 71
    91
 72
    78
 73
    92
  0
VERTEX
  5
663
  8
0
 62
     9
 10
0.0
 20
0.0
 30
0.0
 70
   128
 71
    93
 72
    80
 73
    88
  0
VERTEX
  5
664
  8
0
 62
     9
 10
0.0
 20
0.0
 30
0.0
 70
   128
 71
    89
 72
    81
 73
    77
  0
VERTEX
  5
665
  8
0
 62
     9
 10
0.0
 20
0.0
 30
0.0
 70
   128
 71
    14
 72
    87
 73
    32
  0
VERTEX
  5
666
  8
0
 62
     9
 10
0.0
 20
0.0
 30
0.0
 70
   128
 71
    87
 72
    89
 73
    77
  0
VERTEX
  5
667
  8
0
 62
     9
 10
0.0
 20
0.0
 30
0.0
 70
   128
 71
    87
 72
    14
 73
    98
  0
VERTEX
  5
668
  8
0
 62
     9
 10
0.0
 20
0.0
 30
0.0
 70
   128
 71
    93
 72
   100
 73
    99
  0
VERTEX
  5
669
  8
0
 62
     9
 10
0.0
 20
0.0
 30
0.0
 70
   128
 71
   102
 72
   101
 73
    89
  0
VERTEX
  5
66A
  8
0
 62
     9
 10
0.0
 20
0.0
 30
0.0
 70
   128
 71
   104
 72
    90
 73
   103
  0
VERTEX
  5
66B
  8
0
 62
     9
 10
0.0
 20
0.0
 30
0.0
 70
   128
 71
   105
 72
    91
 73
    92
  0
VERTEX
  5
66C
  8
0
 62
     9
 10
0.0
 20
0.0
 30
0.0
 70
   128
 71
   107
 72
    94
 73
   106
  0
VERTEX
  5
66D
  8
0
 62
     9
 10
0.0
 20
0.0
 30
0.0
 70
   128
 71
   104
 72
   106
 73
    95
  0
VERTEX
  5
66E
  8
0
 62
     9
 10
0.0
 20
0.0
 30
0.0
 70
   128
 71
    96
 72
   107
 73
   108
  0
VERTEX
  5
66F
  8
0
 62
     9
 10
0.0
 20
0.0
 30
0.0
 70
   128
 71
   107
 72
    96
 73
    94
  0
VERTEX
  5
670
  8
0
 62
     9
 10
0.0
 20
0.0
 30
0.0
 70
   128
 71
   108
 72
    26
 73
    97
  0
VERTEX
  5
671
  8
0
 62
     9
 10
0.0
 20
0.0
 30
0.0
 70
   128
 71
    97
 72
    96
 73
   108
  0
VERTEX
  5
672
  8
0
 62
     9
 10
0.0
 20
0.0
 30
0.0
 70
   128
 71
    97
 72
    26
 73
    24
  0
VERTEX
  5
673
  8
0
 62
     9
 10
0.0
 20
0.0
 30
0.0
 70
   128
 71
    90
 72
   104
 73
    95
  0
VERTEX
  5
674
  8
0
 62
     9
 10
0.0
 20
0.0
 30
0.0
 70
   128
 71
   106
 72
    94
 73
    95
  0
VERTEX
  5
675
  8
0
 62
     9
 10
0.0
 20
0.0
 30
0.0
 70
   128
 71
   103
 72
    91
 73
   105
  0
VERTEX
  5
676
  8
0
 62
     9
 10
0.0
 20
0.0
 30
0.0
 70
   128
 71
   103
 72
    90
 73
    91
  0
VERTEX
  5
677
  8
0
 62
     9
 10
0.0
 20
0.0
 30
0.0
 70
   128
 71
    92
 72
    93
 73
    99
  0
VERTEX
  5
678
  8
0
 62
     9
 10
0.0
 20
0.0
 30
0.0
 70
   128
 71
   105
 72
    92
 73
    99
  0
VERTEX
  5
679
  8
0
 62
     9
 10
0.0
 20
0.0
 30
0.0
 70
   128
 71
    88
 72
   101
 73
   100
  0
VERTEX
  5
67A
  8
0
 62
     9
 10
0.0
 20
0.0
 30
0.0
 70
   128
 71
    93
 72
    88
 73
   100
  0
VERTEX
  5
67B
  8
0
 62
     9
 10
0.0
 20
0.0
 30
0.0
 70
   128
 71
    87
 72
   102
 73
    89
  0
VERTEX
  5
67C
  8
0
 62
     9
 10
0.0
 20
0.0
 30
0.0
 70
   128
 71
    89
 72
   101
 73
    88
  0
VERTEX
  5
67D
  8
0
 62
     9
 10
0.0
 20
0.0
 30
0.0
 70
   128
 71
    13
 72
    98
 73
    14
  0
VERTEX
  5
67E
  8
0
 62
     9
 10
0.0
 20
0.0
 30
0.0
 70
   128
 71
    98
 72
   102
 73
    87
  0
VERTEX
  5
67F
  8
0
 62
     9
 10
0.0
 20
0.0
 30
0.0
 70
   128
 71
    22
 72
    25
 73
    99
  0
VERTEX
  5
680
  8
0
 62
     9
 10
0.0
 20
0.0
 30
0.0
 70
   128
 71
    19
 72
   101
 73
   102
  0
VERTEX
  5
681
  8
0
 62
     9
 10
0.0
 20
0.0
 30
0.0
 70
   128
 71
   107
 72
   104
 73
   108
  0
VERTEX
  5
682
  8
0
 62
     9
 10
0.0
 20
0.0
 30
0.0
 70
   128
 71
    26
 72
   108
 73
   103
  0
VERTEX
  5
683
  8
0
 62
     9
 10
0.0
 20
0.0
 30
0.0
 70
   128
 71
   104
 72
   107
 73
   106
  0
VERTEX
  5
684
  8
0
 62
     9
 10
0.0
 20
0.0
 30
0.0
 70
   128
 71
   105
 72
    26
 73
   103
  0
VERTEX
  5
685
  8
0
 62
     9
 10
0.0
 20
0.0
 30
0.0
 70
   128
 71
   104
 72
   103
 73
   108
  0
VERTEX
  5
686
  8
0
 62
     9
 10
0.0
 20
0.0
 30
0.0
 70
   128
 71
    99
 72
    25
 73
    26
  0
VERTEX
  5
687
  8
0
 62
     9
 10
0.0
 20
0.0
 30
0.0
 70
   128
 71
    26
 72
   105
 73
    99
  0
VERTEX
  5
688
  8
0
 62
     9
 10
0.0
 20
0.0
 30
0.0
 70
   128
 71
    22
 72
    99
 73
   100
  0
VERTEX
  5
689
  8
0
 62
     9
 10
0.0
 20
0.0
 30
0.0
 70
   128
 71
   100
 72
    20
 73
    22
  0
VERTEX
  5
68A
  8
0
 62
     9
 10
0.0
 20
0.0
 30
0.0
 70
   128
 71
    20
 72
   101
 73
    19
  0
VERTEX
  5
68B
  8
0
 62
     9
 10
0.0
 20
0.0
 30
0.0
 70
   128
 71
   101
 72
    20
 73
   100
  0
VERTEX
  5
68C
  8
0
 62
     9
 10
0.0
 20
0.0
 30
0.0
 70
   128
 71
    16
 72
    19
 73
   102
  0
VERTEX
  5
68D
  8
0
 62
     9
 10
0.0
 20
0.0
 30
0.0
 70
   128
 71
    13
 72
    16
 73
    98
  0
VERTEX
  5
68E
  8
0
 62
     9
 10
0.0
 20
0.0
 30
0.0
 70
   128
 71
    16
 72
   102
 73
    98
  0
VERTEX
  5
68F
  8
0
 62
     9
 10
0.0
 20
0.0
 30
0.0
 70
   128
 71
    13
 72
     2
 73
    16
  0
VERTEX
  5
690
  8
0
 62
     9
 10
0.0
 20
0.0
 30
0.0
 70
   128
 71
     8
 72
     5
 73
    11
  0
VERTEX
  5
691
  8
0
 62
     9
 10
0.0
 20
0.0
 30
0.0
 70
   128
 71
     1
 72
     2
 73
    13
  0
VERTEX
  5
692
  8
0
 62
     9
 10
0.0
 20
0.0
 30
0.0
 70
   128
 71
     5
 72
     1
 73
    11
  0
VERTEX
  5
693
  8
0
 62
     9
 10
0.0
 20
0.0
 30
0.0
 70
   128
 71
     8
 72
     7
 73
     5
  0
VERTEX
  5
694
  8
0
 62
     9
 10
0.0
 20
0.0
 30
0.0
 70
   128
 71
    13
 72
    11
 73
     1
  0
SEQEND
  5
695
  8
0
 62
     9
  0
ENDBLK
  5
698
  8
0
  0
BLOCK
  8
0
  2
091012_AUTHENTIC_OHM_A17-3
 70
     0
 10
0.0
 20
0.0
 30
0.0
  3
091012_AUTHENTIC_OHM_A17-3
  1

  0
POLYLINE
  5
69A
  8
0
 66
     1
 10
0.0
 20
0.0
 30
0.0
 70
    64
 71
   203
 72
   402
  0
VERTEX
  5
69B
  8
0
 10
13.14336776733398
 20
-1.579813599586487
 30
154.1016387939453
 70
   192
  0
VERTEX
  5
69C
  8
0
 10
0.043707687407732
 20
-0.0039374954067171
 30
154.1150512695312
 70
   192
  0
VERTEX
  5
69D
  8
0
 10
10.08181381225586
 20
-8.568001747131348
 30
154.1054229736328
 70
   192
  0
VERTEX
  5
69E
  8
0
 10
-9.994593620300293
 20
8.560806274414062
 30
154.1297607421875
 70
   192
  0
VERTEX
  5
69F
  8
0
 10
-9.430807113647461
 20
9.182333946228027
 30
154.1294250488281
 70
   192
  0
VERTEX
  5
6A0
  8
0
 10
13.23998165130615
 20
0.0000000000000183
 30
154.1021423339844
 70
   192
  0
VERTEX
  5
6A1
  8
0
 10
13.13479804992676
 20
1.644500851631165
 30
154.1016387939453
 70
   192
  0
VERTEX
  5
6A2
  8
0
 10
10.69475841522217
 20
7.786935329437256
 30
154.1046142578125
 70
   192
  0
VERTEX
  5
6A3
  8
0
 10
4.361738681793213
 20
12.47158050537109
 30
154.1102294921875
 70
   192
  0
VERTEX
  5
6A4
  8
0
 10
8.194293022155762
 20
10.37668037414551
 30
154.1077423095703
 70
   192
  0
VERTEX
  5
6A5
  8
0
 10
0.0438870377838612
 20
13.19844436645508
 30
154.1171722412109
 70
   192
  0
VERTEX
  5
6A6
  8
0
 10
-4.326411724090576
 20
12.45309829711914
 30
154.1206512451172
 70
   192
  0
VERTEX
  5
6A7
  8
0
 10
-8.089627265930176
 20
10.39020156860352
 30
154.1270141601562
 70
   192
  0
VERTEX
  5
6A8
  8
0
 10
92.16093444824219
 20
2.032542705535889
 30
147.1398620605469
 70
   192
  0
VERTEX
  5
6A9
  8
0
 10
92.34245300292969
 20
0.0000000000000528
 30
147.1619262695312
 70
   192
  0
VERTEX
  5
6AA
  8
0
 10
92.3349380493164
 20
1.405757188796997
 30
145.6899566650391
 70
   192
  0
VERTEX
  5
6AB
  8
0
 10
92.40623474121094
 20
-0.0000000000161969
 30
145.1221771240234
 70
   192
  0
VERTEX
  5
6AC
  8
0
 10
91.62309265136719
 20
3.992061853408813
 30
147.0744476318359
 70
   192
  0
VERTEX
  5
6AD
  8
0
 10
92.10487365722656
 20
0.0000000000002045
 30
143.1035919189453
 70
   192
  0
VERTEX
  5
6AE
  8
0
 10
91.96270751953125
 20
2.832664966583252
 30
144.2766265869141
 70
   192
  0
VERTEX
  5
6AF
  8
0
 10
92.3283462524414
 20
-1.460379242897034
 30
145.7440338134766
 70
   192
  0
VERTEX
  5
6B0
  8
0
 10
92.16093444824219
 20
-2.032541513442993
 30
147.1398620605469
 70
   192
  0
VERTEX
  5
6B1
  8
0
 10
91.62308502197266
 20
-3.991884708404541
 30
147.0744934082031
 70
   192
  0
VERTEX
  5
6B2
  8
0
 10
91.96453094482422
 20
-2.817430257797241
 30
144.2619323730469
 70
   192
  0
VERTEX
  5
6B3
  8
0
 10
91.98238372802734
 20
-1.405948996543884
 30
148.5894012451172
 70
   192
  0
VERTEX
  5
6B4
  8
0
 10
91.9156265258789
 20
-0.0000000000146604
 30
149.1575469970703
 70
   192
  0
VERTEX
  5
6B5
  8
0
 10
91.13937377929688
 20
-0.0000000000001852
 30
151.0451202392578
 70
   192
  0
VERTEX
  5
6B6
  8
0
 10
91.28243255615234
 20
-2.832655191421509
 30
149.8722076416016
 70
   192
  0
VERTEX
  5
6B7
  8
0
 10
20.20916557312012
 20
-3.442029237747192
 30
134.3549957275391
 70
   192
  0
VERTEX
  5
6B8
  8
0
 10
19.76335906982422
 20
-5.072314739227295
 30
137.1650238037109
 70
   192
  0
VERTEX
  5
6B9
  8
0
 10
19.96879196166992
 20
-6.218856811523438
 30
121.946533203125
 70
   192
  0
VERTEX
  5
6BA
  8
0
 10
0.0331269018352032
 20
-20.12288475036621
 30
145.0876007080078
 70
   192
  0
VERTEX
  5
6BB
  8
0
 10
1.212092041969299
 20
-20.89362144470215
 30
121.968864440918
 70
   192
  0
VERTEX
  5
6BC
  8
0
 10
6.232768058776855
 20
-19.12247467041016
 30
145.0802307128906
 70
   192
  0
VERTEX
  5
6BD
  8
0
 10
19.14841461181641
 20
-6.216964721679688
 30
145.0648498535156
 70
   192
  0
VERTEX
  5
6BE
  8
0
 10
20.55061340332031
 20
-0.6093319654464722
 30
133.0816040039062
 70
   192
  0
VERTEX
  5
6BF
  8
0
 10
20.93574333190918
 20
0.0000000000000175
 30
121.9453811645508
 70
   192
  0
VERTEX
  5
6C0
  8
0
 10
20.56138038635254
 20
-0.0000023157840587
 30
133.0446472167969
 70
   192
  0
VERTEX
  5
6C1
  8
0
 10
17.20722389221191
 20
-11.90112400054932
 30
121.949821472168
 70
   192
  0
VERTEX
  5
6C2
  8
0
 10
19.71618843078613
 20
-4.814372062683105
 30
140.4880065917969
 70
   192
  0
VERTEX
  5
6C3
  8
0
 10
12.89236927032471
 20
-16.4837532043457
 30
121.9549560546875
 70
   192
  0
VERTEX
  5
6C4
  8
0
 10
16.29831123352051
 20
-11.83239841461182
 30
145.0682373046875
 70
   192
  0
VERTEX
  5
6C5
  8
0
 10
20.01971626281738
 20
-2.846106052398682
 30
142.9963836669922
 70
   192
  0
VERTEX
  5
6C6
  8
0
 10
11.85509777069092
 20
-16.2711067199707
 30
145.0735321044922
 70
   192
  0
VERTEX
  5
6C7
  8
0
 10
20.19505500793457
 20
0.0000000000000148
 30
143.9056549072266
 70
   192
  0
VERTEX
  5
6C8
  8
0
 10
20.15599632263184
 20
0.0000000000000148
 30
145.0636444091797
 70
   192
  0
VERTEX
  5
6C9
  8
0
 10
7.384533405303955
 20
-19.56060600280762
 30
121.9615173339844
 70
   192
  0
VERTEX
  5
6CA
  8
0
 10
-11.79926300048828
 20
-16.26519584655762
 30
145.1016998291016
 70
   192
  0
VERTEX
  5
6CB
  8
0
 10
-15.98156356811523
 20
-13.03332424163818
 30
130.1760711669922
 70
   192
  0
VERTEX
  5
6CC
  8
0
 10
-11.04135227203369
 20
-17.51189994812012
 30
127.8192825317383
 70
   192
  0
VERTEX
  5
6CD
  8
0
 10
-6.183833599090576
 20
-19.11530113220215
 30
145.0950012207031
 70
   192
  0
VERTEX
  5
6CE
  8
0
 10
-5.118292808532715
 20
-20.16603469848633
 30
124.9899673461914
 70
   192
  0
VERTEX
  5
6CF
  8
0
 10
-19.08933448791504
 20
-6.199645519256592
 30
145.1103820800781
 70
   192
  0
VERTEX
  5
6D0
  8
0
 10
-20.55036163330078
 20
0.0000000000000124
 30
132.3566589355469
 70
   192
  0
VERTEX
  5
6D1
  8
0
 10
-19.32626152038574
 20
-6.974652290344238
 30
131.7723388671875
 70
   192
  0
VERTEX
  5
6D2
  8
0
 10
-16.23796653747559
 20
-11.82197952270508
 30
145.1069793701172
 70
   192
  0
VERTEX
  5
6D3
  8
0
 10
-20.08974266052246
 20
0.0000000000000159
 30
145.111572265625
 70
   192
  0
VERTEX
  5
6D4
  8
0
 10
6.389675617218018
 20
-19.59955024719238
 30
148.6283416748047
 70
   192
  0
VERTEX
  5
6D5
  8
0
 10
0.0373519919812679
 20
-20.62415313720703
 30
148.6359100341797
 70
   192
  0
VERTEX
  5
6D6
  8
0
 10
-21.2056770324707
 20
-6.895910739898682
 30
151.7265014648438
 70
   192
  0
VERTEX
  5
6D7
  8
0
 10
-20.57974624633789
 20
0.0000000000000168
 30
148.6396636962891
 70
   192
  0
VERTEX
  5
6D8
  8
0
 10
-19.56218528747559
 20
-6.352328300476074
 30
148.6592407226562
 70
   192
  0
VERTEX
  5
6D9
  8
0
 10
12.13891124725342
 20
-16.68259811401367
 30
148.6214904785156
 70
   192
  0
VERTEX
  5
6DA
  8
0
 10
6.823102474212646
 20
-21.28271484375
 30
151.6931304931641
 70
   192
  0
VERTEX
  5
6DB
  8
0
 10
16.69840240478516
 20
-12.13953590393066
 30
148.6160736083984
 70
   192
  0
VERTEX
  5
6DC
  8
0
 10
13.14516639709473
 20
-18.10384941101074
 30
151.6855010986328
 70
   192
  0
VERTEX
  5
6DD
  8
0
 10
19.62527084350586
 20
-6.380378723144531
 30
148.6125793457031
 70
   192
  0
VERTEX
  5
6DE
  8
0
 10
18.15321350097656
 20
-13.09689712524414
 30
151.6795043945312
 70
   192
  0
VERTEX
  5
6DF
  8
0
 10
22.40194320678711
 20
-0.0000927684886847
 30
151.6737060546875
 70
   192
  0
VERTEX
  5
6E0
  8
0
 10
21.31208038330078
 20
-6.825702667236328
 30
151.6759033203125
 70
   192
  0
VERTEX
  5
6E1
  8
0
 10
20.65427398681641
 20
0.0000000000000221
 30
148.5901947021484
 70
   192
  0
VERTEX
  5
6E2
  8
0
 10
-6.343022346496582
 20
-19.58793258666992
 30
148.6435089111328
 70
   192
  0
VERTEX
  5
6E3
  8
0
 10
-0.0162166487425566
 20
-22.36076354980469
 30
151.7010498046875
 70
   192
  0
VERTEX
  5
6E4
  8
0
 10
-12.10217475891113
 20
-16.66106224060059
 30
148.6503601074219
 70
   192
  0
VERTEX
  5
6E5
  8
0
 10
-6.760756969451904
 20
-21.27679443359375
 30
151.7093353271484
 70
   192
  0
VERTEX
  5
6E6
  8
0
 10
-16.64523506164551
 20
-12.1015682220459
 30
148.6557769775391
 70
   192
  0
VERTEX
  5
6E7
  8
0
 10
-12.94420528411865
 20
-18.19573211669922
 30
151.7165374755859
 70
   192
  0
VERTEX
  5
6E8
  8
0
 10
-17.95771217346191
 20
-13.2467565536499
 30
151.7225341796875
 70
   192
  0
VERTEX
  5
6E9
  8
0
 10
-22.32047462463379
 20
0.0000000000000175
 30
151.7276000976562
 70
   192
  0
VERTEX
  5
6EA
  8
0
 10
0.1794692128896713
 20
-22.4427661895752
 30
152.1808319091797
 70
   192
  0
VERTEX
  5
6EB
  8
0
 10
7.08801794052124
 20
-21.28763389587402
 30
152.1726989746094
 70
   192
  0
VERTEX
  5
6EC
  8
0
 10
0.0288654714822769
 20
-22.08639335632324
 30
152.5073547363281
 70
   192
  0
VERTEX
  5
6ED
  8
0
 10
-22.40785598754883
 20
0.0000000000000417
 30
152.2077178955078
 70
   192
  0
VERTEX
  5
6EE
  8
0
 10
-21.2762508392334
 20
-6.95937967300415
 30
152.2064666748047
 70
   192
  0
VERTEX
  5
6EF
  8
0
 10
-22.04462623596191
 20
0.0000000000000205
 30
152.5335998535156
 70
   192
  0
VERTEX
  5
6F0
  8
0
 10
6.834521293640137
 20
-20.99219512939453
 30
152.499267578125
 70
   192
  0
VERTEX
  5
6F1
  8
0
 10
13.44065475463867
 20
-17.99810028076172
 30
152.1650695800781
 70
   192
  0
VERTEX
  5
6F2
  8
0
 10
18.4184627532959
 20
-12.88039016723633
 30
152.1591339111328
 70
   192
  0
VERTEX
  5
6F3
  8
0
 10
13.0084114074707
 20
-17.86504936218262
 30
152.491943359375
 70
   192
  0
VERTEX
  5
6F4
  8
0
 10
21.02052307128906
 20
-6.827955722808838
 30
152.4824676513672
 70
   192
  0
VERTEX
  5
6F5
  8
0
 10
17.88905715942383
 20
-12.99357223510742
 30
152.4861602783203
 70
   192
  0
VERTEX
  5
6F6
  8
0
 10
21.50667762756348
 20
-6.502536773681641
 30
152.1555328369141
 70
   192
  0
VERTEX
  5
6F7
  8
0
 10
22.4895076751709
 20
-0.0000931350296014
 30
152.1542510986328
 70
   192
  0
VERTEX
  5
6F8
  8
0
 10
22.1276912689209
 20
-0.0000000000016363
 30
152.4810028076172
 70
   192
  0
VERTEX
  5
6F9
  8
0
 10
-6.79362154006958
 20
-20.97663497924805
 30
152.5154724121094
 70
   192
  0
VERTEX
  5
6FA
  8
0
 10
-6.629366874694824
 20
-21.41034889221191
 30
152.1890563964844
 70
   192
  0
VERTEX
  5
6FB
  8
0
 10
-12.95397853851318
 20
-17.84594535827637
 30
152.5227813720703
 70
   192
  0
VERTEX
  5
6FC
  8
0
 10
-12.89138793945312
 20
-18.33735084533691
 30
152.1964416503906
 70
   192
  0
VERTEX
  5
6FD
  8
0
 10
-17.82183647155762
 20
-12.96881484985352
 30
152.5285797119141
 70
   192
  0
VERTEX
  5
6FE
  8
0
 10
-17.98662567138672
 20
-13.34930610656738
 30
152.2025146484375
 70
   192
  0
VERTEX
  5
6FF
  8
0
 10
-20.94803047180176
 20
-6.800166130065918
 30
152.5322875976562
 70
   192
  0
VERTEX
  5
700
  8
0
 10
21.05095291137695
 20
6.741315364837646
 30
152.4823150634766
 70
   192
  0
VERTEX
  5
701
  8
0
 10
17.93147468566895
 20
12.93599510192871
 30
152.4860076904297
 70
   192
  0
VERTEX
  5
702
  8
0
 10
12.98534107208252
 20
17.88102722167969
 30
152.4918975830078
 70
   192
  0
VERTEX
  5
703
  8
0
 10
-12.78368377685547
 20
17.97176742553711
 30
152.5225830078125
 70
   192
  0
VERTEX
  5
704
  8
0
 10
-0.0143759837374091
 20
22.08625984191895
 30
152.5073699951172
 70
   192
  0
VERTEX
  5
705
  8
0
 10
-17.73526382446289
 20
13.08447647094727
 30
152.5284729003906
 70
   192
  0
VERTEX
  5
706
  8
0
 10
-20.94291305541992
 20
6.810711860656738
 30
152.5323181152344
 70
   192
  0
VERTEX
  5
707
  8
0
 10
-13.04213809967041
 20
1.678328514099121
 30
154.1327209472656
 70
   192
  0
VERTEX
  5
708
  8
0
 10
-13.15150260925293
 20
0.0000000000000193
 30
154.1336822509766
 70
   192
  0
VERTEX
  5
709
  8
0
 10
-6.67564582824707
 20
21.01481819152832
 30
152.5153198242188
 70
   192
  0
VERTEX
  5
70A
  8
0
 10
6.740471839904785
 20
21.02053260803223
 30
152.4993438720703
 70
   192
  0
VERTEX
  5
70B
  8
0
 10
19.83035850524902
 20
4.890968799591064
 30
136.5312042236328
 70
   192
  0
VERTEX
  5
70C
  8
0
 10
20.43191146850586
 20
3.911021947860718
 30
136.5516052246094
 70
   192
  0
VERTEX
  5
70D
  8
0
 10
20.784912109375
 20
2.065244913101196
 30
134.5854644775391
 70
   192
  0
VERTEX
  5
70E
  8
0
 10
20.9084529876709
 20
-0.501139760017395
 30
134.0869750976562
 70
   192
  0
VERTEX
  5
70F
  8
0
 10
20.30157661437988
 20
2.956139802932739
 30
133.970458984375
 70
   192
  0
VERTEX
  5
710
  8
0
 10
21.85770797729492
 20
-0.0000776536398917
 30
134.5694427490234
 70
   192
  0
VERTEX
  5
711
  8
0
 10
21.85416603088379
 20
-0.473755419254303
 30
134.5923614501953
 70
   192
  0
VERTEX
  5
712
  8
0
 10
21.67427253723145
 20
2.285443782806396
 30
135.2656402587891
 70
   192
  0
VERTEX
  5
713
  8
0
 10
21.28357315063477
 20
3.86925220489502
 30
139.5270080566406
 70
   192
  0
VERTEX
  5
714
  8
0
 10
21.35113716125488
 20
3.750922679901123
 30
137.1487426757812
 70
   192
  0
VERTEX
  5
715
  8
0
 10
20.2676830291748
 20
4.232246398925781
 30
139.3548278808594
 70
   192
  0
VERTEX
  5
716
  8
0
 10
20.45720481872559
 20
2.8684401512146
 30
141.7782135009766
 70
   192
  0
VERTEX
  5
717
  8
0
 10
20.66271209716797
 20
0.4798301160335541
 30
142.8917236328125
 70
   192
  0
VERTEX
  5
718
  8
0
 10
21.51293754577637
 20
2.626487970352173
 30
141.5822448730469
 70
   192
  0
VERTEX
  5
719
  8
0
 10
20.18720245361328
 20
0.5903615355491638
 30
143.8685150146484
 70
   192
  0
VERTEX
  5
71A
  8
0
 10
21.70771408081055
 20
0.4676452577114105
 30
142.5750732421875
 70
   192
  0
VERTEX
  5
71B
  8
0
 10
19.68509101867676
 20
5.020819664001465
 30
139.8575439453125
 70
   192
  0
VERTEX
  5
71C
  8
0
 10
19.9553165435791
 20
3.339761018753052
 30
142.6104431152344
 70
   192
  0
VERTEX
  5
71D
  8
0
 10
21.31419563293457
 20
-3.884607791900635
 30
137.58154296875
 70
   192
  0
VERTEX
  5
71E
  8
0
 10
21.61954116821289
 20
-2.648140668869019
 30
135.5489959716797
 70
   192
  0
VERTEX
  5
71F
  8
0
 10
21.30813217163086
 20
-3.731389999389648
 30
139.9614562988281
 70
   192
  0
VERTEX
  5
720
  8
0
 10
21.55637359619141
 20
-2.273637771606445
 30
141.8675842285156
 70
   192
  0
VERTEX
  5
721
  8
0
 10
21.71422958374023
 20
-0.0001018351103994
 30
142.6046752929688
 70
   192
  0
VERTEX
  5
722
  8
0
 10
91.2806625366211
 20
2.817334175109863
 30
149.8869171142578
 70
   192
  0
VERTEX
  5
723
  8
0
 10
20.63337898254395
 20
-2.944360733032227
 30
135.2158813476562
 70
   192
  0
VERTEX
  5
724
  8
0
 10
20.33135032653809
 20
-3.84687876701355
 30
140.4571838378906
 70
   192
  0
VERTEX
  5
725
  8
0
 10
20.57313346862793
 20
-1.997798442840576
 30
142.3991241455078
 70
   192
  0
VERTEX
  5
726
  8
0
 10
20.31154823303223
 20
-4.257653713226318
 30
137.6687774658203
 70
   192
  0
VERTEX
  5
727
  8
0
 10
-8.719389915466309
 20
-9.841171264648438
 30
154.1277008056641
 70
   192
  0
VERTEX
  5
728
  8
0
 10
-10.01326084136963
 20
-8.533788681030273
 30
154.1289978027344
 70
   192
  0
VERTEX
  5
729
  8
0
 10
8.799546241760254
 20
-9.87520980834961
 30
154.1067810058594
 70
   192
  0
VERTEX
  5
72A
  8
0
 10
3.194157361984253
 20
-12.82029724121094
 30
154.1117248535156
 70
   192
  0
VERTEX
  5
72B
  8
0
 10
-3.141808271408081
 20
-12.81088733673096
 30
154.1190185546875
 70
   192
  0
VERTEX
  5
72C
  8
0
 10
-12.33780097961426
 20
-4.562436580657959
 30
154.13037109375
 70
   192
  0
VERTEX
  5
72D
  8
0
 10
18.23661041259766
 20
13.11689186096191
 30
152.1593933105469
 70
   192
  0
VERTEX
  5
72E
  8
0
 10
21.40191650390625
 20
6.832625865936279
 30
152.1556549072266
 70
   192
  0
VERTEX
  5
72F
  8
0
 10
18.11842155456543
 20
13.14786148071289
 30
151.6793212890625
 70
   192
  0
VERTEX
  5
730
  8
0
 10
6.872076988220215
 20
21.3624267578125
 30
152.1729736328125
 70
   192
  0
VERTEX
  5
731
  8
0
 10
21.28073310852051
 20
6.903342247009277
 30
151.6759643554688
 70
   192
  0
VERTEX
  5
732
  8
0
 10
-12.98118877410889
 20
18.2713623046875
 30
152.1965484619141
 70
   192
  0
VERTEX
  5
733
  8
0
 10
0.0028303831350058
 20
22.44692802429199
 30
152.1810455322266
 70
   192
  0
VERTEX
  5
734
  8
0
 10
-21.27705383300781
 20
6.959194183349609
 30
152.2064819335938
 70
   192
  0
VERTEX
  5
735
  8
0
 10
-18.01082420349121
 20
13.32481956481934
 30
152.2025146484375
 70
   192
  0
VERTEX
  5
736
  8
0
 10
-6.77177906036377
 20
21.36761665344238
 30
152.1891937255859
 70
   192
  0
VERTEX
  5
737
  8
0
 10
-21.20758628845215
 20
6.897866725921631
 30
151.7275543212891
 70
   192
  0
VERTEX
  5
738
  8
0
 10
13.21100807189941
 20
18.16481781005859
 30
152.1653442382812
 70
   192
  0
VERTEX
  5
739
  8
0
 10
13.12378406524658
 20
18.0328426361084
 30
151.6858367919922
 70
   192
  0
VERTEX
  5
73A
  8
0
 10
6.930705070495605
 20
21.2459774017334
 30
151.6932983398438
 70
   192
  0
VERTEX
  5
73B
  8
0
 10
0.0286560133099556
 20
22.36849784851074
 30
151.7007751464844
 70
   192
  0
VERTEX
  5
73C
  8
0
 10
-6.869543552398682
 20
21.23697662353516
 30
151.7087860107422
 70
   192
  0
VERTEX
  5
73D
  8
0
 10
-13.11179733276367
 20
18.08083724975586
 30
151.7174072265625
 70
   192
  0
VERTEX
  5
73E
  8
0
 10
-18.04011917114258
 20
13.12945365905762
 30
151.7221984863281
 70
   192
  0
VERTEX
  5
73F
  8
0
 10
-16.07480049133301
 20
12.38387107849121
 30
129.8369598388672
 70
   192
  0
VERTEX
  5
740
  8
0
 10
-11.47853565216064
 20
16.76590156555176
 30
127.5884246826172
 70
   192
  0
VERTEX
  5
741
  8
0
 10
-11.50009536743164
 20
-16.75966262817383
 30
127.5989761352539
 70
   192
  0
VERTEX
  5
742
  8
0
 10
-5.95297908782959
 20
19.46187400817871
 30
124.8852844238281
 70
   192
  0
VERTEX
  5
743
  8
0
 10
0.0056003076024354
 20
20.41291618347168
 30
121.9703063964844
 70
   192
  0
VERTEX
  5
744
  8
0
 10
0.0056003076024354
 20
-20.41291618347168
 30
121.9703063964844
 70
   192
  0
VERTEX
  5
745
  8
0
 10
-5.970326900482178
 20
-19.45815849304199
 30
124.8937683105469
 70
   192
  0
VERTEX
  5
746
  8
0
 10
-16.0805606842041
 20
-12.38088893890381
 30
129.8397674560547
 70
   192
  0
VERTEX
  5
747
  8
0
 10
-19.14728546142578
 20
6.600820064544678
 30
131.3400421142578
 70
   192
  0
VERTEX
  5
748
  8
0
 10
-19.15938758850098
 20
-6.581627368927002
 30
131.3459625244141
 70
   192
  0
VERTEX
  5
749
  8
0
 10
-20.27040672302246
 20
-0.0000000000000195
 30
131.8894805908203
 70
   192
  0
VERTEX
  5
74A
  8
0
 10
19.74379539489746
 20
6.017138004302979
 30
148.6127624511719
 70
   192
  0
VERTEX
  5
74B
  8
0
 10
19.14841461181641
 20
6.216964721679688
 30
145.0648498535156
 70
   192
  0
VERTEX
  5
74C
  8
0
 10
16.89903831481934
 20
11.84972381591797
 30
148.6161499023438
 70
   192
  0
VERTEX
  5
74D
  8
0
 10
12.38359355926514
 20
16.50829124450684
 30
148.6215362548828
 70
   192
  0
VERTEX
  5
74E
  8
0
 10
6.63138484954834
 20
19.5174446105957
 30
148.6283721923828
 70
   192
  0
VERTEX
  5
74F
  8
0
 10
-6.164663314819336
 20
19.64797019958496
 30
148.6436157226562
 70
   192
  0
VERTEX
  5
750
  8
0
 10
-11.98452568054199
 20
16.74432373046875
 30
148.6505432128906
 70
   192
  0
VERTEX
  5
751
  8
0
 10
0.2488781660795212
 20
20.61745834350586
 30
148.6359710693359
 70
   192
  0
VERTEX
  5
752
  8
0
 10
-16.58366203308105
 20
12.19845294952393
 30
148.6560211181641
 70
   192
  0
VERTEX
  5
753
  8
0
 10
-19.5385856628418
 20
6.417255878448486
 30
148.6595458984375
 70
   192
  0
VERTEX
  5
754
  8
0
 10
-19.08933448791504
 20
6.199645519256592
 30
145.1103820800781
 70
   192
  0
VERTEX
  5
755
  8
0
 10
16.29831123352051
 20
11.83239841461182
 30
145.0682373046875
 70
   192
  0
VERTEX
  5
756
  8
0
 10
11.85509777069092
 20
16.2711067199707
 30
145.0735321044922
 70
   192
  0
VERTEX
  5
757
  8
0
 10
6.232768058776855
 20
19.12247467041016
 30
145.0802307128906
 70
   192
  0
VERTEX
  5
758
  8
0
 10
0.0331269018352032
 20
20.12288475036621
 30
145.0876007080078
 70
   192
  0
VERTEX
  5
759
  8
0
 10
-6.183833599090576
 20
19.11530113220215
 30
145.0950012207031
 70
   192
  0
VERTEX
  5
75A
  8
0
 10
-11.79926300048828
 20
16.26519584655762
 30
145.1016998291016
 70
   192
  0
VERTEX
  5
75B
  8
0
 10
-16.23796653747559
 20
11.82197952270508
 30
145.1069793701172
 70
   192
  0
VERTEX
  5
75C
  8
0
 10
-16.00802421569824
 20
12.99552440643311
 30
130.1884918212891
 70
   192
  0
VERTEX
  5
75D
  8
0
 10
-11.06951236724854
 20
17.49262428283691
 30
127.8327255249023
 70
   192
  0
VERTEX
  5
75E
  8
0
 10
-5.14475154876709
 20
20.15986061096191
 30
125.00244140625
 70
   192
  0
VERTEX
  5
75F
  8
0
 10
1.212092041969299
 20
20.89362144470215
 30
121.968864440918
 70
   192
  0
VERTEX
  5
760
  8
0
 10
-19.32841491699219
 20
6.948770046234131
 30
131.7733459472656
 70
   192
  0
VERTEX
  5
761
  8
0
 10
19.96212577819824
 20
6.234954357147217
 30
121.9465408325195
 70
   192
  0
VERTEX
  5
762
  8
0
 10
7.368435859680176
 20
19.56727409362793
 30
121.9615325927734
 70
   192
  0
VERTEX
  5
763
  8
0
 10
12.8832311630249
 20
16.48979187011719
 30
121.9549713134766
 70
   192
  0
VERTEX
  5
764
  8
0
 10
17.20214080810547
 20
11.91121959686279
 30
121.9498291015625
 70
   192
  0
VERTEX
  5
765
  8
0
 10
91.989013671875
 20
1.460385680198669
 30
148.5351409912109
 70
   192
  0
VERTEX
  5
766
  8
0
 62
     9
 10
0.0
 20
0.0
 30
0.0
 70
   128
 71
     3
 72
     2
 73
     1
  0
VERTEX
  5
767
  8
0
 62
     9
 10
0.0
 20
0.0
 30
0.0
 70
   128
 71
     5
 72
     2
 73
     4
  0
VERTEX
  5
768
  8
0
 62
     9
 10
0.0
 20
0.0
 30
0.0
 70
   128
 71
     2
 72
     6
 73
     1
  0
VERTEX
  5
769
  8
0
 62
     9
 10
0.0
 20
0.0
 30
0.0
 70
   128
 71
     2
 72
     7
 73
     6
  0
VERTEX
  5
76A
  8
0
 62
     9
 10
0.0
 20
0.0
 30
0.0
 70
   128
 71
     8
 72
     7
 73
     2
  0
VERTEX
  5
76B
  8
0
 62
     9
 10
0.0
 20
0.0
 30
0.0
 70
   128
 71
    10
 72
     2
 73
     9
  0
VERTEX
  5
76C
  8
0
 62
     9
 10
0.0
 20
0.0
 30
0.0
 70
   128
 71
    10
 72
     8
 73
     2
  0
VERTEX
  5
76D
  8
0
 62
     9
 10
0.0
 20
0.0
 30
0.0
 70
   128
 71
    11
 72
     9
 73
     2
  0
VERTEX
  5
76E
  8
0
 62
     9
 10
0.0
 20
0.0
 30
0.0
 70
   128
 71
    11
 72
     2
 73
    12
  0
VERTEX
  5
76F
  8
0
 62
     9
 10
0.0
 20
0.0
 30
0.0
 70
   128
 71
    13
 72
     2
 73
     5
  0
VERTEX
  5
770
  8
0
 62
     9
 10
0.0
 20
0.0
 30
0.0
 70
   128
 71
    13
 72
    12
 73
     2
  0
VERTEX
  5
771
  8
0
 62
     9
 10
0.0
 20
0.0
 30
0.0
 70
   128
 71
    16
 72
    15
 73
    14
  0
VERTEX
  5
772
  8
0
 62
     9
 10
0.0
 20
0.0
 30
0.0
 70
   128
 71
    16
 72
    17
 73
    15
  0
VERTEX
  5
773
  8
0
 62
     9
 10
0.0
 20
0.0
 30
0.0
 70
   128
 71
    16
 72
    14
 73
    18
  0
VERTEX
  5
774
  8
0
 62
     9
 10
0.0
 20
0.0
 30
0.0
 70
   128
 71
    17
 72
    20
 73
    19
  0
VERTEX
  5
775
  8
0
 62
     9
 10
0.0
 20
0.0
 30
0.0
 70
   128
 71
    16
 72
    20
 73
    17
  0
VERTEX
  5
776
  8
0
 62
     9
 10
0.0
 20
0.0
 30
0.0
 70
   128
 71
    20
 72
    16
 73
    18
  0
VERTEX
  5
777
  8
0
 62
     9
 10
0.0
 20
0.0
 30
0.0
 70
   128
 71
    21
 72
    15
 73
    17
  0
VERTEX
  5
778
  8
0
 62
     9
 10
0.0
 20
0.0
 30
0.0
 70
   128
 71
    21
 72
    22
 73
    15
  0
VERTEX
  5
779
  8
0
 62
     9
 10
0.0
 20
0.0
 30
0.0
 70
   128
 71
    21
 72
    17
 73
    19
  0
VERTEX
  5
77A
  8
0
 62
     9
 10
0.0
 20
0.0
 30
0.0
 70
   128
 71
    22
 72
    24
 73
    23
  0
VERTEX
  5
77B
  8
0
 62
     9
 10
0.0
 20
0.0
 30
0.0
 70
   128
 71
    21
 72
    24
 73
    22
  0
VERTEX
  5
77C
  8
0
 62
     9
 10
0.0
 20
0.0
 30
0.0
 70
   128
 71
    24
 72
    21
 73
    19
  0
VERTEX
  5
77D
  8
0
 62
     9
 10
0.0
 20
0.0
 30
0.0
 70
   128
 71
    25
 72
    15
 73
    22
  0
VERTEX
  5
77E
  8
0
 62
     9
 10
0.0
 20
0.0
 30
0.0
 70
   128
 71
    25
 72
    26
 73
    15
  0
VERTEX
  5
77F
  8
0
 62
     9
 10
0.0
 20
0.0
 30
0.0
 70
   128
 71
    25
 72
    22
 73
    23
  0
VERTEX
  5
780
  8
0
 62
     9
 10
0.0
 20
0.0
 30
0.0
 70
   128
 71
    26
 72
    28
 73
    27
  0
VERTEX
  5
781
  8
0
 62
     9
 10
0.0
 20
0.0
 30
0.0
 70
   128
 71
    25
 72
    28
 73
    26
  0
VERTEX
  5
782
  8
0
 62
     9
 10
0.0
 20
0.0
 30
0.0
 70
   128
 71
    28
 72
    25
 73
    23
  0
VERTEX
  5
783
  8
0
 62
     9
 10
0.0
 20
0.0
 30
0.0
 70
   128
 71
    31
 72
    30
 73
    29
  0
VERTEX
  5
784
  8
0
 62
     9
 10
0.0
 20
0.0
 30
0.0
 70
   128
 71
    34
 72
    33
 73
    32
  0
VERTEX
  5
785
  8
0
 62
     9
 10
0.0
 20
0.0
 30
0.0
 70
   128
 71
    30
 72
    31
 73
    35
  0
VERTEX
  5
786
  8
0
 62
     9
 10
0.0
 20
0.0
 30
0.0
 70
   128
 71
    38
 72
    37
 73
    36
  0
VERTEX
  5
787
  8
0
 62
     9
 10
0.0
 20
0.0
 30
0.0
 70
   128
 71
    37
 72
    31
 73
    29
  0
VERTEX
  5
788
  8
0
 62
     9
 10
0.0
 20
0.0
 30
0.0
 70
   128
 71
    29
 72
    36
 73
    37
  0
VERTEX
  5
789
  8
0
 62
     9
 10
0.0
 20
0.0
 30
0.0
 70
   128
 71
    39
 72
    35
 73
    31
  0
VERTEX
  5
78A
  8
0
 62
     9
 10
0.0
 20
0.0
 30
0.0
 70
   128
 71
    35
 72
    40
 73
    30
  0
VERTEX
  5
78B
  8
0
 62
     9
 10
0.0
 20
0.0
 30
0.0
 70
   128
 71
    42
 72
    39
 73
    41
  0
VERTEX
  5
78C
  8
0
 62
     9
 10
0.0
 20
0.0
 30
0.0
 70
   128
 71
    42
 72
    35
 73
    39
  0
VERTEX
  5
78D
  8
0
 62
     9
 10
0.0
 20
0.0
 30
0.0
 70
   128
 71
    40
 72
    35
 73
    43
  0
VERTEX
  5
78E
  8
0
 62
     9
 10
0.0
 20
0.0
 30
0.0
 70
   128
 71
    44
 72
    42
 73
    41
  0
VERTEX
  5
78F
  8
0
 62
     9
 10
0.0
 20
0.0
 30
0.0
 70
   128
 71
    43
 72
    46
 73
    45
  0
VERTEX
  5
790
  8
0
 62
     9
 10
0.0
 20
0.0
 30
0.0
 70
   128
 71
    43
 72
    35
 73
    46
  0
VERTEX
  5
791
  8
0
 62
     9
 10
0.0
 20
0.0
 30
0.0
 70
   128
 71
    34
 72
    44
 73
    47
  0
VERTEX
  5
792
  8
0
 62
     9
 10
0.0
 20
0.0
 30
0.0
 70
   128
 71
    41
 72
    47
 73
    44
  0
VERTEX
  5
793
  8
0
 62
     9
 10
0.0
 20
0.0
 30
0.0
 70
   128
 71
    33
 72
    34
 73
    47
  0
VERTEX
  5
794
  8
0
 62
     9
 10
0.0
 20
0.0
 30
0.0
 70
   128
 71
    50
 72
    49
 73
    48
  0
VERTEX
  5
795
  8
0
 62
     9
 10
0.0
 20
0.0
 30
0.0
 70
   128
 71
    52
 72
    51
 73
    32
  0
VERTEX
  5
796
  8
0
 62
     9
 10
0.0
 20
0.0
 30
0.0
 70
   128
 71
    55
 72
    54
 73
    53
  0
VERTEX
  5
797
  8
0
 62
     9
 10
0.0
 20
0.0
 30
0.0
 70
   128
 71
    56
 72
    49
 73
    55
  0
VERTEX
  5
798
  8
0
 62
     9
 10
0.0
 20
0.0
 30
0.0
 70
   128
 71
    53
 72
    54
 73
    57
  0
VERTEX
  5
799
  8
0
 62
     9
 10
0.0
 20
0.0
 30
0.0
 70
   128
 71
    53
 72
    56
 73
    55
  0
VERTEX
  5
79A
  8
0
 62
     9
 10
0.0
 20
0.0
 30
0.0
 70
   128
 71
    48
 72
    49
 73
    56
  0
VERTEX
  5
79B
  8
0
 62
     9
 10
0.0
 20
0.0
 30
0.0
 70
   128
 71
    51
 72
    50
 73
    48
  0
VERTEX
  5
79C
  8
0
 62
     9
 10
0.0
 20
0.0
 30
0.0
 70
   128
 71
    33
 72
    52
 73
    32
  0
VERTEX
  5
79D
  8
0
 62
     9
 10
0.0
 20
0.0
 30
0.0
 70
   128
 71
    52
 72
    50
 73
    51
  0
VERTEX
  5
79E
  8
0
 62
     9
 10
0.0
 20
0.0
 30
0.0
 70
   128
 71
    59
 72
    58
 73
    32
  0
VERTEX
  5
79F
  8
0
 62
     9
 10
0.0
 20
0.0
 30
0.0
 70
   128
 71
    62
 72
    61
 73
    60
  0
VERTEX
  5
7A0
  8
0
 62
     9
 10
0.0
 20
0.0
 30
0.0
 70
   128
 71
    63
 72
    34
 73
    58
  0
VERTEX
  5
7A1
  8
0
 62
     9
 10
0.0
 20
0.0
 30
0.0
 70
   128
 71
    58
 72
    59
 73
    64
  0
VERTEX
  5
7A2
  8
0
 62
     9
 10
0.0
 20
0.0
 30
0.0
 70
   128
 71
    44
 72
    63
 73
    65
  0
VERTEX
  5
7A3
  8
0
 62
     9
 10
0.0
 20
0.0
 30
0.0
 70
   128
 71
    58
 72
    66
 73
    63
  0
VERTEX
  5
7A4
  8
0
 62
     9
 10
0.0
 20
0.0
 30
0.0
 70
   128
 71
    65
 72
    67
 73
    42
  0
VERTEX
  5
7A5
  8
0
 62
     9
 10
0.0
 20
0.0
 30
0.0
 70
   128
 71
    68
 72
    65
 73
    63
  0
VERTEX
  5
7A6
  8
0
 62
     9
 10
0.0
 20
0.0
 30
0.0
 70
   128
 71
    70
 72
    69
 73
    67
  0
VERTEX
  5
7A7
  8
0
 62
     9
 10
0.0
 20
0.0
 30
0.0
 70
   128
 71
    70
 72
    67
 73
    65
  0
VERTEX
  5
7A8
  8
0
 62
     9
 10
0.0
 20
0.0
 30
0.0
 70
   128
 71
    71
 72
    46
 73
    35
  0
VERTEX
  5
7A9
  8
0
 62
     9
 10
0.0
 20
0.0
 30
0.0
 70
   128
 71
    72
 72
    59
 73
    51
  0
VERTEX
  5
7AA
  8
0
 62
     9
 10
0.0
 20
0.0
 30
0.0
 70
   128
 71
    73
 72
    59
 73
    72
  0
VERTEX
  5
7AB
  8
0
 62
     9
 10
0.0
 20
0.0
 30
0.0
 70
   128
 71
    72
 72
    48
 73
    74
  0
VERTEX
  5
7AC
  8
0
 62
     9
 10
0.0
 20
0.0
 30
0.0
 70
   128
 71
    72
 72
    74
 73
    75
  0
VERTEX
  5
7AD
  8
0
 62
     9
 10
0.0
 20
0.0
 30
0.0
 70
   128
 71
    56
 72
    76
 73
    74
  0
VERTEX
  5
7AE
  8
0
 62
     9
 10
0.0
 20
0.0
 30
0.0
 70
   128
 71
    76
 72
    77
 73
    74
  0
VERTEX
  5
7AF
  8
0
 62
     9
 10
0.0
 20
0.0
 30
0.0
 70
   128
 71
    62
 72
    76
 73
    53
  0
VERTEX
  5
7B0
  8
0
 62
     9
 10
0.0
 20
0.0
 30
0.0
 70
   128
 71
    78
 72
    76
 73
    62
  0
VERTEX
  5
7B1
  8
0
 62
     9
 10
0.0
 20
0.0
 30
0.0
 70
   128
 71
    62
 72
    53
 73
    57
  0
VERTEX
  5
7B2
  8
0
 62
     9
 10
0.0
 20
0.0
 30
0.0
 70
   128
 71
    78
 72
    62
 73
    60
  0
VERTEX
  5
7B3
  8
0
 62
     9
 10
0.0
 20
0.0
 30
0.0
 70
   128
 71
    61
 72
    79
 73
    60
  0
VERTEX
  5
7B4
  8
0
 62
     9
 10
0.0
 20
0.0
 30
0.0
 70
   128
 71
    61
 72
    62
 73
    57
  0
VERTEX
  5
7B5
  8
0
 62
     9
 10
0.0
 20
0.0
 30
0.0
 70
   128
 71
    76
 72
    56
 73
    53
  0
VERTEX
  5
7B6
  8
0
 62
     9
 10
0.0
 20
0.0
 30
0.0
 70
   128
 71
    48
 72
    56
 73
    74
  0
VERTEX
  5
7B7
  8
0
 62
     9
 10
0.0
 20
0.0
 30
0.0
 70
   128
 71
    76
 72
    78
 73
    77
  0
VERTEX
  5
7B8
  8
0
 62
     9
 10
0.0
 20
0.0
 30
0.0
 70
   128
 71
    51
 72
    48
 73
    72
  0
VERTEX
  5
7B9
  8
0
 62
     9
 10
0.0
 20
0.0
 30
0.0
 70
   128
 71
    74
 72
    77
 73
    75
  0
VERTEX
  5
7BA
  8
0
 62
     9
 10
0.0
 20
0.0
 30
0.0
 70
   128
 71
    32
 72
    51
 73
    59
  0
VERTEX
  5
7BB
  8
0
 62
     9
 10
0.0
 20
0.0
 30
0.0
 70
   128
 71
    72
 72
    75
 73
    73
  0
VERTEX
  5
7BC
  8
0
 62
     9
 10
0.0
 20
0.0
 30
0.0
 70
   128
 71
    34
 72
    32
 73
    58
  0
VERTEX
  5
7BD
  8
0
 62
     9
 10
0.0
 20
0.0
 30
0.0
 70
   128
 71
    59
 72
    73
 73
    64
  0
VERTEX
  5
7BE
  8
0
 62
     9
 10
0.0
 20
0.0
 30
0.0
 70
   128
 71
    44
 72
    34
 73
    63
  0
VERTEX
  5
7BF
  8
0
 62
     9
 10
0.0
 20
0.0
 30
0.0
 70
   128
 71
    58
 72
    64
 73
    66
  0
VERTEX
  5
7C0
  8
0
 62
     9
 10
0.0
 20
0.0
 30
0.0
 70
   128
 71
    42
 72
    44
 73
    65
  0
VERTEX
  5
7C1
  8
0
 62
     9
 10
0.0
 20
0.0
 30
0.0
 70
   128
 71
    63
 72
    66
 73
    68
  0
VERTEX
  5
7C2
  8
0
 62
     9
 10
0.0
 20
0.0
 30
0.0
 70
   128
 71
    35
 72
    42
 73
    67
  0
VERTEX
  5
7C3
  8
0
 62
     9
 10
0.0
 20
0.0
 30
0.0
 70
   128
 71
    65
 72
    68
 73
    70
  0
VERTEX
  5
7C4
  8
0
 62
     9
 10
0.0
 20
0.0
 30
0.0
 70
   128
 71
    67
 72
    71
 73
    35
  0
VERTEX
  5
7C5
  8
0
 62
     9
 10
0.0
 20
0.0
 30
0.0
 70
   128
 71
    71
 72
    67
 73
    69
  0
VERTEX
  5
7C6
  8
0
 62
     9
 10
0.0
 20
0.0
 30
0.0
 70
   128
 71
    82
 72
    81
 73
    80
  0
VERTEX
  5
7C7
  8
0
 62
     9
 10
0.0
 20
0.0
 30
0.0
 70
   128
 71
    85
 72
    84
 73
    83
  0
VERTEX
  5
7C8
  8
0
 62
     9
 10
0.0
 20
0.0
 30
0.0
 70
   128
 71
    87
 72
    81
 73
    86
  0
VERTEX
  5
7C9
  8
0
 62
     9
 10
0.0
 20
0.0
 30
0.0
 70
   128
 71
    82
 72
    86
 73
    81
  0
VERTEX
  5
7CA
  8
0
 62
     9
 10
0.0
 20
0.0
 30
0.0
 70
   128
 71
    87
 72
    89
 73
    88
  0
VERTEX
  5
7CB
  8
0
 62
     9
 10
0.0
 20
0.0
 30
0.0
 70
   128
 71
    89
 72
    87
 73
    86
  0
VERTEX
  5
7CC
  8
0
 62
     9
 10
0.0
 20
0.0
 30
0.0
 70
   128
 71
    91
 72
    90
 73
    88
  0
VERTEX
  5
7CD
  8
0
 62
     9
 10
0.0
 20
0.0
 30
0.0
 70
   128
 71
    88
 72
    89
 73
    91
  0
VERTEX
  5
7CE
  8
0
 62
     9
 10
0.0
 20
0.0
 30
0.0
 70
   128
 71
    90
 72
    93
 73
    92
  0
VERTEX
  5
7CF
  8
0
 62
     9
 10
0.0
 20
0.0
 30
0.0
 70
   128
 71
    90
 72
    94
 73
    93
  0
VERTEX
  5
7D0
  8
0
 62
     9
 10
0.0
 20
0.0
 30
0.0
 70
   128
 71
    80
 72
    95
 73
    82
  0
VERTEX
  5
7D1
  8
0
 62
     9
 10
0.0
 20
0.0
 30
0.0
 70
   128
 71
    92
 72
    93
 73
    69
  0
VERTEX
  5
7D2
  8
0
 62
     9
 10
0.0
 20
0.0
 30
0.0
 70
   128
 71
    96
 72
    95
 73
    80
  0
VERTEX
  5
7D3
  8
0
 62
     9
 10
0.0
 20
0.0
 30
0.0
 70
   128
 71
    96
 72
    98
 73
    97
  0
VERTEX
  5
7D4
  8
0
 62
     9
 10
0.0
 20
0.0
 30
0.0
 70
   128
 71
    97
 72
    95
 73
    96
  0
VERTEX
  5
7D5
  8
0
 62
     9
 10
0.0
 20
0.0
 30
0.0
 70
   128
 71
   100
 72
    99
 73
    98
  0
VERTEX
  5
7D6
  8
0
 62
     9
 10
0.0
 20
0.0
 30
0.0
 70
   128
 71
    97
 72
    98
 73
    99
  0
VERTEX
  5
7D7
  8
0
 62
     9
 10
0.0
 20
0.0
 30
0.0
 70
   128
 71
   101
 72
   100
 73
    84
  0
VERTEX
  5
7D8
  8
0
 62
     9
 10
0.0
 20
0.0
 30
0.0
 70
   128
 71
   100
 72
   101
 73
    99
  0
VERTEX
  5
7D9
  8
0
 62
     9
 10
0.0
 20
0.0
 30
0.0
 70
   128
 71
    83
 72
    84
 73
    60
  0
VERTEX
  5
7DA
  8
0
 62
     9
 10
0.0
 20
0.0
 30
0.0
 70
   128
 71
    85
 72
   101
 73
    84
  0
VERTEX
  5
7DB
  8
0
 62
     9
 10
0.0
 20
0.0
 30
0.0
 70
   128
 71
    83
 72
    60
 73
    79
  0
VERTEX
  5
7DC
  8
0
 62
     9
 10
0.0
 20
0.0
 30
0.0
 70
   128
 71
    84
 72
    78
 73
    60
  0
VERTEX
  5
7DD
  8
0
 62
     9
 10
0.0
 20
0.0
 30
0.0
 70
   128
 71
   100
 72
    78
 73
    84
  0
VERTEX
  5
7DE
  8
0
 62
     9
 10
0.0
 20
0.0
 30
0.0
 70
   128
 71
   100
 72
    77
 73
    78
  0
VERTEX
  5
7DF
  8
0
 62
     9
 10
0.0
 20
0.0
 30
0.0
 70
   128
 71
    98
 72
    77
 73
   100
  0
VERTEX
  5
7E0
  8
0
 62
     9
 10
0.0
 20
0.0
 30
0.0
 70
   128
 71
    98
 72
    75
 73
    77
  0
VERTEX
  5
7E1
  8
0
 62
     9
 10
0.0
 20
0.0
 30
0.0
 70
   128
 71
    96
 72
    75
 73
    98
  0
VERTEX
  5
7E2
  8
0
 62
     9
 10
0.0
 20
0.0
 30
0.0
 70
   128
 71
    96
 72
    73
 73
    75
  0
VERTEX
  5
7E3
  8
0
 62
     9
 10
0.0
 20
0.0
 30
0.0
 70
   128
 71
    80
 72
    73
 73
    96
  0
VERTEX
  5
7E4
  8
0
 62
     9
 10
0.0
 20
0.0
 30
0.0
 70
   128
 71
    80
 72
    64
 73
    73
  0
VERTEX
  5
7E5
  8
0
 62
     9
 10
0.0
 20
0.0
 30
0.0
 70
   128
 71
    81
 72
    64
 73
    80
  0
VERTEX
  5
7E6
  8
0
 62
     9
 10
0.0
 20
0.0
 30
0.0
 70
   128
 71
    81
 72
    66
 73
    64
  0
VERTEX
  5
7E7
  8
0
 62
     9
 10
0.0
 20
0.0
 30
0.0
 70
   128
 71
    87
 72
    66
 73
    81
  0
VERTEX
  5
7E8
  8
0
 62
     9
 10
0.0
 20
0.0
 30
0.0
 70
   128
 71
    87
 72
    68
 73
    66
  0
VERTEX
  5
7E9
  8
0
 62
     9
 10
0.0
 20
0.0
 30
0.0
 70
   128
 71
    88
 72
    68
 73
    87
  0
VERTEX
  5
7EA
  8
0
 62
     9
 10
0.0
 20
0.0
 30
0.0
 70
   128
 71
    88
 72
    70
 73
    68
  0
VERTEX
  5
7EB
  8
0
 62
     9
 10
0.0
 20
0.0
 30
0.0
 70
   128
 71
    92
 72
    69
 73
    70
  0
VERTEX
  5
7EC
  8
0
 62
     9
 10
0.0
 20
0.0
 30
0.0
 70
   128
 71
    92
 72
    70
 73
    88
  0
VERTEX
  5
7ED
  8
0
 62
     9
 10
0.0
 20
0.0
 30
0.0
 70
   128
 71
    92
 72
    88
 73
    90
  0
VERTEX
  5
7EE
  8
0
 62
     9
 10
0.0
 20
0.0
 30
0.0
 70
   128
 71
    94
 72
     6
 73
     7
  0
VERTEX
  5
7EF
  8
0
 62
     9
 10
0.0
 20
0.0
 30
0.0
 70
   128
 71
     8
 72
   103
 73
   102
  0
VERTEX
  5
7F0
  8
0
 62
     9
 10
0.0
 20
0.0
 30
0.0
 70
   128
 71
   102
 72
    94
 73
     7
  0
VERTEX
  5
7F1
  8
0
 62
     9
 10
0.0
 20
0.0
 30
0.0
 70
   128
 71
   104
 72
    10
 73
     9
  0
VERTEX
  5
7F2
  8
0
 62
     9
 10
0.0
 20
0.0
 30
0.0
 70
   128
 71
    13
 72
   105
 73
    12
  0
VERTEX
  5
7F3
  8
0
 62
     9
 10
0.0
 20
0.0
 30
0.0
 70
   128
 71
    11
 72
   106
 73
     9
  0
VERTEX
  5
7F4
  8
0
 62
     9
 10
0.0
 20
0.0
 30
0.0
 70
   128
 71
   108
 72
   107
 73
     4
  0
VERTEX
  5
7F5
  8
0
 62
     9
 10
0.0
 20
0.0
 30
0.0
 70
   128
 71
     5
 72
     4
 73
   107
  0
VERTEX
  5
7F6
  8
0
 62
     9
 10
0.0
 20
0.0
 30
0.0
 70
   128
 71
   108
 72
   109
 73
    85
  0
VERTEX
  5
7F7
  8
0
 62
     9
 10
0.0
 20
0.0
 30
0.0
 70
   128
 71
   109
 72
   108
 73
     4
  0
VERTEX
  5
7F8
  8
0
 62
     9
 10
0.0
 20
0.0
 30
0.0
 70
   128
 71
    85
 72
   109
 73
   110
  0
VERTEX
  5
7F9
  8
0
 62
     9
 10
0.0
 20
0.0
 30
0.0
 70
   128
 71
     5
 72
   105
 73
    13
  0
VERTEX
  5
7FA
  8
0
 62
     9
 10
0.0
 20
0.0
 30
0.0
 70
   128
 71
     5
 72
   107
 73
   105
  0
VERTEX
  5
7FB
  8
0
 62
     9
 10
0.0
 20
0.0
 30
0.0
 70
   128
 71
   105
 72
   111
 73
    12
  0
VERTEX
  5
7FC
  8
0
 62
     9
 10
0.0
 20
0.0
 30
0.0
 70
   128
 71
   106
 72
    11
 73
   111
  0
VERTEX
  5
7FD
  8
0
 62
     9
 10
0.0
 20
0.0
 30
0.0
 70
   128
 71
    12
 72
   111
 73
    11
  0
VERTEX
  5
7FE
  8
0
 62
     9
 10
0.0
 20
0.0
 30
0.0
 70
   128
 71
     9
 72
   106
 73
   112
  0
VERTEX
  5
7FF
  8
0
 62
     9
 10
0.0
 20
0.0
 30
0.0
 70
   128
 71
   104
 72
     9
 73
   112
  0
VERTEX
  5
800
  8
0
 62
     9
 10
0.0
 20
0.0
 30
0.0
 70
   128
 71
   104
 72
   103
 73
    10
  0
VERTEX
  5
801
  8
0
 62
     9
 10
0.0
 20
0.0
 30
0.0
 70
   128
 71
     7
 72
     8
 73
   102
  0
VERTEX
  5
802
  8
0
 62
     9
 10
0.0
 20
0.0
 30
0.0
 70
   128
 71
     8
 72
    10
 73
   103
  0
VERTEX
  5
803
  8
0
 62
     9
 10
0.0
 20
0.0
 30
0.0
 70
   128
 71
   115
 72
   114
 73
   113
  0
VERTEX
  5
804
  8
0
 62
     9
 10
0.0
 20
0.0
 30
0.0
 70
   128
 71
   116
 72
    38
 73
    36
  0
VERTEX
  5
805
  8
0
 62
     9
 10
0.0
 20
0.0
 30
0.0
 70
   128
 71
   117
 72
    38
 73
   116
  0
VERTEX
  5
806
  8
0
 62
     9
 10
0.0
 20
0.0
 30
0.0
 70
   128
 71
   115
 72
   113
 73
   117
  0
VERTEX
  5
807
  8
0
 62
     9
 10
0.0
 20
0.0
 30
0.0
 70
   128
 71
   116
 72
   118
 73
   115
  0
VERTEX
  5
808
  8
0
 62
     9
 10
0.0
 20
0.0
 30
0.0
 70
   128
 71
   116
 72
   119
 73
   118
  0
VERTEX
  5
809
  8
0
 62
     9
 10
0.0
 20
0.0
 30
0.0
 70
   128
 71
   115
 72
   120
 73
   114
  0
VERTEX
  5
80A
  8
0
 62
     9
 10
0.0
 20
0.0
 30
0.0
 70
   128
 71
   123
 72
   122
 73
   121
  0
VERTEX
  5
80B
  8
0
 62
     9
 10
0.0
 20
0.0
 30
0.0
 70
   128
 71
   126
 72
   125
 73
   124
  0
VERTEX
  5
80C
  8
0
 62
     9
 10
0.0
 20
0.0
 30
0.0
 70
   128
 71
   122
 72
   123
 73
   114
  0
VERTEX
  5
80D
  8
0
 62
     9
 10
0.0
 20
0.0
 30
0.0
 70
   128
 71
   124
 72
   125
 73
   127
  0
VERTEX
  5
80E
  8
0
 62
     9
 10
0.0
 20
0.0
 30
0.0
 70
   128
 71
   124
 72
   123
 73
   121
  0
VERTEX
  5
80F
  8
0
 62
     9
 10
0.0
 20
0.0
 30
0.0
 70
   128
 71
   128
 72
   125
 73
   126
  0
VERTEX
  5
810
  8
0
 62
     9
 10
0.0
 20
0.0
 30
0.0
 70
   128
 71
   126
 72
   124
 73
   121
  0
VERTEX
  5
811
  8
0
 62
     9
 10
0.0
 20
0.0
 30
0.0
 70
   128
 71
   120
 72
   115
 73
   118
  0
VERTEX
  5
812
  8
0
 62
     9
 10
0.0
 20
0.0
 30
0.0
 70
   128
 71
   115
 72
   117
 73
   116
  0
VERTEX
  5
813
  8
0
 62
     9
 10
0.0
 20
0.0
 30
0.0
 70
   128
 71
   113
 72
   114
 73
   129
  0
VERTEX
  5
814
  8
0
 62
     9
 10
0.0
 20
0.0
 30
0.0
 70
   128
 71
   122
 72
   114
 73
   120
  0
VERTEX
  5
815
  8
0
 62
     9
 10
0.0
 20
0.0
 30
0.0
 70
   128
 71
   123
 72
   129
 73
   114
  0
VERTEX
  5
816
  8
0
 62
     9
 10
0.0
 20
0.0
 30
0.0
 70
   128
 71
   129
 72
   123
 73
   130
  0
VERTEX
  5
817
  8
0
 62
     9
 10
0.0
 20
0.0
 30
0.0
 70
   128
 71
   124
 72
   130
 73
   123
  0
VERTEX
  5
818
  8
0
 62
     9
 10
0.0
 20
0.0
 30
0.0
 70
   128
 71
   130
 72
   124
 73
   127
  0
VERTEX
  5
819
  8
0
 62
     9
 10
0.0
 20
0.0
 30
0.0
 70
   128
 71
   118
 72
   119
 73
    19
  0
VERTEX
  5
81A
  8
0
 62
     9
 10
0.0
 20
0.0
 30
0.0
 70
   128
 71
    24
 72
   132
 73
   131
  0
VERTEX
  5
81B
  8
0
 62
     9
 10
0.0
 20
0.0
 30
0.0
 70
   128
 71
   132
 72
    24
 73
   119
  0
VERTEX
  5
81C
  8
0
 62
     9
 10
0.0
 20
0.0
 30
0.0
 70
   128
 71
   119
 72
    24
 73
    19
  0
VERTEX
  5
81D
  8
0
 62
     9
 10
0.0
 20
0.0
 30
0.0
 70
   128
 71
   131
 72
    23
 73
    24
  0
VERTEX
  5
81E
  8
0
 62
     9
 10
0.0
 20
0.0
 30
0.0
 70
   128
 71
   133
 72
    23
 73
   131
  0
VERTEX
  5
81F
  8
0
 62
     9
 10
0.0
 20
0.0
 30
0.0
 70
   128
 71
    23
 72
   133
 73
    28
  0
VERTEX
  5
820
  8
0
 62
     9
 10
0.0
 20
0.0
 30
0.0
 70
   128
 71
    27
 72
    28
 73
   134
  0
VERTEX
  5
821
  8
0
 62
     9
 10
0.0
 20
0.0
 30
0.0
 70
   128
 71
   133
 72
   134
 73
    28
  0
VERTEX
  5
822
  8
0
 62
     9
 10
0.0
 20
0.0
 30
0.0
 70
   128
 71
   135
 72
    27
 73
   134
  0
VERTEX
  5
823
  8
0
 62
     9
 10
0.0
 20
0.0
 30
0.0
 70
   128
 71
   118
 72
    19
 73
   120
  0
VERTEX
  5
824
  8
0
 62
     9
 10
0.0
 20
0.0
 30
0.0
 70
   128
 71
    18
 72
   136
 73
   121
  0
VERTEX
  5
825
  8
0
 62
     9
 10
0.0
 20
0.0
 30
0.0
 70
   128
 71
    20
 72
    18
 73
   122
  0
VERTEX
  5
826
  8
0
 62
     9
 10
0.0
 20
0.0
 30
0.0
 70
   128
 71
   136
 72
    27
 73
   128
  0
VERTEX
  5
827
  8
0
 62
     9
 10
0.0
 20
0.0
 30
0.0
 70
   128
 71
   128
 72
   126
 73
   136
  0
VERTEX
  5
828
  8
0
 62
     9
 10
0.0
 20
0.0
 30
0.0
 70
   128
 71
   128
 72
    27
 73
   135
  0
VERTEX
  5
829
  8
0
 62
     9
 10
0.0
 20
0.0
 30
0.0
 70
   128
 71
   126
 72
   121
 73
   136
  0
VERTEX
  5
82A
  8
0
 62
     9
 10
0.0
 20
0.0
 30
0.0
 70
   128
 71
    18
 72
   121
 73
   122
  0
VERTEX
  5
82B
  8
0
 62
     9
 10
0.0
 20
0.0
 30
0.0
 70
   128
 71
   122
 72
   120
 73
    20
  0
VERTEX
  5
82C
  8
0
 62
     9
 10
0.0
 20
0.0
 30
0.0
 70
   128
 71
    20
 72
   120
 73
    19
  0
VERTEX
  5
82D
  8
0
 62
     9
 10
0.0
 20
0.0
 30
0.0
 70
   128
 71
   137
 72
    36
 73
    29
  0
VERTEX
  5
82E
  8
0
 62
     9
 10
0.0
 20
0.0
 30
0.0
 70
   128
 71
   116
 72
   132
 73
   119
  0
VERTEX
  5
82F
  8
0
 62
     9
 10
0.0
 20
0.0
 30
0.0
 70
   128
 71
   139
 72
   134
 73
   138
  0
VERTEX
  5
830
  8
0
 62
     9
 10
0.0
 20
0.0
 30
0.0
 70
   128
 71
   137
 72
   140
 73
   131
  0
VERTEX
  5
831
  8
0
 62
     9
 10
0.0
 20
0.0
 30
0.0
 70
   128
 71
   139
 72
   125
 73
   135
  0
VERTEX
  5
832
  8
0
 62
     9
 10
0.0
 20
0.0
 30
0.0
 70
   128
 71
   125
 72
    45
 73
   127
  0
VERTEX
  5
833
  8
0
 62
     9
 10
0.0
 20
0.0
 30
0.0
 70
   128
 71
   135
 72
   125
 73
   128
  0
VERTEX
  5
834
  8
0
 62
     9
 10
0.0
 20
0.0
 30
0.0
 70
   128
 71
    45
 72
   125
 73
    43
  0
VERTEX
  5
835
  8
0
 62
     9
 10
0.0
 20
0.0
 30
0.0
 70
   128
 71
    40
 72
    43
 73
   139
  0
VERTEX
  5
836
  8
0
 62
     9
 10
0.0
 20
0.0
 30
0.0
 70
   128
 71
    40
 72
   139
 73
   138
  0
VERTEX
  5
837
  8
0
 62
     9
 10
0.0
 20
0.0
 30
0.0
 70
   128
 71
   131
 72
   140
 73
   133
  0
VERTEX
  5
838
  8
0
 62
     9
 10
0.0
 20
0.0
 30
0.0
 70
   128
 71
   131
 72
   132
 73
   137
  0
VERTEX
  5
839
  8
0
 62
     9
 10
0.0
 20
0.0
 30
0.0
 70
   128
 71
   138
 72
   133
 73
   140
  0
VERTEX
  5
83A
  8
0
 62
     9
 10
0.0
 20
0.0
 30
0.0
 70
   128
 71
    36
 72
   137
 73
   116
  0
VERTEX
  5
83B
  8
0
 62
     9
 10
0.0
 20
0.0
 30
0.0
 70
   128
 71
   134
 72
   139
 73
   135
  0
VERTEX
  5
83C
  8
0
 62
     9
 10
0.0
 20
0.0
 30
0.0
 70
   128
 71
   139
 72
    43
 73
   125
  0
VERTEX
  5
83D
  8
0
 62
     9
 10
0.0
 20
0.0
 30
0.0
 70
   128
 71
    40
 72
   138
 73
    30
  0
VERTEX
  5
83E
  8
0
 62
     9
 10
0.0
 20
0.0
 30
0.0
 70
   128
 71
   133
 72
   138
 73
   134
  0
VERTEX
  5
83F
  8
0
 62
     9
 10
0.0
 20
0.0
 30
0.0
 70
   128
 71
   140
 72
    30
 73
   138
  0
VERTEX
  5
840
  8
0
 62
     9
 10
0.0
 20
0.0
 30
0.0
 70
   128
 71
    30
 72
   140
 73
    29
  0
VERTEX
  5
841
  8
0
 62
     9
 10
0.0
 20
0.0
 30
0.0
 70
   128
 71
   140
 72
   137
 73
    29
  0
VERTEX
  5
842
  8
0
 62
     9
 10
0.0
 20
0.0
 30
0.0
 70
   128
 71
   137
 72
   132
 73
   116
  0
VERTEX
  5
843
  8
0
 62
     9
 10
0.0
 20
0.0
 30
0.0
 70
   128
 71
     1
 72
     6
 73
    94
  0
VERTEX
  5
844
  8
0
 62
     9
 10
0.0
 20
0.0
 30
0.0
 70
   128
 71
   142
 72
   141
 73
    97
  0
VERTEX
  5
845
  8
0
 62
     9
 10
0.0
 20
0.0
 30
0.0
 70
   128
 71
     3
 72
    90
 73
    91
  0
VERTEX
  5
846
  8
0
 62
     9
 10
0.0
 20
0.0
 30
0.0
 70
   128
 71
   144
 72
   143
 73
    89
  0
VERTEX
  5
847
  8
0
 62
     9
 10
0.0
 20
0.0
 30
0.0
 70
   128
 71
   145
 72
   144
 73
    82
  0
VERTEX
  5
848
  8
0
 62
     9
 10
0.0
 20
0.0
 30
0.0
 70
   128
 71
   101
 72
   146
 73
    99
  0
VERTEX
  5
849
  8
0
 62
     9
 10
0.0
 20
0.0
 30
0.0
 70
   128
 71
   146
 72
   142
 73
    99
  0
VERTEX
  5
84A
  8
0
 62
     9
 10
0.0
 20
0.0
 30
0.0
 70
   128
 71
   110
 72
   146
 73
   101
  0
VERTEX
  5
84B
  8
0
 62
     9
 10
0.0
 20
0.0
 30
0.0
 70
   128
 71
   110
 72
   101
 73
    85
  0
VERTEX
  5
84C
  8
0
 62
     9
 10
0.0
 20
0.0
 30
0.0
 70
   128
 71
    99
 72
   142
 73
    97
  0
VERTEX
  5
84D
  8
0
 62
     9
 10
0.0
 20
0.0
 30
0.0
 70
   128
 71
   141
 72
    95
 73
    97
  0
VERTEX
  5
84E
  8
0
 62
     9
 10
0.0
 20
0.0
 30
0.0
 70
   128
 71
   145
 72
    82
 73
    95
  0
VERTEX
  5
84F
  8
0
 62
     9
 10
0.0
 20
0.0
 30
0.0
 70
   128
 71
    95
 72
   141
 73
   145
  0
VERTEX
  5
850
  8
0
 62
     9
 10
0.0
 20
0.0
 30
0.0
 70
   128
 71
   144
 72
    89
 73
    86
  0
VERTEX
  5
851
  8
0
 62
     9
 10
0.0
 20
0.0
 30
0.0
 70
   128
 71
    86
 72
    82
 73
   144
  0
VERTEX
  5
852
  8
0
 62
     9
 10
0.0
 20
0.0
 30
0.0
 70
   128
 71
     3
 72
    91
 73
   143
  0
VERTEX
  5
853
  8
0
 62
     9
 10
0.0
 20
0.0
 30
0.0
 70
   128
 71
    91
 72
    89
 73
   143
  0
VERTEX
  5
854
  8
0
 62
     9
 10
0.0
 20
0.0
 30
0.0
 70
   128
 71
    90
 72
     1
 73
    94
  0
VERTEX
  5
855
  8
0
 62
     9
 10
0.0
 20
0.0
 30
0.0
 70
   128
 71
    90
 72
     3
 73
     1
  0
VERTEX
  5
856
  8
0
 62
     9
 10
0.0
 20
0.0
 30
0.0
 70
   128
 71
   149
 72
   148
 73
   147
  0
VERTEX
  5
857
  8
0
 62
     9
 10
0.0
 20
0.0
 30
0.0
 70
   128
 71
   147
 72
   148
 73
   102
  0
VERTEX
  5
858
  8
0
 62
     9
 10
0.0
 20
0.0
 30
0.0
 70
   128
 71
   112
 72
   150
 73
   104
  0
VERTEX
  5
859
  8
0
 62
     9
 10
0.0
 20
0.0
 30
0.0
 70
   128
 71
   151
 72
    69
 73
    93
  0
VERTEX
  5
85A
  8
0
 62
     9
 10
0.0
 20
0.0
 30
0.0
 70
   128
 71
   152
 72
   111
 73
   105
  0
VERTEX
  5
85B
  8
0
 62
     9
 10
0.0
 20
0.0
 30
0.0
 70
   128
 71
   150
 72
   112
 73
   153
  0
VERTEX
  5
85C
  8
0
 62
     9
 10
0.0
 20
0.0
 30
0.0
 70
   128
 71
   155
 72
   107
 73
   154
  0
VERTEX
  5
85D
  8
0
 62
     9
 10
0.0
 20
0.0
 30
0.0
 70
   128
 71
   155
 72
   152
 73
   105
  0
VERTEX
  5
85E
  8
0
 62
     9
 10
0.0
 20
0.0
 30
0.0
 70
   128
 71
   108
 72
    85
 73
    83
  0
VERTEX
  5
85F
  8
0
 62
     9
 10
0.0
 20
0.0
 30
0.0
 70
   128
 71
   154
 72
   108
 73
    83
  0
VERTEX
  5
860
  8
0
 62
     9
 10
0.0
 20
0.0
 30
0.0
 70
   128
 71
    79
 72
   154
 73
    83
  0
VERTEX
  5
861
  8
0
 62
     9
 10
0.0
 20
0.0
 30
0.0
 70
   128
 71
   152
 72
   156
 73
   111
  0
VERTEX
  5
862
  8
0
 62
     9
 10
0.0
 20
0.0
 30
0.0
 70
   128
 71
    79
 72
   157
 73
   154
  0
VERTEX
  5
863
  8
0
 62
     9
 10
0.0
 20
0.0
 30
0.0
 70
   128
 71
   107
 72
   155
 73
   105
  0
VERTEX
  5
864
  8
0
 62
     9
 10
0.0
 20
0.0
 30
0.0
 70
   128
 71
   156
 72
   106
 73
   111
  0
VERTEX
  5
865
  8
0
 62
     9
 10
0.0
 20
0.0
 30
0.0
 70
   128
 71
   153
 72
   106
 73
   156
  0
VERTEX
  5
866
  8
0
 62
     9
 10
0.0
 20
0.0
 30
0.0
 70
   128
 71
   104
 72
   150
 73
   158
  0
VERTEX
  5
867
  8
0
 62
     9
 10
0.0
 20
0.0
 30
0.0
 70
   128
 71
   153
 72
   112
 73
   106
  0
VERTEX
  5
868
  8
0
 62
     9
 10
0.0
 20
0.0
 30
0.0
 70
   128
 71
   103
 72
   104
 73
   158
  0
VERTEX
  5
869
  8
0
 62
     9
 10
0.0
 20
0.0
 30
0.0
 70
   128
 71
   103
 72
   158
 73
   147
  0
VERTEX
  5
86A
  8
0
 62
     9
 10
0.0
 20
0.0
 30
0.0
 70
   128
 71
    93
 72
    94
 73
   148
  0
VERTEX
  5
86B
  8
0
 62
     9
 10
0.0
 20
0.0
 30
0.0
 70
   128
 71
   151
 72
   148
 73
   149
  0
VERTEX
  5
86C
  8
0
 62
     9
 10
0.0
 20
0.0
 30
0.0
 70
   128
 71
   102
 72
   148
 73
    94
  0
VERTEX
  5
86D
  8
0
 62
     9
 10
0.0
 20
0.0
 30
0.0
 70
   128
 71
   148
 72
   151
 73
    93
  0
VERTEX
  5
86E
  8
0
 62
     9
 10
0.0
 20
0.0
 30
0.0
 70
   128
 71
   149
 72
   147
 73
   159
  0
VERTEX
  5
86F
  8
0
 62
     9
 10
0.0
 20
0.0
 30
0.0
 70
   128
 71
   103
 72
   147
 73
   102
  0
VERTEX
  5
870
  8
0
 62
     9
 10
0.0
 20
0.0
 30
0.0
 70
   128
 71
   158
 72
   159
 73
   147
  0
VERTEX
  5
871
  8
0
 62
     9
 10
0.0
 20
0.0
 30
0.0
 70
   128
 71
   159
 72
   158
 73
   160
  0
VERTEX
  5
872
  8
0
 62
     9
 10
0.0
 20
0.0
 30
0.0
 70
   128
 71
   150
 72
   160
 73
   158
  0
VERTEX
  5
873
  8
0
 62
     9
 10
0.0
 20
0.0
 30
0.0
 70
   128
 71
   160
 72
   150
 73
   161
  0
VERTEX
  5
874
  8
0
 62
     9
 10
0.0
 20
0.0
 30
0.0
 70
   128
 71
   153
 72
   161
 73
   150
  0
VERTEX
  5
875
  8
0
 62
     9
 10
0.0
 20
0.0
 30
0.0
 70
   128
 71
   161
 72
   153
 73
   162
  0
VERTEX
  5
876
  8
0
 62
     9
 10
0.0
 20
0.0
 30
0.0
 70
   128
 71
   156
 72
   162
 73
   153
  0
VERTEX
  5
877
  8
0
 62
     9
 10
0.0
 20
0.0
 30
0.0
 70
   128
 71
   162
 72
   156
 73
   163
  0
VERTEX
  5
878
  8
0
 62
     9
 10
0.0
 20
0.0
 30
0.0
 70
   128
 71
   152
 72
   163
 73
   156
  0
VERTEX
  5
879
  8
0
 62
     9
 10
0.0
 20
0.0
 30
0.0
 70
   128
 71
   163
 72
   152
 73
   164
  0
VERTEX
  5
87A
  8
0
 62
     9
 10
0.0
 20
0.0
 30
0.0
 70
   128
 71
   155
 72
   164
 73
   152
  0
VERTEX
  5
87B
  8
0
 62
     9
 10
0.0
 20
0.0
 30
0.0
 70
   128
 71
   164
 72
   155
 73
   157
  0
VERTEX
  5
87C
  8
0
 62
     9
 10
0.0
 20
0.0
 30
0.0
 70
   128
 71
   154
 72
   157
 73
   155
  0
VERTEX
  5
87D
  8
0
 62
     9
 10
0.0
 20
0.0
 30
0.0
 70
   128
 71
   108
 72
   154
 73
   107
  0
VERTEX
  5
87E
  8
0
 62
     9
 10
0.0
 20
0.0
 30
0.0
 70
   128
 71
   167
 72
   166
 73
   165
  0
VERTEX
  5
87F
  8
0
 62
     9
 10
0.0
 20
0.0
 30
0.0
 70
   128
 71
   170
 72
   169
 73
   168
  0
VERTEX
  5
880
  8
0
 62
     9
 10
0.0
 20
0.0
 30
0.0
 70
   128
 71
   171
 72
   170
 73
   168
  0
VERTEX
  5
881
  8
0
 62
     9
 10
0.0
 20
0.0
 30
0.0
 70
   128
 71
   168
 72
   166
 73
   171
  0
VERTEX
  5
882
  8
0
 62
     9
 10
0.0
 20
0.0
 30
0.0
 70
   128
 71
   166
 72
   167
 73
   171
  0
VERTEX
  5
883
  8
0
 62
     9
 10
0.0
 20
0.0
 30
0.0
 70
   128
 71
   172
 72
   167
 73
   165
  0
VERTEX
  5
884
  8
0
 62
     9
 10
0.0
 20
0.0
 30
0.0
 70
   128
 71
   174
 72
   172
 73
   173
  0
VERTEX
  5
885
  8
0
 62
     9
 10
0.0
 20
0.0
 30
0.0
 70
   128
 71
   165
 72
   173
 73
   172
  0
VERTEX
  5
886
  8
0
 62
     9
 10
0.0
 20
0.0
 30
0.0
 70
   128
 71
   175
 72
   174
 73
   173
  0
VERTEX
  5
887
  8
0
 62
     9
 10
0.0
 20
0.0
 30
0.0
 70
   128
 71
   178
 72
   177
 73
   176
  0
VERTEX
  5
888
  8
0
 62
     9
 10
0.0
 20
0.0
 30
0.0
 70
   128
 71
    46
 72
   176
 73
   177
  0
VERTEX
  5
889
  8
0
 62
     9
 10
0.0
 20
0.0
 30
0.0
 70
   128
 71
   180
 72
   179
 73
   160
  0
VERTEX
  5
88A
  8
0
 62
     9
 10
0.0
 20
0.0
 30
0.0
 70
   128
 71
   178
 72
   149
 73
   179
  0
VERTEX
  5
88B
  8
0
 62
     9
 10
0.0
 20
0.0
 30
0.0
 70
   128
 71
   163
 72
   182
 73
   181
  0
VERTEX
  5
88C
  8
0
 62
     9
 10
0.0
 20
0.0
 30
0.0
 70
   128
 71
   161
 72
   162
 73
   183
  0
VERTEX
  5
88D
  8
0
 62
     9
 10
0.0
 20
0.0
 30
0.0
 70
   128
 71
   157
 72
   185
 73
   184
  0
VERTEX
  5
88E
  8
0
 62
     9
 10
0.0
 20
0.0
 30
0.0
 70
   128
 71
   182
 72
   164
 73
   184
  0
VERTEX
  5
88F
  8
0
 62
     9
 10
0.0
 20
0.0
 30
0.0
 70
   128
 71
   185
 72
   157
 73
    79
  0
VERTEX
  5
890
  8
0
 62
     9
 10
0.0
 20
0.0
 30
0.0
 70
   128
 71
    61
 72
   185
 73
    79
  0
VERTEX
  5
891
  8
0
 62
     9
 10
0.0
 20
0.0
 30
0.0
 70
   128
 71
   186
 72
    61
 73
    57
  0
VERTEX
  5
892
  8
0
 62
     9
 10
0.0
 20
0.0
 30
0.0
 70
   128
 71
   184
 72
   164
 73
   157
  0
VERTEX
  5
893
  8
0
 62
     9
 10
0.0
 20
0.0
 30
0.0
 70
   128
 71
   179
 72
   159
 73
   160
  0
VERTEX
  5
894
  8
0
 62
     9
 10
0.0
 20
0.0
 30
0.0
 70
   128
 71
   164
 72
   182
 73
   163
  0
VERTEX
  5
895
  8
0
 62
     9
 10
0.0
 20
0.0
 30
0.0
 70
   128
 71
   179
 72
   149
 73
   159
  0
VERTEX
  5
896
  8
0
 62
     9
 10
0.0
 20
0.0
 30
0.0
 70
   128
 71
   162
 72
   181
 73
   183
  0
VERTEX
  5
897
  8
0
 62
     9
 10
0.0
 20
0.0
 30
0.0
 70
   128
 71
   162
 72
   163
 73
   181
  0
VERTEX
  5
898
  8
0
 62
     9
 10
0.0
 20
0.0
 30
0.0
 70
   128
 71
   161
 72
   180
 73
   160
  0
VERTEX
  5
899
  8
0
 62
     9
 10
0.0
 20
0.0
 30
0.0
 70
   128
 71
   161
 72
   183
 73
   180
  0
VERTEX
  5
89A
  8
0
 62
     9
 10
0.0
 20
0.0
 30
0.0
 70
   128
 71
    69
 72
   151
 73
    71
  0
VERTEX
  5
89B
  8
0
 62
     9
 10
0.0
 20
0.0
 30
0.0
 70
   128
 71
   178
 72
   176
 73
   151
  0
VERTEX
  5
89C
  8
0
 62
     9
 10
0.0
 20
0.0
 30
0.0
 70
   128
 71
   178
 72
   187
 73
   177
  0
VERTEX
  5
89D
  8
0
 62
     9
 10
0.0
 20
0.0
 30
0.0
 70
   128
 71
   176
 72
    71
 73
   151
  0
VERTEX
  5
89E
  8
0
 62
     9
 10
0.0
 20
0.0
 30
0.0
 70
   128
 71
    71
 72
   176
 73
    46
  0
VERTEX
  5
89F
  8
0
 62
     9
 10
0.0
 20
0.0
 30
0.0
 70
   128
 71
   179
 72
   188
 73
   187
  0
VERTEX
  5
8A0
  8
0
 62
     9
 10
0.0
 20
0.0
 30
0.0
 70
   128
 71
   149
 72
   178
 73
   151
  0
VERTEX
  5
8A1
  8
0
 62
     9
 10
0.0
 20
0.0
 30
0.0
 70
   128
 71
   178
 72
   179
 73
   187
  0
VERTEX
  5
8A2
  8
0
 62
     9
 10
0.0
 20
0.0
 30
0.0
 70
   128
 71
   180
 72
   189
 73
   188
  0
VERTEX
  5
8A3
  8
0
 62
     9
 10
0.0
 20
0.0
 30
0.0
 70
   128
 71
   179
 72
   180
 73
   188
  0
VERTEX
  5
8A4
  8
0
 62
     9
 10
0.0
 20
0.0
 30
0.0
 70
   128
 71
   183
 72
   190
 73
   189
  0
VERTEX
  5
8A5
  8
0
 62
     9
 10
0.0
 20
0.0
 30
0.0
 70
   128
 71
   180
 72
   183
 73
   189
  0
VERTEX
  5
8A6
  8
0
 62
     9
 10
0.0
 20
0.0
 30
0.0
 70
   128
 71
   181
 72
   191
 73
   190
  0
VERTEX
  5
8A7
  8
0
 62
     9
 10
0.0
 20
0.0
 30
0.0
 70
   128
 71
   183
 72
   181
 73
   190
  0
VERTEX
  5
8A8
  8
0
 62
     9
 10
0.0
 20
0.0
 30
0.0
 70
   128
 71
   182
 72
   192
 73
   191
  0
VERTEX
  5
8A9
  8
0
 62
     9
 10
0.0
 20
0.0
 30
0.0
 70
   128
 71
   181
 72
   182
 73
   191
  0
VERTEX
  5
8AA
  8
0
 62
     9
 10
0.0
 20
0.0
 30
0.0
 70
   128
 71
   184
 72
   193
 73
   192
  0
VERTEX
  5
8AB
  8
0
 62
     9
 10
0.0
 20
0.0
 30
0.0
 70
   128
 71
   182
 72
   184
 73
   192
  0
VERTEX
  5
8AC
  8
0
 62
     9
 10
0.0
 20
0.0
 30
0.0
 70
   128
 71
   185
 72
   186
 73
   193
  0
VERTEX
  5
8AD
  8
0
 62
     9
 10
0.0
 20
0.0
 30
0.0
 70
   128
 71
   184
 72
   185
 73
   193
  0
VERTEX
  5
8AE
  8
0
 62
     9
 10
0.0
 20
0.0
 30
0.0
 70
   128
 71
   186
 72
   185
 73
    61
  0
VERTEX
  5
8AF
  8
0
 62
     9
 10
0.0
 20
0.0
 30
0.0
 70
   128
 71
   195
 72
   194
 73
   166
  0
VERTEX
  5
8B0
  8
0
 62
     9
 10
0.0
 20
0.0
 30
0.0
 70
   128
 71
   195
 72
   168
 73
   196
  0
VERTEX
  5
8B1
  8
0
 62
     9
 10
0.0
 20
0.0
 30
0.0
 70
   128
 71
   168
 72
   195
 73
   166
  0
VERTEX
  5
8B2
  8
0
 62
     9
 10
0.0
 20
0.0
 30
0.0
 70
   128
 71
   169
 72
   197
 73
   196
  0
VERTEX
  5
8B3
  8
0
 62
     9
 10
0.0
 20
0.0
 30
0.0
 70
   128
 71
   196
 72
   168
 73
   169
  0
VERTEX
  5
8B4
  8
0
 62
     9
 10
0.0
 20
0.0
 30
0.0
 70
   128
 71
   198
 72
   165
 73
   194
  0
VERTEX
  5
8B5
  8
0
 62
     9
 10
0.0
 20
0.0
 30
0.0
 70
   128
 71
   166
 72
   194
 73
   165
  0
VERTEX
  5
8B6
  8
0
 62
     9
 10
0.0
 20
0.0
 30
0.0
 70
   128
 71
   173
 72
   198
 73
    54
  0
VERTEX
  5
8B7
  8
0
 62
     9
 10
0.0
 20
0.0
 30
0.0
 70
   128
 71
   198
 72
   173
 73
   165
  0
VERTEX
  5
8B8
  8
0
 62
     9
 10
0.0
 20
0.0
 30
0.0
 70
   128
 71
   175
 72
   173
 73
    54
  0
VERTEX
  5
8B9
  8
0
 62
     9
 10
0.0
 20
0.0
 30
0.0
 70
   128
 71
   172
 72
    49
 73
   167
  0
VERTEX
  5
8BA
  8
0
 62
     9
 10
0.0
 20
0.0
 30
0.0
 70
   128
 71
    55
 72
   172
 73
   174
  0
VERTEX
  5
8BB
  8
0
 62
     9
 10
0.0
 20
0.0
 30
0.0
 70
   128
 71
   172
 72
    55
 73
    49
  0
VERTEX
  5
8BC
  8
0
 62
     9
 10
0.0
 20
0.0
 30
0.0
 70
   128
 71
   175
 72
    54
 73
    55
  0
VERTEX
  5
8BD
  8
0
 62
     9
 10
0.0
 20
0.0
 30
0.0
 70
   128
 71
    55
 72
   174
 73
   175
  0
VERTEX
  5
8BE
  8
0
 62
     9
 10
0.0
 20
0.0
 30
0.0
 70
   128
 71
    50
 72
   171
 73
   167
  0
VERTEX
  5
8BF
  8
0
 62
     9
 10
0.0
 20
0.0
 30
0.0
 70
   128
 71
   167
 72
    49
 73
    50
  0
VERTEX
  5
8C0
  8
0
 62
     9
 10
0.0
 20
0.0
 30
0.0
 70
   128
 71
   170
 72
   171
 73
    52
  0
VERTEX
  5
8C1
  8
0
 62
     9
 10
0.0
 20
0.0
 30
0.0
 70
   128
 71
    50
 72
    52
 73
   171
  0
VERTEX
  5
8C2
  8
0
 62
     9
 10
0.0
 20
0.0
 30
0.0
 70
   128
 71
    33
 72
   170
 73
    52
  0
VERTEX
  5
8C3
  8
0
 62
     9
 10
0.0
 20
0.0
 30
0.0
 70
   128
 71
   117
 72
   113
 73
   199
  0
VERTEX
  5
8C4
  8
0
 62
     9
 10
0.0
 20
0.0
 30
0.0
 70
   128
 71
   200
 72
   188
 73
   189
  0
VERTEX
  5
8C5
  8
0
 62
     9
 10
0.0
 20
0.0
 30
0.0
 70
   128
 71
   202
 72
   187
 73
   201
  0
VERTEX
  5
8C6
  8
0
 62
     9
 10
0.0
 20
0.0
 30
0.0
 70
   128
 71
   195
 72
   191
 73
   192
  0
VERTEX
  5
8C7
  8
0
 62
     9
 10
0.0
 20
0.0
 30
0.0
 70
   128
 71
   190
 72
   191
 73
   196
  0
VERTEX
  5
8C8
  8
0
 62
     9
 10
0.0
 20
0.0
 30
0.0
 70
   128
 71
   194
 72
   192
 73
   193
  0
VERTEX
  5
8C9
  8
0
 62
     9
 10
0.0
 20
0.0
 30
0.0
 70
   128
 71
   195
 72
   192
 73
   194
  0
VERTEX
  5
8CA
  8
0
 62
     9
 10
0.0
 20
0.0
 30
0.0
 70
   128
 71
   198
 72
   186
 73
    54
  0
VERTEX
  5
8CB
  8
0
 62
     9
 10
0.0
 20
0.0
 30
0.0
 70
   128
 71
   186
 72
   198
 73
   193
  0
VERTEX
  5
8CC
  8
0
 62
     9
 10
0.0
 20
0.0
 30
0.0
 70
   128
 71
    54
 72
   186
 73
    57
  0
VERTEX
  5
8CD
  8
0
 62
     9
 10
0.0
 20
0.0
 30
0.0
 70
   128
 71
   193
 72
   198
 73
   194
  0
VERTEX
  5
8CE
  8
0
 62
     9
 10
0.0
 20
0.0
 30
0.0
 70
   128
 71
   196
 72
   191
 73
   195
  0
VERTEX
  5
8CF
  8
0
 62
     9
 10
0.0
 20
0.0
 30
0.0
 70
   128
 71
   190
 72
   197
 73
   189
  0
VERTEX
  5
8D0
  8
0
 62
     9
 10
0.0
 20
0.0
 30
0.0
 70
   128
 71
   196
 72
   197
 73
   190
  0
VERTEX
  5
8D1
  8
0
 62
     9
 10
0.0
 20
0.0
 30
0.0
 70
   128
 71
   188
 72
   200
 73
   201
  0
VERTEX
  5
8D2
  8
0
 62
     9
 10
0.0
 20
0.0
 30
0.0
 70
   128
 71
   189
 72
   197
 73
   200
  0
VERTEX
  5
8D3
  8
0
 62
     9
 10
0.0
 20
0.0
 30
0.0
 70
   128
 71
   187
 72
   202
 73
   177
  0
VERTEX
  5
8D4
  8
0
 62
     9
 10
0.0
 20
0.0
 30
0.0
 70
   128
 71
   188
 72
   201
 73
   187
  0
VERTEX
  5
8D5
  8
0
 62
     9
 10
0.0
 20
0.0
 30
0.0
 70
   128
 71
   127
 72
    45
 73
    46
  0
VERTEX
  5
8D6
  8
0
 62
     9
 10
0.0
 20
0.0
 30
0.0
 70
   128
 71
   202
 72
   199
 73
   177
  0
VERTEX
  5
8D7
  8
0
 62
     9
 10
0.0
 20
0.0
 30
0.0
 70
   128
 71
   117
 72
    37
 73
    38
  0
VERTEX
  5
8D8
  8
0
 62
     9
 10
0.0
 20
0.0
 30
0.0
 70
   128
 71
    46
 72
   130
 73
   127
  0
VERTEX
  5
8D9
  8
0
 62
     9
 10
0.0
 20
0.0
 30
0.0
 70
   128
 71
   177
 72
   130
 73
    46
  0
VERTEX
  5
8DA
  8
0
 62
     9
 10
0.0
 20
0.0
 30
0.0
 70
   128
 71
   129
 72
   177
 73
   199
  0
VERTEX
  5
8DB
  8
0
 62
     9
 10
0.0
 20
0.0
 30
0.0
 70
   128
 71
   129
 72
   130
 73
   177
  0
VERTEX
  5
8DC
  8
0
 62
     9
 10
0.0
 20
0.0
 30
0.0
 70
   128
 71
   113
 72
   129
 73
   199
  0
VERTEX
  5
8DD
  8
0
 62
     9
 10
0.0
 20
0.0
 30
0.0
 70
   128
 71
   117
 72
   199
 73
    37
  0
VERTEX
  5
8DE
  8
0
 62
     9
 10
0.0
 20
0.0
 30
0.0
 70
   128
 71
    39
 72
    31
 73
   170
  0
VERTEX
  5
8DF
  8
0
 62
     9
 10
0.0
 20
0.0
 30
0.0
 70
   128
 71
   200
 72
   197
 73
   169
  0
VERTEX
  5
8E0
  8
0
 62
     9
 10
0.0
 20
0.0
 30
0.0
 70
   128
 71
   200
 72
   169
 73
   201
  0
VERTEX
  5
8E1
  8
0
 62
     9
 10
0.0
 20
0.0
 30
0.0
 70
   128
 71
   201
 72
   169
 73
   202
  0
VERTEX
  5
8E2
  8
0
 62
     9
 10
0.0
 20
0.0
 30
0.0
 70
   128
 71
   199
 72
   169
 73
   170
  0
VERTEX
  5
8E3
  8
0
 62
     9
 10
0.0
 20
0.0
 30
0.0
 70
   128
 71
   169
 72
   199
 73
   202
  0
VERTEX
  5
8E4
  8
0
 62
     9
 10
0.0
 20
0.0
 30
0.0
 70
   128
 71
    37
 72
   170
 73
    31
  0
VERTEX
  5
8E5
  8
0
 62
     9
 10
0.0
 20
0.0
 30
0.0
 70
   128
 71
    37
 72
   199
 73
   170
  0
VERTEX
  5
8E6
  8
0
 62
     9
 10
0.0
 20
0.0
 30
0.0
 70
   128
 71
   170
 72
    41
 73
    39
  0
VERTEX
  5
8E7
  8
0
 62
     9
 10
0.0
 20
0.0
 30
0.0
 70
   128
 71
    47
 72
    41
 73
   170
  0
VERTEX
  5
8E8
  8
0
 62
     9
 10
0.0
 20
0.0
 30
0.0
 70
   128
 71
    33
 72
    47
 73
   170
  0
VERTEX
  5
8E9
  8
0
 62
     9
 10
0.0
 20
0.0
 30
0.0
 70
   128
 71
    26
 72
    27
 73
   203
  0
VERTEX
  5
8EA
  8
0
 62
     9
 10
0.0
 20
0.0
 30
0.0
 70
   128
 71
    14
 72
    15
 73
   203
  0
VERTEX
  5
8EB
  8
0
 62
     9
 10
0.0
 20
0.0
 30
0.0
 70
   128
 71
   136
 72
    18
 73
    14
  0
VERTEX
  5
8EC
  8
0
 62
     9
 10
0.0
 20
0.0
 30
0.0
 70
   128
 71
    15
 72
    26
 73
   203
  0
VERTEX
  5
8ED
  8
0
 62
     9
 10
0.0
 20
0.0
 30
0.0
 70
   128
 71
   203
 72
   136
 73
    14
  0
VERTEX
  5
8EE
  8
0
 62
     9
 10
0.0
 20
0.0
 30
0.0
 70
   128
 71
   136
 72
   203
 73
    27
  0
VERTEX
  5
8EF
  8
0
 62
     9
 10
0.0
 20
0.0
 30
0.0
 70
   128
 71
   142
 72
   146
 73
     2
  0
VERTEX
  5
8F0
  8
0
 62
     9
 10
0.0
 20
0.0
 30
0.0
 70
   128
 71
   109
 72
     4
 73
     2
  0
VERTEX
  5
8F1
  8
0
 62
     9
 10
0.0
 20
0.0
 30
0.0
 70
   128
 71
     2
 72
   110
 73
   109
  0
VERTEX
  5
8F2
  8
0
 62
     9
 10
0.0
 20
0.0
 30
0.0
 70
   128
 71
     2
 72
   146
 73
   110
  0
VERTEX
  5
8F3
  8
0
 62
     9
 10
0.0
 20
0.0
 30
0.0
 70
   128
 71
     2
 72
   141
 73
   142
  0
VERTEX
  5
8F4
  8
0
 62
     9
 10
0.0
 20
0.0
 30
0.0
 70
   128
 71
   144
 72
   145
 73
     2
  0
VERTEX
  5
8F5
  8
0
 62
     9
 10
0.0
 20
0.0
 30
0.0
 70
   128
 71
     2
 72
   145
 73
   141
  0
VERTEX
  5
8F6
  8
0
 62
     9
 10
0.0
 20
0.0
 30
0.0
 70
   128
 71
     2
 72
   143
 73
   144
  0
VERTEX
  5
8F7
  8
0
 62
     9
 10
0.0
 20
0.0
 30
0.0
 70
   128
 71
     2
 72
     3
 73
   143
  0
SEQEND
  5
8F8
  8
0
  0
ENDBLK
  5
8FB
  8
0
  0
BLOCK
  8
0
  2
45
 70
     0
 10
0.0
 20
0.0
 30
0.0
  3
45
  1

  0
POLYLINE
  5
8FD
  8
0
 62
     9
 66
     1
 10
0.0
 20
0.0
 30
0.0
 70
    64
 71
    93
 72
   164
  0
VERTEX
  5
8FE
  8
0
 10
-2.585437297821045
 20
-5.065477848052979
 30
131.2948760986328
 70
   192
  0
VERTEX
  5
8FF
  8
0
 10
-5.062846660614014
 20
-9.919303894042969
 30
128.8107147216797
 70
   192
  0
VERTEX
  5
900
  8
0
 10
-4.021414756774902
 20
-4.021414756774902
 30
131.2948760986328
 70
   192
  0
VERTEX
  5
901
  8
0
 10
-5.602091312408447
 20
-0.9798606038093567
 30
131.2948760986328
 70
   192
  0
VERTEX
  5
902
  8
0
 10
-5.687139511108398
 20
0.0000000000000161
 30
131.2948760986328
 70
   192
  0
VERTEX
  5
903
  8
0
 10
0.0000000000000156
 20
0.0000000000000113
 30
132.0995330810547
 70
   192
  0
VERTEX
  5
904
  8
0
 10
-10.97010898590088
 20
-1.918779492378235
 30
128.8107147216797
 70
   192
  0
VERTEX
  5
905
  8
0
 10
0.0000000000000078
 20
-15.63565349578857
 30
124.8575973510742
 70
   192
  0
VERTEX
  5
906
  8
0
 10
-1.918779492378235
 20
-10.97010898590088
 30
128.8107147216797
 70
   192
  0
VERTEX
  5
907
  8
0
 10
0.0000000000000102
 20
-11.13665103912354
 30
128.8107147216797
 70
   192
  0
VERTEX
  5
908
  8
0
 10
-5.065477848052979
 20
-2.585437297821045
 30
131.2948760986328
 70
   192
  0
VERTEX
  5
909
  8
0
 10
0.0000000000000086
 20
-18.70000076293945
 30
119.9995346069336
 70
   192
  0
VERTEX
  5
90A
  8
0
 10
-2.693931102752686
 20
-15.40183162689209
 30
124.8575973510742
 70
   192
  0
VERTEX
  5
90B
  8
0
 10
-7.874801635742188
 20
-7.874801635742188
 30
128.8107147216797
 70
   192
  0
VERTEX
  5
90C
  8
0
 10
-13.92652034759521
 20
-7.108143329620361
 30
124.8575973510742
 70
   192
  0
VERTEX
  5
90D
  8
0
 10
-17.8699779510498
 20
-5.481751918792725
 30
119.9995346069336
 70
   192
  0
VERTEX
  5
90E
  8
0
 10
-15.40183162689209
 20
-2.693931102752686
 30
124.8575973510742
 70
   192
  0
VERTEX
  5
90F
  8
0
 10
-18.70000076293945
 20
0.0000000000000194
 30
119.9995346069336
 70
   192
  0
VERTEX
  5
910
  8
0
 10
-15.22152805328369
 20
-10.85958766937256
 30
119.9995346069336
 70
   192
  0
VERTEX
  5
911
  8
0
 10
-11.13665103912354
 20
0.0000000000000182
 30
128.8107147216797
 70
   192
  0
VERTEX
  5
912
  8
0
 10
-9.919303894042969
 20
-5.062846660614014
 30
128.8107147216797
 70
   192
  0
VERTEX
  5
913
  8
0
 10
-0.9798606038093567
 20
-5.602091312408447
 30
131.2948760986328
 70
   192
  0
VERTEX
  5
914
  8
0
 10
0.0000000000000129
 20
-5.687139511108398
 30
131.2948760986328
 70
   192
  0
VERTEX
  5
915
  8
0
 10
-15.63565349578857
 20
0.0000000000000199
 30
124.8575973510742
 70
   192
  0
VERTEX
  5
916
  8
0
 10
-11.056077003479
 20
-11.056077003479
 30
124.8575973510742
 70
   192
  0
VERTEX
  5
917
  8
0
 10
-7.108143329620361
 20
-13.92652034759521
 30
124.8575973510742
 70
   192
  0
VERTEX
  5
918
  8
0
 10
-10.87572956085205
 20
-15.21092414855957
 30
119.9995346069336
 70
   192
  0
VERTEX
  5
919
  8
0
 10
-5.506851673126221
 20
-17.87548446655273
 30
119.9995346069336
 70
   192
  0
VERTEX
  5
91A
  8
0
 10
-5.065477848052979
 20
2.585437297821045
 30
131.2948760986328
 70
   192
  0
VERTEX
  5
91B
  8
0
 10
-9.919303894042969
 20
5.062846660614014
 30
128.8107147216797
 70
   192
  0
VERTEX
  5
91C
  8
0
 10
-4.021414756774902
 20
4.021414756774902
 30
131.2948760986328
 70
   192
  0
VERTEX
  5
91D
  8
0
 10
-0.9798606038093567
 20
5.602091312408447
 30
131.2948760986328
 70
   192
  0
VERTEX
  5
91E
  8
0
 10
0.0000000000000175
 20
5.687139511108398
 30
131.2948760986328
 70
   192
  0
VERTEX
  5
91F
  8
0
 10
-1.918779492378235
 20
10.97010898590088
 30
128.8107147216797
 70
   192
  0
VERTEX
  5
920
  8
0
 10
-10.97010898590088
 20
1.918779492378235
 30
128.8107147216797
 70
   192
  0
VERTEX
  5
921
  8
0
 10
-2.585437297821045
 20
5.065477848052979
 30
131.2948760986328
 70
   192
  0
VERTEX
  5
922
  8
0
 10
-15.40183162689209
 20
2.693931102752686
 30
124.8575973510742
 70
   192
  0
VERTEX
  5
923
  8
0
 10
-7.874801635742188
 20
7.874801635742188
 30
128.8107147216797
 70
   192
  0
VERTEX
  5
924
  8
0
 10
-7.108143329620361
 20
13.92652034759521
 30
124.8575973510742
 70
   192
  0
VERTEX
  5
925
  8
0
 10
-5.481751918792725
 20
17.8699779510498
 30
119.9995346069336
 70
   192
  0
VERTEX
  5
926
  8
0
 10
-2.693931102752686
 20
15.40183162689209
 30
124.8575973510742
 70
   192
  0
VERTEX
  5
927
  8
0
 10
0.0000000000000209
 20
18.70000076293945
 30
119.9995346069336
 70
   192
  0
VERTEX
  5
928
  8
0
 10
-10.85958766937256
 20
15.22152805328369
 30
119.9995346069336
 70
   192
  0
VERTEX
  5
929
  8
0
 10
0.0000000000000193
 20
11.13665103912354
 30
128.8107147216797
 70
   192
  0
VERTEX
  5
92A
  8
0
 10
-5.062846660614014
 20
9.919303894042969
 30
128.8107147216797
 70
   192
  0
VERTEX
  5
92B
  8
0
 10
-5.602091312408447
 20
0.9798606038093567
 30
131.2948760986328
 70
   192
  0
VERTEX
  5
92C
  8
0
 10
0.0000000000000206
 20
15.63565349578857
 30
124.8575973510742
 70
   192
  0
VERTEX
  5
92D
  8
0
 10
-11.056077003479
 20
11.056077003479
 30
124.8575973510742
 70
   192
  0
VERTEX
  5
92E
  8
0
 10
-13.92652034759521
 20
7.108143329620361
 30
124.8575973510742
 70
   192
  0
VERTEX
  5
92F
  8
0
 10
-15.21092414855957
 20
10.87572956085205
 30
119.9995346069336
 70
   192
  0
VERTEX
  5
930
  8
0
 10
-17.87548446655273
 20
5.506851673126221
 30
119.9995346069336
 70
   192
  0
VERTEX
  5
931
  8
0
 10
2.585437297821045
 20
5.065477848052979
 30
131.2948760986328
 70
   192
  0
VERTEX
  5
932
  8
0
 10
5.062846660614014
 20
9.919303894042969
 30
128.8107147216797
 70
   192
  0
VERTEX
  5
933
  8
0
 10
4.021414756774902
 20
4.021414756774902
 30
131.2948760986328
 70
   192
  0
VERTEX
  5
934
  8
0
 10
5.602091312408447
 20
0.9798606038093567
 30
131.2948760986328
 70
   192
  0
VERTEX
  5
935
  8
0
 10
5.687139511108398
 20
0.0000000000000128
 30
131.2948760986328
 70
   192
  0
VERTEX
  5
936
  8
0
 10
10.97010898590088
 20
1.918779492378235
 30
128.8107147216797
 70
   192
  0
VERTEX
  5
937
  8
0
 10
1.918779492378235
 20
10.97010898590088
 30
128.8107147216797
 70
   192
  0
VERTEX
  5
938
  8
0
 10
5.065477848052979
 20
2.585437297821045
 30
131.2948760986328
 70
   192
  0
VERTEX
  5
939
  8
0
 10
2.693931102752686
 20
15.40183162689209
 30
124.8575973510742
 70
   192
  0
VERTEX
  5
93A
  8
0
 10
7.874801635742188
 20
7.874801635742188
 30
128.8107147216797
 70
   192
  0
VERTEX
  5
93B
  8
0
 10
13.92652034759521
 20
7.108143329620361
 30
124.8575973510742
 70
   192
  0
VERTEX
  5
93C
  8
0
 10
17.8699779510498
 20
5.481751918792725
 30
119.9995346069336
 70
   192
  0
VERTEX
  5
93D
  8
0
 10
15.40183162689209
 20
2.693931102752686
 30
124.8575973510742
 70
   192
  0
VERTEX
  5
93E
  8
0
 10
18.70000076293945
 20
0.0000000000000106
 30
119.9995346069336
 70
   192
  0
VERTEX
  5
93F
  8
0
 10
15.22152805328369
 20
10.85958766937256
 30
119.9995346069336
 70
   192
  0
VERTEX
  5
940
  8
0
 10
11.13665103912354
 20
0.0000000000000118
 30
128.8107147216797
 70
   192
  0
VERTEX
  5
941
  8
0
 10
9.919303894042969
 20
5.062846660614014
 30
128.8107147216797
 70
   192
  0
VERTEX
  5
942
  8
0
 10
0.9798606038093567
 20
5.602091312408447
 30
131.2948760986328
 70
   192
  0
VERTEX
  5
943
  8
0
 10
15.63565349578857
 20
0.0000000000000109
 30
124.8575973510742
 70
   192
  0
VERTEX
  5
944
  8
0
 10
11.056077003479
 20
11.056077003479
 30
124.8575973510742
 70
   192
  0
VERTEX
  5
945
  8
0
 10
7.108143329620361
 20
13.92652034759521
 30
124.8575973510742
 70
   192
  0
VERTEX
  5
946
  8
0
 10
10.87572956085205
 20
15.21092414855957
 30
119.9995346069336
 70
   192
  0
VERTEX
  5
947
  8
0
 10
5.506851673126221
 20
17.87548446655273
 30
119.9995346069336
 70
   192
  0
VERTEX
  5
948
  8
0
 10
2.693931102752686
 20
-15.40183162689209
 30
124.8575973510742
 70
   192
  0
VERTEX
  5
949
  8
0
 10
1.918779492378235
 20
-10.97010898590088
 30
128.8107147216797
 70
   192
  0
VERTEX
  5
94A
  8
0
 10
7.108143329620361
 20
-13.92652034759521
 30
124.8575973510742
 70
   192
  0
VERTEX
  5
94B
  8
0
 10
4.021414756774902
 20
-4.021414756774902
 30
131.2948760986328
 70
   192
  0
VERTEX
  5
94C
  8
0
 10
5.065477848052979
 20
-2.585437297821045
 30
131.2948760986328
 70
   192
  0
VERTEX
  5
94D
  8
0
 10
9.919303894042969
 20
-5.062846660614014
 30
128.8107147216797
 70
   192
  0
VERTEX
  5
94E
  8
0
 10
10.85958766937256
 20
-15.22152805328369
 30
119.9995346069336
 70
   192
  0
VERTEX
  5
94F
  8
0
 10
5.481751918792725
 20
-17.8699779510498
 30
119.9995346069336
 70
   192
  0
VERTEX
  5
950
  8
0
 10
7.874801635742188
 20
-7.874801635742188
 30
128.8107147216797
 70
   192
  0
VERTEX
  5
951
  8
0
 10
2.585437297821045
 20
-5.065477848052979
 30
131.2948760986328
 70
   192
  0
VERTEX
  5
952
  8
0
 10
15.40183162689209
 20
-2.693931102752686
 30
124.8575973510742
 70
   192
  0
VERTEX
  5
953
  8
0
 10
10.97010898590088
 20
-1.918779492378235
 30
128.8107147216797
 70
   192
  0
VERTEX
  5
954
  8
0
 10
0.9798606038093567
 20
-5.602091312408447
 30
131.2948760986328
 70
   192
  0
VERTEX
  5
955
  8
0
 10
5.062846660614014
 20
-9.919303894042969
 30
128.8107147216797
 70
   192
  0
VERTEX
  5
956
  8
0
 10
5.602091312408447
 20
-0.9798606038093567
 30
131.2948760986328
 70
   192
  0
VERTEX
  5
957
  8
0
 10
11.056077003479
 20
-11.056077003479
 30
124.8575973510742
 70
   192
  0
VERTEX
  5
958
  8
0
 10
13.92652034759521
 20
-7.108143329620361
 30
124.8575973510742
 70
   192
  0
VERTEX
  5
959
  8
0
 10
15.21092414855957
 20
-10.87572956085205
 30
119.9995346069336
 70
   192
  0
VERTEX
  5
95A
  8
0
 10
17.87548446655273
 20
-5.506851673126221
 30
119.9995346069336
 70
   192
  0
VERTEX
  5
95B
  8
0
 62
     9
 10
0.0
 20
0.0
 30
0.0
 70
   128
 71
     3
 72
     2
 73
     1
  0
VERTEX
  5
95C
  8
0
 62
     9
 10
0.0
 20
0.0
 30
0.0
 70
   128
 71
     6
 72
     5
 73
     4
  0
VERTEX
  5
95D
  8
0
 62
     9
 10
0.0
 20
0.0
 30
0.0
 70
   128
 71
     4
 72
     5
 73
     7
  0
VERTEX
  5
95E
  8
0
 62
     9
 10
0.0
 20
0.0
 30
0.0
 70
   128
 71
    10
 72
     9
 73
     8
  0
VERTEX
  5
95F
  8
0
 62
     9
 10
0.0
 20
0.0
 30
0.0
 70
   128
 71
     4
 72
    11
 73
     6
  0
VERTEX
  5
960
  8
0
 62
     9
 10
0.0
 20
0.0
 30
0.0
 70
   128
 71
     8
 72
    13
 73
    12
  0
VERTEX
  5
961
  8
0
 62
     9
 10
0.0
 20
0.0
 30
0.0
 70
   128
 71
    11
 72
    14
 73
     3
  0
VERTEX
  5
962
  8
0
 62
     9
 10
0.0
 20
0.0
 30
0.0
 70
   128
 71
     2
 72
    13
 73
     9
  0
VERTEX
  5
963
  8
0
 62
     9
 10
0.0
 20
0.0
 30
0.0
 70
   128
 71
    17
 72
    16
 73
    15
  0
VERTEX
  5
964
  8
0
 62
     9
 10
0.0
 20
0.0
 30
0.0
 70
   128
 71
    15
 72
     7
 73
    17
  0
VERTEX
  5
965
  8
0
 62
     9
 10
0.0
 20
0.0
 30
0.0
 70
   128
 71
    17
 72
    18
 73
    16
  0
VERTEX
  5
966
  8
0
 62
     9
 10
0.0
 20
0.0
 30
0.0
 70
   128
 71
    15
 72
    16
 73
    19
  0
VERTEX
  5
967
  8
0
 62
     9
 10
0.0
 20
0.0
 30
0.0
 70
   128
 71
     7
 72
     5
 73
    20
  0
VERTEX
  5
968
  8
0
 62
     9
 10
0.0
 20
0.0
 30
0.0
 70
   128
 71
     3
 72
    14
 73
     2
  0
VERTEX
  5
969
  8
0
 62
     9
 10
0.0
 20
0.0
 30
0.0
 70
   128
 71
     3
 72
     6
 73
    11
  0
VERTEX
  5
96A
  8
0
 62
     9
 10
0.0
 20
0.0
 30
0.0
 70
   128
 71
    14
 72
    11
 73
    21
  0
VERTEX
  5
96B
  8
0
 62
     9
 10
0.0
 20
0.0
 30
0.0
 70
   128
 71
    10
 72
    23
 73
    22
  0
VERTEX
  5
96C
  8
0
 62
     9
 10
0.0
 20
0.0
 30
0.0
 70
   128
 71
     6
 72
     1
 73
    22
  0
VERTEX
  5
96D
  8
0
 62
     9
 10
0.0
 20
0.0
 30
0.0
 70
   128
 71
     3
 72
     1
 73
     6
  0
VERTEX
  5
96E
  8
0
 62
     9
 10
0.0
 20
0.0
 30
0.0
 70
   128
 71
     2
 72
     9
 73
     1
  0
VERTEX
  5
96F
  8
0
 62
     9
 10
0.0
 20
0.0
 30
0.0
 70
   128
 71
     6
 72
    22
 73
    23
  0
VERTEX
  5
970
  8
0
 62
     9
 10
0.0
 20
0.0
 30
0.0
 70
   128
 71
    21
 72
     4
 73
     7
  0
VERTEX
  5
971
  8
0
 62
     9
 10
0.0
 20
0.0
 30
0.0
 70
   128
 71
    24
 72
    17
 73
    20
  0
VERTEX
  5
972
  8
0
 62
     9
 10
0.0
 20
0.0
 30
0.0
 70
   128
 71
    21
 72
    25
 73
    14
  0
VERTEX
  5
973
  8
0
 62
     9
 10
0.0
 20
0.0
 30
0.0
 70
   128
 71
    21
 72
    11
 73
     4
  0
VERTEX
  5
974
  8
0
 62
     9
 10
0.0
 20
0.0
 30
0.0
 70
   128
 71
    15
 72
    25
 73
    21
  0
VERTEX
  5
975
  8
0
 62
     9
 10
0.0
 20
0.0
 30
0.0
 70
   128
 71
    14
 72
    26
 73
     2
  0
VERTEX
  5
976
  8
0
 62
     9
 10
0.0
 20
0.0
 30
0.0
 70
   128
 71
    14
 72
    25
 73
    26
  0
VERTEX
  5
977
  8
0
 62
     9
 10
0.0
 20
0.0
 30
0.0
 70
   128
 71
     9
 72
    22
 73
     1
  0
VERTEX
  5
978
  8
0
 62
     9
 10
0.0
 20
0.0
 30
0.0
 70
   128
 71
    26
 72
    13
 73
     2
  0
VERTEX
  5
979
  8
0
 62
     9
 10
0.0
 20
0.0
 30
0.0
 70
   128
 71
    22
 72
     9
 73
    10
  0
VERTEX
  5
97A
  8
0
 62
     9
 10
0.0
 20
0.0
 30
0.0
 70
   128
 71
    17
 72
     7
 73
    20
  0
VERTEX
  5
97B
  8
0
 62
     9
 10
0.0
 20
0.0
 30
0.0
 70
   128
 71
    17
 72
    24
 73
    18
  0
VERTEX
  5
97C
  8
0
 62
     9
 10
0.0
 20
0.0
 30
0.0
 70
   128
 71
    27
 72
    25
 73
    19
  0
VERTEX
  5
97D
  8
0
 62
     9
 10
0.0
 20
0.0
 30
0.0
 70
   128
 71
    15
 72
    21
 73
     7
  0
VERTEX
  5
97E
  8
0
 62
     9
 10
0.0
 20
0.0
 30
0.0
 70
   128
 71
    25
 72
    15
 73
    19
  0
VERTEX
  5
97F
  8
0
 62
     9
 10
0.0
 20
0.0
 30
0.0
 70
   128
 71
    28
 72
    26
 73
    27
  0
VERTEX
  5
980
  8
0
 62
     9
 10
0.0
 20
0.0
 30
0.0
 70
   128
 71
    26
 72
    25
 73
    27
  0
VERTEX
  5
981
  8
0
 62
     9
 10
0.0
 20
0.0
 30
0.0
 70
   128
 71
    13
 72
     8
 73
     9
  0
VERTEX
  5
982
  8
0
 62
     9
 10
0.0
 20
0.0
 30
0.0
 70
   128
 71
    28
 72
    13
 73
    26
  0
VERTEX
  5
983
  8
0
 62
     9
 10
0.0
 20
0.0
 30
0.0
 70
   128
 71
    13
 72
    28
 73
    12
  0
VERTEX
  5
984
  8
0
 62
     9
 10
0.0
 20
0.0
 30
0.0
 70
   128
 71
    31
 72
    30
 73
    29
  0
VERTEX
  5
985
  8
0
 62
     9
 10
0.0
 20
0.0
 30
0.0
 70
   128
 71
     6
 72
    33
 73
    32
  0
VERTEX
  5
986
  8
0
 62
     9
 10
0.0
 20
0.0
 30
0.0
 70
   128
 71
    32
 72
    33
 73
    34
  0
VERTEX
  5
987
  8
0
 62
     9
 10
0.0
 20
0.0
 30
0.0
 70
   128
 71
    20
 72
    35
 73
    24
  0
VERTEX
  5
988
  8
0
 62
     9
 10
0.0
 20
0.0
 30
0.0
 70
   128
 71
    32
 72
    36
 73
     6
  0
VERTEX
  5
989
  8
0
 62
     9
 10
0.0
 20
0.0
 30
0.0
 70
   128
 71
    24
 72
    37
 73
    18
  0
VERTEX
  5
98A
  8
0
 62
     9
 10
0.0
 20
0.0
 30
0.0
 70
   128
 71
    36
 72
    38
 73
    31
  0
VERTEX
  5
98B
  8
0
 62
     9
 10
0.0
 20
0.0
 30
0.0
 70
   128
 71
    30
 72
    37
 73
    35
  0
VERTEX
  5
98C
  8
0
 62
     9
 10
0.0
 20
0.0
 30
0.0
 70
   128
 71
    41
 72
    40
 73
    39
  0
VERTEX
  5
98D
  8
0
 62
     9
 10
0.0
 20
0.0
 30
0.0
 70
   128
 71
    39
 72
    34
 73
    41
  0
VERTEX
  5
98E
  8
0
 62
     9
 10
0.0
 20
0.0
 30
0.0
 70
   128
 71
    41
 72
    42
 73
    40
  0
VERTEX
  5
98F
  8
0
 62
     9
 10
0.0
 20
0.0
 30
0.0
 70
   128
 71
    39
 72
    40
 73
    43
  0
VERTEX
  5
990
  8
0
 62
     9
 10
0.0
 20
0.0
 30
0.0
 70
   128
 71
    34
 72
    33
 73
    44
  0
VERTEX
  5
991
  8
0
 62
     9
 10
0.0
 20
0.0
 30
0.0
 70
   128
 71
    31
 72
    38
 73
    30
  0
VERTEX
  5
992
  8
0
 62
     9
 10
0.0
 20
0.0
 30
0.0
 70
   128
 71
    31
 72
     6
 73
    36
  0
VERTEX
  5
993
  8
0
 62
     9
 10
0.0
 20
0.0
 30
0.0
 70
   128
 71
    38
 72
    36
 73
    45
  0
VERTEX
  5
994
  8
0
 62
     9
 10
0.0
 20
0.0
 30
0.0
 70
   128
 71
    20
 72
     5
 73
    46
  0
VERTEX
  5
995
  8
0
 62
     9
 10
0.0
 20
0.0
 30
0.0
 70
   128
 71
     6
 72
    29
 73
    46
  0
VERTEX
  5
996
  8
0
 62
     9
 10
0.0
 20
0.0
 30
0.0
 70
   128
 71
    31
 72
    29
 73
     6
  0
VERTEX
  5
997
  8
0
 62
     9
 10
0.0
 20
0.0
 30
0.0
 70
   128
 71
    30
 72
    35
 73
    29
  0
VERTEX
  5
998
  8
0
 62
     9
 10
0.0
 20
0.0
 30
0.0
 70
   128
 71
     6
 72
    46
 73
     5
  0
VERTEX
  5
999
  8
0
 62
     9
 10
0.0
 20
0.0
 30
0.0
 70
   128
 71
    45
 72
    32
 73
    34
  0
VERTEX
  5
99A
  8
0
 62
     9
 10
0.0
 20
0.0
 30
0.0
 70
   128
 71
    47
 72
    41
 73
    44
  0
VERTEX
  5
99B
  8
0
 62
     9
 10
0.0
 20
0.0
 30
0.0
 70
   128
 71
    45
 72
    48
 73
    38
  0
VERTEX
  5
99C
  8
0
 62
     9
 10
0.0
 20
0.0
 30
0.0
 70
   128
 71
    45
 72
    36
 73
    32
  0
VERTEX
  5
99D
  8
0
 62
     9
 10
0.0
 20
0.0
 30
0.0
 70
   128
 71
    39
 72
    48
 73
    45
  0
VERTEX
  5
99E
  8
0
 62
     9
 10
0.0
 20
0.0
 30
0.0
 70
   128
 71
    38
 72
    49
 73
    30
  0
VERTEX
  5
99F
  8
0
 62
     9
 10
0.0
 20
0.0
 30
0.0
 70
   128
 71
    38
 72
    48
 73
    49
  0
VERTEX
  5
9A0
  8
0
 62
     9
 10
0.0
 20
0.0
 30
0.0
 70
   128
 71
    35
 72
    46
 73
    29
  0
VERTEX
  5
9A1
  8
0
 62
     9
 10
0.0
 20
0.0
 30
0.0
 70
   128
 71
    49
 72
    37
 73
    30
  0
VERTEX
  5
9A2
  8
0
 62
     9
 10
0.0
 20
0.0
 30
0.0
 70
   128
 71
    46
 72
    35
 73
    20
  0
VERTEX
  5
9A3
  8
0
 62
     9
 10
0.0
 20
0.0
 30
0.0
 70
   128
 71
    41
 72
    34
 73
    44
  0
VERTEX
  5
9A4
  8
0
 62
     9
 10
0.0
 20
0.0
 30
0.0
 70
   128
 71
    41
 72
    47
 73
    42
  0
VERTEX
  5
9A5
  8
0
 62
     9
 10
0.0
 20
0.0
 30
0.0
 70
   128
 71
    50
 72
    48
 73
    43
  0
VERTEX
  5
9A6
  8
0
 62
     9
 10
0.0
 20
0.0
 30
0.0
 70
   128
 71
    39
 72
    45
 73
    34
  0
VERTEX
  5
9A7
  8
0
 62
     9
 10
0.0
 20
0.0
 30
0.0
 70
   128
 71
    48
 72
    39
 73
    43
  0
VERTEX
  5
9A8
  8
0
 62
     9
 10
0.0
 20
0.0
 30
0.0
 70
   128
 71
    51
 72
    49
 73
    50
  0
VERTEX
  5
9A9
  8
0
 62
     9
 10
0.0
 20
0.0
 30
0.0
 70
   128
 71
    49
 72
    48
 73
    50
  0
VERTEX
  5
9AA
  8
0
 62
     9
 10
0.0
 20
0.0
 30
0.0
 70
   128
 71
    37
 72
    24
 73
    35
  0
VERTEX
  5
9AB
  8
0
 62
     9
 10
0.0
 20
0.0
 30
0.0
 70
   128
 71
    51
 72
    37
 73
    49
  0
VERTEX
  5
9AC
  8
0
 62
     9
 10
0.0
 20
0.0
 30
0.0
 70
   128
 71
    37
 72
    51
 73
    18
  0
VERTEX
  5
9AD
  8
0
 62
     9
 10
0.0
 20
0.0
 30
0.0
 70
   128
 71
    54
 72
    53
 73
    52
  0
VERTEX
  5
9AE
  8
0
 62
     9
 10
0.0
 20
0.0
 30
0.0
 70
   128
 71
     6
 72
    56
 73
    55
  0
VERTEX
  5
9AF
  8
0
 62
     9
 10
0.0
 20
0.0
 30
0.0
 70
   128
 71
    55
 72
    56
 73
    57
  0
VERTEX
  5
9B0
  8
0
 62
     9
 10
0.0
 20
0.0
 30
0.0
 70
   128
 71
    44
 72
    58
 73
    47
  0
VERTEX
  5
9B1
  8
0
 62
     9
 10
0.0
 20
0.0
 30
0.0
 70
   128
 71
    55
 72
    59
 73
     6
  0
VERTEX
  5
9B2
  8
0
 62
     9
 10
0.0
 20
0.0
 30
0.0
 70
   128
 71
    47
 72
    60
 73
    42
  0
VERTEX
  5
9B3
  8
0
 62
     9
 10
0.0
 20
0.0
 30
0.0
 70
   128
 71
    59
 72
    61
 73
    54
  0
VERTEX
  5
9B4
  8
0
 62
     9
 10
0.0
 20
0.0
 30
0.0
 70
   128
 71
    53
 72
    60
 73
    58
  0
VERTEX
  5
9B5
  8
0
 62
     9
 10
0.0
 20
0.0
 30
0.0
 70
   128
 71
    64
 72
    63
 73
    62
  0
VERTEX
  5
9B6
  8
0
 62
     9
 10
0.0
 20
0.0
 30
0.0
 70
   128
 71
    62
 72
    57
 73
    64
  0
VERTEX
  5
9B7
  8
0
 62
     9
 10
0.0
 20
0.0
 30
0.0
 70
   128
 71
    64
 72
    65
 73
    63
  0
VERTEX
  5
9B8
  8
0
 62
     9
 10
0.0
 20
0.0
 30
0.0
 70
   128
 71
    62
 72
    63
 73
    66
  0
VERTEX
  5
9B9
  8
0
 62
     9
 10
0.0
 20
0.0
 30
0.0
 70
   128
 71
    57
 72
    56
 73
    67
  0
VERTEX
  5
9BA
  8
0
 62
     9
 10
0.0
 20
0.0
 30
0.0
 70
   128
 71
    54
 72
    61
 73
    53
  0
VERTEX
  5
9BB
  8
0
 62
     9
 10
0.0
 20
0.0
 30
0.0
 70
   128
 71
    54
 72
     6
 73
    59
  0
VERTEX
  5
9BC
  8
0
 62
     9
 10
0.0
 20
0.0
 30
0.0
 70
   128
 71
    61
 72
    59
 73
    68
  0
VERTEX
  5
9BD
  8
0
 62
     9
 10
0.0
 20
0.0
 30
0.0
 70
   128
 71
    44
 72
    33
 73
    69
  0
VERTEX
  5
9BE
  8
0
 62
     9
 10
0.0
 20
0.0
 30
0.0
 70
   128
 71
     6
 72
    52
 73
    69
  0
VERTEX
  5
9BF
  8
0
 62
     9
 10
0.0
 20
0.0
 30
0.0
 70
   128
 71
    54
 72
    52
 73
     6
  0
VERTEX
  5
9C0
  8
0
 62
     9
 10
0.0
 20
0.0
 30
0.0
 70
   128
 71
    53
 72
    58
 73
    52
  0
VERTEX
  5
9C1
  8
0
 62
     9
 10
0.0
 20
0.0
 30
0.0
 70
   128
 71
     6
 72
    69
 73
    33
  0
VERTEX
  5
9C2
  8
0
 62
     9
 10
0.0
 20
0.0
 30
0.0
 70
   128
 71
    68
 72
    55
 73
    57
  0
VERTEX
  5
9C3
  8
0
 62
     9
 10
0.0
 20
0.0
 30
0.0
 70
   128
 71
    70
 72
    64
 73
    67
  0
VERTEX
  5
9C4
  8
0
 62
     9
 10
0.0
 20
0.0
 30
0.0
 70
   128
 71
    68
 72
    71
 73
    61
  0
VERTEX
  5
9C5
  8
0
 62
     9
 10
0.0
 20
0.0
 30
0.0
 70
   128
 71
    68
 72
    59
 73
    55
  0
VERTEX
  5
9C6
  8
0
 62
     9
 10
0.0
 20
0.0
 30
0.0
 70
   128
 71
    62
 72
    71
 73
    68
  0
VERTEX
  5
9C7
  8
0
 62
     9
 10
0.0
 20
0.0
 30
0.0
 70
   128
 71
    61
 72
    72
 73
    53
  0
VERTEX
  5
9C8
  8
0
 62
     9
 10
0.0
 20
0.0
 30
0.0
 70
   128
 71
    61
 72
    71
 73
    72
  0
VERTEX
  5
9C9
  8
0
 62
     9
 10
0.0
 20
0.0
 30
0.0
 70
   128
 71
    58
 72
    69
 73
    52
  0
VERTEX
  5
9CA
  8
0
 62
     9
 10
0.0
 20
0.0
 30
0.0
 70
   128
 71
    72
 72
    60
 73
    53
  0
VERTEX
  5
9CB
  8
0
 62
     9
 10
0.0
 20
0.0
 30
0.0
 70
   128
 71
    69
 72
    58
 73
    44
  0
VERTEX
  5
9CC
  8
0
 62
     9
 10
0.0
 20
0.0
 30
0.0
 70
   128
 71
    64
 72
    57
 73
    67
  0
VERTEX
  5
9CD
  8
0
 62
     9
 10
0.0
 20
0.0
 30
0.0
 70
   128
 71
    64
 72
    70
 73
    65
  0
VERTEX
  5
9CE
  8
0
 62
     9
 10
0.0
 20
0.0
 30
0.0
 70
   128
 71
    73
 72
    71
 73
    66
  0
VERTEX
  5
9CF
  8
0
 62
     9
 10
0.0
 20
0.0
 30
0.0
 70
   128
 71
    62
 72
    68
 73
    57
  0
VERTEX
  5
9D0
  8
0
 62
     9
 10
0.0
 20
0.0
 30
0.0
 70
   128
 71
    71
 72
    62
 73
    66
  0
VERTEX
  5
9D1
  8
0
 62
     9
 10
0.0
 20
0.0
 30
0.0
 70
   128
 71
    74
 72
    72
 73
    73
  0
VERTEX
  5
9D2
  8
0
 62
     9
 10
0.0
 20
0.0
 30
0.0
 70
   128
 71
    72
 72
    71
 73
    73
  0
VERTEX
  5
9D3
  8
0
 62
     9
 10
0.0
 20
0.0
 30
0.0
 70
   128
 71
    60
 72
    47
 73
    58
  0
VERTEX
  5
9D4
  8
0
 62
     9
 10
0.0
 20
0.0
 30
0.0
 70
   128
 71
    74
 72
    60
 73
    72
  0
VERTEX
  5
9D5
  8
0
 62
     9
 10
0.0
 20
0.0
 30
0.0
 70
   128
 71
    60
 72
    74
 73
    42
  0
VERTEX
  5
9D6
  8
0
 62
     9
 10
0.0
 20
0.0
 30
0.0
 70
   128
 71
    77
 72
    76
 73
    75
  0
VERTEX
  5
9D7
  8
0
 62
     9
 10
0.0
 20
0.0
 30
0.0
 70
   128
 71
    80
 72
    79
 73
    78
  0
VERTEX
  5
9D8
  8
0
 62
     9
 10
0.0
 20
0.0
 30
0.0
 70
   128
 71
    77
 72
    82
 73
    81
  0
VERTEX
  5
9D9
  8
0
 62
     9
 10
0.0
 20
0.0
 30
0.0
 70
   128
 71
    82
 72
    77
 73
    75
  0
VERTEX
  5
9DA
  8
0
 62
     9
 10
0.0
 20
0.0
 30
0.0
 70
   128
 71
    78
 72
    84
 73
    83
  0
VERTEX
  5
9DB
  8
0
 62
     9
 10
0.0
 20
0.0
 30
0.0
 70
   128
 71
    82
 72
    75
 73
    12
  0
VERTEX
  5
9DC
  8
0
 62
     9
 10
0.0
 20
0.0
 30
0.0
 70
   128
 71
    85
 72
    65
 73
    70
  0
VERTEX
  5
9DD
  8
0
 62
     9
 10
0.0
 20
0.0
 30
0.0
 70
   128
 71
    86
 72
    70
 73
    67
  0
VERTEX
  5
9DE
  8
0
 62
     9
 10
0.0
 20
0.0
 30
0.0
 70
   128
 71
    87
 72
    23
 73
    76
  0
VERTEX
  5
9DF
  8
0
 62
     9
 10
0.0
 20
0.0
 30
0.0
 70
   128
 71
    85
 72
    86
 73
    80
  0
VERTEX
  5
9E0
  8
0
 62
     9
 10
0.0
 20
0.0
 30
0.0
 70
   128
 71
     6
 72
    87
 73
    84
  0
VERTEX
  5
9E1
  8
0
 62
     9
 10
0.0
 20
0.0
 30
0.0
 70
   128
 71
    23
 72
    87
 73
     6
  0
VERTEX
  5
9E2
  8
0
 62
     9
 10
0.0
 20
0.0
 30
0.0
 70
   128
 71
    76
 72
    23
 73
    10
  0
VERTEX
  5
9E3
  8
0
 62
     9
 10
0.0
 20
0.0
 30
0.0
 70
   128
 71
    78
 72
    83
 73
    80
  0
VERTEX
  5
9E4
  8
0
 62
     9
 10
0.0
 20
0.0
 30
0.0
 70
   128
 71
    78
 72
     6
 73
    84
  0
VERTEX
  5
9E5
  8
0
 62
     9
 10
0.0
 20
0.0
 30
0.0
 70
   128
 71
    83
 72
    84
 73
    88
  0
VERTEX
  5
9E6
  8
0
 62
     9
 10
0.0
 20
0.0
 30
0.0
 70
   128
 71
    67
 72
    56
 73
    89
  0
VERTEX
  5
9E7
  8
0
 62
     9
 10
0.0
 20
0.0
 30
0.0
 70
   128
 71
     6
 72
    79
 73
    89
  0
VERTEX
  5
9E8
  8
0
 62
     9
 10
0.0
 20
0.0
 30
0.0
 70
   128
 71
    78
 72
    79
 73
     6
  0
VERTEX
  5
9E9
  8
0
 62
     9
 10
0.0
 20
0.0
 30
0.0
 70
   128
 71
    80
 72
    86
 73
    79
  0
VERTEX
  5
9EA
  8
0
 62
     9
 10
0.0
 20
0.0
 30
0.0
 70
   128
 71
     6
 72
    89
 73
    56
  0
VERTEX
  5
9EB
  8
0
 62
     9
 10
0.0
 20
0.0
 30
0.0
 70
   128
 71
    88
 72
    87
 73
    76
  0
VERTEX
  5
9EC
  8
0
 62
     9
 10
0.0
 20
0.0
 30
0.0
 70
   128
 71
     8
 72
    75
 73
    10
  0
VERTEX
  5
9ED
  8
0
 62
     9
 10
0.0
 20
0.0
 30
0.0
 70
   128
 71
    88
 72
    90
 73
    83
  0
VERTEX
  5
9EE
  8
0
 62
     9
 10
0.0
 20
0.0
 30
0.0
 70
   128
 71
    88
 72
    84
 73
    87
  0
VERTEX
  5
9EF
  8
0
 62
     9
 10
0.0
 20
0.0
 30
0.0
 70
   128
 71
    77
 72
    90
 73
    88
  0
VERTEX
  5
9F0
  8
0
 62
     9
 10
0.0
 20
0.0
 30
0.0
 70
   128
 71
    83
 72
    91
 73
    80
  0
VERTEX
  5
9F1
  8
0
 62
     9
 10
0.0
 20
0.0
 30
0.0
 70
   128
 71
    83
 72
    90
 73
    91
  0
VERTEX
  5
9F2
  8
0
 62
     9
 10
0.0
 20
0.0
 30
0.0
 70
   128
 71
    86
 72
    89
 73
    79
  0
VERTEX
  5
9F3
  8
0
 62
     9
 10
0.0
 20
0.0
 30
0.0
 70
   128
 71
    91
 72
    85
 73
    80
  0
VERTEX
  5
9F4
  8
0
 62
     9
 10
0.0
 20
0.0
 30
0.0
 70
   128
 71
    89
 72
    86
 73
    67
  0
VERTEX
  5
9F5
  8
0
 62
     9
 10
0.0
 20
0.0
 30
0.0
 70
   128
 71
    75
 72
    76
 73
    10
  0
VERTEX
  5
9F6
  8
0
 62
     9
 10
0.0
 20
0.0
 30
0.0
 70
   128
 71
    75
 72
     8
 73
    12
  0
VERTEX
  5
9F7
  8
0
 62
     9
 10
0.0
 20
0.0
 30
0.0
 70
   128
 71
    92
 72
    90
 73
    81
  0
VERTEX
  5
9F8
  8
0
 62
     9
 10
0.0
 20
0.0
 30
0.0
 70
   128
 71
    77
 72
    88
 73
    76
  0
VERTEX
  5
9F9
  8
0
 62
     9
 10
0.0
 20
0.0
 30
0.0
 70
   128
 71
    90
 72
    77
 73
    81
  0
VERTEX
  5
9FA
  8
0
 62
     9
 10
0.0
 20
0.0
 30
0.0
 70
   128
 71
    93
 72
    91
 73
    92
  0
VERTEX
  5
9FB
  8
0
 62
     9
 10
0.0
 20
0.0
 30
0.0
 70
   128
 71
    91
 72
    90
 73
    92
  0
VERTEX
  5
9FC
  8
0
 62
     9
 10
0.0
 20
0.0
 30
0.0
 70
   128
 71
    85
 72
    70
 73
    86
  0
VERTEX
  5
9FD
  8
0
 62
     9
 10
0.0
 20
0.0
 30
0.0
 70
   128
 71
    93
 72
    85
 73
    91
  0
VERTEX
  5
9FE
  8
0
 62
     9
 10
0.0
 20
0.0
 30
0.0
 70
   128
 71
    85
 72
    93
 73
    65
  0
SEQEND
  5
9FF
  8
0
 62
     9
  0
ENDBLK
  5
A02
  8
0
  0
BLOCK
  8
0
  2
091015_AUTHENTIC_OHM_A17-1
 70
     0
 10
0.0
 20
0.0
 30
0.0
  3
091015_AUTHENTIC_OHM_A17-1
  1

  0
POLYLINE
  5
A04
  8
0
 66
     1
 10
0.0
 20
0.0
 30
0.0
 70
    64
 71
    96
 72
   177
  0
VERTEX
  5
A05
  8
0
 10
-21.92312049865723
 20
-2.364336252212524
 30
41.20755386352539
 70
   192
  0
VERTEX
  5
A06
  8
0
 10
-21.85540580749512
 20
-2.398933410644531
 30
45.87906646728516
 70
   192
  0
VERTEX
  5
A07
  8
0
 10
-19.38732719421387
 20
-8.029166221618652
 30
119.506233215332
 70
   192
  0
VERTEX
  5
A08
  8
0
 10
-11.20846462249756
 20
-19.42491912841797
 30
11.99953269958496
 70
   192
  0
VERTEX
  5
A09
  8
0
 10
-19.4175853729248
 20
-11.22627830505371
 30
11.99953269958496
 70
   192
  0
VERTEX
  5
A0A
  8
0
 10
-14.85470008850098
 20
-14.85278129577637
 30
119.5062408447266
 70
   192
  0
VERTEX
  5
A0B
  8
0
 10
-8.029878616333008
 20
-19.38363456726074
 30
119.506233215332
 70
   192
  0
VERTEX
  5
A0C
  8
0
 10
0.0000002734834936
 20
-22.44841957092285
 30
11.99953269958496
 70
   192
  0
VERTEX
  5
A0D
  8
0
 10
0.0000000569710075
 20
-21.00563049316406
 30
119.5062408447266
 70
   192
  0
VERTEX
  5
A0E
  8
0
 10
-21.91138458251953
 20
2.468694686889648
 30
41.19676971435547
 70
   192
  0
VERTEX
  5
A0F
  8
0
 10
-19.38709259033203
 20
8.030414581298828
 30
119.506233215332
 70
   192
  0
VERTEX
  5
A10
  8
0
 10
-21.86754989624023
 20
2.294190406799316
 30
45.86532592773438
 70
   192
  0
VERTEX
  5
A11
  8
0
 10
-22.10648727416992
 20
0.0000000000204934
 30
37.49972915649414
 70
   192
  0
VERTEX
  5
A12
  8
0
 10
-22.44849586486816
 20
0.0000758002934163
 30
11.99953269958496
 70
   192
  0
VERTEX
  5
A13
  8
0
 10
-19.42499542236328
 20
11.20853996276855
 30
11.99953269958496
 70
   192
  0
VERTEX
  5
A14
  8
0
 10
-11.22635364532471
 20
19.41766166687012
 30
11.99953269958496
 70
   192
  0
VERTEX
  5
A15
  8
0
 10
-14.85170936584473
 20
14.85738658905029
 30
119.5062408447266
 70
   192
  0
VERTEX
  5
A16
  8
0
 10
0.0000002734835221
 20
22.44857215881348
 30
11.99953269958496
 70
   192
  0
VERTEX
  5
A17
  8
0
 10
-8.025822639465332
 20
19.38443374633789
 30
119.506233215332
 70
   192
  0
VERTEX
  5
A18
  8
0
 10
-0.0000001595283976
 20
21.00562858581543
 30
119.5062408447266
 70
   192
  0
VERTEX
  5
A19
  8
0
 10
-21.00661468505859
 20
0.0000758002934163
 30
119.5062484741211
 70
   192
  0
VERTEX
  5
A1A
  8
0
 10
-21.94298934936523
 20
0.0000000000000204
 30
49.69004058837891
 70
   192
  0
VERTEX
  5
A1B
  8
0
 10
67.62744903564453
 20
-4.430168151855469
 30
109.3907241821289
 70
   192
  0
VERTEX
  5
A1C
  8
0
 10
22.51565361022949
 20
-0.9270551800727844
 30
110.0706176757812
 70
   192
  0
VERTEX
  5
A1D
  8
0
 10
67.62744903564453
 20
4.507864475250244
 30
109.3758392333984
 70
   192
  0
VERTEX
  5
A1E
  8
0
 10
67.62744903564453
 20
11.75362396240234
 30
104.0747833251953
 70
   192
  0
VERTEX
  5
A1F
  8
0
 10
21.55286598205566
 20
6.275499820709229
 30
108.6673278808594
 70
   192
  0
VERTEX
  5
A20
  8
0
 10
18.5571403503418
 20
12.22414588928223
 30
103.3902969360352
 70
   192
  0
VERTEX
  5
A21
  8
0
 10
67.62744903564453
 20
14.50283622741699
 30
95.59996795654297
 70
   192
  0
VERTEX
  5
A22
  8
0
 10
16.77819442749023
 20
14.49546241760254
 30
95.60025787353516
 70
   192
  0
VERTEX
  5
A23
  8
0
 10
18.31763458251953
 20
-12.59312343597412
 30
102.6952209472656
 70
   192
  0
VERTEX
  5
A24
  8
0
 10
20.9775447845459
 20
-7.880811214447021
 30
107.7729263305664
 70
   192
  0
VERTEX
  5
A25
  8
0
 10
67.62744903564453
 20
-11.69098854064941
 30
104.15869140625
 70
   192
  0
VERTEX
  5
A26
  8
0
 10
67.62744903564453
 20
-14.49949264526367
 30
95.59996795654297
 70
   192
  0
VERTEX
  5
A27
  8
0
 10
16.7755069732666
 20
-14.49440765380859
 30
95.60041046142578
 70
   192
  0
VERTEX
  5
A28
  8
0
 10
-4.552489280700684
 20
-19.97822570800781
 30
119.9995346069336
 70
   192
  0
VERTEX
  5
A29
  8
0
 10
4.570864200592041
 20
-19.97428321838379
 30
119.9995346069336
 70
   192
  0
VERTEX
  5
A2A
  8
0
 10
12.79057884216309
 20
-16.01782989501953
 30
119.9995346069336
 70
   192
  0
VERTEX
  5
A2B
  8
0
 10
8.03649616241455
 20
-19.38231086730957
 30
119.5062484741211
 70
   192
  0
VERTEX
  5
A2C
  8
0
 10
14.86438369750977
 20
-14.84326171875
 30
119.5062484741211
 70
   192
  0
VERTEX
  5
A2D
  8
0
 10
18.46198272705078
 20
-8.872750282287598
 30
119.9995346069336
 70
   192
  0
VERTEX
  5
A2E
  8
0
 10
20.50588798522949
 20
0.0280563421547413
 30
119.9995346069336
 70
   192
  0
VERTEX
  5
A2F
  8
0
 10
19.39376640319824
 20
-8.00893783569336
 30
119.5062484741211
 70
   192
  0
VERTEX
  5
A30
  8
0
 10
21.0064525604248
 20
0.0287602450698614
 30
119.5062484741211
 70
   192
  0
VERTEX
  5
A31
  8
0
 10
-12.78826999664307
 20
-16.02590751647949
 30
119.9995346069336
 70
   192
  0
VERTEX
  5
A32
  8
0
 10
-18.4570369720459
 20
-8.884117126464844
 30
119.9995346069336
 70
   192
  0
VERTEX
  5
A33
  8
0
 10
-20.50666046142578
 20
0.0000758002934163
 30
119.9995346069336
 70
   192
  0
VERTEX
  5
A34
  8
0
 10
14.94788646697998
 20
-15.18130493164062
 30
97.15843200683594
 70
   192
  0
VERTEX
  5
A35
  8
0
 10
17.76787185668945
 20
-11.35241508483887
 30
105.9028854370117
 70
   192
  0
VERTEX
  5
A36
  8
0
 10
20.79998970031738
 20
-3.429425477981567
 30
111.0869293212891
 70
   192
  0
VERTEX
  5
A37
  8
0
 10
20.09707641601562
 20
6.465604782104492
 30
110.0266876220703
 70
   192
  0
VERTEX
  5
A38
  8
0
 10
18.89331245422363
 20
-12.17961597442627
 30
87.7406234741211
 70
   192
  0
VERTEX
  5
A39
  8
0
 10
16.9134521484375
 20
-13.23051738739014
 30
87.5980453491211
 70
   192
  0
VERTEX
  5
A3A
  8
0
 10
20.51628494262695
 20
-6.425605297088623
 30
81.13463592529297
 70
   192
  0
VERTEX
  5
A3B
  8
0
 10
21.93053436279297
 20
-6.219885349273682
 30
82.52429962158203
 70
   192
  0
VERTEX
  5
A3C
  8
0
 10
-6.711353778839111
 20
-2.254518270492554
 30
13.99953269958496
 70
   192
  0
VERTEX
  5
A3D
  8
0
 10
-9.602649688720703
 20
-2.305036783218384
 30
13.99953269958496
 70
   192
  0
VERTEX
  5
A3E
  8
0
 10
-11.14823532104492
 20
0.0000000000204901
 30
13.99953269958496
 70
   192
  0
VERTEX
  5
A3F
  8
0
 10
-5.300338745117188
 20
0.0000000000000161
 30
13.99953269958496
 70
   192
  0
VERTEX
  5
A40
  8
0
 10
-9.737220764160156
 20
2.254518270492554
 30
13.99953269958496
 70
   192
  0
VERTEX
  5
A41
  8
0
 10
-6.845924854278564
 20
2.305036783218384
 30
13.99953269958496
 70
   192
  0
VERTEX
  5
A42
  8
0
 10
16.49849319458008
 20
2.84696364402771
 30
11.99953269958496
 70
   192
  0
VERTEX
  5
A43
  8
0
 10
14.46646785736084
 20
-8.419079780578613
 30
11.99953269958496
 70
   192
  0
VERTEX
  5
A44
  8
0
 10
22.44849586486816
 20
0.0000758002934163
 30
11.99953269958496
 70
   192
  0
VERTEX
  5
A45
  8
0
 10
10.79154491424561
 20
12.80734062194824
 30
11.99953269958496
 70
   192
  0
VERTEX
  5
A46
  8
0
 10
19.42499542236328
 20
11.20853996276855
 30
11.99953269958496
 70
   192
  0
VERTEX
  5
A47
  8
0
 10
0.000000000000016
 20
16.75
 30
11.99953269958496
 70
   192
  0
VERTEX
  5
A48
  8
0
 10
-10.71909713745117
 20
12.85520267486572
 30
11.99953269958496
 70
   192
  0
VERTEX
  5
A49
  8
0
 10
-14.52800559997559
 20
-8.325933456420898
 30
11.99953269958496
 70
   192
  0
VERTEX
  5
A4A
  8
0
 10
-5.741695880889893
 20
-15.73473930358887
 30
11.99953269958496
 70
   192
  0
VERTEX
  5
A4B
  8
0
 10
11.22635459899902
 20
19.41766166687012
 30
11.99953269958496
 70
   192
  0
VERTEX
  5
A4C
  8
0
 10
-16.47540473937988
 20
2.966384649276733
 30
11.99953269958496
 70
   192
  0
VERTEX
  5
A4D
  8
0
 10
5.69392728805542
 20
-15.74397468566895
 30
11.99953269958496
 70
   192
  0
VERTEX
  5
A4E
  8
0
 10
11.20846462249756
 20
-19.42491912841797
 30
11.99953269958496
 70
   192
  0
VERTEX
  5
A4F
  8
0
 10
19.4175853729248
 20
-11.22627830505371
 30
11.99953269958496
 70
   192
  0
VERTEX
  5
A50
  8
0
 10
21.29865646362305
 20
7.95919942855835
 30
83.48648834228516
 70
   192
  0
VERTEX
  5
A51
  8
0
 10
18.45370101928711
 20
12.70094776153564
 30
88.59869384765625
 70
   192
  0
VERTEX
  5
A52
  8
0
 10
18.09577178955078
 20
11.35014915466309
 30
85.2486801147461
 70
   192
  0
VERTEX
  5
A53
  8
0
 10
15.01257514953613
 20
15.17829990386963
 30
93.90143585205078
 70
   192
  0
VERTEX
  5
A54
  8
0
 10
16.62095069885254
 20
13.2601490020752
 30
103.5092468261719
 70
   192
  0
VERTEX
  5
A55
  8
0
 10
22.90383720397949
 20
1.067478775978088
 30
81.15145874023438
 70
   192
  0
VERTEX
  5
A56
  8
0
 10
21.21807098388672
 20
3.456098794937134
 30
80.09823608398438
 70
   192
  0
VERTEX
  5
A57
  8
0
 10
19.37669372558594
 20
8.050309181213379
 30
119.5062484741211
 70
   192
  0
VERTEX
  5
A58
  8
0
 10
8.022756576538086
 20
19.38815498352051
 30
119.5062484741211
 70
   192
  0
VERTEX
  5
A59
  8
0
 10
4.549045562744141
 20
19.97784996032715
 30
119.9995346069336
 70
   192
  0
VERTEX
  5
A5A
  8
0
 10
14.84333801269531
 20
14.86445903778076
 30
119.5062484741211
 70
   192
  0
VERTEX
  5
A5B
  8
0
 10
18.44677925109863
 20
8.901594161987305
 30
119.9995346069336
 70
   192
  0
VERTEX
  5
A5C
  8
0
 10
12.77763271331787
 20
16.03346824645996
 30
119.9995346069336
 70
   192
  0
VERTEX
  5
A5D
  8
0
 10
-4.56577730178833
 20
19.97836685180664
 30
119.9995346069336
 70
   192
  0
VERTEX
  5
A5E
  8
0
 10
-12.78161430358887
 20
16.02710151672363
 30
119.9995346069336
 70
   192
  0
VERTEX
  5
A5F
  8
0
 10
-18.45340538024902
 20
8.891679763793945
 30
119.9995346069336
 70
   192
  0
VERTEX
  5
A60
  8
0
 10
67.62744903564453
 20
12.52337455749512
 30
88.31180572509766
 70
   192
  0
VERTEX
  5
A61
  8
0
 10
67.62744903564453
 20
-7.283041954040527
 30
83.08309173583984
 70
   192
  0
VERTEX
  5
A62
  8
0
 10
67.62744903564453
 20
0.0142146032303572
 30
81.1043701171875
 70
   192
  0
VERTEX
  5
A63
  8
0
 10
67.62744903564453
 20
7.217120170593262
 30
83.03185272216797
 70
   192
  0
VERTEX
  5
A64
  8
0
 10
67.62744903564453
 20
-12.57485008239746
 30
88.39613342285156
 70
   192
  0
VERTEX
  5
A65
  8
0
 62
     9
 10
0.0
 20
0.0
 30
0.0
 70
   128
 71
     3
 72
     2
 73
     1
  0
VERTEX
  5
A66
  8
0
 62
     9
 10
0.0
 20
0.0
 30
0.0
 70
   128
 71
     6
 72
     5
 73
     4
  0
VERTEX
  5
A67
  8
0
 62
     9
 10
0.0
 20
0.0
 30
0.0
 70
   128
 71
     5
 72
     6
 73
     3
  0
VERTEX
  5
A68
  8
0
 62
     9
 10
0.0
 20
0.0
 30
0.0
 70
   128
 71
     8
 72
     7
 73
     4
  0
VERTEX
  5
A69
  8
0
 62
     9
 10
0.0
 20
0.0
 30
0.0
 70
   128
 71
     6
 72
     4
 73
     7
  0
VERTEX
  5
A6A
  8
0
 62
     9
 10
0.0
 20
0.0
 30
0.0
 70
   128
 71
     9
 72
     7
 73
     8
  0
VERTEX
  5
A6B
  8
0
 62
     9
 10
0.0
 20
0.0
 30
0.0
 70
   128
 71
    12
 72
    11
 73
    10
  0
VERTEX
  5
A6C
  8
0
 62
     9
 10
0.0
 20
0.0
 30
0.0
 70
   128
 71
    14
 72
    13
 73
    10
  0
VERTEX
  5
A6D
  8
0
 62
     9
 10
0.0
 20
0.0
 30
0.0
 70
   128
 71
    17
 72
    16
 73
    15
  0
VERTEX
  5
A6E
  8
0
 62
     9
 10
0.0
 20
0.0
 30
0.0
 70
   128
 71
    15
 72
    11
 73
    17
  0
VERTEX
  5
A6F
  8
0
 62
     9
 10
0.0
 20
0.0
 30
0.0
 70
   128
 71
    16
 72
    19
 73
    18
  0
VERTEX
  5
A70
  8
0
 62
     9
 10
0.0
 20
0.0
 30
0.0
 70
   128
 71
    19
 72
    16
 73
    17
  0
VERTEX
  5
A71
  8
0
 62
     9
 10
0.0
 20
0.0
 30
0.0
 70
   128
 71
    19
 72
    20
 73
    18
  0
VERTEX
  5
A72
  8
0
 62
     9
 10
0.0
 20
0.0
 30
0.0
 70
   128
 71
     2
 72
     3
 73
    21
  0
VERTEX
  5
A73
  8
0
 62
     9
 10
0.0
 20
0.0
 30
0.0
 70
   128
 71
    12
 72
    22
 73
    21
  0
VERTEX
  5
A74
  8
0
 62
     9
 10
0.0
 20
0.0
 30
0.0
 70
   128
 71
    15
 72
    10
 73
    11
  0
VERTEX
  5
A75
  8
0
 62
     9
 10
0.0
 20
0.0
 30
0.0
 70
   128
 71
    14
 72
    10
 73
    15
  0
VERTEX
  5
A76
  8
0
 62
     9
 10
0.0
 20
0.0
 30
0.0
 70
   128
 71
    11
 72
    12
 73
    21
  0
VERTEX
  5
A77
  8
0
 62
     9
 10
0.0
 20
0.0
 30
0.0
 70
   128
 71
    22
 72
     2
 73
    21
  0
VERTEX
  5
A78
  8
0
 62
     9
 10
0.0
 20
0.0
 30
0.0
 70
   128
 71
     1
 72
    13
 73
    14
  0
VERTEX
  5
A79
  8
0
 62
     9
 10
0.0
 20
0.0
 30
0.0
 70
   128
 71
     1
 72
     5
 73
     3
  0
VERTEX
  5
A7A
  8
0
 62
     9
 10
0.0
 20
0.0
 30
0.0
 70
   128
 71
     5
 72
     1
 73
    14
  0
VERTEX
  5
A7B
  8
0
 62
     9
 10
0.0
 20
0.0
 30
0.0
 70
   128
 71
    25
 72
    24
 73
    23
  0
VERTEX
  5
A7C
  8
0
 62
     9
 10
0.0
 20
0.0
 30
0.0
 70
   128
 71
    28
 72
    27
 73
    26
  0
VERTEX
  5
A7D
  8
0
 62
     9
 10
0.0
 20
0.0
 30
0.0
 70
   128
 71
    25
 72
    27
 73
    24
  0
VERTEX
  5
A7E
  8
0
 62
     9
 10
0.0
 20
0.0
 30
0.0
 70
   128
 71
    30
 72
    28
 73
    29
  0
VERTEX
  5
A7F
  8
0
 62
     9
 10
0.0
 20
0.0
 30
0.0
 70
   128
 71
    26
 72
    29
 73
    28
  0
VERTEX
  5
A80
  8
0
 62
     9
 10
0.0
 20
0.0
 30
0.0
 70
   128
 71
    25
 72
    26
 73
    27
  0
VERTEX
  5
A81
  8
0
 62
     9
 10
0.0
 20
0.0
 30
0.0
 70
   128
 71
    33
 72
    32
 73
    31
  0
VERTEX
  5
A82
  8
0
 62
     9
 10
0.0
 20
0.0
 30
0.0
 70
   128
 71
    33
 72
    23
 73
    32
  0
VERTEX
  5
A83
  8
0
 62
     9
 10
0.0
 20
0.0
 30
0.0
 70
   128
 71
    23
 72
    24
 73
    32
  0
VERTEX
  5
A84
  8
0
 62
     9
 10
0.0
 20
0.0
 30
0.0
 70
   128
 71
    31
 72
    35
 73
    34
  0
VERTEX
  5
A85
  8
0
 62
     9
 10
0.0
 20
0.0
 30
0.0
 70
   128
 71
    34
 72
    33
 73
    31
  0
VERTEX
  5
A86
  8
0
 62
     9
 10
0.0
 20
0.0
 30
0.0
 70
   128
 71
     9
 72
    37
 73
    36
  0
VERTEX
  5
A87
  8
0
 62
     9
 10
0.0
 20
0.0
 30
0.0
 70
   128
 71
    37
 72
    39
 73
    38
  0
VERTEX
  5
A88
  8
0
 62
     9
 10
0.0
 20
0.0
 30
0.0
 70
   128
 71
    39
 72
    37
 73
     9
  0
VERTEX
  5
A89
  8
0
 62
     9
 10
0.0
 20
0.0
 30
0.0
 70
   128
 71
    41
 72
    38
 73
    40
  0
VERTEX
  5
A8A
  8
0
 62
     9
 10
0.0
 20
0.0
 30
0.0
 70
   128
 71
    39
 72
    40
 73
    38
  0
VERTEX
  5
A8B
  8
0
 62
     9
 10
0.0
 20
0.0
 30
0.0
 70
   128
 71
    43
 72
    42
 73
    41
  0
VERTEX
  5
A8C
  8
0
 62
     9
 10
0.0
 20
0.0
 30
0.0
 70
   128
 71
    41
 72
    40
 73
    43
  0
VERTEX
  5
A8D
  8
0
 62
     9
 10
0.0
 20
0.0
 30
0.0
 70
   128
 71
    44
 72
    42
 73
    43
  0
VERTEX
  5
A8E
  8
0
 62
     9
 10
0.0
 20
0.0
 30
0.0
 70
   128
 71
     7
 72
     9
 73
    36
  0
VERTEX
  5
A8F
  8
0
 62
     9
 10
0.0
 20
0.0
 30
0.0
 70
   128
 71
     6
 72
     7
 73
    45
  0
VERTEX
  5
A90
  8
0
 62
     9
 10
0.0
 20
0.0
 30
0.0
 70
   128
 71
    36
 72
    45
 73
     7
  0
VERTEX
  5
A91
  8
0
 62
     9
 10
0.0
 20
0.0
 30
0.0
 70
   128
 71
    46
 72
     3
 73
     6
  0
VERTEX
  5
A92
  8
0
 62
     9
 10
0.0
 20
0.0
 30
0.0
 70
   128
 71
     6
 72
    45
 73
    46
  0
VERTEX
  5
A93
  8
0
 62
     9
 10
0.0
 20
0.0
 30
0.0
 70
   128
 71
    47
 72
     3
 73
    46
  0
VERTEX
  5
A94
  8
0
 62
     9
 10
0.0
 20
0.0
 30
0.0
 70
   128
 71
    47
 72
    21
 73
     3
  0
VERTEX
  5
A95
  8
0
 62
     9
 10
0.0
 20
0.0
 30
0.0
 70
   128
 71
    31
 72
    49
 73
    48
  0
VERTEX
  5
A96
  8
0
 62
     9
 10
0.0
 20
0.0
 30
0.0
 70
   128
 71
    50
 72
    32
 73
    24
  0
VERTEX
  5
A97
  8
0
 62
     9
 10
0.0
 20
0.0
 30
0.0
 70
   128
 71
    32
 72
    49
 73
    31
  0
VERTEX
  5
A98
  8
0
 62
     9
 10
0.0
 20
0.0
 30
0.0
 70
   128
 71
    27
 72
    51
 73
    24
  0
VERTEX
  5
A99
  8
0
 62
     9
 10
0.0
 20
0.0
 30
0.0
 70
   128
 71
    49
 72
    32
 73
    50
  0
VERTEX
  5
A9A
  8
0
 62
     9
 10
0.0
 20
0.0
 30
0.0
 70
   128
 71
    51
 72
    50
 73
    24
  0
VERTEX
  5
A9B
  8
0
 62
     9
 10
0.0
 20
0.0
 30
0.0
 70
   128
 71
    31
 72
    48
 73
    35
  0
VERTEX
  5
A9C
  8
0
 62
     9
 10
0.0
 20
0.0
 30
0.0
 70
   128
 71
    53
 72
    52
 73
    35
  0
VERTEX
  5
A9D
  8
0
 62
     9
 10
0.0
 20
0.0
 30
0.0
 70
   128
 71
    35
 72
    48
 73
    53
  0
VERTEX
  5
A9E
  8
0
 62
     9
 10
0.0
 20
0.0
 30
0.0
 70
   128
 71
    54
 72
    52
 73
    53
  0
VERTEX
  5
A9F
  8
0
 62
     9
 10
0.0
 20
0.0
 30
0.0
 70
   128
 71
    54
 72
    55
 73
    52
  0
VERTEX
  5
AA0
  8
0
 62
     9
 10
0.0
 20
0.0
 30
0.0
 70
   128
 71
     2
 72
    56
 73
     1
  0
VERTEX
  5
AA1
  8
0
 62
     9
 10
0.0
 20
0.0
 30
0.0
 70
   128
 71
    56
 72
    57
 73
     1
  0
VERTEX
  5
AA2
  8
0
 62
     9
 10
0.0
 20
0.0
 30
0.0
 70
   128
 71
    13
 72
     1
 73
    57
  0
VERTEX
  5
AA3
  8
0
 62
     9
 10
0.0
 20
0.0
 30
0.0
 70
   128
 71
    57
 72
    58
 73
    13
  0
VERTEX
  5
AA4
  8
0
 62
     9
 10
0.0
 20
0.0
 30
0.0
 70
   128
 71
     2
 72
    22
 73
    56
  0
VERTEX
  5
AA5
  8
0
 62
     9
 10
0.0
 20
0.0
 30
0.0
 70
   128
 71
    59
 72
    56
 73
    22
  0
VERTEX
  5
AA6
  8
0
 62
     9
 10
0.0
 20
0.0
 30
0.0
 70
   128
 71
    58
 72
    60
 73
    13
  0
VERTEX
  5
AA7
  8
0
 62
     9
 10
0.0
 20
0.0
 30
0.0
 70
   128
 71
    59
 72
    22
 73
    61
  0
VERTEX
  5
AA8
  8
0
 62
     9
 10
0.0
 20
0.0
 30
0.0
 70
   128
 71
    12
 72
    61
 73
    22
  0
VERTEX
  5
AA9
  8
0
 62
     9
 10
0.0
 20
0.0
 30
0.0
 70
   128
 71
    12
 72
    10
 73
    61
  0
VERTEX
  5
AAA
  8
0
 62
     9
 10
0.0
 20
0.0
 30
0.0
 70
   128
 71
    10
 72
    60
 73
    61
  0
VERTEX
  5
AAB
  8
0
 62
     9
 10
0.0
 20
0.0
 30
0.0
 70
   128
 71
    60
 72
    10
 73
    13
  0
VERTEX
  5
AAC
  8
0
 62
     9
 10
0.0
 20
0.0
 30
0.0
 70
   128
 71
    64
 72
    63
 73
    62
  0
VERTEX
  5
AAD
  8
0
 62
     9
 10
0.0
 20
0.0
 30
0.0
 70
   128
 71
    66
 72
    62
 73
    65
  0
VERTEX
  5
AAE
  8
0
 62
     9
 10
0.0
 20
0.0
 30
0.0
 70
   128
 71
    68
 72
    16
 73
    67
  0
VERTEX
  5
AAF
  8
0
 62
     9
 10
0.0
 20
0.0
 30
0.0
 70
   128
 71
    70
 72
     4
 73
    69
  0
VERTEX
  5
AB0
  8
0
 62
     9
 10
0.0
 20
0.0
 30
0.0
 70
   128
 71
    18
 72
    67
 73
    16
  0
VERTEX
  5
AB1
  8
0
 62
     9
 10
0.0
 20
0.0
 30
0.0
 70
   128
 71
    18
 72
    71
 73
    67
  0
VERTEX
  5
AB2
  8
0
 62
     9
 10
0.0
 20
0.0
 30
0.0
 70
   128
 71
    68
 72
    72
 73
    15
  0
VERTEX
  5
AB3
  8
0
 62
     9
 10
0.0
 20
0.0
 30
0.0
 70
   128
 71
    68
 72
    15
 73
    16
  0
VERTEX
  5
AB4
  8
0
 62
     9
 10
0.0
 20
0.0
 30
0.0
 70
   128
 71
    72
 72
    69
 73
    14
  0
VERTEX
  5
AB5
  8
0
 62
     9
 10
0.0
 20
0.0
 30
0.0
 70
   128
 71
    72
 72
    14
 73
    15
  0
VERTEX
  5
AB6
  8
0
 62
     9
 10
0.0
 20
0.0
 30
0.0
 70
   128
 71
     5
 72
    69
 73
     4
  0
VERTEX
  5
AB7
  8
0
 62
     9
 10
0.0
 20
0.0
 30
0.0
 70
   128
 71
    69
 72
     5
 73
    14
  0
VERTEX
  5
AB8
  8
0
 62
     9
 10
0.0
 20
0.0
 30
0.0
 70
   128
 71
    70
 72
    73
 73
     8
  0
VERTEX
  5
AB9
  8
0
 62
     9
 10
0.0
 20
0.0
 30
0.0
 70
   128
 71
    70
 72
     8
 73
     4
  0
VERTEX
  5
ABA
  8
0
 62
     9
 10
0.0
 20
0.0
 30
0.0
 70
   128
 71
    73
 72
    63
 73
    74
  0
VERTEX
  5
ABB
  8
0
 62
     9
 10
0.0
 20
0.0
 30
0.0
 70
   128
 71
    73
 72
    74
 73
     8
  0
VERTEX
  5
ABC
  8
0
 62
     9
 10
0.0
 20
0.0
 30
0.0
 70
   128
 71
    75
 72
    63
 73
    64
  0
VERTEX
  5
ABD
  8
0
 62
     9
 10
0.0
 20
0.0
 30
0.0
 70
   128
 71
    63
 72
    75
 73
    74
  0
VERTEX
  5
ABE
  8
0
 62
     9
 10
0.0
 20
0.0
 30
0.0
 70
   128
 71
    62
 72
    66
 73
    64
  0
VERTEX
  5
ABF
  8
0
 62
     9
 10
0.0
 20
0.0
 30
0.0
 70
   128
 71
    71
 72
    65
 73
    67
  0
VERTEX
  5
AC0
  8
0
 62
     9
 10
0.0
 20
0.0
 30
0.0
 70
   128
 71
    65
 72
    71
 73
    66
  0
VERTEX
  5
AC1
  8
0
 62
     9
 10
0.0
 20
0.0
 30
0.0
 70
   128
 71
    27
 72
    28
 73
    51
  0
VERTEX
  5
AC2
  8
0
 62
     9
 10
0.0
 20
0.0
 30
0.0
 70
   128
 71
    78
 72
    77
 73
    76
  0
VERTEX
  5
AC3
  8
0
 62
     9
 10
0.0
 20
0.0
 30
0.0
 70
   128
 71
    80
 72
    30
 73
    79
  0
VERTEX
  5
AC4
  8
0
 62
     9
 10
0.0
 20
0.0
 30
0.0
 70
   128
 71
    82
 72
    76
 73
    81
  0
VERTEX
  5
AC5
  8
0
 62
     9
 10
0.0
 20
0.0
 30
0.0
 70
   128
 71
    54
 72
    81
 73
    55
  0
VERTEX
  5
AC6
  8
0
 62
     9
 10
0.0
 20
0.0
 30
0.0
 70
   128
 71
    81
 72
    54
 73
    82
  0
VERTEX
  5
AC7
  8
0
 62
     9
 10
0.0
 20
0.0
 30
0.0
 70
   128
 71
    82
 72
    78
 73
    76
  0
VERTEX
  5
AC8
  8
0
 62
     9
 10
0.0
 20
0.0
 30
0.0
 70
   128
 71
    78
 72
    79
 73
    77
  0
VERTEX
  5
AC9
  8
0
 62
     9
 10
0.0
 20
0.0
 30
0.0
 70
   128
 71
    28
 72
    30
 73
    80
  0
VERTEX
  5
ACA
  8
0
 62
     9
 10
0.0
 20
0.0
 30
0.0
 70
   128
 71
    30
 72
    77
 73
    79
  0
VERTEX
  5
ACB
  8
0
 62
     9
 10
0.0
 20
0.0
 30
0.0
 70
   128
 71
    80
 72
    51
 73
    28
  0
VERTEX
  5
ACC
  8
0
 62
     9
 10
0.0
 20
0.0
 30
0.0
 70
   128
 71
    42
 72
    44
 73
    83
  0
VERTEX
  5
ACD
  8
0
 62
     9
 10
0.0
 20
0.0
 30
0.0
 70
   128
 71
    85
 72
    84
 73
    20
  0
VERTEX
  5
ACE
  8
0
 62
     9
 10
0.0
 20
0.0
 30
0.0
 70
   128
 71
    88
 72
    87
 73
    86
  0
VERTEX
  5
ACF
  8
0
 62
     9
 10
0.0
 20
0.0
 30
0.0
 70
   128
 71
    19
 72
    90
 73
    89
  0
VERTEX
  5
AD0
  8
0
 62
     9
 10
0.0
 20
0.0
 30
0.0
 70
   128
 71
    91
 72
    17
 73
    11
  0
VERTEX
  5
AD1
  8
0
 62
     9
 10
0.0
 20
0.0
 30
0.0
 70
   128
 71
    17
 72
    91
 73
    90
  0
VERTEX
  5
AD2
  8
0
 62
     9
 10
0.0
 20
0.0
 30
0.0
 70
   128
 71
    21
 72
    47
 73
    11
  0
VERTEX
  5
AD3
  8
0
 62
     9
 10
0.0
 20
0.0
 30
0.0
 70
   128
 71
    91
 72
    11
 73
    47
  0
VERTEX
  5
AD4
  8
0
 62
     9
 10
0.0
 20
0.0
 30
0.0
 70
   128
 71
    89
 72
    20
 73
    19
  0
VERTEX
  5
AD5
  8
0
 62
     9
 10
0.0
 20
0.0
 30
0.0
 70
   128
 71
    19
 72
    17
 73
    90
  0
VERTEX
  5
AD6
  8
0
 62
     9
 10
0.0
 20
0.0
 30
0.0
 70
   128
 71
    88
 72
    84
 73
    85
  0
VERTEX
  5
AD7
  8
0
 62
     9
 10
0.0
 20
0.0
 30
0.0
 70
   128
 71
    85
 72
    20
 73
    89
  0
VERTEX
  5
AD8
  8
0
 62
     9
 10
0.0
 20
0.0
 30
0.0
 70
   128
 71
    87
 72
    83
 73
    86
  0
VERTEX
  5
AD9
  8
0
 62
     9
 10
0.0
 20
0.0
 30
0.0
 70
   128
 71
    88
 72
    86
 73
    84
  0
VERTEX
  5
ADA
  8
0
 62
     9
 10
0.0
 20
0.0
 30
0.0
 70
   128
 71
    83
 72
    87
 73
    42
  0
VERTEX
  5
ADB
  8
0
 62
     9
 10
0.0
 20
0.0
 30
0.0
 70
   128
 71
    45
 72
    36
 73
    46
  0
VERTEX
  5
ADC
  8
0
 62
     9
 10
0.0
 20
0.0
 30
0.0
 70
   128
 71
    38
 72
    91
 73
    37
  0
VERTEX
  5
ADD
  8
0
 62
     9
 10
0.0
 20
0.0
 30
0.0
 70
   128
 71
    36
 72
    37
 73
    46
  0
VERTEX
  5
ADE
  8
0
 62
     9
 10
0.0
 20
0.0
 30
0.0
 70
   128
 71
    90
 72
    91
 73
    38
  0
VERTEX
  5
ADF
  8
0
 62
     9
 10
0.0
 20
0.0
 30
0.0
 70
   128
 71
    46
 72
    37
 73
    91
  0
VERTEX
  5
AE0
  8
0
 62
     9
 10
0.0
 20
0.0
 30
0.0
 70
   128
 71
    42
 72
    87
 73
    41
  0
VERTEX
  5
AE1
  8
0
 62
     9
 10
0.0
 20
0.0
 30
0.0
 70
   128
 71
    90
 72
    41
 73
    89
  0
VERTEX
  5
AE2
  8
0
 62
     9
 10
0.0
 20
0.0
 30
0.0
 70
   128
 71
    89
 72
    87
 73
    85
  0
VERTEX
  5
AE3
  8
0
 62
     9
 10
0.0
 20
0.0
 30
0.0
 70
   128
 71
    85
 72
    87
 73
    88
  0
VERTEX
  5
AE4
  8
0
 62
     9
 10
0.0
 20
0.0
 30
0.0
 70
   128
 71
    38
 72
    41
 73
    90
  0
VERTEX
  5
AE5
  8
0
 62
     9
 10
0.0
 20
0.0
 30
0.0
 70
   128
 71
    41
 72
    87
 73
    89
  0
VERTEX
  5
AE6
  8
0
 62
     9
 10
0.0
 20
0.0
 30
0.0
 70
   128
 71
    47
 72
    46
 73
    91
  0
VERTEX
  5
AE7
  8
0
 62
     9
 10
0.0
 20
0.0
 30
0.0
 70
   128
 71
    92
 72
    77
 73
    29
  0
VERTEX
  5
AE8
  8
0
 62
     9
 10
0.0
 20
0.0
 30
0.0
 70
   128
 71
    55
 72
    94
 73
    93
  0
VERTEX
  5
AE9
  8
0
 62
     9
 10
0.0
 20
0.0
 30
0.0
 70
   128
 71
    76
 72
    95
 73
    81
  0
VERTEX
  5
AEA
  8
0
 62
     9
 10
0.0
 20
0.0
 30
0.0
 70
   128
 71
    35
 72
    52
 73
    96
  0
VERTEX
  5
AEB
  8
0
 62
     9
 10
0.0
 20
0.0
 30
0.0
 70
   128
 71
    93
 72
    96
 73
    52
  0
VERTEX
  5
AEC
  8
0
 62
     9
 10
0.0
 20
0.0
 30
0.0
 70
   128
 71
    35
 72
    96
 73
    34
  0
VERTEX
  5
AED
  8
0
 62
     9
 10
0.0
 20
0.0
 30
0.0
 70
   128
 71
    81
 72
    94
 73
    55
  0
VERTEX
  5
AEE
  8
0
 62
     9
 10
0.0
 20
0.0
 30
0.0
 70
   128
 71
    55
 72
    93
 73
    52
  0
VERTEX
  5
AEF
  8
0
 62
     9
 10
0.0
 20
0.0
 30
0.0
 70
   128
 71
    29
 72
    77
 73
    30
  0
VERTEX
  5
AF0
  8
0
 62
     9
 10
0.0
 20
0.0
 30
0.0
 70
   128
 71
    76
 72
    92
 73
    95
  0
VERTEX
  5
AF1
  8
0
 62
     9
 10
0.0
 20
0.0
 30
0.0
 70
   128
 71
    81
 72
    95
 73
    94
  0
VERTEX
  5
AF2
  8
0
 62
     9
 10
0.0
 20
0.0
 30
0.0
 70
   128
 71
    76
 72
    77
 73
    92
  0
VERTEX
  5
AF3
  8
0
 62
     9
 10
0.0
 20
0.0
 30
0.0
 70
   128
 71
     8
 72
    74
 73
    39
  0
VERTEX
  5
AF4
  8
0
 62
     9
 10
0.0
 20
0.0
 30
0.0
 70
   128
 71
    79
 72
    78
 73
    66
  0
VERTEX
  5
AF5
  8
0
 62
     9
 10
0.0
 20
0.0
 30
0.0
 70
   128
 71
    53
 72
    75
 73
    54
  0
VERTEX
  5
AF6
  8
0
 62
     9
 10
0.0
 20
0.0
 30
0.0
 70
   128
 71
    84
 72
    71
 73
    18
  0
VERTEX
  5
AF7
  8
0
 62
     9
 10
0.0
 20
0.0
 30
0.0
 70
   128
 71
    71
 72
    84
 73
    86
  0
VERTEX
  5
AF8
  8
0
 62
     9
 10
0.0
 20
0.0
 30
0.0
 70
   128
 71
    84
 72
    18
 73
    20
  0
VERTEX
  5
AF9
  8
0
 62
     9
 10
0.0
 20
0.0
 30
0.0
 70
   128
 71
    51
 72
    80
 73
    83
  0
VERTEX
  5
AFA
  8
0
 62
     9
 10
0.0
 20
0.0
 30
0.0
 70
   128
 71
    79
 72
    86
 73
    80
  0
VERTEX
  5
AFB
  8
0
 62
     9
 10
0.0
 20
0.0
 30
0.0
 70
   128
 71
    50
 72
    43
 73
    49
  0
VERTEX
  5
AFC
  8
0
 62
     9
 10
0.0
 20
0.0
 30
0.0
 70
   128
 71
    44
 72
    51
 73
    83
  0
VERTEX
  5
AFD
  8
0
 62
     9
 10
0.0
 20
0.0
 30
0.0
 70
   128
 71
    75
 72
    53
 73
    48
  0
VERTEX
  5
AFE
  8
0
 62
     9
 10
0.0
 20
0.0
 30
0.0
 70
   128
 71
    82
 72
    64
 73
    66
  0
VERTEX
  5
AFF
  8
0
 62
     9
 10
0.0
 20
0.0
 30
0.0
 70
   128
 71
    39
 72
     9
 73
     8
  0
VERTEX
  5
B00
  8
0
 62
     9
 10
0.0
 20
0.0
 30
0.0
 70
   128
 71
    40
 72
    39
 73
    74
  0
VERTEX
  5
B01
  8
0
 62
     9
 10
0.0
 20
0.0
 30
0.0
 70
   128
 71
    64
 72
    54
 73
    75
  0
VERTEX
  5
B02
  8
0
 62
     9
 10
0.0
 20
0.0
 30
0.0
 70
   128
 71
    48
 72
    49
 73
    40
  0
VERTEX
  5
B03
  8
0
 62
     9
 10
0.0
 20
0.0
 30
0.0
 70
   128
 71
    48
 72
    74
 73
    75
  0
VERTEX
  5
B04
  8
0
 62
     9
 10
0.0
 20
0.0
 30
0.0
 70
   128
 71
    74
 72
    48
 73
    40
  0
VERTEX
  5
B05
  8
0
 62
     9
 10
0.0
 20
0.0
 30
0.0
 70
   128
 71
    40
 72
    49
 73
    43
  0
VERTEX
  5
B06
  8
0
 62
     9
 10
0.0
 20
0.0
 30
0.0
 70
   128
 71
    54
 72
    64
 73
    82
  0
VERTEX
  5
B07
  8
0
 62
     9
 10
0.0
 20
0.0
 30
0.0
 70
   128
 71
    43
 72
    50
 73
    44
  0
VERTEX
  5
B08
  8
0
 62
     9
 10
0.0
 20
0.0
 30
0.0
 70
   128
 71
    51
 72
    44
 73
    50
  0
VERTEX
  5
B09
  8
0
 62
     9
 10
0.0
 20
0.0
 30
0.0
 70
   128
 71
    66
 72
    78
 73
    82
  0
VERTEX
  5
B0A
  8
0
 62
     9
 10
0.0
 20
0.0
 30
0.0
 70
   128
 71
    83
 72
    80
 73
    86
  0
VERTEX
  5
B0B
  8
0
 62
     9
 10
0.0
 20
0.0
 30
0.0
 70
   128
 71
    71
 72
    79
 73
    66
  0
VERTEX
  5
B0C
  8
0
 62
     9
 10
0.0
 20
0.0
 30
0.0
 70
   128
 71
    86
 72
    79
 73
    71
  0
VERTEX
  5
B0D
  8
0
 62
     9
 10
0.0
 20
0.0
 30
0.0
 70
   128
 71
    23
 72
    33
 73
    34
  0
VERTEX
  5
B0E
  8
0
 62
     9
 10
0.0
 20
0.0
 30
0.0
 70
   128
 71
    25
 72
    34
 73
    96
  0
VERTEX
  5
B0F
  8
0
 62
     9
 10
0.0
 20
0.0
 30
0.0
 70
   128
 71
    34
 72
    25
 73
    23
  0
VERTEX
  5
B10
  8
0
 62
     9
 10
0.0
 20
0.0
 30
0.0
 70
   128
 71
    25
 72
    96
 73
    26
  0
VERTEX
  5
B11
  8
0
 62
     9
 10
0.0
 20
0.0
 30
0.0
 70
   128
 71
    26
 72
    96
 73
    93
  0
VERTEX
  5
B12
  8
0
 62
     9
 10
0.0
 20
0.0
 30
0.0
 70
   128
 71
    29
 72
    93
 73
    94
  0
VERTEX
  5
B13
  8
0
 62
     9
 10
0.0
 20
0.0
 30
0.0
 70
   128
 71
    93
 72
    29
 73
    26
  0
VERTEX
  5
B14
  8
0
 62
     9
 10
0.0
 20
0.0
 30
0.0
 70
   128
 71
    94
 72
    92
 73
    29
  0
VERTEX
  5
B15
  8
0
 62
     9
 10
0.0
 20
0.0
 30
0.0
 70
   128
 71
    95
 72
    92
 73
    94
  0
SEQEND
  5
B16
  8
0
  0
ENDBLK
  5
B19
  8
0
  0
ENDSEC
  0
SECTION
  2
ENTITIES
  0
INSERT
  5
152
  8
LAYER_1
  2
38
 10
0.0
 20
0.0
 30
0.0
  0
INSERT
  5
350
  8
LAYER_1
  2
39
 10
0.0
 20
0.0
 30
0.0
  0
INSERT
  5
392
  8
LAYER_1
  2
40
 10
0.0
 20
0.0
 30
0.0
  0
INSERT
  5
40E
  8
LAYER_1
  2
41
 10
0.0
 20
0.0
 30
0.0
  0
INSERT
  5
550
  8
LAYER_1
  2
42
 10
0.0
 20
0.0
 30
0.0
  0
INSERT
  5
696
  8
LAYER_1
  2
43
 10
0.0
 20
0.0
 30
0.0
  0
INSERT
  5
8F9
  8
LAYER_1
  2
091012_AUTHENTIC_OHM_A17-3
 10
0.0
 20
0.0
 30
0.0
  0
INSERT
  5
A00
  8
LAYER_1
  2
45
 10
0.0
 20
0.0
 30
0.0
  0
INSERT
  5
B17
  8
LAYER_1
  2
091015_AUTHENTIC_OHM_A17-1
 10
0.0
 20
0.0
 30
0.0
  0
ENDSEC
  0
EOF
