  0
SECTION
  2
HEADER
  9
$ACADVER
  1
AC1015
  9
$ACADMAINTVER
 70
     6
  9
$DWGCODEPAGE
  3
ANSI_1252
  9
$INSBASE
 10
0.0
 20
0.0
 30
0.0
  9
$EXTMIN
 10
0.0
 20
0.0
 30
0.0
  9
$EXTMAX
 10
1682.0
 20
2378.0
 30
0.0
  9
$LIMMIN
 10
0.0
 20
0.0
  9
$LIMMAX
 10
1682.0
 20
2378.0
  9
$ORTHOMODE
 70
     0
  9
$REGENMODE
 70
     1
  9
$FILLMODE
 70
     1
  9
$QTEXTMODE
 70
     0
  9
$MIRRTEXT
 70
     1
  9
$LTSCALE
 40
1.0
  9
$ATTMODE
 70
     1
  9
$TEXTSIZE
 40
2.5
  9
$TRACEWID
 40
1.0
  9
$TEXTSTYLE
  7
Standard
  9
$CLAYER
  8
0
  9
$CELTYPE
  6
ByLayer
  9
$CECOLOR
 62
   256
  9
$CELTSCALE
 40
1.0
  9
$DISPSILH
 70
     0
  9
$DIMSCALE
 40
1.0
  9
$DIMASZ
 40
2.5
  9
$DIMEXO
 40
0.625
  9
$DIMDLI
 40
3.75
  9
$DIMRND
 40
0.0
  9
$DIMDLE
 40
0.0
  9
$DIMEXE
 40
1.25
  9
$DIMTP
 40
0.0
  9
$DIMTM
 40
0.0
  9
$DIMTXT
 40
2.5
  9
$DIMCEN
 40
2.5
  9
$DIMTSZ
 40
0.0
  9
$DIMTOL
 70
     0
  9
$DIMLIM
 70
     0
  9
$DIMTIH
 70
     0
  9
$DIMTOH
 70
     0
  9
$DIMSE1
 70
     0
  9
$DIMSE2
 70
     0
  9
$DIMTAD
 70
     1
  9
$DIMZIN
 70
     8
  9
$DIMBLK
  1

  9
$DIMASO
 70
     1
  9
$DIMSHO
 70
     1
  9
$DIMPOST
  1

  9
$DIMAPOST
  1

  9
$DIMALT
 70
     0
  9
$DIMALTD
 70
     3
  9
$DIMALTF
 40
0.0393700787
  9
$DIMLFAC
 40
1.0
  9
$DIMTOFL
 70
     1
  9
$DIMTVP
 40
0.0
  9
$DIMTIX
 70
     0
  9
$DIMSOXD
 70
     0
  9
$DIMSAH
 70
     0
  9
$DIMBLK1
  1

  9
$DIMBLK2
  1

  9
$DIMSTYLE
  2
ISO-25
  9
$DIMCLRD
 70
     0
  9
$DIMCLRE
 70
     0
  9
$DIMCLRT
 70
     0
  9
$DIMTFAC
 40
1.0
  9
$DIMGAP
 40
0.625
  9
$DIMJUST
 70
     0
  9
$DIMSD1
 70
     0
  9
$DIMSD2
 70
     0
  9
$DIMTOLJ
 70
     0
  9
$DIMTZIN
 70
     8
  9
$DIMALTZ
 70
     0
  9
$DIMALTTZ
 70
     0
  9
$DIMUPT
 70
     0
  9
$DIMDEC
 70
     2
  9
$DIMTDEC
 70
     2
  9
$DIMALTU
 70
     2
  9
$DIMALTTD
 70
     3
  9
$DIMTXSTY
  7
Standard
  9
$DIMAUNIT
 70
     0
  9
$DIMADEC
 70
     0
  9
$DIMALTRND
 40
0.0
  9
$DIMAZIN
 70
     0
  9
$DIMDSEP
 70
    44
  9
$DIMATFIT
 70
     3
  9
$DIMFRAC
 70
     0
  9
$DIMLDRBLK
  1

  9
$DIMLUNIT
 70
     2
  9
$DIMLWD
 70
    -2
  9
$DIMLWE
 70
    -2
  9
$DIMTMOVE
 70
     0
  9
$LUNITS
 70
     2
  9
$LUPREC
 70
     4
  9
$SKETCHINC
 40
1.0
  9
$FILLETRAD
 40
10.0
  9
$AUNITS
 70
     0
  9
$AUPREC
 70
     0
  9
$MENU
  1
.
  9
$ELEVATION
 40
0.0
  9
$PELEVATION
 40
0.0
  9
$THICKNESS
 40
0.0
  9
$LIMCHECK
 70
     0
  9
$CHAMFERA
 40
10.0
  9
$CHAMFERB
 40
10.0
  9
$CHAMFERC
 40
20.0
  9
$CHAMFERD
 40
0.0
  9
$SKPOLY
 70
     0
  9
$TDCREATE
 40
2455372.607678669
  9
$TDUCREATE
 40
2455372.524345336
  9
$TDUPDATE
 40
2455372.607678681
  9
$TDUUPDATE
 40
2455372.524345347
  9
$TDINDWG
 40
0.0000000116
  9
$TDUSRTIMER
 40
0.0000000116
  9
$USRTIMER
 70
     1
  9
$ANGBASE
 50
0.0
  9
$ANGDIR
 70
     0
  9
$PDMODE
 70
     0
  9
$PDSIZE
 40
0.0
  9
$PLINEWID
 40
0.0
  9
$SPLFRAME
 70
     0
  9
$SPLINETYPE
 70
     6
  9
$SPLINESEGS
 70
     8
  9
$HANDSEED
  5
107
  9
$SURFTAB1
 70
     6
  9
$SURFTAB2
 70
     6
  9
$SURFTYPE
 70
     6
  9
$SURFU
 70
     6
  9
$SURFV
 70
     6
  9
$UCSBASE
  2

  9
$UCSNAME
  2

  9
$UCSORG
 10
0.0
 20
0.0
 30
0.0
  9
$UCSXDIR
 10
1.0
 20
0.0
 30
0.0
  9
$UCSYDIR
 10
0.0
 20
1.0
 30
0.0
  9
$UCSORTHOREF
  2

  9
$UCSORTHOVIEW
 70
     0
  9
$UCSORGTOP
 10
0.0
 20
0.0
 30
0.0
  9
$UCSORGBOTTOM
 10
0.0
 20
0.0
 30
0.0
  9
$UCSORGLEFT
 10
0.0
 20
0.0
 30
0.0
  9
$UCSORGRIGHT
 10
0.0
 20
0.0
 30
0.0
  9
$UCSORGFRONT
 10
0.0
 20
0.0
 30
0.0
  9
$UCSORGBACK
 10
0.0
 20
0.0
 30
0.0
  9
$PUCSBASE
  2

  9
$PUCSNAME
  2

  9
$PUCSORG
 10
0.0
 20
0.0
 30
0.0
  9
$PUCSXDIR
 10
1.0
 20
0.0
 30
0.0
  9
$PUCSYDIR
 10
0.0
 20
1.0
 30
0.0
  9
$PUCSORTHOREF
  2

  9
$PUCSORTHOVIEW
 70
     0
  9
$PUCSORGTOP
 10
0.0
 20
0.0
 30
0.0
  9
$PUCSORGBOTTOM
 10
0.0
 20
0.0
 30
0.0
  9
$PUCSORGLEFT
 10
0.0
 20
0.0
 30
0.0
  9
$PUCSORGRIGHT
 10
0.0
 20
0.0
 30
0.0
  9
$PUCSORGFRONT
 10
0.0
 20
0.0
 30
0.0
  9
$PUCSORGBACK
 10
0.0
 20
0.0
 30
0.0
  9
$USERI1
 70
     0
  9
$USERI2
 70
     0
  9
$USERI3
 70
     0
  9
$USERI4
 70
     0
  9
$USERI5
 70
     0
  9
$USERR1
 40
0.0
  9
$USERR2
 40
0.0
  9
$USERR3
 40
0.0
  9
$USERR4
 40
0.0
  9
$USERR5
 40
0.0
  9
$WORLDVIEW
 70
     1
  9
$SHADEDGE
 70
     3
  9
$SHADEDIF
 70
    70
  9
$TILEMODE
 70
     1
  9
$MAXACTVP
 70
    64
  9
$PINSBASE
 10
0.0
 20
0.0
 30
0.0
  9
$PLIMCHECK
 70
     0
  9
$PEXTMIN
 10
0.0
 20
0.0
 30
0.0
  9
$PEXTMAX
 10
1682.0
 20
2378.0
 30
0.0
  9
$PLIMMIN
 10
0.0
 20
0.0
  9
$PLIMMAX
 10
1682.0
 20
2378.0
  9
$UNITMODE
 70
     0
  9
$VISRETAIN
 70
     1
  9
$PLINEGEN
 70
     0
  9
$PSLTSCALE
 70
     1
  9
$TREEDEPTH
 70
  3020
  9
$CMLSTYLE
  2
Standard
  9
$CMLJUST
 70
     0
  9
$CMLSCALE
 40
20.0
  9
$PROXYGRAPHICS
 70
     1
  9
$MEASUREMENT
 70
     1
  9
$CELWEIGHT
370
    -1
  9
$ENDCAPS
280
     0
  9
$JOINSTYLE
280
     0
  9
$LWDISPLAY
290
     0
  9
$INSUNITS
 70
     4
  9
$HYPERLINKBASE
  1

  9
$STYLESHEET
  1

  9
$XEDIT
290
     1
  9
$CEPSNTYPE
380
     0
  9
$PSTYLEMODE
290
     1
  9
$FINGERPRINTGUID
  2
{B933E248-A07D-4C45-B784-B09152CA460C}
  9
$VERSIONGUID
  2
{FAEB1C32-E019-11D5-929B-00C0DF256EC4}
  9
$EXTNAMES
290
     1
  9
$PSVPSCALE
 40
0.0
  9
$OLESTARTUP
290
     0
  0
ENDSEC
  0
SECTION
  2
CLASSES
  0
CLASS
  1
ACDBDICTIONARYWDFLT
  2
AcDbDictionaryWithDefault
  3
ObjectDBX Classes
 90
        0
280
     0
281
     0
  0
CLASS
  1
VISUALSTYLE
  2
AcDbVisualStyle
  3
ObjectDBX Classes
 90
     4095
280
     0
281
     0
  0
CLASS
  1
SCALE
  2
AcDbScale
  3
ObjectDBX Classes
 90
     1153
280
     0
281
     0
  0
CLASS
  1
DICTIONARYVAR
  2
AcDbDictionaryVar
  3
ObjectDBX Classes
 90
        0
280
     0
281
     0
  0
CLASS
  1
ACDBPLACEHOLDER
  2
AcDbPlaceHolder
  3
ObjectDBX Classes
 90
        0
280
     0
281
     0
  0
CLASS
  1
LAYOUT
  2
AcDbLayout
  3
ObjectDBX Classes
 90
        0
280
     0
281
     0
  0
ENDSEC
  0
SECTION
  2
TABLES
  0
TABLE
  2
VPORT
  5
8
330
0
100
AcDbSymbolTable
 70
     1
  0
VPORT
  5
29
330
8
100
AcDbSymbolTableRecord
100
AcDbViewportTableRecord
  2
*Active
 70
     0
 10
0.0
 20
0.0
 11
1.0
 21
1.0
 12
344.1869158879
 22
148.5
 13
0.0
 23
0.0
 14
10.0
 24
10.0
 15
10.0
 25
10.0
 16
0.0
 26
0.0
 36
1.0
 17
0.0
 27
0.0
 37
0.0
 40
297.0
 41
1.9729729729
 42
50.0
 43
0.0
 44
0.0
 50
0.0
 51
0.0
 71
     0
 72
   100
 73
     1
 74
     3
 75
     0
 76
     0
 77
     0
 78
     0
281
     0
 65
     1
110
0.0
120
0.0
130
0.0
111
1.0
121
0.0
131
0.0
112
0.0
122
1.0
132
0.0
 79
     0
146
0.0
  0
ENDTAB
  0
TABLE
  2
LTYPE
  5
5
330
0
100
AcDbSymbolTable
 70
     2
  0
LTYPE
  5
14
330
5
100
AcDbSymbolTableRecord
100
AcDbLinetypeTableRecord
  2
ByBlock
 70
     0
  3

 72
    65
 73
     0
 40
0.0
  0
LTYPE
  5
15
330
5
100
AcDbSymbolTableRecord
100
AcDbLinetypeTableRecord
  2
ByLayer
 70
     0
  3

 72
    65
 73
     0
 40
0.0
  0
LTYPE
  5
16
330
5
100
AcDbSymbolTableRecord
100
AcDbLinetypeTableRecord
  2
Continuous
 70
     0
  3
Solid line
 72
    65
 73
     0
 40
0.0
  0
LTYPE
  5
60
330
5
100
AcDbSymbolTableRecord
100
AcDbLinetypeTableRecord
  2
CENTER2
 70
     0
  3
Center (.5x) ___ _ ___ _ ___ _ ___ _ ___ _ ___
 72
    65
 73
     4
 40
28.575
 49
19.05
 74
     4
 75
     0
340
0
 46
0.0
 50
0.0
 44
0.0
 45
0.0
 49
-3.175
 74
     4
 75
     0
340
0
 46
0.0
 50
0.0
 44
0.0
 45
0.0
 49
3.175
 74
     4
 75
     0
340
0
 46
0.0
 50
0.0
 44
0.0
 45
0.0
 49
-3.175
 74
     4
 75
     0
340
0
 46
0.0
 50
0.0
 44
0.0
 45
0.0
  0
ENDTAB
  0
TABLE
  2
LAYER
  5
2
330
0
100
AcDbSymbolTable
 70
    10
  0
LAYER
  5
10
330
2
100
AcDbSymbolTableRecord
100
AcDbLayerTableRecord
  2
0
 70
     0
 62
     7
  6
Continuous
370
    -3
390
F
  0
LAYER
  5
5D
330
2
100
AcDbSymbolTableRecord
100
AcDbLayerTableRecord
  2
Default
 70
     0
 62
     7
  6
Continuous
370
    -3
390
F
  0
LAYER
  5
77
330
2
100
AcDbSymbolTableRecord
100
AcDbLayerTableRecord
  2
$DDT_AUDIT_GENERATED_(77)
 70
     0
 62
     7
  6
Continuous
370
    -3
390
F
  0
LAYER
  5
7A
330
2
100
AcDbSymbolTableRecord
100
AcDbLayerTableRecord
  2
$DDT_AUDIT_GENERATED_(7A)
 70
     0
 62
     7
  6
Continuous
370
    -3
390
F
  0
LAYER
  5
7D
330
2
100
AcDbSymbolTableRecord
100
AcDbLayerTableRecord
  2
$DDT_AUDIT_GENERATED_(7D)
 70
     0
 62
     7
  6
Continuous
370
    -3
390
F
  0
LAYER
  5
80
330
2
100
AcDbSymbolTableRecord
100
AcDbLayerTableRecord
  2
$DDT_AUDIT_GENERATED_(80)
 70
     0
 62
     7
  6
Continuous
370
    -3
390
F
  0
LAYER
  5
82
330
2
100
AcDbSymbolTableRecord
100
AcDbLayerTableRecord
  2
$DDT_AUDIT_GENERATED_(82)
 70
     0
 62
     7
  6
Continuous
370
    -3
390
F
  0
LAYER
  5
87
330
2
100
AcDbSymbolTableRecord
100
AcDbLayerTableRecord
  2
$DDT_AUDIT_GENERATED_(87)
 70
     0
 62
     7
  6
Continuous
370
    -3
390
F
  0
LAYER
  5
B4
330
2
100
AcDbSymbolTableRecord
100
AcDbLayerTableRecord
  2
$DDT_AUDIT_GENERATED_(B4)
 70
     0
 62
     7
  6
Continuous
370
    -3
390
F
  0
LAYER
  5
EC
330
2
100
AcDbSymbolTableRecord
100
AcDbLayerTableRecord
  2
$DDT_AUDIT_GENERATED_(EC)
 70
     0
 62
     7
  6
Continuous
370
    -3
390
F
  0
ENDTAB
  0
TABLE
  2
STYLE
  5
3
330
0
100
AcDbSymbolTable
 70
     2
  0
STYLE
  5
11
330
3
100
AcDbSymbolTableRecord
100
AcDbTextStyleTableRecord
  2
Standard
 70
     0
 40
0.0
 41
1.0
 50
0.0
 71
     0
 42
2.5
  3
txt
  4

  0
STYLE
  5
F6
330
3
100
AcDbSymbolTableRecord
100
AcDbTextStyleTableRecord
  2
SEACAD_seiso_ttf
 70
     0
 40
0.0
 41
1.0
 50
0.0
 71
     0
 42
0.2
  3
seiso.ttf
  4

  0
ENDTAB
  0
TABLE
  2
VIEW
  5
6
330
0
100
AcDbSymbolTable
 70
     0
  0
ENDTAB
  0
TABLE
  2
UCS
  5
7
330
0
100
AcDbSymbolTable
 70
     0
  0
ENDTAB
  0
TABLE
  2
APPID
  5
9
330
0
100
AcDbSymbolTable
 70
     1
  0
APPID
  5
12
330
9
100
AcDbSymbolTableRecord
100
AcDbRegAppTableRecord
  2
ACAD
 70
     0
  0
ENDTAB
  0
TABLE
  2
DIMSTYLE
  5
A
330
0
100
AcDbSymbolTable
 70
     1
100
AcDbDimStyleTable
  0
DIMSTYLE
105
27
330
A
100
AcDbSymbolTableRecord
100
AcDbDimStyleTableRecord
  2
ISO-25
 70
     0
 41
2.5
 42
0.625
 43
3.75
 44
1.25
 73
     0
 74
     0
 77
     1
 78
     8
140
2.5
141
2.5
143
0.0393700787
147
0.625
171
     3
172
     1
271
     2
272
     2
274
     3
278
    44
283
     0
284
     8
340
11
  0
ENDTAB
  0
TABLE
  2
BLOCK_RECORD
  5
1
330
0
100
AcDbSymbolTable
 70
     7
  0
BLOCK_RECORD
  5
1F
330
1
100
AcDbSymbolTableRecord
100
AcDbBlockTableRecord
  2
*Model_Space
340
22
  0
BLOCK_RECORD
  5
1B
330
1
100
AcDbSymbolTableRecord
100
AcDbBlockTableRecord
  2
*Paper_Space
340
1E
  0
BLOCK_RECORD
  5
5E
330
1
100
AcDbSymbolTableRecord
100
AcDbBlockTableRecord
  2
SEANNOT_GROUP
340
0
102
{BLKREFS
331
5F
102
}
  0
BLOCK_RECORD
  5
69
330
1
100
AcDbSymbolTableRecord
100
AcDbBlockTableRecord
  2
SEANNOT_GROUP1
340
0
102
{BLKREFS
331
6A
102
}
  0
BLOCK_RECORD
  5
6F
330
1
100
AcDbSymbolTableRecord
100
AcDbBlockTableRecord
  2
SEANNOT_GROUP2
340
0
102
{BLKREFS
331
70
102
}
  0
BLOCK_RECORD
  5
75
330
1
100
AcDbSymbolTableRecord
100
AcDbBlockTableRecord
  2
SE
340
0
102
{BLKREFS
331
76
102
}
  0
BLOCK_RECORD
  5
92
330
1
100
AcDbSymbolTableRecord
100
AcDbBlockTableRecord
  2
SE1
340
0
102
{BLKREFS
331
93
102
}
  0
BLOCK_RECORD
  5
C3
330
1
100
AcDbSymbolTableRecord
100
AcDbBlockTableRecord
  2
SE2
340
0
102
{BLKREFS
331
C4
102
}
  0
ENDTAB
  0
ENDSEC
  0
SECTION
  2
BLOCKS
  0
BLOCK
  5
20
330
1F
100
AcDbEntity
  8
0
100
AcDbBlockBegin
  2
*Model_Space
 70
     0
 10
0.0
 20
0.0
 30
0.0
  3
*Model_Space
  1

  0
ENDBLK
  5
21
330
1F
100
AcDbEntity
  8
0
100
AcDbBlockEnd
  0
BLOCK
  5
1C
330
1B
100
AcDbEntity
 67
     1
  8
0
100
AcDbBlockBegin
  2
*Paper_Space
 70
     0
 10
0.0
 20
0.0
 30
0.0
  3
*Paper_Space
  1

  0
ENDBLK
  5
1D
330
1B
100
AcDbEntity
 67
     1
  8
0
100
AcDbBlockEnd
  0
BLOCK
  5
67
330
5E
100
AcDbEntity
  8
0
100
AcDbBlockBegin
  2
SEANNOT_GROUP
 70
     0
 10
0.0
 20
0.0
 30
0.0
  3
SEANNOT_GROUP
  1

  0
LINE
  5
61
330
5E
100
AcDbEntity
  8
Default
  6
CENTER2
 62
     7
100
AcDbLine
 10
100.1754407348
 20
359.4016081207
 30
0.0
 11
60.1754416288
 21
359.4016081207
 31
0.0
  0
LINE
  5
62
330
5E
100
AcDbEntity
  8
Default
  6
CENTER2
 62
     7
100
AcDbLine
 10
80.1754411818
 20
379.4016076736
 30
0.0
 11
80.1754411818
 21
339.4016085677
 31
0.0
  0
LINE
  5
63
330
5E
100
AcDbEntity
  8
Default
  6
CENTER2
 62
     7
100
AcDbLine
 10
105.175440623
 20
359.4016081207
 30
0.0
 11
98.6765798604
 21
359.4016081207
 31
0.0
  0
LINE
  5
64
330
5E
100
AcDbEntity
  8
Default
  6
CENTER2
 62
     7
100
AcDbLine
 10
80.1754411818
 20
384.4016075619
 30
0.0
 11
80.1754411818
 21
377.9027467992
 31
0.0
  0
LINE
  5
65
330
5E
100
AcDbEntity
  8
Default
  6
CENTER2
 62
     7
100
AcDbLine
 10
55.1754417406
 20
359.4016081207
 30
0.0
 11
61.6743025032
 21
359.4016081207
 31
0.0
  0
LINE
  5
66
330
5E
100
AcDbEntity
  8
Default
  6
CENTER2
 62
     7
100
AcDbLine
 10
80.1754411818
 20
334.4016086795
 30
0.0
 11
80.1754411818
 21
340.9004694421
 31
0.0
  0
ENDBLK
  5
68
330
5E
100
AcDbEntity
  8
0
100
AcDbBlockEnd
  0
BLOCK
  5
6D
330
69
100
AcDbEntity
  8
0
100
AcDbBlockBegin
  2
SEANNOT_GROUP1
 70
     0
 10
0.0
 20
0.0
 30
0.0
  3
SEANNOT_GROUP1
  1

  0
LINE
  5
6B
330
69
100
AcDbEntity
  8
Default
  6
CENTER2
 62
     7
100
AcDbLine
 10
248.2695330081
 20
359.4010901
 30
0.0
 11
208.2695339021
 21
359.4010901
 31
0.0
  0
LINE
  5
6C
330
69
100
AcDbEntity
  8
Default
  6
CENTER2
 62
     7
100
AcDbLine
 10
228.2695334551
 20
379.4010896529
 30
0.0
 11
228.2695334551
 21
339.401090547
 31
0.0
  0
ENDBLK
  5
6E
330
69
100
AcDbEntity
  8
0
100
AcDbBlockEnd
  0
BLOCK
  5
73
330
6F
100
AcDbEntity
  8
0
100
AcDbBlockBegin
  2
SEANNOT_GROUP2
 70
     0
 10
0.0
 20
0.0
 30
0.0
  3
SEANNOT_GROUP2
  1

  0
LINE
  5
71
330
6F
100
AcDbEntity
  8
Default
  6
CENTER2
 62
     7
100
AcDbLine
 10
100.1765781963
 20
169.0963140023
 30
0.0
 11
60.1765790903
 21
169.0963140023
 31
0.0
  0
LINE
  5
72
330
6F
100
AcDbEntity
  8
Default
  6
CENTER2
 62
     7
100
AcDbLine
 10
80.1765786433
 20
189.0963135552
 30
0.0
 11
80.1765786433
 21
149.0963144493
 31
0.0
  0
ENDBLK
  5
74
330
6F
100
AcDbEntity
  8
0
100
AcDbBlockEnd
  0
BLOCK
  5
90
330
75
100
AcDbEntity
  8
0
100
AcDbBlockBegin
  2
SE
 70
     0
 10
0.0
 20
0.0
 30
0.0
  3
SE
  1

  0
ARC
  5
78
330
75
100
AcDbEntity
  8
$DDT_AUDIT_GENERATED_(77)
  6
Continuous
 62
     7
100
AcDbCircle
 10
80.1765786433
 20
359.4010901
 30
0.0
 40
30.0
100
AcDbArc
 50
0.0
 51
262.3377443392
  0
ARC
  5
79
330
75
100
AcDbEntity
  8
$DDT_AUDIT_GENERATED_(77)
  6
Continuous
 62
     7
100
AcDbCircle
 10
80.1765786433
 20
359.4010901
 30
0.0
 40
30.0
100
AcDbArc
 50
277.6622556608
 51
0.0
  0
ARC
  5
7B
330
75
100
AcDbEntity
  8
$DDT_AUDIT_GENERATED_(7A)
  6
Continuous
 62
     7
100
AcDbCircle
 10
80.1765786433
 20
359.4010901
 30
0.0
 40
52.5
100
AcDbArc
 50
274.3696273051
 51
0.0
  0
ARC
  5
7C
330
75
100
AcDbEntity
  8
$DDT_AUDIT_GENERATED_(7A)
  6
Continuous
 62
     7
100
AcDbCircle
 10
80.1765786433
 20
359.4010901
 30
0.0
 40
52.5
100
AcDbArc
 50
0.0
 51
265.6303726949
  0
ARC
  5
7E
330
75
100
AcDbEntity
  8
$DDT_AUDIT_GENERATED_(7D)
  6
Continuous
 62
     7
100
AcDbCircle
 10
80.1754411818
 20
359.4016081207
 30
0.0
 40
15.00113867857159
100
AcDbArc
 50
0.0230798006
 51
179.9376269483
  0
ARC
  5
7F
330
75
100
AcDbEntity
  8
$DDT_AUDIT_GENERATED_(7D)
  6
Continuous
 62
     7
100
AcDbCircle
 10
80.1754455699
 20
359.4144053817
 30
0.0
 40
15.00113459402124
100
AcDbArc
 50
179.9865051828
 51
359.9742015661
  0
ARC
  5
81
330
75
100
AcDbEntity
  8
$DDT_AUDIT_GENERATED_(80)
  6
Continuous
 62
     7
100
AcDbCircle
 10
80.1765786433
 20
359.4076508569
 30
0.0
 40
15.2
100
AcDbArc
 50
100.3186654211
 51
106.4401498626
  0
LINE
  5
83
330
75
100
AcDbEntity
  8
$DDT_AUDIT_GENERATED_(82)
  6
Continuous
 62
     7
100
AcDbLine
 10
67.1765786433
 20
308.4010901
 30
0.0
 11
67.7166428489
 21
308.4010901
 31
0.0
  0
LINE
  5
84
330
75
100
AcDbEntity
  8
$DDT_AUDIT_GENERATED_(82)
  6
Continuous
 62
     7
100
AcDbLine
 10
92.6365144377
 20
308.4010901
 30
0.0
 11
93.1765786433
 21
308.4010901
 31
0.0
  0
LINE
  5
85
330
75
100
AcDbEntity
  8
$DDT_AUDIT_GENERATED_(82)
  6
Continuous
 62
     7
100
AcDbLine
 10
66.9947879099
 20
308.5828808334
 30
0.0
 11
67.1765786433
 21
308.4010901
 31
0.0
  0
LINE
  5
86
330
75
100
AcDbEntity
  8
$DDT_AUDIT_GENERATED_(82)
  6
Continuous
 62
     7
100
AcDbLine
 10
93.1765786433
 20
308.4010901
 30
0.0
 11
93.3583693767
 21
308.5828808334
 31
0.0
  0
CIRCLE
  5
88
330
75
100
AcDbEntity
  8
$DDT_AUDIT_GENERATED_(87)
  6
Continuous
 62
     7
100
AcDbCircle
 10
80.1765786433
 20
359.4076508569
 30
0.0
 40
15.2
  0
LINE
  5
89
330
75
100
AcDbEntity
  8
$DDT_AUDIT_GENERATED_(87)
  6
Continuous
 62
     7
100
AcDbLine
 10
84.1765786433
 20
268.2488443409
 30
0.0
 11
84.1765786433
 21
333.0903857066
 31
0.0
  0
LINE
  5
8A
330
75
100
AcDbEntity
  8
$DDT_AUDIT_GENERATED_(87)
  6
Continuous
 62
     7
100
AcDbLine
 10
76.1765786433
 20
333.0888241213
 30
0.0
 11
76.1765786433
 21
268.2489565021
 31
0.0
  0
CIRCLE
  5
8B
330
75
100
AcDbEntity
  8
$DDT_AUDIT_GENERATED_(87)
  6
Continuous
 62
     7
100
AcDbCircle
 10
80.1757419555
 20
359.4075774785
 30
0.0
 40
26.65734838454257
  0
ARC
  5
8C
330
75
100
AcDbEntity
  8
$DDT_AUDIT_GENERATED_(87)
  6
Continuous
 62
     7
100
AcDbCircle
 10
80.1798719014
 20
276.5141010465
 30
0.0
 40
9.532173637372583
100
AcDbArc
 50
248.2646380461
 51
269.9802049565
  0
ARC
  5
8D
330
75
100
AcDbEntity
  8
$DDT_AUDIT_GENERATED_(87)
  6
Continuous
 62
     7
100
AcDbCircle
 10
80.1899070348
 20
276.3547330539
 30
0.0
 40
9.372814552504156
100
AcDbArc
 50
269.9185238504
 51
291.9703510736
  0
SPLINE
  5
8E
330
75
100
AcDbEntity
  8
$DDT_AUDIT_GENERATED_(87)
  6
Continuous
 62
     7
100
AcDbSpline
210
0.0
220
0.0
230
1.0
 70
     8
 71
     3
 72
    13
 73
     9
 74
     0
 42
0.0000000120733201
 43
0.0000000001
 40
0.0
 40
0.0
 40
0.0
 40
0.0
 40
0.0240233213730252
 40
0.2805918121237332
 40
0.4900262631513836
 40
0.6751157874718325
 40
0.8553181651872817
 40
1.0
 40
1.0
 40
1.0
 40
1.0
 10
83.68874541461965
 20
267.6542935026313
 30
0.0
 10
83.69420029089699
 20
267.6559414328991
 30
0.0
 10
83.74908071764212
 20
267.6726230854395
 30
0.0
 10
83.83980668526222
 20
267.7193247362306
 30
0.0
 10
83.96733228587503
 20
267.8031349890924
 30
0.0
 10
84.07925752622184
 20
267.9226252207501
 30
0.0
 10
84.16274632648307
 20
268.0817825563855
 30
0.0
 10
84.16815107822293
 20
268.1910921977223
 30
0.0
 10
84.17048574037275
 20
268.2487263835568
 30
0.0
  0
SPLINE
  5
8F
330
75
100
AcDbEntity
  8
$DDT_AUDIT_GENERATED_(87)
  6
Continuous
 62
     7
100
AcDbSpline
210
0.0
220
0.0
230
1.0
 70
     8
 71
     3
 72
    13
 73
     9
 74
     0
 42
0.0000000120935808
 43
0.0000000001
 40
0.0
 40
0.0
 40
0.0
 40
0.0
 40
0.0371143698225727
 40
0.2173530139376974
 40
0.3815684799567971
 40
0.5533160624290315
 40
0.7551183803994226
 40
1.0
 40
1.0
 40
1.0
 40
1.0
 10
76.182220755959
 20
268.2492687948363
 30
0.0
 10
76.18025312343242
 20
268.2346058018271
 30
0.0
 10
76.1705725460816
 20
268.1610254962233
 30
0.0
 10
76.21840112964806
 20
268.0206333451324
 30
0.0
 10
76.30619677658777
 20
267.8820390455147
 30
0.0
 10
76.41363762913629
 20
267.7830062887465
 30
0.0
 10
76.53184346117979
 20
267.7086186834024
 30
0.0
 10
76.6103137431447
 20
267.675428154882
 30
0.0
 10
76.66104710495831
 20
267.6554834693989
 30
0.0
  0
ENDBLK
  5
91
330
75
100
AcDbEntity
  8
0
100
AcDbBlockEnd
  0
BLOCK
  5
C1
330
92
100
AcDbEntity
  8
0
100
AcDbBlockBegin
  2
SE1
 70
     0
 10
0.0
 20
0.0
 30
0.0
  3
SE1
  1

  0
LINE
  5
94
330
92
100
AcDbEntity
  8
$DDT_AUDIT_GENERATED_(77)
  6
Continuous
 62
     7
100
AcDbLine
 10
50.1765786433
 20
158.7963140023
 30
0.0
 11
110.1765786433
 21
158.7963140023
 31
0.0
  0
LINE
  5
95
330
92
100
AcDbEntity
  8
$DDT_AUDIT_GENERATED_(77)
  6
Continuous
 62
     7
100
AcDbLine
 10
50.1765786433
 20
158.7963140023
 30
0.0
 11
52.456579417
 21
157.9444455813
 31
0.0
  0
LINE
  5
96
330
92
100
AcDbEntity
  8
$DDT_AUDIT_GENERATED_(77)
  6
Continuous
 62
     7
100
AcDbLine
 10
107.8965778696
 20
157.9444455813
 30
0.0
 11
110.1765786433
 21
158.7963140023
 31
0.0
  0
LINE
  5
97
330
92
100
AcDbEntity
  8
$DDT_AUDIT_GENERATED_(77)
  6
Continuous
 62
     7
100
AcDbLine
 10
110.1765786433
 20
158.7963140023
 30
0.0
 11
110.1765786433
 21
159.0963140023
 31
0.0
  0
LINE
  5
98
330
92
100
AcDbEntity
  8
$DDT_AUDIT_GENERATED_(77)
  6
Continuous
 62
     7
100
AcDbLine
 10
50.1765786433
 20
159.0963140023
 30
0.0
 11
50.1765786433
 21
158.7963140023
 31
0.0
  0
LINE
  5
99
330
92
100
AcDbEntity
  8
$DDT_AUDIT_GENERATED_(7A)
  6
Continuous
 62
     7
100
AcDbLine
 10
132.6765786433
 20
169.0963140023
 30
0.0
 11
27.6765786433
 21
169.0963140023
 31
0.0
  0
LINE
  5
9A
330
92
100
AcDbEntity
  8
$DDT_AUDIT_GENERATED_(7A)
  6
Continuous
 62
     7
100
AcDbLine
 10
29.1765786433
 20
159.0963140023
 30
0.0
 11
131.1765786433
 21
159.0963140023
 31
0.0
  0
LINE
  5
9B
330
92
100
AcDbEntity
  8
$DDT_AUDIT_GENERATED_(7A)
  6
Continuous
 62
     7
100
AcDbLine
 10
132.6765786433
 20
160.5963140023
 30
0.0
 11
132.6765786433
 21
169.0963140023
 31
0.0
  0
LINE
  5
9C
330
92
100
AcDbEntity
  8
$DDT_AUDIT_GENERATED_(7A)
  6
Continuous
 62
     7
100
AcDbLine
 10
27.6765786433
 20
169.0963140023
 30
0.0
 11
27.6765786433
 21
160.5963140023
 31
0.0
  0
ARC
  5
9D
330
92
100
AcDbEntity
  8
$DDT_AUDIT_GENERATED_(7A)
  6
Continuous
 62
     7
100
AcDbCircle
 10
29.1765786433
 20
160.5963140023
 30
0.0
 40
1.500000000000001
100
AcDbArc
 50
180.0
 51
270.0
  0
ARC
  5
9E
330
92
100
AcDbEntity
  8
$DDT_AUDIT_GENERATED_(7A)
  6
Continuous
 62
     7
100
AcDbCircle
 10
131.1765786433
 20
160.5963140023
 30
0.0
 40
1.500000000000001
100
AcDbArc
 50
270.0
 51
0.0
  0
ARC
  5
9F
330
92
100
AcDbEntity
  8
$DDT_AUDIT_GENERATED_(7D)
  6
Continuous
 62
     7
100
AcDbCircle
 10
87.5880184998
 20
-2657.7914464869
 30
0.0
 40
2761.904210208912
100
AcDbArc
 50
89.8514379916
 51
89.8572826324
  0
ARC
  5
A0
330
92
100
AcDbEntity
  8
$DDT_AUDIT_GENERATED_(7D)
  6
Continuous
 62
     7
100
AcDbCircle
 10
72.5801886258
 20
-4304.242289207
 30
0.0
 40
4408.35165377044
100
AcDbArc
 50
90.0874998212
 51
90.0907000421
  0
ARC
  5
A1
330
92
100
AcDbEntity
  8
$DDT_AUDIT_GENERATED_(7D)
  6
Continuous
 62
     7
100
AcDbCircle
 10
65.6744598842
 20
104.598669926
 30
0.0
 40
0.5001485033258531
100
AcDbArc
 50
218.2498562306
 51
261.6359965278
  0
ARC
  5
A2
330
92
100
AcDbEntity
  8
$DDT_AUDIT_GENERATED_(7D)
  6
Continuous
 62
     7
100
AcDbCircle
 10
72.6918649372
 20
-2724.7730661872
 30
0.0
 40
2828.885793044268
100
AcDbArc
 50
90.1435993229
 51
90.1436032724
  0
SPLINE
  5
A3
330
92
100
AcDbEntity
  8
$DDT_AUDIT_GENERATED_(7D)
  6
Continuous
 62
     7
100
AcDbSpline
210
0.0
220
0.0
230
1.0
 70
     8
 71
     3
 72
     8
 73
     4
 74
     0
 42
0.0000000137206003
 43
0.0000000001
 40
0.4671987266780386
 40
0.4671987266780386
 40
0.4671987266780386
 40
0.4671987266780386
 40
1.0
 40
1.0
 40
1.0
 40
1.0
 10
95.06956774969055
 20
104.28902605778
 30
0.0
 10
94.99279501267361
 20
104.1914649356135
 30
0.0
 10
94.88008950562025
 20
104.1227113493379
 30
0.0
 10
94.74934137831582
 20
104.1034794333993
 30
0.0
  0
SPLINE
  5
A4
330
92
100
AcDbEntity
  8
$DDT_AUDIT_GENERATED_(7D)
  6
Continuous
 62
     7
100
AcDbSpline
210
0.0
220
0.0
230
1.0
 70
     8
 71
     3
 72
    18
 73
    14
 74
     0
 42
0.0000000006837742
 43
0.0000000001
 40
0.0
 40
0.0
 40
0.0
 40
0.0
 40
0.1214420319387815
 40
0.2259538729456276
 40
0.3136821769774002
 40
0.3926013528899481
 40
0.4686606576927991
 40
0.5298704924068305
 40
0.5915140258340341
 40
0.6685200239455268
 40
0.7634534714296143
 40
0.8763119743280113
 40
1.0
 40
1.0
 40
1.0
 40
1.0
 10
80.17657864329435
 20
103.0421678765723
 30
0.0
 10
80.82777215620395
 20
103.0449974505221
 30
0.0
 10
81.84639855502455
 20
103.0506257678923
 30
0.0
 10
83.4036728844018
 20
103.0902327930427
 30
0.0
 10
84.71855765104368
 20
103.1414202760825
 30
0.0
 10
85.90153021751608
 20
103.2018916798956
 30
0.0
 10
86.95302218855358
 20
103.2675811582865
 30
0.0
 10
87.92027675520242
 20
103.3377605963569
 30
0.0
 10
88.89105309857105
 20
103.4169857574346
 30
0.0
 10
90.0262571628368
 20
103.5212612444484
 30
0.0
 10
91.40052808817043
 20
103.6651438207326
 30
0.0
 10
93.03599575451683
 20
103.8605565807793
 30
0.0
 10
94.09265822098959
 20
104.0104535812074
 30
0.0
 10
94.74921151153995
 20
104.1044179466148
 30
0.0
  0
SPLINE
  5
A5
330
92
100
AcDbEntity
  8
$DDT_AUDIT_GENERATED_(7D)
  6
Continuous
 62
     7
100
AcDbSpline
210
0.0
220
0.0
230
1.0
 70
     8
 71
     3
 72
    18
 73
    14
 74
     0
 42
0.0000000006837327
 43
0.0000000001
 40
0.0
 40
0.0
 40
0.0
 40
0.0
 40
0.12359173025862
 40
0.2364626540784012
 40
0.3314065315806191
 40
0.4084209849898812
 40
0.4700712833996679
 40
0.5312878303608953
 40
0.6073554772060032
 40
0.6862833135778196
 40
0.7740212527259638
 40
0.8785445851051176
 40
1.0
 40
1.0
 40
1.0
 40
1.0
 10
65.60306930815482
 20
104.1045611350562
 30
0.0
 10
66.25914916869405
 20
104.0106494799831
 30
0.0
 10
67.31551028913968
 20
103.8607702910852
 30
0.0
 10
68.95072483886064
 20
103.6653574468844
 30
0.0
 10
70.32522475505898
 20
103.5214251918038
 30
0.0
 10
71.46062134881028
 20
103.417114085089
 30
0.0
 10
72.43156194768997
 20
103.3378617834555
 30
0.0
 10
73.39898050404058
 20
103.2676583235511
 30
0.0
 10
74.45065095600445
 20
103.2019463545028
 30
0.0
 10
75.63382466566837
 20
103.1414542478705
 30
0.0
 10
76.94893337946527
 20
103.0902492402553
 30
0.0
 10
78.50647343760801
 20
103.0506286592616
 30
0.0
 10
79.52527383098999
 20
103.0449984171987
 30
0.0
 10
80.17657864329435
 20
103.0421678765723
 30
0.0
  0
ARC
  5
A6
330
92
100
AcDbEntity
  8
$DDT_AUDIT_GENERATED_(7D)
  6
Continuous
 62
     7
100
AcDbCircle
 10
65.9255425532
 20
104.5966460337
 30
0.0
 40
0.4976766939972781
100
AcDbArc
 50
218.1894297313
 51
261.7659720716
  0
ARC
  5
A7
330
92
100
AcDbEntity
  8
$DDT_AUDIT_GENERATED_(87)
  6
Continuous
 62
     7
100
AcDbCircle
 10
80.176573772
 20
-77959.0170526649
 30
0.0
 40
78066.37061126463
100
AcDbArc
 50
89.9804973488
 51
89.9804974324
  0
ARC
  5
A8
330
92
100
AcDbEntity
  8
$DDT_AUDIT_GENERATED_(87)
  6
Continuous
 62
     7
100
AcDbCircle
 10
80.176574383
 20
2803.4060306472
 30
0.0
 40
2699.1636978538
100
AcDbArc
 50
269.6652600253
 51
269.9300801212
  0
ARC
  5
A9
330
92
100
AcDbEntity
  8
$DDT_AUDIT_GENERATED_(87)
  6
Continuous
 62
     7
100
AcDbCircle
 10
80.176574383
 20
2803.4060306472
 30
0.0
 40
2699.1636978538
100
AcDbArc
 50
270.0057389904
 51
270.3349428806
  0
LINE
  5
AA
330
92
100
AcDbEntity
  8
$DDT_AUDIT_GENERATED_(87)
  6
Continuous
 62
     7
100
AcDbLine
 10
55.334214149
 20
115.0485251011
 30
0.0
 11
55.4254314635
 21
112.9248485809
 31
0.0
  0
LINE
  5
AB
330
92
100
AcDbEntity
  8
$DDT_AUDIT_GENERATED_(87)
  6
Continuous
 62
     7
100
AcDbLine
 10
104.9277258231
 20
112.9248485809
 30
0.0
 11
105.0148024518
 21
114.9521236975
 31
0.0
  0
SPLINE
  5
AC
330
92
100
AcDbEntity
  8
$DDT_AUDIT_GENERATED_(87)
  6
Continuous
 62
     7
100
AcDbSpline
210
0.0
220
0.0
230
1.0
 70
     8
 71
     3
 72
    11
 73
     7
 74
     0
 42
0.0000000016511647
 43
0.0000000001
 40
0.0
 40
0.0
 40
0.0
 40
0.0
 40
0.2516260621436735
 40
0.4966085856094626
 40
0.743329375625226
 40
1.0
 40
1.0
 40
1.0
 40
1.0
 10
55.42543146348102
 20
112.9248485808993
 30
0.0
 10
55.4271023460676
 20
112.3687506367969
 30
0.0
 10
55.41630065968113
 20
111.4379109662178
 30
0.0
 10
55.0735169546884
 20
109.952262543534
 30
0.0
 10
54.46171872548333
 20
108.5452891643922
 30
0.0
 10
53.91548474888427
 20
107.7764010679605
 30
0.0
 10
53.580148526391
 20
107.3188848057497
 30
0.0
  0
SPLINE
  5
AD
330
92
100
AcDbEntity
  8
$DDT_AUDIT_GENERATED_(87)
  6
Continuous
 62
     7
100
AcDbSpline
210
0.0
220
0.0
230
1.0
 70
     8
 71
     3
 72
    11
 73
     7
 74
     0
 42
0.0000000016511647
 43
0.0000000001
 40
0.0
 40
0.0
 40
0.0
 40
0.0
 40
0.2566706243747709
 40
0.5033914143905359
 40
0.7483739378563247
 40
1.0
 40
1.0
 40
1.0
 40
1.0
 10
106.7730087601977
 20
107.3188848057496
 30
0.0
 10
106.4376725377044
 20
107.7764010679605
 30
0.0
 10
105.8914385611054
 20
108.5452891643922
 30
0.0
 10
105.2796403319004
 20
109.952262543534
 30
0.0
 10
104.9368566269076
 20
111.4379109662177
 30
0.0
 10
104.9260549405211
 20
112.3687506367969
 30
0.0
 10
104.9277258231077
 20
112.9248485808993
 30
0.0
  0
ARC
  5
AE
330
92
100
AcDbEntity
  8
$DDT_AUDIT_GENERATED_(87)
  6
Continuous
 62
     7
100
AcDbCircle
 10
53.997412704
 20
107.0402191179
 30
0.0
 40
0.5000042912002532
100
AcDbArc
 50
141.1324677631
 51
257.0509673188
  0
ARC
  5
AF
330
92
100
AcDbEntity
  8
$DDT_AUDIT_GENERATED_(87)
  6
Continuous
 62
     7
100
AcDbCircle
 10
106.3558874836
 20
107.0402168669
 30
0.0
 40
0.5000018619818979
100
AcDbArc
 50
284.5460814341
 51
38.9574033221
  0
SPLINE
  5
B0
330
92
100
AcDbEntity
  8
$DDT_AUDIT_GENERATED_(87)
  6
Continuous
 62
     7
100
AcDbSpline
210
0.0
220
0.0
230
1.0
 70
     8
 71
     3
 72
     8
 73
     4
 74
     0
 42
0.0000000009160017
 43
0.0000000001
 40
0.0
 40
0.0
 40
0.0
 40
0.0
 40
1.0
 40
1.0
 40
1.0
 40
1.0
 10
95.8884339704888
 20
104.2777835934748
 30
0.0
 10
99.4762847764888
 20
104.8485350016839
 30
0.0
 10
103.0301568306612
 20
105.6142262627982
 30
0.0
 10
106.5500501330061
 20
106.5748573768176
 30
0.0
  0
SPLINE
  5
B1
330
92
100
AcDbEntity
  8
$DDT_AUDIT_GENERATED_(87)
  6
Continuous
 62
     7
100
AcDbSpline
210
0.0
220
0.0
230
1.0
 70
     8
 71
     3
 72
     8
 73
     4
 74
     0
 42
0.0000000009233661
 43
0.0000000001
 40
0.0
 40
0.0
 40
0.0
 40
0.0
 40
1.0
 40
1.0
 40
1.0
 40
1.0
 10
53.88764363162704
 20
106.5542292241452
 30
0.0
 10
57.35134561590194
 20
105.6081224524141
 30
0.0
 10
60.87703884406046
 20
104.8493072421905
 30
0.0
 10
64.46472331610259
 20
104.2777835934747
 30
0.0
  0
ARC
  5
B2
330
92
100
AcDbEntity
  8
$DDT_AUDIT_GENERATED_(87)
  6
Continuous
 62
     7
100
AcDbCircle
 10
64.4947582062
 20
104.7684613152
 30
0.0
 40
0.4852225803803548
100
AcDbArc
 50
269.9465888937
 51
270.895125179
  0
SPLINE
  5
B3
330
92
100
AcDbEntity
  8
$DDT_AUDIT_GENERATED_(87)
  6
Continuous
 62
     7
100
AcDbSpline
210
0.0
220
0.0
230
1.0
 70
     8
 71
     3
 72
    11
 73
     7
 74
     0
 42
0.0000000028182331
 43
0.0000000001
 40
0.0
 40
0.0
 40
0.0
 40
0.0
 40
0.1577785546228986
 40
0.4576949729505644
 40
0.7590843659596358
 40
1.0
 40
1.0
 40
1.0
 40
1.0
 10
76.8949683339458
 20
104.2839737879103
 30
0.0
 10
77.09742202786352
 20
104.2838409967223
 30
0.0
 10
77.5974055414609
 20
104.2835197419635
 30
0.0
 10
78.51025115961568
 20
104.2832002633591
 30
0.0
 10
79.5260757207099
 20
104.2831045288256
 30
0.0
 10
80.12783076588192
 20
104.2831859356991
 30
0.0
 10
80.4432906594882
 20
104.2832341062584
 30
0.0
  0
LINE
  5
B5
330
92
100
AcDbEntity
  8
$DDT_AUDIT_GENERATED_(B4)
  6
Continuous
 62
     7
100
AcDbLine
 10
52.8683453503
 20
141.012630405
 30
0.0
 11
107.4848119363
 21
141.012630405
 31
0.0
  0
LINE
  5
B6
330
92
100
AcDbEntity
  8
$DDT_AUDIT_GENERATED_(B4)
  6
Continuous
 62
     7
100
AcDbLine
 10
59.1276227574
 20
98.5963140023
 30
0.0
 11
101.2255345292
 21
98.5963140023
 31
0.0
  0
LINE
  5
B7
330
92
100
AcDbEntity
  8
$DDT_AUDIT_GENERATED_(B4)
  6
Continuous
 62
     7
100
AcDbLine
 10
52.868345353
 20
141.012630405
 30
0.0
 11
55.0673034211
 21
115.8784246454
 31
0.0
  0
LINE
  5
B8
330
92
100
AcDbEntity
  8
$DDT_AUDIT_GENERATED_(B4)
  6
Continuous
 62
     7
100
AcDbLine
 10
105.2858538655
 20
115.8784246454
 30
0.0
 11
107.4848119336
 21
141.012630405
 31
0.0
  0
ARC
  5
B9
330
92
100
AcDbEntity
  8
$DDT_AUDIT_GENERATED_(B4)
  6
Continuous
 62
     7
100
AcDbCircle
 10
59.1276227574
 20
101.0963140023
 30
0.0
 40
2.500000000000004
100
AcDbArc
 50
185.0608996184
 51
270.0
  0
ARC
  5
BA
330
92
100
AcDbEntity
  8
$DDT_AUDIT_GENERATED_(B4)
  6
Continuous
 62
     7
100
AcDbCircle
 10
101.2255345292
 20
101.0963140023
 30
0.0
 40
2.500000000000002
100
AcDbArc
 50
270.0
 51
354.940777594
  0
LINE
  5
BB
330
92
100
AcDbEntity
  8
$DDT_AUDIT_GENERATED_(B4)
  6
Continuous
 62
     7
100
AcDbLine
 10
56.1841109447
 20
105.9938571879
 30
0.0
 11
56.6374216536
 21
100.8707004908
 31
0.0
  0
LINE
  5
BC
330
92
100
AcDbEntity
  8
$DDT_AUDIT_GENERATED_(B4)
  6
Continuous
 62
     7
100
AcDbLine
 10
103.7153530863
 20
100.8706566386
 30
0.0
 11
104.168969838
 21
105.9938385198
 31
0.0
  0
ARC
  5
BD
330
92
100
AcDbEntity
  8
$DDT_AUDIT_GENERATED_(B4)
  6
Continuous
 62
     7
100
AcDbCircle
 10
57.5577901663
 20
116.0963140023
 30
0.0
 40
2.499999999999964
100
AcDbArc
 50
185.0
 51
205.2358126619
  0
ARC
  5
BE
330
92
100
AcDbEntity
  8
$DDT_AUDIT_GENERATED_(B4)
  6
Continuous
 62
     7
100
AcDbCircle
 10
102.7953671203
 20
116.0963140023
 30
0.0
 40
2.500000000000002
100
AcDbArc
 50
332.7193189838
 51
355.0
  0
LINE
  5
BF
330
92
100
AcDbEntity
  8
$DDT_AUDIT_GENERATED_(B4)
  6
Continuous
 62
     7
100
AcDbLine
 10
52.456579417
 20
157.9444455813
 30
0.0
 11
52.8683453498
 21
141.012630405
 31
0.0
  0
LINE
  5
C0
330
92
100
AcDbEntity
  8
$DDT_AUDIT_GENERATED_(B4)
  6
Continuous
 62
     7
100
AcDbLine
 10
107.4848119368
 20
141.012630405
 30
0.0
 11
107.8965778696
 21
157.9444455813
 31
0.0
  0
ENDBLK
  5
C2
330
92
100
AcDbEntity
  8
0
100
AcDbBlockEnd
  0
BLOCK
  5
F4
330
C3
100
AcDbEntity
  8
0
100
AcDbBlockBegin
  2
SE2
 70
     0
 10
0.0
 20
0.0
 30
0.0
  3
SE2
  1

  0
LINE
  5
C5
330
C3
100
AcDbEntity
  8
$DDT_AUDIT_GENERATED_(77)
  6
Continuous
 62
     7
100
AcDbLine
 10
238.5695334551
 20
329.4010901
 30
0.0
 11
238.5695334551
 21
389.4010901
 31
0.0
  0
LINE
  5
C6
330
C3
100
AcDbEntity
  8
$DDT_AUDIT_GENERATED_(77)
  6
Continuous
 62
     7
100
AcDbLine
 10
238.5695334551
 20
329.4010901
 30
0.0
 11
240.023776804
 21
333.2933296513
 31
0.0
  0
LINE
  5
C7
330
C3
100
AcDbEntity
  8
$DDT_AUDIT_GENERATED_(77)
  6
Continuous
 62
     7
100
AcDbLine
 10
240.0237772736
 20
385.5088492917
 30
0.0
 11
238.5695334551
 21
389.4010901
 31
0.0
  0
LINE
  5
C8
330
C3
100
AcDbEntity
  8
$DDT_AUDIT_GENERATED_(77)
  6
Continuous
 62
     7
100
AcDbLine
 10
238.5695334551
 20
389.4010901
 30
0.0
 11
238.2695334551
 21
389.4010901
 31
0.0
  0
LINE
  5
C9
330
C3
100
AcDbEntity
  8
$DDT_AUDIT_GENERATED_(77)
  6
Continuous
 62
     7
100
AcDbLine
 10
238.2695334551
 20
329.4010901
 30
0.0
 11
238.5695334551
 21
329.4010901
 31
0.0
  0
LINE
  5
CA
330
C3
100
AcDbEntity
  8
$DDT_AUDIT_GENERATED_(7A)
  6
Continuous
 62
     7
100
AcDbLine
 10
228.2695334551
 20
306.9010901
 30
0.0
 11
228.2695334551
 21
411.9010901
 31
0.0
  0
LINE
  5
CB
330
C3
100
AcDbEntity
  8
$DDT_AUDIT_GENERATED_(7A)
  6
Continuous
 62
     7
100
AcDbLine
 10
238.2695334551
 20
308.4010901
 30
0.0
 11
238.2695334551
 21
410.4010901
 31
0.0
  0
LINE
  5
CC
330
C3
100
AcDbEntity
  8
$DDT_AUDIT_GENERATED_(7A)
  6
Continuous
 62
     7
100
AcDbLine
 10
236.7695334551
 20
411.9010901
 30
0.0
 11
228.2695334551
 21
411.9010901
 31
0.0
  0
LINE
  5
CD
330
C3
100
AcDbEntity
  8
$DDT_AUDIT_GENERATED_(7A)
  6
Continuous
 62
     7
100
AcDbLine
 10
228.2695334551
 20
306.9010901
 30
0.0
 11
236.7695334551
 21
306.9010901
 31
0.0
  0
ARC
  5
CE
330
C3
100
AcDbEntity
  8
$DDT_AUDIT_GENERATED_(7A)
  6
Continuous
 62
     7
100
AcDbCircle
 10
236.7695334551
 20
308.4010901
 30
0.0
 40
1.500000000000001
100
AcDbArc
 50
270.0
 51
0.0
  0
ARC
  5
CF
330
C3
100
AcDbEntity
  8
$DDT_AUDIT_GENERATED_(7A)
  6
Continuous
 62
     7
100
AcDbCircle
 10
236.7695334551
 20
410.4010901
 30
0.0
 40
1.500000000000001
100
AcDbArc
 50
0.0
 51
90.0
  0
SPLINE
  5
D0
330
C3
100
AcDbEntity
  8
$DDT_AUDIT_GENERATED_(7D)
  6
Continuous
 62
     7
100
AcDbSpline
210
0.0
220
0.0
230
1.0
 70
     8
 71
     2
 72
     6
 73
     3
 74
     0
 42
0.0000000006827957
 43
0.0000000001
 40
0.0
 40
0.0
 40
0.0
 40
1.0
 40
1.0
 40
1.0
 10
293.2630278781344
 20
373.9757550937804
 30
0.0
 10
294.3236795807944
 20
366.7627166431685
 30
0.0
 10
294.3236795807944
 20
359.4076508568601
 30
0.0
  0
SPLINE
  5
D1
330
C3
100
AcDbEntity
  8
$DDT_AUDIT_GENERATED_(7D)
  6
Continuous
 62
     7
100
AcDbSpline
210
0.0
220
0.0
230
1.0
 70
     8
 71
     2
 72
     6
 73
     3
 74
     0
 42
0.0000000006827931
 43
0.0000000001
 40
0.0
 40
0.0
 40
0.0
 40
1.0
 40
1.0
 40
1.0
 10
294.3236795807944
 20
359.4076508568601
 30
0.0
 10
294.3236795807944
 20
352.0525575507626
 30
0.0
 10
293.2630222084344
 20
344.8394923097744
 30
0.0
  0
ARC
  5
D2
330
C3
100
AcDbEntity
  8
$DDT_AUDIT_GENERATED_(7D)
  6
Continuous
 62
     7
100
AcDbCircle
 10
292.768257949
 20
373.9030204245
 30
0.0
 40
0.5001010349675529
100
AcDbArc
 50
7.6654110968
 51
51.8574871093
  0
ARC
  5
D3
330
C3
100
AcDbEntity
  8
$DDT_AUDIT_GENERATED_(7D)
  6
Continuous
 62
     7
100
AcDbCircle
 10
292.768302588
 20
344.9121393874
 30
0.0
 40
0.5000028481897522
100
AcDbArc
 50
308.1377693278
 51
351.6461028293
  0
LINE
  5
D4
330
C3
100
AcDbEntity
  8
$DDT_AUDIT_GENERATED_(87)
  6
Continuous
 62
     7
100
AcDbLine
 10
290.8080902772
 20
338.5063252688
 30
0.0
 11
290.8080902771
 21
385.1868577307
 31
0.0
  0
ARC
  5
D5
330
C3
100
AcDbEntity
  8
$DDT_AUDIT_GENERATED_(87)
  6
Continuous
 62
     7
100
AcDbCircle
 10
264.3236380813
 20
358.5549189662
 30
0.0
 40
2.999957213146364
100
AcDbArc
 50
147.9701427154
 51
179.9999042694
  0
LINE
  5
D6
330
C3
100
AcDbEntity
  8
$DDT_AUDIT_GENERATED_(87)
  6
Continuous
 62
     7
100
AcDbLine
 10
261.3236796828
 20
333.9026790195
 30
0.0
 11
261.3236808682
 21
358.5549239786
 31
0.0
  0
LINE
  5
D7
330
C3
100
AcDbEntity
  8
$DDT_AUDIT_GENERATED_(87)
  6
Continuous
 62
     7
100
AcDbLine
 10
261.7803588471
 20
360.1459796242
 30
0.0
 11
276.8969257129
 21
384.3095312513
 31
0.0
  0
SPLINE
  5
D8
330
C3
100
AcDbEntity
  8
$DDT_AUDIT_GENERATED_(87)
  6
Continuous
 62
     7
100
AcDbSpline
210
0.0
220
0.0
230
1.0
 70
     8
 71
     3
 72
    10
 73
     6
 74
     0
 42
0.0000000004883431
 43
0.0000000001
 40
0.0299196885888214
 40
0.0299196885888214
 40
0.0299196885888214
 40
0.0299196885888214
 40
0.0312499999999999
 40
0.0312499999999999
 40
0.036523684211023
 40
0.036523684211023
 40
0.036523684211023
 40
0.036523684211023
 10
293.0758574578508
 20
374.9089545381708
 30
0.0
 10
293.0758256747187
 20
374.9007816841186
 30
0.0
 10
293.0757941032185
 20
374.8924307078004
 30
0.0
 10
293.0756388304018
 20
374.850091724737
 30
0.0
 10
293.0755195162565
 20
374.8133487706787
 30
0.0
 10
293.0754068394911
 20
374.7737225979585
 30
0.0
  0
SPLINE
  5
D9
330
C3
100
AcDbEntity
  8
$DDT_AUDIT_GENERATED_(87)
  6
Continuous
 62
     7
100
AcDbSpline
210
0.0
220
0.0
230
1.0
 70
     8
 71
     3
 72
    28
 73
    24
 74
     0
 42
0.000000000158422
 43
0.0000000001
 40
0.50005676123673
 40
0.50005676123673
 40
0.50005676123673
 40
0.50005676123673
 40
0.5624999999999998
 40
0.5624999999999998
 40
0.6249999999999998
 40
0.6249999999999998
 40
0.6562499999999998
 40
0.6562499999999998
 40
0.6874999999999999
 40
0.6874999999999999
 40
0.7187499999999999
 40
0.7187499999999999
 40
0.7499999999999999
 40
0.7499999999999999
 40
0.8124999999999999
 40
0.8124999999999999
 40
0.84375
 40
0.84375
 40
0.875
 40
0.875
 40
0.9375
 40
0.9375
 40
1.0
 40
1.0
 40
1.0
 40
1.0
 10
293.0773941625527
 20
343.6288203152532
 30
0.0
 10
293.0773955270952
 20
343.6288431498571
 30
0.0
 10
293.074465366271
 20
344.0412404198353
 30
0.0
 10
293.0744522449504
 20
345.6111448289734
 30
0.0
 10
293.0773757786804
 20
346.7860594190177
 30
0.0
 10
293.0774032494984
 20
348.9662692984285
 30
0.0
 10
293.0765046275687
 20
349.7769399144175
 30
0.0
 10
293.0750284300148
 20
351.4928111943345
 30
0.0
 10
293.0744647032819
 20
352.3986518514795
 30
0.0
 10
293.0744529842614
 20
354.3063729475572
 30
0.0
 10
293.0750189698787
 20
355.3098815584347
 30
0.0
 10
293.0764870577593
 20
357.3269484702626
 30
0.0
 10
293.0773843500957
 20
358.351156336641
 30
0.0
 10
293.0774135559688
 20
361.4724397836466
 30
0.0
 10
293.0744662394182
 20
363.5211356741732
 30
0.0
 10
293.074455099555
 20
366.3925508843627
 30
0.0
 10
293.0750115493659
 20
367.2993826096566
 30
0.0
 10
293.076480783826
 20
369.0140388306122
 30
0.0
 10
293.0773865437032
 20
369.8270528077963
 30
0.0
 10
293.0774092553929
 20
372.0140419430018
 30
0.0
 10
293.0744697903817
 20
373.1903755798733
 30
0.0
 10
293.0744478850448
 20
374.767666194454
 30
0.0
 10
293.0773941606432
 20
375.1864814236704
 30
0.0
 10
293.0773941606432
 20
375.1864814236704
 30
0.0
  0
LINE
  5
DA
330
C3
100
AcDbEntity
  8
$DDT_AUDIT_GENERATED_(87)
  6
Continuous
 62
     7
100
AcDbLine
 10
261.4681034755
 20
333.6697593197
 30
0.0
 11
272.5217840591
 21
334.1445430487
 31
0.0
  0
LINE
  5
DB
330
C3
100
AcDbEntity
  8
$DDT_AUDIT_GENERATED_(87)
  6
Continuous
 62
     7
100
AcDbLine
 10
284.4409988765
 20
384.1587980367
 30
0.0
 11
277.1154156831
 21
384.4734504892
 31
0.0
  0
LINE
  5
DC
330
C3
100
AcDbEntity
  8
$DDT_AUDIT_GENERATED_(87)
  6
Continuous
 62
     7
100
AcDbLine
 10
290.4548535073
 20
268.7331441902
 30
0.0
 11
282.6352677782
 21
332.4185592912
 31
0.0
  0
LINE
  5
DD
330
C3
100
AcDbEntity
  8
$DDT_AUDIT_GENERATED_(87)
  6
Continuous
 62
     7
100
AcDbLine
 10
274.5787427346
 20
332.3896178668
 30
0.0
 11
282.51368254
 21
267.7647192069
 31
0.0
  0
SPLINE
  5
DE
330
C3
100
AcDbEntity
  8
$DDT_AUDIT_GENERATED_(87)
  6
Continuous
 62
     7
100
AcDbSpline
210
0.0
220
0.0
230
1.0
 70
     8
 71
     3
 72
    11
 73
     7
 74
     0
 42
0.0000000016511647
 43
0.0000000001
 40
0.0
 40
0.0
 40
0.0
 40
0.0
 40
0.2516260621436735
 40
0.496608585609465
 40
0.7433293756252283
 40
1.0
 40
1.0
 40
1.0
 40
1.0
 10
284.4409988764674
 20
334.6565036770468
 30
0.0
 10
284.9970968205699
 20
334.6581745596333
 30
0.0
 10
285.9279364911491
 20
334.6473728732469
 30
0.0
 10
287.4135849138327
 20
334.3045891682541
 30
0.0
 10
288.8205582929745
 20
333.6927909390491
 30
0.0
 10
289.5894463894062
 20
333.14655696245
 30
0.0
 10
290.046962651617
 20
332.8112207399568
 30
0.0
  0
SPLINE
  5
DF
330
C3
100
AcDbEntity
  8
$DDT_AUDIT_GENERATED_(87)
  6
Continuous
 62
     7
100
AcDbSpline
210
0.0
220
0.0
230
1.0
 70
     8
 71
     3
 72
    11
 73
     7
 74
     0
 42
0.0000000016511647
 43
0.0000000001
 40
0.0
 40
0.0
 40
0.0
 40
0.0
 40
0.2566706243747722
 40
0.5033914143905359
 40
0.7483739378563271
 40
1.0
 40
1.0
 40
1.0
 40
1.0
 10
290.046962651617
 20
386.0040809737635
 30
0.0
 10
289.5894463894062
 20
385.6687447512701
 30
0.0
 10
288.8205582929745
 20
385.1225107746711
 30
0.0
 10
287.4135849138325
 20
384.510712545466
 30
0.0
 10
285.927936491149
 20
384.1679288404732
 30
0.0
 10
284.9970968205698
 20
384.1571271540868
 30
0.0
 10
284.4409988764673
 20
384.1587980366734
 30
0.0
  0
ARC
  5
E0
330
C3
100
AcDbEntity
  8
$DDT_AUDIT_GENERATED_(87)
  6
Continuous
 62
     7
100
AcDbCircle
 10
290.3256308085
 20
333.2283169497
 30
0.0
 40
0.5000015613646678
100
AcDbArc
 50
230.1961076273
 51
347.3916838782
  0
ARC
  5
E1
330
C3
100
AcDbEntity
  8
$DDT_AUDIT_GENERATED_(87)
  6
Continuous
 62
     7
100
AcDbCircle
 10
290.325631155
 20
385.5869889868
 30
0.0
 40
0.5000013058903309
100
AcDbArc
 50
17.6159261963
 51
133.8957575405
  0
SPLINE
  5
E2
330
C3
100
AcDbEntity
  8
$DDT_AUDIT_GENERATED_(87)
  6
Continuous
 62
     7
100
AcDbSpline
210
0.0
220
0.0
230
1.0
 70
     8
 71
     3
 72
     8
 73
     4
 74
     0
 42
0.0000000009160017
 43
0.0000000001
 40
0.0
 40
0.0
 40
0.0
 40
0.0
 40
1.0
 40
1.0
 40
1.0
 40
1.0
 10
293.0880638638919
 20
375.1195061840514
 30
0.0
 10
292.5173124556827
 20
378.7073569900507
 30
0.0
 10
291.7516211945684
 20
382.2612290442224
 30
0.0
 10
290.7909900805491
 20
385.7811223465667
 30
0.0
  0
SPLINE
  5
E3
330
C3
100
AcDbEntity
  8
$DDT_AUDIT_GENERATED_(87)
  6
Continuous
 62
     7
100
AcDbSpline
210
0.0
220
0.0
230
1.0
 70
     8
 71
     3
 72
     8
 73
     4
 74
     0
 42
0.0000000009160317
 43
0.0000000001
 40
0.0080088694917588
 40
0.0080088694917588
 40
0.0080088694917588
 40
0.0080088694917588
 40
1.0
 40
1.0
 40
1.0
 40
1.0
 10
290.8140332767244
 20
333.1187570037981
 30
0.0
 10
291.7638733335008
 20
336.6109998439071
 30
0.0
 10
292.5218835292233
 20
340.1366793525306
 30
0.0
 10
293.088063863892
 20
343.6957955296687
 30
0.0
  0
ARC
  5
E4
330
C3
100
AcDbEntity
  8
$DDT_AUDIT_GENERATED_(87)
  6
Continuous
 62
     7
100
AcDbCircle
 10
272.5936618342
 20
332.145786311
 30
0.0
 40
2.0000000000402
100
AcDbArc
 50
7.0000000015
 51
92.4594878553
  0
ARC
  5
E5
330
C3
100
AcDbEntity
  8
$DDT_AUDIT_GENERATED_(87)
  6
Continuous
 62
     7
100
AcDbCircle
 10
284.6204261633
 20
332.6617597849
 30
0.0
 40
2.0
100
AcDbArc
 50
92.1339040847
 51
187.0121483647
  0
ARC
  5
E6
330
C3
100
AcDbEntity
  8
$DDT_AUDIT_GENERATED_(87)
  6
Continuous
 62
     7
100
AcDbCircle
 10
261.5150166289
 20
333.8316284133
 30
0.0
 40
0.1685302206206233
100
AcDbArc
 50
177.0030161012
 51
253.8373008695
  0
SPLINE
  5
E7
330
C3
100
AcDbEntity
  8
$DDT_AUDIT_GENERATED_(87)
  6
Continuous
 62
     7
100
AcDbSpline
210
0.0
220
0.0
230
1.0
 70
     8
 71
     3
 72
     8
 73
     4
 74
     0
 42
0.0000000490081606
 43
0.0000000001
 40
0.0
 40
0.0
 40
0.0
 40
0.0
 40
1.0
 40
1.0
 40
1.0
 40
1.0
 10
277.118122570042
 20
384.4733363244362
 30
0.0
 10
277.0304986981793
 20
384.4424546665562
 30
0.0
 10
276.9765346604553
 20
384.4062790184839
 30
0.0
 10
276.9562304568702
 20
384.3648093802191
 30
0.0
  0
ARC
  5
E8
330
C3
100
AcDbEntity
  8
$DDT_AUDIT_GENERATED_(87)
  6
Continuous
 62
     7
100
AcDbCircle
 10
285.4826187165
 20
276.5408317841
 30
0.0
 40
9.558903806051978
100
AcDbArc
 50
254.2396341319
 51
276.9218722354
  0
ARC
  5
E9
330
C3
100
AcDbEntity
  8
$DDT_AUDIT_GENERATED_(87)
  6
Continuous
 62
     7
100
AcDbCircle
 10
285.4663942845
 20
276.5388480501
 30
0.0
 40
9.55890380605198
100
AcDbArc
 50
277.0198452161
 51
299.7319706853
  0
SPLINE
  5
EA
330
C3
100
AcDbEntity
  8
$DDT_AUDIT_GENERATED_(87)
  6
Continuous
 62
     7
100
AcDbSpline
210
0.0
220
0.0
230
1.0
 70
     8
 71
     3
 72
    13
 73
     9
 74
     0
 42
0.0000000164599271
 43
0.0000000001
 40
0.0
 40
0.0
 40
0.0
 40
0.0
 40
0.0302614068548952
 40
0.3329427118012455
 40
0.5721006226492613
 40
0.7724844652008364
 40
0.9411701133687557
 40
1.0
 40
1.0
 40
1.0
 40
1.0
 10
282.51700844649
 20
267.7667794588975
 30
0.0
 10
282.5167254626057
 20
267.7601484384879
 30
0.0
 10
282.5141739730797
 20
267.6972301902626
 30
0.0
 10
282.5657224492184
 20
267.5836338735222
 30
0.0
 10
282.6543454091476
 20
267.4661011509626
 30
0.0
 10
282.7523472174037
 20
267.3935172392705
 30
0.0
 10
282.8321794860717
 20
267.3554075424128
 30
0.0
 10
282.8737935094803
 20
267.3459906504797
 30
0.0
 10
282.886393748813
 20
267.3432205457803
 30
0.0
  0
ARC
  5
EB
330
C3
100
AcDbEntity
  8
$DDT_AUDIT_GENERATED_(87)
  6
Continuous
 62
     7
100
AcDbCircle
 10
289.9787371386
 20
268.661113046
 30
0.0
 40
0.4770421221492401
100
AcDbArc
 50
310.8603354214
 51
8.6813061656
  0
LINE
  5
ED
330
C3
100
AcDbEntity
  8
$DDT_AUDIT_GENERATED_(EC)
  6
Continuous
 62
     7
100
AcDbLine
 10
259.2727914364
 20
333.9569604666
 30
0.0
 11
259.2727914364
 21
384.8452184805
 31
0.0
  0
ARC
  5
EE
330
C3
100
AcDbEntity
  8
$DDT_AUDIT_GENERATED_(EC)
  6
Continuous
 62
     7
100
AcDbCircle
 10
253.2727914364
 20
359.4010894736
 30
0.0
 40
25.00000000000001
100
AcDbArc
 50
283.8865403626
 51
288.814320538
  0
ARC
  5
EF
330
C3
100
AcDbEntity
  8
$DDT_AUDIT_GENERATED_(EC)
  6
Continuous
 62
     7
100
AcDbCircle
 10
253.2727914364
 20
359.4010894736
 30
0.0
 40
25.00000000000005
100
AcDbArc
 50
42.1090668534
 51
76.1134596374
  0
LINE
  5
F0
330
C3
100
AcDbEntity
  8
$DDT_AUDIT_GENERATED_(EC)
  6
Continuous
 62
     7
100
AcDbLine
 10
240.023776804
 20
333.2933296513
 30
0.0
 11
258.7771544803
 21
333.4569795031
 31
0.0
  0
LINE
  5
F1
330
C3
100
AcDbEntity
  8
$DDT_AUDIT_GENERATED_(EC)
  6
Continuous
 62
     7
100
AcDbLine
 10
258.7771544803
 20
385.345199444
 30
0.0
 11
240.0237772736
 21
385.5088492917
 31
0.0
  0
ARC
  5
F2
330
C3
100
AcDbEntity
  8
$DDT_AUDIT_GENERATED_(EC)
  6
Continuous
 62
     7
100
AcDbCircle
 10
258.7727914364
 20
384.8452184805
 30
0.0
 40
0.5000000000000004
100
AcDbArc
 50
0.0
 51
89.5000256491
  0
ARC
  5
F3
330
C3
100
AcDbEntity
  8
$DDT_AUDIT_GENERATED_(EC)
  6
Continuous
 62
     7
100
AcDbCircle
 10
258.7727914364
 20
333.9569604666
 30
0.0
 40
0.5000000000000033
100
AcDbArc
 50
270.4999743509
 51
0.0
  0
ENDBLK
  5
F5
330
C3
100
AcDbEntity
  8
0
100
AcDbBlockEnd
  0
ENDSEC
  0
SECTION
  2
ENTITIES
  0
INSERT
  5
5F
330
1F
100
AcDbEntity
  8
Default
100
AcDbBlockReference
  2
SEANNOT_GROUP
 10
0.0
 20
0.0
 30
0.0
  0
INSERT
  5
6A
330
1F
100
AcDbEntity
  8
Default
100
AcDbBlockReference
  2
SEANNOT_GROUP1
 10
0.0
 20
0.0
 30
0.0
  0
INSERT
  5
70
330
1F
100
AcDbEntity
  8
Default
100
AcDbBlockReference
  2
SEANNOT_GROUP2
 10
0.0
 20
0.0
 30
0.0
  0
INSERT
  5
76
330
1F
100
AcDbEntity
  8
Default
100
AcDbBlockReference
  2
SE
 10
0.0
 20
0.0
 30
0.0
  0
INSERT
  5
93
330
1F
100
AcDbEntity
  8
Default
100
AcDbBlockReference
  2
SE1
 10
0.0
 20
0.0
 30
0.0
  0
INSERT
  5
C4
330
1F
100
AcDbEntity
  8
Default
100
AcDbBlockReference
  2
SE2
 10
0.0
 20
0.0
 30
0.0
  0
TEXT
  5
F7
330
1F
100
AcDbEntity
  8
Default
  6
Continuous
 62
     7
100
AcDbText
 10
5.9362635081
 20
53.4225120485
 30
0.0
 40
10.0
  1
Grohe AG^J
  7
SEACAD_seiso_ttf
 11
5.9362635081
 21
63.4225120485
 31
0.0
100
AcDbText
 73
     3
  0
TEXT
  5
F8
330
1F
100
AcDbEntity
  8
Default
  6
Continuous
 62
     7
100
AcDbText
 10
5.9362635081
 20
37.0588756849
 30
0.0
 40
10.0
  1
 
  7
SEACAD_seiso_ttf
 11
5.9362635081
 21
47.0588756849
 31
0.0
100
AcDbText
 73
     3
  0
TEXT
  5
F9
330
1F
100
AcDbEntity
  8
Default
  6
Continuous
 62
     7
100
AcDbText
 10
5.9362635081
 20
20.6952393213
 30
0.0
 40
10.0
  1
ecn: 
  7
SEACAD_seiso_ttf
 11
5.9362635081
 21
30.6952393213
 31
0.0
100
AcDbText
 73
     3
  0
TEXT
  5
FA
330
1F
100
AcDbEntity
  8
Default
  6
Continuous
 62
     7
100
AcDbText
 10
5.9362635081
 20
4.3316029576
 30
0.0
 40
10.0
  1
unit: mm
  7
SEACAD_seiso_ttf
 11
5.9362635081
 21
14.3316029576
 31
0.0
100
AcDbText
 73
     3
  0
LINE
  5
FB
330
1F
100
AcDbEntity
  8
Default
  6
Continuous
 62
     7
100
AcDbLine
 10
0.0
 20
0.0
 30
0.0
 11
100.0
 21
0.0
 31
0.0
  0
LINE
  5
FC
330
1F
100
AcDbEntity
  8
Default
  6
Continuous
 62
     7
100
AcDbLine
 10
0.0
 20
0.0
 30
0.0
 11
0.0
 21
100.0
 31
0.0
  0
TEXT
  5
FD
330
1F
100
AcDbEntity
  8
Default
  6
Continuous
 62
     7
100
AcDbText
 10
24.3923665681
 20
-18.2375342018
 30
0.0
 40
10.0
  1
100 mm
  7
SEACAD_seiso_ttf
 11
24.3923665681
 21
-8.2375342018
 31
0.0
100
AcDbText
 73
     3
  0
TEXT
  5
FE
330
1F
100
AcDbEntity
  8
Default
  6
Continuous
 62
     7
100
AcDbText
 10
-7.6150308803
 20
24.6231930421
 30
0.0
 40
10.0
  1
100 mm
 50
90.0
  7
SEACAD_seiso_ttf
 11
-17.6150308803
 21
24.6231930421
 31
0.0
100
AcDbText
 73
     3
  0
TEXT
  5
FF
330
1F
100
AcDbEntity
  8
Default
  6
Continuous
 62
     7
100
AcDbText
 10
28.4878128572
 20
20.0907663715
 30
0.0
 40
10.0
  1
218500
  7
SEACAD_seiso_ttf
 11
28.4878128572
 21
30.0907663715
 31
0.0
100
AcDbText
 73
     3
  0
TEXT
  5
100
330
1F
100
AcDbEntity
  8
Default
  6
Continuous
 62
     7
100
AcDbText
 10
5.9012241913
 20
36.7242780188
 30
0.0
 40
10.0
  1
29048000
  7
SEACAD_seiso_ttf
 11
5.9012241913
 21
46.7242780188
 31
0.0
100
AcDbText
 73
     3
  0
ENDSEC
  0
SECTION
  2
OBJECTS
  0
DICTIONARY
  5
C
330
0
100
AcDbDictionary
281
     1
  3
ACAD_GROUP
350
D
  3
ACAD_LAYOUT
350
1A
  3
ACAD_MLEADERSTYLE
350
104
  3
ACAD_MLINESTYLE
350
17
  3
ACAD_PLOTSETTINGS
350
19
  3
ACAD_PLOTSTYLENAME
350
E
  3
ACAD_SCALELIST
350
3B
  3
ACAD_TABLESTYLE
350
103
  3
ACAD_VISUALSTYLE
350
2A
  3
AcDbVariableDictionary
350
101
  0
DICTIONARY
  5
D
102
{ACAD_REACTORS
330
C
102
}
330
C
100
AcDbDictionary
281
     1
  0
DICTIONARY
  5
1A
102
{ACAD_REACTORS
330
C
102
}
330
C
100
AcDbDictionary
281
     1
  3
Layout1
350
1E
  3
Model
350
22
  0
DICTIONARY
  5
104
102
{ACAD_REACTORS
330
C
102
}
330
C
100
AcDbDictionary
281
     1
  0
DICTIONARY
  5
17
102
{ACAD_REACTORS
330
C
102
}
330
C
100
AcDbDictionary
281
     1
  3
Standard
350
18
  0
DICTIONARY
  5
19
102
{ACAD_REACTORS
330
C
102
}
330
C
100
AcDbDictionary
281
     1
  0
ACDBDICTIONARYWDFLT
  5
E
102
{ACAD_REACTORS
330
C
102
}
330
C
100
AcDbDictionary
281
     1
  3
Normal
350
F
100
AcDbDictionaryWithDefault
340
F
  0
DICTIONARY
  5
3B
102
{ACAD_REACTORS
330
C
102
}
330
C
100
AcDbDictionary
281
     1
  3
A0
350
3C
  3
A1
350
3D
  3
A2
350
3E
  3
A3
350
3F
  3
A4
350
40
  3
A5
350
41
  3
A6
350
42
  3
A7
350
43
  3
A8
350
44
  3
A9
350
45
  3
B0
350
46
  3
B1
350
47
  3
B2
350
48
  3
B3
350
49
  3
B4
350
4A
  3
B5
350
4B
  3
B6
350
4C
  3
B7
350
4D
  3
B8
350
4E
  3
B9
350
4F
  3
C0
350
50
  3
C1
350
51
  3
C2
350
52
  3
C3
350
53
  3
C4
350
54
  3
C5
350
55
  3
C6
350
56
  3
C7
350
57
  3
C8
350
58
  3
C9
350
59
  3
D0
350
5A
  3
D1
350
5B
  3
D2
350
5C
  0
DICTIONARY
  5
103
102
{ACAD_REACTORS
330
C
102
}
330
C
100
AcDbDictionary
281
     1
  0
DICTIONARY
  5
2A
102
{ACAD_REACTORS
330
C
102
}
330
C
100
AcDbDictionary
281
     1
  3
2dWireframe
350
2F
  3
3D Hidden
350
31
  3
3dWireframe
350
30
  3
Basic
350
32
  3
Brighten
350
36
  3
ColorChange
350
3A
  3
Conceptual
350
34
  3
Dim
350
35
  3
Facepattern
350
39
  3
Flat
350
2B
  3
FlatWithEdges
350
2C
  3
Gouraud
350
2D
  3
GouraudWithEdges
350
2E
  3
Linepattern
350
38
  3
Realistic
350
33
  3
Thicken
350
37
  0
DICTIONARY
  5
101
102
{ACAD_REACTORS
330
C
102
}
330
C
100
AcDbDictionary
281
     1
  3
CANNOSCALE
350
102
  3
PSOLHEIGHT
350
106
  3
PSOLWIDTH
350
105
  0
LAYOUT
  5
1E
102
{ACAD_REACTORS
330
1A
102
}
330
1A
100
AcDbPlotSettings
  1

  2
none_device
  4

  6

 40
0.0
 41
0.0
 42
0.0
 43
0.0
 44
0.0
 45
0.0
 46
0.0
 47
0.0
 48
0.0
 49
0.0
140
0.0
141
0.0
142
1.0
143
1.0
 70
   688
 72
     0
 73
     0
 74
     5
  7

 75
    16
147
1.0
148
0.0
149
0.0
100
AcDbLayout
  1
Layout1
 70
     1
 71
     1
 10
0.0
 20
0.0
 11
1682.0
 21
2378.0
 12
0.0
 22
0.0
 32
0.0
 14
0.0
 24
0.0
 34
0.0
 15
1682.0
 25
2378.0
 35
0.0
146
0.0
 13
0.0
 23
0.0
 33
0.0
 16
1.0
 26
0.0
 36
0.0
 17
0.0
 27
1.0
 37
0.0
 76
     0
330
1B
  0
LAYOUT
  5
22
102
{ACAD_REACTORS
330
1A
102
}
330
1A
100
AcDbPlotSettings
  1

  2
none_device
  4

  6

 40
0.0
 41
0.0
 42
0.0
 43
0.0
 44
0.0
 45
0.0
 46
0.0
 47
0.0
 48
0.0
 49
0.0
140
0.0
141
0.0
142
1.0
143
1.0
 70
  1712
 72
     0
 73
     0
 74
     0
  7

 75
     0
147
1.0
148
0.0
149
0.0
100
AcDbLayout
  1
Model
 70
     1
 71
     0
 10
0.0
 20
0.0
 11
1682.0
 21
2378.0
 12
0.0
 22
0.0
 32
0.0
 14
0.0
 24
0.0
 34
0.0
 15
1682.0
 25
2378.0
 35
0.0
146
0.0
 13
0.0
 23
0.0
 33
0.0
 16
1.0
 26
0.0
 36
0.0
 17
0.0
 27
1.0
 37
0.0
 76
     0
330
1F
331
29
  0
MLINESTYLE
  5
18
102
{ACAD_REACTORS
330
17
102
}
330
17
100
AcDbMlineStyle
  2
Standard
 70
     0
  3

 62
   256
 51
90.0
 52
90.0
 71
     2
 49
0.5
 62
   256
  6
BYLAYER
 49
-0.5
 62
   256
  6
BYLAYER
  0
ACDBPLACEHOLDER
  5
F
102
{ACAD_REACTORS
330
E
102
}
330
E
  0
SCALE
  5
3C
102
{ACAD_REACTORS
330
3B
102
}
330
3B
100
AcDbScale
 70
     0
300
1:1
140
1.0
141
1.0
290
     1
  0
SCALE
  5
3D
102
{ACAD_REACTORS
330
3B
102
}
330
3B
100
AcDbScale
 70
     0
300
1:2
140
1.0
141
2.0
290
     0
  0
SCALE
  5
3E
102
{ACAD_REACTORS
330
3B
102
}
330
3B
100
AcDbScale
 70
     0
300
1:4
140
1.0
141
4.0
290
     0
  0
SCALE
  5
3F
102
{ACAD_REACTORS
330
3B
102
}
330
3B
100
AcDbScale
 70
     0
300
1:5
140
1.0
141
5.0
290
     0
  0
SCALE
  5
40
102
{ACAD_REACTORS
330
3B
102
}
330
3B
100
AcDbScale
 70
     0
300
1:8
140
1.0
141
8.0
290
     0
  0
SCALE
  5
41
102
{ACAD_REACTORS
330
3B
102
}
330
3B
100
AcDbScale
 70
     0
300
1:10
140
1.0
141
10.0
290
     0
  0
SCALE
  5
42
102
{ACAD_REACTORS
330
3B
102
}
330
3B
100
AcDbScale
 70
     0
300
1:16
140
1.0
141
16.0
290
     0
  0
SCALE
  5
43
102
{ACAD_REACTORS
330
3B
102
}
330
3B
100
AcDbScale
 70
     0
300
1:20
140
1.0
141
20.0
290
     0
  0
SCALE
  5
44
102
{ACAD_REACTORS
330
3B
102
}
330
3B
100
AcDbScale
 70
     0
300
1:30
140
1.0
141
30.0
290
     0
  0
SCALE
  5
45
102
{ACAD_REACTORS
330
3B
102
}
330
3B
100
AcDbScale
 70
     0
300
1:40
140
1.0
141
40.0
290
     0
  0
SCALE
  5
46
102
{ACAD_REACTORS
330
3B
102
}
330
3B
100
AcDbScale
 70
     0
300
1:50
140
1.0
141
50.0
290
     0
  0
SCALE
  5
47
102
{ACAD_REACTORS
330
3B
102
}
330
3B
100
AcDbScale
 70
     0
300
1:100
140
1.0
141
100.0
290
     0
  0
SCALE
  5
48
102
{ACAD_REACTORS
330
3B
102
}
330
3B
100
AcDbScale
 70
     0
300
2:1
140
2.0
141
1.0
290
     0
  0
SCALE
  5
49
102
{ACAD_REACTORS
330
3B
102
}
330
3B
100
AcDbScale
 70
     0
300
4:1
140
4.0
141
1.0
290
     0
  0
SCALE
  5
4A
102
{ACAD_REACTORS
330
3B
102
}
330
3B
100
AcDbScale
 70
     0
300
8:1
140
8.0
141
1.0
290
     0
  0
SCALE
  5
4B
102
{ACAD_REACTORS
330
3B
102
}
330
3B
100
AcDbScale
 70
     0
300
10:1
140
10.0
141
1.0
290
     0
  0
SCALE
  5
4C
102
{ACAD_REACTORS
330
3B
102
}
330
3B
100
AcDbScale
 70
     0
300
100:1
140
100.0
141
1.0
290
     0
  0
SCALE
  5
4D
102
{ACAD_REACTORS
330
3B
102
}
330
3B
100
AcDbScale
 70
     0
300
1/128" = 1'-0"
140
0.0078125
141
12.0
290
     0
  0
SCALE
  5
4E
102
{ACAD_REACTORS
330
3B
102
}
330
3B
100
AcDbScale
 70
     0
300
1/64" = 1'-0"
140
0.015625
141
12.0
290
     0
  0
SCALE
  5
4F
102
{ACAD_REACTORS
330
3B
102
}
330
3B
100
AcDbScale
 70
     0
300
1/32" = 1'-0"
140
0.03125
141
12.0
290
     0
  0
SCALE
  5
50
102
{ACAD_REACTORS
330
3B
102
}
330
3B
100
AcDbScale
 70
     0
300
1/16" = 1'-0"
140
0.0625
141
12.0
290
     0
  0
SCALE
  5
51
102
{ACAD_REACTORS
330
3B
102
}
330
3B
100
AcDbScale
 70
     0
300
3/32" = 1'-0"
140
0.09375
141
12.0
290
     0
  0
SCALE
  5
52
102
{ACAD_REACTORS
330
3B
102
}
330
3B
100
AcDbScale
 70
     0
300
1/8" = 1'-0"
140
0.125
141
12.0
290
     0
  0
SCALE
  5
53
102
{ACAD_REACTORS
330
3B
102
}
330
3B
100
AcDbScale
 70
     0
300
3/16" = 1'-0"
140
0.1875
141
12.0
290
     0
  0
SCALE
  5
54
102
{ACAD_REACTORS
330
3B
102
}
330
3B
100
AcDbScale
 70
     0
300
1/4" = 1'-0"
140
0.25
141
12.0
290
     0
  0
SCALE
  5
55
102
{ACAD_REACTORS
330
3B
102
}
330
3B
100
AcDbScale
 70
     0
300
3/8" = 1'-0"
140
0.375
141
12.0
290
     0
  0
SCALE
  5
56
102
{ACAD_REACTORS
330
3B
102
}
330
3B
100
AcDbScale
 70
     0
300
1/2" = 1'-0"
140
0.5
141
12.0
290
     0
  0
SCALE
  5
57
102
{ACAD_REACTORS
330
3B
102
}
330
3B
100
AcDbScale
 70
     0
300
3/4" = 1'-0"
140
0.75
141
12.0
290
     0
  0
SCALE
  5
58
102
{ACAD_REACTORS
330
3B
102
}
330
3B
100
AcDbScale
 70
     0
300
1" = 1'-0"
140
1.0
141
12.0
290
     0
  0
SCALE
  5
59
102
{ACAD_REACTORS
330
3B
102
}
330
3B
100
AcDbScale
 70
     0
300
1-1/2" = 1'-0"
140
1.5
141
12.0
290
     0
  0
SCALE
  5
5A
102
{ACAD_REACTORS
330
3B
102
}
330
3B
100
AcDbScale
 70
     0
300
3" = 1'-0"
140
3.0
141
12.0
290
     0
  0
SCALE
  5
5B
102
{ACAD_REACTORS
330
3B
102
}
330
3B
100
AcDbScale
 70
     0
300
6" = 1'-0"
140
6.0
141
12.0
290
     0
  0
SCALE
  5
5C
102
{ACAD_REACTORS
330
3B
102
}
330
3B
100
AcDbScale
 70
     0
300
1'-0" = 1'-0"
140
12.0
141
12.0
290
     0
  0
VISUALSTYLE
  5
2F
102
{ACAD_REACTORS
330
2A
102
}
330
2A
100
AcDbVisualStyle
  2
2dWireframe
 70
     4
 71
     0
 72
     2
 73
     0
 90
        0
 40
-0.6
 41
-30.0
 62
     5
 63
     7
 74
     1
 91
        4
 64
     7
 65
   257
 75
     1
175
     1
 42
1.0
 92
        0
 66
   257
 43
1.0
 76
     1
 77
     6
 78
     2
 67
     7
 79
     5
170
     0
171
     0
290
     0
174
     0
 93
        1
 44
0.0
173
     0
291
     0
 45
0.0
1001
ACAD
1000
AcDbSavedByObjectVersion
1070
     0
  0
VISUALSTYLE
  5
31
102
{ACAD_REACTORS
330
2A
102
}
330
2A
100
AcDbVisualStyle
  2
3D Hidden
 70
     6
 71
     1
 72
     2
 73
     2
 90
        0
 40
-0.6
 41
-30.0
 62
     5
 63
     7
 74
     2
 91
        2
 64
     7
 65
   257
 75
     2
175
     1
 42
40.0
 92
        0
 66
   257
 43
1.0
 76
     1
 77
     6
 78
     2
 67
     7
 79
     3
170
     0
171
     0
290
     0
174
     0
 93
        1
 44
0.0
173
     0
291
     0
 45
0.0
1001
ACAD
1000
AcDbSavedByObjectVersion
1070
     0
  0
VISUALSTYLE
  5
30
102
{ACAD_REACTORS
330
2A
102
}
330
2A
100
AcDbVisualStyle
  2
3dWireframe
 70
     5
 71
     0
 72
     2
 73
     0
 90
        0
 40
-0.6
 41
-30.0
 62
     5
 63
     7
 74
     1
 91
        4
 64
     7
 65
   257
 75
     1
175
     1
 42
1.0
 92
        0
 66
   257
 43
1.0
 76
     1
 77
     6
 78
     2
 67
     7
 79
     5
170
     0
171
     0
290
     0
174
     0
 93
        1
 44
0.0
173
     0
291
     0
 45
0.0
1001
ACAD
1000
AcDbSavedByObjectVersion
1070
     0
  0
VISUALSTYLE
  5
32
102
{ACAD_REACTORS
330
2A
102
}
330
2A
100
AcDbVisualStyle
  2
Basic
 70
     7
 71
     1
 72
     0
 73
     1
 90
        0
 40
-0.6
 41
-30.0
 62
     5
 63
     7
 74
     0
 91
        4
 64
     7
 65
   257
 75
     1
175
     1
 42
1.0
 92
        8
 66
     7
 43
1.0
 76
     1
 77
     6
 78
     2
 67
     7
 79
     5
170
     0
171
     0
290
     0
174
     0
 93
        1
 44
0.0
173
     0
291
     1
 45
0.0
1001
ACAD
1000
AcDbSavedByObjectVersion
1070
     0
  0
VISUALSTYLE
  5
36
102
{ACAD_REACTORS
330
2A
102
}
330
2A
100
AcDbVisualStyle
  2
Brighten
 70
    12
 71
     2
 72
     2
 73
     0
 90
        0
 40
-0.6
 41
-30.0
 62
     5
 63
     7
 74
     1
 91
        4
 64
     7
 65
   257
 75
     1
175
     1
 42
1.0
 92
        8
 66
     7
 43
1.0
 76
     1
 77
     6
 78
     2
 67
     7
 79
     5
170
     0
171
     0
290
     0
174
     0
 93
        1
 44
50.0
173
     0
291
     1
 45
0.0
1001
ACAD
1000
AcDbSavedByObjectVersion
1070
     0
  0
VISUALSTYLE
  5
3A
102
{ACAD_REACTORS
330
2A
102
}
330
2A
100
AcDbVisualStyle
  2
ColorChange
 70
    16
 71
     2
 72
     2
 73
     3
 90
        0
 40
-0.6
 41
-30.0
 62
     5
 63
     8
 74
     1
 91
        4
 64
     7
 65
   257
 75
     1
175
     1
 42
1.0
 92
        8
 66
     8
 43
1.0
 76
     1
 77
     6
 78
     2
 67
     7
 79
     5
170
     0
171
     0
290
     0
174
     0
 93
        1
 44
0.0
173
     0
291
     1
 45
0.0
1001
ACAD
1000
AcDbSavedByObjectVersion
1070
     0
  0
VISUALSTYLE
  5
34
102
{ACAD_REACTORS
330
2A
102
}
330
2A
100
AcDbVisualStyle
  2
Conceptual
 70
     9
 71
     3
 72
     2
 73
     0
 90
        0
 40
-0.6
 41
-30.0
 62
     5
 63
     7
 74
     2
 91
        2
 64
     7
 65
   257
 75
     1
175
     1
 42
40.0
 92
        8
 66
     7
 43
1.0
 76
     1
 77
     6
 78
     2
 67
     7
 79
     3
170
     0
171
     0
290
     0
174
     0
 93
        1
 44
0.0
173
     0
291
     0
 45
0.0
1001
ACAD
1000
AcDbSavedByObjectVersion
1070
     0
  0
VISUALSTYLE
  5
35
102
{ACAD_REACTORS
330
2A
102
}
330
2A
100
AcDbVisualStyle
  2
Dim
 70
    11
 71
     2
 72
     2
 73
     0
 90
        0
 40
-0.6
 41
-30.0
 62
     5
 63
     7
 74
     1
 91
        4
 64
     7
 65
   257
 75
     1
175
     1
 42
1.0
 92
        8
 66
     7
 43
1.0
 76
     1
 77
     6
 78
     2
 67
     7
 79
     5
170
     0
171
     0
290
     0
174
     0
 93
        1
 44
-50.0
173
     0
291
     1
 45
0.0
1001
ACAD
1000
AcDbSavedByObjectVersion
1070
     0
  0
VISUALSTYLE
  5
39
102
{ACAD_REACTORS
330
2A
102
}
330
2A
100
AcDbVisualStyle
  2
Facepattern
 70
    15
 71
     2
 72
     2
 73
     0
 90
        0
 40
-0.6
 41
-30.0
 62
     5
 63
     7
 74
     1
 91
        4
 64
     7
 65
   257
 75
     1
175
     1
 42
1.0
 92
        8
 66
     7
 43
1.0
 76
     1
 77
     6
 78
     2
 67
     7
 79
     5
170
     0
171
     0
290
     0
174
     0
 93
        1
 44
0.0
173
     0
291
     1
 45
0.0
1001
ACAD
1000
AcDbSavedByObjectVersion
1070
     0
  0
VISUALSTYLE
  5
2B
102
{ACAD_REACTORS
330
2A
102
}
330
2A
100
AcDbVisualStyle
  2
Flat
 70
     0
 71
     2
 72
     1
 73
     1
 90
        2
 40
-0.6
 41
30.0
 62
     5
 63
     7
 74
     0
 91
        4
 64
     7
 65
   257
 75
     1
175
     1
 42
1.0
 92
        8
 66
     7
 43
1.0
 76
     1
 77
     6
 78
     2
 67
     7
 79
     5
170
     0
171
     0
290
     0
174
     0
 93
       13
 44
0.0
173
     0
291
     1
 45
0.0
1001
ACAD
1000
AcDbSavedByObjectVersion
1070
     0
  0
VISUALSTYLE
  5
2C
102
{ACAD_REACTORS
330
2A
102
}
330
2A
100
AcDbVisualStyle
  2
FlatWithEdges
 70
     1
 71
     2
 72
     1
 73
     1
 90
        2
 40
-0.6
 41
30.0
 62
     5
 63
     7
 74
     1
 91
        4
 64
     7
 65
   257
 75
     1
175
     1
 42
1.0
 92
        0
 66
   257
 43
1.0
 76
     1
 77
     6
 78
     2
 67
     7
 79
     5
170
     0
171
     0
290
     0
174
     0
 93
       13
 44
0.0
173
     0
291
     1
 45
0.0
1001
ACAD
1000
AcDbSavedByObjectVersion
1070
     0
  0
VISUALSTYLE
  5
2D
102
{ACAD_REACTORS
330
2A
102
}
330
2A
100
AcDbVisualStyle
  2
Gouraud
 70
     2
 71
     2
 72
     2
 73
     1
 90
        2
 40
-0.6
 41
30.0
 62
     5
 63
     7
 74
     0
 91
        4
 64
     7
 65
   257
 75
     1
175
     1
 42
1.0
 92
        0
 66
     7
 43
1.0
 76
     1
 77
     6
 78
     2
 67
     7
 79
     5
170
     0
171
     0
290
     0
174
     0
 93
       13
 44
0.0
173
     0
291
     1
 45
0.0
1001
ACAD
1000
AcDbSavedByObjectVersion
1070
     0
  0
VISUALSTYLE
  5
2E
102
{ACAD_REACTORS
330
2A
102
}
330
2A
100
AcDbVisualStyle
  2
GouraudWithEdges
 70
     3
 71
     2
 72
     2
 73
     1
 90
        2
 40
-0.6
 41
30.0
 62
     5
 63
     7
 74
     1
 91
        4
 64
     7
 65
   257
 75
     1
175
     1
 42
1.0
 92
        0
 66
   257
 43
1.0
 76
     1
 77
     6
 78
     2
 67
     7
 79
     5
170
     0
171
     0
290
     0
174
     0
 93
       13
 44
0.0
173
     0
291
     1
 45
0.0
1001
ACAD
1000
AcDbSavedByObjectVersion
1070
     0
  0
VISUALSTYLE
  5
38
102
{ACAD_REACTORS
330
2A
102
}
330
2A
100
AcDbVisualStyle
  2
Linepattern
 70
    14
 71
     2
 72
     2
 73
     0
 90
        0
 40
-0.6
 41
-30.0
 62
     5
 63
     7
 74
     1
 91
        4
 64
     7
 65
   257
 75
     7
175
     7
 42
1.0
 92
        8
 66
     7
 43
1.0
 76
     1
 77
     6
 78
     2
 67
     7
 79
     5
170
     0
171
     0
290
     0
174
     0
 93
        1
 44
0.0
173
     0
291
     1
 45
0.0
1001
ACAD
1000
AcDbSavedByObjectVersion
1070
     0
  0
VISUALSTYLE
  5
33
102
{ACAD_REACTORS
330
2A
102
}
330
2A
100
AcDbVisualStyle
  2
Realistic
 70
     8
 71
     2
 72
     2
 73
     0
 90
        0
 40
-0.6
 41
-30.0
 62
     5
 63
     7
 74
     1
 91
        0
 64
     7
 65
   257
 75
     1
175
     1
 42
1.0
 92
        8
 66
     8
 43
1.0
 76
     1
 77
     6
 78
     2
 67
     7
 79
     5
170
     0
171
     0
290
     0
174
     0
 93
       13
 44
0.0
173
     0
291
     0
 45
0.0
1001
ACAD
1000
AcDbSavedByObjectVersion
1070
     0
  0
VISUALSTYLE
  5
37
102
{ACAD_REACTORS
330
2A
102
}
330
2A
100
AcDbVisualStyle
  2
Thicken
 70
    13
 71
     2
 72
     2
 73
     0
 90
        0
 40
-0.6
 41
-30.0
 62
     5
 63
     7
 74
     1
 91
        4
 64
     7
 65
   257
 75
     1
175
     1
 42
1.0
 92
       12
 66
     7
 43
1.0
 76
     1
 77
     6
 78
     2
 67
     7
 79
     5
170
     0
171
     0
290
     0
174
     0
 93
        1
 44
0.0
173
     0
291
     1
 45
0.0
1001
ACAD
1000
AcDbSavedByObjectVersion
1070
     0
  0
DICTIONARYVAR
  5
102
102
{ACAD_REACTORS
330
101
102
}
330
101
100
DictionaryVariables
280
     0
  1
1:1
  0
DICTIONARYVAR
  5
106
102
{ACAD_REACTORS
330
101
102
}
330
101
100
DictionaryVariables
280
     0
  1
80.000000
  0
DICTIONARYVAR
  5
105
102
{ACAD_REACTORS
330
101
102
}
330
101
100
DictionaryVariables
280
     0
  1
5.000000
  0
ENDSEC
  0
EOF
