  0
SECTION
  2
HEADER
  9
$ACADVER
  1
AC1015
  9
$ACADMAINTVER
 70
     6
  9
$DWGCODEPAGE
  3
ANSI_1252
  9
$INSBASE
 10
0.0
 20
0.0
 30
0.0
  9
$EXTMIN
 10
0.0
 20
0.0
 30
0.0
  9
$EXTMAX
 10
1682.0
 20
2378.0
 30
0.0
  9
$LIMMIN
 10
0.0
 20
0.0
  9
$LIMMAX
 10
1682.0
 20
2378.0
  9
$ORTHOMODE
 70
     0
  9
$REGENMODE
 70
     1
  9
$FILLMODE
 70
     1
  9
$QTEXTMODE
 70
     0
  9
$MIRRTEXT
 70
     1
  9
$LTSCALE
 40
1.0
  9
$ATTMODE
 70
     1
  9
$TEXTSIZE
 40
2.5
  9
$TRACEWID
 40
1.0
  9
$TEXTSTYLE
  7
Standard
  9
$CLAYER
  8
0
  9
$CELTYPE
  6
ByLayer
  9
$CECOLOR
 62
   256
  9
$CELTSCALE
 40
1.0
  9
$DISPSILH
 70
     0
  9
$DIMSCALE
 40
1.0
  9
$DIMASZ
 40
2.5
  9
$DIMEXO
 40
0.625
  9
$DIMDLI
 40
3.75
  9
$DIMRND
 40
0.0
  9
$DIMDLE
 40
0.0
  9
$DIMEXE
 40
1.25
  9
$DIMTP
 40
0.0
  9
$DIMTM
 40
0.0
  9
$DIMTXT
 40
2.5
  9
$DIMCEN
 40
2.5
  9
$DIMTSZ
 40
0.0
  9
$DIMTOL
 70
     0
  9
$DIMLIM
 70
     0
  9
$DIMTIH
 70
     0
  9
$DIMTOH
 70
     0
  9
$DIMSE1
 70
     0
  9
$DIMSE2
 70
     0
  9
$DIMTAD
 70
     1
  9
$DIMZIN
 70
     8
  9
$DIMBLK
  1

  9
$DIMASO
 70
     1
  9
$DIMSHO
 70
     1
  9
$DIMPOST
  1

  9
$DIMAPOST
  1

  9
$DIMALT
 70
     0
  9
$DIMALTD
 70
     3
  9
$DIMALTF
 40
0.0393700787
  9
$DIMLFAC
 40
1.0
  9
$DIMTOFL
 70
     1
  9
$DIMTVP
 40
0.0
  9
$DIMTIX
 70
     0
  9
$DIMSOXD
 70
     0
  9
$DIMSAH
 70
     0
  9
$DIMBLK1
  1

  9
$DIMBLK2
  1

  9
$DIMSTYLE
  2
ISO-25
  9
$DIMCLRD
 70
     0
  9
$DIMCLRE
 70
     0
  9
$DIMCLRT
 70
     0
  9
$DIMTFAC
 40
1.0
  9
$DIMGAP
 40
0.625
  9
$DIMJUST
 70
     0
  9
$DIMSD1
 70
     0
  9
$DIMSD2
 70
     0
  9
$DIMTOLJ
 70
     0
  9
$DIMTZIN
 70
     8
  9
$DIMALTZ
 70
     0
  9
$DIMALTTZ
 70
     0
  9
$DIMUPT
 70
     0
  9
$DIMDEC
 70
     2
  9
$DIMTDEC
 70
     2
  9
$DIMALTU
 70
     2
  9
$DIMALTTD
 70
     3
  9
$DIMTXSTY
  7
Standard
  9
$DIMAUNIT
 70
     0
  9
$DIMADEC
 70
     0
  9
$DIMALTRND
 40
0.0
  9
$DIMAZIN
 70
     0
  9
$DIMDSEP
 70
    44
  9
$DIMATFIT
 70
     3
  9
$DIMFRAC
 70
     0
  9
$DIMLDRBLK
  1

  9
$DIMLUNIT
 70
     2
  9
$DIMLWD
 70
    -2
  9
$DIMLWE
 70
    -2
  9
$DIMTMOVE
 70
     0
  9
$LUNITS
 70
     2
  9
$LUPREC
 70
     4
  9
$SKETCHINC
 40
1.0
  9
$FILLETRAD
 40
10.0
  9
$AUNITS
 70
     0
  9
$AUPREC
 70
     0
  9
$MENU
  1
.
  9
$ELEVATION
 40
0.0
  9
$PELEVATION
 40
0.0
  9
$THICKNESS
 40
0.0
  9
$LIMCHECK
 70
     0
  9
$CHAMFERA
 40
10.0
  9
$CHAMFERB
 40
10.0
  9
$CHAMFERC
 40
20.0
  9
$CHAMFERD
 40
0.0
  9
$SKPOLY
 70
     0
  9
$TDCREATE
 40
2455370.34590772
  9
$TDUCREATE
 40
2455370.262574387
  9
$TDUPDATE
 40
2455370.345907731
  9
$TDUUPDATE
 40
2455370.262574398
  9
$TDINDWG
 40
0.0000000116
  9
$TDUSRTIMER
 40
0.0000000116
  9
$USRTIMER
 70
     1
  9
$ANGBASE
 50
0.0
  9
$ANGDIR
 70
     0
  9
$PDMODE
 70
     0
  9
$PDSIZE
 40
0.0
  9
$PLINEWID
 40
0.0
  9
$SPLFRAME
 70
     0
  9
$SPLINETYPE
 70
     6
  9
$SPLINESEGS
 70
     8
  9
$HANDSEED
  5
26F
  9
$SURFTAB1
 70
     6
  9
$SURFTAB2
 70
     6
  9
$SURFTYPE
 70
     6
  9
$SURFU
 70
     6
  9
$SURFV
 70
     6
  9
$UCSBASE
  2

  9
$UCSNAME
  2

  9
$UCSORG
 10
0.0
 20
0.0
 30
0.0
  9
$UCSXDIR
 10
1.0
 20
0.0
 30
0.0
  9
$UCSYDIR
 10
0.0
 20
1.0
 30
0.0
  9
$UCSORTHOREF
  2

  9
$UCSORTHOVIEW
 70
     0
  9
$UCSORGTOP
 10
0.0
 20
0.0
 30
0.0
  9
$UCSORGBOTTOM
 10
0.0
 20
0.0
 30
0.0
  9
$UCSORGLEFT
 10
0.0
 20
0.0
 30
0.0
  9
$UCSORGRIGHT
 10
0.0
 20
0.0
 30
0.0
  9
$UCSORGFRONT
 10
0.0
 20
0.0
 30
0.0
  9
$UCSORGBACK
 10
0.0
 20
0.0
 30
0.0
  9
$PUCSBASE
  2

  9
$PUCSNAME
  2

  9
$PUCSORG
 10
0.0
 20
0.0
 30
0.0
  9
$PUCSXDIR
 10
1.0
 20
0.0
 30
0.0
  9
$PUCSYDIR
 10
0.0
 20
1.0
 30
0.0
  9
$PUCSORTHOREF
  2

  9
$PUCSORTHOVIEW
 70
     0
  9
$PUCSORGTOP
 10
0.0
 20
0.0
 30
0.0
  9
$PUCSORGBOTTOM
 10
0.0
 20
0.0
 30
0.0
  9
$PUCSORGLEFT
 10
0.0
 20
0.0
 30
0.0
  9
$PUCSORGRIGHT
 10
0.0
 20
0.0
 30
0.0
  9
$PUCSORGFRONT
 10
0.0
 20
0.0
 30
0.0
  9
$PUCSORGBACK
 10
0.0
 20
0.0
 30
0.0
  9
$USERI1
 70
     0
  9
$USERI2
 70
     0
  9
$USERI3
 70
     0
  9
$USERI4
 70
     0
  9
$USERI5
 70
     0
  9
$USERR1
 40
0.0
  9
$USERR2
 40
0.0
  9
$USERR3
 40
0.0
  9
$USERR4
 40
0.0
  9
$USERR5
 40
0.0
  9
$WORLDVIEW
 70
     1
  9
$SHADEDGE
 70
     3
  9
$SHADEDIF
 70
    70
  9
$TILEMODE
 70
     1
  9
$MAXACTVP
 70
    64
  9
$PINSBASE
 10
0.0
 20
0.0
 30
0.0
  9
$PLIMCHECK
 70
     0
  9
$PEXTMIN
 10
0.0
 20
0.0
 30
0.0
  9
$PEXTMAX
 10
1682.0
 20
2378.0
 30
0.0
  9
$PLIMMIN
 10
0.0
 20
0.0
  9
$PLIMMAX
 10
1682.0
 20
2378.0
  9
$UNITMODE
 70
     0
  9
$VISRETAIN
 70
     1
  9
$PLINEGEN
 70
     0
  9
$PSLTSCALE
 70
     1
  9
$TREEDEPTH
 70
  3020
  9
$CMLSTYLE
  2
Standard
  9
$CMLJUST
 70
     0
  9
$CMLSCALE
 40
20.0
  9
$PROXYGRAPHICS
 70
     1
  9
$MEASUREMENT
 70
     1
  9
$CELWEIGHT
370
    -1
  9
$ENDCAPS
280
     0
  9
$JOINSTYLE
280
     0
  9
$LWDISPLAY
290
     0
  9
$INSUNITS
 70
     4
  9
$HYPERLINKBASE
  1

  9
$STYLESHEET
  1

  9
$XEDIT
290
     1
  9
$CEPSNTYPE
380
     0
  9
$PSTYLEMODE
290
     1
  9
$FINGERPRINTGUID
  2
{3BDCF402-6D58-4B74-925A-0E3F1F2CD9B5}
  9
$VERSIONGUID
  2
{FAEB1C32-E019-11D5-929B-00C0DF256EC4}
  9
$EXTNAMES
290
     1
  9
$PSVPSCALE
 40
0.0
  9
$OLESTARTUP
290
     0
  0
ENDSEC
  0
SECTION
  2
CLASSES
  0
CLASS
  1
ACDBDICTIONARYWDFLT
  2
AcDbDictionaryWithDefault
  3
ObjectDBX Classes
 90
        0
280
     0
281
     0
  0
CLASS
  1
VISUALSTYLE
  2
AcDbVisualStyle
  3
ObjectDBX Classes
 90
     4095
280
     0
281
     0
  0
CLASS
  1
SCALE
  2
AcDbScale
  3
ObjectDBX Classes
 90
     1153
280
     0
281
     0
  0
CLASS
  1
DICTIONARYVAR
  2
AcDbDictionaryVar
  3
ObjectDBX Classes
 90
        0
280
     0
281
     0
  0
CLASS
  1
ACDBPLACEHOLDER
  2
AcDbPlaceHolder
  3
ObjectDBX Classes
 90
        0
280
     0
281
     0
  0
CLASS
  1
LAYOUT
  2
AcDbLayout
  3
ObjectDBX Classes
 90
        0
280
     0
281
     0
  0
ENDSEC
  0
SECTION
  2
TABLES
  0
TABLE
  2
VPORT
  5
8
330
0
100
AcDbSymbolTable
 70
     1
  0
VPORT
  5
29
330
8
100
AcDbSymbolTableRecord
100
AcDbViewportTableRecord
  2
*Active
 70
     0
 10
0.0
 20
0.0
 11
1.0
 21
1.0
 12
344.1869158879
 22
148.5
 13
0.0
 23
0.0
 14
10.0
 24
10.0
 15
10.0
 25
10.0
 16
0.0
 26
0.0
 36
1.0
 17
0.0
 27
0.0
 37
0.0
 40
297.0
 41
1.9729729729
 42
50.0
 43
0.0
 44
0.0
 50
0.0
 51
0.0
 71
     0
 72
   100
 73
     1
 74
     3
 75
     0
 76
     0
 77
     0
 78
     0
281
     0
 65
     1
110
0.0
120
0.0
130
0.0
111
1.0
121
0.0
131
0.0
112
0.0
122
1.0
132
0.0
 79
     0
146
0.0
  0
ENDTAB
  0
TABLE
  2
LTYPE
  5
5
330
0
100
AcDbSymbolTable
 70
     2
  0
LTYPE
  5
14
330
5
100
AcDbSymbolTableRecord
100
AcDbLinetypeTableRecord
  2
ByBlock
 70
     0
  3

 72
    65
 73
     0
 40
0.0
  0
LTYPE
  5
15
330
5
100
AcDbSymbolTableRecord
100
AcDbLinetypeTableRecord
  2
ByLayer
 70
     0
  3

 72
    65
 73
     0
 40
0.0
  0
LTYPE
  5
16
330
5
100
AcDbSymbolTableRecord
100
AcDbLinetypeTableRecord
  2
Continuous
 70
     0
  3
Solid line
 72
    65
 73
     0
 40
0.0
  0
LTYPE
  5
104
330
5
100
AcDbSymbolTableRecord
100
AcDbLinetypeTableRecord
  2
CENTER2
 70
     0
  3
Center (.5x) ___ _ ___ _ ___ _ ___ _ ___ _ ___
 72
    65
 73
     4
 40
28.575
 49
19.05
 74
     4
 75
     0
340
0
 46
0.0
 50
0.0
 44
0.0
 45
0.0
 49
-3.175
 74
     4
 75
     0
340
0
 46
0.0
 50
0.0
 44
0.0
 45
0.0
 49
3.175
 74
     4
 75
     0
340
0
 46
0.0
 50
0.0
 44
0.0
 45
0.0
 49
-3.175
 74
     4
 75
     0
340
0
 46
0.0
 50
0.0
 44
0.0
 45
0.0
  0
ENDTAB
  0
TABLE
  2
LAYER
  5
2
330
0
100
AcDbSymbolTable
 70
    17
  0
LAYER
  5
10
330
2
100
AcDbSymbolTableRecord
100
AcDbLayerTableRecord
  2
0
 70
     0
 62
     7
  6
Continuous
370
    -3
390
F
  0
LAYER
  5
5D
330
2
100
AcDbSymbolTableRecord
100
AcDbLayerTableRecord
  2
Default
 70
     0
 62
     7
  6
Continuous
370
    -3
390
F
  0
LAYER
  5
60
330
2
100
AcDbSymbolTableRecord
100
AcDbLayerTableRecord
  2
$DDT_AUDIT_GENERATED_(60)
 70
     0
 62
     7
  6
Continuous
370
    -3
390
F
  0
LAYER
  5
A2
330
2
100
AcDbSymbolTableRecord
100
AcDbLayerTableRecord
  2
$DDT_AUDIT_GENERATED_(A2)
 70
     0
 62
     7
  6
Continuous
370
    -3
390
F
  0
LAYER
  5
A6
330
2
100
AcDbSymbolTableRecord
100
AcDbLayerTableRecord
  2
$DDT_AUDIT_GENERATED_(A6)
 70
     0
 62
     7
  6
Continuous
370
    -3
390
F
  0
LAYER
  5
AE
330
2
100
AcDbSymbolTableRecord
100
AcDbLayerTableRecord
  2
$DDT_AUDIT_GENERATED_(AE)
 70
     0
 62
     7
  6
Continuous
370
    -3
390
F
  0
LAYER
  5
C7
330
2
100
AcDbSymbolTableRecord
100
AcDbLayerTableRecord
  2
$DDT_AUDIT_GENERATED_(C7)
 70
     0
 62
     7
  6
Continuous
370
    -3
390
F
  0
LAYER
  5
CC
330
2
100
AcDbSymbolTableRecord
100
AcDbLayerTableRecord
  2
$DDT_AUDIT_GENERATED_(CC)
 70
     0
 62
     7
  6
Continuous
370
    -3
390
F
  0
LAYER
  5
D2
330
2
100
AcDbSymbolTableRecord
100
AcDbLayerTableRecord
  2
A4227575_216135_
 70
     0
 62
     7
  6
Continuous
370
    -3
390
F
  0
LAYER
  5
DE
330
2
100
AcDbSymbolTableRecord
100
AcDbLayerTableRecord
  2
$DDT_AUDIT_GENERATED_(DE)
 70
     0
 62
     7
  6
Continuous
370
    -3
390
F
  0
LAYER
  5
E8
330
2
100
AcDbSymbolTableRecord
100
AcDbLayerTableRecord
  2
$DDT_AUDIT_GENERATED_(E8)
 70
     0
 62
     7
  6
Continuous
370
    -3
390
F
  0
LAYER
  5
EE
330
2
100
AcDbSymbolTableRecord
100
AcDbLayerTableRecord
  2
$DDT_AUDIT_GENERATED_(EE)
 70
     0
 62
     7
  6
Continuous
370
    -3
390
F
  0
LAYER
  5
FD
330
2
100
AcDbSymbolTableRecord
100
AcDbLayerTableRecord
  2
DV1_Standard
 70
     0
 62
     7
  6
Continuous
370
    -3
390
F
  0
LAYER
  5
148
330
2
100
AcDbSymbolTableRecord
100
AcDbLayerTableRecord
  2
$DDT_AUDIT_GENERATED_(148)
 70
     0
 62
     7
  6
Continuous
370
    -3
390
F
  0
LAYER
  5
19A
330
2
100
AcDbSymbolTableRecord
100
AcDbLayerTableRecord
  2
A4225112_211188_
 70
     0
 62
     7
  6
Continuous
370
    -3
390
F
  0
LAYER
  5
1BC
330
2
100
AcDbSymbolTableRecord
100
AcDbLayerTableRecord
  2
DV2_Standard
 70
     0
 62
     7
  6
Continuous
370
    -3
390
F
  0
LAYER
  5
257
330
2
100
AcDbSymbolTableRecord
100
AcDbLayerTableRecord
  2
DV3_Standard
 70
     0
 62
     7
  6
Continuous
370
    -3
390
F
  0
ENDTAB
  0
TABLE
  2
STYLE
  5
3
330
0
100
AcDbSymbolTable
 70
     2
  0
STYLE
  5
11
330
3
100
AcDbSymbolTableRecord
100
AcDbTextStyleTableRecord
  2
Standard
 70
     0
 40
0.0
 41
1.0
 50
0.0
 71
     0
 42
2.5
  3
txt
  4

  0
STYLE
  5
25E
330
3
100
AcDbSymbolTableRecord
100
AcDbTextStyleTableRecord
  2
SEACAD_seiso_ttf
 70
     0
 40
0.0
 41
1.0
 50
0.0
 71
     0
 42
0.2
  3
seiso.ttf
  4

  0
ENDTAB
  0
TABLE
  2
VIEW
  5
6
330
0
100
AcDbSymbolTable
 70
     0
  0
ENDTAB
  0
TABLE
  2
UCS
  5
7
330
0
100
AcDbSymbolTable
 70
     0
  0
ENDTAB
  0
TABLE
  2
APPID
  5
9
330
0
100
AcDbSymbolTable
 70
     1
  0
APPID
  5
12
330
9
100
AcDbSymbolTableRecord
100
AcDbRegAppTableRecord
  2
ACAD
 70
     0
  0
ENDTAB
  0
TABLE
  2
DIMSTYLE
  5
A
330
0
100
AcDbSymbolTable
 70
     1
100
AcDbDimStyleTable
  0
DIMSTYLE
105
27
330
A
100
AcDbSymbolTableRecord
100
AcDbDimStyleTableRecord
  2
ISO-25
 70
     0
 41
2.5
 42
0.625
 43
3.75
 44
1.25
 73
     0
 74
     0
 77
     1
 78
     8
140
2.5
141
2.5
143
0.0393700787
147
0.625
171
     3
172
     1
271
     2
272
     2
274
     3
278
    44
283
     0
284
     8
340
11
  0
ENDTAB
  0
TABLE
  2
BLOCK_RECORD
  5
1
330
0
100
AcDbSymbolTable
 70
     4
  0
BLOCK_RECORD
  5
1F
330
1
100
AcDbSymbolTableRecord
100
AcDbBlockTableRecord
  2
*Model_Space
340
22
  0
BLOCK_RECORD
  5
1B
330
1
100
AcDbSymbolTableRecord
100
AcDbBlockTableRecord
  2
*Paper_Space
340
1E
  0
BLOCK_RECORD
  5
5E
330
1
100
AcDbSymbolTableRecord
100
AcDbBlockTableRecord
  2
SE
340
0
102
{BLKREFS
331
5F
102
}
  0
BLOCK_RECORD
  5
113
330
1
100
AcDbSymbolTableRecord
100
AcDbBlockTableRecord
  2
SE1
340
0
102
{BLKREFS
331
114
102
}
  0
BLOCK_RECORD
  5
1C2
330
1
100
AcDbSymbolTableRecord
100
AcDbBlockTableRecord
  2
SE2
340
0
102
{BLKREFS
331
1C3
102
}
  0
ENDTAB
  0
ENDSEC
  0
SECTION
  2
BLOCKS
  0
BLOCK
  5
20
330
1F
100
AcDbEntity
  8
0
100
AcDbBlockBegin
  2
*Model_Space
 70
     0
 10
0.0
 20
0.0
 30
0.0
  3
*Model_Space
  1

  0
ENDBLK
  5
21
330
1F
100
AcDbEntity
  8
0
100
AcDbBlockEnd
  0
BLOCK
  5
1C
330
1B
100
AcDbEntity
 67
     1
  8
0
100
AcDbBlockBegin
  2
*Paper_Space
 70
     0
 10
0.0
 20
0.0
 30
0.0
  3
*Paper_Space
  1

  0
ENDBLK
  5
1D
330
1B
100
AcDbEntity
 67
     1
  8
0
100
AcDbBlockEnd
  0
BLOCK
  5
111
330
5E
100
AcDbEntity
  8
0
100
AcDbBlockBegin
  2
SE
 70
     0
 10
0.0
 20
0.0
 30
0.0
  3
SE
  1

  0
ARC
  5
61
330
5E
100
AcDbEntity
  8
$DDT_AUDIT_GENERATED_(60)
  6
Continuous
 62
     7
100
AcDbCircle
 10
200.6000798076
 20
414.7399338652
 30
0.0
 40
102.4177931865135
100
AcDbArc
 50
176.930101419
 51
184.2012307254
  0
SPLINE
  5
62
330
5E
100
AcDbEntity
  8
$DDT_AUDIT_GENERATED_(60)
  6
Continuous
 62
     7
100
AcDbSpline
210
0.0
220
0.0
230
1.0
 70
     8
 71
     3
 72
    25
 73
    21
 74
     0
 42
0.0000000001361958
 43
0.0000000001
 40
0.0
 40
0.0
 40
0.0
 40
0.0
 40
0.0315608754252915
 40
0.0625106088771911
 40
0.1249608547578563
 40
0.1872120078257706
 40
0.220364376950612
 40
0.2491775874558707
 40
0.2815254487806523
 40
0.3122783244163897
 40
0.3432196016759527
 40
0.375458334125444
 40
0.4384041476881586
 40
0.5010419676449651
 40
0.5292002469676403
 40
0.5632271526129713
 40
0.6254568827875567
 40
0.7500893925988925
 40
0.8873769405874794
 40
1.0
 40
1.0
 40
1.0
 40
1.0
 10
199.0171781093669
 20
390.8004436257017
 30
0.0
 10
197.4340100060177
 20
390.6808878053066
 30
0.0
 10
194.2983301250975
 20
390.4440912327462
 30
0.0
 10
188.0178902151436
 20
390.0470809403763
 30
0.0
 10
180.1826598337588
 20
389.6423745935861
 30
0.0
 10
172.2609652719289
 20
389.387671400724
 30
0.0
 10
166.1151057124673
 20
389.3263003658753
 30
0.0
 10
161.5430565597223
 20
389.3750105923951
 30
0.0
 10
157.272093045588
 20
389.5513194323444
 30
0.0
 10
153.2366399750549
 20
389.8918410635523
 30
0.0
 10
149.6821082063263
 20
390.3955270169135
 30
0.0
 10
145.6502265112065
 20
391.2566723081582
 30
0.0
 10
141.9878510673183
 20
392.5887122394554
 30
0.0
 10
140.1239185419261
 20
394.004893972389
 30
0.0
 10
139.1181231653786
 20
395.1348158299674
 30
0.0
 10
138.3077109893072
 20
396.2355273847917
 30
0.0
 10
137.1674440076735
 20
398.0938148458256
 30
0.0
 10
135.7272911435348
 20
400.5034607475527
 30
0.0
 10
134.0072853759834
 20
402.8439888351772
 30
0.0
 10
132.7526306844962
 20
404.3662559103229
 30
0.0
 10
132.1872163096083
 20
405.0522707098895
 30
0.0
  0
ARC
  5
63
330
5E
100
AcDbEntity
  8
$DDT_AUDIT_GENERATED_(60)
  6
Continuous
 62
     7
100
AcDbCircle
 10
129.5281245563
 20
395.7430349612
 30
0.0
 40
9.681561815002743
100
AcDbArc
 50
74.0585297947
 51
99.8329108102
  0
ARC
  5
64
330
5E
100
AcDbEntity
  8
$DDT_AUDIT_GENERATED_(60)
  6
Continuous
 62
     7
100
AcDbCircle
 10
116.350056077
 20
607.6352348761
 30
0.0
 40
202.6807804696114
100
AcDbArc
 50
266.7402454082
 51
273.2596713142
  0
ARC
  5
65
330
5E
100
AcDbEntity
  8
$DDT_AUDIT_GENERATED_(60)
  6
Continuous
 62
     7
100
AcDbCircle
 10
103.1964473692
 20
395.2817504392
 30
0.0
 40
10.13238445473902
100
AcDbArc
 50
80.750492037
 51
105.3586048661
  0
SPLINE
  5
66
330
5E
100
AcDbEntity
  8
$DDT_AUDIT_GENERATED_(60)
  6
Continuous
 62
     7
100
AcDbSpline
210
0.0
220
0.0
230
1.0
 70
     8
 71
     3
 72
    27
 73
    23
 74
     0
 42
0.0000000001362457
 43
0.0000000001
 40
0.0
 40
0.0
 40
0.0
 40
0.0
 40
0.072429520109507
 40
0.1557945276517322
 40
0.2504061921756193
 40
0.3258075178327496
 40
0.3753195444113815
 40
0.4487933387555194
 40
0.5001266828003674
 40
0.5330358615837215
 40
0.5622424841465294
 40
0.6246297182323169
 40
0.6566299052363138
 40
0.687356685264783
 40
0.7179574618106187
 40
0.750114607287725
 40
0.7791082502407877
 40
0.812490642713854
 40
0.8748686762780676
 40
0.9374061677224598
 40
0.9683994277546281
 40
1.0
 40
1.0
 40
1.0
 40
1.0
 10
100.5127890151156
 20
405.0522771689983
 30
0.0
 10
100.1460598238433
 20
404.6071889934411
 30
0.0
 10
99.35723227060306
 20
403.6498127472714
 30
0.0
 10
98.16326860127703
 20
402.1345146977997
 30
0.0
 10
97.00359558905109
 20
400.4909531755639
 30
0.0
 10
96.01043403739942
 20
398.9097554320518
 30
0.0
 10
95.08664307333599
 20
397.3538466061378
 30
0.0
 10
94.14862588040663
 20
395.8775019632005
 30
0.0
 10
93.03702865960038
 20
394.4525799088445
 30
0.0
 10
91.79308803699566
 20
393.4156507635708
 30
0.0
 10
89.9109479740951
 20
392.2951387811852
 30
0.0
 10
87.03144573542608
 20
391.2532579574734
 30
0.0
 10
83.03348401084692
 20
390.3988338287476
 30
0.0
 10
79.50630623701785
 20
389.8970835592701
 30
0.0
 10
75.50094380539976
 20
389.5560730038238
 30
0.0
 10
71.24254593634055
 20
389.3771150035512
 30
0.0
 10
66.66213205622387
 20
389.326036245474
 30
0.0
 10
60.49040784292114
 20
389.3862450589236
 30
0.0
 10
52.54610548387929
 20
389.6410590354119
 30
0.0
 10
44.69748574036478
 20
390.0461661134155
 30
0.0
 10
38.40810713664258
 20
390.4436250660394
 30
0.0
 10
35.26807769919212
 20
390.6807368257713
 30
0.0
 10
33.68283002414226
 20
390.800442985643
 30
0.0
  0
ARC
  5
67
330
5E
100
AcDbEntity
  8
$DDT_AUDIT_GENERATED_(60)
  6
Continuous
 62
     7
100
AcDbCircle
 10
189.4767405422
 20
415.2498296101
 30
0.0
 40
85.33816416617539
100
AcDbArc
 50
176.3999681002
 51
185.1302849292
  0
ARC
  5
68
330
5E
100
AcDbEntity
  8
$DDT_AUDIT_GENERATED_(60)
  6
Continuous
 62
     7
100
AcDbCircle
 10
43.3180486626
 20
415.2435378955
 30
0.0
 40
85.24294508992257
100
AcDbArc
 50
354.8682022565
 51
3.5702202959
  0
ARC
  5
69
330
5E
100
AcDbEntity
  8
$DDT_AUDIT_GENERATED_(60)
  6
Continuous
 62
     7
100
AcDbCircle
 10
32.3490665814
 20
414.7287214119
 30
0.0
 40
102.1685009328342
100
AcDbArc
 50
355.7948010006
 51
3.0316347244
  0
ELLIPSE
  5
6A
330
5E
100
AcDbEntity
  8
$DDT_AUDIT_GENERATED_(60)
  6
Continuous
 62
     7
100
AcDbEllipse
 10
100.7781245054
 20
407.3534671093
 30
0.0
 11
-1.79612909879633
 21
1.495668004897492
 31
0.0
210
0.0
220
0.0
230
0.9999999999999999
 40
0.9873047982
 41
0.750956900684084
 42
2.144534823178264
  0
ELLIPSE
  5
6B
330
5E
100
AcDbEntity
  8
$DDT_AUDIT_GENERATED_(60)
  6
Continuous
 62
     7
100
AcDbEllipse
 10
105.0212504918
 20
407.4690050904
 30
0.0
 11
0.1225711435164974
 21
2.211414187887447
 31
0.0
210
0.0
220
0.0
230
1.0
 40
0.2479080054
 41
1.516741804979425
 42
3.004804578095679
  0
ELLIPSE
  5
6C
330
5E
100
AcDbEntity
  8
$DDT_AUDIT_GENERATED_(60)
  6
Continuous
 62
     7
100
AcDbEllipse
 10
127.6785710241
 20
407.4689852382
 30
0.0
 11
-0.1225781099128496
 21
2.211410296755974
 31
0.0
210
0.0
220
0.0
230
1.0
 40
0.2478764616
 41
3.278379336492147
 42
4.766445018612612
  0
ELLIPSE
  5
6D
330
5E
100
AcDbEntity
  8
$DDT_AUDIT_GENERATED_(60)
  6
Continuous
 62
     7
100
AcDbEllipse
 10
131.9218809562
 20
407.3534605761
 30
0.0
 11
1.79612899989491
 21
1.495667963976526
 31
0.0
210
0.0
220
0.0
230
1.0
 40
0.9873048043
 41
4.138650412871218
 42
5.532228408535599
  0
ELLIPSE
  5
6E
330
5E
100
AcDbEntity
  8
$DDT_AUDIT_GENERATED_(60)
  6
Continuous
 62
     7
100
AcDbEllipse
 10
132.087351834
 20
420.0240514938
 30
0.0
 11
-0.04591132647185221
 21
2.301480267822568
 31
0.0
210
0.0
220
0.0
230
1.0
 40
0.994715273
 41
4.739521110726098
 42
6.158970075368656
  0
ELLIPSE
  5
6F
330
5E
100
AcDbEntity
  8
$DDT_AUDIT_GENERATED_(60)
  6
Continuous
 62
     7
100
AcDbEllipse
 10
127.8414389722
 20
420.4004849663
 30
0.0
 11
0.1623106105147054
 21
2.232509776148754
 31
0.0
210
0.0
220
0.0
230
1.0
 40
0.2428846179
 41
4.797850702078219
 42
6.2665938611627
  0
ELLIPSE
  5
70
330
5E
100
AcDbEntity
  8
$DDT_AUDIT_GENERATED_(60)
  6
Continuous
 62
     7
100
AcDbEllipse
 10
104.861422419
 20
420.4556446458
 30
0.0
 11
-0.1513530094607255
 21
2.234485624106573
 31
0.0
210
0.0
220
0.0
230
1.0
 40
0.2432673469
 41
0.0187642382539999
 42
1.485956129591338
  0
ELLIPSE
  5
71
330
5E
100
AcDbEntity
  8
$DDT_AUDIT_GENERATED_(60)
  6
Continuous
 62
     7
100
AcDbEllipse
 10
100.6109229938
 20
420.1165171778
 30
0.0
 11
-0.1089247464889885
 21
-2.293774238380592
 31
0.0
210
0.0
220
0.0
230
1.0
 40
0.9947185133
 41
3.288774806071503
 42
4.712401725790672
  0
SPLINE
  5
72
330
5E
100
AcDbEntity
  8
$DDT_AUDIT_GENERATED_(60)
  6
Continuous
 62
     7
100
AcDbSpline
210
0.0
220
0.0
230
1.0
 70
     8
 71
     3
 72
    17
 73
    13
 74
     0
 42
0.0000000002059907
 43
0.0000000001
 40
0.6464246159680536
 40
0.6464246159680536
 40
0.6464246159680536
 40
0.6464246159680536
 40
0.6521860720880903
 40
0.6832827832298541
 40
0.7148101851421541
 40
0.7465073054265123
 40
0.7784028873960597
 40
0.810478230583286
 40
0.8423818280077536
 40
0.8584052389407572
 40
0.8743822580120421
 40
0.8885389293967354
 40
0.8885389293967354
 40
0.8885389293967354
 40
0.8885389293967354
 10
101.0492802296748
 20
397.2152925047506
 30
0.0
 10
100.9182194506091
 20
397.2506572495914
 30
0.0
 10
100.1010894502968
 20
397.4787993718203
 30
0.0
 10
98.84552912872566
 20
397.9222421796218
 30
0.0
 10
97.78419651070156
 20
398.5413447235594
 30
0.0
 10
97.43175865731176
 20
399.1363538122168
 30
0.0
 10
97.81705395906256
 20
399.6716244338089
 30
0.0
 10
98.93661548175882
 20
400.119239697926
 30
0.0
 10
100.4521385890336
 20
400.4079865033563
 30
0.0
 10
101.9768283114161
 20
400.587399287806
 30
0.0
 10
103.2168854882488
 20
400.6944327788516
 30
0.0
 10
104.1089656340014
 20
400.7509957974181
 30
0.0
 10
104.5442208497788
 20
400.7749630969096
 30
0.0
  0
LINE
  5
73
330
5E
100
AcDbEntity
  8
$DDT_AUDIT_GENERATED_(60)
  6
Continuous
 62
     7
100
AcDbLine
 10
129.3499141319
 20
392.3728708045
 30
0.0
 11
103.3514323564
 21
392.3728708045
 31
0.0
  0
SPLINE
  5
74
330
5E
100
AcDbEntity
  8
$DDT_AUDIT_GENERATED_(60)
  6
Continuous
 62
     7
100
AcDbSpline
210
0.0
220
0.0
230
1.0
 70
     8
 71
     3
 72
    19
 73
    15
 74
     0
 42
0.0000000002961993
 43
0.0000000001
 40
0.0698324951931231
 40
0.0698324951931231
 40
0.0698324951931231
 40
0.0698324951931231
 40
0.0702013821843708
 40
0.1795853213516191
 40
0.2815279224084413
 40
0.3798725882410623
 40
0.492148019522081
 40
0.6067680969584097
 40
0.7072295461647131
 40
0.755172356479291
 40
0.8044194010699545
 40
0.8550013026171328
 40
0.9069436734599081
 40
0.9302637188137693
 40
0.9302637188137693
 40
0.9302637188137693
 40
0.9302637188137693
 10
130.349985516031
 20
394.0167654471326
 30
0.0
 10
130.3499930393228
 20
394.0178439506977
 30
0.0
 10
130.3509775558827
 20
394.3386121222538
 30
0.0
 10
129.6321368921262
 20
394.8959400063658
 30
0.0
 10
126.671618359772
 20
395.4396258512053
 30
0.0
 10
122.2492817563731
 20
395.7012528628105
 30
0.0
 10
116.6982259416144
 20
395.7833011001529
 30
0.0
 10
111.0459045712823
 20
395.720893728682
 30
0.0
 10
107.2085923399553
 20
395.5194157076688
 30
0.0
 10
104.9868311392675
 20
395.2419529364529
 30
0.0
 10
103.6859290051705
 20
394.9701209811993
 30
0.0
 10
102.771749672265
 20
394.6301190315961
 30
0.0
 10
102.4046421340662
 20
394.3014796937104
 30
0.0
 10
102.3454143975619
 20
394.0837823946823
 30
0.0
 10
102.3457577177095
 20
394.0148816145586
 30
0.0
  0
ARC
  5
75
330
5E
100
AcDbEntity
  8
$DDT_AUDIT_GENERATED_(60)
  6
Continuous
 62
     7
100
AcDbCircle
 10
133.351487922
 20
927.1744773061
 30
0.0
 40
541.5709324758095
100
AcDbArc
 50
275.4091846743
 51
276.5238467469
  0
ARC
  5
76
330
5E
100
AcDbEntity
  8
$DDT_AUDIT_GENERATED_(60)
  6
Continuous
 62
     7
100
AcDbCircle
 10
116.35
 20
1117.5537995539
 30
0.0
 40
732.7058759096506
100
AcDbArc
 50
264.6706457536
 51
269.1806018262
  0
ARC
  5
77
330
5E
100
AcDbEntity
  8
$DDT_AUDIT_GENERATED_(60)
  6
Continuous
 62
     7
100
AcDbCircle
 10
116.35
 20
1117.5537995539
 30
0.0
 40
732.7058759096506
100
AcDbArc
 50
270.8193972446
 51
275.3293542464
  0
ARC
  5
78
330
5E
100
AcDbEntity
  8
$DDT_AUDIT_GENERATED_(60)
  6
Continuous
 62
     7
100
AcDbCircle
 10
99.3485819215
 20
927.1751111425
 30
0.0
 40
541.571570073651
100
AcDbArc
 50
262.8001145887
 51
264.5908142908
  0
ARC
  5
79
330
5E
100
AcDbEntity
  8
$DDT_AUDIT_GENERATED_(60)
  6
Continuous
 62
     7
100
AcDbCircle
 10
32.4760629378
 20
397.8402934083
 30
0.0
 40
8.029367018548218
100
AcDbArc
 50
214.9688272027
 51
260.0767657185
  0
ARC
  5
7A
330
5E
100
AcDbEntity
  8
$DDT_AUDIT_GENERATED_(60)
  6
Continuous
 62
     7
100
AcDbCircle
 10
200.2235597021
 20
397.8406948122
 30
0.0
 40
8.029812428094674
100
AcDbArc
 50
279.9312465498
 51
326.651424662
  0
ARC
  5
7B
330
5E
100
AcDbEntity
  8
$DDT_AUDIT_GENERATED_(60)
  6
Continuous
 62
     7
100
AcDbCircle
 10
130.084135924
 20
-114.1460696937
 30
0.0
 40
537.4356742769855
100
AcDbArc
 50
82.3861577693
 51
83.4561792282
  0
ARC
  5
7C
330
5E
100
AcDbEntity
  8
$DDT_AUDIT_GENERATED_(60)
  6
Continuous
 62
     7
100
AcDbCircle
 10
116.2910135538
 20
-222.2136171426
 30
0.0
 40
646.3137984260711
100
AcDbArc
 50
87.204846609
 51
87.6693856501
  0
ARC
  5
7D
330
5E
100
AcDbEntity
  8
$DDT_AUDIT_GENERATED_(60)
  6
Continuous
 62
     7
100
AcDbCircle
 10
116.2910135538
 20
-222.2136171426
 30
0.0
 40
646.3137984260711
100
AcDbArc
 50
92.3201175942
 51
92.9033478513
  0
ARC
  5
7E
330
5E
100
AcDbEntity
  8
$DDT_AUDIT_GENERATED_(60)
  6
Continuous
 62
     7
100
AcDbCircle
 10
102.7240005712
 20
-113.7182294476
 30
0.0
 40
537.0296300549513
100
AcDbArc
 50
96.449066522
 51
97.631391977
  0
ARC
  5
7F
330
5E
100
AcDbEntity
  8
$DDT_AUDIT_GENERATED_(60)
  6
Continuous
 62
     7
100
AcDbCircle
 10
200.2199445005
 20
410.6272231375
 30
0.0
 40
7.996320378922999
100
AcDbArc
 50
9.7406576125
 51
82.2942516731
  0
ARC
  5
80
330
5E
100
AcDbEntity
  8
$DDT_AUDIT_GENERATED_(60)
  6
Continuous
 62
     7
100
AcDbCircle
 10
233.3247121299
 20
415.1740231447
 30
0.0
 40
55.93340126338182
100
AcDbArc
 50
173.8345787884
 51
173.8411424558
  0
LINE
  5
81
330
5E
100
AcDbEntity
  8
$DDT_AUDIT_GENERATED_(60)
  6
Continuous
 62
     7
100
AcDbLine
 10
208.1009872006
 20
411.9801109975
 30
0.0
 11
208.107843166
 21
411.9812816453
 31
0.0
  0
ARC
  5
82
330
5E
100
AcDbEntity
  8
$DDT_AUDIT_GENERATED_(60)
  6
Continuous
 62
     7
100
AcDbCircle
 10
-0.7016235906
 20
415.1517591258
 30
0.0
 40
55.89644576322494
100
AcDbArc
 50
6.1860444253
 51
6.192410747
  0
LINE
  5
83
330
5E
100
AcDbEntity
  8
$DDT_AUDIT_GENERATED_(60)
  6
Continuous
 62
     7
100
AcDbLine
 10
208.1455755098
 20
396.5293774693
 30
0.0
 11
208.1524473006
 21
396.5282437935
 31
0.0
  0
LINE
  5
84
330
5E
100
AcDbEntity
  8
$DDT_AUDIT_GENERATED_(60)
  6
Continuous
 62
     7
100
AcDbLine
 10
24.5928958352
 20
411.9855635368
 30
0.0
 11
24.5997515418
 21
411.9843922954
 31
0.0
  0
ARC
  5
85
330
5E
100
AcDbEntity
  8
$DDT_AUDIT_GENERATED_(60)
  6
Continuous
 62
     7
100
AcDbCircle
 10
115.6880391894
 20
253.0686779168
 30
0.0
 40
170.2955591651277
100
AcDbArc
 50
87.8590261096
 51
91.6952907242
  0
SPLINE
  5
86
330
5E
100
AcDbEntity
  8
$DDT_AUDIT_GENERATED_(60)
  6
Continuous
 62
     7
100
AcDbSpline
210
0.0
220
0.0
230
1.0
 70
     8
 71
     3
 72
     8
 73
     4
 74
     0
 42
0.0000000006519013
 43
0.0000000001
 40
0.0
 40
0.0
 40
0.0
 40
0.0
 40
0.0412774754139355
 40
0.0412774754139355
 40
0.0412774754139355
 40
0.0412774754139355
 10
128.5999999999999
 20
403.4953281247971
 30
0.0
 10
128.5999999999999
 20
403.3632771890345
 30
0.0
 10
128.4624650189445
 20
403.2229556977206
 30
0.0
 10
128.1936716097293
 20
403.0795599787579
 30
0.0
  0
SPLINE
  5
87
330
5E
100
AcDbEntity
  8
$DDT_AUDIT_GENERATED_(60)
  6
Continuous
 62
     7
100
AcDbSpline
210
0.0
220
0.0
230
1.0
 70
     8
 71
     3
 72
    26
 73
    22
 74
     0
 42
0.0000000002105572
 43
0.0000000001
 40
0.4578748651232338
 40
0.4578748651232338
 40
0.4578748651232338
 40
0.4578748651232338
 40
0.4999999999999999
 40
0.4999999999999999
 40
0.5624999999999999
 40
0.5624999999999999
 40
0.6249999999999999
 40
0.6249999999999999
 40
0.6874999999999999
 40
0.6874999999999999
 40
0.7499999999999998
 40
0.7499999999999998
 40
0.8124999999999998
 40
0.8124999999999998
 40
0.8437499999999996
 40
0.8437499999999996
 40
0.8749999999999993
 40
0.8749999999999993
 40
0.9374999999999997
 40
0.9374999999999997
 40
1.0
 40
1.0
 40
1.0
 40
1.0
 10
104.5413457556023
 20
403.0616743972847
 30
0.0
 10
104.2557750549692
 20
403.2086753688356
 30
0.0
 10
104.1065939751108
 20
403.3527033625547
 30
0.0
 10
104.0907535641248
 20
403.6844850530166
 30
0.0
 10
104.3995959453396
 20
403.8609990752885
 30
0.0
 10
105.6000732193704
 20
404.1398367575065
 30
0.0
 10
106.5052203729897
 20
404.2451804775735
 30
0.0
 10
108.7543115048072
 20
404.3912387190274
 30
0.0
 10
110.1160206033344
 20
404.4344903827732
 30
0.0
 10
113.0817712201051
 20
404.4860524384066
 30
0.0
 10
114.681030324914
 20
404.4955781809323
 30
0.0
 10
117.921914945164
 20
404.4959983694268
 30
0.0
 10
119.5206303217919
 20
404.4869727565838
 30
0.0
 10
121.7607054398439
 20
404.4491588165826
 30
0.0
 10
122.4677625339065
 20
404.4325105235131
 30
0.0
 10
123.8039929847905
 20
404.3873437507273
 30
0.0
 10
124.4374947471139
 20
404.3583990974041
 30
0.0
 10
126.1405421544473
 20
404.2503579531726
 30
0.0
 10
127.0542671328454
 20
404.1464940750598
 30
0.0
 10
128.2771268989365
 20
403.8701354524074
 30
0.0
 10
128.6
 20
403.6952721233678
 30
0.0
 10
128.5999999999999
 20
403.4953281247971
 30
0.0
  0
SPLINE
  5
88
330
5E
100
AcDbEntity
  8
$DDT_AUDIT_GENERATED_(60)
  6
Continuous
 62
     7
100
AcDbSpline
210
0.0
220
0.0
230
1.0
 70
     8
 71
     3
 72
    22
 73
    18
 74
     0
 42
0.0000000001110008
 43
0.0000000001
 40
0.2322325078512187
 40
0.2322325078512187
 40
0.2322325078512187
 40
0.2322325078512187
 40
0.2500000000000001
 40
0.2500000000000001
 40
0.2812500000000001
 40
0.2812500000000001
 40
0.3125000000000001
 40
0.3125000000000001
 40
0.3437500000000001
 40
0.3437500000000001
 40
0.3750000000000001
 40
0.3750000000000001
 40
0.4062500000000001
 40
0.4062500000000001
 40
0.4375000000000001
 40
0.4375000000000001
 40
0.4657771519381768
 40
0.4657771519381768
 40
0.4657771519381768
 40
0.4657771519381768
 10
142.584640907627
 20
422.2692982218277
 30
0.0
 10
142.6942084952888
 20
422.2298504280792
 30
0.0
 10
142.7490756029108
 20
422.195528332574
 30
0.0
 10
142.7515942070847
 20
422.1167184048326
 30
0.0
 10
142.580771011522
 20
422.0843952794575
 30
0.0
 10
141.9079196630082
 20
422.0631159117564
 30
0.0
 10
141.4096737296863
 20
422.07348493262
 30
0.0
 10
140.0873811603494
 20
422.1354449685335
 30
0.0
 10
139.2607907832642
 20
422.187503716862
 30
0.0
 10
137.3499590998976
 20
422.3216426709595
 30
0.0
 10
136.259047923773
 20
422.4040278210494
 30
0.0
 10
133.7951584545228
 20
422.5873834251886
 30
0.0
 10
132.4630265269986
 20
422.6851395569354
 30
0.0
 10
129.6059014338517
 20
422.8762300996103
 30
0.0
 10
128.0627071242273
 20
422.970465581557
 30
0.0
 10
125.0193553520478
 20
423.1247391969907
 30
0.0
 10
123.534873373158
 20
423.1870823132722
 30
0.0
 10
122.0116675067038
 20
423.2341320810804
 30
0.0
  0
SPLINE
  5
89
330
5E
100
AcDbEntity
  8
$DDT_AUDIT_GENERATED_(60)
  6
Continuous
 62
     7
100
AcDbSpline
210
0.0
220
0.0
230
1.0
 70
     8
 71
     3
 72
    22
 73
    18
 74
     0
 42
0.0000000001108399
 43
0.0000000001
 40
0.5341587683818079
 40
0.5341587683818079
 40
0.5341587683818079
 40
0.5341587683818079
 40
0.5625
 40
0.5625
 40
0.59375
 40
0.59375
 40
0.625
 40
0.625
 40
0.65625
 40
0.65625
 40
0.6875
 40
0.6875
 40
0.71875
 40
0.71875
 40
0.75
 40
0.75
 40
0.7678596788144643
 40
0.7678596788144643
 40
0.7678596788144643
 40
0.7678596788144643
 10
110.7468723173046
 20
423.2694464981624
 30
0.0
 10
109.2079689813429
 20
423.2312049855216
 30
0.0
 10
107.7030741047825
 20
423.1764607348261
 30
0.0
 10
104.6727069845533
 20
423.0386664063167
 30
0.0
 10
103.1364104657911
 20
422.9522593586606
 30
0.0
 10
100.2499705183299
 20
422.7708659412201
 30
0.0
 10
98.92055604359143
 20
422.6775566572713
 30
0.0
 10
96.48335998239753
 20
422.5021341969313
 30
0.0
 10
95.36715835752634
 20
422.4194325599573
 30
0.0
 10
93.44845883757662
 20
422.285401841208
 30
0.0
 10
92.63583126095732
 20
422.2332958247675
 30
0.0
 10
91.30700099515109
 20
422.1670624323608
 30
0.0
 10
90.79738824977443
 20
422.153582802883
 30
0.0
 10
90.1236150991867
 20
422.1679361503292
 30
0.0
 10
89.95114036184474
 20
422.1952619547844
 30
0.0
 10
89.94935704615689
 20
422.2682027608814
 30
0.0
 10
90.00465525864222
 20
422.3004298934757
 30
0.0
 10
90.1145625520762
 20
422.3375527655418
 30
0.0
  0
ARC
  5
8A
330
5E
100
AcDbEntity
  8
$DDT_AUDIT_GENERATED_(60)
  6
Continuous
 62
     7
100
AcDbCircle
 10
48.9053859004
 20
488.3256174791
 30
0.0
 40
99.82860060807846
100
AcDbArc
 50
260.3894811464
 51
263.6230890627
  0
ARC
  5
8B
330
5E
100
AcDbEntity
  8
$DDT_AUDIT_GENERATED_(60)
  6
Continuous
 62
     7
100
AcDbCircle
 10
183.7946662965
 20
488.3253197923
 30
0.0
 40
99.82829869099777
100
AcDbArc
 50
276.3769148446
 51
279.6105217337
  0
ARC
  5
8C
330
5E
100
AcDbEntity
  8
$DDT_AUDIT_GENERATED_(60)
  6
Continuous
 62
     7
100
AcDbCircle
 10
33.6848311816
 20
403.6226617246
 30
0.0
 40
13.92918525739131
100
AcDbArc
 50
259.276880606
 51
261.2511437442
  0
LINE
  5
8D
330
5E
100
AcDbEntity
  8
$DDT_AUDIT_GENERATED_(60)
  6
Continuous
 62
     7
100
AcDbLine
 10
201.1351573751
 20
389.8655760286
 30
0.0
 11
201.6092019199
 21
389.9314997975
 31
0.0
  0
LINE
  5
8E
330
5E
100
AcDbEntity
  8
$DDT_AUDIT_GENERATED_(60)
  6
Continuous
 62
     7
100
AcDbLine
 10
130.3499954362
 20
393.3728708045
 30
0.0
 11
130.3499954362
 21
394.0184035876
 31
0.0
  0
LINE
  5
8F
330
5E
100
AcDbEntity
  8
$DDT_AUDIT_GENERATED_(60)
  6
Continuous
 62
     7
100
AcDbLine
 10
102.3499954362
 20
394.0190939544
 30
0.0
 11
102.3499954362
 21
393.3728708045
 31
0.0
  0
SPLINE
  5
90
330
5E
100
AcDbEntity
  8
$DDT_AUDIT_GENERATED_(60)
  6
Continuous
 62
     7
100
AcDbSpline
210
0.0
220
0.0
230
1.0
 70
     8
 71
     3
 72
    17
 73
    13
 74
     0
 42
0.0000000003054346
 43
0.0000000001
 40
0.0
 40
0.0
 40
0.0
 40
0.0
 40
0.0155786636309052
 40
0.0294040270517253
 40
0.0411286638417525
 40
0.0505185475491069
 40
0.0574688559279461
 40
0.0637067903187705
 40
0.0778371553600873
 40
0.0945610005212358
 40
0.1121826605165831
 40
0.1244912788970736
 40
0.1244912788970736
 40
0.1244912788970736
 40
0.1244912788970736
 10
130.3498658503096
 20
394.020542233325
 30
0.0
 10
130.3617016155785
 20
394.3068471507772
 30
0.0
 10
130.3853209715391
 20
394.7613113645203
 30
0.0
 10
130.5514742897785
 20
395.4398626855889
 30
0.0
 10
130.7573792018573
 20
395.9677660249989
 30
0.0
 10
130.9634716639233
 20
396.3598791573331
 30
0.0
 10
131.1441360000369
 20
396.6419383947584
 30
0.0
 10
131.3521550435636
 20
396.9250383196856
 30
0.0
 10
131.6035485200557
 20
397.2071383168615
 30
0.0
 10
131.8527548977983
 20
397.4335699554787
 30
0.0
 10
132.0012114542425
 20
397.5466992301849
 30
0.0
 10
132.0292960810037
 20
397.5693254132117
 30
0.0
 10
132.0279303206445
 20
397.571398886275
 30
0.0
  0
SPLINE
  5
91
330
5E
100
AcDbEntity
  8
$DDT_AUDIT_GENERATED_(60)
  6
Continuous
 62
     7
100
AcDbSpline
210
0.0
220
0.0
230
1.0
 70
     8
 71
     3
 72
    18
 73
    14
 74
     0
 42
0.0000000003083659
 43
0.0000000001
 40
0.8724785383408298
 40
0.8724785383408298
 40
0.8724785383408298
 40
0.8724785383408298
 40
0.8725032274613533
 40
0.8896490958660991
 40
0.9083036236113323
 40
0.9257819290505066
 40
0.9387493722084276
 40
0.9474864429800551
 40
0.9519490458157867
 40
0.9582493368074478
 40
0.9694091573740468
 40
0.9834726523551602
 40
1.0
 40
1.0
 40
1.0
 40
1.0
 10
100.6238304887964
 20
397.5997074491324
 30
0.0
 10
100.6238268364977
 20
397.5997057484577
 30
0.0
 10
100.621335604453
 20
397.5984974979733
 30
0.0
 10
100.6870535024953
 20
397.5589658140572
 30
0.0
 10
100.9319014241958
 20
397.3689997089896
 30
0.0
 10
101.2176896934679
 20
397.081953785884
 30
0.0
 10
101.4569349351769
 20
396.7833024640733
 30
0.0
 10
101.6311696641111
 20
396.5277108542451
 30
0.0
 10
101.7815431882566
 20
396.2729599114286
 30
0.0
 10
101.9409002528451
 20
395.9636819329929
 30
0.0
 10
102.1334216447526
 20
395.4863103516646
 30
0.0
 10
102.3110655975188
 20
394.7967497697355
 30
0.0
 10
102.336838570918
 20
394.3234267708669
 30
0.0
 10
102.3499743805657
 20
394.0192985909608
 30
0.0
  0
ARC
  5
92
330
5E
100
AcDbEntity
  8
$DDT_AUDIT_GENERATED_(60)
  6
Continuous
 62
     7
100
AcDbCircle
 10
129.3499953267
 20
393.3728708046
 30
0.0
 40
0.9999999914589027
100
AcDbArc
 50
269.9999874493
 51
0.4827855461
  0
ARC
  5
93
330
5E
100
AcDbEntity
  8
$DDT_AUDIT_GENERATED_(60)
  6
Continuous
 62
     7
100
AcDbCircle
 10
103.3499956294
 20
393.3728708043
 30
0.0
 40
0.9999999998714059
100
AcDbArc
 50
180.2456572356
 51
270.0000221645
  0
SPLINE
  5
94
330
5E
100
AcDbEntity
  8
$DDT_AUDIT_GENERATED_(60)
  6
Continuous
 62
     7
100
AcDbSpline
210
0.0
220
0.0
230
1.0
 70
     8
 71
     3
 72
    10
 73
     6
 74
     0
 42
0.0000000007305267
 43
0.0000000001
 40
0.0
 40
0.0
 40
0.0
 40
0.0
 40
0.2354348665767838
 40
0.752718437478828
 40
1.0
 40
1.0
 40
1.0
 40
1.0
 10
191.3316060462376
 20
419.7881680233709
 30
0.0
 10
190.1580071823196
 20
419.9260206404363
 30
0.0
 10
186.986074310337
 20
420.2966363533022
 30
0.0
 10
182.1795377552143
 20
420.787618826135
 30
0.0
 10
178.9514725600366
 20
421.0757655451314
 30
0.0
 10
177.715176881125
 20
421.1851680389382
 30
0.0
  0
SPLINE
  5
95
330
5E
100
AcDbEntity
  8
$DDT_AUDIT_GENERATED_(60)
  6
Continuous
 62
     7
100
AcDbSpline
210
0.0
220
0.0
230
1.0
 70
     8
 71
     3
 72
    12
 73
     8
 74
     0
 42
0.0000000032130398
 43
0.0000000001
 40
0.0
 40
0.0
 40
0.0
 40
0.0
 40
0.045941199461455
 40
0.3315132072569179
 40
0.6155214976247187
 40
0.8991569514783544
 40
0.9617348049974302
 40
0.9617348049974302
 40
0.9617348049974302
 40
0.9617348049974302
 10
204.2169475709987
 20
417.5478744612655
 30
0.0
 10
204.1727400407369
 20
417.5760369016181
 30
0.0
 10
203.8987177002263
 20
417.7500430346195
 30
0.0
 10
203.2942231266036
 20
418.0246670088808
 30
0.0
 10
202.4738048576324
 20
418.3149057087415
 30
0.0
 10
201.8173669185509
 20
418.4791950253425
 30
0.0
 10
201.479750666188
 20
418.5207235191322
 30
0.0
 10
201.4149896336445
 20
418.527971073494
 30
0.0
  0
SPLINE
  5
96
330
5E
100
AcDbEntity
  8
$DDT_AUDIT_GENERATED_(60)
  6
Continuous
 62
     7
100
AcDbSpline
210
0.0
220
0.0
230
1.0
 70
     8
 71
     3
 72
    10
 73
     6
 74
     0
 42
0.0000000014203489
 43
0.0000000001
 40
0.0
 40
0.0
 40
0.0
 40
0.0
 40
0.0167532974939537
 40
0.1416022143672561
 40
0.184976632781724
 40
0.184976632781724
 40
0.184976632781724
 40
0.184976632781724
 10
208.1022059819038
 20
411.9801904360318
 30
0.0
 10
208.0969977165876
 20
412.0229655938721
 30
0.0
 10
208.0588391318958
 20
412.3335658434439
 30
0.0
 10
207.940292770784
 20
412.7665935853574
 30
0.0
 10
207.8169663162942
 20
413.1426729150677
 30
0.0
 10
207.78380571733
 20
413.2386671506334
 30
0.0
  0
SPLINE
  5
97
330
5E
100
AcDbEntity
  8
$DDT_AUDIT_GENERATED_(60)
  6
Continuous
 62
     7
100
AcDbSpline
210
0.0
220
0.0
230
1.0
 70
     8
 71
     3
 72
     8
 73
     4
 74
     0
 42
0.0000000013415178
 43
0.0000000001
 40
0.974313597008555
 40
0.974313597008555
 40
0.974313597008555
 40
0.974313597008555
 40
1.0
 40
1.0
 40
1.0
 40
1.0
 10
204.3814421982474
 20
417.4498793277008
 30
0.0
 10
204.3284434806179
 20
417.4817245620193
 30
0.0
 10
204.2737928422715
 20
417.5142058187764
 30
0.0
 10
204.2169475709987
 20
417.5478744612655
 30
0.0
  0
ARC
  5
98
330
5E
100
AcDbEntity
  8
$DDT_AUDIT_GENERATED_(60)
  6
Continuous
 62
     7
100
AcDbCircle
 10
121.9164887215
 20
-320.5652407457
 30
0.0
 40
744.7730233147103
100
AcDbArc
 50
92.9522941373
 51
95.1650305592
  0
ARC
  5
99
330
5E
100
AcDbEntity
  8
$DDT_AUDIT_GENERATED_(60)
  6
Continuous
 62
     7
100
AcDbCircle
 10
109.0935346723
 20
-346.2993445984
 30
0.0
 40
770.5505803284707
100
AcDbArc
 50
84.8907106672
 51
87.1202829239
  0
SPLINE
  5
9A
330
5E
100
AcDbEntity
  8
$DDT_AUDIT_GENERATED_(60)
  6
Continuous
 62
     7
100
AcDbSpline
210
0.0
220
0.0
230
1.0
 70
     8
 71
     3
 72
    16
 73
    12
 74
     0
 42
0.0000000006439343
 43
0.0000000001
 40
0.0
 40
0.0
 40
0.0
 40
0.0
 40
0.0186304366956566
 40
0.1580490404295035
 40
0.2966866830395235
 40
0.4342467811012363
 40
0.5706040391984516
 40
0.7064054953030636
 40
0.8431870975574383
 40
0.98135804519471
 40
1.0
 40
1.0
 40
1.0
 40
1.0
 10
208.1466835116026
 20
396.5291506836748
 30
0.0
 10
208.1657391729801
 20
396.6334707537517
 30
0.0
 10
208.3042235816712
 20
397.3937075880313
 30
0.0
 10
208.5011444527242
 20
398.9683766709529
 30
0.0
 10
208.6955507705678
 20
401.0914358095409
 30
0.0
 10
208.7864331392335
 20
403.2306623350017
 30
0.0
 10
208.7783835477466
 20
405.3487865739476
 30
0.0
 10
208.6728327949465
 20
407.4685204818446
 30
0.0
 10
208.4664869160108
 20
409.5653930884636
 30
0.0
 10
208.2639199869454
 20
411.1227011537608
 30
0.0
 10
208.1212455389957
 20
411.8759788700502
 30
0.0
 10
208.1014501763092
 20
411.980227843192
 30
0.0
  0
SPLINE
  5
9B
330
5E
100
AcDbEntity
  8
$DDT_AUDIT_GENERATED_(60)
  6
Continuous
 62
     7
100
AcDbSpline
210
0.0
220
0.0
230
1.0
 70
     8
 71
     3
 72
    10
 73
     6
 74
     0
 42
0.0000000007981761
 43
0.0000000001
 40
0.0
 40
0.0
 40
0.0
 40
0.0
 40
0.0963496083040989
 40
0.662288154680396
 40
1.0
 40
1.0
 40
1.0
 40
1.0
 10
54.86794160146078
 20
421.1898724121676
 30
0.0
 10
54.42699193805169
 20
421.1516939304823
 30
0.0
 10
51.83415048996682
 20
420.9265044655063
 30
0.0
 10
47.40990559130553
 20
420.4830147074195
 30
0.0
 10
43.94670595012737
 20
420.0884408675185
 30
0.0
 10
42.40551706460666
 20
419.9112568434028
 30
0.0
  0
SPLINE
  5
9C
330
5E
100
AcDbEntity
  8
$DDT_AUDIT_GENERATED_(60)
  6
Continuous
 62
     7
100
AcDbSpline
210
0.0
220
0.0
230
1.0
 70
     8
 71
     3
 72
    12
 73
     8
 74
     0
 42
0.0000000029738196
 43
0.0000000001
 40
0.0
 40
0.0
 40
0.0
 40
0.0
 40
0.0771872893046431
 40
0.3423619213270296
 40
0.6058158293847337
 40
0.8681736767504642
 40
1.0
 40
1.0
 40
1.0
 40
1.0
 10
206.9274241567612
 20
393.4310468214348
 30
0.0
 10
206.9824652866223
 20
393.5084474092203
 30
0.0
 10
207.190357207046
 20
393.8024493947551
 30
0.0
 10
207.5132584879586
 20
394.4258639758439
 30
0.0
 10
207.8410263966644
 20
395.2338228558844
 30
0.0
 10
208.0554051390616
 20
395.9619223157236
 30
0.0
 10
208.1167849310178
 20
396.3697561314067
 30
0.0
 10
208.140214248487
 20
396.5302617981485
 30
0.0
  0
SPLINE
  5
9D
330
5E
100
AcDbEntity
  8
$DDT_AUDIT_GENERATED_(60)
  6
Continuous
 62
     7
100
AcDbSpline
210
0.0
220
0.0
230
1.0
 70
     8
 71
     3
 72
    18
 73
    14
 74
     0
 42
0.0000000011090424
 43
0.0000000001
 40
0.0
 40
0.0
 40
0.0
 40
0.0
 40
0.0853743875546112
 40
0.1842856021393335
 40
0.2819938247188915
 40
0.3798987252933245
 40
0.4786552912721438
 40
0.5762781992705467
 40
0.6738872490748044
 40
0.7725045673156685
 40
0.8705020273165553
 40
0.9682327799116581
 40
1.0
 40
1.0
 40
1.0
 40
1.0
 10
30.30678376692339
 20
418.320942238088
 30
0.0
 10
30.03687218319641
 20
418.2403235362445
 30
0.0
 10
29.54530649549865
 20
418.08956620692
 30
0.0
 10
28.75813696152311
 20
417.7285977879566
 30
0.0
 10
28.00212497956596
 20
417.278092263929
 30
0.0
 10
27.29491075854404
 20
416.7442224879404
 30
0.0
 10
26.65181959727197
 20
416.137427102207
 30
0.0
 10
26.08131991690191
 20
415.4622770422223
 30
0.0
 10
25.58855035105924
 20
414.730156588441
 30
0.0
 10
25.17616597085068
 20
413.9453245876343
 30
0.0
 10
24.86240019656893
 20
413.1263179534961
 30
0.0
 10
24.6681686167298
 20
412.4489136654715
 30
0.0
 10
24.61770991340914
 20
412.087378410343
 30
0.0
 10
24.60351072246017
 20
411.983528148653
 30
0.0
  0
SPLINE
  5
9E
330
5E
100
AcDbEntity
  8
$DDT_AUDIT_GENERATED_(60)
  6
Continuous
 62
     7
100
AcDbSpline
210
0.0
220
0.0
230
1.0
 70
     8
 71
     3
 72
    10
 73
     6
 74
     0
 42
0.0000000088566379
 43
0.0000000001
 40
0.0
 40
0.0
 40
0.0
 40
0.0
 40
0.1157938936968804
 40
0.8976396067000426
 40
1.0
 40
1.0
 40
1.0
 40
1.0
 10
31.40761641514128
 20
418.549853360035
 30
0.0
 10
31.36000128512094
 20
418.5456324526979
 30
0.0
 10
31.04440611178213
 20
418.5167917636298
 30
0.0
 10
30.64353989819894
 20
418.4324879912094
 30
0.0
 10
30.34686738053777
 20
418.3343173924631
 30
0.0
 10
30.30678376692339
 20
418.320942238088
 30
0.0
  0
SPLINE
  5
9F
330
5E
100
AcDbEntity
  8
$DDT_AUDIT_GENERATED_(60)
  6
Continuous
 62
     7
100
AcDbSpline
210
0.0
220
0.0
230
1.0
 70
     8
 71
     3
 72
    16
 73
    12
 74
     0
 42
0.0000000006437376
 43
0.0000000001
 40
0.0
 40
0.0
 40
0.0
 40
0.0
 40
0.0186635103599868
 40
0.158234342371297
 40
0.296973972924016
 40
0.4345931800184046
 40
0.5709737237840918
 40
0.7067164639491436
 40
0.8433974080538787
 40
0.9814305243633168
 40
1.0
 40
1.0
 40
1.0
 40
1.0
 10
24.5986566992259
 20
411.9848159722718
 30
0.0
 10
24.57897097802461
 20
411.880388363545
 30
0.0
 10
24.4359830198638
 20
411.1198263427105
 30
0.0
 10
24.22969971256716
 20
409.544322335519
 30
0.0
 10
24.02284474555812
 20
407.420165051619
 30
0.0
 10
23.91950650097892
 20
405.279893966196
 30
0.0
 10
23.91528066407463
 20
403.1609890545723
 30
0.0
 10
24.00864020135903
 20
401.0407371996221
 30
0.0
 10
24.20295216892472
 20
398.9436081713999
 30
0.0
 10
24.39653239136209
 20
397.3863332604977
 30
0.0
 10
24.53486483521036
 20
396.6330424704858
 30
0.0
 10
24.55400990559074
 20
396.5290587619864
 30
0.0
  0
SPLINE
  5
A0
330
5E
100
AcDbEntity
  8
$DDT_AUDIT_GENERATED_(60)
  6
Continuous
 62
     7
100
AcDbSpline
210
0.0
220
0.0
230
1.0
 70
     8
 71
     3
 72
    10
 73
     6
 74
     0
 42
0.0000000027820929
 43
0.0000000001
 40
0.0
 40
0.0
 40
0.0
 40
0.0
 40
0.0280461038800321
 40
0.2725455185161142
 40
0.3590346434538
 40
0.3590346434538
 40
0.3590346434538
 40
0.3590346434538
 10
24.55238418612445
 20
396.5297815886182
 30
0.0
 10
24.5565842847794
 20
396.4931735380075
 30
0.0
 10
24.59194639178701
 20
396.1873679000759
 30
0.0
 10
24.7068098414821
 20
395.7562319957938
 30
0.0
 10
24.82748176027821
 20
395.3785638533831
 30
0.0
 10
24.86044490683735
 20
395.2807956054073
 30
0.0
  0
SPLINE
  5
A1
330
5E
100
AcDbEntity
  8
$DDT_AUDIT_GENERATED_(60)
  6
Continuous
 62
     7
100
AcDbSpline
210
0.0
220
0.0
230
1.0
 70
     8
 71
     3
 72
    10
 73
     6
 74
     0
 42
0.0000000027876276
 43
0.0000000001
 40
0.3975012133784938
 40
0.3975012133784938
 40
0.3975012133784938
 40
0.3975012133784938
 40
0.5179273480813796
 40
0.7657203708650274
 40
1.0
 40
1.0
 40
1.0
 40
1.0
 10
24.90531282525603
 20
395.1508535167698
 30
0.0
 10
24.95309858466232
 20
395.0157409407443
 30
0.0
 10
25.10880403183031
 20
394.6069200421833
 30
0.0
 10
25.42898882446407
 20
393.9416507129112
 30
0.0
 10
25.72239819279806
 20
393.4949641621469
 30
0.0
 10
25.8934531026258
 20
393.2390632168593
 30
0.0
  0
ARC
  5
A3
330
5E
100
AcDbEntity
  8
$DDT_AUDIT_GENERATED_(A2)
  6
Continuous
 62
     7
100
AcDbCircle
 10
191.35
 20
403.3730365903
 30
0.0
 40
35.0
100
AcDbArc
 50
209.4032912449
 51
0.0
  0
ARC
  5
A4
330
5E
100
AcDbEntity
  8
$DDT_AUDIT_GENERATED_(A2)
  6
Continuous
 62
     7
100
AcDbCircle
 10
191.35
 20
403.3730365903
 30
0.0
 40
35.0
100
AcDbArc
 50
0.0
 51
146.9909111771
  0
ARC
  5
A5
330
5E
100
AcDbEntity
  8
$DDT_AUDIT_GENERATED_(A2)
  6
Continuous
 62
     7
100
AcDbCircle
 10
41.35
 20
403.3730365903
 30
0.0
 40
35.0
100
AcDbArc
 50
33.0114183277
 51
330.5984055799
  0
LINE
  5
A7
330
5E
100
AcDbEntity
  8
$DDT_AUDIT_GENERATED_(A6)
  6
Continuous
 62
     7
100
AcDbLine
 10
90.8941751439
 20
454.3430365903
 30
0.0
 11
141.8058248561
 21
454.3430365903
 31
0.0
  0
ARC
  5
A8
330
5E
100
AcDbEntity
  8
$DDT_AUDIT_GENERATED_(A6)
  6
Continuous
 62
     7
100
AcDbCircle
 10
116.35
 20
448.3430365903
 30
0.0
 40
25.00000000000011
100
AcDbArc
 50
161.0370033468
 51
166.1134596374
  0
ARC
  5
A9
330
5E
100
AcDbEntity
  8
$DDT_AUDIT_GENERATED_(A6)
  6
Continuous
 62
     7
100
AcDbCircle
 10
116.35
 20
448.3430365903
 30
0.0
 40
24.99999999999992
100
AcDbArc
 50
13.8865403626
 51
18.9713940928
  0
LINE
  5
AA
330
5E
100
AcDbEntity
  8
$DDT_AUDIT_GENERATED_(A6)
  6
Continuous
 62
     7
100
AcDbLine
 10
142.5828499438
 20
422.0996587385
 30
0.0
 11
142.3058058196
 21
453.8473996343
 31
0.0
  0
LINE
  5
AB
330
5E
100
AcDbEntity
  8
$DDT_AUDIT_GENERATED_(A6)
  6
Continuous
 62
     7
100
AcDbLine
 10
90.3941941804
 20
453.8473996343
 30
0.0
 11
90.1178741515
 21
422.1826360914
 31
0.0
  0
ARC
  5
AC
330
5E
100
AcDbEntity
  8
$DDT_AUDIT_GENERATED_(A6)
  6
Continuous
 62
     7
100
AcDbCircle
 10
90.8941751439
 20
453.8430365903
 30
0.0
 40
0.5000000000000004
100
AcDbArc
 50
90.0
 51
179.500025649
  0
ARC
  5
AD
330
5E
100
AcDbEntity
  8
$DDT_AUDIT_GENERATED_(A6)
  6
Continuous
 62
     7
100
AcDbCircle
 10
141.8058248561
 20
453.8430365903
 30
0.0
 40
0.5000000000000007
100
AcDbArc
 50
0.499974351
 51
90.0
  0
SPLINE
  5
AF
330
5E
100
AcDbEntity
  8
$DDT_AUDIT_GENERATED_(AE)
  6
Continuous
 62
     7
100
AcDbSpline
210
0.0
220
0.0
230
1.0
 70
     8
 71
     3
 72
     8
 73
     4
 74
     0
 42
0.0000000002971424
 43
0.0000000001
 40
0.3290034609267636
 40
0.3290034609267636
 40
0.3290034609267636
 40
0.3290034609267636
 40
0.336276620032054
 40
0.336276620032054
 40
0.336276620032054
 40
0.336276620032054
 10
96.72786420030133
 20
489.727874913064
 30
0.0
 10
96.70512984158508
 20
489.6480552133878
 30
0.0
 10
96.68532079232162
 20
489.5688032848877
 30
0.0
 10
96.66931082635098
 20
489.4903339544001
 30
0.0
  0
ELLIPSE
  5
B0
330
5E
100
AcDbEntity
  8
$DDT_AUDIT_GENERATED_(AE)
  6
Continuous
 62
     7
100
AcDbEllipse
 10
128.7629769163
 20
499.6125062797
 30
0.0
 11
-1.165785585498225
 21
-0.9438982829969578
 31
0.0
210
0.0
220
0.0
230
1.0
 40
0.9899761817
 41
3.105627968896806
 42
3.142541199357496
  0
ELLIPSE
  5
B1
330
5E
100
AcDbEntity
  8
$DDT_AUDIT_GENERATED_(AE)
  6
Continuous
 62
     7
100
AcDbEllipse
 10
103.9570230837
 20
499.6125062797
 30
0.0
 11
1.165785585497722
 21
-0.9438982829975268
 31
0.0
210
0.0
220
0.0
230
1.0
 40
0.9899761817
 41
3.146206507368784
 42
3.177581199037538
  0
SPLINE
  5
B2
330
5E
100
AcDbEntity
  8
$DDT_AUDIT_GENERATED_(AE)
  6
Continuous
 62
     7
100
AcDbSpline
210
0.0
220
0.0
230
1.0
 70
     8
 71
     3
 72
    36
 73
    32
 74
     0
 42
0.0000000002300612
 43
0.0000000001
 40
0.0
 40
0.0
 40
0.0
 40
0.0
 40
0.1249999999999999
 40
0.1249999999999999
 40
0.2499999999999998
 40
0.2499999999999998
 40
0.3749999999999999
 40
0.3749999999999999
 40
0.5000000000000001
 40
0.5000000000000001
 40
0.5625000000000001
 40
0.5625000000000001
 40
0.625
 40
0.625
 40
0.6875
 40
0.6875
 40
0.71875
 40
0.71875
 40
0.7499999999999999
 40
0.7499999999999999
 40
0.7812499999999999
 40
0.7812499999999999
 40
0.8124999999999999
 40
0.8124999999999999
 40
0.8437499999999999
 40
0.8437499999999999
 40
0.8749999999999999
 40
0.8749999999999999
 40
0.9374999999999999
 40
0.9374999999999999
 40
1.0
 40
1.0
 40
1.0
 40
1.0
 10
103.3513064428142
 20
497.9882806865001
 30
0.0
 10
102.9468689672868
 20
497.296644559589
 30
0.0
 10
102.5396227715721
 20
496.6065455908103
 30
0.0
 10
101.7759803383514
 20
495.2504864406576
 30
0.0
 10
101.4116012339275
 20
494.5797863703481
 30
0.0
 10
100.686535187259
 20
493.2055381299243
 30
0.0
 10
100.32688546943
 20
492.5029786445537
 30
0.0
 10
99.54488821181887
 20
490.9780437857467
 30
0.0
 10
99.1211921954706
 20
490.1479758411961
 30
0.0
 10
98.33389223109815
 20
488.766427618214
 30
0.0
 10
98.04402626418091
 20
488.2851996618832
 30
0.0
 10
97.43195318890555
 20
487.2971068002078
 30
0.0
 10
97.11419266603696
 20
486.7930035924862
 30
0.0
 10
96.51278350237605
 20
485.6712572730561
 30
0.0
 10
96.23064326557876
 20
485.0444252272264
 30
0.0
 10
95.80647575843356
 20
483.8367425564761
 30
0.0
 10
95.66407658488106
 20
483.3877012509989
 30
0.0
 10
95.36646144269045
 20
482.3447896803955
 30
0.0
 10
95.20991636939013
 20
481.745090303157
 30
0.0
 10
94.88465275164678
 20
480.3780887598845
 30
0.0
 10
94.71295806955116
 20
479.5972999839134
 30
0.0
 10
94.35751118392902
 20
477.864616210248
 30
0.0
 10
94.1773540411431
 20
476.9317994138621
 30
0.0
 10
93.80828753123514
 20
474.9586692473106
 30
0.0
 10
93.61878269854847
 20
473.9159739495309
 30
0.0
 10
93.24288319075549
 20
471.8352078771891
 30
0.0
 10
93.05433800068056
 20
470.7855865176039
 30
0.0
 10
92.48442201915643
 20
467.6209884631912
 30
0.0
 10
92.09764434274574
 20
465.4892280689298
 30
0.0
 10
91.3298881622808
 20
461.2185589794244
 30
0.0
 10
90.95216269326593
 20
459.0828855038029
 30
0.0
 10
90.58187308206895
 20
456.9460796957774
 30
0.0
  0
SPLINE
  5
B3
330
5E
100
AcDbEntity
  8
$DDT_AUDIT_GENERATED_(AE)
  6
Continuous
 62
     7
100
AcDbSpline
210
0.0
220
0.0
230
1.0
 70
     8
 71
     3
 72
    18
 73
    14
 74
     0
 42
0.0000000029591265
 43
0.0000000001
 40
0.0
 40
0.0
 40
0.0
 40
0.0
 40
0.1249999999999998
 40
0.1249999999999998
 40
0.2499999999999997
 40
0.2499999999999997
 40
0.3749999999999995
 40
0.3749999999999995
 40
0.4999999999999993
 40
0.4999999999999993
 40
0.7499999999999997
 40
0.7499999999999997
 40
1.0
 40
1.0
 40
1.0
 40
1.0
 10
106.6381419718627
 20
498.4801978445208
 30
0.0
 10
106.4225454518151
 20
498.4787664270363
 30
0.0
 10
106.2125933693681
 20
498.4747256552254
 30
0.0
 10
105.8036640934528
 20
498.4614279940395
 30
0.0
 10
105.603179015041
 20
498.4520677364842
 30
0.0
 10
105.221710790167
 20
498.428229915859
 30
0.0
 10
105.0413688171847
 20
498.4138504767398
 30
0.0
 10
104.7010648950381
 20
498.3801125698649
 30
0.0
 10
104.5400915594706
 20
498.3606002985554
 30
0.0
 10
104.0966422613159
 20
498.29502688247
 30
0.0
 10
103.8578705850512
 20
498.242948953884
 30
0.0
 10
103.5017795862154
 20
498.1230123171869
 30
0.0
 10
103.3920571357085
 20
498.0579692121887
 30
0.0
 10
103.3513064428142
 20
497.9882806865001
 30
0.0
  0
ARC
  5
B4
330
5E
100
AcDbEntity
  8
$DDT_AUDIT_GENERATED_(AE)
  6
Continuous
 62
     7
100
AcDbCircle
 10
116.3600000046
 20
-1262.8227790624
 30
0.0
 40
1761.329807555891
100
AcDbArc
 50
89.6837478933
 51
90.316252107
  0
SPLINE
  5
B5
330
5E
100
AcDbEntity
  8
$DDT_AUDIT_GENERATED_(AE)
  6
Continuous
 62
     7
100
AcDbSpline
210
0.0
220
0.0
230
1.0
 70
     8
 71
     3
 72
    18
 73
    14
 74
     0
 42
0.0000000029643681
 43
0.0000000001
 40
0.0
 40
0.0
 40
0.0
 40
0.0
 40
0.125
 40
0.125
 40
0.25
 40
0.25
 40
0.375
 40
0.375
 40
0.5
 40
0.5
 40
0.75
 40
0.75
 40
1.0
 40
1.0
 40
1.0
 40
1.0
 10
129.368693557176
 20
497.9882806865104
 30
0.0
 10
129.3483178716255
 20
498.0231255292624
 30
0.0
 10
129.3103038895608
 20
498.0568814896097
 30
0.0
 10
129.2000214755712
 20
498.1221314482044
 30
0.0
 10
129.1269261514532
 20
498.1538725526356
 30
0.0
 10
128.9492295558501
 20
498.2134987046696
 30
0.0
 10
128.8451520760281
 20
498.2413575662728
 30
0.0
 10
128.60722165136
 20
498.2932479296584
 30
0.0
 10
128.4721828011425
 20
498.3174466131035
 30
0.0
 10
128.0284628991408
 20
498.3828618347948
 30
0.0
 10
127.6863287408134
 20
498.4165736699896
 30
0.0
 10
126.9201408544122
 20
498.4642628609105
 30
0.0
 10
126.513056958293
 20
498.4773349704939
 30
0.0
 10
126.0818580281233
 20
498.480197844572
 30
0.0
  0
SPLINE
  5
B6
330
5E
100
AcDbEntity
  8
$DDT_AUDIT_GENERATED_(AE)
  6
Continuous
 62
     7
100
AcDbSpline
210
0.0
220
0.0
230
1.0
 70
     8
 71
     3
 72
    22
 73
    18
 74
     0
 42
0.0000000001115228
 43
0.0000000001
 40
0.6842468479280336
 40
0.6842468479280336
 40
0.6842468479280336
 40
0.6842468479280336
 40
0.6875000000000001
 40
0.6875000000000001
 40
0.7500000000000002
 40
0.7500000000000002
 40
0.7812500000000002
 40
0.7812500000000002
 40
0.8125000000000002
 40
0.8125000000000002
 40
0.8437500000000002
 40
0.8437500000000002
 40
0.8750000000000002
 40
0.8750000000000002
 40
0.9375000000000001
 40
0.9375000000000001
 40
1.0
 40
1.0
 40
1.0
 40
1.0
 10
136.7822835939718
 20
484.761606496453
 30
0.0
 10
136.7954832750876
 20
484.7156500531503
 30
0.0
 10
136.8087410765035
 20
484.6692734105427
 30
0.0
 10
137.0779140555323
 20
483.7231545411796
 30
0.0
 10
137.3619862219516
 20
482.639807188412
 30
0.0
 10
137.8404945365792
 20
480.5234997637646
 30
0.0
 10
138.010440594694
 20
479.7264697187615
 30
0.0
 10
138.3633019021812
 20
477.970882400841
 30
0.0
 10
138.5427816471618
 20
477.0305315459829
 30
0.0
 10
138.9106552132505
 20
475.0465549147098
 30
0.0
 10
139.0997681399083
 20
473.9999294381944
 30
0.0
 10
139.475380665161
 20
471.9105586996499
 30
0.0
 10
139.6639243484005
 20
470.8568805273154
 30
0.0
 10
140.2340964593405
 20
467.680508424935
 30
0.0
 10
140.6213764689643
 20
465.5416322795865
 30
0.0
 10
141.3906514811285
 20
461.2569313972124
 30
0.0
 10
141.7693987489522
 20
459.1141688596429
 30
0.0
 10
142.140678865716
 20
456.9702296680528
 30
0.0
  0
SPLINE
  5
B7
330
5E
100
AcDbEntity
  8
$DDT_AUDIT_GENERATED_(AE)
  6
Continuous
 62
     7
100
AcDbSpline
210
0.0
220
0.0
230
1.0
 70
     8
 71
     3
 72
    22
 73
    18
 74
     0
 42
0.0000000001113928
 43
0.0000000001
 40
0.0
 40
0.0
 40
0.0
 40
0.0
 40
0.0625000000000001
 40
0.0625000000000001
 40
0.1250000000000003
 40
0.1250000000000003
 40
0.1562500000000003
 40
0.1562500000000003
 40
0.1875000000000003
 40
0.1875000000000003
 40
0.2187500000000004
 40
0.2187500000000004
 40
0.2500000000000003
 40
0.2500000000000003
 40
0.3125000000000004
 40
0.3125000000000004
 40
0.3150360515132545
 40
0.3150360515132545
 40
0.3150360515132545
 40
0.3150360515132545
 10
90.5793211918101
 20
456.9702296675082
 30
0.0
 10
90.95061569169378
 20
459.1142519673718
 30
0.0
 10
91.32937803421524
 20
461.2570975069196
 30
0.0
 10
92.09868357248672
 20
465.5419644427616
 30
0.0
 10
92.48597813135504
 20
467.6809221388197
 30
0.0
 10
93.05617109309657
 20
470.8574124266263
 30
0.0
 10
93.24472157760489
 20
471.9111291940281
 30
0.0
 10
93.62034822923324
 20
474.0005737987104
 30
0.0
 10
93.80946819367526
 20
475.0472323523454
 30
0.0
 10
94.17735185389766
 20
477.0312383870598
 30
0.0
 10
94.35683665053807
 20
477.9715963544523
 30
0.0
 10
94.7097082936964
 20
479.7271848441619
 30
0.0
 10
94.87965305483729
 20
480.5241791444794
 30
0.0
 10
95.35816397389722
 20
482.6404172175974
 30
0.0
 10
95.642204398699
 20
483.7235944201333
 30
0.0
 10
95.90842514417413
 20
484.659311876839
 30
0.0
 10
95.91877010369898
 20
484.6955368189757
 30
0.0
 10
95.92907956159868
 20
484.7315047903442
 30
0.0
  0
SPLINE
  5
B8
330
5E
100
AcDbEntity
  8
$DDT_AUDIT_GENERATED_(AE)
  6
Continuous
 62
     7
100
AcDbSpline
210
0.0
220
0.0
230
1.0
 70
     8
 71
     3
 72
    36
 73
    32
 74
     0
 42
0.0000000002300611
 43
0.0000000001
 40
0.0
 40
0.0
 40
0.0
 40
0.0
 40
0.0624999999999999
 40
0.0624999999999999
 40
0.1249999999999999
 40
0.1249999999999999
 40
0.1562499999999999
 40
0.1562499999999999
 40
0.1874999999999998
 40
0.1874999999999998
 40
0.2187499999999998
 40
0.2187499999999998
 40
0.2499999999999998
 40
0.2499999999999998
 40
0.2812499999999998
 40
0.2812499999999998
 40
0.3124999999999999
 40
0.3124999999999999
 40
0.3749999999999999
 40
0.3749999999999999
 40
0.4374999999999999
 40
0.4374999999999999
 40
0.5
 40
0.5
 40
0.6250000000000001
 40
0.6250000000000001
 40
0.7500000000000001
 40
0.7500000000000001
 40
0.8750000000000001
 40
0.8750000000000001
 40
1.0
 40
1.0
 40
1.0
 40
1.0
 10
142.1381269750922
 20
456.9460796988316
 30
0.0
 10
141.7680327174065
 20
459.0817581404004
 30
0.0
 10
141.3905119385153
 20
461.2163056319646
 30
0.0
 10
140.623170834445
 20
465.4847218866889
 30
0.0
 10
140.236591145765
 20
467.6153770216587
 30
0.0
 10
139.6669596702517
 20
470.7783744129051
 30
0.0
 10
139.4785074267392
 20
471.8274732793543
 30
0.0
 10
139.1028017422118
 20
473.9072411943993
 30
0.0
 10
138.9133953532186
 20
474.949482654145
 30
0.0
 10
138.5444684697529
 20
476.9222446396815
 30
0.0
 10
138.3643824864589
 20
477.8549898917995
 30
0.0
 10
138.0090868229883
 20
479.5877237623649
 30
0.0
 10
137.8375511887406
 20
480.3681860018717
 30
0.0
 10
137.513322095862
 20
481.7321099522893
 30
0.0
 10
137.3573773839433
 20
482.3305538181901
 30
0.0
 10
137.0588936059851
 20
483.3780594083565
 30
0.0
 10
136.9162323684376
 20
483.828501439612
 30
0.0
 10
136.4915367425299
 20
485.0392656504673
 30
0.0
 10
136.2094396984751
 20
485.6666634556304
 30
0.0
 10
135.6080111244676
 20
486.7893369645006
 30
0.0
 10
135.2902098470059
 20
487.2936439038978
 30
0.0
 10
134.6778664588529
 20
488.282115395616
 30
0.0
 10
134.3878152686299
 20
488.7635223314455
 30
0.0
 10
133.6000304113683
 20
490.145649183379
 30
0.0
 10
133.1761221010061
 20
490.9760808235393
 30
0.0
 10
132.3938313977657
 20
492.5015735329573
 30
0.0
 10
132.0340867906031
 20
493.2043400820658
 30
0.0
 10
131.3088443426157
 20
494.5789610091546
 30
0.0
 10
130.9443862364148
 20
495.2498237662987
 30
0.0
 10
130.1805728244893
 20
496.606209966182
 30
0.0
 10
129.7732302787197
 20
497.2964748371279
 30
0.0
 10
129.368693557176
 20
497.9882806865104
 30
0.0
  0
ELLIPSE
  5
B9
330
5E
100
AcDbEntity
  8
$DDT_AUDIT_GENERATED_(AE)
  6
Continuous
 62
     7
100
AcDbEllipse
 10
90.8752870876
 20
456.8942312817
 30
0.0
 11
0.2875442525327523
 21
0.08554707964260333
 31
0.0
210
0.0
220
0.0
230
1.0
 40
0.9673738052
 41
2.66411288376513
 42
3.153682323261364
  0
ELLIPSE
  5
BA
330
5E
100
AcDbEntity
  8
$DDT_AUDIT_GENERATED_(AE)
  6
Continuous
 62
     7
100
AcDbEllipse
 10
141.8447129697
 20
456.8942312836
 30
0.0
 11
-0.287544253636713
 21
0.08554707593189104
 31
0.0
210
0.0
220
0.0
230
0.9999999999999999
 40
0.967373805
 41
3.126747470514101
 42
3.619072414428937
  0
ARC
  5
BB
330
5E
100
AcDbEntity
  8
$DDT_AUDIT_GENERATED_(AE)
  6
Continuous
 62
     7
100
AcDbCircle
 10
-267.6395160861
 20
402.6135366422
 30
0.0
 40
412.927745093311
100
AcDbArc
 50
10.5949030142
 51
12.1802835745
  0
ARC
  5
BC
330
5E
100
AcDbEntity
  8
$DDT_AUDIT_GENERATED_(AE)
  6
Continuous
 62
     7
100
AcDbCircle
 10
500.0771431424
 20
402.6671378691
 30
0.0
 40
412.6403379673414
100
AcDbArc
 50
167.8198888621
 51
169.4055497897
  0
SPLINE
  5
BD
330
5E
100
AcDbEntity
  8
$DDT_AUDIT_GENERATED_(AE)
  6
Continuous
 62
     7
100
AcDbSpline
210
0.0
220
0.0
230
1.0
 70
     8
 71
     3
 72
    19
 73
    15
 74
     0
 42
0.0000000023799173
 43
0.0000000001
 40
0.0
 40
0.0
 40
0.0
 40
0.0
 40
0.0030508742112689
 40
0.060673635997064
 40
0.116190165789776
 40
0.1743496534159974
 40
0.2412173216199291
 40
0.3306790850461254
 40
0.4802350702973371
 40
0.598764692536918
 40
0.7229864661367661
 40
0.8427488694007612
 40
0.9598606102500072
 40
1.0
 40
1.0
 40
1.0
 40
1.0
 10
129.9269276215689
 20
500.5563900922853
 30
0.0
 10
129.9237894650145
 20
500.5610927754237
 30
0.0
 10
129.8699833178806
 20
500.6416714321974
 30
0.0
 10
129.7230390393873
 20
500.7726200687019
 30
0.0
 10
129.5191484761454
 20
500.9244952724393
 30
0.0
 10
129.3077354730934
 20
501.0361916793515
 30
0.0
 10
129.0804664421194
 20
501.1278009556926
 30
0.0
 10
128.7679338900014
 20
501.221004379463
 30
0.0
 10
128.377807290294
 20
501.3018963018944
 30
0.0
 10
127.8742265981041
 20
501.378045990483
 30
0.0
 10
127.347043019199
 20
501.4380907191563
 30
0.0
 10
126.7735984160367
 20
501.4867093220386
 30
0.0
 10
126.2900608643888
 20
501.5184913368933
 30
0.0
 10
126.0288581173336
 20
501.529116178461
 30
0.0
 10
125.9508053485117
 20
501.5322481340434
 30
0.0
  0
ARC
  5
BE
330
5E
100
AcDbEntity
  8
$DDT_AUDIT_GENERATED_(AE)
  6
Continuous
 62
     7
100
AcDbCircle
 10
99.0408034442
 20
476.1605552583
 30
0.0
 40
39.33442241525822
100
AcDbArc
 50
19.7885828569
 51
38.2284525639
  0
ARC
  5
BF
330
5E
100
AcDbEntity
  8
$DDT_AUDIT_GENERATED_(AE)
  6
Continuous
 62
     7
100
AcDbCircle
 10
133.3056969039
 20
476.3596068877
 30
0.0
 40
38.91720359669443
100
AcDbArc
 50
141.6613971739
 51
159.8694649004
  0
ARC
  5
C0
330
5E
100
AcDbEntity
  8
$DDT_AUDIT_GENERATED_(AE)
  6
Continuous
 62
     7
100
AcDbCircle
 10
133.3056969039
 20
476.3596068877
 30
0.0
 40
38.91720359669443
100
AcDbArc
 50
160.0222071991
 51
160.272588473
  0
ARC
  5
C1
330
5E
100
AcDbEntity
  8
$DDT_AUDIT_GENERATED_(AE)
  6
Continuous
 62
     7
100
AcDbCircle
 10
116.3471373103
 20
280.1308199929
 30
0.0
 40
221.6116484652995
100
AcDbArc
 50
87.5165892122
 51
92.4769504554
  0
SPLINE
  5
C2
330
5E
100
AcDbEntity
  8
$DDT_AUDIT_GENERATED_(AE)
  6
Continuous
 62
     7
100
AcDbSpline
210
0.0
220
0.0
230
1.0
 70
     8
 71
     3
 72
    18
 73
    14
 74
     0
 42
0.0000000023754597
 43
0.0000000001
 40
0.0
 40
0.0
 40
0.0
 40
0.0
 40
0.0644754474349423
 40
0.1802164796406064
 40
0.2974376340690012
 40
0.4160572185467192
 40
0.5382444905846013
 40
0.669067687934779
 40
0.769944135038072
 40
0.8521832408309264
 40
0.9136636378100083
 40
0.9764774432126002
 40
1.0
 40
1.0
 40
1.0
 40
1.0
 10
106.7692757431911
 20
501.532125417215
 30
0.0
 10
106.644241029527
 20
501.5267214986495
 30
0.0
 10
106.3471411317732
 20
501.5136189497158
 30
0.0
 10
105.8342396916292
 20
501.4782692932123
 30
0.0
 10
105.2832390481301
 20
501.4288134110195
 30
0.0
 10
104.7713380202446
 20
501.3680172070061
 30
0.0
 10
104.3024554851522
 20
501.2943294914502
 30
0.0
 10
103.9196653497487
 20
501.2123786511905
 30
0.0
 10
103.600169925963
 20
501.1155493041837
 30
0.0
 10
103.3318439857855
 20
501.0008073956946
 30
0.0
 10
103.0861683208334
 20
500.8458887320302
 30
0.0
 10
102.8985021363442
 20
500.6925113994877
 30
0.0
 10
102.8188412204121
 20
500.581971796672
 30
0.0
 10
102.7935085216305
 20
500.5466129963273
 30
0.0
  0
SPLINE
  5
C3
330
5E
100
AcDbEntity
  8
$DDT_AUDIT_GENERATED_(AE)
  6
Continuous
 62
     7
100
AcDbSpline
210
0.0
220
0.0
230
1.0
 70
     8
 71
     3
 72
    11
 73
     7
 74
     0
 42
0.0000000166170815
 43
0.0000000001
 40
0.0
 40
0.0
 40
0.0
 40
0.0
 40
0.187387262375825
 40
0.4961512535955076
 40
0.7890412484670863
 40
1.0
 40
1.0
 40
1.0
 40
1.0
 10
90.59446403104187
 20
456.8065319226453
 30
0.0
 10
90.60222716386404
 20
456.7739698838427
 30
0.0
 10
90.62215852768158
 20
456.7012199143778
 30
0.0
 10
90.70417618901435
 20
456.5730110786203
 30
0.0
 10
90.86108791785627
 20
456.4639410329767
 30
0.0
 10
90.9607452020466
 20
456.4626805917873
 30
0.0
 10
91.01067043772474
 20
456.4625754795914
 30
0.0
  0
ARC
  5
C4
330
5E
100
AcDbEntity
  8
$DDT_AUDIT_GENERATED_(AE)
  6
Continuous
 62
     7
100
AcDbCircle
 10
90.8025264944
 20
456.8983767758
 30
0.0
 40
0.2282736849836927
100
AcDbArc
 50
182.7394883399
 51
202.6657427932
  0
SPLINE
  5
C5
330
5E
100
AcDbEntity
  8
$DDT_AUDIT_GENERATED_(AE)
  6
Continuous
 62
     7
100
AcDbSpline
210
0.0
220
0.0
230
1.0
 70
     8
 71
     3
 72
    11
 73
     7
 74
     0
 42
0.0000000177485181
 43
0.0000000001
 40
0.0
 40
0.0
 40
0.0
 40
0.0
 40
0.1638867988558092
 40
0.4932648215015463
 40
0.8093477439369245
 40
1.0
 40
1.0
 40
1.0
 40
1.0
 10
141.7468381585034
 20
456.4652388048763
 30
0.0
 10
141.7833177516262
 20
456.4665620263372
 30
0.0
 10
141.875661638988
 20
456.4705249106617
 30
0.0
 10
142.0201506076294
 20
456.578765483408
 30
0.0
 10
142.0993118116486
 20
456.7054434929278
 30
0.0
 10
142.118545606589
 20
456.7754329663937
 30
0.0
 10
142.1260683363771
 20
456.8065330952821
 30
0.0
  0
ARC
  5
C6
330
5E
100
AcDbEntity
  8
$DDT_AUDIT_GENERATED_(AE)
  6
Continuous
 62
     7
100
AcDbCircle
 10
141.8525344817
 20
456.9185842334
 30
0.0
 40
0.2939949522970984
100
AcDbArc
 50
338.2688722043
 51
5.6398385954
  0
ARC
  5
C8
330
5E
100
AcDbEntity
  8
$DDT_AUDIT_GENERATED_(C7)
  6
Continuous
 62
     7
100
AcDbCircle
 10
191.35
 20
403.3730365903
 30
0.0
 40
16.25
100
AcDbArc
 50
292.619864948
 51
303.8133188495
  0
LINE
  5
C9
330
5E
100
AcDbEntity
  8
$DDT_AUDIT_GENERATED_(C7)
  6
Continuous
 62
     7
100
AcDbLine
 10
187.9701817025
 20
388.3730365903
 30
0.0
 11
197.6
 21
388.3730365903
 31
0.0
  0
ARC
  5
CA
330
5E
100
AcDbEntity
  8
$DDT_AUDIT_GENERATED_(C7)
  6
Continuous
 62
     7
100
AcDbCircle
 10
41.35
 20
403.3730365903
 30
0.0
 40
16.25
100
AcDbArc
 50
237.3792937579
 51
247.380135052
  0
LINE
  5
CB
330
5E
100
AcDbEntity
  8
$DDT_AUDIT_GENERATED_(C7)
  6
Continuous
 62
     7
100
AcDbLine
 10
35.1
 20
388.3730365903
 30
0.0
 11
47.6
 21
388.3730365903
 31
0.0
  0
ELLIPSE
  5
CD
330
5E
100
AcDbEntity
  8
$DDT_AUDIT_GENERATED_(CC)
  6
Continuous
 62
     7
100
AcDbEllipse
 10
116.36
 20
471.2024141656
 30
0.0
 11
0.0
 21
3.450000000000003
 31
0.0
210
0.0
220
0.0
230
1.0
 40
1.0
 41
-1.570796326794897
 42
0.0
  0
ELLIPSE
  5
CE
330
5E
100
AcDbEntity
  8
$DDT_AUDIT_GENERATED_(CC)
  6
Continuous
 62
     7
100
AcDbEllipse
 10
116.36
 20
471.2024141656
 30
0.0
 11
0.0
 21
3.837161344544256
 31
0.0
210
0.0
220
0.0
230
1.0
 40
1.0
 41
0.0
 42
1.570796326794897
  0
ELLIPSE
  5
CF
330
5E
100
AcDbEntity
  8
$DDT_AUDIT_GENERATED_(CC)
  6
Continuous
 62
     7
100
AcDbEllipse
 10
116.36
 20
470.9717199123
 30
0.0
 11
4.196201220697804E-14
 21
3.837161344544246
 31
0.0
210
0.0
220
0.0
230
1.0
 40
0.8991021461
 41
0.0
 42
6.283185307179586
  0
LINE
  5
D0
330
5E
100
AcDbEntity
  8
$DDT_AUDIT_GENERATED_(CC)
  6
Continuous
 62
     7
100
AcDbLine
 10
112.91
 20
471.2024141656
 30
0.0
 11
112.91
 21
470.9717199123
 31
0.0
  0
LINE
  5
D1
330
5E
100
AcDbEntity
  8
$DDT_AUDIT_GENERATED_(CC)
  6
Continuous
 62
     7
100
AcDbLine
 10
119.81
 20
470.9717199123
 30
0.0
 11
119.81
 21
471.2024141656
 31
0.0
  0
LINE
  5
D3
330
5E
100
AcDbEntity
  8
A4227575_216135_
  6
Continuous
 62
     7
100
AcDbLine
 10
126.8275
 20
391.6070111866
 30
0.0
 11
105.8725
 21
391.6070111866
 31
0.0
  0
LINE
  5
D4
330
5E
100
AcDbEntity
  8
A4227575_216135_
  6
Continuous
 62
     7
100
AcDbLine
 10
126.8275
 20
383.8730365903
 30
0.0
 11
105.8725
 21
383.8730365903
 31
0.0
  0
LINE
  5
D5
330
5E
100
AcDbEntity
  8
A4227575_216135_
  6
Continuous
 62
     7
100
AcDbLine
 10
106.8725
 20
382.8730365903
 30
0.0
 11
125.8275
 21
382.8730365903
 31
0.0
  0
LINE
  5
D6
330
5E
100
AcDbEntity
  8
A4227575_216135_
  6
Continuous
 62
     7
100
AcDbLine
 10
126.6
 20
391.6070111866
 30
0.0
 11
125.2734922303
 21
392.3728708045
 31
0.0
  0
LINE
  5
D7
330
5E
100
AcDbEntity
  8
A4227575_216135_
  6
Continuous
 62
     7
100
AcDbLine
 10
107.4265077697
 20
392.3728708045
 30
0.0
 11
106.1
 21
391.6070111866
 31
0.0
  0
LINE
  5
D8
330
5E
100
AcDbEntity
  8
A4227575_216135_
  6
Continuous
 62
     7
100
AcDbLine
 10
126.8275
 20
383.8730365903
 30
0.0
 11
126.8275
 21
391.6070111866
 31
0.0
  0
LINE
  5
D9
330
5E
100
AcDbEntity
  8
A4227575_216135_
  6
Continuous
 62
     7
100
AcDbLine
 10
105.8725
 20
391.6070111866
 30
0.0
 11
105.8725
 21
383.8730365903
 31
0.0
  0
LINE
  5
DA
330
5E
100
AcDbEntity
  8
A4227575_216135_
  6
Continuous
 62
     7
100
AcDbLine
 10
105.8725
 20
383.8730365903
 30
0.0
 11
106.8725
 21
382.8730365903
 31
0.0
  0
LINE
  5
DB
330
5E
100
AcDbEntity
  8
A4227575_216135_
  6
Continuous
 62
     7
100
AcDbLine
 10
125.8275
 20
382.8730365903
 30
0.0
 11
126.8275
 21
383.8730365903
 31
0.0
  0
LINE
  5
DC
330
5E
100
AcDbEntity
  8
A4227575_216135_
  6
Continuous
 62
     7
100
AcDbLine
 10
107.0345
 20
382.8730365903
 30
0.0
 11
107.0345
 21
391.6070111866
 31
0.0
  0
LINE
  5
DD
330
5E
100
AcDbEntity
  8
A4227575_216135_
  6
Continuous
 62
     7
100
AcDbLine
 10
125.6655
 20
382.8730365903
 30
0.0
 11
125.6655
 21
391.6070111866
 31
0.0
  0
LINE
  5
DF
330
5E
100
AcDbEntity
  8
$DDT_AUDIT_GENERATED_(DE)
  6
Continuous
 62
     7
100
AcDbLine
 10
109.2519124067
 20
427.1730365903
 30
0.0
 11
123.4480875933
 21
427.1730365903
 31
0.0
  0
LINE
  5
E0
330
5E
100
AcDbEntity
  8
$DDT_AUDIT_GENERATED_(DE)
  6
Continuous
 62
     7
100
AcDbLine
 10
125.4480875933
 20
445.5496752488
 30
0.0
 11
107.2519124067
 21
445.5496752488
 31
0.0
  0
ARC
  5
E1
330
5E
100
AcDbEntity
  8
$DDT_AUDIT_GENERATED_(DE)
  6
Continuous
 62
     7
100
AcDbCircle
 10
116.35
 20
422.1730365903
 30
0.0
 40
28.0
100
AcDbArc
 50
70.7627384947
 51
109.2372615053
  0
ARC
  5
E2
330
5E
100
AcDbEntity
  8
$DDT_AUDIT_GENERATED_(DE)
  6
Continuous
 62
     7
100
AcDbCircle
 10
125.0482915111
 20
447.0989212244
 30
0.0
 40
1.600000000000004
100
AcDbArc
 50
284.4699705644
 51
70.7627384947
  0
ARC
  5
E3
330
5E
100
AcDbEntity
  8
$DDT_AUDIT_GENERATED_(DE)
  6
Continuous
 62
     7
100
AcDbCircle
 10
107.6517084889
 20
447.0989212244
 30
0.0
 40
1.6
100
AcDbArc
 50
109.2372615053
 51
255.5300294356
  0
LINE
  5
E4
330
5E
100
AcDbEntity
  8
$DDT_AUDIT_GENERATED_(DE)
  6
Continuous
 62
     7
100
AcDbLine
 10
123.9480875933
 20
427.6730365903
 30
0.0
 11
123.9480875933
 21
445.5496752488
 31
0.0
  0
LINE
  5
E5
330
5E
100
AcDbEntity
  8
$DDT_AUDIT_GENERATED_(DE)
  6
Continuous
 62
     7
100
AcDbLine
 10
108.7519124067
 20
445.5496752488
 30
0.0
 11
108.7519124067
 21
427.6730365903
 31
0.0
  0
ARC
  5
E6
330
5E
100
AcDbEntity
  8
$DDT_AUDIT_GENERATED_(DE)
  6
Continuous
 62
     7
100
AcDbCircle
 10
123.4480875933
 20
427.6730365903
 30
0.0
 40
0.499999999999997
100
AcDbArc
 50
270.0
 51
0.0
  0
ARC
  5
E7
330
5E
100
AcDbEntity
  8
$DDT_AUDIT_GENERATED_(DE)
  6
Continuous
 62
     7
100
AcDbCircle
 10
109.2519124067
 20
427.6730365903
 30
0.0
 40
0.4999999999999996
100
AcDbArc
 50
180.0
 51
270.0
  0
LINE
  5
E9
330
5E
100
AcDbEntity
  8
$DDT_AUDIT_GENERATED_(E8)
  6
Continuous
 62
     7
100
AcDbLine
 10
107.3
 20
396.7930365903
 30
0.0
 11
125.4
 21
396.7930365903
 31
0.0
  0
LINE
  5
EA
330
5E
100
AcDbEntity
  8
$DDT_AUDIT_GENERATED_(E8)
  6
Continuous
 62
     7
100
AcDbLine
 10
125.6
 20
396.9930365903
 30
0.0
 11
125.6
 21
397.1930365903
 31
0.0
  0
LINE
  5
EB
330
5E
100
AcDbEntity
  8
$DDT_AUDIT_GENERATED_(E8)
  6
Continuous
 62
     7
100
AcDbLine
 10
107.1
 20
397.1930365903
 30
0.0
 11
107.1
 21
396.9930365903
 31
0.0
  0
ARC
  5
EC
330
5E
100
AcDbEntity
  8
$DDT_AUDIT_GENERATED_(E8)
  6
Continuous
 62
     7
100
AcDbCircle
 10
107.3
 20
396.9930365903
 30
0.0
 40
0.1999999999999988
100
AcDbArc
 50
180.0
 51
270.0
  0
ARC
  5
ED
330
5E
100
AcDbEntity
  8
$DDT_AUDIT_GENERATED_(E8)
  6
Continuous
 62
     7
100
AcDbCircle
 10
125.4
 20
396.9930365903
 30
0.0
 40
0.2000000000000005
100
AcDbArc
 50
270.0
 51
0.0
  0
LINE
  5
EF
330
5E
100
AcDbEntity
  8
$DDT_AUDIT_GENERATED_(EE)
  6
Continuous
 62
     7
100
AcDbLine
 10
127.1
 20
397.1930365903
 30
0.0
 11
105.6
 21
397.1930365903
 31
0.0
  0
LINE
  5
F0
330
5E
100
AcDbEntity
  8
$DDT_AUDIT_GENERATED_(EE)
  6
Continuous
 62
     7
100
AcDbLine
 10
105.35
 20
397.337374159
 30
0.0
 11
105.35
 21
397.5105792384
 31
0.0
  0
LINE
  5
F1
330
5E
100
AcDbEntity
  8
$DDT_AUDIT_GENERATED_(EE)
  6
Continuous
 62
     7
100
AcDbLine
 10
105.35
 20
398.3766046422
 30
0.0
 11
127.35
 21
398.3766046422
 31
0.0
  0
LINE
  5
F2
330
5E
100
AcDbEntity
  8
$DDT_AUDIT_GENERATED_(EE)
  6
Continuous
 62
     7
100
AcDbLine
 10
104.55
 20
400.1930365903
 30
0.0
 11
105.35
 21
400.1930365903
 31
0.0
  0
LINE
  5
F3
330
5E
100
AcDbEntity
  8
$DDT_AUDIT_GENERATED_(EE)
  6
Continuous
 62
     7
100
AcDbLine
 10
105.35
 20
400.1930365903
 30
0.0
 11
105.35
 21
398.3766046422
 31
0.0
  0
LINE
  5
F4
330
5E
100
AcDbEntity
  8
$DDT_AUDIT_GENERATED_(EE)
  6
Continuous
 62
     7
100
AcDbLine
 10
105.35
 20
398.3766046422
 30
0.0
 11
105.35
 21
397.5105792384
 31
0.0
  0
LINE
  5
F5
330
5E
100
AcDbEntity
  8
$DDT_AUDIT_GENERATED_(EE)
  6
Continuous
 62
     7
100
AcDbLine
 10
127.35
 20
397.5105792384
 30
0.0
 11
127.35
 21
397.337374159
 31
0.0
  0
LINE
  5
F6
330
5E
100
AcDbEntity
  8
$DDT_AUDIT_GENERATED_(EE)
  6
Continuous
 62
     7
100
AcDbLine
 10
127.35
 20
400.1930365903
 30
0.0
 11
128.15
 21
400.1930365903
 31
0.0
  0
LINE
  5
F7
330
5E
100
AcDbEntity
  8
$DDT_AUDIT_GENERATED_(EE)
  6
Continuous
 62
     7
100
AcDbLine
 10
127.35
 20
397.5105792384
 30
0.0
 11
127.35
 21
398.3766046422
 31
0.0
  0
LINE
  5
F8
330
5E
100
AcDbEntity
  8
$DDT_AUDIT_GENERATED_(EE)
  6
Continuous
 62
     7
100
AcDbLine
 10
127.35
 20
398.3766046422
 30
0.0
 11
127.35
 21
400.1930365903
 31
0.0
  0
LINE
  5
F9
330
5E
100
AcDbEntity
  8
$DDT_AUDIT_GENERATED_(EE)
  6
Continuous
 62
     7
100
AcDbLine
 10
105.35
 20
397.3373741576
 30
0.0
 11
105.6
 21
397.1930365903
 31
0.0
  0
LINE
  5
FA
330
5E
100
AcDbEntity
  8
$DDT_AUDIT_GENERATED_(EE)
  6
Continuous
 62
     7
100
AcDbLine
 10
127.1
 20
397.1930365903
 30
0.0
 11
127.35
 21
397.3373741576
 31
0.0
  0
LINE
  5
FB
330
5E
100
AcDbEntity
  8
$DDT_AUDIT_GENERATED_(EE)
  6
Continuous
 62
     7
100
AcDbLine
 10
104.55
 20
403.8577019485
 30
0.0
 11
104.55
 21
400.1930365903
 31
0.0
  0
LINE
  5
FC
330
5E
100
AcDbEntity
  8
$DDT_AUDIT_GENERATED_(EE)
  6
Continuous
 62
     7
100
AcDbLine
 10
128.15
 20
400.1930365903
 30
0.0
 11
128.15
 21
403.8530759443
 31
0.0
  0
SPLINE
  5
FE
330
5E
100
AcDbEntity
  8
DV1_Standard
  6
Continuous
 62
     7
100
AcDbSpline
210
0.0
220
0.0
230
1.0
 70
     8
 71
     3
 72
     8
 73
     4
 74
     0
 42
0.0000000005113163
 43
0.0000000001
 40
0.0
 40
0.0
 40
0.0
 40
0.0
 40
1.0
 40
1.0
 40
1.0
 40
1.0
 10
91.5989852951193
 20
417.2182123716476
 30
0.0
 10
89.67575763615218
 20
411.1909172038704
 30
0.0
 10
89.40272425236873
 20
404.820138248923
 30
0.0
 10
90.77988514376894
 20
398.1058755068055
 30
0.0
  0
SPLINE
  5
FF
330
5E
100
AcDbEntity
  8
DV1_Standard
  6
Continuous
 62
     7
100
AcDbSpline
210
0.0
220
0.0
230
1.0
 70
     8
 71
     3
 72
     8
 73
     4
 74
     0
 42
0.0000000005113163
 43
0.0000000001
 40
0.0
 40
0.0
 40
0.0
 40
0.0
 40
1.0
 40
1.0
 40
1.0
 40
1.0
 10
141.1010147048806
 20
417.2182123716476
 30
0.0
 10
143.0242423638477
 20
411.1909172038704
 30
0.0
 10
143.2972757476311
 20
404.820138248923
 30
0.0
 10
141.9201148562309
 20
398.1058755068055
 30
0.0
  0
SPLINE
  5
100
330
5E
100
AcDbEntity
  8
DV1_Standard
  6
Continuous
 62
     7
100
AcDbSpline
210
0.0
220
0.0
230
1.0
 70
     8
 71
     3
 72
    10
 73
     6
 74
     0
 42
0.0000000005177534
 43
0.0000000001
 40
0.0
 40
0.0
 40
0.0
 40
0.0
 40
0.3368214579772599
 40
0.9408369294250727
 40
1.0
 40
1.0
 40
1.0
 40
1.0
 10
99.18836141997528
 20
486.9513814609239
 30
0.0
 10
101.0838514906997
 20
485.8131151814909
 30
0.0
 10
105.860233738848
 20
482.7080200777465
 30
0.0
 10
112.2325705101218
 20
486.2685154935749
 30
0.0
 10
115.9892732716837
 20
486.2811799954343
 30
0.0
 10
116.3391874617936
 20
486.2765516606051
 30
0.0
  0
SPLINE
  5
101
330
5E
100
AcDbEntity
  8
DV1_Standard
  6
Continuous
 62
     7
100
AcDbSpline
210
0.0
220
0.0
230
1.0
 70
     8
 71
     3
 72
    10
 73
     6
 74
     0
 42
0.0000000005177534
 43
0.0000000001
 40
0.0
 40
0.0
 40
0.0
 40
0.0
 40
0.3368214579772599
 40
0.9408369294250727
 40
1.0
 40
1.0
 40
1.0
 40
1.0
 10
133.4900135019772
 20
486.9513814609239
 30
0.0
 10
131.5945234312528
 20
485.8131151814909
 30
0.0
 10
126.8181411831044
 20
482.7080200777465
 30
0.0
 10
120.4458044118307
 20
486.2685154935749
 30
0.0
 10
116.6891016502687
 20
486.2811799954343
 30
0.0
 10
116.3391874601589
 20
486.2765516606051
 30
0.0
  0
LINE
  5
102
330
5E
100
AcDbEntity
  8
DV1_Standard
  6
Continuous
 62
     7
100
AcDbLine
 10
110.75
 20
427.2908841695
 30
0.0
 11
110.75
 21
423.2342540266
 31
0.0
  0
LINE
  5
103
330
5E
100
AcDbEntity
  8
DV1_Standard
  6
Continuous
 62
     7
100
AcDbLine
 10
121.95
 20
427.2479025973
 30
0.0
 11
121.95
 21
423.23436308
 31
0.0
  0
LINE
  5
105
330
5E
100
AcDbEntity
  8
DV1_Standard
  6
CENTER2
 62
     7
100
AcDbLine
 10
61.349999553
 20
403.3730365903
 30
0.0
 11
21.350000447
 21
403.3730365903
 31
0.0
  0
LINE
  5
106
330
5E
100
AcDbEntity
  8
DV1_Standard
  6
CENTER2
 62
     7
100
AcDbLine
 10
41.35
 20
423.3730361433
 30
0.0
 11
41.35
 21
383.3730370374
 31
0.0
  0
LINE
  5
107
330
5E
100
AcDbEntity
  8
DV1_Standard
  6
CENTER2
 62
     7
100
AcDbLine
 10
66.3499994412
 20
403.3730365903
 30
0.0
 11
79.85
 21
403.3730365903
 31
0.0
  0
LINE
  5
108
330
5E
100
AcDbEntity
  8
DV1_Standard
  6
CENTER2
 62
     7
100
AcDbLine
 10
41.35
 20
428.3730360315
 30
0.0
 11
41.35
 21
441.8730365903
 31
0.0
  0
LINE
  5
109
330
5E
100
AcDbEntity
  8
DV1_Standard
  6
CENTER2
 62
     7
100
AcDbLine
 10
16.3500005588
 20
403.3730365903
 30
0.0
 11
2.85
 21
403.3730365903
 31
0.0
  0
LINE
  5
10A
330
5E
100
AcDbEntity
  8
DV1_Standard
  6
CENTER2
 62
     7
100
AcDbLine
 10
41.35
 20
378.3730371491
 30
0.0
 11
41.35
 21
364.8730365903
 31
0.0
  0
LINE
  5
10B
330
5E
100
AcDbEntity
  8
DV1_Standard
  6
CENTER2
 62
     7
100
AcDbLine
 10
211.349999553
 20
403.3730365903
 30
0.0
 11
171.350000447
 21
403.3730365903
 31
0.0
  0
LINE
  5
10C
330
5E
100
AcDbEntity
  8
DV1_Standard
  6
CENTER2
 62
     7
100
AcDbLine
 10
191.35
 20
423.3730361433
 30
0.0
 11
191.35
 21
383.3730370374
 31
0.0
  0
LINE
  5
10D
330
5E
100
AcDbEntity
  8
DV1_Standard
  6
CENTER2
 62
     7
100
AcDbLine
 10
216.3499994412
 20
403.3730365903
 30
0.0
 11
229.85
 21
403.3730365903
 31
0.0
  0
LINE
  5
10E
330
5E
100
AcDbEntity
  8
DV1_Standard
  6
CENTER2
 62
     7
100
AcDbLine
 10
191.35
 20
428.3730360315
 30
0.0
 11
191.35
 21
441.8730365903
 31
0.0
  0
LINE
  5
10F
330
5E
100
AcDbEntity
  8
DV1_Standard
  6
CENTER2
 62
     7
100
AcDbLine
 10
166.3500005588
 20
403.3730365903
 30
0.0
 11
152.85
 21
403.3730365903
 31
0.0
  0
LINE
  5
110
330
5E
100
AcDbEntity
  8
DV1_Standard
  6
CENTER2
 62
     7
100
AcDbLine
 10
191.35
 20
378.3730371491
 30
0.0
 11
191.35
 21
364.8730365903
 31
0.0
  0
ENDBLK
  5
112
330
5E
100
AcDbEntity
  8
0
100
AcDbBlockEnd
  0
BLOCK
  5
1C0
330
113
100
AcDbEntity
  8
0
100
AcDbBlockBegin
  2
SE1
 70
     0
 10
0.0
 20
0.0
 30
0.0
  3
SE1
  1

  0
ARC
  5
115
330
113
100
AcDbEntity
  8
$DDT_AUDIT_GENERATED_(60)
  6
Continuous
 62
     7
100
AcDbCircle
 10
381.8130714728
 20
395.5202673869
 30
0.0
 40
14.0140146711737
100
AcDbArc
 50
172.2547417049
 51
199.6816165283
  0
SPLINE
  5
116
330
113
100
AcDbEntity
  8
$DDT_AUDIT_GENERATED_(60)
  6
Continuous
 62
     7
100
AcDbSpline
210
0.0
220
0.0
230
1.0
 70
     8
 71
     3
 72
    16
 73
    12
 74
     0
 42
0.00000000332237
 43
0.0000000001
 40
0.5000030036441698
 40
0.5000030036441698
 40
0.5000030036441698
 40
0.5000030036441698
 40
0.554088308154424
 40
0.6090561653729937
 40
0.6641573698385504
 40
0.719435928323213
 40
0.7749354910148334
 40
0.8306992719322734
 40
0.886769974439207
 40
0.9431897227243429
 40
1.0
 40
1.0
 40
1.0
 40
1.0
 10
487.3628080677996
 20
404.955040911099
 30
0.0
 10
487.3628097825494
 20
404.9550413923128
 30
0.0
 10
487.3509435608507
 20
404.9577240999036
 30
0.0
 10
487.2971941360893
 20
404.9698884430751
 30
0.0
 10
487.2068147687022
 20
404.9903329716748
 30
0.0
 10
487.0800560620506
 20
405.0189572848309
 30
0.0
 10
486.9168264147202
 20
405.0557053138604
 30
0.0
 10
486.7172973019332
 20
405.1004379084861
 30
0.0
 10
486.4806037017446
 20
405.1531900711663
 30
0.0
 10
486.2097358480884
 20
405.2132007755991
 30
0.0
 10
485.9994261171413
 20
405.2592746671339
 30
0.0
 10
485.8939085738068
 20
405.2823910670489
 30
0.0
  0
ARC
  5
117
330
113
100
AcDbEntity
  8
$DDT_AUDIT_GENERATED_(60)
  6
Continuous
 62
     7
100
AcDbCircle
 10
484.4499348794
 20
382.0516038955
 30
0.0
 40
23.27562099368507
100
AcDbArc
 50
86.4431986467
 51
98.8153690344
  0
SPLINE
  5
118
330
113
100
AcDbEntity
  8
$DDT_AUDIT_GENERATED_(60)
  6
Continuous
 62
     7
100
AcDbSpline
210
0.0
220
0.0
230
1.0
 70
     8
 71
     3
 72
    27
 73
    23
 74
     0
 42
0.00000000008795
 43
0.0000000001
 40
0.0
 40
0.0
 40
0.0
 40
0.0
 40
0.072429520109507
 40
0.1557945276517322
 40
0.2504061921756193
 40
0.3258075178327496
 40
0.3753195444113815
 40
0.4487933387555194
 40
0.5001266828003674
 40
0.5330358615837215
 40
0.5622424841465294
 40
0.6246297182323169
 40
0.6566299052363138
 40
0.687356685264783
 40
0.7179574618106187
 40
0.750114607287725
 40
0.7791082502407877
 40
0.812490642713854
 40
0.8748686762780676
 40
0.9374061677224598
 40
0.9683994277546281
 40
1.0
 40
1.0
 40
1.0
 40
1.0
 10
480.8829247019273
 20
405.0522771689983
 30
0.0
 10
477.2288774962659
 20
404.6071889934411
 30
0.0
 10
469.3690910782072
 20
403.6498127472714
 30
0.0
 10
456.7260926514553
 20
402.1345146977997
 30
0.0
 10
443.941943989672
 20
400.4909531755639
 30
0.0
 10
432.8861278591449
 20
398.9097554320518
 30
0.0
 10
422.9162256681295
 20
397.3538466061378
 30
0.0
 10
414.1861652456595
 20
395.8775019632005
 30
0.0
 10
406.3313638424376
 20
394.4525799088445
 30
0.0
 10
400.7609441447875
 20
393.4156507635708
 30
0.0
 10
394.7864404681779
 20
392.2951387811852
 30
0.0
 10
389.1758013943761
 20
391.2532579574734
 30
0.0
 10
384.2380060596765
 20
390.3988338287476
 30
0.0
 10
381.0395405511368
 20
389.8970835592701
 30
0.0
 10
378.4283027723596
 20
389.5560730038238
 30
0.0
 10
376.4454650432471
 20
389.3771150035512
 30
0.0
 10
374.9009327657411
 20
389.326036245474
 30
0.0
 10
373.3015962302757
 20
389.3862450589236
 30
0.0
 10
371.7917024083996
 20
389.6410590354119
 30
0.0
 10
370.5127483036366
 20
390.0461661134155
 30
0.0
 10
369.4481107235561
 20
390.4436250660394
 30
0.0
 10
368.8963376877595
 20
390.6807368257713
 30
0.0
 10
368.6177744005102
 20
390.800442985643
 30
0.0
  0
SPLINE
  5
119
330
113
100
AcDbEntity
  8
$DDT_AUDIT_GENERATED_(60)
  6
Continuous
 62
     7
100
AcDbSpline
210
0.0
220
0.0
230
1.0
 70
     8
 71
     3
 72
    25
 73
    21
 74
     0
 42
0.0000000000894345
 43
0.0000000001
 40
0.0
 40
0.0
 40
0.0
 40
0.0
 40
0.0348543562365162
 40
0.0623056702563376
 40
0.1244940219530226
 40
0.186495388019625
 40
0.2195909306894741
 40
0.2481891596819071
 40
0.3107233007839635
 40
0.3417732172714189
 40
0.3736224135753914
 40
0.4365941884119945
 40
0.4663976467553195
 40
0.4995998732416558
 40
0.5510825878201799
 40
0.6245102369656041
 40
0.6732153914098029
 40
0.7495884072439228
 40
0.884921642638726
 40
1.0
 40
1.0
 40
1.0
 40
1.0
 10
368.4948589330234
 20
417.7744126381047
 30
0.0
 10
368.7965593469448
 20
417.902430783942
 30
0.0
 10
369.3358792063127
 20
418.1312761061283
 30
0.0
 10
370.3689379393802
 20
418.5789347503759
 30
0.0
 10
371.5757004716349
 20
419.1450344227896
 30
0.0
 10
373.0214782156251
 20
419.7699232652557
 30
0.0
 10
374.5310528979949
 20
420.2636465482356
 30
0.0
 10
376.4392398644404
 20
420.7446897068156
 30
0.0
 10
379.2483562746045
 20
421.1671795717078
 30
0.0
 10
383.3780816582593
 20
421.4964342677935
 30
0.0
 10
388.2155075013011
 20
421.7613929790597
 30
0.0
 10
393.8120847107847
 20
421.9381092694678
 30
0.0
 10
399.8354138695029
 20
422.0413226411796
 30
0.0
 10
405.4540775044587
 20
422.1012349309232
 30
0.0
 10
413.3343256033003
 20
422.1431888793753
 30
0.0
 10
422.0194308204202
 20
422.1894239777354
 30
0.0
 10
431.9656854429799
 20
422.2455312332545
 30
0.0
 10
445.0163456880039
 20
422.3271179819754
 30
0.0
 10
461.3932459448821
 20
422.4345547647725
 30
0.0
 10
473.9306605546976
 20
422.4118263050044
 30
0.0
 10
479.6923150491053
 20
422.4013812861189
 30
0.0
  0
ARC
  5
11A
330
113
100
AcDbEntity
  8
$DDT_AUDIT_GENERATED_(60)
  6
Continuous
 62
     7
100
AcDbCircle
 10
480.4575450087
 20
452.3362990517
 30
0.0
 40
29.94469700164603
100
AcDbArc
 50
268.5356599026
 51
278.082401672
  0
SPLINE
  5
11B
330
113
100
AcDbEntity
  8
$DDT_AUDIT_GENERATED_(60)
  6
Continuous
 62
     7
100
AcDbSpline
210
0.0
220
0.0
230
1.0
 70
     8
 71
     3
 72
    24
 73
    20
 74
     0
 42
0.0000000032055364
 43
0.0000000001
 40
0.0
 40
0.0
 40
0.0
 40
0.0
 40
0.030029443553448
 40
0.0599451685458445
 40
0.089753271208357
 40
0.1194598862953671
 40
0.149071185041838
 40
0.1785933731367703
 40
0.208032688709518
 40
0.2373954003257519
 40
0.2666878049897212
 40
0.2959162261494978
 40
0.3250870117018815
 40
0.3542065319936725
 40
0.3832811778160739
 40
0.4123173583891417
 40
0.4413214993331898
 40
0.4703000406243266
 40
0.4842678315628197
 40
0.4842678315628197
 40
0.4842678315628197
 40
0.4842678315628197
 10
484.6676837877858
 20
422.6890460594875
 30
0.0
 10
484.7240714801237
 20
422.704247099507
 30
0.0
 10
484.8366333301345
 20
422.7345916146966
 30
0.0
 10
484.9930862510321
 20
422.7766492443941
 30
0.0
 10
485.1400425588881
 20
422.8160557817718
 30
0.0
 10
485.2766579934883
 20
422.8525732852578
 30
0.0
 10
485.4031717113019
 20
422.8862668359735
 30
0.0
 10
485.5195331690308
 20
422.917121158188
 30
0.0
 10
485.6257681193375
 20
422.9451427589303
 30
0.0
 10
485.7218809967907
 20
422.9703326435516
 30
0.0
 10
485.8078809359534
 20
422.9926935481166
 30
0.0
 10
485.8837747946124
 20
423.0122279698899
 30
0.0
 10
485.9495690550983
 20
423.0289386576293
 30
0.0
 10
486.0052690882466
 20
423.0428284514045
 30
0.0
 10
486.050880127572
 20
423.0539002963952
 30
0.0
 10
486.0864040499166
 20
423.0621572316777
 30
0.0
 10
486.1118512042052
 20
423.067602328184
 30
0.0
 10
486.124550341505
 20
423.0697842511431
 30
0.0
 10
486.128470593013
 20
423.0700592375888
 30
0.0
 10
486.1293510366562
 20
423.0700400055383
 30
0.0
  0
ARC
  5
11C
330
113
100
AcDbEntity
  8
$DDT_AUDIT_GENERATED_(60)
  6
Continuous
 62
     7
100
AcDbCircle
 10
381.9731122307
 20
413.0824456927
 30
0.0
 40
14.27157544819786
100
AcDbArc
 50
160.8062839857
 51
187.9270302304
  0
ARC
  5
11D
330
113
100
AcDbEntity
  8
$DDT_AUDIT_GENERATED_(60)
  6
Continuous
 62
     7
100
AcDbCircle
 10
245.2453935598
 20
403.4652140419
 30
0.0
 40
122.8309087900265
100
AcDbArc
 50
357.1738320671
 51
3.5702731245
  0
LINE
  5
11E
330
113
100
AcDbEntity
  8
$DDT_AUDIT_GENERATED_(60)
  6
Continuous
 62
     7
100
AcDbLine
 10
432.1989884469
 20
392.3728708045
 30
0.0
 11
448.4525203023
 21
392.3728708045
 31
0.0
  0
LINE
  5
11F
330
113
100
AcDbEntity
  8
$DDT_AUDIT_GENERATED_(60)
  6
Continuous
 62
     7
100
AcDbLine
 10
432.1989884469
 20
392.3728708045
 30
0.0
 11
421.9661196133
 21
392.3728708045
 31
0.0
  0
ARC
  5
120
330
113
100
AcDbEntity
  8
$DDT_AUDIT_GENERATED_(60)
  6
Continuous
 62
     7
100
AcDbCircle
 10
459.7338322365
 20
254.9698367237
 30
0.0
 40
141.1635858277999
100
AcDbArc
 50
94.1767269929
 51
101.3497808105
  0
ARC
  5
121
330
113
100
AcDbEntity
  8
$DDT_AUDIT_GENERATED_(60)
  6
Continuous
 62
     7
100
AcDbCircle
 10
494.3824482491
 20
404.5977806973
 30
0.0
 40
145.2242382700436
100
AcDbArc
 50
174.0046812387
 51
174.7273233788
  0
LINE
  5
122
330
113
100
AcDbEntity
  8
$DDT_AUDIT_GENERATED_(60)
  6
Continuous
 62
     7
100
AcDbLine
 10
349.952523776
 20
417.0696968003
 30
0.0
 11
349.952523776
 21
419.7660468413
 31
0.0
  0
LINE
  5
123
330
113
100
AcDbEntity
  8
$DDT_AUDIT_GENERATED_(60)
  6
Continuous
 62
     7
100
AcDbLine
 10
349.952523776
 20
411.7329606391
 30
0.0
 11
349.952523776
 21
417.0696968003
 31
0.0
  0
LINE
  5
124
330
113
100
AcDbEntity
  8
$DDT_AUDIT_GENERATED_(60)
  6
Continuous
 62
     7
100
AcDbLine
 10
349.952523776
 20
396.7724052167
 30
0.0
 11
349.952523776
 21
411.7329606391
 31
0.0
  0
LINE
  5
125
330
113
100
AcDbEntity
  8
$DDT_AUDIT_GENERATED_(60)
  6
Continuous
 62
     7
100
AcDbLine
 10
349.952523776
 20
391.3618584821
 30
0.0
 11
349.952523776
 21
396.7724052167
 31
0.0
  0
LINE
  5
126
330
113
100
AcDbEntity
  8
$DDT_AUDIT_GENERATED_(60)
  6
Continuous
 62
     7
100
AcDbLine
 10
349.952523776
 20
391.1234131972
 30
0.0
 11
349.952523776
 21
391.3618584821
 31
0.0
  0
SPLINE
  5
127
330
113
100
AcDbEntity
  8
$DDT_AUDIT_GENERATED_(60)
  6
Continuous
 62
     7
100
AcDbSpline
210
0.0
220
0.0
230
1.0
 70
     8
 71
     3
 72
    10
 73
     6
 74
     0
 42
0.0000000016763726
 43
0.0000000001
 40
0.0
 40
0.0
 40
0.0
 40
0.0
 40
0.2499999999999999
 40
0.2499999999999999
 40
0.4987579408412441
 40
0.4987579408412441
 40
0.4987579408412441
 40
0.4987579408412441
 10
349.960700935212
 20
419.8439131094009
 30
0.0
 10
350.0589537948791
 20
420.7771279941248
 30
0.0
 10
350.1431607410786
 20
421.4959869059176
 30
0.0
 10
350.2657178967123
 20
422.515414236016
 30
0.0
 10
350.3017835428297
 20
422.7975097315344
 30
0.0
 10
350.3020283478803
 20
422.799408752731
 30
0.0
  0
LINE
  5
128
330
113
100
AcDbEntity
  8
$DDT_AUDIT_GENERATED_(60)
  6
Continuous
 62
     7
100
AcDbLine
 10
349.952523776
 20
419.7660468413
 30
0.0
 11
349.9607009352
 21
419.8439131094
 31
0.0
  0
SPLINE
  5
129
330
113
100
AcDbEntity
  8
$DDT_AUDIT_GENERATED_(60)
  6
Continuous
 62
     7
100
AcDbSpline
210
0.0
220
0.0
230
1.0
 70
     8
 71
     3
 72
    10
 73
     6
 74
     0
 42
0.0000000015495938
 43
0.0000000001
 40
0.5012330202676806
 40
0.5012330202676806
 40
0.5012330202676806
 40
0.5012330202676806
 40
0.75
 40
0.75
 40
1.0
 40
1.0
 40
1.0
 40
1.0
 10
350.3325809874234
 20
386.1546824696298
 30
0.0
 10
350.3323021972089
 20
386.1568159230824
 30
0.0
 10
350.2978488990558
 20
386.4217600190704
 30
0.0
 10
350.1688032707504
 20
387.4806398167636
 30
0.0
 10
350.0751553103254
 20
388.264545381135
 30
0.0
 10
349.9606942839564
 20
389.3517114595728
 30
0.0
  0
ARC
  5
12A
330
113
100
AcDbEntity
  8
$DDT_AUDIT_GENERATED_(60)
  6
Continuous
 62
     7
100
AcDbCircle
 10
435.2893850952
 20
557.9123927128
 30
0.0
 40
134.6716742155455
100
AcDbArc
 50
267.6456435428
 51
272.4912050892
  0
ARC
  5
12B
330
113
100
AcDbEntity
  8
$DDT_AUDIT_GENERATED_(60)
  6
Continuous
 62
     7
100
AcDbCircle
 10
491.5140970847
 20
232.9354325851
 30
0.0
 40
171.7381969961658
100
AcDbArc
 50
92.6076762877
 51
100.8451796517
  0
ARC
  5
12C
330
113
100
AcDbEntity
  8
$DDT_AUDIT_GENERATED_(60)
  6
Continuous
 62
     7
100
AcDbCircle
 10
385.2534312908
 20
658.9311174395
 30
0.0
 40
236.7789227239568
100
AcDbArc
 50
262.9155361232
 51
275.7192933677
  0
LINE
  5
12D
330
113
100
AcDbEntity
  8
$DDT_AUDIT_GENERATED_(60)
  6
Continuous
 62
     7
100
AcDbLine
 10
483.6876809825
 20
404.4956099423
 30
0.0
 11
487.3617967931
 21
404.9568199809
 31
0.0
  0
ARC
  5
12E
330
113
100
AcDbEntity
  8
$DDT_AUDIT_GENERATED_(60)
  6
Continuous
 62
     7
100
AcDbCircle
 10
614.8757329976
 20
-922.4489514383
 30
0.0
 40
1333.175413435729
100
AcDbArc
 50
96.7042342088
 51
96.9275016881
  0
SPLINE
  5
12F
330
113
100
AcDbEntity
  8
$DDT_AUDIT_GENERATED_(60)
  6
Continuous
 62
     7
100
AcDbSpline
210
0.0
220
0.0
230
1.0
 70
     8
 71
     3
 72
    28
 73
    24
 74
     0
 42
0.0000000001536074
 43
0.0000000001
 40
0.0
 40
0.0
 40
0.0
 40
0.0
 40
0.0358620065742395
 40
0.0882322406001529
 40
0.1370043193831792
 40
0.1830607050501855
 40
0.2270571971904566
 40
0.2694692374175012
 40
0.3106303190854725
 40
0.3507636637554609
 40
0.4320577410485236
 40
0.5098695129296864
 40
0.5840409137390653
 40
0.6468263784249356
 40
0.7059733814620552
 40
0.7611126090028658
 40
0.8119161732170874
 40
0.8581093979107776
 40
0.899471774266146
 40
0.9307811306133897
 40
0.9583752545020782
 40
0.9821916481744292
 40
1.0
 40
1.0
 40
1.0
 40
1.0
 10
351.9579267547468
 20
384.8548282887406
 30
0.0
 10
352.8103946124513
 20
384.9328593327444
 30
0.0
 10
354.5860372529625
 20
385.0966642313776
 30
0.0
 10
357.6114339029752
 20
385.4156010193504
 30
0.0
 10
360.7649807957936
 20
385.7855826843901
 30
0.0
 10
363.7568430320033
 20
386.1765322387822
 30
0.0
 10
366.6011579695681
 20
386.5843708063735
 30
0.0
 10
369.3371123975897
 20
387.008457449911
 30
0.0
 10
371.9856497787864
 20
387.4458398094808
 30
0.0
 10
375.461891222635
 20
388.0494028997064
 30
0.0
 10
379.7140706300754
 20
388.8320311867048
 30
0.0
 10
384.685609413241
 20
389.7856040377211
 30
0.0
 10
389.2602366862801
 20
390.6761822328726
 30
0.0
 10
393.4376011251932
 20
391.4878417398686
 30
0.0
 10
397.2109493065639
 20
392.213400237959
 30
0.0
 10
400.7309782211083
 20
392.8796269465406
 30
0.0
 10
403.9767048439522
 20
393.4824730897865
 30
0.0
 10
406.9310416481939
 20
394.0202492942421
 30
0.0
 10
409.468958205525
 20
394.4730097693096
 30
0.0
 10
411.6158394931489
 20
394.8491735465042
 30
0.0
 10
413.373668053819
 20
395.1524989261923
 30
0.0
 10
414.8865790219307
 20
395.4101162006664
 30
0.0
 10
415.715453275204
 20
395.5492515326029
 30
0.0
 10
416.1346851230512
 20
395.6195693115871
 30
0.0
  0
LINE
  5
130
330
113
100
AcDbEntity
  8
$DDT_AUDIT_GENERATED_(60)
  6
Continuous
 62
     7
100
AcDbLine
 10
356.0586496071
 20
423.9640375311
 30
0.0
 11
351.850354674
 21
424.1198263591
 31
0.0
  0
ARC
  5
131
330
113
100
AcDbEntity
  8
$DDT_AUDIT_GENERATED_(60)
  6
Continuous
 62
     7
100
AcDbCircle
 10
407.2995428553
 20
11415.4554363925
 30
0.0
 40
10992.1228945538
100
AcDbArc
 50
270.0079615596
 51
270.1171545525
  0
ARC
  5
132
330
113
100
AcDbEntity
  8
$DDT_AUDIT_GENERATED_(60)
  6
Continuous
 62
     7
100
AcDbCircle
 10
448.2926741859
 20
-1865.4106959081
 30
0.0
 40
2288.790582366886
100
AcDbArc
 50
89.0531222337
 51
90.1794649856
  0
LINE
  5
133
330
113
100
AcDbEntity
  8
$DDT_AUDIT_GENERATED_(60)
  6
Continuous
 62
     7
100
AcDbLine
 10
489.2657488383
 20
407.2744983512
 30
0.0
 11
488.3061928239
 21
420.9967886798
 31
0.0
  0
ARC
  5
134
330
113
100
AcDbEntity
  8
$DDT_AUDIT_GENERATED_(60)
  6
Continuous
 62
     7
100
AcDbCircle
 10
487.0867294265
 20
407.1218813571
 30
0.0
 40
2.184357252397501
100
AcDbArc
 50
277.2609657668
 51
4.0000001191
  0
ARC
  5
135
330
113
100
AcDbEntity
  8
$DDT_AUDIT_GENERATED_(60)
  6
Continuous
 62
     7
100
AcDbCircle
 10
486.0885268925
 20
420.8477550758
 30
0.0
 40
2.222659755275
100
AcDbArc
 50
4.0115146375
 51
88.9488893599
  0
LINE
  5
136
330
113
100
AcDbEntity
  8
$DDT_AUDIT_GENERATED_(60)
  6
Continuous
 62
     7
100
AcDbLine
 10
449.4525208917
 20
393.3728708045
 30
0.0
 11
449.4525208917
 21
395.7574633091
 31
0.0
  0
ARC
  5
137
330
113
100
AcDbEntity
  8
$DDT_AUDIT_GENERATED_(60)
  6
Continuous
 62
     7
100
AcDbCircle
 10
416.8800720006
 20
391.1865422964
 30
0.0
 40
4.495465933804076
100
AcDbArc
 50
22.9138423723
 51
99.8669941709
  0
ARC
  5
138
330
113
100
AcDbEntity
  8
$DDT_AUDIT_GENERATED_(60)
  6
Continuous
 62
     7
100
AcDbCircle
 10
454.728717011
 20
395.7587474784
 30
0.0
 40
5.276249030301029
100
AcDbArc
 50
96.8916592938
 51
180.0031875993
  0
ARC
  5
139
330
113
100
AcDbEntity
  8
$DDT_AUDIT_GENERATED_(60)
  6
Continuous
 62
     7
100
AcDbCircle
 10
448.4525208883
 20
393.3728708045
 30
0.0
 40
0.9999999997314076
100
AcDbArc
 50
269.9999945525
 51
0.3355196171
  0
ARC
  5
13A
330
113
100
AcDbEntity
  8
$DDT_AUDIT_GENERATED_(60)
  6
Continuous
 62
     7
100
AcDbCircle
 10
421.9661197419
 20
393.3728707942
 30
0.0
 40
0.9999999897602587
100
AcDbArc
 50
204.9502612959
 51
270.0001316001
  0
ARC
  5
13B
330
113
100
AcDbEntity
  8
$DDT_AUDIT_GENERATED_(60)
  6
Continuous
 62
     7
100
AcDbCircle
 10
351.7725343556
 20
422.6232551404
 30
0.0
 40
1.48065495254106
100
AcDbArc
 50
87.0328733008
 51
170.6412417707
  0
ARC
  5
13C
330
113
100
AcDbEntity
  8
$DDT_AUDIT_GENERATED_(60)
  6
Continuous
 62
     7
100
AcDbCircle
 10
351.8191715147
 20
386.3432388642
 30
0.0
 40
1.498464995667253
100
AcDbArc
 50
190.3333695676
 51
275.3133251965
  0
LINE
  5
13D
330
113
100
AcDbEntity
  8
$DDT_AUDIT_GENERATED_(A2)
  6
Continuous
 62
     7
100
AcDbLine
 10
304.452523776
 20
438.3730365903
 30
0.0
 11
304.452523776
 21
368.3730365903
 31
0.0
  0
LINE
  5
13E
330
113
100
AcDbEntity
  8
$DDT_AUDIT_GENERATED_(A2)
  6
Continuous
 62
     7
100
AcDbLine
 10
330.452523776
 20
388.5055082489
 30
0.0
 11
330.452523776
 21
418.2405649318
 31
0.0
  0
LINE
  5
13F
330
113
100
AcDbEntity
  8
$DDT_AUDIT_GENERATED_(A2)
  6
Continuous
 62
     7
100
AcDbLine
 10
309.6388873199
 20
438.3730365903
 30
0.0
 11
309.6388873199
 21
368.3730365903
 31
0.0
  0
LINE
  5
140
330
113
100
AcDbEntity
  8
$DDT_AUDIT_GENERATED_(A2)
  6
Continuous
 62
     7
100
AcDbLine
 10
304.452523776
 20
368.3730365903
 30
0.0
 11
309.6388873199
 21
368.3730365903
 31
0.0
  0
LINE
  5
141
330
113
100
AcDbEntity
  8
$DDT_AUDIT_GENERATED_(A2)
  6
Continuous
 62
     7
100
AcDbLine
 10
309.6388873199
 20
438.3730365903
 30
0.0
 11
304.452523776
 21
438.3730365903
 31
0.0
  0
LINE
  5
142
330
113
100
AcDbEntity
  8
$DDT_AUDIT_GENERATED_(A2)
  6
Continuous
 62
     7
100
AcDbLine
 10
311.0350875922
 20
368.9410363111
 30
0.0
 11
329.9996739802
 21
387.4315080394
 31
0.0
  0
LINE
  5
143
330
113
100
AcDbEntity
  8
$DDT_AUDIT_GENERATED_(A2)
  6
Continuous
 62
     7
100
AcDbLine
 10
329.9996739802
 20
419.3145651413
 30
0.0
 11
311.0350875922
 21
437.8050368696
 31
0.0
  0
ARC
  5
144
330
113
100
AcDbEntity
  8
$DDT_AUDIT_GENERATED_(A2)
  6
Continuous
 62
     7
100
AcDbCircle
 10
328.952523776
 20
388.5055082489
 30
0.0
 40
1.500000000000002
100
AcDbArc
 50
314.2747757009
 51
0.0
  0
ARC
  5
145
330
113
100
AcDbEntity
  8
$DDT_AUDIT_GENERATED_(A2)
  6
Continuous
 62
     7
100
AcDbCircle
 10
328.952523776
 20
418.2405649318
 30
0.0
 40
1.500000000000001
100
AcDbArc
 50
0.0
 51
45.7252242991
  0
ARC
  5
146
330
113
100
AcDbEntity
  8
$DDT_AUDIT_GENERATED_(A2)
  6
Continuous
 62
     7
100
AcDbCircle
 10
309.6388873199
 20
436.3730365903
 30
0.0
 40
2.0
100
AcDbArc
 50
45.7252242991
 51
90.0
  0
ARC
  5
147
330
113
100
AcDbEntity
  8
$DDT_AUDIT_GENERATED_(A2)
  6
Continuous
 62
     7
100
AcDbCircle
 10
309.6388873199
 20
370.3730365903
 30
0.0
 40
2.000000000000002
100
AcDbArc
 50
270.0
 51
314.2747757009
  0
ELLIPSE
  5
149
330
113
100
AcDbEntity
  8
$DDT_AUDIT_GENERATED_(148)
  6
Continuous
 62
     7
100
AcDbEllipse
 10
326.6195085442
 20
403.3730365903
 30
0.0
 11
3.469446951953615E-15
 21
-13.22000000000001
 31
0.0
210
0.0
220
0.0
230
1.0
 40
0.3939104756
 41
0.9828339676581136
 42
2.15875868593168
  0
LINE
  5
14A
330
113
100
AcDbEntity
  8
$DDT_AUDIT_GENERATED_(148)
  6
Continuous
 62
     7
100
AcDbLine
 10
330.952523776
 20
410.7057305019
 30
0.0
 11
330.452523776
 21
410.7057305019
 31
0.0
  0
LINE
  5
14B
330
113
100
AcDbEntity
  8
$DDT_AUDIT_GENERATED_(148)
  6
Continuous
 62
     7
100
AcDbLine
 10
330.452523776
 20
396.0403426788
 30
0.0
 11
330.952523776
 21
396.0403426788
 31
0.0
  0
LINE
  5
14C
330
113
100
AcDbEntity
  8
$DDT_AUDIT_GENERATED_(148)
  6
Continuous
 62
     7
100
AcDbLine
 10
330.952523776
 20
396.0403426788
 30
0.0
 11
330.952523776
 21
410.7057305019
 31
0.0
  0
LINE
  5
14D
330
113
100
AcDbEntity
  8
$DDT_AUDIT_GENERATED_(148)
  6
Continuous
 62
     7
100
AcDbLine
 10
332.952523776
 20
416.5930365903
 30
0.0
 11
330.452523776
 21
416.5930365903
 31
0.0
  0
LINE
  5
14E
330
113
100
AcDbEntity
  8
$DDT_AUDIT_GENERATED_(148)
  6
Continuous
 62
     7
100
AcDbLine
 10
330.452523776
 20
390.1530365903
 30
0.0
 11
332.952523776
 21
390.1530365903
 31
0.0
  0
LINE
  5
14F
330
113
100
AcDbEntity
  8
$DDT_AUDIT_GENERATED_(148)
  6
Continuous
 62
     7
100
AcDbLine
 10
330.452523776
 20
415.4230365903
 30
0.0
 11
332.952523776
 21
415.4230365903
 31
0.0
  0
LINE
  5
150
330
113
100
AcDbEntity
  8
$DDT_AUDIT_GENERATED_(148)
  6
Continuous
 62
     7
100
AcDbLine
 10
330.452523776
 20
391.3230365903
 30
0.0
 11
332.952523776
 21
391.3230365903
 31
0.0
  0
LINE
  5
151
330
113
100
AcDbEntity
  8
$DDT_AUDIT_GENERATED_(A6)
  6
Continuous
 62
     7
100
AcDbLine
 10
356.9947289721
 20
454.3430365903
 30
0.0
 11
407.9063786843
 21
454.3430365903
 31
0.0
  0
ARC
  5
152
330
113
100
AcDbEntity
  8
$DDT_AUDIT_GENERATED_(A6)
  6
Continuous
 62
     7
100
AcDbCircle
 10
382.4505538282
 20
448.3430365903
 30
0.0
 40
25.00000000000001
100
AcDbArc
 50
13.8865403626
 51
18.9682903158
  0
ARC
  5
153
330
113
100
AcDbEntity
  8
$DDT_AUDIT_GENERATED_(A6)
  6
Continuous
 62
     7
100
AcDbCircle
 10
382.4505538282
 20
448.3430365903
 30
0.0
 40
25.00000000000005
100
AcDbArc
 50
128.7008479518
 51
166.1134596374
  0
LINE
  5
154
330
113
100
AcDbEntity
  8
$DDT_AUDIT_GENERATED_(A6)
  6
Continuous
 62
     7
100
AcDbLine
 10
408.6727879829
 20
423.3161700824
 30
0.0
 11
408.4063596478
 21
453.8473996343
 31
0.0
  0
LINE
  5
155
330
113
100
AcDbEntity
  8
$DDT_AUDIT_GENERATED_(A6)
  6
Continuous
 62
     7
100
AcDbLine
 10
356.4947480086
 20
453.8473996343
 30
0.0
 11
356.2338084634
 21
423.9451553792
 31
0.0
  0
ARC
  5
156
330
113
100
AcDbEntity
  8
$DDT_AUDIT_GENERATED_(A6)
  6
Continuous
 62
     7
100
AcDbCircle
 10
356.9947289721
 20
453.8430365903
 30
0.0
 40
0.5000000000000004
100
AcDbArc
 50
90.0
 51
179.500025649
  0
ARC
  5
157
330
113
100
AcDbEntity
  8
$DDT_AUDIT_GENERATED_(A6)
  6
Continuous
 62
     7
100
AcDbCircle
 10
407.9063786843
 20
453.8430365903
 30
0.0
 40
0.5000000000000111
100
AcDbArc
 50
0.499974351
 51
90.0
  0
SPLINE
  5
158
330
113
100
AcDbEntity
  8
$DDT_AUDIT_GENERATED_(AE)
  6
Continuous
 62
     7
100
AcDbSpline
210
0.0
220
0.0
230
1.0
 70
     8
 71
     3
 72
     8
 73
     4
 74
     0
 42
0.0000000023572276
 43
0.0000000001
 40
0.5007455487586949
 40
0.5007455487586949
 40
0.5007455487586949
 40
0.5007455487586949
 40
0.500981271517658
 40
0.500981271517658
 40
0.500981271517658
 40
0.500981271517658
 10
360.7240189089399
 20
489.2682546271656
 30
0.0
 10
360.7239616505697
 20
489.2682585583134
 30
0.0
 10
360.7239331945117
 20
489.2682598926551
 30
0.0
 10
360.7239335124355
 20
489.268258638538
 30
0.0
  0
ARC
  5
159
330
113
100
AcDbEntity
  8
$DDT_AUDIT_GENERATED_(AE)
  6
Continuous
 62
     7
100
AcDbCircle
 10
476.7010970923
 20
411.7402035836
 30
0.0
 40
88.66720688031602
100
AcDbArc
 50
93.7779378716
 51
96.6735018135
  0
SPLINE
  5
15A
330
113
100
AcDbEntity
  8
$DDT_AUDIT_GENERATED_(AE)
  6
Continuous
 62
     7
100
AcDbSpline
210
0.0
220
0.0
230
1.0
 70
     8
 71
     3
 72
    30
 73
    26
 74
     0
 42
0.0000000000463305
 43
0.0000000001
 40
0.0
 40
0.0
 40
0.0
 40
0.0
 40
0.0625
 40
0.0625
 40
0.1249999999999999
 40
0.1249999999999999
 40
0.25
 40
0.25
 40
0.3125000000000001
 40
0.3125000000000001
 40
0.3437500000000001
 40
0.3437500000000001
 40
0.3750000000000001
 40
0.3750000000000001
 40
0.4062500000000002
 40
0.4062500000000002
 40
0.4218750000000002
 40
0.4218750000000002
 40
0.4375000000000003
 40
0.4375000000000003
 40
0.4531250000000003
 40
0.4531250000000003
 40
0.4687500000000003
 40
0.4687500000000003
 40
0.4991325695476769
 40
0.4991325695476769
 40
0.4991325695476769
 40
0.4991325695476769
 10
466.3969566267252
 20
499.8066459168108
 30
0.0
 10
461.4792556607223
 20
499.2663277853474
 30
0.0
 10
456.5650440989895
 20
498.6997353840934
 30
0.0
 10
446.7361565192502
 20
497.5286437064073
 30
0.0
 10
441.8221133466369
 20
496.9239334283403
 30
0.0
 10
427.0818952652301
 20
495.0578691456814
 30
0.0
 10
417.2597415341774
 20
493.7427603393503
 30
0.0
 10
402.5378425394729
 20
491.6806811049667
 30
0.0
 10
397.632872689987
 20
490.9760362226812
 30
0.0
 10
390.2687702678837
 20
489.928216261064
 30
0.0
 10
387.8130014887601
 20
489.5804255296462
 30
0.0
 10
382.887688134908
 20
488.921889224897
 30
0.0
 10
380.4255135997871
 20
488.6140626419723
 30
0.0
 10
375.5389955335218
 20
488.1063214555365
 30
0.0
 10
373.0980858652106
 20
487.906831458951
 30
0.0
 10
369.7009367847763
 20
487.7343649325668
 30
0.0
 10
368.5939230917829
 20
487.6970402445576
 30
0.0
 10
366.5555517312878
 20
487.6633484241087
 30
0.0
 10
365.6196758966105
 20
487.6662667420072
 30
0.0
 10
363.9149676790042
 20
487.697866006905
 30
0.0
 10
363.1403181150424
 20
487.7267924690724
 30
0.0
 10
361.8159948818801
 20
487.7894410683914
 30
0.0
 10
361.2571196217173
 20
487.822987428128
 30
0.0
 10
359.9113121075835
 20
487.9081074793771
 30
0.0
 10
359.4407851071791
 20
487.9426399385652
 30
0.0
 10
359.4408982455483
 20
487.942743141688
 30
0.0
  0
SPLINE
  5
15B
330
113
100
AcDbEntity
  8
$DDT_AUDIT_GENERATED_(AE)
  6
Continuous
 62
     7
100
AcDbSpline
210
0.0
220
0.0
230
1.0
 70
     8
 71
     3
 72
    14
 73
    10
 74
     0
 42
0.0000000000960884
 43
0.0000000001
 40
0.0
 40
0.0
 40
0.0
 40
0.0
 40
0.1249999999999999
 40
0.1249999999999999
 40
0.2499999999999998
 40
0.2499999999999998
 40
0.3749999999999999
 40
0.3749999999999999
 40
0.4475910280590279
 40
0.4475910280590279
 40
0.4475910280590279
 40
0.4475910280590279
 10
466.5555510231217
 20
497.9882806865001
 30
0.0
 10
462.2765168188902
 20
497.296644559589
 30
0.0
 10
457.9974966558735
 20
496.6065455908103
 30
0.0
 10
449.4308727856821
 20
495.2504864406576
 30
0.0
 10
445.1448205046798
 20
494.5797863703481
 30
0.0
 10
436.5778199875368
 20
493.2055381299243
 30
0.0
 10
432.2966111047491
 20
492.5029786445537
 30
0.0
 10
425.549090767687
 20
491.2977248586548
 30
0.0
 10
423.0753470476488
 20
490.8321405481292
 30
0.0
 10
420.6098436978261
 20
490.3391825553871
 30
0.0
  0
SPLINE
  5
15C
330
113
100
AcDbEntity
  8
$DDT_AUDIT_GENERATED_(AE)
  6
Continuous
 62
     7
100
AcDbSpline
210
0.0
220
0.0
230
1.0
 70
     8
 71
     3
 72
    30
 73
    26
 74
     0
 42
0.0000000000969036
 43
0.0000000001
 40
0.4475910280590279
 40
0.4475910280590279
 40
0.4475910280590279
 40
0.4475910280590279
 40
0.5000000000000001
 40
0.5000000000000001
 40
0.5625000000000001
 40
0.5625000000000001
 40
0.625
 40
0.625
 40
0.6875
 40
0.6875
 40
0.71875
 40
0.71875
 40
0.7499999999999999
 40
0.7499999999999999
 40
0.7812499999999999
 40
0.7812499999999999
 40
0.8124999999999999
 40
0.8124999999999999
 40
0.8437499999999999
 40
0.8437499999999999
 40
0.8749999999999999
 40
0.8749999999999999
 40
0.9374999999999999
 40
0.9374999999999999
 40
1.0
 40
1.0
 40
1.0
 40
1.0
 10
420.6098436978261
 20
490.3391825553871
 30
0.0
 10
418.8298097275652
 20
489.9832787708493
 30
0.0
 10
417.0540710435451
 20
489.613106476826
 30
0.0
 10
413.1726440234768
 20
488.766427618214
 30
0.0
 10
411.0686434593234
 20
488.2851996618832
 30
0.0
 10
406.8726542032669
 20
487.2971068002078
 30
0.0
 10
404.778857099187
 20
486.7930035924862
 30
0.0
 10
400.6145455684554
 20
485.6712572730561
 30
0.0
 10
398.5445362900608
 20
485.0444252272264
 30
0.0
 10
395.560071501438
 20
483.8367425564761
 30
0.0
 10
394.5851328272538
 20
483.3877012509989
 30
0.0
 10
392.6986256546024
 20
482.3447896803955
 30
0.0
 10
391.7817040660602
 20
481.745090303157
 30
0.0
 10
390.1195632563594
 20
480.3780887598845
 30
0.0
 10
389.3607151932129
 20
479.5972999839134
 30
0.0
 10
388.0703233349997
 20
477.864616210248
 30
0.0
 10
387.5503833954979
 20
476.9317994138621
 30
0.0
 10
386.7147961690206
 20
474.9586692473106
 30
0.0
 10
386.3991539757312
 20
473.9159739495309
 30
0.0
 10
385.9244363780167
 20
471.8352078771891
 30
0.0
 10
385.7596559823675
 20
470.7855865176039
 30
0.0
 10
385.3935057250722
 20
467.6209884631912
 30
0.0
 10
385.3173461838479
 20
465.4892280689298
 30
0.0
 10
385.2684820008702
 20
461.2185589794244
 30
0.0
 10
385.3130147202556
 20
459.0828855038029
 30
0.0
 10
385.3743361790187
 20
456.9460796957774
 30
0.0
  0
LINE
  5
15D
330
113
100
AcDbEntity
  8
$DDT_AUDIT_GENERATED_(AE)
  6
Continuous
 62
     7
100
AcDbLine
 10
386.483719797
 20
456.4528002438
 30
0.0
 11
408.2804066597
 21
456.4528002436
 31
0.0
  0
ARC
  5
15E
330
113
100
AcDbEntity
  8
$DDT_AUDIT_GENERATED_(AE)
  6
Continuous
 62
     7
100
AcDbCircle
 10
386.4746480638
 20
461.4320807612
 30
0.0
 40
4.977622680660088
100
AcDbArc
 50
237.9621714862
 51
254.7467659569
  0
LINE
  5
15F
330
113
100
AcDbEntity
  8
$DDT_AUDIT_GENERATED_(AE)
  6
Continuous
 62
     7
100
AcDbLine
 10
385.2663670404
 20
456.6032587948
 30
0.0
 11
385.16510686
 21
456.6298074051
 31
0.0
  0
LINE
  5
160
330
113
100
AcDbEntity
  8
$DDT_AUDIT_GENERATED_(AE)
  6
Continuous
 62
     7
100
AcDbLine
 10
386.4837197978
 20
456.4528002436
 30
0.0
 11
385.2663670404
 21
456.6032587948
 31
0.0
  0
LINE
  5
161
330
113
100
AcDbEntity
  8
$DDT_AUDIT_GENERATED_(AE)
  6
Continuous
 62
     7
100
AcDbLine
 10
383.8341234766
 20
457.2125597629
 30
0.0
 11
358.3188554107
 21
473.156268783
 31
0.0
  0
ARC
  5
162
330
113
100
AcDbEntity
  8
$DDT_AUDIT_GENERATED_(AE)
  6
Continuous
 62
     7
100
AcDbCircle
 10
386.4837197978
 20
461.4528002436
 30
0.0
 40
4.999999999997931
100
AcDbArc
 50
238.0
 51
254.3567121645
  0
ARC
  5
163
330
113
100
AcDbEntity
  8
$DDT_AUDIT_GENERATED_(AE)
  6
Continuous
 62
     7
100
AcDbCircle
 10
386.4837197978
 20
461.4528002436
 30
0.0
 40
4.999999999997931
100
AcDbArc
 50
257.0577358379
 51
270.0
  0
ARC
  5
164
330
113
100
AcDbEntity
  8
$DDT_AUDIT_GENERATED_(AE)
  6
Continuous
 62
     7
100
AcDbCircle
 10
424.9216626429
 20
470.1151520373
 30
0.0
 40
16.61747811933314
100
AcDbArc
 50
169.7200279978
 51
188.4024158305
  0
ARC
  5
165
330
113
100
AcDbEntity
  8
$DDT_AUDIT_GENERATED_(AE)
  6
Continuous
 62
     7
100
AcDbCircle
 10
627.0742923707
 20
457.354393715
 30
0.0
 40
269.3742545739763
100
AcDbArc
 50
173.4798321496
 51
176.5806855581
  0
ARC
  5
166
330
113
100
AcDbEntity
  8
$DDT_AUDIT_GENERATED_(AE)
  6
Continuous
 62
     7
100
AcDbCircle
 10
676.7565942835
 20
-1797.1983524893
 30
0.0
 40
2308.201762875223
100
AcDbArc
 50
95.1366789522
 51
97.869469012
  0
SPLINE
  5
167
330
113
100
AcDbEntity
  8
$DDT_AUDIT_GENERATED_(AE)
  6
Continuous
 62
     7
100
AcDbSpline
210
0.0
220
0.0
230
1.0
 70
     8
 71
     3
 72
    26
 73
    22
 74
     0
 42
0.0000000003811242
 43
0.0000000001
 40
0.0071421246741421
 40
0.0071421246741421
 40
0.0071421246741421
 40
0.0071421246741421
 40
0.0729987513573079
 40
0.1401465977468729
 40
0.1966507417378204
 40
0.244144895788389
 40
0.2838295391917189
 40
0.3165274552969433
 40
0.3434030127811427
 40
0.3760098904165963
 40
0.4185919134979023
 40
0.4717619128080136
 40
0.5110200267450191
 40
0.5556216319365672
 40
0.6064206665796696
 40
0.6645134111019202
 40
0.7171348899583689
 40
0.7760709983491301
 40
0.8422049968930018
 40
0.9165019636339502
 40
1.0
 40
1.0
 40
1.0
 40
1.0
 10
408.96069278255
 20
474.8309474474008
 30
0.0
 10
409.0435660511572
 20
475.4405060895828
 30
0.0
 10
409.19852933392
 20
476.5120345668302
 30
0.0
 10
409.553728608857
 20
478.1651092298254
 30
0.0
 10
409.9646581115038
 20
479.5982155593703
 30
0.0
 10
410.3965760506707
 20
480.7809059902151
 30
0.0
 10
410.823663240805
 20
481.7388820825608
 30
0.0
 10
411.22704670344
 20
482.5081836787222
 30
0.0
 10
411.6409044044798
 20
483.2003890868099
 30
0.0
 10
412.1429803922327
 20
483.9391588167954
 30
0.0
 10
412.8430299869238
 20
484.8184388836611
 30
0.0
 10
413.6655603092396
 20
485.6687788952329
 30
0.0
 10
414.5719124447157
 20
486.4542088424553
 30
0.0
 10
415.5173037821708
 20
487.1583427569028
 30
0.0
 10
416.6520441506261
 20
487.8777693512462
 30
0.0
 10
417.8984963169522
 20
488.5451443816714
 30
0.0
 10
419.2471653700738
 20
489.1640484248884
 30
0.0
 10
420.6933724069043
 20
489.7395397734157
 30
0.0
 10
422.3342698932101
 20
490.3056825388606
 30
0.0
 10
424.246206953611
 20
490.8783595082822
 30
0.0
 10
425.4835358242277
 20
491.1943838277531
 30
0.0
 10
426.2624960966327
 20
491.3904482381712
 30
0.0
  0
SPLINE
  5
168
330
113
100
AcDbEntity
  8
$DDT_AUDIT_GENERATED_(AE)
  6
Continuous
 62
     7
100
AcDbSpline
210
0.0
220
0.0
230
1.0
 70
     8
 71
     3
 72
    12
 73
     8
 74
     0
 42
0.0000000009122119
 43
0.0000000001
 40
0.0
 40
0.0
 40
0.0
 40
0.0
 40
0.2362970294914105
 40
0.5047592662737331
 40
0.7449177499605034
 40
0.9597325143339177
 40
1.0
 40
1.0
 40
1.0
 40
1.0
 10
408.5817384088557
 20
456.7605662867629
 30
0.0
 10
408.5577264070883
 20
457.7100424172293
 30
0.0
 10
408.5159146818183
 20
459.4201507929797
 30
0.0
 10
408.4675103019901
 20
462.2063733219406
 30
0.0
 10
408.4524558920357
 20
464.8122727710991
 30
0.0
 10
408.4580198595315
 20
466.6808925024995
 30
0.0
 10
408.4821882657691
 20
467.5594596232878
 30
0.0
 10
408.4866638462066
 20
467.7212501296252
 30
0.0
  0
SPLINE
  5
169
330
113
100
AcDbEntity
  8
$DDT_AUDIT_GENERATED_(AE)
  6
Continuous
 62
     7
100
AcDbSpline
210
0.0
220
0.0
230
1.0
 70
     8
 71
     3
 72
     8
 73
     4
 74
     0
 42
0.0000000004991813
 43
0.0000000001
 40
0.1679499195805926
 40
0.1679499195805926
 40
0.1679499195805926
 40
0.1679499195805926
 40
1.0
 40
1.0
 40
1.0
 40
1.0
 10
454.4882651201473
 20
496.0495674876998
 30
0.0
 10
460.0883305276544
 20
496.8645886534982
 30
0.0
 10
465.583807301875
 20
497.6829602161233
 30
0.0
 10
470.9746954428092
 20
498.5046821755752
 30
0.0
  0
ARC
  5
16A
330
113
100
AcDbEntity
  8
$DDT_AUDIT_GENERATED_(AE)
  6
Continuous
 62
     7
100
AcDbCircle
 10
431.5888941415
 20
469.0180403882
 30
0.0
 40
22.99583853942265
100
AcDbArc
 50
99.4191478551
 51
103.448207117
  0
LINE
  5
16B
330
113
100
AcDbEntity
  8
$DDT_AUDIT_GENERATED_(AE)
  6
Continuous
 62
     7
100
AcDbLine
 10
471.8302140846
 20
499.6086316893
 30
0.0
 11
471.7291442282
 21
500.4317823136
 31
0.0
  0
ARC
  5
16C
330
113
100
AcDbEntity
  8
$DDT_AUDIT_GENERATED_(AE)
  6
Continuous
 62
     7
100
AcDbCircle
 10
360.9178013621
 20
487.8045970599
 30
0.0
 40
1.474100793313385
100
AcDbArc
 50
97.487930232
 51
174.6757449206
  0
ARC
  5
16D
330
113
100
AcDbEntity
  8
$DDT_AUDIT_GENERATED_(AE)
  6
Continuous
 62
     7
100
AcDbCircle
 10
470.2411330237
 20
500.2423982353
 30
0.0
 40
1.500000000000193
100
AcDbArc
 50
6.9737756329
 51
95.4744684188
  0
ARC
  5
16E
330
113
100
AcDbEntity
  8
$DDT_AUDIT_GENERATED_(AE)
  6
Continuous
 62
     7
100
AcDbCircle
 10
470.8459132891
 20
499.4833549047
 30
0.0
 40
0.9839148731116869
100
AcDbArc
 50
273.680244832
 51
7.8233460651
  0
ARC
  5
16F
330
113
100
AcDbEntity
  8
$DDT_AUDIT_GENERATED_(AE)
  6
Continuous
 62
     7
100
AcDbCircle
 10
408.280407936
 20
456.7528002436
 30
0.0
 40
0.2999999999656183
100
AcDbArc
 50
270.0000202139
 51
1.6179327304
  0
ARC
  5
170
330
113
100
AcDbEntity
  8
$DDT_AUDIT_GENERATED_(AE)
  6
Continuous
 62
     7
100
AcDbCircle
 10
358.4778347616
 20
473.410680942
 30
0.0
 40
0.2999999677020878
100
AcDbArc
 50
178.2936094607
 51
238.0007834097
  0
LINE
  5
171
330
113
100
AcDbEntity
  8
$DDT_AUDIT_GENERATED_(C7)
  6
Continuous
 62
     7
100
AcDbLine
 10
349.952523776
 20
388.8730365903
 30
0.0
 11
349.952523776
 21
391.1364261499
 31
0.0
  0
LINE
  5
172
330
113
100
AcDbEntity
  8
$DDT_AUDIT_GENERATED_(C7)
  6
Continuous
 62
     7
100
AcDbLine
 10
332.952523776
 20
388.8730365903
 30
0.0
 11
332.952523776
 21
417.8730365903
 31
0.0
  0
LINE
  5
173
330
113
100
AcDbEntity
  8
$DDT_AUDIT_GENERATED_(C7)
  6
Continuous
 62
     7
100
AcDbLine
 10
336.452523776
 20
418.3730365903
 30
0.0
 11
336.452523776
 21
416.285695364
 31
0.0
  0
LINE
  5
174
330
113
100
AcDbEntity
  8
$DDT_AUDIT_GENERATED_(C7)
  6
Continuous
 62
     7
100
AcDbLine
 10
336.452523776
 20
405.4603778167
 30
0.0
 11
336.452523776
 21
401.285695364
 31
0.0
  0
LINE
  5
175
330
113
100
AcDbEntity
  8
$DDT_AUDIT_GENERATED_(C7)
  6
Continuous
 62
     7
100
AcDbLine
 10
336.452523776
 20
390.4603778167
 30
0.0
 11
336.452523776
 21
388.3730365903
 31
0.0
  0
LINE
  5
176
330
113
100
AcDbEntity
  8
$DDT_AUDIT_GENERATED_(C7)
  6
Continuous
 62
     7
100
AcDbLine
 10
333.6567950469
 20
388.3730365903
 30
0.0
 11
336.452523776
 21
388.3730365903
 31
0.0
  0
ARC
  5
177
330
113
100
AcDbEntity
  8
$DDT_AUDIT_GENERATED_(C7)
  6
Continuous
 62
     7
100
AcDbCircle
 10
340.2310832952
 20
395.8730365903
 30
0.0
 40
6.601089837288612
100
AcDbArc
 50
124.9187681796
 51
235.0812318204
  0
ARC
  5
178
330
113
100
AcDbEntity
  8
$DDT_AUDIT_GENERATED_(C7)
  6
Continuous
 62
     7
100
AcDbCircle
 10
340.2310832952
 20
410.8730365903
 30
0.0
 40
6.601089837288616
100
AcDbArc
 50
124.9187681796
 51
235.0812318204
  0
LINE
  5
179
330
113
100
AcDbEntity
  8
$DDT_AUDIT_GENERATED_(C7)
  6
Continuous
 62
     7
100
AcDbLine
 10
336.452523776
 20
418.3730365903
 30
0.0
 11
333.6567950469
 21
418.3730365903
 31
0.0
  0
LINE
  5
17A
330
113
100
AcDbEntity
  8
$DDT_AUDIT_GENERATED_(C7)
  6
Continuous
 62
     7
100
AcDbLine
 10
346.452523776
 20
418.3730365903
 30
0.0
 11
346.452523776
 21
416.285695364
 31
0.0
  0
LINE
  5
17B
330
113
100
AcDbEntity
  8
$DDT_AUDIT_GENERATED_(C7)
  6
Continuous
 62
     7
100
AcDbLine
 10
346.452523776
 20
405.4603778167
 30
0.0
 11
346.452523776
 21
401.285695364
 31
0.0
  0
LINE
  5
17C
330
113
100
AcDbEntity
  8
$DDT_AUDIT_GENERATED_(C7)
  6
Continuous
 62
     7
100
AcDbLine
 10
346.452523776
 20
390.4603778167
 30
0.0
 11
346.452523776
 21
388.3730365903
 31
0.0
  0
LINE
  5
17D
330
113
100
AcDbEntity
  8
$DDT_AUDIT_GENERATED_(C7)
  6
Continuous
 62
     7
100
AcDbLine
 10
349.2482525051
 20
418.3730365903
 30
0.0
 11
346.452523776
 21
418.3730365903
 31
0.0
  0
LINE
  5
17E
330
113
100
AcDbEntity
  8
$DDT_AUDIT_GENERATED_(C7)
  6
Continuous
 62
     7
100
AcDbLine
 10
346.452523776
 20
418.3730365903
 30
0.0
 11
336.452523776
 21
418.3730365903
 31
0.0
  0
LINE
  5
17F
330
113
100
AcDbEntity
  8
$DDT_AUDIT_GENERATED_(C7)
  6
Continuous
 62
     7
100
AcDbLine
 10
336.452523776
 20
416.285695364
 30
0.0
 11
346.452523776
 21
416.285695364
 31
0.0
  0
ARC
  5
180
330
113
100
AcDbEntity
  8
$DDT_AUDIT_GENERATED_(C7)
  6
Continuous
 62
     7
100
AcDbCircle
 10
342.6739642568
 20
410.8730365903
 30
0.0
 40
6.601089837288603
100
AcDbArc
 50
304.9187681795
 51
55.0812318205
  0
LINE
  5
181
330
113
100
AcDbEntity
  8
$DDT_AUDIT_GENERATED_(C7)
  6
Continuous
 62
     7
100
AcDbLine
 10
346.452523776
 20
405.4603778167
 30
0.0
 11
336.452523776
 21
405.4603778167
 31
0.0
  0
LINE
  5
182
330
113
100
AcDbEntity
  8
$DDT_AUDIT_GENERATED_(C7)
  6
Continuous
 62
     7
100
AcDbLine
 10
336.452523776
 20
401.285695364
 30
0.0
 11
346.452523776
 21
401.285695364
 31
0.0
  0
ARC
  5
183
330
113
100
AcDbEntity
  8
$DDT_AUDIT_GENERATED_(C7)
  6
Continuous
 62
     7
100
AcDbCircle
 10
342.6739642568
 20
395.8730365903
 30
0.0
 40
6.601089837288603
100
AcDbArc
 50
304.9187681795
 51
55.0812318205
  0
LINE
  5
184
330
113
100
AcDbEntity
  8
$DDT_AUDIT_GENERATED_(C7)
  6
Continuous
 62
     7
100
AcDbLine
 10
346.452523776
 20
390.4603778167
 30
0.0
 11
336.452523776
 21
390.4603778167
 31
0.0
  0
LINE
  5
185
330
113
100
AcDbEntity
  8
$DDT_AUDIT_GENERATED_(C7)
  6
Continuous
 62
     7
100
AcDbLine
 10
336.452523776
 20
388.3730365903
 30
0.0
 11
346.452523776
 21
388.3730365903
 31
0.0
  0
LINE
  5
186
330
113
100
AcDbEntity
  8
$DDT_AUDIT_GENERATED_(C7)
  6
Continuous
 62
     7
100
AcDbLine
 10
346.452523776
 20
388.3730365903
 30
0.0
 11
349.2482525051
 21
388.3730365903
 31
0.0
  0
ARC
  5
187
330
113
100
AcDbEntity
  8
$DDT_AUDIT_GENERATED_(C7)
  6
Continuous
 62
     7
100
AcDbCircle
 10
343.8168225778
 20
409.9766341939
 30
0.0
 40
10.0
100
AcDbArc
 50
52.1519040322
 51
57.1068978502
  0
ARC
  5
188
330
113
100
AcDbEntity
  8
$DDT_AUDIT_GENERATED_(C7)
  6
Continuous
 62
     7
100
AcDbCircle
 10
343.8168225778
 20
396.7694389868
 30
0.0
 40
9.999999999999995
100
AcDbArc
 50
302.8935714928
 51
307.8480959678
  0
ARC
  5
189
330
113
100
AcDbEntity
  8
$DDT_AUDIT_GENERATED_(C7)
  6
Continuous
 62
     7
100
AcDbCircle
 10
339.0882249742
 20
409.9766341939
 30
0.0
 40
9.999999999999998
100
AcDbArc
 50
122.8935714928
 51
127.8480959678
  0
ARC
  5
18A
330
113
100
AcDbEntity
  8
$DDT_AUDIT_GENERATED_(C7)
  6
Continuous
 62
     7
100
AcDbCircle
 10
339.0882249742
 20
396.7694389868
 30
0.0
 40
9.999999999999998
100
AcDbArc
 50
232.1519040322
 51
237.1068978502
  0
LINE
  5
18B
330
113
100
AcDbEntity
  8
$DDT_AUDIT_GENERATED_(CC)
  6
Continuous
 62
     7
100
AcDbLine
 10
408.7060922744
 20
467.365252821
 30
0.0
 11
408.5557567432
 21
473.1063351359
 31
0.0
  0
LINE
  5
18C
330
113
100
AcDbEntity
  8
$DDT_AUDIT_GENERATED_(CC)
  6
Continuous
 62
     7
100
AcDbLine
 10
409.2123046123
 20
467.1345585678
 30
0.0
 11
409.0113454003
 21
474.8088812569
 31
0.0
  0
LINE
  5
18D
330
113
100
AcDbEntity
  8
$DDT_AUDIT_GENERATED_(CC)
  6
Continuous
 62
     7
100
AcDbLine
 10
408.7060922744
 20
467.365252821
 30
0.0
 11
409.2123046123
 21
467.1345585678
 31
0.0
  0
LINE
  5
18E
330
113
100
AcDbEntity
  8
$DDT_AUDIT_GENERATED_(CC)
  6
Continuous
 62
     7
100
AcDbLine
 10
408.4857252491
 20
467.6854694342
 30
0.0
 11
408.7002673697
 21
467.5876969569
 31
0.0
  0
LINE
  5
18F
330
113
100
AcDbEntity
  8
A4227575_216135_
  6
Continuous
 62
     7
100
AcDbLine
 10
424.9730538282
 20
391.6070111866
 30
0.0
 11
445.9280538282
 21
391.6070111866
 31
0.0
  0
LINE
  5
190
330
113
100
AcDbEntity
  8
A4227575_216135_
  6
Continuous
 62
     7
100
AcDbLine
 10
424.9730538282
 20
383.8730365903
 30
0.0
 11
445.9280538282
 21
383.8730365903
 31
0.0
  0
LINE
  5
191
330
113
100
AcDbEntity
  8
A4227575_216135_
  6
Continuous
 62
     7
100
AcDbLine
 10
425.9730538282
 20
382.8730365903
 30
0.0
 11
444.9280538282
 21
382.8730365903
 31
0.0
  0
LINE
  5
192
330
113
100
AcDbEntity
  8
A4227575_216135_
  6
Continuous
 62
     7
100
AcDbLine
 10
445.7005538282
 20
391.6070111866
 30
0.0
 11
444.3740460585
 21
392.3728708045
 31
0.0
  0
LINE
  5
193
330
113
100
AcDbEntity
  8
A4227575_216135_
  6
Continuous
 62
     7
100
AcDbLine
 10
426.5270615979
 20
392.3728708045
 30
0.0
 11
425.2005538282
 21
391.6070111866
 31
0.0
  0
LINE
  5
194
330
113
100
AcDbEntity
  8
A4227575_216135_
  6
Continuous
 62
     7
100
AcDbLine
 10
445.9280538282
 20
383.8730365903
 30
0.0
 11
445.9280538282
 21
391.6070111866
 31
0.0
  0
LINE
  5
195
330
113
100
AcDbEntity
  8
A4227575_216135_
  6
Continuous
 62
     7
100
AcDbLine
 10
424.9730538282
 20
391.6070111866
 30
0.0
 11
424.9730538282
 21
383.8730365903
 31
0.0
  0
LINE
  5
196
330
113
100
AcDbEntity
  8
A4227575_216135_
  6
Continuous
 62
     7
100
AcDbLine
 10
424.9730538282
 20
383.8730365903
 30
0.0
 11
425.9730538282
 21
382.8730365903
 31
0.0
  0
LINE
  5
197
330
113
100
AcDbEntity
  8
A4227575_216135_
  6
Continuous
 62
     7
100
AcDbLine
 10
444.9280538282
 20
382.8730365903
 30
0.0
 11
445.9280538282
 21
383.8730365903
 31
0.0
  0
LINE
  5
198
330
113
100
AcDbEntity
  8
A4227575_216135_
  6
Continuous
 62
     7
100
AcDbLine
 10
426.1350538282
 20
382.8730365903
 30
0.0
 11
426.1350538282
 21
391.6070111866
 31
0.0
  0
LINE
  5
199
330
113
100
AcDbEntity
  8
A4227575_216135_
  6
Continuous
 62
     7
100
AcDbLine
 10
444.7660538282
 20
382.8730365903
 30
0.0
 11
444.7660538282
 21
391.6070111866
 31
0.0
  0
LINE
  5
19B
330
113
100
AcDbEntity
  8
A4225112_211188_
  6
Continuous
 62
     7
100
AcDbLine
 10
429.8505538282
 20
427.1730365903
 30
0.0
 11
429.8505538282
 21
423.3554508521
 31
0.0
  0
LINE
  5
19C
330
113
100
AcDbEntity
  8
A4225112_211188_
  6
Continuous
 62
     7
100
AcDbLine
 10
441.0505538282
 20
423.368761303
 30
0.0
 11
441.0505538282
 21
427.1730365903
 31
0.0
  0
LINE
  5
19D
330
113
100
AcDbEntity
  8
$DDT_AUDIT_GENERATED_(DE)
  6
Continuous
 62
     7
100
AcDbLine
 10
426.2250931346
 20
448.6095808991
 30
0.0
 11
444.6760145218
 21
448.6095808991
 31
0.0
  0
LINE
  5
19E
330
113
100
AcDbEntity
  8
$DDT_AUDIT_GENERATED_(DE)
  6
Continuous
 62
     7
100
AcDbLine
 10
428.3524662349
 20
427.1730365903
 30
0.0
 11
442.5486414215
 21
427.1730365903
 31
0.0
  0
LINE
  5
19F
330
113
100
AcDbEntity
  8
$DDT_AUDIT_GENERATED_(DE)
  6
Continuous
 62
     7
100
AcDbLine
 10
426.3524662349
 20
445.5496752488
 30
0.0
 11
444.5486414215
 21
445.5496752488
 31
0.0
  0
ARC
  5
1A0
330
113
100
AcDbEntity
  8
$DDT_AUDIT_GENERATED_(DE)
  6
Continuous
 62
     7
100
AcDbCircle
 10
435.4505538282
 20
422.1730365903
 30
0.0
 40
28.0
100
AcDbArc
 50
70.7627384947
 51
90.0
  0
ARC
  5
1A1
330
113
100
AcDbEntity
  8
$DDT_AUDIT_GENERATED_(DE)
  6
Continuous
 62
     7
100
AcDbCircle
 10
435.4505538282
 20
422.1730365903
 30
0.0
 40
28.0
100
AcDbArc
 50
90.0
 51
109.2372615053
  0
ARC
  5
1A2
330
113
100
AcDbEntity
  8
$DDT_AUDIT_GENERATED_(DE)
  6
Continuous
 62
     7
100
AcDbCircle
 10
444.1488453393
 20
447.0989212244
 30
0.0
 40
1.599999999999997
100
AcDbArc
 50
284.4699705644
 51
70.7627384947
  0
ARC
  5
1A3
330
113
100
AcDbEntity
  8
$DDT_AUDIT_GENERATED_(DE)
  6
Continuous
 62
     7
100
AcDbCircle
 10
426.7522623171
 20
447.0989212244
 30
0.0
 40
1.599999999999996
100
AcDbArc
 50
109.2372615053
 51
255.5300294356
  0
LINE
  5
1A4
330
113
100
AcDbEntity
  8
$DDT_AUDIT_GENERATED_(DE)
  6
Continuous
 62
     7
100
AcDbLine
 10
443.0486414215
 20
427.6730365903
 30
0.0
 11
443.0486414215
 21
445.5496752488
 31
0.0
  0
LINE
  5
1A5
330
113
100
AcDbEntity
  8
$DDT_AUDIT_GENERATED_(DE)
  6
Continuous
 62
     7
100
AcDbLine
 10
427.8524662349
 20
445.5496752488
 30
0.0
 11
427.8524662349
 21
427.6730365903
 31
0.0
  0
ARC
  5
1A6
330
113
100
AcDbEntity
  8
$DDT_AUDIT_GENERATED_(DE)
  6
Continuous
 62
     7
100
AcDbCircle
 10
442.5486414215
 20
427.6730365903
 30
0.0
 40
0.5000000000000004
100
AcDbArc
 50
270.0
 51
0.0
  0
ARC
  5
1A7
330
113
100
AcDbEntity
  8
$DDT_AUDIT_GENERATED_(DE)
  6
Continuous
 62
     7
100
AcDbCircle
 10
428.3524662349
 20
427.6730365903
 30
0.0
 40
0.5000000000000004
100
AcDbArc
 50
180.0
 51
270.0
  0
LINE
  5
1A8
330
113
100
AcDbEntity
  8
$DDT_AUDIT_GENERATED_(E8)
  6
Continuous
 62
     7
100
AcDbLine
 10
480.5005538282
 20
396.7930365903
 30
0.0
 11
462.4005538282
 21
396.7930365903
 31
0.0
  0
LINE
  5
1A9
330
113
100
AcDbEntity
  8
$DDT_AUDIT_GENERATED_(E8)
  6
Continuous
 62
     7
100
AcDbLine
 10
480.7005538282
 20
396.9930365903
 30
0.0
 11
480.7005538282
 21
397.1930365903
 31
0.0
  0
LINE
  5
1AA
330
113
100
AcDbEntity
  8
$DDT_AUDIT_GENERATED_(E8)
  6
Continuous
 62
     7
100
AcDbLine
 10
462.2005538282
 20
397.1930365903
 30
0.0
 11
462.2005538282
 21
396.9930365903
 31
0.0
  0
ARC
  5
1AB
330
113
100
AcDbEntity
  8
$DDT_AUDIT_GENERATED_(E8)
  6
Continuous
 62
     7
100
AcDbCircle
 10
462.4005538282
 20
396.9930365903
 30
0.0
 40
0.2000000000000057
100
AcDbArc
 50
180.0
 51
270.0
  0
ARC
  5
1AC
330
113
100
AcDbEntity
  8
$DDT_AUDIT_GENERATED_(E8)
  6
Continuous
 62
     7
100
AcDbCircle
 10
480.5005538282
 20
396.9930365903
 30
0.0
 40
0.2000000000000005
100
AcDbArc
 50
270.0
 51
0.0
  0
LINE
  5
1AD
330
113
100
AcDbEntity
  8
$DDT_AUDIT_GENERATED_(EE)
  6
Continuous
 62
     7
100
AcDbLine
 10
460.7005538282
 20
397.1930365903
 30
0.0
 11
482.2005538282
 21
397.1930365903
 31
0.0
  0
SPLINE
  5
1AE
330
113
100
AcDbEntity
  8
$DDT_AUDIT_GENERATED_(EE)
  6
Continuous
 62
     7
100
AcDbSpline
210
0.0
220
0.0
230
1.0
 70
     8
 71
     3
 72
    10
 73
     6
 74
     0
 42
0.0000000019260148
 43
0.0000000001
 40
0.0
 40
0.0
 40
0.0
 40
0.0
 40
0.5
 40
0.5
 40
1.0
 40
1.0
 40
1.0
 40
1.0
 10
474.0370572594794
 20
397.5105792383965
 30
0.0
 10
473.1750364376405
 20
397.3966613977306
 30
0.0
 10
472.3129451126967
 20
397.3373842722058
 30
0.0
 10
470.5886095179446
 20
397.3373640456949
 30
0.0
 10
469.7263652460761
 20
397.3966225414114
 30
0.0
 10
468.8640503969282
 20
397.5105792383965
 30
0.0
  0
LINE
  5
1AF
330
113
100
AcDbEntity
  8
$DDT_AUDIT_GENERATED_(EE)
  6
Continuous
 62
     7
100
AcDbLine
 10
475.721385129
 20
398.3766046422
 30
0.0
 11
483.2505538282
 21
398.3766046422
 31
0.0
  0
LINE
  5
1B0
330
113
100
AcDbEntity
  8
$DDT_AUDIT_GENERATED_(EE)
  6
Continuous
 62
     7
100
AcDbLine
 10
475.721385129
 20
400.1930365903
 30
0.0
 11
467.1797225274
 21
400.1930365903
 31
0.0
  0
LINE
  5
1B1
330
113
100
AcDbEntity
  8
$DDT_AUDIT_GENERATED_(EE)
  6
Continuous
 62
     7
100
AcDbLine
 10
475.721385129
 20
400.1930365903
 30
0.0
 11
475.721385129
 21
398.3766046422
 31
0.0
  0
SPLINE
  5
1B2
330
113
100
AcDbEntity
  8
$DDT_AUDIT_GENERATED_(EE)
  6
Continuous
 62
     7
100
AcDbSpline
210
0.0
220
0.0
230
1.0
 70
     8
 71
     3
 72
    14
 73
    10
 74
     0
 42
0.0000000049321089
 43
0.0000000001
 40
0.0
 40
0.0
 40
0.0
 40
0.0
 40
0.1250000000000002
 40
0.1250000000000002
 40
0.2500000000000006
 40
0.2500000000000006
 40
0.5000000000000002
 40
0.5000000000000002
 40
1.0
 40
1.0
 40
1.0
 40
1.0
 10
475.7213851290164
 20
398.376604642181
 30
0.0
 10
475.7213851290164
 20
398.2923633429961
 30
0.0
 10
475.6892536379026
 20
398.2082260891498
 30
0.0
 10
475.5934560381343
 20
398.0690281872126
 30
0.0
 10
475.5303291739328
 20
398.0100127845004
 30
0.0
 10
475.3280192226952
 20
397.858891875561
 30
0.0
 10
475.1720296116102
 20
397.7874871543607
 30
0.0
 10
474.7012635253837
 20
397.6161150385144
 30
0.0
 10
474.3688502535047
 20
397.5544263711686
 30
0.0
 10
474.0370572594794
 20
397.5105792383965
 30
0.0
  0
SPLINE
  5
1B3
330
113
100
AcDbEntity
  8
$DDT_AUDIT_GENERATED_(EE)
  6
Continuous
 62
     7
100
AcDbSpline
210
0.0
220
0.0
230
1.0
 70
     8
 71
     3
 72
    18
 73
    14
 74
     0
 42
0.0000000049401632
 43
0.0000000001
 40
0.0
 40
0.0
 40
0.0
 40
0.0
 40
0.25
 40
0.25
 40
0.5
 40
0.5
 40
0.625
 40
0.625
 40
0.75
 40
0.75
 40
0.875
 40
0.875
 40
1.0
 40
1.0
 40
1.0
 40
1.0
 10
468.8640503969282
 20
397.5105792383965
 30
0.0
 10
468.6976576167648
 20
397.5325683896306
 30
0.0
 10
468.5321050605478
 20
397.5596426472329
 30
0.0
 10
468.2037373140013
 20
397.6303579322476
 30
0.0
 10
468.0409673163487
 20
397.6738107578843
 30
0.0
 10
467.8054953585871
 20
397.759740411975
 30
0.0
 10
467.7283264166435
 20
397.7919090569593
 30
0.0
 10
467.5780005272262
 20
397.8669476252372
 30
0.0
 10
467.5044299342691
 20
397.9100836034597
 30
0.0
 10
467.3704117514691
 20
398.0103824531092
 30
0.0
 10
467.3080333676235
 20
398.0684916195507
 30
0.0
 10
467.2115496946039
 20
398.20865016896
 30
0.0
 10
467.1797225273912
 20
398.2908536588999
 30
0.0
 10
467.1797225273912
 20
398.376604642181
 30
0.0
  0
LINE
  5
1B4
330
113
100
AcDbEntity
  8
$DDT_AUDIT_GENERATED_(EE)
  6
Continuous
 62
     7
100
AcDbLine
 10
467.1797225274
 20
398.3766046422
 30
0.0
 11
467.1797225274
 21
400.1930365903
 31
0.0
  0
LINE
  5
1B5
330
113
100
AcDbEntity
  8
$DDT_AUDIT_GENERATED_(EE)
  6
Continuous
 62
     7
100
AcDbLine
 10
467.1797225274
 20
398.3766046422
 30
0.0
 11
459.6505538282
 21
398.3766046422
 31
0.0
  0
LINE
  5
1B6
330
113
100
AcDbEntity
  8
$DDT_AUDIT_GENERATED_(EE)
  6
Continuous
 62
     7
100
AcDbLine
 10
460.1505538282
 20
397.5105792384
 30
0.0
 11
460.7005538282
 21
397.1930365903
 31
0.0
  0
LINE
  5
1B7
330
113
100
AcDbEntity
  8
$DDT_AUDIT_GENERATED_(EE)
  6
Continuous
 62
     7
100
AcDbLine
 10
482.2005538282
 20
397.1930365903
 30
0.0
 11
482.7505538282
 21
397.5105792384
 31
0.0
  0
ARC
  5
1B8
330
113
100
AcDbEntity
  8
$DDT_AUDIT_GENERATED_(EE)
  6
Continuous
 62
     7
100
AcDbCircle
 10
460.6505538282
 20
398.3766046422
 30
0.0
 40
1.000000000000001
100
AcDbArc
 50
180.0
 51
240.0
  0
ARC
  5
1B9
330
113
100
AcDbEntity
  8
$DDT_AUDIT_GENERATED_(EE)
  6
Continuous
 62
     7
100
AcDbCircle
 10
482.2505538282
 20
398.3766046422
 30
0.0
 40
1.000000000000001
100
AcDbArc
 50
300.0
 51
0.0
  0
LINE
  5
1BA
330
113
100
AcDbEntity
  8
$DDT_AUDIT_GENERATED_(EE)
  6
Continuous
 62
     7
100
AcDbLine
 10
459.6505538282
 20
401.6864841048
 30
0.0
 11
459.6505538282
 21
398.3766046422
 31
0.0
  0
LINE
  5
1BB
330
113
100
AcDbEntity
  8
$DDT_AUDIT_GENERATED_(EE)
  6
Continuous
 62
     7
100
AcDbLine
 10
483.2505538282
 20
398.3766046422
 30
0.0
 11
483.2505538282
 21
404.4798994357
 31
0.0
  0
LINE
  5
1BD
330
113
100
AcDbEntity
  8
DV2_Standard
  6
Continuous
 62
     7
100
AcDbLine
 10
421.9642016776
 20
392.372794298
 30
0.0
 11
422.5899934982
 21
392.3828847406
 31
0.0
  0
LINE
  5
1BE
330
113
100
AcDbEntity
  8
DV2_Standard
  6
CENTER2
 62
     7
100
AcDbLine
 10
324.452523329
 20
403.3730365903
 30
0.0
 11
284.452524223
 21
403.3730365903
 31
0.0
  0
LINE
  5
1BF
330
113
100
AcDbEntity
  8
DV2_Standard
  6
CENTER2
 62
     7
100
AcDbLine
 10
304.452523776
 20
423.3730361433
 30
0.0
 11
304.452523776
 21
383.3730370374
 31
0.0
  0
ENDBLK
  5
1C1
330
113
100
AcDbEntity
  8
0
100
AcDbBlockEnd
  0
BLOCK
  5
25C
330
1C2
100
AcDbEntity
  8
0
100
AcDbBlockBegin
  2
SE2
 70
     0
 10
0.0
 20
0.0
 30
0.0
  3
SE2
  1

  0
ARC
  5
1C4
330
1C2
100
AcDbEntity
  8
$DDT_AUDIT_GENERATED_(60)
  6
Continuous
 62
     7
100
AcDbCircle
 10
126.2624565951
 20
115.6597933212
 30
0.0
 40
8.026815891521052
100
AcDbArc
 50
284.1102642039
 51
325.2912939699
  0
SPLINE
  5
1C5
330
1C2
100
AcDbEntity
  8
$DDT_AUDIT_GENERATED_(60)
  6
Continuous
 62
     7
100
AcDbSpline
210
0.0
220
0.0
230
1.0
 70
     8
 71
     3
 72
     9
 73
     5
 74
     0
 42
0.000000065813821
 43
0.0000000001
 40
0.4489464302792971
 40
0.4489464302792971
 40
0.4489464302792971
 40
0.4489464302792971
 40
0.4496450639982599
 40
0.4607134916881152
 40
0.4607134916881152
 40
0.4607134916881152
 40
0.4607134916881152
 10
204.4816657334887
 20
225.3989577066301
 30
0.0
 10
204.4817041480446
 20
225.3989649976276
 30
0.0
 10
204.4823463493319
 20
225.3990910176013
 30
0.0
 10
204.4829075179004
 20
225.3992713157888
 30
0.0
 10
204.4833636895818
 20
225.3994878634456
 30
0.0
  0
ARC
  5
1C6
330
1C2
100
AcDbEntity
  8
$DDT_AUDIT_GENERATED_(60)
  6
Continuous
 62
     7
100
AcDbCircle
 10
207.1552286142
 20
175.0622735279
 30
0.0
 40
52.72891340993717
100
AcDbArc
 50
91.1614258668
 51
99.1420478463
  0
ELLIPSE
  5
1C7
330
1C2
100
AcDbEntity
  8
$DDT_AUDIT_GENERATED_(60)
  6
Continuous
 62
     7
100
AcDbEllipse
 10
105.0212504918
 20
110.0177078359
 30
0.0
 11
0.5498595869902774
 21
2.145467508542525
 31
0.0
210
0.0
220
0.0
230
0.9999999999999998
 40
0.0536140775
 41
3.005884151741868
 42
3.209387005649895
  0
ELLIPSE
  5
1C8
330
1C2
100
AcDbEntity
  8
$DDT_AUDIT_GENERATED_(60)
  6
Continuous
 62
     7
100
AcDbEllipse
 10
127.6785710241
 20
110.0177100324
 30
0.0
 11
-0.5497888599066154
 21
2.145482021168377
 31
0.0
210
0.0
220
0.0
230
1.0
 40
0.0536176561
 41
3.073797728269295
 42
3.27737914492175
  0
ELLIPSE
  5
1C9
330
1C2
100
AcDbEntity
  8
$DDT_AUDIT_GENERATED_(60)
  6
Continuous
 62
     7
100
AcDbEllipse
 10
203.518414398
 20
228.2109357281
 30
0.0
 11
-0.72667625859206
 21
-2.531084286160931
 31
0.0
210
0.0
220
0.0
230
1.0
 40
0.988673344
 41
0.4708913377911257
 42
1.682978678225632
  0
ELLIPSE
  5
1CA
330
1C2
100
AcDbEntity
  8
$DDT_AUDIT_GENERATED_(60)
  6
Continuous
 62
     7
100
AcDbEllipse
 10
198.573643816
 20
227.3086914077
 30
0.0
 11
0.4005756149735862
 21
-2.279759558577204
 31
0.0
210
0.0
220
0.0
230
0.9999999999999998
 40
0.0730767455
 41
0.0657083381046151
 42
1.475715281918891
  0
SPLINE
  5
1CB
330
1C2
100
AcDbEntity
  8
$DDT_AUDIT_GENERATED_(60)
  6
Continuous
 62
     7
100
AcDbSpline
210
0.0
220
0.0
230
1.0
 70
     8
 71
     3
 72
    14
 73
    10
 74
     0
 42
0.00000000073574
 43
0.0000000001
 40
0.4896740647479782
 40
0.4896740647479782
 40
0.4896740647479782
 40
0.4896740647479782
 40
0.5
 40
0.5
 40
0.625
 40
0.625
 40
0.75
 40
0.75
 40
1.0
 40
1.0
 40
1.0
 40
1.0
 10
165.5848613947703
 20
246.4609066505747
 30
0.0
 10
165.5903178893814
 20
246.4609106033149
 30
0.0
 10
165.5966906854323
 20
246.4607750577774
 30
0.0
 10
165.6922558099213
 20
246.4571592810571
 30
0.0
 10
165.9112404191093
 20
246.4338569672124
 30
0.0
 10
166.6047274327652
 20
246.3511429066561
 30
0.0
 10
167.0851009060154
 20
246.2909902824129
 30
0.0
 10
168.8502989562078
 20
246.0727634830362
 30
0.0
 10
170.48742266549
 20
245.8731860041293
 30
0.0
 10
172.4748384576181
 20
245.6665049877542
 30
0.0
  0
LINE
  5
1CC
330
1C2
100
AcDbEntity
  8
$DDT_AUDIT_GENERATED_(60)
  6
Continuous
 62
     7
100
AcDbLine
 10
172.4748384576
 20
245.6665049878
 30
0.0
 11
176.7105908648
 21
245.6665049878
 31
0.0
  0
SPLINE
  5
1CD
330
1C2
100
AcDbEntity
  8
$DDT_AUDIT_GENERATED_(60)
  6
Continuous
 62
     7
100
AcDbSpline
210
0.0
220
0.0
230
1.0
 70
     8
 71
     3
 72
    16
 73
    12
 74
     0
 42
0.0000000007366472
 43
0.0000000001
 40
0.0
 40
0.0
 40
0.0
 40
0.0
 40
0.125
 40
0.125
 40
0.25
 40
0.25
 40
0.375
 40
0.375
 40
0.5
 40
0.5
 40
0.5109502229960143
 40
0.5109502229960143
 40
0.5109502229960143
 40
0.5109502229960143
 10
60.22516154238175
 20
245.6665049877542
 30
0.0
 10
61.21872621460667
 20
245.7698306013994
 30
0.0
 10
62.11659628972069
 20
245.8705534483402
 30
0.0
 10
63.71985682236453
 20
246.0575801439043
 30
0.0
 10
64.43055504085824
 20
246.144577209479
 30
0.0
 10
65.61382470035346
 20
246.2908532167607
 30
0.0
 10
66.08379400608152
 20
246.3497186879813
 30
0.0
 10
66.77908845234518
 20
246.4327569450136
 30
0.0
 10
67.00491654687688
 20
246.4568969509386
 30
0.0
 10
67.10250677358265
 20
246.4607570107344
 30
0.0
 10
67.1093471170654
 20
246.4609137923823
 30
0.0
 10
67.11516896159355
 20
246.4609168772269
 30
0.0
  0
LINE
  5
1CE
330
1C2
100
AcDbEntity
  8
$DDT_AUDIT_GENERATED_(60)
  6
Continuous
 62
     7
100
AcDbLine
 10
55.8694187565
 20
245.6665049878
 30
0.0
 11
60.2251615424
 21
245.6665049878
 31
0.0
  0
LINE
  5
1CF
330
1C2
100
AcDbEntity
  8
$DDT_AUDIT_GENERATED_(60)
  6
Continuous
 62
     7
100
AcDbLine
 10
31.6087762022
 20
245.6665049878
 30
0.0
 11
55.8694187565
 21
245.6665049878
 31
0.0
  0
LINE
  5
1D0
330
1C2
100
AcDbEntity
  8
$DDT_AUDIT_GENERATED_(60)
  6
Continuous
 62
     7
100
AcDbLine
 10
26.0714734545
 20
245.6665049878
 30
0.0
 11
31.6087762022
 21
245.6665049878
 31
0.0
  0
LINE
  5
1D1
330
1C2
100
AcDbEntity
  8
$DDT_AUDIT_GENERATED_(60)
  6
Continuous
 62
     7
100
AcDbLine
 10
25.4213207066
 20
245.6665049878
 30
0.0
 11
26.0714734545
 21
245.6665049878
 31
0.0
  0
ARC
  5
1D2
330
1C2
100
AcDbEntity
  8
$DDT_AUDIT_GENERATED_(60)
  6
Continuous
 62
     7
100
AcDbCircle
 10
55.6021505623
 20
227.6777533272
 30
0.0
 40
17.99073702190755
100
AcDbArc
 50
89.1487895783
 51
91.9259025908
  0
LINE
  5
1D3
330
1C2
100
AcDbEntity
  8
$DDT_AUDIT_GENERATED_(60)
  6
Continuous
 62
     7
100
AcDbLine
 10
176.7105908648
 20
245.6665049878
 30
0.0
 11
201.0905046186
 21
245.6665049878
 31
0.0
  0
LINE
  5
1D4
330
1C2
100
AcDbEntity
  8
$DDT_AUDIT_GENERATED_(60)
  6
Continuous
 62
     7
100
AcDbLine
 10
201.0905046186
 20
245.6665049878
 30
0.0
 11
206.6292427177
 21
245.6665049878
 31
0.0
  0
LINE
  5
1D5
330
1C2
100
AcDbEntity
  8
$DDT_AUDIT_GENERATED_(60)
  6
Continuous
 62
     7
100
AcDbLine
 10
206.6292427177
 20
245.6665049878
 30
0.0
 11
207.2786870975
 21
245.6665049878
 31
0.0
  0
ARC
  5
1D6
330
1C2
100
AcDbEntity
  8
$DDT_AUDIT_GENERATED_(60)
  6
Continuous
 62
     7
100
AcDbCircle
 10
116.35
 20
213.1684749356
 30
0.0
 40
26.40000000000001
100
AcDbArc
 50
319.5907548866
 51
0.0
  0
ARC
  5
1D7
330
1C2
100
AcDbEntity
  8
$DDT_AUDIT_GENERATED_(60)
  6
Continuous
 62
     7
100
AcDbCircle
 10
116.35
 20
213.1684749356
 30
0.0
 40
26.40000000000001
100
AcDbArc
 50
0.0
 51
220.4205025776
  0
ARC
  5
1D8
330
1C2
100
AcDbEntity
  8
$DDT_AUDIT_GENERATED_(60)
  6
Continuous
 62
     7
100
AcDbCircle
 10
-30.5820969149
 20
267.4746367642
 30
0.0
 40
240.5001050430837
100
AcDbArc
 50
350.4183094363
 51
354.4330107574
  0
SPLINE
  5
1D9
330
1C2
100
AcDbEntity
  8
$DDT_AUDIT_GENERATED_(60)
  6
Continuous
 62
     7
100
AcDbSpline
210
0.0
220
0.0
230
1.0
 70
     8
 71
     3
 72
    55
 73
    51
 74
     0
 42
0.0000000000654187
 43
0.0000000001
 40
0.0
 40
0.0
 40
0.0
 40
0.0
 40
0.0201784935900859
 40
0.0656283135652319
 40
0.1074782138516735
 40
0.146027566338806
 40
0.1815371754545349
 40
0.2142372967601549
 40
0.2494493818723976
 40
0.281350153102113
 40
0.3102184839471782
 40
0.3363135650089739
 40
0.3664628332703195
 40
0.392849407311902
 40
0.4159464492625537
 40
0.4361959996108343
 40
0.4540067275136729
 40
0.469751575174051
 40
0.4837663249618203
 40
0.5050036837892337
 40
0.523163696446521
 40
0.5392512758520813
 40
0.5539893042014489
 40
0.572366925826404
 40
0.5899293221253387
 40
0.6070856515879464
 40
0.6326094728662291
 40
0.6585905785950249
 40
0.6766653681603914
 40
0.6958111761180956
 40
0.7165655395997521
 40
0.7336051845178406
 40
0.7523472903732755
 40
0.7733719692828054
 40
0.7975584835748456
 40
0.8112388802732599
 40
0.8262730018522311
 40
0.8429594088773293
 40
0.8617946298949306
 40
0.8723512433118684
 40
0.8840415258201925
 40
0.8973787817698321
 40
0.9131741346416608
 40
0.9235315553590835
 40
0.9353272477748131
 40
0.9489186230641162
 40
0.9647410191582921
 40
0.9790769715621452
 40
0.9954120972942581
 40
1.0
 40
1.0
 40
1.0
 40
1.0
 10
134.5087093357081
 20
115.3194480626482
 30
0.0
 10
134.6282248864439
 20
116.4461707473479
 30
0.0
 10
134.9586224411393
 20
119.5645603864908
 30
0.0
 10
135.5195469116795
 20
125.1686972221445
 30
0.0
 10
136.1367382607013
 20
131.5163156861985
 30
0.0
 10
136.6918410889576
 20
137.4140923592239
 30
0.0
 10
137.1906049441871
 20
142.834280331726
 30
0.0
 10
137.6666609099785
 20
148.0876684665223
 30
0.0
 10
138.1223759979225
 20
153.1562456530102
 30
0.0
 10
138.5616467621054
 20
158.0291846325151
 30
0.0
 10
138.9646071388651
 20
162.4376368458015
 30
0.0
 10
139.3693306625305
 20
166.7551913506052
 30
0.0
 10
139.7783288000346
 20
170.9440584830745
 30
0.0
 10
140.1985086427944
 20
174.9768244211796
 30
0.0
 10
140.5974344950424
 20
178.5034630407328
 30
0.0
 10
140.9824992343204
 20
181.5908509316187
 30
0.0
 10
141.3600139315757
 20
184.3006519380839
 30
0.0
 10
141.7353367500648
 20
186.6890572862446
 30
0.0
 10
142.1902920863681
 20
189.2391446733194
 30
0.0
 10
142.7502500523665
 20
191.8924039314982
 30
0.0
 10
143.4688490223767
 20
194.6132575730624
 30
0.0
 10
144.2358958149767
 20
196.9740651548018
 30
0.0
 10
145.1423539120814
 20
199.2946980588205
 30
0.0
 10
146.2351948930656
 20
201.6162904786894
 30
0.0
 10
147.5641548132239
 20
203.9527562213251
 30
0.0
 10
149.2731235226091
 20
206.4792901811094
 30
0.0
 10
151.5038935243639
 20
209.156536810643
 30
0.0
 10
154.1023808458558
 20
211.5576742360926
 30
0.0
 10
156.6969375888012
 20
213.4529114520798
 30
0.0
 10
159.2341829936267
 20
214.9618668119269
 30
0.0
 10
161.8562525911674
 20
216.2086982088722
 30
0.0
 10
164.5452736572578
 20
217.2511475062022
 30
0.0
 10
167.3056274089174
 20
218.141054805311
 30
0.0
 10
170.4610453096338
 20
218.9870403042297
 30
0.0
 10
173.3964909012928
 20
219.6495184176864
 30
0.0
 10
176.0450202997292
 20
220.189768300577
 30
0.0
 10
178.3235019194974
 20
220.6269056596103
 30
0.0
 10
180.864964564166
 20
221.0911669645442
 30
0.0
 10
183.1839572099522
 20
221.4999210501771
 30
0.0
 10
185.2522366597681
 20
221.8601953377944
 30
0.0
 10
187.0437848826377
 20
222.171918399723
 30
0.0
 10
189.0986389968716
 20
222.5320689730841
 30
0.0
 10
191.0854860922034
 20
222.8858182913594
 30
0.0
 10
192.9937255917741
 20
223.2311290417201
 30
0.0
 10
194.7906731070595
 20
223.5605733019855
 30
0.0
 10
196.8600751367093
 20
223.9451427967272
 30
0.0
 10
199.0618792743038
 20
224.3597797037147
 30
0.0
 10
201.3788048590311
 20
224.8011885575325
 30
0.0
 10
203.2014646520908
 20
225.1510120261075
 30
0.0
 10
204.1882994587032
 20
225.3424800260933
 30
0.0
 10
204.4414782089693
 20
225.3916133959553
 30
0.0
  0
SPLINE
  5
1DA
330
1C2
100
AcDbEntity
  8
$DDT_AUDIT_GENERATED_(60)
  6
Continuous
 62
     7
100
AcDbSpline
210
0.0
220
0.0
230
1.0
 70
     8
 71
     3
 72
    55
 73
    51
 74
     0
 42
0.0000000000654193
 43
0.0000000001
 40
0.0
 40
0.0
 40
0.0
 40
0.0
 40
0.0051933602883147
 40
0.021716504998864
 40
0.0361875096179236
 40
0.0489190136602045
 40
0.0634070771576462
 40
0.0758836480142706
 40
0.0867651755109556
 40
0.104268134263201
 40
0.1188240985119731
 40
0.1314903237147681
 40
0.1428947049161192
 40
0.1533935175283205
 40
0.1631836967767871
 40
0.1840278748719258
 40
0.2023570317206183
 40
0.2265441969632407
 40
0.2475751199757798
 40
0.2663296574819609
 40
0.2833870914408671
 40
0.3041687365359678
 40
0.3233365077240501
 40
0.3414224767731076
 40
0.3674051190905839
 40
0.3929223987618191
 40
0.4100755754627543
 40
0.4276394851889367
 40
0.4460238170458105
 40
0.4607690024628568
 40
0.4768644164302784
 40
0.4950319371996605
 40
0.5162756128016619
 40
0.5302931770927164
 40
0.5460401328288761
 40
0.563852182928852
 40
0.5841022038500929
 40
0.6071988429639503
 40
0.6335841558441115
 40
0.6637313183598683
 40
0.6903235301871359
 40
0.7197950271024756
 40
0.7524199137770262
 40
0.7884936877404018
 40
0.828340826145843
 40
0.8625318161694204
 40
0.8994748729161269
 40
0.9393943912601849
 40
0.9825464280941195
 40
1.0
 40
1.0
 40
1.0
 40
1.0
 10
28.25855170074926
 20
225.3916577838748
 30
0.0
 10
28.54518799985299
 20
225.3360378260124
 30
0.0
 10
29.56859849541153
 20
225.1375024339906
 30
0.0
 10
31.4384527411366
 20
224.7787392954043
 30
0.0
 10
33.61777374674983
 20
224.3637990625473
 30
0.0
 10
35.71550993183956
 20
223.9686125954121
 30
0.0
 10
37.70908823526284
 20
223.5975196672895
 30
0.0
 10
39.61189137031941
 20
223.2483260374038
 30
0.0
 10
41.66684007289872
 20
222.8763543283943
 30
0.0
 10
43.82763104574787
 20
222.4920989095952
 30
0.0
 10
46.07931711811602
 20
222.0983586489797
 30
0.0
 10
48.02431900770681
 20
221.7602778203355
 30
0.0
 10
49.76482370531902
 20
221.4564638895797
 30
0.0
 10
51.35996933415012
 20
221.174610804121
 30
0.0
 10
53.42908730584951
 20
220.8022871178472
 30
0.0
 10
55.88934203343094
 20
220.3432807353677
 30
0.0
 10
59.06416010466737
 20
219.704368472584
 30
0.0
 10
62.23252336349626
 20
218.9896413818134
 30
0.0
 10
65.3891668568227
 20
218.1435800680239
 30
0.0
 10
68.15057063196909
 20
217.2535080106259
 30
0.0
 10
70.84055124530234
 20
216.2108098466466
 30
0.0
 10
73.46296646082224
 20
214.9639219158341
 30
0.0
 10
76.0005207565238
 20
213.4550025001551
 30
0.0
 10
78.5955264581105
 20
211.5597528793356
 30
0.0
 10
81.19468797999387
 20
209.1584130071285
 30
0.0
 10
83.426149868547
 20
206.4806285102044
 30
0.0
 10
85.13536849983305
 20
203.9539039894089
 30
0.0
 10
86.46441232353591
 20
201.6174081159594
 30
0.0
 10
87.55721470068113
 20
199.2960186027574
 30
0.0
 10
88.46368690094609
 20
196.9755244354108
 30
0.0
 10
89.23076288476265
 20
194.6148325174255
 30
0.0
 10
89.94939998811928
 20
191.8941022666179
 30
0.0
 10
90.50941007315058
 20
189.240857118381
 30
0.0
 10
90.96440239936345
 20
186.6907693396178
 30
0.0
 10
91.33974535013617
 20
184.3024112456694
 30
0.0
 10
91.71727789416978
 20
181.5926527272668
 30
0.0
 10
92.10235855790475
 20
178.5052966058276
 30
0.0
 10
92.50129835346401
 20
174.9786750994347
 30
0.0
 10
92.92149059372043
 20
170.945907438311
 30
0.0
 10
93.33297097579167
 20
166.7316906697813
 30
0.0
 10
93.74281321939776
 20
162.3579871143336
 30
0.0
 10
94.15404239735278
 20
157.8564002772094
 30
0.0
 10
94.60320358005707
 20
152.8716523723334
 30
0.0
 10
95.09893758322502
 20
147.3588364817183
 30
0.0
 10
95.60684105323294
 20
141.7646050369711
 30
0.0
 10
96.12813971479791
 20
136.1292419016782
 30
0.0
 10
96.66304822148123
 20
130.4774839281642
 30
0.0
 10
97.25454423209722
 20
124.4245042660014
 30
0.0
 10
97.78140255926441
 20
119.1788512733021
 30
0.0
 10
98.08707023838798
 20
116.2958569173318
 30
0.0
 10
98.19051878227246
 20
115.3211416024115
 30
0.0
  0
ARC
  5
1DB
330
1C2
100
AcDbEntity
  8
$DDT_AUDIT_GENERATED_(60)
  6
Continuous
 62
     7
100
AcDbCircle
 10
263.1581179005
 20
267.458150592
 30
0.0
 40
240.3751017350795
100
AcDbArc
 50
185.566049757
 51
189.5849536012
  0
ARC
  5
1DC
330
1C2
100
AcDbEntity
  8
$DDT_AUDIT_GENERATED_(60)
  6
Continuous
 62
     7
100
AcDbCircle
 10
106.9141976234
 20
116.2452701494
 30
0.0
 40
8.760043925567219
100
AcDbArc
 50
186.0340646989
 51
215.5533590361
  0
ARC
  5
1DD
330
1C2
100
AcDbEntity
  8
$DDT_AUDIT_GENERATED_(60)
  6
Continuous
 62
     7
100
AcDbCircle
 10
125.9986789069
 20
116.1603617942
 30
0.0
 40
8.535360000040544
100
AcDbArc
 50
323.5316406074
 51
354.3176315265
  0
ARC
  5
1DE
330
1C2
100
AcDbEntity
  8
$DDT_AUDIT_GENERATED_(60)
  6
Continuous
 62
     7
100
AcDbCircle
 10
106.4230480767
 20
115.6802826832
 30
0.0
 40
8.027911905686745
100
AcDbArc
 50
214.894601711
 51
255.8526669364
  0
ARC
  5
1DF
330
1C2
100
AcDbEntity
  8
$DDT_AUDIT_GENERATED_(60)
  6
Continuous
 62
     7
100
AcDbCircle
 10
116.3499001124
 20
153.4553511605
 30
0.0
 40
47.08520818261414
100
AcDbArc
 50
255.3745170248
 51
284.6254230524
  0
ARC
  5
1E0
330
1C2
100
AcDbEntity
  8
$DDT_AUDIT_GENERATED_(60)
  6
Continuous
 62
     7
100
AcDbCircle
 10
126.1917890853
 20
115.8050779864
 30
0.0
 40
8.169853419810746
100
AcDbArc
 50
284.5108577134
 51
324.7403008826
  0
ARC
  5
1E1
330
1C2
100
AcDbEntity
  8
$DDT_AUDIT_GENERATED_(60)
  6
Continuous
 62
     7
100
AcDbCircle
 10
203.9822795107
 20
227.9867872971
 30
0.0
 40
2.635129043772549
100
AcDbArc
 50
280.9562672854
 51
350.4566301842
  0
ARC
  5
1E2
330
1C2
100
AcDbEntity
  8
$DDT_AUDIT_GENERATED_(60)
  6
Continuous
 62
     7
100
AcDbCircle
 10
28.7177141598
 20
227.9867815238
 30
0.0
 40
2.635107216357141
100
AcDbArc
 50
189.5422716459
 51
259.0435237419
  0
LINE
  5
1E3
330
1C2
100
AcDbEntity
  8
$DDT_AUDIT_GENERATED_(60)
  6
Continuous
 62
     7
100
AcDbLine
 10
165.645379118
 20
246.4609168854
 30
0.0
 11
67.0395590839
 21
246.4609168854
 31
0.0
  0
ARC
  5
1E4
330
1C2
100
AcDbEntity
  8
$DDT_AUDIT_GENERATED_(60)
  6
Continuous
 62
     7
100
AcDbCircle
 10
207.2788141094
 20
244.1665049875
 30
0.0
 40
1.500000000287798
100
AcDbArc
 50
354.2209618966
 51
90.0000874792
  0
ARC
  5
1E5
330
1C2
100
AcDbEntity
  8
$DDT_AUDIT_GENERATED_(60)
  6
Continuous
 62
     7
100
AcDbCircle
 10
25.4211936473
 20
244.1665049869
 30
0.0
 40
1.499999995754502
100
AcDbArc
 50
89.9998157893
 51
185.71647061
  0
LINE
  5
1E6
330
1C2
100
AcDbEntity
  8
$DDT_AUDIT_GENERATED_(A2)
  6
Continuous
 62
     7
100
AcDbLine
 10
156.35
 20
291.1665049878
 30
0.0
 11
226.35
 21
291.1665049878
 31
0.0
  0
LINE
  5
1E7
330
1C2
100
AcDbEntity
  8
$DDT_AUDIT_GENERATED_(A2)
  6
Continuous
 62
     7
100
AcDbLine
 10
206.2175283415
 20
265.1665049878
 30
0.0
 11
176.4824716585
 21
265.1665049878
 31
0.0
  0
LINE
  5
1E8
330
1C2
100
AcDbEntity
  8
$DDT_AUDIT_GENERATED_(A2)
  6
Continuous
 62
     7
100
AcDbLine
 10
156.35
 20
285.9801414438
 30
0.0
 11
226.35
 21
285.9801414438
 31
0.0
  0
LINE
  5
1E9
330
1C2
100
AcDbEntity
  8
$DDT_AUDIT_GENERATED_(A2)
  6
Continuous
 62
     7
100
AcDbLine
 10
156.35
 20
291.1665049878
 30
0.0
 11
156.35
 21
285.9801414438
 31
0.0
  0
LINE
  5
1EA
330
1C2
100
AcDbEntity
  8
$DDT_AUDIT_GENERATED_(A2)
  6
Continuous
 62
     7
100
AcDbLine
 10
226.35
 20
285.9801414438
 30
0.0
 11
226.35
 21
291.1665049878
 31
0.0
  0
LINE
  5
1EB
330
1C2
100
AcDbEntity
  8
$DDT_AUDIT_GENERATED_(A2)
  6
Continuous
 62
     7
100
AcDbLine
 10
156.9179997208
 20
284.5839411716
 30
0.0
 11
175.4084714491
 21
265.6193547836
 31
0.0
  0
LINE
  5
1EC
330
1C2
100
AcDbEntity
  8
$DDT_AUDIT_GENERATED_(A2)
  6
Continuous
 62
     7
100
AcDbLine
 10
207.2915285509
 20
265.6193547836
 30
0.0
 11
225.7820002792
 21
284.5839411716
 31
0.0
  0
ARC
  5
1ED
330
1C2
100
AcDbEntity
  8
$DDT_AUDIT_GENERATED_(A2)
  6
Continuous
 62
     7
100
AcDbCircle
 10
176.4824716585
 20
266.6665049878
 30
0.0
 40
1.500000000000006
100
AcDbArc
 50
224.2747757009
 51
270.0
  0
ARC
  5
1EE
330
1C2
100
AcDbEntity
  8
$DDT_AUDIT_GENERATED_(A2)
  6
Continuous
 62
     7
100
AcDbCircle
 10
206.2175283415
 20
266.6665049878
 30
0.0
 40
1.500000000000001
100
AcDbArc
 50
270.0
 51
315.7252242991
  0
ARC
  5
1EF
330
1C2
100
AcDbEntity
  8
$DDT_AUDIT_GENERATED_(A2)
  6
Continuous
 62
     7
100
AcDbCircle
 10
224.35
 20
285.9801414438
 30
0.0
 40
2.0
100
AcDbArc
 50
315.7252242991
 51
0.0
  0
ARC
  5
1F0
330
1C2
100
AcDbEntity
  8
$DDT_AUDIT_GENERATED_(A2)
  6
Continuous
 62
     7
100
AcDbCircle
 10
158.35
 20
285.9801414438
 30
0.0
 40
2.000000000000002
100
AcDbArc
 50
180.0
 51
224.2747757009
  0
LINE
  5
1F1
330
1C2
100
AcDbEntity
  8
$DDT_AUDIT_GENERATED_(A2)
  6
Continuous
 62
     7
100
AcDbLine
 10
6.35
 20
291.1665049878
 30
0.0
 11
76.35
 21
291.1665049878
 31
0.0
  0
LINE
  5
1F2
330
1C2
100
AcDbEntity
  8
$DDT_AUDIT_GENERATED_(A2)
  6
Continuous
 62
     7
100
AcDbLine
 10
56.2175283415
 20
265.1665049878
 30
0.0
 11
26.4824716585
 21
265.1665049878
 31
0.0
  0
LINE
  5
1F3
330
1C2
100
AcDbEntity
  8
$DDT_AUDIT_GENERATED_(A2)
  6
Continuous
 62
     7
100
AcDbLine
 10
6.35
 20
285.9801414438
 30
0.0
 11
76.35
 21
285.9801414438
 31
0.0
  0
LINE
  5
1F4
330
1C2
100
AcDbEntity
  8
$DDT_AUDIT_GENERATED_(A2)
  6
Continuous
 62
     7
100
AcDbLine
 10
6.35
 20
291.1665049878
 30
0.0
 11
6.35
 21
285.9801414438
 31
0.0
  0
LINE
  5
1F5
330
1C2
100
AcDbEntity
  8
$DDT_AUDIT_GENERATED_(A2)
  6
Continuous
 62
     7
100
AcDbLine
 10
76.35
 20
285.9801414438
 30
0.0
 11
76.35
 21
291.1665049878
 31
0.0
  0
LINE
  5
1F6
330
1C2
100
AcDbEntity
  8
$DDT_AUDIT_GENERATED_(A2)
  6
Continuous
 62
     7
100
AcDbLine
 10
6.9179997208
 20
284.5839411716
 30
0.0
 11
25.4084714491
 21
265.6193547836
 31
0.0
  0
LINE
  5
1F7
330
1C2
100
AcDbEntity
  8
$DDT_AUDIT_GENERATED_(A2)
  6
Continuous
 62
     7
100
AcDbLine
 10
57.2915285509
 20
265.6193547836
 30
0.0
 11
75.7820002792
 21
284.5839411716
 31
0.0
  0
ARC
  5
1F8
330
1C2
100
AcDbEntity
  8
$DDT_AUDIT_GENERATED_(A2)
  6
Continuous
 62
     7
100
AcDbCircle
 10
26.4824716585
 20
266.6665049878
 30
0.0
 40
1.500000000000002
100
AcDbArc
 50
224.2747757009
 51
270.0
  0
ARC
  5
1F9
330
1C2
100
AcDbEntity
  8
$DDT_AUDIT_GENERATED_(A2)
  6
Continuous
 62
     7
100
AcDbCircle
 10
56.2175283415
 20
266.6665049878
 30
0.0
 40
1.500000000000001
100
AcDbArc
 50
270.0
 51
315.7252242991
  0
ARC
  5
1FA
330
1C2
100
AcDbEntity
  8
$DDT_AUDIT_GENERATED_(A2)
  6
Continuous
 62
     7
100
AcDbCircle
 10
74.35
 20
285.9801414438
 30
0.0
 40
2.000000000000001
100
AcDbArc
 50
315.7252242991
 51
0.0
  0
ARC
  5
1FB
330
1C2
100
AcDbEntity
  8
$DDT_AUDIT_GENERATED_(A2)
  6
Continuous
 62
     7
100
AcDbCircle
 10
8.35
 20
285.9801414438
 30
0.0
 40
2.000000000000002
100
AcDbArc
 50
180.0
 51
224.2747757009
  0
LINE
  5
1FC
330
1C2
100
AcDbEntity
  8
$DDT_AUDIT_GENERATED_(148)
  6
Continuous
 62
     7
100
AcDbLine
 10
202.35
 20
264.6665049878
 30
0.0
 11
204.57
 21
263.7920237319
 31
0.0
  0
LINE
  5
1FD
330
1C2
100
AcDbEntity
  8
$DDT_AUDIT_GENERATED_(148)
  6
Continuous
 62
     7
100
AcDbLine
 10
202.35
 20
264.6665049878
 30
0.0
 11
202.35
 21
265.1665049878
 31
0.0
  0
LINE
  5
1FE
330
1C2
100
AcDbEntity
  8
$DDT_AUDIT_GENERATED_(148)
  6
Continuous
 62
     7
100
AcDbLine
 10
178.13
 20
263.7920237319
 30
0.0
 11
180.35
 21
264.6665049878
 31
0.0
  0
LINE
  5
1FF
330
1C2
100
AcDbEntity
  8
$DDT_AUDIT_GENERATED_(148)
  6
Continuous
 62
     7
100
AcDbLine
 10
180.35
 20
264.6665049878
 30
0.0
 11
180.35
 21
265.1665049878
 31
0.0
  0
LINE
  5
200
330
1C2
100
AcDbEntity
  8
$DDT_AUDIT_GENERATED_(148)
  6
Continuous
 62
     7
100
AcDbLine
 10
204.57
 20
262.6665049878
 30
0.0
 11
204.57
 21
263.7920237319
 31
0.0
  0
LINE
  5
201
330
1C2
100
AcDbEntity
  8
$DDT_AUDIT_GENERATED_(148)
  6
Continuous
 62
     7
100
AcDbLine
 10
178.13
 20
263.7920237319
 30
0.0
 11
178.13
 21
262.6665049878
 31
0.0
  0
SPLINE
  5
202
330
1C2
100
AcDbEntity
  8
$DDT_AUDIT_GENERATED_(148)
  6
Continuous
 62
     7
100
AcDbSpline
210
0.0
220
0.0
230
1.0
 70
     8
 71
     3
 72
     8
 73
     4
 74
     0
 42
0.0000000028272587
 43
0.0000000001
 40
0.9467974666412733
 40
0.9467974666412733
 40
0.9467974666412733
 40
0.9467974666412733
 40
0.9472440111187896
 40
0.9472440111187896
 40
0.9472440111187896
 40
0.9472440111187896
 10
183.6832530212673
 20
291.2102132142086
 30
0.0
 10
183.6832644886577
 20
291.2096870634149
 30
0.0
 10
183.683275714392
 20
291.2091607087002
 30
0.0
 10
183.6832867002424
 20
291.2086341478488
 30
0.0
  0
LINE
  5
203
330
1C2
100
AcDbEntity
  8
$DDT_AUDIT_GENERATED_(148)
  6
Continuous
 62
     7
100
AcDbLine
 10
203.4
 20
264.2528989884
 30
0.0
 11
203.4
 21
262.6665049878
 31
0.0
  0
LINE
  5
204
330
1C2
100
AcDbEntity
  8
$DDT_AUDIT_GENERATED_(148)
  6
Continuous
 62
     7
100
AcDbLine
 10
179.3
 20
264.2528989884
 30
0.0
 11
179.3
 21
262.6665049878
 31
0.0
  0
LINE
  5
205
330
1C2
100
AcDbEntity
  8
$DDT_AUDIT_GENERATED_(148)
  6
Continuous
 62
     7
100
AcDbLine
 10
52.35
 20
264.6665049878
 30
0.0
 11
54.57
 21
263.7920237319
 31
0.0
  0
LINE
  5
206
330
1C2
100
AcDbEntity
  8
$DDT_AUDIT_GENERATED_(148)
  6
Continuous
 62
     7
100
AcDbLine
 10
52.35
 20
264.6665049878
 30
0.0
 11
52.35
 21
265.1665049878
 31
0.0
  0
LINE
  5
207
330
1C2
100
AcDbEntity
  8
$DDT_AUDIT_GENERATED_(148)
  6
Continuous
 62
     7
100
AcDbLine
 10
30.35
 20
264.6665049878
 30
0.0
 11
28.13
 21
263.7920237319
 31
0.0
  0
LINE
  5
208
330
1C2
100
AcDbEntity
  8
$DDT_AUDIT_GENERATED_(148)
  6
Continuous
 62
     7
100
AcDbLine
 10
30.35
 20
264.6665049878
 30
0.0
 11
30.35
 21
265.1665049878
 31
0.0
  0
LINE
  5
209
330
1C2
100
AcDbEntity
  8
$DDT_AUDIT_GENERATED_(148)
  6
Continuous
 62
     7
100
AcDbLine
 10
54.57
 20
262.6665049878
 30
0.0
 11
54.57
 21
263.7920237319
 31
0.0
  0
LINE
  5
20A
330
1C2
100
AcDbEntity
  8
$DDT_AUDIT_GENERATED_(148)
  6
Continuous
 62
     7
100
AcDbLine
 10
28.13
 20
263.7920237319
 30
0.0
 11
28.13
 21
262.6665049878
 31
0.0
  0
SPLINE
  5
20B
330
1C2
100
AcDbEntity
  8
$DDT_AUDIT_GENERATED_(148)
  6
Continuous
 62
     7
100
AcDbSpline
210
0.0
220
0.0
230
1.0
 70
     8
 71
     3
 72
     8
 73
     4
 74
     0
 42
0.0000000028272588
 43
0.0000000001
 40
0.9467974184873692
 40
0.9467974184873692
 40
0.9467974184873692
 40
0.9467974184873692
 40
0.947244011118862
 40
0.947244011118862
 40
0.947244011118862
 40
0.947244011118862
 10
33.68325301755749
 20
291.2102133844238
 30
0.0
 10
33.68326448623667
 20
291.2096871769355
 30
0.0
 10
33.68327571320731
 20
291.2091607654826
 30
0.0
 10
33.68328670024244
 20
291.2086341478486
 30
0.0
  0
LINE
  5
20C
330
1C2
100
AcDbEntity
  8
$DDT_AUDIT_GENERATED_(148)
  6
Continuous
 62
     7
100
AcDbLine
 10
53.4
 20
264.2528989884
 30
0.0
 11
53.4
 21
262.6665049878
 31
0.0
  0
LINE
  5
20D
330
1C2
100
AcDbEntity
  8
$DDT_AUDIT_GENERATED_(148)
  6
Continuous
 62
     7
100
AcDbLine
 10
29.3
 20
264.2528989884
 30
0.0
 11
29.3
 21
262.6665049878
 31
0.0
  0
ARC
  5
20E
330
1C2
100
AcDbEntity
  8
$DDT_AUDIT_GENERATED_(A6)
  6
Continuous
 62
     7
100
AcDbCircle
 10
116.35
 20
213.1684749356
 30
0.0
 40
26.25166953461827
100
AcDbArc
 50
320.2078357899
 51
0.0
  0
ARC
  5
20F
330
1C2
100
AcDbEntity
  8
$DDT_AUDIT_GENERATED_(A6)
  6
Continuous
 62
     7
100
AcDbCircle
 10
116.35
 20
213.1684749356
 30
0.0
 40
26.25166953461827
100
AcDbArc
 50
0.0
 51
219.8272808013
  0
SPLINE
  5
210
330
1C2
100
AcDbEntity
  8
$DDT_AUDIT_GENERATED_(AE)
  6
Continuous
 62
     7
100
AcDbSpline
210
0.0
220
0.0
230
1.0
 70
     8
 71
     3
 72
    54
 73
    50
 74
     0
 42
0.0000000000422824
 43
0.0000000001
 40
0.0
 40
0.0
 40
0.0
 40
0.0
 40
0.0625
 40
0.0625
 40
0.1249999999999999
 40
0.1249999999999999
 40
0.25
 40
0.25
 40
0.3125000000000001
 40
0.3125000000000001
 40
0.3437500000000001
 40
0.3437500000000001
 40
0.3750000000000001
 40
0.3750000000000001
 40
0.4062500000000002
 40
0.4062500000000002
 40
0.4218750000000002
 40
0.4218750000000002
 40
0.4375000000000003
 40
0.4375000000000003
 40
0.4531250000000003
 40
0.4531250000000003
 40
0.4687500000000003
 40
0.4687500000000003
 40
0.5000000000000003
 40
0.5000000000000003
 40
0.5156250000000003
 40
0.5156250000000003
 40
0.5312500000000003
 40
0.5312500000000003
 40
0.5468750000000003
 40
0.5468750000000003
 40
0.5625000000000003
 40
0.5625000000000003
 40
0.5781250000000003
 40
0.5781250000000003
 40
0.5937500000000002
 40
0.5937500000000002
 40
0.6250000000000002
 40
0.6250000000000002
 40
0.6562500000000002
 40
0.6562500000000002
 40
0.6875000000000002
 40
0.6875000000000002
 40
0.7500000000000001
 40
0.7500000000000001
 40
0.8750000000000001
 40
0.8750000000000001
 40
1.0
 40
1.0
 40
1.0
 40
1.0
 10
102.4738341295218
 20
129.2220721370427
 30
0.0
 10
102.0330004451977
 20
134.1397731030456
 30
0.0
 10
101.5880336157491
 20
139.0539846647785
 30
0.0
 10
100.7581051788807
 20
148.8828722445177
 30
0.0
 10
100.3658543459249
 20
153.7969154171311
 30
0.0
 10
99.24074533907883
 20
168.5371334985379
 30
0.0
 10
98.55023888857691
 20
178.3592872295906
 30
0.0
 10
97.5331161809339
 20
193.081186224295
 30
0.0
 10
97.18838242005259
 20
197.986156073781
 30
0.0
 10
96.78220899994443
 20
205.3502584958843
 30
0.0
 10
96.66421982668794
 20
207.8060272750079
 30
0.0
 10
96.60166028770398
 20
212.7313406288599
 30
0.0
 10
96.6594125038657
 20
215.1935151639809
 30
0.0
 10
97.28995346592032
 20
220.0800332302462
 30
0.0
 10
97.87498402555742
 20
222.5209428985573
 30
0.0
 10
99.35628525476235
 20
225.9180919789916
 30
0.0
 10
99.96133053461548
 20
227.025105671985
 30
0.0
 10
101.3638609506306
 20
229.0634770324801
 30
0.0
 10
102.1598136591794
 20
229.9993528671574
 30
0.0
 10
103.9416031887603
 20
231.7040610847637
 30
0.0
 10
104.9385761204479
 20
232.4787106487256
 30
0.0
 10
107.0338046525499
 20
233.8030338818879
 30
0.0
 10
108.1374489493085
 20
234.3619091420506
 30
0.0
 10
111.6146507146617
 20
235.733090620343
 30
0.0
 10
114.067291025842
 20
236.2047701003965
 30
0.0
 10
117.8187502561338
 20
236.1630680396766
 30
0.0
 10
119.0475714698405
 20
236.0248749661529
 30
0.0
 10
121.4647981068752
 20
235.516575316442
 30
0.0
 10
122.6651441759316
 20
235.1413521986325
 30
0.0
 10
124.9558244576089
 20
234.1821274043102
 30
0.0
 10
126.0458680880746
 20
233.6018668623011
 30
0.0
 10
128.1120996751677
 20
232.2333607699761
 30
0.0
 10
129.091507507765
 20
231.4370410202948
 30
0.0
 10
130.8354952966834
 20
229.6905958985378
 30
0.0
 10
131.6119000713815
 20
228.7336098844126
 30
0.0
 10
132.9743434163921
 20
226.6527997537279
 30
0.0
 10
133.5516634256368
 20
225.5382268222532
 30
0.0
 10
134.9673558563095
 20
222.1062350312781
 30
0.0
 10
135.5120090106264
 20
219.6507236401487
 30
0.0
 10
136.0807990300027
 20
214.7922766805709
 30
0.0
 10
136.1219010454349
 20
212.3493079507286
 30
0.0
 10
136.0415289225188
 20
207.4548730705607
 30
0.0
 10
135.9208350527213
 20
205.0070447393111
 30
0.0
 10
135.5101290033622
 20
197.6760605024515
 30
0.0
 10
135.1672503905859
 20
192.7931511194485
 30
0.0
 10
134.1538930650662
 20
178.1376571108691
 30
0.0
 10
133.4663617182913
 20
168.360504823747
 30
0.0
 10
131.9719015138973
 20
148.7968996795863
 30
0.0
 10
131.1239243667114
 20
139.0138688130646
 30
0.0
 10
130.2461658704781
 20
129.2220721370427
 30
0.0
  0
SPLINE
  5
211
330
1C2
100
AcDbEntity
  8
$DDT_AUDIT_GENERATED_(AE)
  6
Continuous
 62
     7
100
AcDbSpline
210
0.0
220
0.0
230
1.0
 70
     8
 71
     3
 72
    12
 73
     8
 74
     0
 42
0.0000000001276965
 43
0.0000000001
 40
0.7199558417559715
 40
0.7199558417559715
 40
0.7199558417559715
 40
0.7199558417559715
 40
0.7499999999999999
 40
0.7499999999999999
 40
0.7812499999999999
 40
0.7812499999999999
 40
0.7882172897171236
 40
0.7882172897171236
 40
0.7882172897171236
 40
0.7882172897171236
 10
95.49800846157733
 20
202.0862202798481
 30
0.0
 10
95.35437119032657
 20
202.9910376705629
 30
0.0
 10
95.20364090615857
 20
203.86939315839
 30
0.0
 10
94.88465275164678
 20
205.4994655074085
 30
0.0
 10
94.71295806955116
 20
206.258313570555
 30
0.0
 10
94.49561060384123
 20
207.0473580424583
 30
0.0
 10
94.45586560619212
 20
207.1849803403541
 30
0.0
 10
94.41597810682106
 20
207.3166325084369
 30
0.0
  0
ARC
  5
212
330
1C2
100
AcDbEntity
  8
$DDT_AUDIT_GENERATED_(AE)
  6
Continuous
 62
     7
100
AcDbCircle
 10
125.3143023529
 20
129.6575020138
 30
0.0
 40
5.044639365600675
100
AcDbArc
 50
280.6136678037
 51
354.2335022897
  0
ARC
  5
213
330
1C2
100
AcDbEntity
  8
$DDT_AUDIT_GENERATED_(AE)
  6
Continuous
 62
     7
100
AcDbCircle
 10
107.4031123183
 20
129.6551266455
 30
0.0
 40
5.04182889433106
100
AcDbArc
 50
185.7425923497
 51
259.4102375568
  0
ARC
  5
214
330
1C2
100
AcDbEntity
  8
$DDT_AUDIT_GENERATED_(AE)
  6
Continuous
 62
     7
100
AcDbCircle
 10
116.36
 20
177.9042053975
 30
0.0
 40
54.11523382411696
100
AcDbArc
 50
259.476594404
 51
280.5234055961
  0
SPLINE
  5
215
330
1C2
100
AcDbEntity
  8
$DDT_AUDIT_GENERATED_(AE)
  6
Continuous
 62
     7
100
AcDbSpline
210
0.0
220
0.0
230
1.0
 70
     8
 71
     3
 72
    18
 73
    14
 74
     0
 42
0.0000000000977756
 43
0.0000000001
 40
0.0
 40
0.0
 40
0.0
 40
0.0
 40
0.125
 40
0.125
 40
0.2500000000000001
 40
0.2500000000000001
 40
0.5000000000000001
 40
0.5000000000000001
 40
0.6250000000000001
 40
0.6250000000000001
 40
0.6875000000000001
 40
0.6875000000000001
 40
0.7104248072447206
 40
0.7104248072447206
 40
0.7104248072447206
 40
0.7104248072447206
 10
130.3334139713425
 20
129.1506441534647
 30
0.0
 10
130.7499028044136
 20
133.4475513044704
 30
0.0
 10
131.1696347592181
 20
137.7442290517257
 30
0.0
 10
131.9609622606018
 20
146.3461579345706
 30
0.0
 10
132.3386878392059
 20
150.6499381223351
 30
0.0
 10
133.4375585802124
 20
163.5561886933709
 30
0.0
 10
134.1173725690296
 20
172.1666962006076
 30
0.0
 10
135.2628558843402
 20
184.9090771166266
 30
0.0
 10
135.6654307296841
 20
189.1284429997824
 30
0.0
 10
136.3323432997359
 20
195.336309640572
 30
0.0
 10
136.5662028855221
 20
197.3849256706073
 30
0.0
 10
136.9159055100268
 20
200.0734007350928
 30
0.0
 10
137.0135488077558
 20
200.7889467810951
 30
0.0
 10
137.1153198298275
 20
201.4861759862065
 30
0.0
  0
SPLINE
  5
216
330
1C2
100
AcDbEntity
  8
$DDT_AUDIT_GENERATED_(AE)
  6
Continuous
 62
     7
100
AcDbSpline
210
0.0
220
0.0
230
1.0
 70
     8
 71
     3
 72
    16
 73
    12
 74
     0
 42
0.0000000000970903
 43
0.0000000001
 40
0.3737512842913352
 40
0.3737512842913352
 40
0.3737512842913352
 40
0.3737512842913352
 40
0.3750000000000004
 40
0.3750000000000004
 40
0.5000000000000004
 40
0.5000000000000004
 40
0.7500000000000002
 40
0.7500000000000002
 40
0.8750000000000002
 40
0.8750000000000002
 40
1.0
 40
1.0
 40
1.0
 40
1.0
 10
96.59669851899228
 20
193.3903188972644
 30
0.0
 10
96.60114923708672
 20
193.3489929920564
 30
0.0
 10
96.60559525935552
 20
193.3076583503941
 30
0.0
 10
97.05463442607237
 20
189.1277742207637
 30
0.0
 10
97.45720255366331
 20
184.9084525753544
 30
0.0
 10
98.60266672858292
 20
172.1662080236365
 30
0.0
 10
99.28247372411447
 20
163.5557978521485
 30
0.0
 10
100.3813334628733
 20
150.6496936426781
 30
0.0
 10
100.7590553250462
 20
146.3459624142029
 30
0.0
 10
101.5503746269775
 20
137.7441313815442
 30
0.0
 10
101.9701019274937
 20
133.4475024854748
 30
0.0
 10
102.3865860286559
 20
129.1506441534637
 30
0.0
  0
SPLINE
  5
217
330
1C2
100
AcDbEntity
  8
$DDT_AUDIT_GENERATED_(AE)
  6
Continuous
 62
     7
100
AcDbSpline
210
0.0
220
0.0
230
1.0
 70
     8
 71
     3
 72
    30
 73
    26
 74
     0
 42
0.0000000001249555
 43
0.0000000001
 40
0.0
 40
0.0
 40
0.0
 40
0.0
 40
0.125
 40
0.125
 40
0.2499999999999999
 40
0.2499999999999999
 40
0.3124999999999999
 40
0.3124999999999999
 40
0.3749999999999999
 40
0.3749999999999999
 40
0.4374999999999999
 40
0.4374999999999999
 40
0.4999999999999999
 40
0.4999999999999999
 40
0.5624999999999999
 40
0.5624999999999999
 40
0.6249999999999999
 40
0.6249999999999999
 40
0.6874999999999999
 40
0.6874999999999999
 40
0.7499999999999998
 40
0.7499999999999998
 40
0.8749999999999999
 40
0.8749999999999999
 40
1.0
 40
1.0
 40
1.0
 40
1.0
 10
142.0128692538019
 20
211.6368015091373
 30
0.0
 10
141.5810298736985
 20
214.6867427039331
 30
0.0
 10
140.9696009628647
 20
217.6974253444953
 30
0.0
 10
138.6652626560331
 20
223.4642576142083
 30
0.0
 10
136.9853291991602
 20
226.2722076106409
 30
0.0
 10
133.7640502109609
 20
229.9849587175981
 30
0.0
 10
132.5546885593127
 20
231.1548548516413
 30
0.0
 10
129.8765596856977
 20
233.2582973328126
 30
0.0
 10
128.4281752100785
 20
234.1796537958628
 30
0.0
 10
125.2869833396797
 20
235.730838481314
 30
0.0
 10
123.5918713843589
 20
236.354717212435
 30
0.0
 10
120.1297058616212
 20
237.1980769037943
 30
0.0
 10
118.3143879924403
 20
237.4298559528518
 30
0.0
 10
114.6676201638684
 20
237.4506555412442
 30
0.0
 10
112.8752209849376
 20
237.2455780496952
 30
0.0
 10
109.3491239254638
 20
236.4274795209773
 30
0.0
 10
107.6605353871605
 20
235.8228444249078
 30
0.0
 10
104.49403360981
 20
234.2972112037661
 30
0.0
 10
103.0059430550917
 20
233.3678359948427
 30
0.0
 10
100.3185642374735
 20
231.2912601356554
 30
0.0
 10
99.09146694359498
 20
230.1236179413056
 30
0.0
 10
95.82314406041452
 20
226.4064618877157
 30
0.0
 10
94.15362884337031
 20
223.6636577535663
 30
0.0
 10
91.76651444599148
 20
217.7835605344486
 30
0.0
 10
91.14288882716227
 20
214.714418405363
 30
0.0
 10
90.7071308194784
 20
211.6368015139247
 30
0.0
  0
LINE
  5
218
330
1C2
100
AcDbEntity
  8
$DDT_AUDIT_GENERATED_(AE)
  6
Continuous
 62
     7
100
AcDbLine
 10
90.7071308195
 20
211.6368015139
 30
0.0
 11
90.5793211918
 21
210.3803333841
 31
0.0
  0
LINE
  5
219
330
1C2
100
AcDbEntity
  8
$DDT_AUDIT_GENERATED_(AE)
  6
Continuous
 62
     7
100
AcDbLine
 10
142.1406788657
 20
210.3803333769
 30
0.0
 11
142.0128692538
 21
211.6368015091
 31
0.0
  0
SPLINE
  5
21A
330
1C2
100
AcDbEntity
  8
$DDT_AUDIT_GENERATED_(AE)
  6
Continuous
 62
     7
100
AcDbSpline
210
0.0
220
0.0
230
1.0
 70
     8
 71
     3
 72
    14
 73
    10
 74
     0
 42
0.0000000001272883
 43
0.0000000001
 40
0.2117043182140042
 40
0.2117043182140042
 40
0.2117043182140042
 40
0.2117043182140042
 40
0.2187499999999998
 40
0.2187499999999998
 40
0.2499999999999998
 40
0.2499999999999998
 40
0.2812499999999998
 40
0.2812499999999998
 40
0.2826064720338738
 40
0.2826064720338738
 40
0.2826064720338738
 40
0.2826064720338738
 10
138.3072871057101
 20
207.3274003133317
 30
0.0
 10
138.2669641992696
 20
207.1946657365823
 30
0.0
 10
138.2267874576797
 20
207.0558383361201
 30
0.0
 10
138.0090868229883
 20
206.2667060053462
 30
0.0
 10
137.8375511887406
 20
205.5094441320414
 30
0.0
 10
137.5133220958619
 20
203.8551354101731
 30
0.0
 10
137.3573773839433
 20
202.9435989681554
 30
0.0
 10
137.2016573366064
 20
201.9577021371702
 30
0.0
 10
137.1951915773591
 20
201.9166285819875
 30
0.0
 10
137.1887377686534
 20
201.8754970342902
 30
0.0
  0
LINE
  5
21B
330
1C2
100
AcDbEntity
  8
$DDT_AUDIT_GENERATED_(AE)
  6
Continuous
 62
     7
100
AcDbLine
 10
142.1381269751
 20
210.2446925922
 30
0.0
 11
142.1406788657
 21
210.3803333769
 31
0.0
  0
LINE
  5
21C
330
1C2
100
AcDbEntity
  8
$DDT_AUDIT_GENERATED_(AE)
  6
Continuous
 62
     7
100
AcDbLine
 10
90.5793211918
 20
210.3803333841
 30
0.0
 11
90.5818730821
 21
210.2446925847
 31
0.0
  0
ARC
  5
21D
330
1C2
100
AcDbEntity
  8
$DDT_AUDIT_GENERATED_(AE)
  6
Continuous
 62
     7
100
AcDbCircle
 10
-92.3036345806
 20
174.1913888808
 30
0.0
 40
189.8532394331735
100
AcDbArc
 50
5.7850479195
 51
8.4656127832
  0
LINE
  5
21E
330
1C2
100
AcDbEntity
  8
$DDT_AUDIT_GENERATED_(AE)
  6
Continuous
 62
     7
100
AcDbLine
 10
137.1223934746
 20
201.3827332619
 30
0.0
 11
137.2070858743
 21
201.9319071211
 31
0.0
  0
LINE
  5
21F
330
1C2
100
AcDbEntity
  8
$DDT_AUDIT_GENERATED_(C7)
  6
Continuous
 62
     7
100
AcDbLine
 10
201.2153810568
 20
249.1665049878
 30
0.0
 11
197.6
 21
249.1665049878
 31
0.0
  0
LINE
  5
220
330
1C2
100
AcDbEntity
  8
$DDT_AUDIT_GENERATED_(C7)
  6
Continuous
 62
     7
100
AcDbLine
 10
200.9372923643
 20
245.6665049878
 30
0.0
 11
176.85
 21
245.6665049878
 31
0.0
  0
LINE
  5
221
330
1C2
100
AcDbEntity
  8
$DDT_AUDIT_GENERATED_(C7)
  6
Continuous
 62
     7
100
AcDbLine
 10
205.85
 20
262.6665049878
 30
0.0
 11
176.85
 21
262.6665049878
 31
0.0
  0
LINE
  5
222
330
1C2
100
AcDbEntity
  8
$DDT_AUDIT_GENERATED_(C7)
  6
Continuous
 62
     7
100
AcDbLine
 10
201.2153810568
 20
259.1665049878
 30
0.0
 11
197.6
 21
259.1665049878
 31
0.0
  0
LINE
  5
223
330
1C2
100
AcDbEntity
  8
$DDT_AUDIT_GENERATED_(C7)
  6
Continuous
 62
     7
100
AcDbLine
 10
185.1
 20
259.1665049878
 30
0.0
 11
181.4846189432
 21
259.1665049878
 31
0.0
  0
LINE
  5
224
330
1C2
100
AcDbEntity
  8
$DDT_AUDIT_GENERATED_(C7)
  6
Continuous
 62
     7
100
AcDbLine
 10
175.2346189432
 20
259.1665049878
 30
0.0
 11
175.1
 21
259.1665049878
 31
0.0
  0
LINE
  5
225
330
1C2
100
AcDbEntity
  8
$DDT_AUDIT_GENERATED_(C7)
  6
Continuous
 62
     7
100
AcDbLine
 10
207.4653810568
 20
259.1665049878
 30
0.0
 11
207.6
 21
259.1665049878
 31
0.0
  0
SPLINE
  5
226
330
1C2
100
AcDbEntity
  8
$DDT_AUDIT_GENERATED_(C7)
  6
Continuous
 62
     7
100
AcDbSpline
210
0.0
220
0.0
230
1.0
 70
     8
 71
     3
 72
    14
 73
    10
 74
     0
 42
0.0000000011014719
 43
0.0000000001
 40
0.0
 40
0.0
 40
0.0
 40
0.0
 40
0.25
 40
0.25
 40
0.5
 40
0.5
 40
0.75
 40
0.75
 40
1.0
 40
1.0
 40
1.0
 40
1.0
 10
207.4653810567665
 20
259.1665049877542
 30
0.0
 10
207.1180632081392
 20
260.1443115562072
 30
0.0
 10
206.6201358955559
 20
260.8411700503881
 30
0.0
 10
205.5302278309876
 20
261.7478520022578
 30
0.0
 10
204.9363536495826
 20
261.9617991025769
 30
0.0
 10
203.7479485461937
 20
261.9626662556188
 30
0.0
 10
203.1623947637967
 20
261.7553476973497
 30
0.0
 10
202.0621130206902
 20
260.8447492014263
 30
0.0
 10
201.5623162945163
 20
260.1432343889105
 30
0.0
 10
201.2153810567665
 20
259.1665049877542
 30
0.0
  0
SPLINE
  5
227
330
1C2
100
AcDbEntity
  8
$DDT_AUDIT_GENERATED_(C7)
  6
Continuous
 62
     7
100
AcDbSpline
210
0.0
220
0.0
230
1.0
 70
     8
 71
     3
 72
    14
 73
    10
 74
     0
 42
0.0000000011014719
 43
0.0000000001
 40
0.0
 40
0.0
 40
0.0
 40
0.0
 40
0.25
 40
0.25
 40
0.5
 40
0.5
 40
0.75
 40
0.75
 40
1.0
 40
1.0
 40
1.0
 40
1.0
 10
181.4846189432334
 20
259.1665049877542
 30
0.0
 10
181.1373010946061
 20
260.1443115562072
 30
0.0
 10
180.6393737820227
 20
260.8411700503881
 30
0.0
 10
179.5494657174544
 20
261.7478520022578
 30
0.0
 10
178.9555915360494
 20
261.9617991025769
 30
0.0
 10
177.7671864326605
 20
261.9626662556188
 30
0.0
 10
177.1816326502635
 20
261.7553476973497
 30
0.0
 10
176.081350907157
 20
260.8447492014263
 30
0.0
 10
175.5815541809832
 20
260.1432343889105
 30
0.0
 10
175.2346189432334
 20
259.1665049877542
 30
0.0
  0
SPLINE
  5
228
330
1C2
100
AcDbEntity
  8
$DDT_AUDIT_GENERATED_(C7)
  6
Continuous
 62
     7
100
AcDbSpline
210
0.0
220
0.0
230
1.0
 70
     8
 71
     3
 72
    14
 73
    10
 74
     0
 42
0.0000000006969408
 43
0.0000000001
 40
0.0
 40
0.0
 40
0.0
 40
0.0
 40
0.25
 40
0.25
 40
0.5
 40
0.5
 40
0.75
 40
0.75
 40
1.0
 40
1.0
 40
1.0
 40
1.0
 10
197.5999999999999
 20
259.1665049877542
 30
0.0
 10
196.9069116474878
 20
260.1421334305239
 30
0.0
 10
195.899351479657
 20
260.8481121191713
 30
0.0
 10
193.7087060272832
 20
261.7538258835675
 30
0.0
 10
192.5244917237938
 20
261.9641282802575
 30
0.0
 10
190.1444037149693
 20
261.9603134421204
 30
0.0
 10
188.9613801054257
 20
261.7450141995707
 30
0.0
 10
186.7893770655832
 20
260.8398278849324
 30
0.0
 10
185.7878743523499
 20
260.1347939234605
 30
0.0
 10
185.0999999999999
 20
259.1665049877542
 30
0.0
  0
LINE
  5
229
330
1C2
100
AcDbEntity
  8
$DDT_AUDIT_GENERATED_(C7)
  6
Continuous
 62
     7
100
AcDbLine
 10
185.1
 20
249.1665049878
 30
0.0
 11
181.4846189432
 21
249.1665049878
 31
0.0
  0
LINE
  5
22A
330
1C2
100
AcDbEntity
  8
$DDT_AUDIT_GENERATED_(C7)
  6
Continuous
 62
     7
100
AcDbLine
 10
175.2346189432
 20
249.1665049878
 30
0.0
 11
175.1
 21
249.1665049878
 31
0.0
  0
LINE
  5
22B
330
1C2
100
AcDbEntity
  8
$DDT_AUDIT_GENERATED_(C7)
  6
Continuous
 62
     7
100
AcDbLine
 10
207.4653810568
 20
249.1665049878
 30
0.0
 11
207.6
 21
249.1665049878
 31
0.0
  0
LINE
  5
22C
330
1C2
100
AcDbEntity
  8
$DDT_AUDIT_GENERATED_(C7)
  6
Continuous
 62
     7
100
AcDbLine
 10
197.6
 20
259.1665049878
 30
0.0
 11
197.6
 21
249.1665049878
 31
0.0
  0
SPLINE
  5
22D
330
1C2
100
AcDbEntity
  8
$DDT_AUDIT_GENERATED_(C7)
  6
Continuous
 62
     7
100
AcDbSpline
210
0.0
220
0.0
230
1.0
 70
     8
 71
     3
 72
    14
 73
    10
 74
     0
 42
0.0000000006969408
 43
0.0000000001
 40
0.0
 40
0.0
 40
0.0
 40
0.0
 40
0.25
 40
0.25
 40
0.5
 40
0.5
 40
0.75
 40
0.75
 40
1.0
 40
1.0
 40
1.0
 40
1.0
 10
197.5999999999999
 20
249.1665049877541
 30
0.0
 10
196.9069116474878
 20
248.1908765449844
 30
0.0
 10
195.899351479657
 20
247.484897856337
 30
0.0
 10
193.7087060272832
 20
246.5791840919408
 30
0.0
 10
192.5244917237938
 20
246.3688816952508
 30
0.0
 10
190.1444037149693
 20
246.3726965333879
 30
0.0
 10
188.9613801054257
 20
246.5879957759376
 30
0.0
 10
186.7893770655832
 20
247.4931820905759
 30
0.0
 10
185.7878743523499
 20
248.1982160520478
 30
0.0
 10
185.0999999999999
 20
249.1665049877541
 30
0.0
  0
LINE
  5
22E
330
1C2
100
AcDbEntity
  8
$DDT_AUDIT_GENERATED_(C7)
  6
Continuous
 62
     7
100
AcDbLine
 10
185.1
 20
249.1665049878
 30
0.0
 11
185.1
 21
259.1665049878
 31
0.0
  0
LINE
  5
22F
330
1C2
100
AcDbEntity
  8
$DDT_AUDIT_GENERATED_(C7)
  6
Continuous
 62
     7
100
AcDbLine
 10
181.4846189432
 20
259.1665049878
 30
0.0
 11
181.4846189432
 21
249.1665049878
 31
0.0
  0
SPLINE
  5
230
330
1C2
100
AcDbEntity
  8
$DDT_AUDIT_GENERATED_(C7)
  6
Continuous
 62
     7
100
AcDbSpline
210
0.0
220
0.0
230
1.0
 70
     8
 71
     3
 72
    14
 73
    10
 74
     0
 42
0.0000000011014719
 43
0.0000000001
 40
0.0
 40
0.0
 40
0.0
 40
0.0
 40
0.2500000000000001
 40
0.2500000000000001
 40
0.5000000000000001
 40
0.5000000000000001
 40
0.7500000000000002
 40
0.7500000000000002
 40
1.0
 40
1.0
 40
1.0
 40
1.0
 10
181.4846189432334
 20
249.1665049877541
 30
0.0
 10
181.1373010946061
 20
248.188698419301
 30
0.0
 10
180.6393737820227
 20
247.4918399251202
 30
0.0
 10
179.5494657174544
 20
246.5851579732505
 30
0.0
 10
178.9555915360494
 20
246.3712108729314
 30
0.0
 10
177.7671864326605
 20
246.3703437198895
 30
0.0
 10
177.1816326502635
 20
246.5776622781586
 30
0.0
 10
176.081350907157
 20
247.4882607740819
 30
0.0
 10
175.5815541809832
 20
248.1897755865977
 30
0.0
 10
175.2346189432334
 20
249.1665049877541
 30
0.0
  0
LINE
  5
231
330
1C2
100
AcDbEntity
  8
$DDT_AUDIT_GENERATED_(C7)
  6
Continuous
 62
     7
100
AcDbLine
 10
175.2346189432
 20
249.1665049878
 30
0.0
 11
175.2346189432
 21
259.1665049878
 31
0.0
  0
LINE
  5
232
330
1C2
100
AcDbEntity
  8
$DDT_AUDIT_GENERATED_(C7)
  6
Continuous
 62
     7
100
AcDbLine
 10
207.4653810568
 20
259.1665049878
 30
0.0
 11
207.4653810568
 21
249.1665049878
 31
0.0
  0
SPLINE
  5
233
330
1C2
100
AcDbEntity
  8
$DDT_AUDIT_GENERATED_(C7)
  6
Continuous
 62
     7
100
AcDbSpline
210
0.0
220
0.0
230
1.0
 70
     8
 71
     3
 72
    14
 73
    10
 74
     0
 42
0.0000000011014719
 43
0.0000000001
 40
0.0
 40
0.0
 40
0.0
 40
0.0
 40
0.2499999999999999
 40
0.2499999999999999
 40
0.4999999999999999
 40
0.4999999999999999
 40
0.7499999999999999
 40
0.7499999999999999
 40
1.0
 40
1.0
 40
1.0
 40
1.0
 10
207.4653810567665
 20
249.1665049877541
 30
0.0
 10
207.1180632081392
 20
248.188698419301
 30
0.0
 10
206.6201358955559
 20
247.4918399251201
 30
0.0
 10
205.5302278309876
 20
246.5851579732505
 30
0.0
 10
204.9363536495826
 20
246.3712108729314
 30
0.0
 10
203.7479485461937
 20
246.3703437198895
 30
0.0
 10
203.1623947637967
 20
246.5776622781586
 30
0.0
 10
202.0621130206902
 20
247.4882607740819
 30
0.0
 10
201.5623162945163
 20
248.1897755865977
 30
0.0
 10
201.2153810567665
 20
249.1665049877541
 30
0.0
  0
LINE
  5
234
330
1C2
100
AcDbEntity
  8
$DDT_AUDIT_GENERATED_(C7)
  6
Continuous
 62
     7
100
AcDbLine
 10
201.2153810568
 20
249.1665049878
 30
0.0
 11
201.2153810568
 21
259.1665049878
 31
0.0
  0
LINE
  5
235
330
1C2
100
AcDbEntity
  8
$DDT_AUDIT_GENERATED_(C7)
  6
Continuous
 62
     7
100
AcDbLine
 10
207.6
 20
249.1665049878
 30
0.0
 11
207.6
 21
259.1665049878
 31
0.0
  0
ARC
  5
236
330
1C2
100
AcDbEntity
  8
$DDT_AUDIT_GENERATED_(C7)
  6
Continuous
 62
     7
100
AcDbCircle
 10
197.9535976036
 20
251.802206186
 30
0.0
 40
9.999999999999995
100
AcDbArc
 50
322.1519040322
 51
344.7179936136
  0
ARC
  5
237
330
1C2
100
AcDbEntity
  8
$DDT_AUDIT_GENERATED_(C7)
  6
Continuous
 62
     7
100
AcDbCircle
 10
184.7464023964
 20
251.802206186
 30
0.0
 40
9.999999999999993
100
AcDbArc
 50
195.2820063864
 51
217.8480959678
  0
ARC
  5
238
330
1C2
100
AcDbEntity
  8
$DDT_AUDIT_GENERATED_(C7)
  6
Continuous
 62
     7
100
AcDbCircle
 10
197.9535976036
 20
256.5308037895
 30
0.0
 40
9.999999999999993
100
AcDbArc
 50
15.2820063864
 51
37.8480959678
  0
ARC
  5
239
330
1C2
100
AcDbEntity
  8
$DDT_AUDIT_GENERATED_(C7)
  6
Continuous
 62
     7
100
AcDbCircle
 10
184.7464023964
 20
256.5308037895
 30
0.0
 40
9.99999999999999
100
AcDbArc
 50
142.1519040322
 51
164.7179936136
  0
LINE
  5
23A
330
1C2
100
AcDbEntity
  8
$DDT_AUDIT_GENERATED_(C7)
  6
Continuous
 62
     7
100
AcDbLine
 10
175.1
 20
259.1665049878
 30
0.0
 11
175.1
 21
249.1665049878
 31
0.0
  0
LINE
  5
23B
330
1C2
100
AcDbEntity
  8
$DDT_AUDIT_GENERATED_(C7)
  6
Continuous
 62
     7
100
AcDbLine
 10
51.2153810568
 20
249.1665049878
 30
0.0
 11
47.6
 21
249.1665049878
 31
0.0
  0
LINE
  5
23C
330
1C2
100
AcDbEntity
  8
$DDT_AUDIT_GENERATED_(C7)
  6
Continuous
 62
     7
100
AcDbLine
 10
55.85
 20
245.6665049878
 30
0.0
 11
31.7269432251
 21
245.6665049878
 31
0.0
  0
LINE
  5
23D
330
1C2
100
AcDbEntity
  8
$DDT_AUDIT_GENERATED_(C7)
  6
Continuous
 62
     7
100
AcDbLine
 10
55.85
 20
262.6665049878
 30
0.0
 11
26.85
 21
262.6665049878
 31
0.0
  0
LINE
  5
23E
330
1C2
100
AcDbEntity
  8
$DDT_AUDIT_GENERATED_(C7)
  6
Continuous
 62
     7
100
AcDbLine
 10
51.2153810568
 20
259.1665049878
 30
0.0
 11
47.6
 21
259.1665049878
 31
0.0
  0
LINE
  5
23F
330
1C2
100
AcDbEntity
  8
$DDT_AUDIT_GENERATED_(C7)
  6
Continuous
 62
     7
100
AcDbLine
 10
35.1
 20
259.1665049878
 30
0.0
 11
31.4846189432
 21
259.1665049878
 31
0.0
  0
LINE
  5
240
330
1C2
100
AcDbEntity
  8
$DDT_AUDIT_GENERATED_(C7)
  6
Continuous
 62
     7
100
AcDbLine
 10
25.2346189432
 20
259.1665049878
 30
0.0
 11
25.1
 21
259.1665049878
 31
0.0
  0
LINE
  5
241
330
1C2
100
AcDbEntity
  8
$DDT_AUDIT_GENERATED_(C7)
  6
Continuous
 62
     7
100
AcDbLine
 10
57.4653810568
 20
259.1665049878
 30
0.0
 11
57.6
 21
259.1665049878
 31
0.0
  0
SPLINE
  5
242
330
1C2
100
AcDbEntity
  8
$DDT_AUDIT_GENERATED_(C7)
  6
Continuous
 62
     7
100
AcDbSpline
210
0.0
220
0.0
230
1.0
 70
     8
 71
     3
 72
    14
 73
    10
 74
     0
 42
0.0000000011014719
 43
0.0000000001
 40
0.0
 40
0.0
 40
0.0
 40
0.0
 40
0.25
 40
0.25
 40
0.5
 40
0.5
 40
0.75
 40
0.75
 40
1.0
 40
1.0
 40
1.0
 40
1.0
 10
57.46538105676656
 20
259.1665049877542
 30
0.0
 10
57.11806320813928
 20
260.1443115562072
 30
0.0
 10
56.62013589555588
 20
260.8411700503881
 30
0.0
 10
55.53022783098763
 20
261.7478520022578
 30
0.0
 10
54.93635364958261
 20
261.9617991025769
 30
0.0
 10
53.74794854619372
 20
261.9626662556188
 30
0.0
 10
53.16239476379667
 20
261.7553476973497
 30
0.0
 10
52.06211302069019
 20
260.8447492014263
 30
0.0
 10
51.56231629451635
 20
260.1432343889106
 30
0.0
 10
51.21538105676654
 20
259.1665049877542
 30
0.0
  0
SPLINE
  5
243
330
1C2
100
AcDbEntity
  8
$DDT_AUDIT_GENERATED_(C7)
  6
Continuous
 62
     7
100
AcDbSpline
210
0.0
220
0.0
230
1.0
 70
     8
 71
     3
 72
    14
 73
    10
 74
     0
 42
0.0000000011014719
 43
0.0000000001
 40
0.0
 40
0.0
 40
0.0
 40
0.0
 40
0.25
 40
0.25
 40
0.5
 40
0.5
 40
0.75
 40
0.75
 40
1.0
 40
1.0
 40
1.0
 40
1.0
 10
31.4846189432334
 20
259.1665049877542
 30
0.0
 10
31.13730109460612
 20
260.1443115562073
 30
0.0
 10
30.63937378202272
 20
260.8411700503881
 30
0.0
 10
29.54946571745448
 20
261.7478520022578
 30
0.0
 10
28.95559153604946
 20
261.9617991025769
 30
0.0
 10
27.76718643266056
 20
261.9626662556188
 30
0.0
 10
27.18163265026352
 20
261.7553476973497
 30
0.0
 10
26.08135090715705
 20
260.8447492014263
 30
0.0
 10
25.58155418098319
 20
260.1432343889106
 30
0.0
 10
25.23461894323339
 20
259.1665049877542
 30
0.0
  0
SPLINE
  5
244
330
1C2
100
AcDbEntity
  8
$DDT_AUDIT_GENERATED_(C7)
  6
Continuous
 62
     7
100
AcDbSpline
210
0.0
220
0.0
230
1.0
 70
     8
 71
     3
 72
    14
 73
    10
 74
     0
 42
0.0000000006969408
 43
0.0000000001
 40
0.0
 40
0.0
 40
0.0
 40
0.0
 40
0.25
 40
0.25
 40
0.5
 40
0.5
 40
0.75
 40
0.75
 40
1.0
 40
1.0
 40
1.0
 40
1.0
 10
47.59999999999997
 20
259.1665049877542
 30
0.0
 10
46.90691164748784
 20
260.1421334305239
 30
0.0
 10
45.89935147965699
 20
260.8481121191713
 30
0.0
 10
43.70870602728322
 20
261.7538258835675
 30
0.0
 10
42.52449172379383
 20
261.9641282802575
 30
0.0
 10
40.14440371496934
 20
261.9603134421204
 30
0.0
 10
38.96138010542574
 20
261.7450141995707
 30
0.0
 10
36.78937706558326
 20
260.8398278849325
 30
0.0
 10
35.78787435234997
 20
260.1347939234605
 30
0.0
 10
35.09999999999997
 20
259.1665049877542
 30
0.0
  0
LINE
  5
245
330
1C2
100
AcDbEntity
  8
$DDT_AUDIT_GENERATED_(C7)
  6
Continuous
 62
     7
100
AcDbLine
 10
35.1
 20
249.1665049878
 30
0.0
 11
31.4846189432
 21
249.1665049878
 31
0.0
  0
LINE
  5
246
330
1C2
100
AcDbEntity
  8
$DDT_AUDIT_GENERATED_(C7)
  6
Continuous
 62
     7
100
AcDbLine
 10
25.2346189432
 20
249.1665049878
 30
0.0
 11
25.1
 21
249.1665049878
 31
0.0
  0
LINE
  5
247
330
1C2
100
AcDbEntity
  8
$DDT_AUDIT_GENERATED_(C7)
  6
Continuous
 62
     7
100
AcDbLine
 10
57.4653810568
 20
249.1665049878
 30
0.0
 11
57.6
 21
249.1665049878
 31
0.0
  0
LINE
  5
248
330
1C2
100
AcDbEntity
  8
$DDT_AUDIT_GENERATED_(C7)
  6
Continuous
 62
     7
100
AcDbLine
 10
47.6
 20
259.1665049878
 30
0.0
 11
47.6
 21
249.1665049878
 31
0.0
  0
SPLINE
  5
249
330
1C2
100
AcDbEntity
  8
$DDT_AUDIT_GENERATED_(C7)
  6
Continuous
 62
     7
100
AcDbSpline
210
0.0
220
0.0
230
1.0
 70
     8
 71
     3
 72
    14
 73
    10
 74
     0
 42
0.0000000006969408
 43
0.0000000001
 40
0.0
 40
0.0
 40
0.0
 40
0.0
 40
0.25
 40
0.25
 40
0.5
 40
0.5
 40
0.75
 40
0.75
 40
1.0
 40
1.0
 40
1.0
 40
1.0
 10
47.59999999999997
 20
249.1665049877542
 30
0.0
 10
46.90691164748784
 20
248.1908765449844
 30
0.0
 10
45.89935147965699
 20
247.484897856337
 30
0.0
 10
43.70870602728322
 20
246.5791840919408
 30
0.0
 10
42.52449172379383
 20
246.3688816952509
 30
0.0
 10
40.14440371496933
 20
246.3726965333879
 30
0.0
 10
38.96138010542573
 20
246.5879957759376
 30
0.0
 10
36.78937706558325
 20
247.4931820905759
 30
0.0
 10
35.78787435234995
 20
248.1982160520478
 30
0.0
 10
35.09999999999997
 20
249.1665049877542
 30
0.0
  0
LINE
  5
24A
330
1C2
100
AcDbEntity
  8
$DDT_AUDIT_GENERATED_(C7)
  6
Continuous
 62
     7
100
AcDbLine
 10
35.1
 20
249.1665049878
 30
0.0
 11
35.1
 21
259.1665049878
 31
0.0
  0
LINE
  5
24B
330
1C2
100
AcDbEntity
  8
$DDT_AUDIT_GENERATED_(C7)
  6
Continuous
 62
     7
100
AcDbLine
 10
31.4846189432
 20
259.1665049878
 30
0.0
 11
31.4846189432
 21
249.1665049878
 31
0.0
  0
SPLINE
  5
24C
330
1C2
100
AcDbEntity
  8
$DDT_AUDIT_GENERATED_(C7)
  6
Continuous
 62
     7
100
AcDbSpline
210
0.0
220
0.0
230
1.0
 70
     8
 71
     3
 72
    14
 73
    10
 74
     0
 42
0.0000000011014719
 43
0.0000000001
 40
0.0
 40
0.0
 40
0.0
 40
0.0
 40
0.2500000000000001
 40
0.2500000000000001
 40
0.5000000000000001
 40
0.5000000000000001
 40
0.7500000000000002
 40
0.7500000000000002
 40
1.0
 40
1.0
 40
1.0
 40
1.0
 10
31.48461894323339
 20
249.1665049877542
 30
0.0
 10
31.13730109460612
 20
248.1886984193011
 30
0.0
 10
30.63937378202272
 20
247.4918399251202
 30
0.0
 10
29.54946571745447
 20
246.5851579732505
 30
0.0
 10
28.95559153604946
 20
246.3712108729314
 30
0.0
 10
27.76718643266056
 20
246.3703437198895
 30
0.0
 10
27.18163265026351
 20
246.5776622781586
 30
0.0
 10
26.08135090715703
 20
247.488260774082
 30
0.0
 10
25.58155418098319
 20
248.1897755865978
 30
0.0
 10
25.23461894323338
 20
249.1665049877542
 30
0.0
  0
LINE
  5
24D
330
1C2
100
AcDbEntity
  8
$DDT_AUDIT_GENERATED_(C7)
  6
Continuous
 62
     7
100
AcDbLine
 10
25.2346189432
 20
249.1665049878
 30
0.0
 11
25.2346189432
 21
259.1665049878
 31
0.0
  0
LINE
  5
24E
330
1C2
100
AcDbEntity
  8
$DDT_AUDIT_GENERATED_(C7)
  6
Continuous
 62
     7
100
AcDbLine
 10
57.4653810568
 20
259.1665049878
 30
0.0
 11
57.4653810568
 21
249.1665049878
 31
0.0
  0
SPLINE
  5
24F
330
1C2
100
AcDbEntity
  8
$DDT_AUDIT_GENERATED_(C7)
  6
Continuous
 62
     7
100
AcDbSpline
210
0.0
220
0.0
230
1.0
 70
     8
 71
     3
 72
    14
 73
    10
 74
     0
 42
0.0000000011014719
 43
0.0000000001
 40
0.0
 40
0.0
 40
0.0
 40
0.0
 40
0.2499999999999999
 40
0.2499999999999999
 40
0.4999999999999999
 40
0.4999999999999999
 40
0.7499999999999999
 40
0.7499999999999999
 40
1.0
 40
1.0
 40
1.0
 40
1.0
 10
57.46538105676655
 20
249.1665049877542
 30
0.0
 10
57.11806320813927
 20
248.188698419301
 30
0.0
 10
56.62013589555588
 20
247.4918399251202
 30
0.0
 10
55.53022783098763
 20
246.5851579732505
 30
0.0
 10
54.93635364958261
 20
246.3712108729314
 30
0.0
 10
53.7479485461937
 20
246.3703437198895
 30
0.0
 10
53.16239476379667
 20
246.5776622781586
 30
0.0
 10
52.06211302069019
 20
247.4882607740819
 30
0.0
 10
51.56231629451635
 20
248.1897755865978
 30
0.0
 10
51.21538105676654
 20
249.1665049877542
 30
0.0
  0
LINE
  5
250
330
1C2
100
AcDbEntity
  8
$DDT_AUDIT_GENERATED_(C7)
  6
Continuous
 62
     7
100
AcDbLine
 10
51.2153810568
 20
249.1665049878
 30
0.0
 11
51.2153810568
 21
259.1665049878
 31
0.0
  0
LINE
  5
251
330
1C2
100
AcDbEntity
  8
$DDT_AUDIT_GENERATED_(C7)
  6
Continuous
 62
     7
100
AcDbLine
 10
57.6
 20
249.1665049878
 30
0.0
 11
57.6
 21
259.1665049878
 31
0.0
  0
ARC
  5
252
330
1C2
100
AcDbEntity
  8
$DDT_AUDIT_GENERATED_(C7)
  6
Continuous
 62
     7
100
AcDbCircle
 10
47.9535976036
 20
251.802206186
 30
0.0
 40
9.999999999999995
100
AcDbArc
 50
322.1519040322
 51
344.7179936136
  0
ARC
  5
253
330
1C2
100
AcDbEntity
  8
$DDT_AUDIT_GENERATED_(C7)
  6
Continuous
 62
     7
100
AcDbCircle
 10
34.7464023964
 20
251.802206186
 30
0.0
 40
9.999999999999991
100
AcDbArc
 50
195.2820063864
 51
217.8480959678
  0
ARC
  5
254
330
1C2
100
AcDbEntity
  8
$DDT_AUDIT_GENERATED_(C7)
  6
Continuous
 62
     7
100
AcDbCircle
 10
47.9535976036
 20
256.5308037895
 30
0.0
 40
9.999999999999993
100
AcDbArc
 50
15.2820063864
 51
37.8480959678
  0
ARC
  5
255
330
1C2
100
AcDbEntity
  8
$DDT_AUDIT_GENERATED_(C7)
  6
Continuous
 62
     7
100
AcDbCircle
 10
34.7464023964
 20
256.5308037895
 30
0.0
 40
9.999999999999988
100
AcDbArc
 50
142.1519040322
 51
164.7179936136
  0
LINE
  5
256
330
1C2
100
AcDbEntity
  8
$DDT_AUDIT_GENERATED_(C7)
  6
Continuous
 62
     7
100
AcDbLine
 10
25.1
 20
259.1665049878
 30
0.0
 11
25.1
 21
249.1665049878
 31
0.0
  0
LINE
  5
258
330
1C2
100
AcDbEntity
  8
DV3_Standard
  6
CENTER2
 62
     7
100
AcDbLine
 10
61.349999553
 20
291.1665049878
 30
0.0
 11
21.350000447
 21
291.1665049878
 31
0.0
  0
LINE
  5
259
330
1C2
100
AcDbEntity
  8
DV3_Standard
  6
CENTER2
 62
     7
100
AcDbLine
 10
41.35
 20
311.1665045407
 30
0.0
 11
41.35
 21
271.1665054348
 31
0.0
  0
LINE
  5
25A
330
1C2
100
AcDbEntity
  8
DV3_Standard
  6
CENTER2
 62
     7
100
AcDbLine
 10
211.349999553
 20
291.1665049878
 30
0.0
 11
171.350000447
 21
291.1665049878
 31
0.0
  0
LINE
  5
25B
330
1C2
100
AcDbEntity
  8
DV3_Standard
  6
CENTER2
 62
     7
100
AcDbLine
 10
191.35
 20
311.1665045407
 30
0.0
 11
191.35
 21
271.1665054348
 31
0.0
  0
ENDBLK
  5
25D
330
1C2
100
AcDbEntity
  8
0
100
AcDbBlockEnd
  0
ENDSEC
  0
SECTION
  2
ENTITIES
  0
INSERT
  5
5F
330
1F
100
AcDbEntity
  8
Default
100
AcDbBlockReference
  2
SE
 10
0.0
 20
0.0
 30
0.0
  0
INSERT
  5
114
330
1F
100
AcDbEntity
  8
Default
100
AcDbBlockReference
  2
SE1
 10
0.0
 20
0.0
 30
0.0
  0
INSERT
  5
1C3
330
1F
100
AcDbEntity
  8
Default
100
AcDbBlockReference
  2
SE2
 10
0.0
 20
0.0
 30
0.0
  0
TEXT
  5
25F
330
1F
100
AcDbEntity
  8
Default
  6
Continuous
 62
     7
100
AcDbText
 10
5.9362635081
 20
53.4225120485
 30
0.0
 40
10.0
  1
Grohe AG^J
  7
SEACAD_seiso_ttf
 11
5.9362635081
 21
63.4225120485
 31
0.0
100
AcDbText
 73
     3
  0
TEXT
  5
260
330
1F
100
AcDbEntity
  8
Default
  6
Continuous
 62
     7
100
AcDbText
 10
5.9362635081
 20
37.0588756849
 30
0.0
 40
10.0
  1
 
  7
SEACAD_seiso_ttf
 11
5.9362635081
 21
47.0588756849
 31
0.0
100
AcDbText
 73
     3
  0
TEXT
  5
261
330
1F
100
AcDbEntity
  8
Default
  6
Continuous
 62
     7
100
AcDbText
 10
5.9362635081
 20
20.6952393213
 30
0.0
 40
10.0
  1
ecn: 
  7
SEACAD_seiso_ttf
 11
5.9362635081
 21
30.6952393213
 31
0.0
100
AcDbText
 73
     3
  0
TEXT
  5
262
330
1F
100
AcDbEntity
  8
Default
  6
Continuous
 62
     7
100
AcDbText
 10
5.9362635081
 20
4.3316029576
 30
0.0
 40
10.0
  1
unit: mm
  7
SEACAD_seiso_ttf
 11
5.9362635081
 21
14.3316029576
 31
0.0
100
AcDbText
 73
     3
  0
LINE
  5
263
330
1F
100
AcDbEntity
  8
Default
  6
Continuous
 62
     7
100
AcDbLine
 10
0.0
 20
0.0
 30
0.0
 11
100.0
 21
0.0
 31
0.0
  0
LINE
  5
264
330
1F
100
AcDbEntity
  8
Default
  6
Continuous
 62
     7
100
AcDbLine
 10
0.0
 20
0.0
 30
0.0
 11
0.0
 21
100.0
 31
0.0
  0
TEXT
  5
265
330
1F
100
AcDbEntity
  8
Default
  6
Continuous
 62
     7
100
AcDbText
 10
24.3923665681
 20
-18.2375342018
 30
0.0
 40
10.0
  1
100 mm
  7
SEACAD_seiso_ttf
 11
24.3923665681
 21
-8.2375342018
 31
0.0
100
AcDbText
 73
     3
  0
TEXT
  5
266
330
1F
100
AcDbEntity
  8
Default
  6
Continuous
 62
     7
100
AcDbText
 10
-7.6150308803
 20
24.6231930421
 30
0.0
 40
10.0
  1
100 mm
 50
90.0
  7
SEACAD_seiso_ttf
 11
-17.6150308803
 21
24.6231930421
 31
0.0
100
AcDbText
 73
     3
  0
TEXT
  5
267
330
1F
100
AcDbEntity
  8
Default
  6
Continuous
 62
     7
100
AcDbText
 10
28.4878128572
 20
20.0907663715
 30
0.0
 40
10.0
  1
217999
  7
SEACAD_seiso_ttf
 11
28.4878128572
 21
30.0907663715
 31
0.0
100
AcDbText
 73
     3
  0
TEXT
  5
268
330
1F
100
AcDbEntity
  8
Default
  6
Continuous
 62
     7
100
AcDbText
 10
5.9012241913
 20
36.7242780188
 30
0.0
 40
10.0
  1
32811000
  7
SEACAD_seiso_ttf
 11
5.9012241913
 21
46.7242780188
 31
0.0
100
AcDbText
 73
     3
  0
ENDSEC
  0
SECTION
  2
OBJECTS
  0
DICTIONARY
  5
C
330
0
100
AcDbDictionary
281
     1
  3
ACAD_GROUP
350
D
  3
ACAD_LAYOUT
350
1A
  3
ACAD_MLEADERSTYLE
350
26C
  3
ACAD_MLINESTYLE
350
17
  3
ACAD_PLOTSETTINGS
350
19
  3
ACAD_PLOTSTYLENAME
350
E
  3
ACAD_SCALELIST
350
3B
  3
ACAD_TABLESTYLE
350
26B
  3
ACAD_VISUALSTYLE
350
2A
  3
AcDbVariableDictionary
350
269
  0
DICTIONARY
  5
D
102
{ACAD_REACTORS
330
C
102
}
330
C
100
AcDbDictionary
281
     1
  0
DICTIONARY
  5
1A
102
{ACAD_REACTORS
330
C
102
}
330
C
100
AcDbDictionary
281
     1
  3
Layout1
350
1E
  3
Model
350
22
  0
DICTIONARY
  5
26C
102
{ACAD_REACTORS
330
C
102
}
330
C
100
AcDbDictionary
281
     1
  0
DICTIONARY
  5
17
102
{ACAD_REACTORS
330
C
102
}
330
C
100
AcDbDictionary
281
     1
  3
Standard
350
18
  0
DICTIONARY
  5
19
102
{ACAD_REACTORS
330
C
102
}
330
C
100
AcDbDictionary
281
     1
  0
ACDBDICTIONARYWDFLT
  5
E
102
{ACAD_REACTORS
330
C
102
}
330
C
100
AcDbDictionary
281
     1
  3
Normal
350
F
100
AcDbDictionaryWithDefault
340
F
  0
DICTIONARY
  5
3B
102
{ACAD_REACTORS
330
C
102
}
330
C
100
AcDbDictionary
281
     1
  3
A0
350
3C
  3
A1
350
3D
  3
A2
350
3E
  3
A3
350
3F
  3
A4
350
40
  3
A5
350
41
  3
A6
350
42
  3
A7
350
43
  3
A8
350
44
  3
A9
350
45
  3
B0
350
46
  3
B1
350
47
  3
B2
350
48
  3
B3
350
49
  3
B4
350
4A
  3
B5
350
4B
  3
B6
350
4C
  3
B7
350
4D
  3
B8
350
4E
  3
B9
350
4F
  3
C0
350
50
  3
C1
350
51
  3
C2
350
52
  3
C3
350
53
  3
C4
350
54
  3
C5
350
55
  3
C6
350
56
  3
C7
350
57
  3
C8
350
58
  3
C9
350
59
  3
D0
350
5A
  3
D1
350
5B
  3
D2
350
5C
  0
DICTIONARY
  5
26B
102
{ACAD_REACTORS
330
C
102
}
330
C
100
AcDbDictionary
281
     1
  0
DICTIONARY
  5
2A
102
{ACAD_REACTORS
330
C
102
}
330
C
100
AcDbDictionary
281
     1
  3
2dWireframe
350
2F
  3
3D Hidden
350
31
  3
3dWireframe
350
30
  3
Basic
350
32
  3
Brighten
350
36
  3
ColorChange
350
3A
  3
Conceptual
350
34
  3
Dim
350
35
  3
Facepattern
350
39
  3
Flat
350
2B
  3
FlatWithEdges
350
2C
  3
Gouraud
350
2D
  3
GouraudWithEdges
350
2E
  3
Linepattern
350
38
  3
Realistic
350
33
  3
Thicken
350
37
  0
DICTIONARY
  5
269
102
{ACAD_REACTORS
330
C
102
}
330
C
100
AcDbDictionary
281
     1
  3
CANNOSCALE
350
26A
  3
PSOLHEIGHT
350
26E
  3
PSOLWIDTH
350
26D
  0
LAYOUT
  5
1E
102
{ACAD_REACTORS
330
1A
102
}
330
1A
100
AcDbPlotSettings
  1

  2
none_device
  4

  6

 40
0.0
 41
0.0
 42
0.0
 43
0.0
 44
0.0
 45
0.0
 46
0.0
 47
0.0
 48
0.0
 49
0.0
140
0.0
141
0.0
142
1.0
143
1.0
 70
   688
 72
     0
 73
     0
 74
     5
  7

 75
    16
147
1.0
148
0.0
149
0.0
100
AcDbLayout
  1
Layout1
 70
     1
 71
     1
 10
0.0
 20
0.0
 11
1682.0
 21
2378.0
 12
0.0
 22
0.0
 32
0.0
 14
0.0
 24
0.0
 34
0.0
 15
1682.0
 25
2378.0
 35
0.0
146
0.0
 13
0.0
 23
0.0
 33
0.0
 16
1.0
 26
0.0
 36
0.0
 17
0.0
 27
1.0
 37
0.0
 76
     0
330
1B
  0
LAYOUT
  5
22
102
{ACAD_REACTORS
330
1A
102
}
330
1A
100
AcDbPlotSettings
  1

  2
none_device
  4

  6

 40
0.0
 41
0.0
 42
0.0
 43
0.0
 44
0.0
 45
0.0
 46
0.0
 47
0.0
 48
0.0
 49
0.0
140
0.0
141
0.0
142
1.0
143
1.0
 70
  1712
 72
     0
 73
     0
 74
     0
  7

 75
     0
147
1.0
148
0.0
149
0.0
100
AcDbLayout
  1
Model
 70
     1
 71
     0
 10
0.0
 20
0.0
 11
1682.0
 21
2378.0
 12
0.0
 22
0.0
 32
0.0
 14
0.0
 24
0.0
 34
0.0
 15
1682.0
 25
2378.0
 35
0.0
146
0.0
 13
0.0
 23
0.0
 33
0.0
 16
1.0
 26
0.0
 36
0.0
 17
0.0
 27
1.0
 37
0.0
 76
     0
330
1F
331
29
  0
MLINESTYLE
  5
18
102
{ACAD_REACTORS
330
17
102
}
330
17
100
AcDbMlineStyle
  2
Standard
 70
     0
  3

 62
   256
 51
90.0
 52
90.0
 71
     2
 49
0.5
 62
   256
  6
BYLAYER
 49
-0.5
 62
   256
  6
BYLAYER
  0
ACDBPLACEHOLDER
  5
F
102
{ACAD_REACTORS
330
E
102
}
330
E
  0
SCALE
  5
3C
102
{ACAD_REACTORS
330
3B
102
}
330
3B
100
AcDbScale
 70
     0
300
1:1
140
1.0
141
1.0
290
     1
  0
SCALE
  5
3D
102
{ACAD_REACTORS
330
3B
102
}
330
3B
100
AcDbScale
 70
     0
300
1:2
140
1.0
141
2.0
290
     0
  0
SCALE
  5
3E
102
{ACAD_REACTORS
330
3B
102
}
330
3B
100
AcDbScale
 70
     0
300
1:4
140
1.0
141
4.0
290
     0
  0
SCALE
  5
3F
102
{ACAD_REACTORS
330
3B
102
}
330
3B
100
AcDbScale
 70
     0
300
1:5
140
1.0
141
5.0
290
     0
  0
SCALE
  5
40
102
{ACAD_REACTORS
330
3B
102
}
330
3B
100
AcDbScale
 70
     0
300
1:8
140
1.0
141
8.0
290
     0
  0
SCALE
  5
41
102
{ACAD_REACTORS
330
3B
102
}
330
3B
100
AcDbScale
 70
     0
300
1:10
140
1.0
141
10.0
290
     0
  0
SCALE
  5
42
102
{ACAD_REACTORS
330
3B
102
}
330
3B
100
AcDbScale
 70
     0
300
1:16
140
1.0
141
16.0
290
     0
  0
SCALE
  5
43
102
{ACAD_REACTORS
330
3B
102
}
330
3B
100
AcDbScale
 70
     0
300
1:20
140
1.0
141
20.0
290
     0
  0
SCALE
  5
44
102
{ACAD_REACTORS
330
3B
102
}
330
3B
100
AcDbScale
 70
     0
300
1:30
140
1.0
141
30.0
290
     0
  0
SCALE
  5
45
102
{ACAD_REACTORS
330
3B
102
}
330
3B
100
AcDbScale
 70
     0
300
1:40
140
1.0
141
40.0
290
     0
  0
SCALE
  5
46
102
{ACAD_REACTORS
330
3B
102
}
330
3B
100
AcDbScale
 70
     0
300
1:50
140
1.0
141
50.0
290
     0
  0
SCALE
  5
47
102
{ACAD_REACTORS
330
3B
102
}
330
3B
100
AcDbScale
 70
     0
300
1:100
140
1.0
141
100.0
290
     0
  0
SCALE
  5
48
102
{ACAD_REACTORS
330
3B
102
}
330
3B
100
AcDbScale
 70
     0
300
2:1
140
2.0
141
1.0
290
     0
  0
SCALE
  5
49
102
{ACAD_REACTORS
330
3B
102
}
330
3B
100
AcDbScale
 70
     0
300
4:1
140
4.0
141
1.0
290
     0
  0
SCALE
  5
4A
102
{ACAD_REACTORS
330
3B
102
}
330
3B
100
AcDbScale
 70
     0
300
8:1
140
8.0
141
1.0
290
     0
  0
SCALE
  5
4B
102
{ACAD_REACTORS
330
3B
102
}
330
3B
100
AcDbScale
 70
     0
300
10:1
140
10.0
141
1.0
290
     0
  0
SCALE
  5
4C
102
{ACAD_REACTORS
330
3B
102
}
330
3B
100
AcDbScale
 70
     0
300
100:1
140
100.0
141
1.0
290
     0
  0
SCALE
  5
4D
102
{ACAD_REACTORS
330
3B
102
}
330
3B
100
AcDbScale
 70
     0
300
1/128" = 1'-0"
140
0.0078125
141
12.0
290
     0
  0
SCALE
  5
4E
102
{ACAD_REACTORS
330
3B
102
}
330
3B
100
AcDbScale
 70
     0
300
1/64" = 1'-0"
140
0.015625
141
12.0
290
     0
  0
SCALE
  5
4F
102
{ACAD_REACTORS
330
3B
102
}
330
3B
100
AcDbScale
 70
     0
300
1/32" = 1'-0"
140
0.03125
141
12.0
290
     0
  0
SCALE
  5
50
102
{ACAD_REACTORS
330
3B
102
}
330
3B
100
AcDbScale
 70
     0
300
1/16" = 1'-0"
140
0.0625
141
12.0
290
     0
  0
SCALE
  5
51
102
{ACAD_REACTORS
330
3B
102
}
330
3B
100
AcDbScale
 70
     0
300
3/32" = 1'-0"
140
0.09375
141
12.0
290
     0
  0
SCALE
  5
52
102
{ACAD_REACTORS
330
3B
102
}
330
3B
100
AcDbScale
 70
     0
300
1/8" = 1'-0"
140
0.125
141
12.0
290
     0
  0
SCALE
  5
53
102
{ACAD_REACTORS
330
3B
102
}
330
3B
100
AcDbScale
 70
     0
300
3/16" = 1'-0"
140
0.1875
141
12.0
290
     0
  0
SCALE
  5
54
102
{ACAD_REACTORS
330
3B
102
}
330
3B
100
AcDbScale
 70
     0
300
1/4" = 1'-0"
140
0.25
141
12.0
290
     0
  0
SCALE
  5
55
102
{ACAD_REACTORS
330
3B
102
}
330
3B
100
AcDbScale
 70
     0
300
3/8" = 1'-0"
140
0.375
141
12.0
290
     0
  0
SCALE
  5
56
102
{ACAD_REACTORS
330
3B
102
}
330
3B
100
AcDbScale
 70
     0
300
1/2" = 1'-0"
140
0.5
141
12.0
290
     0
  0
SCALE
  5
57
102
{ACAD_REACTORS
330
3B
102
}
330
3B
100
AcDbScale
 70
     0
300
3/4" = 1'-0"
140
0.75
141
12.0
290
     0
  0
SCALE
  5
58
102
{ACAD_REACTORS
330
3B
102
}
330
3B
100
AcDbScale
 70
     0
300
1" = 1'-0"
140
1.0
141
12.0
290
     0
  0
SCALE
  5
59
102
{ACAD_REACTORS
330
3B
102
}
330
3B
100
AcDbScale
 70
     0
300
1-1/2" = 1'-0"
140
1.5
141
12.0
290
     0
  0
SCALE
  5
5A
102
{ACAD_REACTORS
330
3B
102
}
330
3B
100
AcDbScale
 70
     0
300
3" = 1'-0"
140
3.0
141
12.0
290
     0
  0
SCALE
  5
5B
102
{ACAD_REACTORS
330
3B
102
}
330
3B
100
AcDbScale
 70
     0
300
6" = 1'-0"
140
6.0
141
12.0
290
     0
  0
SCALE
  5
5C
102
{ACAD_REACTORS
330
3B
102
}
330
3B
100
AcDbScale
 70
     0
300
1'-0" = 1'-0"
140
12.0
141
12.0
290
     0
  0
VISUALSTYLE
  5
2F
102
{ACAD_REACTORS
330
2A
102
}
330
2A
100
AcDbVisualStyle
  2
2dWireframe
 70
     4
 71
     0
 72
     2
 73
     0
 90
        0
 40
-0.6
 41
-30.0
 62
     5
 63
     7
 74
     1
 91
        4
 64
     7
 65
   257
 75
     1
175
     1
 42
1.0
 92
        0
 66
   257
 43
1.0
 76
     1
 77
     6
 78
     2
 67
     7
 79
     5
170
     0
171
     0
290
     0
174
     0
 93
        1
 44
0.0
173
     0
291
     0
 45
0.0
1001
ACAD
1000
AcDbSavedByObjectVersion
1070
     0
  0
VISUALSTYLE
  5
31
102
{ACAD_REACTORS
330
2A
102
}
330
2A
100
AcDbVisualStyle
  2
3D Hidden
 70
     6
 71
     1
 72
     2
 73
     2
 90
        0
 40
-0.6
 41
-30.0
 62
     5
 63
     7
 74
     2
 91
        2
 64
     7
 65
   257
 75
     2
175
     1
 42
40.0
 92
        0
 66
   257
 43
1.0
 76
     1
 77
     6
 78
     2
 67
     7
 79
     3
170
     0
171
     0
290
     0
174
     0
 93
        1
 44
0.0
173
     0
291
     0
 45
0.0
1001
ACAD
1000
AcDbSavedByObjectVersion
1070
     0
  0
VISUALSTYLE
  5
30
102
{ACAD_REACTORS
330
2A
102
}
330
2A
100
AcDbVisualStyle
  2
3dWireframe
 70
     5
 71
     0
 72
     2
 73
     0
 90
        0
 40
-0.6
 41
-30.0
 62
     5
 63
     7
 74
     1
 91
        4
 64
     7
 65
   257
 75
     1
175
     1
 42
1.0
 92
        0
 66
   257
 43
1.0
 76
     1
 77
     6
 78
     2
 67
     7
 79
     5
170
     0
171
     0
290
     0
174
     0
 93
        1
 44
0.0
173
     0
291
     0
 45
0.0
1001
ACAD
1000
AcDbSavedByObjectVersion
1070
     0
  0
VISUALSTYLE
  5
32
102
{ACAD_REACTORS
330
2A
102
}
330
2A
100
AcDbVisualStyle
  2
Basic
 70
     7
 71
     1
 72
     0
 73
     1
 90
        0
 40
-0.6
 41
-30.0
 62
     5
 63
     7
 74
     0
 91
        4
 64
     7
 65
   257
 75
     1
175
     1
 42
1.0
 92
        8
 66
     7
 43
1.0
 76
     1
 77
     6
 78
     2
 67
     7
 79
     5
170
     0
171
     0
290
     0
174
     0
 93
        1
 44
0.0
173
     0
291
     1
 45
0.0
1001
ACAD
1000
AcDbSavedByObjectVersion
1070
     0
  0
VISUALSTYLE
  5
36
102
{ACAD_REACTORS
330
2A
102
}
330
2A
100
AcDbVisualStyle
  2
Brighten
 70
    12
 71
     2
 72
     2
 73
     0
 90
        0
 40
-0.6
 41
-30.0
 62
     5
 63
     7
 74
     1
 91
        4
 64
     7
 65
   257
 75
     1
175
     1
 42
1.0
 92
        8
 66
     7
 43
1.0
 76
     1
 77
     6
 78
     2
 67
     7
 79
     5
170
     0
171
     0
290
     0
174
     0
 93
        1
 44
50.0
173
     0
291
     1
 45
0.0
1001
ACAD
1000
AcDbSavedByObjectVersion
1070
     0
  0
VISUALSTYLE
  5
3A
102
{ACAD_REACTORS
330
2A
102
}
330
2A
100
AcDbVisualStyle
  2
ColorChange
 70
    16
 71
     2
 72
     2
 73
     3
 90
        0
 40
-0.6
 41
-30.0
 62
     5
 63
     8
 74
     1
 91
        4
 64
     7
 65
   257
 75
     1
175
     1
 42
1.0
 92
        8
 66
     8
 43
1.0
 76
     1
 77
     6
 78
     2
 67
     7
 79
     5
170
     0
171
     0
290
     0
174
     0
 93
        1
 44
0.0
173
     0
291
     1
 45
0.0
1001
ACAD
1000
AcDbSavedByObjectVersion
1070
     0
  0
VISUALSTYLE
  5
34
102
{ACAD_REACTORS
330
2A
102
}
330
2A
100
AcDbVisualStyle
  2
Conceptual
 70
     9
 71
     3
 72
     2
 73
     0
 90
        0
 40
-0.6
 41
-30.0
 62
     5
 63
     7
 74
     2
 91
        2
 64
     7
 65
   257
 75
     1
175
     1
 42
40.0
 92
        8
 66
     7
 43
1.0
 76
     1
 77
     6
 78
     2
 67
     7
 79
     3
170
     0
171
     0
290
     0
174
     0
 93
        1
 44
0.0
173
     0
291
     0
 45
0.0
1001
ACAD
1000
AcDbSavedByObjectVersion
1070
     0
  0
VISUALSTYLE
  5
35
102
{ACAD_REACTORS
330
2A
102
}
330
2A
100
AcDbVisualStyle
  2
Dim
 70
    11
 71
     2
 72
     2
 73
     0
 90
        0
 40
-0.6
 41
-30.0
 62
     5
 63
     7
 74
     1
 91
        4
 64
     7
 65
   257
 75
     1
175
     1
 42
1.0
 92
        8
 66
     7
 43
1.0
 76
     1
 77
     6
 78
     2
 67
     7
 79
     5
170
     0
171
     0
290
     0
174
     0
 93
        1
 44
-50.0
173
     0
291
     1
 45
0.0
1001
ACAD
1000
AcDbSavedByObjectVersion
1070
     0
  0
VISUALSTYLE
  5
39
102
{ACAD_REACTORS
330
2A
102
}
330
2A
100
AcDbVisualStyle
  2
Facepattern
 70
    15
 71
     2
 72
     2
 73
     0
 90
        0
 40
-0.6
 41
-30.0
 62
     5
 63
     7
 74
     1
 91
        4
 64
     7
 65
   257
 75
     1
175
     1
 42
1.0
 92
        8
 66
     7
 43
1.0
 76
     1
 77
     6
 78
     2
 67
     7
 79
     5
170
     0
171
     0
290
     0
174
     0
 93
        1
 44
0.0
173
     0
291
     1
 45
0.0
1001
ACAD
1000
AcDbSavedByObjectVersion
1070
     0
  0
VISUALSTYLE
  5
2B
102
{ACAD_REACTORS
330
2A
102
}
330
2A
100
AcDbVisualStyle
  2
Flat
 70
     0
 71
     2
 72
     1
 73
     1
 90
        2
 40
-0.6
 41
30.0
 62
     5
 63
     7
 74
     0
 91
        4
 64
     7
 65
   257
 75
     1
175
     1
 42
1.0
 92
        8
 66
     7
 43
1.0
 76
     1
 77
     6
 78
     2
 67
     7
 79
     5
170
     0
171
     0
290
     0
174
     0
 93
       13
 44
0.0
173
     0
291
     1
 45
0.0
1001
ACAD
1000
AcDbSavedByObjectVersion
1070
     0
  0
VISUALSTYLE
  5
2C
102
{ACAD_REACTORS
330
2A
102
}
330
2A
100
AcDbVisualStyle
  2
FlatWithEdges
 70
     1
 71
     2
 72
     1
 73
     1
 90
        2
 40
-0.6
 41
30.0
 62
     5
 63
     7
 74
     1
 91
        4
 64
     7
 65
   257
 75
     1
175
     1
 42
1.0
 92
        0
 66
   257
 43
1.0
 76
     1
 77
     6
 78
     2
 67
     7
 79
     5
170
     0
171
     0
290
     0
174
     0
 93
       13
 44
0.0
173
     0
291
     1
 45
0.0
1001
ACAD
1000
AcDbSavedByObjectVersion
1070
     0
  0
VISUALSTYLE
  5
2D
102
{ACAD_REACTORS
330
2A
102
}
330
2A
100
AcDbVisualStyle
  2
Gouraud
 70
     2
 71
     2
 72
     2
 73
     1
 90
        2
 40
-0.6
 41
30.0
 62
     5
 63
     7
 74
     0
 91
        4
 64
     7
 65
   257
 75
     1
175
     1
 42
1.0
 92
        0
 66
     7
 43
1.0
 76
     1
 77
     6
 78
     2
 67
     7
 79
     5
170
     0
171
     0
290
     0
174
     0
 93
       13
 44
0.0
173
     0
291
     1
 45
0.0
1001
ACAD
1000
AcDbSavedByObjectVersion
1070
     0
  0
VISUALSTYLE
  5
2E
102
{ACAD_REACTORS
330
2A
102
}
330
2A
100
AcDbVisualStyle
  2
GouraudWithEdges
 70
     3
 71
     2
 72
     2
 73
     1
 90
        2
 40
-0.6
 41
30.0
 62
     5
 63
     7
 74
     1
 91
        4
 64
     7
 65
   257
 75
     1
175
     1
 42
1.0
 92
        0
 66
   257
 43
1.0
 76
     1
 77
     6
 78
     2
 67
     7
 79
     5
170
     0
171
     0
290
     0
174
     0
 93
       13
 44
0.0
173
     0
291
     1
 45
0.0
1001
ACAD
1000
AcDbSavedByObjectVersion
1070
     0
  0
VISUALSTYLE
  5
38
102
{ACAD_REACTORS
330
2A
102
}
330
2A
100
AcDbVisualStyle
  2
Linepattern
 70
    14
 71
     2
 72
     2
 73
     0
 90
        0
 40
-0.6
 41
-30.0
 62
     5
 63
     7
 74
     1
 91
        4
 64
     7
 65
   257
 75
     7
175
     7
 42
1.0
 92
        8
 66
     7
 43
1.0
 76
     1
 77
     6
 78
     2
 67
     7
 79
     5
170
     0
171
     0
290
     0
174
     0
 93
        1
 44
0.0
173
     0
291
     1
 45
0.0
1001
ACAD
1000
AcDbSavedByObjectVersion
1070
     0
  0
VISUALSTYLE
  5
33
102
{ACAD_REACTORS
330
2A
102
}
330
2A
100
AcDbVisualStyle
  2
Realistic
 70
     8
 71
     2
 72
     2
 73
     0
 90
        0
 40
-0.6
 41
-30.0
 62
     5
 63
     7
 74
     1
 91
        0
 64
     7
 65
   257
 75
     1
175
     1
 42
1.0
 92
        8
 66
     8
 43
1.0
 76
     1
 77
     6
 78
     2
 67
     7
 79
     5
170
     0
171
     0
290
     0
174
     0
 93
       13
 44
0.0
173
     0
291
     0
 45
0.0
1001
ACAD
1000
AcDbSavedByObjectVersion
1070
     0
  0
VISUALSTYLE
  5
37
102
{ACAD_REACTORS
330
2A
102
}
330
2A
100
AcDbVisualStyle
  2
Thicken
 70
    13
 71
     2
 72
     2
 73
     0
 90
        0
 40
-0.6
 41
-30.0
 62
     5
 63
     7
 74
     1
 91
        4
 64
     7
 65
   257
 75
     1
175
     1
 42
1.0
 92
       12
 66
     7
 43
1.0
 76
     1
 77
     6
 78
     2
 67
     7
 79
     5
170
     0
171
     0
290
     0
174
     0
 93
        1
 44
0.0
173
     0
291
     1
 45
0.0
1001
ACAD
1000
AcDbSavedByObjectVersion
1070
     0
  0
DICTIONARYVAR
  5
26A
102
{ACAD_REACTORS
330
269
102
}
330
269
100
DictionaryVariables
280
     0
  1
1:1
  0
DICTIONARYVAR
  5
26E
102
{ACAD_REACTORS
330
269
102
}
330
269
100
DictionaryVariables
280
     0
  1
80.000000
  0
DICTIONARYVAR
  5
26D
102
{ACAD_REACTORS
330
269
102
}
330
269
100
DictionaryVariables
280
     0
  1
5.000000
  0
ENDSEC
  0
EOF
