999
Converted by 3D Exploration 
999
XDimension Software, LLC
999
http://www.xdsoft.com/explorer/
0
SECTION
2
HEADER
9
$ACADVER
1
AC1008
9
$UCSORG
10
0.0
20
0.0
30
0.0
9
$UCSXDIR
10
1.0
20
0.0
30
0.0
9
$TILEMODE
70
1
9
$UCSYDIR
10
0.0
20
1.0
30
0.0
9
$EXTMIN
10
0.000000
20
-74.790001
30
-74.790001
9
$EXTMAX
10
87.969002
20
74.790001
30
75.000000
0
ENDSEC
0
SECTION
2
TABLES
0
TABLE
2
LTYPE
70
1
0
LTYPE
2
CONTINUOUS
70
64
3
Solid line
72
65
73
0
40
0.0
0
ENDTAB
0
TABLE
2
LAYER
70
36
0
LAYER
2
OBJECT__0
70
0
62
253
6
CONTINUOUS
0
LAYER
2
OBJECT__1
70
0
62
253
6
CONTINUOUS
0
LAYER
2
OBJECT__3
70
0
62
253
6
CONTINUOUS
0
LAYER
2
OBJECT__4
70
0
62
253
6
CONTINUOUS
0
LAYER
2
OBJECT__5
70
0
62
253
6
CONTINUOUS
0
LAYER
2
OBJECT__6
70
0
62
253
6
CONTINUOUS
0
LAYER
2
OBJECT__7
70
0
62
253
6
CONTINUOUS
0
LAYER
2
OBJECT__9
70
0
62
253
6
CONTINUOUS
0
LAYER
2
OBJECT__10
70
0
62
253
6
CONTINUOUS
0
LAYER
2
OBJECT__11
70
0
62
253
6
CONTINUOUS
0
LAYER
2
OBJECT__12
70
0
62
253
6
CONTINUOUS
0
LAYER
2
OBJECT__13
70
0
62
253
6
CONTINUOUS
0
LAYER
2
OBJECT__14
70
0
62
253
6
CONTINUOUS
0
LAYER
2
OBJECT__15
70
0
62
253
6
CONTINUOUS
0
LAYER
2
OBJECT__16
70
0
62
253
6
CONTINUOUS
0
LAYER
2
OBJECT__17
70
0
62
253
6
CONTINUOUS
0
LAYER
2
OBJECT__18
70
0
62
253
6
CONTINUOUS
0
LAYER
2
OBJECT__20
70
0
62
253
6
CONTINUOUS
0
LAYER
2
OBJECT__21
70
0
62
253
6
CONTINUOUS
0
LAYER
2
OBJECT__22
70
0
62
253
6
CONTINUOUS
0
LAYER
2
OBJECT__23
70
0
62
253
6
CONTINUOUS
0
LAYER
2
OBJECT__24
70
0
62
253
6
CONTINUOUS
0
LAYER
2
OBJECT__25
70
0
62
253
6
CONTINUOUS
0
LAYER
2
OBJECT__26
70
0
62
253
6
CONTINUOUS
0
LAYER
2
OBJECT__27
70
0
62
253
6
CONTINUOUS
0
LAYER
2
OBJECT__28
70
0
62
253
6
CONTINUOUS
0
LAYER
2
OBJECT__29
70
0
62
253
6
CONTINUOUS
0
LAYER
2
OBJECT__30
70
0
62
253
6
CONTINUOUS
0
LAYER
2
OBJECT__31
70
0
62
253
6
CONTINUOUS
0
LAYER
2
OBJECT__33
70
0
62
253
6
CONTINUOUS
0
LAYER
2
OBJECT__34
70
0
62
253
6
CONTINUOUS
0
LAYER
2
OBJECT__35
70
0
62
253
6
CONTINUOUS
0
ENDTAB
0
TABLE
2
STYLE
70
1
0
STYLE
2
STANDARD
70
0
40
0.0
41
1.0
50
0.0
71
0
42
0.2
3
txt
4
1
0
ENDTAB
0
TABLE
2
UCS
70
0
0
ENDTAB
0
ENDSEC
0
SECTION
2
ENTITIES
0
POLYLINE
8
OBJECT__0
66
1
70
64
71
73
72
96
62
253
0
VERTEX
8
OBJECT__0
10
12.925000
20
-7.482000
30
-59.226002
70
192
0
VERTEX
8
OBJECT__0
10
7.508000
20
0.000000
30
-30.066999
70
192
0
VERTEX
8
OBJECT__0
10
7.508000
20
-7.782000
30
-29.042000
70
192
0
VERTEX
8
OBJECT__0
10
12.925000
20
-15.334000
30
-57.209999
70
192
0
VERTEX
8
OBJECT__0
10
12.925000
20
-21.976000
30
-55.505001
70
192
0
VERTEX
8
OBJECT__0
10
7.508000
20
-15.033000
30
-26.038000
70
192
0
VERTEX
8
OBJECT__0
10
12.925000
20
-29.628000
30
-51.298000
70
192
0
VERTEX
8
OBJECT__0
10
12.925000
20
-35.089001
30
-48.296001
70
192
0
VERTEX
8
OBJECT__0
10
7.508000
20
-21.260000
30
-21.260000
70
192
0
VERTEX
8
OBJECT__0
10
12.925000
20
-41.910000
30
-41.889999
70
192
0
VERTEX
8
OBJECT__0
10
12.925000
20
-45.997002
30
-38.051998
70
192
0
VERTEX
8
OBJECT__0
10
7.508000
20
-26.038000
30
-15.033000
70
192
0
VERTEX
8
OBJECT__0
10
12.925000
20
-51.346001
30
-29.624001
70
192
0
VERTEX
8
OBJECT__0
10
12.925000
20
-54.014999
30
-25.417999
70
192
0
VERTEX
8
OBJECT__0
10
7.508000
20
-29.042000
30
-7.782000
70
192
0
VERTEX
8
OBJECT__0
10
12.925000
20
-57.292999
30
-15.330000
70
192
0
VERTEX
8
OBJECT__0
10
12.925000
20
-58.639000
30
-11.186000
70
192
0
VERTEX
8
OBJECT__0
10
7.508000
20
-30.066999
30
0.000000
70
192
0
VERTEX
8
OBJECT__0
10
12.925000
20
-59.344002
30
0.022000
70
192
0
VERTEX
8
OBJECT__0
10
12.925000
20
-59.578999
30
3.748000
70
192
0
VERTEX
8
OBJECT__0
10
7.508000
20
-29.042000
30
7.782000
70
192
0
VERTEX
8
OBJECT__0
10
12.925000
20
-57.358002
30
15.392000
70
192
0
VERTEX
8
OBJECT__0
10
12.925000
20
-56.775002
30
18.447001
70
192
0
VERTEX
8
OBJECT__0
10
7.508000
20
-26.038000
30
15.033000
70
192
0
VERTEX
8
OBJECT__0
10
12.925000
20
-51.462002
30
29.737000
70
192
0
VERTEX
8
OBJECT__0
10
12.925000
20
-50.403999
30
31.987000
70
192
0
VERTEX
8
OBJECT__0
10
7.508000
20
-21.260000
30
21.260000
70
192
0
VERTEX
8
OBJECT__0
10
12.925000
20
-42.053001
30
42.081001
70
192
0
VERTEX
8
OBJECT__0
10
12.925000
20
-40.865002
30
43.516998
70
192
0
VERTEX
8
OBJECT__0
10
7.508000
20
-15.033000
30
26.038000
70
192
0
VERTEX
8
OBJECT__0
10
12.925000
20
-29.764000
30
51.583000
70
192
0
VERTEX
8
OBJECT__0
10
12.925000
20
-28.759001
30
52.313000
70
192
0
VERTEX
8
OBJECT__0
10
7.508000
20
-7.782000
30
29.042000
70
192
0
VERTEX
8
OBJECT__0
10
12.925000
20
-15.423000
30
57.592999
70
192
0
VERTEX
8
OBJECT__0
10
12.925000
20
-14.846000
30
57.820999
70
192
0
VERTEX
8
OBJECT__0
10
7.508000
20
0.000000
30
30.066999
70
192
0
VERTEX
8
OBJECT__0
10
12.925000
20
0.000000
30
59.696999
70
192
0
VERTEX
8
OBJECT__0
10
12.925000
20
14.846000
30
57.820999
70
192
0
VERTEX
8
OBJECT__0
10
7.508000
20
7.782000
30
29.042000
70
192
0
VERTEX
8
OBJECT__0
10
12.925000
20
15.423000
30
57.592999
70
192
0
VERTEX
8
OBJECT__0
10
12.925000
20
28.759001
30
52.313000
70
192
0
VERTEX
8
OBJECT__0
10
7.508000
20
15.033000
30
26.038000
70
192
0
VERTEX
8
OBJECT__0
10
12.925000
20
29.764000
30
51.583000
70
192
0
VERTEX
8
OBJECT__0
10
12.925000
20
40.865002
30
43.516998
70
192
0
VERTEX
8
OBJECT__0
10
7.508000
20
21.260000
30
21.260000
70
192
0
VERTEX
8
OBJECT__0
10
12.925000
20
42.053001
30
42.081001
70
192
0
VERTEX
8
OBJECT__0
10
12.925000
20
50.403999
30
31.987000
70
192
0
VERTEX
8
OBJECT__0
10
7.508000
20
26.038000
30
15.033000
70
192
0
VERTEX
8
OBJECT__0
10
12.925000
20
51.462002
30
29.737000
70
192
0
VERTEX
8
OBJECT__0
10
12.925000
20
56.775002
30
18.447001
70
192
0
VERTEX
8
OBJECT__0
10
7.508000
20
29.042000
30
7.782000
70
192
0
VERTEX
8
OBJECT__0
10
12.925000
20
57.358002
30
15.392000
70
192
0
VERTEX
8
OBJECT__0
10
12.925000
20
59.578999
30
3.748000
70
192
0
VERTEX
8
OBJECT__0
10
7.508000
20
30.066999
30
0.000000
70
192
0
VERTEX
8
OBJECT__0
10
12.925000
20
59.344002
30
0.022000
70
192
0
VERTEX
8
OBJECT__0
10
12.925000
20
58.639000
30
-11.186000
70
192
0
VERTEX
8
OBJECT__0
10
7.508000
20
29.042000
30
-7.782000
70
192
0
VERTEX
8
OBJECT__0
10
12.925000
20
57.292999
30
-15.330000
70
192
0
VERTEX
8
OBJECT__0
10
12.925000
20
54.014999
30
-25.417999
70
192
0
VERTEX
8
OBJECT__0
10
7.508000
20
26.038000
30
-15.033000
70
192
0
VERTEX
8
OBJECT__0
10
12.925000
20
51.346001
30
-29.624001
70
192
0
VERTEX
8
OBJECT__0
10
12.925000
20
45.997002
30
-38.051998
70
192
0
VERTEX
8
OBJECT__0
10
7.508000
20
21.260000
30
-21.260000
70
192
0
VERTEX
8
OBJECT__0
10
12.925000
20
41.910000
30
-41.889999
70
192
0
VERTEX
8
OBJECT__0
10
12.925000
20
35.089001
30
-48.296001
70
192
0
VERTEX
8
OBJECT__0
10
7.508000
20
15.033000
30
-26.038000
70
192
0
VERTEX
8
OBJECT__0
10
12.925000
20
29.628000
30
-51.298000
70
192
0
VERTEX
8
OBJECT__0
10
12.925000
20
21.976000
30
-55.505001
70
192
0
VERTEX
8
OBJECT__0
10
7.508000
20
7.782000
30
-29.042000
70
192
0
VERTEX
8
OBJECT__0
10
12.925000
20
15.334000
30
-57.209999
70
192
0
VERTEX
8
OBJECT__0
10
12.925000
20
7.482000
30
-59.226002
70
192
0
VERTEX
8
OBJECT__0
10
12.925000
20
0.000000
30
-59.226002
70
192
0
VERTEX
8
OBJECT__0
10
5.693000
20
0.000000
30
0.000000
70
192
0
VERTEX
8
OBJECT__0
10
0
20
0
30
0
70
128
71
1
72
2
73
3
0
VERTEX
8
OBJECT__0
10
0
20
0
30
0
70
128
71
3
72
4
73
1
0
VERTEX
8
OBJECT__0
10
0
20
0
30
0
70
128
71
5
72
3
73
6
0
VERTEX
8
OBJECT__0
10
0
20
0
30
0
70
128
71
6
72
7
73
5
0
VERTEX
8
OBJECT__0
10
0
20
0
30
0
70
128
71
8
72
6
73
9
0
VERTEX
8
OBJECT__0
10
0
20
0
30
0
70
128
71
9
72
10
73
8
0
VERTEX
8
OBJECT__0
10
0
20
0
30
0
70
128
71
11
72
9
73
12
0
VERTEX
8
OBJECT__0
10
0
20
0
30
0
70
128
71
12
72
13
73
11
0
VERTEX
8
OBJECT__0
10
0
20
0
30
0
70
128
71
14
72
12
73
15
0
VERTEX
8
OBJECT__0
10
0
20
0
30
0
70
128
71
15
72
16
73
14
0
VERTEX
8
OBJECT__0
10
0
20
0
30
0
70
128
71
17
72
15
73
18
0
VERTEX
8
OBJECT__0
10
0
20
0
30
0
70
128
71
18
72
19
73
17
0
VERTEX
8
OBJECT__0
10
0
20
0
30
0
70
128
71
20
72
18
73
21
0
VERTEX
8
OBJECT__0
10
0
20
0
30
0
70
128
71
21
72
22
73
20
0
VERTEX
8
OBJECT__0
10
0
20
0
30
0
70
128
71
23
72
21
73
24
0
VERTEX
8
OBJECT__0
10
0
20
0
30
0
70
128
71
24
72
25
73
23
0
VERTEX
8
OBJECT__0
10
0
20
0
30
0
70
128
71
26
72
24
73
27
0
VERTEX
8
OBJECT__0
10
0
20
0
30
0
70
128
71
27
72
28
73
26
0
VERTEX
8
OBJECT__0
10
0
20
0
30
0
70
128
71
29
72
27
73
30
0
VERTEX
8
OBJECT__0
10
0
20
0
30
0
70
128
71
30
72
31
73
29
0
VERTEX
8
OBJECT__0
10
0
20
0
30
0
70
128
71
32
72
30
73
33
0
VERTEX
8
OBJECT__0
10
0
20
0
30
0
70
128
71
33
72
34
73
32
0
VERTEX
8
OBJECT__0
10
0
20
0
30
0
70
128
71
35
72
33
73
36
0
VERTEX
8
OBJECT__0
10
0
20
0
30
0
70
128
71
36
72
37
73
35
0
VERTEX
8
OBJECT__0
10
0
20
0
30
0
70
128
71
38
72
37
73
36
0
VERTEX
8
OBJECT__0
10
0
20
0
30
0
70
128
71
39
72
40
73
38
0
VERTEX
8
OBJECT__0
10
0
20
0
30
0
70
128
71
41
72
40
73
39
0
VERTEX
8
OBJECT__0
10
0
20
0
30
0
70
128
71
42
72
43
73
41
0
VERTEX
8
OBJECT__0
10
0
20
0
30
0
70
128
71
44
72
43
73
42
0
VERTEX
8
OBJECT__0
10
0
20
0
30
0
70
128
71
45
72
46
73
44
0
VERTEX
8
OBJECT__0
10
0
20
0
30
0
70
128
71
47
72
46
73
45
0
VERTEX
8
OBJECT__0
10
0
20
0
30
0
70
128
71
48
72
49
73
47
0
VERTEX
8
OBJECT__0
10
0
20
0
30
0
70
128
71
50
72
49
73
48
0
VERTEX
8
OBJECT__0
10
0
20
0
30
0
70
128
71
51
72
52
73
50
0
VERTEX
8
OBJECT__0
10
0
20
0
30
0
70
128
71
53
72
52
73
51
0
VERTEX
8
OBJECT__0
10
0
20
0
30
0
70
128
71
54
72
55
73
53
0
VERTEX
8
OBJECT__0
10
0
20
0
30
0
70
128
71
56
72
55
73
54
0
VERTEX
8
OBJECT__0
10
0
20
0
30
0
70
128
71
57
72
58
73
56
0
VERTEX
8
OBJECT__0
10
0
20
0
30
0
70
128
71
59
72
58
73
57
0
VERTEX
8
OBJECT__0
10
0
20
0
30
0
70
128
71
60
72
61
73
59
0
VERTEX
8
OBJECT__0
10
0
20
0
30
0
70
128
71
62
72
61
73
60
0
VERTEX
8
OBJECT__0
10
0
20
0
30
0
70
128
71
63
72
64
73
62
0
VERTEX
8
OBJECT__0
10
0
20
0
30
0
70
128
71
65
72
64
73
63
0
VERTEX
8
OBJECT__0
10
0
20
0
30
0
70
128
71
66
72
67
73
65
0
VERTEX
8
OBJECT__0
10
0
20
0
30
0
70
128
71
68
72
67
73
66
0
VERTEX
8
OBJECT__0
10
0
20
0
30
0
70
128
71
69
72
70
73
68
0
VERTEX
8
OBJECT__0
10
0
20
0
30
0
70
128
71
71
72
70
73
69
0
VERTEX
8
OBJECT__0
10
0
20
0
30
0
70
128
71
2
72
72
73
71
0
VERTEX
8
OBJECT__0
10
0
20
0
30
0
70
128
71
69
72
2
73
71
0
VERTEX
8
OBJECT__0
10
0
20
0
30
0
70
128
71
66
72
69
73
68
0
VERTEX
8
OBJECT__0
10
0
20
0
30
0
70
128
71
63
72
66
73
65
0
VERTEX
8
OBJECT__0
10
0
20
0
30
0
70
128
71
60
72
63
73
62
0
VERTEX
8
OBJECT__0
10
0
20
0
30
0
70
128
71
57
72
60
73
59
0
VERTEX
8
OBJECT__0
10
0
20
0
30
0
70
128
71
54
72
57
73
56
0
VERTEX
8
OBJECT__0
10
0
20
0
30
0
70
128
71
51
72
54
73
53
0
VERTEX
8
OBJECT__0
10
0
20
0
30
0
70
128
71
48
72
51
73
50
0
VERTEX
8
OBJECT__0
10
0
20
0
30
0
70
128
71
45
72
48
73
47
0
VERTEX
8
OBJECT__0
10
0
20
0
30
0
70
128
71
42
72
45
73
44
0
VERTEX
8
OBJECT__0
10
0
20
0
30
0
70
128
71
39
72
42
73
41
0
VERTEX
8
OBJECT__0
10
0
20
0
30
0
70
128
71
36
72
39
73
38
0
VERTEX
8
OBJECT__0
10
0
20
0
30
0
70
128
71
35
72
34
73
33
0
VERTEX
8
OBJECT__0
10
0
20
0
30
0
70
128
71
32
72
31
73
30
0
VERTEX
8
OBJECT__0
10
0
20
0
30
0
70
128
71
29
72
28
73
27
0
VERTEX
8
OBJECT__0
10
0
20
0
30
0
70
128
71
26
72
25
73
24
0
VERTEX
8
OBJECT__0
10
0
20
0
30
0
70
128
71
23
72
22
73
21
0
VERTEX
8
OBJECT__0
10
0
20
0
30
0
70
128
71
20
72
19
73
18
0
VERTEX
8
OBJECT__0
10
0
20
0
30
0
70
128
71
17
72
16
73
15
0
VERTEX
8
OBJECT__0
10
0
20
0
30
0
70
128
71
14
72
13
73
12
0
VERTEX
8
OBJECT__0
10
0
20
0
30
0
70
128
71
11
72
10
73
9
0
VERTEX
8
OBJECT__0
10
0
20
0
30
0
70
128
71
8
72
7
73
6
0
VERTEX
8
OBJECT__0
10
0
20
0
30
0
70
128
71
5
72
4
73
3
0
VERTEX
8
OBJECT__0
10
0
20
0
30
0
70
128
71
1
72
72
73
2
0
VERTEX
8
OBJECT__0
10
0
20
0
30
0
70
128
71
2
72
69
73
73
0
VERTEX
8
OBJECT__0
10
0
20
0
30
0
70
128
71
69
72
66
73
73
0
VERTEX
8
OBJECT__0
10
0
20
0
30
0
70
128
71
66
72
63
73
73
0
VERTEX
8
OBJECT__0
10
0
20
0
30
0
70
128
71
63
72
60
73
73
0
VERTEX
8
OBJECT__0
10
0
20
0
30
0
70
128
71
60
72
57
73
73
0
VERTEX
8
OBJECT__0
10
0
20
0
30
0
70
128
71
57
72
54
73
73
0
VERTEX
8
OBJECT__0
10
0
20
0
30
0
70
128
71
54
72
51
73
73
0
VERTEX
8
OBJECT__0
10
0
20
0
30
0
70
128
71
51
72
48
73
73
0
VERTEX
8
OBJECT__0
10
0
20
0
30
0
70
128
71
48
72
45
73
73
0
VERTEX
8
OBJECT__0
10
0
20
0
30
0
70
128
71
45
72
42
73
73
0
VERTEX
8
OBJECT__0
10
0
20
0
30
0
70
128
71
42
72
39
73
73
0
VERTEX
8
OBJECT__0
10
0
20
0
30
0
70
128
71
39
72
36
73
73
0
VERTEX
8
OBJECT__0
10
0
20
0
30
0
70
128
71
36
72
33
73
73
0
VERTEX
8
OBJECT__0
10
0
20
0
30
0
70
128
71
33
72
30
73
73
0
VERTEX
8
OBJECT__0
10
0
20
0
30
0
70
128
71
30
72
27
73
73
0
VERTEX
8
OBJECT__0
10
0
20
0
30
0
70
128
71
27
72
24
73
73
0
VERTEX
8
OBJECT__0
10
0
20
0
30
0
70
128
71
24
72
21
73
73
0
VERTEX
8
OBJECT__0
10
0
20
0
30
0
70
128
71
21
72
18
73
73
0
VERTEX
8
OBJECT__0
10
0
20
0
30
0
70
128
71
18
72
15
73
73
0
VERTEX
8
OBJECT__0
10
0
20
0
30
0
70
128
71
15
72
12
73
73
0
VERTEX
8
OBJECT__0
10
0
20
0
30
0
70
128
71
12
72
9
73
73
0
VERTEX
8
OBJECT__0
10
0
20
0
30
0
70
128
71
9
72
6
73
73
0
VERTEX
8
OBJECT__0
10
0
20
0
30
0
70
128
71
6
72
3
73
73
0
VERTEX
8
OBJECT__0
10
0
20
0
30
0
70
128
71
3
72
2
73
73
0
SEQEND
8
OBJECT__0
0
POLYLINE
8
OBJECT__1
66
1
70
64
71
99
72
99
62
253
0
VERTEX
8
OBJECT__1
10
12.925000
20
0.000000
30
59.696999
70
192
0
VERTEX
8
OBJECT__1
10
12.925000
20
14.846000
30
57.820999
70
192
0
VERTEX
8
OBJECT__1
10
12.997000
20
13.898000
30
58.580002
70
192
0
VERTEX
8
OBJECT__1
10
12.997000
20
15.005000
30
58.439999
70
192
0
VERTEX
8
OBJECT__1
10
12.925000
20
15.423000
30
57.592999
70
192
0
VERTEX
8
OBJECT__1
10
12.925000
20
28.759001
30
52.313000
70
192
0
VERTEX
8
OBJECT__1
10
12.997000
20
26.990000
30
53.695000
70
192
0
VERTEX
8
OBJECT__1
10
12.997000
20
29.066999
30
52.873001
70
192
0
VERTEX
8
OBJECT__1
10
12.925000
20
29.764000
30
51.583000
70
192
0
VERTEX
8
OBJECT__1
10
12.925000
20
40.865002
30
43.516998
70
192
0
VERTEX
8
OBJECT__1
10
12.997000
20
38.590000
30
45.953999
70
192
0
VERTEX
8
OBJECT__1
10
12.997000
20
41.303001
30
43.983002
70
192
0
VERTEX
8
OBJECT__1
10
12.925000
20
42.053001
30
42.081001
70
192
0
VERTEX
8
OBJECT__1
10
12.925000
20
50.403999
30
31.987000
70
192
0
VERTEX
8
OBJECT__1
10
12.997000
20
48.091000
30
35.777000
70
192
0
VERTEX
8
OBJECT__1
10
12.997000
20
50.943001
30
32.328999
70
192
0
VERTEX
8
OBJECT__1
10
12.925000
20
51.462002
30
29.737000
70
192
0
VERTEX
8
OBJECT__1
10
12.925000
20
56.775002
30
18.447001
70
192
0
VERTEX
8
OBJECT__1
10
12.997000
20
55.000000
30
23.709000
70
192
0
VERTEX
8
OBJECT__1
10
12.997000
20
57.382999
30
18.645000
70
192
0
VERTEX
8
OBJECT__1
10
12.925000
20
59.578999
30
3.748000
70
192
0
VERTEX
8
OBJECT__1
10
12.997000
20
60.216999
30
3.789000
70
192
0
VERTEX
8
OBJECT__1
10
12.997000
20
58.957001
30
10.389000
70
192
0
VERTEX
8
OBJECT__1
10
12.925000
20
57.358002
30
15.392000
70
192
0
VERTEX
8
OBJECT__1
10
12.925000
20
58.639000
30
-11.186000
70
192
0
VERTEX
8
OBJECT__1
10
12.997000
20
59.266998
30
-11.306000
70
192
0
VERTEX
8
OBJECT__1
10
12.997000
20
59.758999
30
-3.478000
70
192
0
VERTEX
8
OBJECT__1
10
12.925000
20
59.344002
30
0.022000
70
192
0
VERTEX
8
OBJECT__1
10
12.925000
20
54.014999
30
-25.417999
70
192
0
VERTEX
8
OBJECT__1
10
12.997000
20
54.592999
30
-25.690001
70
192
0
VERTEX
8
OBJECT__1
10
12.997000
20
57.363998
30
-17.162001
70
192
0
VERTEX
8
OBJECT__1
10
12.925000
20
57.292999
30
-15.330000
70
192
0
VERTEX
8
OBJECT__1
10
12.997000
20
51.895000
30
-29.941000
70
192
0
VERTEX
8
OBJECT__1
10
12.925000
20
51.346001
30
-29.624001
70
192
0
VERTEX
8
OBJECT__1
10
12.925000
20
45.997002
30
-38.051998
70
192
0
VERTEX
8
OBJECT__1
10
12.997000
20
35.464001
30
-48.813000
70
192
0
VERTEX
8
OBJECT__1
10
12.997000
20
43.636002
30
-41.138000
70
192
0
VERTEX
8
OBJECT__1
10
12.925000
20
41.910000
30
-41.889999
70
192
0
VERTEX
8
OBJECT__1
10
12.997000
20
46.488998
30
-38.459000
70
192
0
VERTEX
8
OBJECT__1
10
12.997000
20
22.211000
30
-56.098999
70
192
0
VERTEX
8
OBJECT__1
10
12.997000
20
33.016998
30
-50.158001
70
192
0
VERTEX
8
OBJECT__1
10
12.925000
20
29.628000
30
-51.298000
70
192
0
VERTEX
8
OBJECT__1
10
12.925000
20
35.089001
30
-48.296001
70
192
0
VERTEX
8
OBJECT__1
10
12.997000
20
7.562000
30
-59.860001
70
192
0
VERTEX
8
OBJECT__1
10
12.997000
20
20.589001
30
-56.514999
70
192
0
VERTEX
8
OBJECT__1
10
12.925000
20
15.334000
30
-57.209999
70
192
0
VERTEX
8
OBJECT__1
10
12.925000
20
21.976000
30
-55.505001
70
192
0
VERTEX
8
OBJECT__1
10
12.925000
20
-7.482000
30
-59.226002
70
192
0
VERTEX
8
OBJECT__1
10
12.997000
20
-7.562000
30
-59.860001
70
192
0
VERTEX
8
OBJECT__1
10
12.997000
20
-7.005000
30
-59.860001
70
192
0
VERTEX
8
OBJECT__1
10
12.997000
20
7.005000
30
-59.860001
70
192
0
VERTEX
8
OBJECT__1
10
12.925000
20
7.482000
30
-59.226002
70
192
0
VERTEX
8
OBJECT__1
10
12.925000
20
0.000000
30
-59.226002
70
192
0
VERTEX
8
OBJECT__1
10
12.925000
20
-21.976000
30
-55.505001
70
192
0
VERTEX
8
OBJECT__1
10
12.997000
20
-22.211000
30
-56.098999
70
192
0
VERTEX
8
OBJECT__1
10
12.997000
20
-20.589001
30
-56.514999
70
192
0
VERTEX
8
OBJECT__1
10
12.925000
20
-15.334000
30
-57.209999
70
192
0
VERTEX
8
OBJECT__1
10
12.925000
20
-35.089001
30
-48.296001
70
192
0
VERTEX
8
OBJECT__1
10
12.997000
20
-35.464001
30
-48.813000
70
192
0
VERTEX
8
OBJECT__1
10
12.997000
20
-33.016998
30
-50.158001
70
192
0
VERTEX
8
OBJECT__1
10
12.925000
20
-29.628000
30
-51.298000
70
192
0
VERTEX
8
OBJECT__1
10
12.925000
20
-45.997002
30
-38.051998
70
192
0
VERTEX
8
OBJECT__1
10
12.997000
20
-46.488998
30
-38.459000
70
192
0
VERTEX
8
OBJECT__1
10
12.997000
20
-43.636002
30
-41.138000
70
192
0
VERTEX
8
OBJECT__1
10
12.925000
20
-41.910000
30
-41.889999
70
192
0
VERTEX
8
OBJECT__1
10
12.997000
20
-51.895000
30
-29.941000
70
192
0
VERTEX
8
OBJECT__1
10
12.925000
20
-51.346001
30
-29.624001
70
192
0
VERTEX
8
OBJECT__1
10
12.925000
20
-54.014999
30
-25.417999
70
192
0
VERTEX
8
OBJECT__1
10
12.997000
20
-59.266998
30
-11.306000
70
192
0
VERTEX
8
OBJECT__1
10
12.997000
20
-57.363998
30
-17.162001
70
192
0
VERTEX
8
OBJECT__1
10
12.925000
20
-57.292999
30
-15.330000
70
192
0
VERTEX
8
OBJECT__1
10
12.997000
20
-54.592999
30
-25.690001
70
192
0
VERTEX
8
OBJECT__1
10
12.997000
20
-60.216999
30
3.789000
70
192
0
VERTEX
8
OBJECT__1
10
12.997000
20
-59.758999
30
-3.478000
70
192
0
VERTEX
8
OBJECT__1
10
12.925000
20
-59.344002
30
0.022000
70
192
0
VERTEX
8
OBJECT__1
10
12.925000
20
-58.639000
30
-11.186000
70
192
0
VERTEX
8
OBJECT__1
10
12.925000
20
-59.578999
30
3.748000
70
192
0
VERTEX
8
OBJECT__1
10
12.925000
20
-57.358002
30
15.392000
70
192
0
VERTEX
8
OBJECT__1
10
12.997000
20
-58.957001
30
10.389000
70
192
0
VERTEX
8
OBJECT__1
10
12.997000
20
-57.382999
30
18.645000
70
192
0
VERTEX
8
OBJECT__1
10
12.925000
20
-51.462002
30
29.737000
70
192
0
VERTEX
8
OBJECT__1
10
12.997000
20
-50.943001
30
32.328999
70
192
0
VERTEX
8
OBJECT__1
10
12.997000
20
-55.000000
30
23.709000
70
192
0
VERTEX
8
OBJECT__1
10
12.925000
20
-56.775002
30
18.447001
70
192
0
VERTEX
8
OBJECT__1
10
12.925000
20
-42.053001
30
42.081001
70
192
0
VERTEX
8
OBJECT__1
10
12.997000
20
-41.303001
30
43.983002
70
192
0
VERTEX
8
OBJECT__1
10
12.997000
20
-48.091000
30
35.777000
70
192
0
VERTEX
8
OBJECT__1
10
12.925000
20
-50.403999
30
31.987000
70
192
0
VERTEX
8
OBJECT__1
10
12.925000
20
-29.764000
30
51.583000
70
192
0
VERTEX
8
OBJECT__1
10
12.997000
20
-29.066999
30
52.873001
70
192
0
VERTEX
8
OBJECT__1
10
12.997000
20
-38.590000
30
45.953999
70
192
0
VERTEX
8
OBJECT__1
10
12.925000
20
-40.865002
30
43.516998
70
192
0
VERTEX
8
OBJECT__1
10
12.925000
20
-15.423000
30
57.592999
70
192
0
VERTEX
8
OBJECT__1
10
12.997000
20
-15.005000
30
58.439999
70
192
0
VERTEX
8
OBJECT__1
10
12.997000
20
-26.990000
30
53.695000
70
192
0
VERTEX
8
OBJECT__1
10
12.925000
20
-28.759001
30
52.313000
70
192
0
VERTEX
8
OBJECT__1
10
12.997000
20
0.000000
30
60.335999
70
192
0
VERTEX
8
OBJECT__1
10
12.997000
20
-13.898000
30
58.580002
70
192
0
VERTEX
8
OBJECT__1
10
12.925000
20
-14.846000
30
57.820999
70
192
0
VERTEX
8
OBJECT__1
10
0
20
0
30
0
70
128
71
1
72
2
73
3
0
VERTEX
8
OBJECT__1
10
0
20
0
30
0
70
128
71
2
72
4
73
3
0
VERTEX
8
OBJECT__1
10
0
20
0
30
0
70
128
71
5
72
6
73
7
0
VERTEX
8
OBJECT__1
10
0
20
0
30
0
70
128
71
6
72
8
73
7
0
VERTEX
8
OBJECT__1
10
0
20
0
30
0
70
128
71
4
72
2
73
5
0
VERTEX
8
OBJECT__1
10
0
20
0
30
0
70
128
71
9
72
10
73
11
0
VERTEX
8
OBJECT__1
10
0
20
0
30
0
70
128
71
10
72
12
73
11
0
VERTEX
8
OBJECT__1
10
0
20
0
30
0
70
128
71
8
72
6
73
9
0
VERTEX
8
OBJECT__1
10
0
20
0
30
0
70
128
71
13
72
14
73
15
0
VERTEX
8
OBJECT__1
10
0
20
0
30
0
70
128
71
14
72
16
73
15
0
VERTEX
8
OBJECT__1
10
0
20
0
30
0
70
128
71
12
72
10
73
13
0
VERTEX
8
OBJECT__1
10
0
20
0
30
0
70
128
71
17
72
18
73
19
0
VERTEX
8
OBJECT__1
10
0
20
0
30
0
70
128
71
18
72
20
73
19
0
VERTEX
8
OBJECT__1
10
0
20
0
30
0
70
128
71
16
72
14
73
17
0
VERTEX
8
OBJECT__1
10
0
20
0
30
0
70
128
71
21
72
22
73
23
0
VERTEX
8
OBJECT__1
10
0
20
0
30
0
70
128
71
23
72
24
73
21
0
VERTEX
8
OBJECT__1
10
0
20
0
30
0
70
128
71
20
72
18
73
24
0
VERTEX
8
OBJECT__1
10
0
20
0
30
0
70
128
71
25
72
26
73
27
0
VERTEX
8
OBJECT__1
10
0
20
0
30
0
70
128
71
22
72
21
73
28
0
VERTEX
8
OBJECT__1
10
0
20
0
30
0
70
128
71
28
72
27
73
22
0
VERTEX
8
OBJECT__1
10
0
20
0
30
0
70
128
71
29
72
30
73
31
0
VERTEX
8
OBJECT__1
10
0
20
0
30
0
70
128
71
26
72
25
73
32
0
VERTEX
8
OBJECT__1
10
0
20
0
30
0
70
128
71
32
72
31
73
26
0
VERTEX
8
OBJECT__1
10
0
20
0
30
0
70
128
71
33
72
34
73
35
0
VERTEX
8
OBJECT__1
10
0
20
0
30
0
70
128
71
33
72
30
73
29
0
VERTEX
8
OBJECT__1
10
0
20
0
30
0
70
128
71
29
72
34
73
33
0
VERTEX
8
OBJECT__1
10
0
20
0
30
0
70
128
71
36
72
37
73
38
0
VERTEX
8
OBJECT__1
10
0
20
0
30
0
70
128
71
35
72
38
73
37
0
VERTEX
8
OBJECT__1
10
0
20
0
30
0
70
128
71
37
72
39
73
35
0
VERTEX
8
OBJECT__1
10
0
20
0
30
0
70
128
71
40
72
41
73
42
0
VERTEX
8
OBJECT__1
10
0
20
0
30
0
70
128
71
43
72
42
73
41
0
VERTEX
8
OBJECT__1
10
0
20
0
30
0
70
128
71
41
72
36
73
43
0
VERTEX
8
OBJECT__1
10
0
20
0
30
0
70
128
71
44
72
45
73
46
0
VERTEX
8
OBJECT__1
10
0
20
0
30
0
70
128
71
47
72
46
73
45
0
VERTEX
8
OBJECT__1
10
0
20
0
30
0
70
128
71
45
72
40
73
47
0
VERTEX
8
OBJECT__1
10
0
20
0
30
0
70
128
71
48
72
49
73
50
0
VERTEX
8
OBJECT__1
10
0
20
0
30
0
70
128
71
51
72
52
73
53
0
VERTEX
8
OBJECT__1
10
0
20
0
30
0
70
128
71
53
72
50
73
51
0
VERTEX
8
OBJECT__1
10
0
20
0
30
0
70
128
71
51
72
44
73
52
0
VERTEX
8
OBJECT__1
10
0
20
0
30
0
70
128
71
54
72
55
73
56
0
VERTEX
8
OBJECT__1
10
0
20
0
30
0
70
128
71
49
72
48
73
57
0
VERTEX
8
OBJECT__1
10
0
20
0
30
0
70
128
71
57
72
56
73
49
0
VERTEX
8
OBJECT__1
10
0
20
0
30
0
70
128
71
58
72
59
73
60
0
VERTEX
8
OBJECT__1
10
0
20
0
30
0
70
128
71
55
72
54
73
61
0
VERTEX
8
OBJECT__1
10
0
20
0
30
0
70
128
71
61
72
60
73
55
0
VERTEX
8
OBJECT__1
10
0
20
0
30
0
70
128
71
62
72
63
73
64
0
VERTEX
8
OBJECT__1
10
0
20
0
30
0
70
128
71
59
72
58
73
65
0
VERTEX
8
OBJECT__1
10
0
20
0
30
0
70
128
71
65
72
64
73
59
0
VERTEX
8
OBJECT__1
10
0
20
0
30
0
70
128
71
66
72
67
73
68
0
VERTEX
8
OBJECT__1
10
0
20
0
30
0
70
128
71
66
72
63
73
62
0
VERTEX
8
OBJECT__1
10
0
20
0
30
0
70
128
71
62
72
67
73
66
0
VERTEX
8
OBJECT__1
10
0
20
0
30
0
70
128
71
69
72
70
73
71
0
VERTEX
8
OBJECT__1
10
0
20
0
30
0
70
128
71
68
72
71
73
70
0
VERTEX
8
OBJECT__1
10
0
20
0
30
0
70
128
71
70
72
72
73
68
0
VERTEX
8
OBJECT__1
10
0
20
0
30
0
70
128
71
73
72
74
73
75
0
VERTEX
8
OBJECT__1
10
0
20
0
30
0
70
128
71
76
72
75
73
74
0
VERTEX
8
OBJECT__1
10
0
20
0
30
0
70
128
71
74
72
69
73
76
0
VERTEX
8
OBJECT__1
10
0
20
0
30
0
70
128
71
77
72
78
73
79
0
VERTEX
8
OBJECT__1
10
0
20
0
30
0
70
128
71
78
72
80
73
79
0
VERTEX
8
OBJECT__1
10
0
20
0
30
0
70
128
71
79
72
73
73
77
0
VERTEX
8
OBJECT__1
10
0
20
0
30
0
70
128
71
81
72
82
73
83
0
VERTEX
8
OBJECT__1
10
0
20
0
30
0
70
128
71
83
72
84
73
81
0
VERTEX
8
OBJECT__1
10
0
20
0
30
0
70
128
71
83
72
80
73
84
0
VERTEX
8
OBJECT__1
10
0
20
0
30
0
70
128
71
85
72
86
73
87
0
VERTEX
8
OBJECT__1
10
0
20
0
30
0
70
128
71
87
72
88
73
85
0
VERTEX
8
OBJECT__1
10
0
20
0
30
0
70
128
71
87
72
82
73
88
0
VERTEX
8
OBJECT__1
10
0
20
0
30
0
70
128
71
89
72
90
73
91
0
VERTEX
8
OBJECT__1
10
0
20
0
30
0
70
128
71
91
72
92
73
89
0
VERTEX
8
OBJECT__1
10
0
20
0
30
0
70
128
71
91
72
86
73
92
0
VERTEX
8
OBJECT__1
10
0
20
0
30
0
70
128
71
93
72
94
73
95
0
VERTEX
8
OBJECT__1
10
0
20
0
30
0
70
128
71
95
72
96
73
93
0
VERTEX
8
OBJECT__1
10
0
20
0
30
0
70
128
71
95
72
90
73
96
0
VERTEX
8
OBJECT__1
10
0
20
0
30
0
70
128
71
1
72
97
73
98
0
VERTEX
8
OBJECT__1
10
0
20
0
30
0
70
128
71
98
72
99
73
1
0
VERTEX
8
OBJECT__1
10
0
20
0
30
0
70
128
71
98
72
94
73
99
0
VERTEX
8
OBJECT__1
10
0
20
0
30
0
70
128
71
93
72
99
73
94
0
VERTEX
8
OBJECT__1
10
0
20
0
30
0
70
128
71
89
72
96
73
90
0
VERTEX
8
OBJECT__1
10
0
20
0
30
0
70
128
71
85
72
92
73
86
0
VERTEX
8
OBJECT__1
10
0
20
0
30
0
70
128
71
81
72
88
73
82
0
VERTEX
8
OBJECT__1
10
0
20
0
30
0
70
128
71
78
72
84
73
80
0
VERTEX
8
OBJECT__1
10
0
20
0
30
0
70
128
71
75
72
77
73
73
0
VERTEX
8
OBJECT__1
10
0
20
0
30
0
70
128
71
71
72
76
73
69
0
VERTEX
8
OBJECT__1
10
0
20
0
30
0
70
128
71
68
72
72
73
66
0
VERTEX
8
OBJECT__1
10
0
20
0
30
0
70
128
71
64
72
65
73
62
0
VERTEX
8
OBJECT__1
10
0
20
0
30
0
70
128
71
60
72
61
73
58
0
VERTEX
8
OBJECT__1
10
0
20
0
30
0
70
128
71
56
72
57
73
54
0
VERTEX
8
OBJECT__1
10
0
20
0
30
0
70
128
71
50
72
53
73
48
0
VERTEX
8
OBJECT__1
10
0
20
0
30
0
70
128
71
46
72
52
73
44
0
VERTEX
8
OBJECT__1
10
0
20
0
30
0
70
128
71
42
72
47
73
40
0
VERTEX
8
OBJECT__1
10
0
20
0
30
0
70
128
71
38
72
43
73
36
0
VERTEX
8
OBJECT__1
10
0
20
0
30
0
70
128
71
35
72
39
73
33
0
VERTEX
8
OBJECT__1
10
0
20
0
30
0
70
128
71
31
72
32
73
29
0
VERTEX
8
OBJECT__1
10
0
20
0
30
0
70
128
71
27
72
28
73
25
0
VERTEX
8
OBJECT__1
10
0
20
0
30
0
70
128
71
23
72
20
73
24
0
VERTEX
8
OBJECT__1
10
0
20
0
30
0
70
128
71
19
72
16
73
17
0
VERTEX
8
OBJECT__1
10
0
20
0
30
0
70
128
71
15
72
12
73
13
0
VERTEX
8
OBJECT__1
10
0
20
0
30
0
70
128
71
11
72
8
73
9
0
VERTEX
8
OBJECT__1
10
0
20
0
30
0
70
128
71
7
72
4
73
5
0
VERTEX
8
OBJECT__1
10
0
20
0
30
0
70
128
71
3
72
97
73
1
0
SEQEND
8
OBJECT__1
0
POLYLINE
8
OBJECT__3
66
1
70
64
71
123
72
150
62
253
0
VERTEX
8
OBJECT__3
10
11.266000
20
15.716000
30
66.308998
70
192
0
VERTEX
8
OBJECT__3
10
11.266000
20
0.000000
30
68.146004
70
192
0
VERTEX
8
OBJECT__3
10
12.997000
20
0.000000
30
60.335999
70
192
0
VERTEX
8
OBJECT__3
10
11.266000
20
30.584000
30
60.897999
70
192
0
VERTEX
8
OBJECT__3
10
12.997000
20
15.005000
30
58.439999
70
192
0
VERTEX
8
OBJECT__3
10
12.997000
20
13.898000
30
58.580002
70
192
0
VERTEX
8
OBJECT__3
10
11.266000
20
43.804001
30
52.202999
70
192
0
VERTEX
8
OBJECT__3
10
12.997000
20
29.066999
30
52.873001
70
192
0
VERTEX
8
OBJECT__3
10
12.997000
20
26.990000
30
53.695000
70
192
0
VERTEX
8
OBJECT__3
10
11.266000
20
54.661999
30
40.694000
70
192
0
VERTEX
8
OBJECT__3
10
12.997000
20
41.303001
30
43.983002
70
192
0
VERTEX
8
OBJECT__3
10
12.997000
20
38.590000
30
45.953999
70
192
0
VERTEX
8
OBJECT__3
10
11.266000
20
62.573002
30
26.990999
70
192
0
VERTEX
8
OBJECT__3
10
12.997000
20
50.943001
30
32.328999
70
192
0
VERTEX
8
OBJECT__3
10
12.997000
20
48.091000
30
35.777000
70
192
0
VERTEX
8
OBJECT__3
10
11.266000
20
67.111000
30
11.833000
70
192
0
VERTEX
8
OBJECT__3
10
12.997000
20
57.382999
30
18.645000
70
192
0
VERTEX
8
OBJECT__3
10
12.997000
20
55.000000
30
23.709000
70
192
0
VERTEX
8
OBJECT__3
10
11.266000
20
68.030998
30
-3.962000
70
192
0
VERTEX
8
OBJECT__3
10
12.997000
20
60.216999
30
3.789000
70
192
0
VERTEX
8
OBJECT__3
10
12.997000
20
58.957001
30
10.389000
70
192
0
VERTEX
8
OBJECT__3
10
12.997000
20
59.758999
30
-3.478000
70
192
0
VERTEX
8
OBJECT__3
10
12.997000
20
59.266998
30
-11.306000
70
192
0
VERTEX
8
OBJECT__3
10
11.266000
20
65.282997
30
-19.545000
70
192
0
VERTEX
8
OBJECT__3
10
12.997000
20
57.363998
30
-17.162001
70
192
0
VERTEX
8
OBJECT__3
10
12.997000
20
54.592999
30
-25.690001
70
192
0
VERTEX
8
OBJECT__3
10
11.266000
20
59.015999
30
-34.073002
70
192
0
VERTEX
8
OBJECT__3
10
12.997000
20
51.895000
30
-29.941000
70
192
0
VERTEX
8
OBJECT__3
10
12.997000
20
46.488998
30
-38.459000
70
192
0
VERTEX
8
OBJECT__3
10
11.266000
20
49.568001
30
-46.764999
70
192
0
VERTEX
8
OBJECT__3
10
12.997000
20
43.636002
30
-41.138000
70
192
0
VERTEX
8
OBJECT__3
10
12.997000
20
35.464001
30
-48.813000
70
192
0
VERTEX
8
OBJECT__3
10
11.266000
20
37.446999
30
-56.935001
70
192
0
VERTEX
8
OBJECT__3
10
12.997000
20
33.016998
30
-50.158001
70
192
0
VERTEX
8
OBJECT__3
10
12.997000
20
22.211000
30
-56.098999
70
192
0
VERTEX
8
OBJECT__3
10
11.266000
20
23.306999
30
-64.037003
70
192
0
VERTEX
8
OBJECT__3
10
12.997000
20
20.589001
30
-56.514999
70
192
0
VERTEX
8
OBJECT__3
10
12.997000
20
7.562000
30
-59.860001
70
192
0
VERTEX
8
OBJECT__3
10
11.266000
20
7.911000
30
-67.685997
70
192
0
VERTEX
8
OBJECT__3
10
12.997000
20
7.005000
30
-59.860001
70
192
0
VERTEX
8
OBJECT__3
10
12.997000
20
-7.005000
30
-59.860001
70
192
0
VERTEX
8
OBJECT__3
10
11.266000
20
-23.306999
30
-64.037003
70
192
0
VERTEX
8
OBJECT__3
10
11.266000
20
-7.911000
30
-67.685997
70
192
0
VERTEX
8
OBJECT__3
10
12.997000
20
-7.562000
30
-59.860001
70
192
0
VERTEX
8
OBJECT__3
10
11.266000
20
-37.446999
30
-56.935001
70
192
0
VERTEX
8
OBJECT__3
10
12.997000
20
-22.211000
30
-56.098999
70
192
0
VERTEX
8
OBJECT__3
10
12.997000
20
-20.589001
30
-56.514999
70
192
0
VERTEX
8
OBJECT__3
10
11.266000
20
-49.568001
30
-46.764999
70
192
0
VERTEX
8
OBJECT__3
10
12.997000
20
-35.464001
30
-48.813000
70
192
0
VERTEX
8
OBJECT__3
10
12.997000
20
-33.016998
30
-50.158001
70
192
0
VERTEX
8
OBJECT__3
10
11.266000
20
-59.015999
30
-34.073002
70
192
0
VERTEX
8
OBJECT__3
10
12.997000
20
-46.488998
30
-38.459000
70
192
0
VERTEX
8
OBJECT__3
10
12.997000
20
-43.636002
30
-41.138000
70
192
0
VERTEX
8
OBJECT__3
10
11.266000
20
-65.282997
30
-19.545000
70
192
0
VERTEX
8
OBJECT__3
10
12.997000
20
-54.592999
30
-25.690001
70
192
0
VERTEX
8
OBJECT__3
10
12.997000
20
-51.895000
30
-29.941000
70
192
0
VERTEX
8
OBJECT__3
10
11.266000
20
-68.030998
30
-3.962000
70
192
0
VERTEX
8
OBJECT__3
10
12.997000
20
-59.266998
30
-11.306000
70
192
0
VERTEX
8
OBJECT__3
10
12.997000
20
-57.363998
30
-17.162001
70
192
0
VERTEX
8
OBJECT__3
10
12.997000
20
-59.758999
30
-3.478000
70
192
0
VERTEX
8
OBJECT__3
10
12.997000
20
-60.216999
30
3.789000
70
192
0
VERTEX
8
OBJECT__3
10
11.266000
20
-67.111000
30
11.833000
70
192
0
VERTEX
8
OBJECT__3
10
12.997000
20
-58.957001
30
10.389000
70
192
0
VERTEX
8
OBJECT__3
10
12.997000
20
-57.382999
30
18.645000
70
192
0
VERTEX
8
OBJECT__3
10
11.266000
20
-62.573002
30
26.990999
70
192
0
VERTEX
8
OBJECT__3
10
12.997000
20
-55.000000
30
23.709000
70
192
0
VERTEX
8
OBJECT__3
10
12.997000
20
-50.943001
30
32.328999
70
192
0
VERTEX
8
OBJECT__3
10
11.266000
20
-54.661999
30
40.694000
70
192
0
VERTEX
8
OBJECT__3
10
12.997000
20
-48.091000
30
35.777000
70
192
0
VERTEX
8
OBJECT__3
10
12.997000
20
-41.303001
30
43.983002
70
192
0
VERTEX
8
OBJECT__3
10
11.266000
20
-43.804001
30
52.202999
70
192
0
VERTEX
8
OBJECT__3
10
12.997000
20
-38.590000
30
45.953999
70
192
0
VERTEX
8
OBJECT__3
10
12.997000
20
-29.066999
30
52.873001
70
192
0
VERTEX
8
OBJECT__3
10
11.266000
20
-30.584000
30
60.897999
70
192
0
VERTEX
8
OBJECT__3
10
12.997000
20
-26.990000
30
53.695000
70
192
0
VERTEX
8
OBJECT__3
10
12.997000
20
-15.005000
30
58.439999
70
192
0
VERTEX
8
OBJECT__3
10
11.266000
20
-15.716000
30
66.308998
70
192
0
VERTEX
8
OBJECT__3
10
12.997000
20
-13.898000
30
58.580002
70
192
0
VERTEX
8
OBJECT__3
10
6.612000
20
17.216000
30
72.640999
70
192
0
VERTEX
8
OBJECT__3
10
6.612000
20
0.000000
30
74.653999
70
192
0
VERTEX
8
OBJECT__3
10
6.612000
20
33.504002
30
66.712997
70
192
0
VERTEX
8
OBJECT__3
10
6.612000
20
24.072001
30
70.146004
70
192
0
VERTEX
8
OBJECT__3
10
6.612000
20
45.706001
30
58.688000
70
192
0
VERTEX
8
OBJECT__3
10
6.612000
20
47.986000
30
57.188000
70
192
0
VERTEX
8
OBJECT__3
10
6.612000
20
59.881001
30
44.580002
70
192
0
VERTEX
8
OBJECT__3
10
6.612000
20
68.547997
30
29.569000
70
192
0
VERTEX
8
OBJECT__3
10
6.612000
20
62.158001
30
40.636002
70
192
0
VERTEX
8
OBJECT__3
10
6.612000
20
71.950996
30
18.201000
70
192
0
VERTEX
8
OBJECT__3
10
6.612000
20
73.518997
30
12.963000
70
192
0
VERTEX
8
OBJECT__3
10
6.612000
20
74.527000
30
-4.341000
70
192
0
VERTEX
8
OBJECT__3
10
6.612000
20
71.516998
30
-21.410999
70
192
0
VERTEX
8
OBJECT__3
10
6.612000
20
74.210999
30
-6.132000
70
192
0
VERTEX
8
OBJECT__3
10
6.612000
20
67.903000
30
-29.789000
70
192
0
VERTEX
8
OBJECT__3
10
6.612000
20
64.652000
30
-37.327000
70
192
0
VERTEX
8
OBJECT__3
10
6.612000
20
54.844002
30
-50.500999
70
192
0
VERTEX
8
OBJECT__3
10
6.612000
20
54.300999
30
-51.230000
70
192
0
VERTEX
8
OBJECT__3
10
6.612000
20
25.533001
30
-70.151001
70
192
0
VERTEX
8
OBJECT__3
10
6.612000
20
35.320000
30
-65.236000
70
192
0
VERTEX
8
OBJECT__3
10
6.612000
20
12.210000
30
-73.308998
70
192
0
VERTEX
8
OBJECT__3
10
6.612000
20
8.667000
30
-74.149002
70
192
0
VERTEX
8
OBJECT__3
10
6.612000
20
-8.667000
30
-74.149002
70
192
0
VERTEX
8
OBJECT__3
10
6.612000
20
-25.533001
30
-70.151001
70
192
0
VERTEX
8
OBJECT__3
10
6.612000
20
-12.210000
30
-73.308998
70
192
0
VERTEX
8
OBJECT__3
10
6.612000
20
-35.320000
30
-65.236000
70
192
0
VERTEX
8
OBJECT__3
10
6.612000
20
-41.022999
30
-62.372002
70
192
0
VERTEX
8
OBJECT__3
10
6.612000
20
-54.300999
30
-51.230000
70
192
0
VERTEX
8
OBJECT__3
10
6.612000
20
-54.844002
30
-50.500999
70
192
0
VERTEX
8
OBJECT__3
10
6.612000
20
-64.652000
30
-37.327000
70
192
0
VERTEX
8
OBJECT__3
10
6.612000
20
-71.516998
30
-21.410999
70
192
0
VERTEX
8
OBJECT__3
10
6.612000
20
-67.903000
30
-29.789000
70
192
0
VERTEX
8
OBJECT__3
10
6.612000
20
-74.210999
30
-6.132000
70
192
0
VERTEX
8
OBJECT__3
10
6.612000
20
-74.527000
30
-4.341000
70
192
0
VERTEX
8
OBJECT__3
10
6.612000
20
-73.518997
30
12.963000
70
192
0
VERTEX
8
OBJECT__3
10
6.612000
20
-68.547997
30
29.569000
70
192
0
VERTEX
8
OBJECT__3
10
6.612000
20
-71.950996
30
18.201000
70
192
0
VERTEX
8
OBJECT__3
10
6.612000
20
-62.158001
30
40.636002
70
192
0
VERTEX
8
OBJECT__3
10
6.612000
20
-59.881001
30
44.580002
70
192
0
VERTEX
8
OBJECT__3
10
6.612000
20
-47.986000
30
57.188000
70
192
0
VERTEX
8
OBJECT__3
10
6.612000
20
-33.504002
30
66.712997
70
192
0
VERTEX
8
OBJECT__3
10
6.612000
20
-45.706001
30
58.688000
70
192
0
VERTEX
8
OBJECT__3
10
6.612000
20
-24.072001
30
70.146004
70
192
0
VERTEX
8
OBJECT__3
10
6.612000
20
-17.216000
30
72.640999
70
192
0
VERTEX
8
OBJECT__3
10
6.612000
20
41.022999
30
-62.372002
70
192
0
VERTEX
8
OBJECT__3
10
0
20
0
30
0
70
128
71
1
72
2
73
3
0
VERTEX
8
OBJECT__3
10
0
20
0
30
0
70
128
71
4
72
1
73
5
0
VERTEX
8
OBJECT__3
10
0
20
0
30
0
70
128
71
1
72
6
73
5
0
VERTEX
8
OBJECT__3
10
0
20
0
30
0
70
128
71
7
72
4
73
8
0
VERTEX
8
OBJECT__3
10
0
20
0
30
0
70
128
71
4
72
9
73
8
0
VERTEX
8
OBJECT__3
10
0
20
0
30
0
70
128
71
10
72
7
73
11
0
VERTEX
8
OBJECT__3
10
0
20
0
30
0
70
128
71
7
72
12
73
11
0
VERTEX
8
OBJECT__3
10
0
20
0
30
0
70
128
71
13
72
10
73
14
0
VERTEX
8
OBJECT__3
10
0
20
0
30
0
70
128
71
10
72
15
73
14
0
VERTEX
8
OBJECT__3
10
0
20
0
30
0
70
128
71
16
72
13
73
17
0
VERTEX
8
OBJECT__3
10
0
20
0
30
0
70
128
71
13
72
18
73
17
0
VERTEX
8
OBJECT__3
10
0
20
0
30
0
70
128
71
19
72
16
73
20
0
VERTEX
8
OBJECT__3
10
0
20
0
30
0
70
128
71
16
72
21
73
20
0
VERTEX
8
OBJECT__3
10
0
20
0
30
0
70
128
71
19
72
22
73
23
0
VERTEX
8
OBJECT__3
10
0
20
0
30
0
70
128
71
23
72
24
73
19
0
VERTEX
8
OBJECT__3
10
0
20
0
30
0
70
128
71
24
72
25
73
26
0
VERTEX
8
OBJECT__3
10
0
20
0
30
0
70
128
71
26
72
27
73
24
0
VERTEX
8
OBJECT__3
10
0
20
0
30
0
70
128
71
27
72
28
73
29
0
VERTEX
8
OBJECT__3
10
0
20
0
30
0
70
128
71
29
72
30
73
27
0
VERTEX
8
OBJECT__3
10
0
20
0
30
0
70
128
71
30
72
31
73
32
0
VERTEX
8
OBJECT__3
10
0
20
0
30
0
70
128
71
32
72
33
73
30
0
VERTEX
8
OBJECT__3
10
0
20
0
30
0
70
128
71
33
72
34
73
35
0
VERTEX
8
OBJECT__3
10
0
20
0
30
0
70
128
71
35
72
36
73
33
0
VERTEX
8
OBJECT__3
10
0
20
0
30
0
70
128
71
36
72
37
73
38
0
VERTEX
8
OBJECT__3
10
0
20
0
30
0
70
128
71
38
72
39
73
36
0
VERTEX
8
OBJECT__3
10
0
20
0
30
0
70
128
71
39
72
40
73
41
0
VERTEX
8
OBJECT__3
10
0
20
0
30
0
70
128
71
42
72
43
73
44
0
VERTEX
8
OBJECT__3
10
0
20
0
30
0
70
128
71
43
72
41
73
44
0
VERTEX
8
OBJECT__3
10
0
20
0
30
0
70
128
71
45
72
42
73
46
0
VERTEX
8
OBJECT__3
10
0
20
0
30
0
70
128
71
42
72
47
73
46
0
VERTEX
8
OBJECT__3
10
0
20
0
30
0
70
128
71
48
72
45
73
49
0
VERTEX
8
OBJECT__3
10
0
20
0
30
0
70
128
71
45
72
50
73
49
0
VERTEX
8
OBJECT__3
10
0
20
0
30
0
70
128
71
51
72
48
73
52
0
VERTEX
8
OBJECT__3
10
0
20
0
30
0
70
128
71
48
72
53
73
52
0
VERTEX
8
OBJECT__3
10
0
20
0
30
0
70
128
71
54
72
51
73
55
0
VERTEX
8
OBJECT__3
10
0
20
0
30
0
70
128
71
51
72
56
73
55
0
VERTEX
8
OBJECT__3
10
0
20
0
30
0
70
128
71
57
72
54
73
58
0
VERTEX
8
OBJECT__3
10
0
20
0
30
0
70
128
71
54
72
59
73
58
0
VERTEX
8
OBJECT__3
10
0
20
0
30
0
70
128
71
57
72
60
73
61
0
VERTEX
8
OBJECT__3
10
0
20
0
30
0
70
128
71
61
72
62
73
57
0
VERTEX
8
OBJECT__3
10
0
20
0
30
0
70
128
71
62
72
63
73
64
0
VERTEX
8
OBJECT__3
10
0
20
0
30
0
70
128
71
64
72
65
73
62
0
VERTEX
8
OBJECT__3
10
0
20
0
30
0
70
128
71
65
72
66
73
67
0
VERTEX
8
OBJECT__3
10
0
20
0
30
0
70
128
71
67
72
68
73
65
0
VERTEX
8
OBJECT__3
10
0
20
0
30
0
70
128
71
68
72
69
73
70
0
VERTEX
8
OBJECT__3
10
0
20
0
30
0
70
128
71
70
72
71
73
68
0
VERTEX
8
OBJECT__3
10
0
20
0
30
0
70
128
71
71
72
72
73
73
0
VERTEX
8
OBJECT__3
10
0
20
0
30
0
70
128
71
73
72
74
73
71
0
VERTEX
8
OBJECT__3
10
0
20
0
30
0
70
128
71
74
72
75
73
76
0
VERTEX
8
OBJECT__3
10
0
20
0
30
0
70
128
71
76
72
77
73
74
0
VERTEX
8
OBJECT__3
10
0
20
0
30
0
70
128
71
77
72
78
73
3
0
VERTEX
8
OBJECT__3
10
0
20
0
30
0
70
128
71
79
72
80
73
2
0
VERTEX
8
OBJECT__3
10
0
20
0
30
0
70
128
71
4
72
81
73
82
0
VERTEX
8
OBJECT__3
10
0
20
0
30
0
70
128
71
82
72
1
73
4
0
VERTEX
8
OBJECT__3
10
0
20
0
30
0
70
128
71
4
72
7
73
83
0
VERTEX
8
OBJECT__3
10
0
20
0
30
0
70
128
71
7
72
84
73
83
0
VERTEX
8
OBJECT__3
10
0
20
0
30
0
70
128
71
85
72
84
73
7
0
VERTEX
8
OBJECT__3
10
0
20
0
30
0
70
128
71
13
72
86
73
87
0
VERTEX
8
OBJECT__3
10
0
20
0
30
0
70
128
71
87
72
10
73
13
0
VERTEX
8
OBJECT__3
10
0
20
0
30
0
70
128
71
13
72
16
73
88
0
VERTEX
8
OBJECT__3
10
0
20
0
30
0
70
128
71
16
72
89
73
88
0
VERTEX
8
OBJECT__3
10
0
20
0
30
0
70
128
71
90
72
89
73
16
0
VERTEX
8
OBJECT__3
10
0
20
0
30
0
70
128
71
24
72
91
73
92
0
VERTEX
8
OBJECT__3
10
0
20
0
30
0
70
128
71
92
72
19
73
24
0
VERTEX
8
OBJECT__3
10
0
20
0
30
0
70
128
71
24
72
27
73
93
0
VERTEX
8
OBJECT__3
10
0
20
0
30
0
70
128
71
27
72
94
73
93
0
VERTEX
8
OBJECT__3
10
0
20
0
30
0
70
128
71
95
72
94
73
27
0
VERTEX
8
OBJECT__3
10
0
20
0
30
0
70
128
71
30
72
96
73
95
0
VERTEX
8
OBJECT__3
10
0
20
0
30
0
70
128
71
96
72
30
73
33
0
VERTEX
8
OBJECT__3
10
0
20
0
30
0
70
128
71
36
72
97
73
98
0
VERTEX
8
OBJECT__3
10
0
20
0
30
0
70
128
71
98
72
33
73
36
0
VERTEX
8
OBJECT__3
10
0
20
0
30
0
70
128
71
36
72
39
73
99
0
VERTEX
8
OBJECT__3
10
0
20
0
30
0
70
128
71
39
72
100
73
99
0
VERTEX
8
OBJECT__3
10
0
20
0
30
0
70
128
71
101
72
100
73
39
0
VERTEX
8
OBJECT__3
10
0
20
0
30
0
70
128
71
42
72
102
73
103
0
VERTEX
8
OBJECT__3
10
0
20
0
30
0
70
128
71
103
72
43
73
42
0
VERTEX
8
OBJECT__3
10
0
20
0
30
0
70
128
71
42
72
45
73
104
0
VERTEX
8
OBJECT__3
10
0
20
0
30
0
70
128
71
45
72
105
73
104
0
VERTEX
8
OBJECT__3
10
0
20
0
30
0
70
128
71
106
72
105
73
45
0
VERTEX
8
OBJECT__3
10
0
20
0
30
0
70
128
71
107
72
48
73
51
0
VERTEX
8
OBJECT__3
10
0
20
0
30
0
70
128
71
51
72
108
73
107
0
VERTEX
8
OBJECT__3
10
0
20
0
30
0
70
128
71
54
72
109
73
110
0
VERTEX
8
OBJECT__3
10
0
20
0
30
0
70
128
71
110
72
51
73
54
0
VERTEX
8
OBJECT__3
10
0
20
0
30
0
70
128
71
54
72
57
73
111
0
VERTEX
8
OBJECT__3
10
0
20
0
30
0
70
128
71
57
72
112
73
111
0
VERTEX
8
OBJECT__3
10
0
20
0
30
0
70
128
71
113
72
112
73
57
0
VERTEX
8
OBJECT__3
10
0
20
0
30
0
70
128
71
65
72
114
73
115
0
VERTEX
8
OBJECT__3
10
0
20
0
30
0
70
128
71
115
72
62
73
65
0
VERTEX
8
OBJECT__3
10
0
20
0
30
0
70
128
71
65
72
68
73
116
0
VERTEX
8
OBJECT__3
10
0
20
0
30
0
70
128
71
68
72
117
73
116
0
VERTEX
8
OBJECT__3
10
0
20
0
30
0
70
128
71
118
72
117
73
68
0
VERTEX
8
OBJECT__3
10
0
20
0
30
0
70
128
71
74
72
119
73
120
0
VERTEX
8
OBJECT__3
10
0
20
0
30
0
70
128
71
120
72
71
73
74
0
VERTEX
8
OBJECT__3
10
0
20
0
30
0
70
128
71
74
72
77
73
121
0
VERTEX
8
OBJECT__3
10
0
20
0
30
0
70
128
71
77
72
122
73
121
0
VERTEX
8
OBJECT__3
10
0
20
0
30
0
70
128
71
122
72
77
73
2
0
VERTEX
8
OBJECT__3
10
0
20
0
30
0
70
128
71
2
72
80
73
122
0
VERTEX
8
OBJECT__3
10
0
20
0
30
0
70
128
71
121
72
119
73
74
0
VERTEX
8
OBJECT__3
10
0
20
0
30
0
70
128
71
120
72
118
73
71
0
VERTEX
8
OBJECT__3
10
0
20
0
30
0
70
128
71
68
72
71
73
118
0
VERTEX
8
OBJECT__3
10
0
20
0
30
0
70
128
71
116
72
114
73
65
0
VERTEX
8
OBJECT__3
10
0
20
0
30
0
70
128
71
115
72
113
73
62
0
VERTEX
8
OBJECT__3
10
0
20
0
30
0
70
128
71
57
72
62
73
113
0
VERTEX
8
OBJECT__3
10
0
20
0
30
0
70
128
71
111
72
109
73
54
0
VERTEX
8
OBJECT__3
10
0
20
0
30
0
70
128
71
110
72
108
73
51
0
VERTEX
8
OBJECT__3
10
0
20
0
30
0
70
128
71
107
72
106
73
48
0
VERTEX
8
OBJECT__3
10
0
20
0
30
0
70
128
71
45
72
48
73
106
0
VERTEX
8
OBJECT__3
10
0
20
0
30
0
70
128
71
104
72
102
73
42
0
VERTEX
8
OBJECT__3
10
0
20
0
30
0
70
128
71
103
72
101
73
43
0
VERTEX
8
OBJECT__3
10
0
20
0
30
0
70
128
71
39
72
43
73
101
0
VERTEX
8
OBJECT__3
10
0
20
0
30
0
70
128
71
99
72
97
73
36
0
VERTEX
8
OBJECT__3
10
0
20
0
30
0
70
128
71
98
72
123
73
33
0
VERTEX
8
OBJECT__3
10
0
20
0
30
0
70
128
71
33
72
123
73
96
0
VERTEX
8
OBJECT__3
10
0
20
0
30
0
70
128
71
27
72
30
73
95
0
VERTEX
8
OBJECT__3
10
0
20
0
30
0
70
128
71
93
72
91
73
24
0
VERTEX
8
OBJECT__3
10
0
20
0
30
0
70
128
71
92
72
90
73
19
0
VERTEX
8
OBJECT__3
10
0
20
0
30
0
70
128
71
16
72
19
73
90
0
VERTEX
8
OBJECT__3
10
0
20
0
30
0
70
128
71
88
72
86
73
13
0
VERTEX
8
OBJECT__3
10
0
20
0
30
0
70
128
71
87
72
85
73
10
0
VERTEX
8
OBJECT__3
10
0
20
0
30
0
70
128
71
7
72
10
73
85
0
VERTEX
8
OBJECT__3
10
0
20
0
30
0
70
128
71
83
72
81
73
4
0
VERTEX
8
OBJECT__3
10
0
20
0
30
0
70
128
71
82
72
79
73
1
0
VERTEX
8
OBJECT__3
10
0
20
0
30
0
70
128
71
2
72
1
73
79
0
VERTEX
8
OBJECT__3
10
0
20
0
30
0
70
128
71
3
72
2
73
77
0
VERTEX
8
OBJECT__3
10
0
20
0
30
0
70
128
71
76
72
78
73
77
0
VERTEX
8
OBJECT__3
10
0
20
0
30
0
70
128
71
73
72
75
73
74
0
VERTEX
8
OBJECT__3
10
0
20
0
30
0
70
128
71
70
72
72
73
71
0
VERTEX
8
OBJECT__3
10
0
20
0
30
0
70
128
71
67
72
69
73
68
0
VERTEX
8
OBJECT__3
10
0
20
0
30
0
70
128
71
64
72
66
73
65
0
VERTEX
8
OBJECT__3
10
0
20
0
30
0
70
128
71
61
72
63
73
62
0
VERTEX
8
OBJECT__3
10
0
20
0
30
0
70
128
71
58
72
60
73
57
0
VERTEX
8
OBJECT__3
10
0
20
0
30
0
70
128
71
55
72
59
73
54
0
VERTEX
8
OBJECT__3
10
0
20
0
30
0
70
128
71
52
72
56
73
51
0
VERTEX
8
OBJECT__3
10
0
20
0
30
0
70
128
71
49
72
53
73
48
0
VERTEX
8
OBJECT__3
10
0
20
0
30
0
70
128
71
46
72
50
73
45
0
VERTEX
8
OBJECT__3
10
0
20
0
30
0
70
128
71
44
72
47
73
42
0
VERTEX
8
OBJECT__3
10
0
20
0
30
0
70
128
71
41
72
43
73
39
0
VERTEX
8
OBJECT__3
10
0
20
0
30
0
70
128
71
38
72
40
73
39
0
VERTEX
8
OBJECT__3
10
0
20
0
30
0
70
128
71
35
72
37
73
36
0
VERTEX
8
OBJECT__3
10
0
20
0
30
0
70
128
71
32
72
34
73
33
0
VERTEX
8
OBJECT__3
10
0
20
0
30
0
70
128
71
29
72
31
73
30
0
VERTEX
8
OBJECT__3
10
0
20
0
30
0
70
128
71
26
72
28
73
27
0
VERTEX
8
OBJECT__3
10
0
20
0
30
0
70
128
71
23
72
25
73
24
0
VERTEX
8
OBJECT__3
10
0
20
0
30
0
70
128
71
20
72
22
73
19
0
VERTEX
8
OBJECT__3
10
0
20
0
30
0
70
128
71
17
72
21
73
16
0
VERTEX
8
OBJECT__3
10
0
20
0
30
0
70
128
71
14
72
18
73
13
0
VERTEX
8
OBJECT__3
10
0
20
0
30
0
70
128
71
11
72
15
73
10
0
VERTEX
8
OBJECT__3
10
0
20
0
30
0
70
128
71
8
72
12
73
7
0
VERTEX
8
OBJECT__3
10
0
20
0
30
0
70
128
71
5
72
9
73
4
0
VERTEX
8
OBJECT__3
10
0
20
0
30
0
70
128
71
3
72
6
73
1
0
SEQEND
8
OBJECT__3
0
POLYLINE
8
OBJECT__4
66
1
70
64
71
64
72
64
62
253
0
VERTEX
8
OBJECT__4
10
0.000000
20
0.000000
30
75.000000
70
192
0
VERTEX
8
OBJECT__4
10
6.612000
20
0.000000
30
74.653999
70
192
0
VERTEX
8
OBJECT__4
10
6.612000
20
17.216000
30
72.640999
70
192
0
VERTEX
8
OBJECT__4
10
0.000000
20
24.351999
30
70.935997
70
192
0
VERTEX
8
OBJECT__4
10
0.000000
20
46.066002
30
59.186001
70
192
0
VERTEX
8
OBJECT__4
10
6.612000
20
33.504002
30
66.712997
70
192
0
VERTEX
8
OBJECT__4
10
6.612000
20
24.072001
30
70.146004
70
192
0
VERTEX
8
OBJECT__4
10
6.612000
20
47.986000
30
57.188000
70
192
0
VERTEX
8
OBJECT__4
10
6.612000
20
59.881001
30
44.580002
70
192
0
VERTEX
8
OBJECT__4
10
0.000000
20
62.786999
30
41.021000
70
192
0
VERTEX
8
OBJECT__4
10
6.612000
20
45.706001
30
58.688000
70
192
0
VERTEX
8
OBJECT__4
10
6.612000
20
62.158001
30
40.636002
70
192
0
VERTEX
8
OBJECT__4
10
6.612000
20
68.547997
30
29.569000
70
192
0
VERTEX
8
OBJECT__4
10
0.000000
20
72.705002
30
18.410999
70
192
0
VERTEX
8
OBJECT__4
10
0.000000
20
74.744003
30
-6.193000
70
192
0
VERTEX
8
OBJECT__4
10
6.612000
20
73.518997
30
12.963000
70
192
0
VERTEX
8
OBJECT__4
10
6.612000
20
71.950996
30
18.201000
70
192
0
VERTEX
8
OBJECT__4
10
6.612000
20
74.527000
30
-4.341000
70
192
0
VERTEX
8
OBJECT__4
10
6.612000
20
74.210999
30
-6.132000
70
192
0
VERTEX
8
OBJECT__4
10
6.612000
20
71.516998
30
-21.410999
70
192
0
VERTEX
8
OBJECT__4
10
0.000000
20
68.682999
30
-30.127001
70
192
0
VERTEX
8
OBJECT__4
10
0.000000
20
55.179001
30
-50.796001
70
192
0
VERTEX
8
OBJECT__4
10
6.612000
20
64.652000
30
-37.327000
70
192
0
VERTEX
8
OBJECT__4
10
6.612000
20
67.903000
30
-29.789000
70
192
0
VERTEX
8
OBJECT__4
10
6.612000
20
54.300999
30
-51.230000
70
192
0
VERTEX
8
OBJECT__4
10
6.612000
20
41.022999
30
-62.372002
70
192
0
VERTEX
8
OBJECT__4
10
0.000000
20
35.695999
30
-65.960999
70
192
0
VERTEX
8
OBJECT__4
10
6.612000
20
54.844002
30
-50.500999
70
192
0
VERTEX
8
OBJECT__4
10
0.000000
20
12.345000
30
-73.976997
70
192
0
VERTEX
8
OBJECT__4
10
6.612000
20
25.533001
30
-70.151001
70
192
0
VERTEX
8
OBJECT__4
10
6.612000
20
35.320000
30
-65.236000
70
192
0
VERTEX
8
OBJECT__4
10
6.612000
20
8.667000
30
-74.149002
70
192
0
VERTEX
8
OBJECT__4
10
6.612000
20
-8.667000
30
-74.149002
70
192
0
VERTEX
8
OBJECT__4
10
0.000000
20
-12.345000
30
-73.976997
70
192
0
VERTEX
8
OBJECT__4
10
6.612000
20
12.210000
30
-73.308998
70
192
0
VERTEX
8
OBJECT__4
10
6.612000
20
-12.210000
30
-73.308998
70
192
0
VERTEX
8
OBJECT__4
10
6.612000
20
-25.533001
30
-70.151001
70
192
0
VERTEX
8
OBJECT__4
10
0.000000
20
-35.695999
30
-65.960999
70
192
0
VERTEX
8
OBJECT__4
10
0.000000
20
-55.179001
30
-50.796001
70
192
0
VERTEX
8
OBJECT__4
10
6.612000
20
-41.022999
30
-62.372002
70
192
0
VERTEX
8
OBJECT__4
10
6.612000
20
-35.320000
30
-65.236000
70
192
0
VERTEX
8
OBJECT__4
10
6.612000
20
-54.300999
30
-51.230000
70
192
0
VERTEX
8
OBJECT__4
10
6.612000
20
-54.844002
30
-50.500999
70
192
0
VERTEX
8
OBJECT__4
10
6.612000
20
-64.652000
30
-37.327000
70
192
0
VERTEX
8
OBJECT__4
10
0.000000
20
-68.682999
30
-30.127001
70
192
0
VERTEX
8
OBJECT__4
10
0.000000
20
-74.744003
30
-6.193000
70
192
0
VERTEX
8
OBJECT__4
10
6.612000
20
-71.516998
30
-21.410999
70
192
0
VERTEX
8
OBJECT__4
10
6.612000
20
-67.903000
30
-29.789000
70
192
0
VERTEX
8
OBJECT__4
10
6.612000
20
-74.527000
30
-4.341000
70
192
0
VERTEX
8
OBJECT__4
10
6.612000
20
-73.518997
30
12.963000
70
192
0
VERTEX
8
OBJECT__4
10
0.000000
20
-72.705002
30
18.410999
70
192
0
VERTEX
8
OBJECT__4
10
6.612000
20
-74.210999
30
-6.132000
70
192
0
VERTEX
8
OBJECT__4
10
0.000000
20
-62.786999
30
41.021000
70
192
0
VERTEX
8
OBJECT__4
10
6.612000
20
-68.547997
30
29.569000
70
192
0
VERTEX
8
OBJECT__4
10
6.612000
20
-71.950996
30
18.201000
70
192
0
VERTEX
8
OBJECT__4
10
0.000000
20
-46.066002
30
59.186001
70
192
0
VERTEX
8
OBJECT__4
10
6.612000
20
-59.881001
30
44.580002
70
192
0
VERTEX
8
OBJECT__4
10
6.612000
20
-62.158001
30
40.636002
70
192
0
VERTEX
8
OBJECT__4
10
6.612000
20
-47.986000
30
57.188000
70
192
0
VERTEX
8
OBJECT__4
10
6.612000
20
-45.706001
30
58.688000
70
192
0
VERTEX
8
OBJECT__4
10
6.612000
20
-33.504002
30
66.712997
70
192
0
VERTEX
8
OBJECT__4
10
0.000000
20
-24.351999
30
70.935997
70
192
0
VERTEX
8
OBJECT__4
10
6.612000
20
-17.216000
30
72.640999
70
192
0
VERTEX
8
OBJECT__4
10
6.612000
20
-24.072001
30
70.146004
70
192
0
VERTEX
8
OBJECT__4
10
0
20
0
30
0
70
128
71
1
72
2
73
3
0
VERTEX
8
OBJECT__4
10
0
20
0
30
0
70
128
71
3
72
4
73
1
0
VERTEX
8
OBJECT__4
10
0
20
0
30
0
70
128
71
5
72
4
73
6
0
VERTEX
8
OBJECT__4
10
0
20
0
30
0
70
128
71
4
72
7
73
6
0
VERTEX
8
OBJECT__4
10
0
20
0
30
0
70
128
71
5
72
8
73
9
0
VERTEX
8
OBJECT__4
10
0
20
0
30
0
70
128
71
9
72
10
73
5
0
VERTEX
8
OBJECT__4
10
0
20
0
30
0
70
128
71
5
72
11
73
8
0
VERTEX
8
OBJECT__4
10
0
20
0
30
0
70
128
71
10
72
12
73
13
0
VERTEX
8
OBJECT__4
10
0
20
0
30
0
70
128
71
13
72
14
73
10
0
VERTEX
8
OBJECT__4
10
0
20
0
30
0
70
128
71
15
72
14
73
16
0
VERTEX
8
OBJECT__4
10
0
20
0
30
0
70
128
71
14
72
17
73
16
0
VERTEX
8
OBJECT__4
10
0
20
0
30
0
70
128
71
16
72
18
73
15
0
VERTEX
8
OBJECT__4
10
0
20
0
30
0
70
128
71
15
72
19
73
20
0
VERTEX
8
OBJECT__4
10
0
20
0
30
0
70
128
71
20
72
21
73
15
0
VERTEX
8
OBJECT__4
10
0
20
0
30
0
70
128
71
22
72
21
73
23
0
VERTEX
8
OBJECT__4
10
0
20
0
30
0
70
128
71
21
72
24
73
23
0
VERTEX
8
OBJECT__4
10
0
20
0
30
0
70
128
71
22
72
25
73
26
0
VERTEX
8
OBJECT__4
10
0
20
0
30
0
70
128
71
26
72
27
73
22
0
VERTEX
8
OBJECT__4
10
0
20
0
30
0
70
128
71
22
72
28
73
25
0
VERTEX
8
OBJECT__4
10
0
20
0
30
0
70
128
71
29
72
27
73
30
0
VERTEX
8
OBJECT__4
10
0
20
0
30
0
70
128
71
27
72
31
73
30
0
VERTEX
8
OBJECT__4
10
0
20
0
30
0
70
128
71
29
72
32
73
33
0
VERTEX
8
OBJECT__4
10
0
20
0
30
0
70
128
71
33
72
34
73
29
0
VERTEX
8
OBJECT__4
10
0
20
0
30
0
70
128
71
29
72
35
73
32
0
VERTEX
8
OBJECT__4
10
0
20
0
30
0
70
128
71
34
72
36
73
37
0
VERTEX
8
OBJECT__4
10
0
20
0
30
0
70
128
71
37
72
38
73
34
0
VERTEX
8
OBJECT__4
10
0
20
0
30
0
70
128
71
39
72
38
73
40
0
VERTEX
8
OBJECT__4
10
0
20
0
30
0
70
128
71
38
72
41
73
40
0
VERTEX
8
OBJECT__4
10
0
20
0
30
0
70
128
71
40
72
42
73
39
0
VERTEX
8
OBJECT__4
10
0
20
0
30
0
70
128
71
39
72
43
73
44
0
VERTEX
8
OBJECT__4
10
0
20
0
30
0
70
128
71
44
72
45
73
39
0
VERTEX
8
OBJECT__4
10
0
20
0
30
0
70
128
71
46
72
45
73
47
0
VERTEX
8
OBJECT__4
10
0
20
0
30
0
70
128
71
45
72
48
73
47
0
VERTEX
8
OBJECT__4
10
0
20
0
30
0
70
128
71
46
72
49
73
50
0
VERTEX
8
OBJECT__4
10
0
20
0
30
0
70
128
71
50
72
51
73
46
0
VERTEX
8
OBJECT__4
10
0
20
0
30
0
70
128
71
46
72
52
73
49
0
VERTEX
8
OBJECT__4
10
0
20
0
30
0
70
128
71
53
72
51
73
54
0
VERTEX
8
OBJECT__4
10
0
20
0
30
0
70
128
71
51
72
55
73
54
0
VERTEX
8
OBJECT__4
10
0
20
0
30
0
70
128
71
56
72
53
73
57
0
VERTEX
8
OBJECT__4
10
0
20
0
30
0
70
128
71
53
72
58
73
57
0
VERTEX
8
OBJECT__4
10
0
20
0
30
0
70
128
71
57
72
59
73
56
0
VERTEX
8
OBJECT__4
10
0
20
0
30
0
70
128
71
56
72
60
73
61
0
VERTEX
8
OBJECT__4
10
0
20
0
30
0
70
128
71
61
72
62
73
56
0
VERTEX
8
OBJECT__4
10
0
20
0
30
0
70
128
71
1
72
62
73
63
0
VERTEX
8
OBJECT__4
10
0
20
0
30
0
70
128
71
62
72
64
73
63
0
VERTEX
8
OBJECT__4
10
0
20
0
30
0
70
128
71
63
72
2
73
1
0
VERTEX
8
OBJECT__4
10
0
20
0
30
0
70
128
71
61
72
64
73
62
0
VERTEX
8
OBJECT__4
10
0
20
0
30
0
70
128
71
59
72
60
73
56
0
VERTEX
8
OBJECT__4
10
0
20
0
30
0
70
128
71
54
72
58
73
53
0
VERTEX
8
OBJECT__4
10
0
20
0
30
0
70
128
71
50
72
55
73
51
0
VERTEX
8
OBJECT__4
10
0
20
0
30
0
70
128
71
47
72
52
73
46
0
VERTEX
8
OBJECT__4
10
0
20
0
30
0
70
128
71
44
72
48
73
45
0
VERTEX
8
OBJECT__4
10
0
20
0
30
0
70
128
71
42
72
43
73
39
0
VERTEX
8
OBJECT__4
10
0
20
0
30
0
70
128
71
37
72
41
73
38
0
VERTEX
8
OBJECT__4
10
0
20
0
30
0
70
128
71
33
72
36
73
34
0
VERTEX
8
OBJECT__4
10
0
20
0
30
0
70
128
71
30
72
35
73
29
0
VERTEX
8
OBJECT__4
10
0
20
0
30
0
70
128
71
26
72
31
73
27
0
VERTEX
8
OBJECT__4
10
0
20
0
30
0
70
128
71
23
72
28
73
22
0
VERTEX
8
OBJECT__4
10
0
20
0
30
0
70
128
71
20
72
24
73
21
0
VERTEX
8
OBJECT__4
10
0
20
0
30
0
70
128
71
18
72
19
73
15
0
VERTEX
8
OBJECT__4
10
0
20
0
30
0
70
128
71
13
72
17
73
14
0
VERTEX
8
OBJECT__4
10
0
20
0
30
0
70
128
71
9
72
12
73
10
0
VERTEX
8
OBJECT__4
10
0
20
0
30
0
70
128
71
6
72
11
73
5
0
VERTEX
8
OBJECT__4
10
0
20
0
30
0
70
128
71
3
72
7
73
4
0
SEQEND
8
OBJECT__4
0
POLYLINE
8
OBJECT__5
66
1
70
64
71
19
72
17
62
253
0
VERTEX
8
OBJECT__5
10
0.000000
20
12.345000
30
-73.976997
70
192
0
VERTEX
8
OBJECT__5
10
0.000000
20
62.786999
30
41.021000
70
192
0
VERTEX
8
OBJECT__5
10
0.000000
20
72.705002
30
18.410999
70
192
0
VERTEX
8
OBJECT__5
10
0.000000
20
-24.351999
30
70.935997
70
192
0
VERTEX
8
OBJECT__5
10
0.000000
20
-68.682999
30
-30.127001
70
192
0
VERTEX
8
OBJECT__5
10
0.000000
20
-74.744003
30
-6.193000
70
192
0
VERTEX
8
OBJECT__5
10
0.000000
20
35.695999
30
-65.960999
70
192
0
VERTEX
8
OBJECT__5
10
0.000000
20
74.744003
30
-6.193000
70
192
0
VERTEX
8
OBJECT__5
10
0.000000
20
68.682999
30
-30.127001
70
192
0
VERTEX
8
OBJECT__5
10
0.000000
20
46.066002
30
59.186001
70
192
0
VERTEX
8
OBJECT__5
10
0.000000
20
-72.705002
30
18.410999
70
192
0
VERTEX
8
OBJECT__5
10
0.000000
20
-62.786999
30
41.021000
70
192
0
VERTEX
8
OBJECT__5
10
0.000000
20
-46.066002
30
59.186001
70
192
0
VERTEX
8
OBJECT__5
10
0.000000
20
-55.179001
30
-50.796001
70
192
0
VERTEX
8
OBJECT__5
10
0.000000
20
-12.345000
30
-73.976997
70
192
0
VERTEX
8
OBJECT__5
10
0.000000
20
55.179001
30
-50.796001
70
192
0
VERTEX
8
OBJECT__5
10
0.000000
20
24.351999
30
70.935997
70
192
0
VERTEX
8
OBJECT__5
10
0.000000
20
-35.695999
30
-65.960999
70
192
0
VERTEX
8
OBJECT__5
10
0.000000
20
0.000000
30
75.000000
70
192
0
VERTEX
8
OBJECT__5
10
0
20
0
30
0
70
128
71
1
72
2
73
3
0
VERTEX
8
OBJECT__5
10
0
20
0
30
0
70
128
71
4
72
5
73
6
0
VERTEX
8
OBJECT__5
10
0
20
0
30
0
70
128
71
7
72
8
73
9
0
VERTEX
8
OBJECT__5
10
0
20
0
30
0
70
128
71
1
72
10
73
2
0
VERTEX
8
OBJECT__5
10
0
20
0
30
0
70
128
71
11
72
12
73
13
0
VERTEX
8
OBJECT__5
10
0
20
0
30
0
70
128
71
4
72
14
73
5
0
VERTEX
8
OBJECT__5
10
0
20
0
30
0
70
128
71
4
72
1
73
15
0
VERTEX
8
OBJECT__5
10
0
20
0
30
0
70
128
71
9
72
16
73
7
0
VERTEX
8
OBJECT__5
10
0
20
0
30
0
70
128
71
1
72
17
73
10
0
VERTEX
8
OBJECT__5
10
0
20
0
30
0
70
128
71
6
72
11
73
4
0
VERTEX
8
OBJECT__5
10
0
20
0
30
0
70
128
71
15
72
18
73
4
0
VERTEX
8
OBJECT__5
10
0
20
0
30
0
70
128
71
3
72
8
73
1
0
VERTEX
8
OBJECT__5
10
0
20
0
30
0
70
128
71
1
72
4
73
19
0
VERTEX
8
OBJECT__5
10
0
20
0
30
0
70
128
71
18
72
14
73
4
0
VERTEX
8
OBJECT__5
10
0
20
0
30
0
70
128
71
19
72
17
73
1
0
VERTEX
8
OBJECT__5
10
0
20
0
30
0
70
128
71
7
72
1
73
8
0
VERTEX
8
OBJECT__5
10
0
20
0
30
0
70
128
71
13
72
4
73
11
0
SEQEND
8
OBJECT__5
0
POLYLINE
8
OBJECT__6
66
1
70
64
71
50
72
64
62
253
0
VERTEX
8
OBJECT__6
10
24.326000
20
0.000000
30
-38.874001
70
192
0
VERTEX
8
OBJECT__6
10
24.326000
20
8.849000
30
-37.313999
70
192
0
VERTEX
8
OBJECT__6
10
31.719999
20
8.457000
30
-36.236000
70
192
0
VERTEX
8
OBJECT__6
10
31.719999
20
15.895000
30
-31.941999
70
192
0
VERTEX
8
OBJECT__6
10
24.326000
20
11.066000
30
-36.034000
70
192
0
VERTEX
8
OBJECT__6
10
24.326000
20
16.631001
30
-32.820999
70
192
0
VERTEX
8
OBJECT__6
10
24.326000
20
19.934000
30
-28.885000
70
192
0
VERTEX
8
OBJECT__6
10
31.719999
20
21.415001
30
-25.364000
70
192
0
VERTEX
8
OBJECT__6
10
24.326000
20
22.408001
30
-25.937000
70
192
0
VERTEX
8
OBJECT__6
10
24.326000
20
25.045000
30
-18.691999
70
192
0
VERTEX
8
OBJECT__6
10
31.719999
20
24.351999
30
-17.294001
70
192
0
VERTEX
8
OBJECT__6
10
24.326000
20
25.481001
30
-17.493000
70
192
0
VERTEX
8
OBJECT__6
10
24.326000
20
25.481001
30
-8.507000
70
192
0
VERTEX
8
OBJECT__6
10
31.719999
20
24.351999
30
-8.706000
70
192
0
VERTEX
8
OBJECT__6
10
31.719999
20
21.415001
30
-0.636000
70
192
0
VERTEX
8
OBJECT__6
10
24.326000
20
25.045000
30
-7.308000
70
192
0
VERTEX
8
OBJECT__6
10
31.719999
20
15.895000
30
5.942000
70
192
0
VERTEX
8
OBJECT__6
10
24.326000
20
19.934000
30
2.885000
70
192
0
VERTEX
8
OBJECT__6
10
24.326000
20
22.408001
30
-0.063000
70
192
0
VERTEX
8
OBJECT__6
10
24.326000
20
16.631001
30
6.821000
70
192
0
VERTEX
8
OBJECT__6
10
24.326000
20
11.066000
30
10.034000
70
192
0
VERTEX
8
OBJECT__6
10
31.719999
20
8.457000
30
10.236000
70
192
0
VERTEX
8
OBJECT__6
10
24.326000
20
0.000000
30
12.874000
70
192
0
VERTEX
8
OBJECT__6
10
31.719999
20
0.000000
30
11.728000
70
192
0
VERTEX
8
OBJECT__6
10
31.719999
20
0.000000
30
-37.728001
70
192
0
VERTEX
8
OBJECT__6
10
38.477001
20
7.358000
30
-33.216000
70
192
0
VERTEX
8
OBJECT__6
10
38.477001
20
13.828000
30
-29.480000
70
192
0
VERTEX
8
OBJECT__6
10
38.477001
20
18.631001
30
-23.757000
70
192
0
VERTEX
8
OBJECT__6
10
38.477001
20
21.186001
30
-16.736000
70
192
0
VERTEX
8
OBJECT__6
10
38.477001
20
21.186001
30
-9.264000
70
192
0
VERTEX
8
OBJECT__6
10
38.477001
20
18.631001
30
-2.243000
70
192
0
VERTEX
8
OBJECT__6
10
38.477001
20
13.828000
30
3.480000
70
192
0
VERTEX
8
OBJECT__6
10
38.477001
20
7.358000
30
7.216000
70
192
0
VERTEX
8
OBJECT__6
10
38.477001
20
0.000000
30
8.513000
70
192
0
VERTEX
8
OBJECT__6
10
38.477001
20
0.000000
30
-34.513000
70
192
0
VERTEX
8
OBJECT__6
10
44.032001
20
5.643000
30
-28.504999
70
192
0
VERTEX
8
OBJECT__6
10
44.032001
20
10.606000
30
-25.639999
70
192
0
VERTEX
8
OBJECT__6
10
44.032001
20
14.289000
30
-21.250000
70
192
0
VERTEX
8
OBJECT__6
10
44.032001
20
10.606000
30
-0.360000
70
192
0
VERTEX
8
OBJECT__6
10
44.032001
20
5.643000
30
2.505000
70
192
0
VERTEX
8
OBJECT__6
10
44.032001
20
0.000000
30
3.500000
70
192
0
VERTEX
8
OBJECT__6
10
43.160000
20
16.909000
30
-8.491000
70
192
0
VERTEX
8
OBJECT__6
10
44.032001
20
14.289000
30
-4.750000
70
192
0
VERTEX
8
OBJECT__6
10
44.032001
20
15.943000
30
-8.750000
70
192
0
VERTEX
8
OBJECT__6
10
43.160000
20
17.233999
30
-9.961000
70
192
0
VERTEX
8
OBJECT__6
10
43.160000
20
17.233999
30
-16.039000
70
192
0
VERTEX
8
OBJECT__6
10
43.160000
20
16.909000
30
-17.509001
70
192
0
VERTEX
8
OBJECT__6
10
44.032001
20
15.943000
30
-17.250000
70
192
0
VERTEX
8
OBJECT__6
10
44.032001
20
0.000000
30
-29.500000
70
192
0
VERTEX
8
OBJECT__6
10
24.326000
20
8.849000
30
11.314000
70
192
0
VERTEX
8
OBJECT__6
10
0
20
0
30
0
70
128
71
1
72
2
73
3
0
VERTEX
8
OBJECT__6
10
0
20
0
30
0
70
128
71
4
72
3
73
5
0
VERTEX
8
OBJECT__6
10
0
20
0
30
0
70
128
71
3
72
2
73
5
0
VERTEX
8
OBJECT__6
10
0
20
0
30
0
70
128
71
4
72
6
73
7
0
VERTEX
8
OBJECT__6
10
0
20
0
30
0
70
128
71
7
72
8
73
4
0
VERTEX
8
OBJECT__6
10
0
20
0
30
0
70
128
71
8
72
9
73
10
0
VERTEX
8
OBJECT__6
10
0
20
0
30
0
70
128
71
10
72
11
73
8
0
VERTEX
8
OBJECT__6
10
0
20
0
30
0
70
128
71
12
72
13
73
14
0
VERTEX
8
OBJECT__6
10
0
20
0
30
0
70
128
71
15
72
14
73
16
0
VERTEX
8
OBJECT__6
10
0
20
0
30
0
70
128
71
14
72
13
73
16
0
VERTEX
8
OBJECT__6
10
0
20
0
30
0
70
128
71
17
72
15
73
18
0
VERTEX
8
OBJECT__6
10
0
20
0
30
0
70
128
71
15
72
19
73
18
0
VERTEX
8
OBJECT__6
10
0
20
0
30
0
70
128
71
17
72
20
73
21
0
VERTEX
8
OBJECT__6
10
0
20
0
30
0
70
128
71
21
72
22
73
17
0
VERTEX
8
OBJECT__6
10
0
20
0
30
0
70
128
71
23
72
24
73
22
0
VERTEX
8
OBJECT__6
10
0
20
0
30
0
70
128
71
25
72
3
73
26
0
VERTEX
8
OBJECT__6
10
0
20
0
30
0
70
128
71
3
72
4
73
27
0
VERTEX
8
OBJECT__6
10
0
20
0
30
0
70
128
71
4
72
8
73
28
0
VERTEX
8
OBJECT__6
10
0
20
0
30
0
70
128
71
8
72
11
73
29
0
VERTEX
8
OBJECT__6
10
0
20
0
30
0
70
128
71
11
72
14
73
30
0
VERTEX
8
OBJECT__6
10
0
20
0
30
0
70
128
71
14
72
15
73
31
0
VERTEX
8
OBJECT__6
10
0
20
0
30
0
70
128
71
15
72
17
73
32
0
VERTEX
8
OBJECT__6
10
0
20
0
30
0
70
128
71
17
72
22
73
33
0
VERTEX
8
OBJECT__6
10
0
20
0
30
0
70
128
71
22
72
24
73
34
0
VERTEX
8
OBJECT__6
10
0
20
0
30
0
70
128
71
35
72
26
73
36
0
VERTEX
8
OBJECT__6
10
0
20
0
30
0
70
128
71
26
72
27
73
37
0
VERTEX
8
OBJECT__6
10
0
20
0
30
0
70
128
71
28
72
38
73
37
0
VERTEX
8
OBJECT__6
10
0
20
0
30
0
70
128
71
31
72
32
73
39
0
VERTEX
8
OBJECT__6
10
0
20
0
30
0
70
128
71
32
72
33
73
40
0
VERTEX
8
OBJECT__6
10
0
20
0
30
0
70
128
71
34
72
41
73
40
0
VERTEX
8
OBJECT__6
10
0
20
0
30
0
70
128
71
30
72
31
73
42
0
VERTEX
8
OBJECT__6
10
0
20
0
30
0
70
128
71
43
72
44
73
42
0
VERTEX
8
OBJECT__6
10
0
20
0
30
0
70
128
71
42
72
31
73
43
0
VERTEX
8
OBJECT__6
10
0
20
0
30
0
70
128
71
30
72
45
73
46
0
VERTEX
8
OBJECT__6
10
0
20
0
30
0
70
128
71
38
72
28
73
47
0
VERTEX
8
OBJECT__6
10
0
20
0
30
0
70
128
71
29
72
46
73
47
0
VERTEX
8
OBJECT__6
10
0
20
0
30
0
70
128
71
47
72
28
73
29
0
VERTEX
8
OBJECT__6
10
0
20
0
30
0
70
128
71
47
72
48
73
38
0
VERTEX
8
OBJECT__6
10
0
20
0
30
0
70
128
71
46
72
29
73
30
0
VERTEX
8
OBJECT__6
10
0
20
0
30
0
70
128
71
42
72
45
73
30
0
VERTEX
8
OBJECT__6
10
0
20
0
30
0
70
128
71
40
72
33
73
34
0
VERTEX
8
OBJECT__6
10
0
20
0
30
0
70
128
71
40
72
39
73
32
0
VERTEX
8
OBJECT__6
10
0
20
0
30
0
70
128
71
39
72
43
73
31
0
VERTEX
8
OBJECT__6
10
0
20
0
30
0
70
128
71
37
72
27
73
28
0
VERTEX
8
OBJECT__6
10
0
20
0
30
0
70
128
71
37
72
36
73
26
0
VERTEX
8
OBJECT__6
10
0
20
0
30
0
70
128
71
36
72
49
73
35
0
VERTEX
8
OBJECT__6
10
0
20
0
30
0
70
128
71
34
72
33
73
22
0
VERTEX
8
OBJECT__6
10
0
20
0
30
0
70
128
71
33
72
32
73
17
0
VERTEX
8
OBJECT__6
10
0
20
0
30
0
70
128
71
32
72
31
73
15
0
VERTEX
8
OBJECT__6
10
0
20
0
30
0
70
128
71
31
72
30
73
14
0
VERTEX
8
OBJECT__6
10
0
20
0
30
0
70
128
71
30
72
29
73
11
0
VERTEX
8
OBJECT__6
10
0
20
0
30
0
70
128
71
29
72
28
73
8
0
VERTEX
8
OBJECT__6
10
0
20
0
30
0
70
128
71
28
72
27
73
4
0
VERTEX
8
OBJECT__6
10
0
20
0
30
0
70
128
71
27
72
26
73
3
0
VERTEX
8
OBJECT__6
10
0
20
0
30
0
70
128
71
26
72
35
73
25
0
VERTEX
8
OBJECT__6
10
0
20
0
30
0
70
128
71
22
72
50
73
23
0
VERTEX
8
OBJECT__6
10
0
20
0
30
0
70
128
71
21
72
50
73
22
0
VERTEX
8
OBJECT__6
10
0
20
0
30
0
70
128
71
18
72
20
73
17
0
VERTEX
8
OBJECT__6
10
0
20
0
30
0
70
128
71
16
72
19
73
15
0
VERTEX
8
OBJECT__6
10
0
20
0
30
0
70
128
71
14
72
11
73
12
0
VERTEX
8
OBJECT__6
10
0
20
0
30
0
70
128
71
10
72
12
73
11
0
VERTEX
8
OBJECT__6
10
0
20
0
30
0
70
128
71
7
72
9
73
8
0
VERTEX
8
OBJECT__6
10
0
20
0
30
0
70
128
71
5
72
6
73
4
0
VERTEX
8
OBJECT__6
10
0
20
0
30
0
70
128
71
3
72
25
73
1
0
SEQEND
8
OBJECT__6
0
POLYLINE
8
OBJECT__7
66
1
70
64
71
24
72
22
62
253
0
VERTEX
8
OBJECT__7
10
0.000000
20
0.000000
30
13.086000
70
192
0
VERTEX
8
OBJECT__7
10
24.326000
20
0.000000
30
12.874000
70
192
0
VERTEX
8
OBJECT__7
10
24.326000
20
8.849000
30
11.314000
70
192
0
VERTEX
8
OBJECT__7
10
0.000000
20
11.318000
30
10.503000
70
192
0
VERTEX
8
OBJECT__7
10
24.326000
20
11.066000
30
10.034000
70
192
0
VERTEX
8
OBJECT__7
10
24.326000
20
16.631001
30
6.821000
70
192
0
VERTEX
8
OBJECT__7
10
0.000000
20
20.395000
30
3.265000
70
192
0
VERTEX
8
OBJECT__7
10
0.000000
20
25.431999
30
-7.195000
70
192
0
VERTEX
8
OBJECT__7
10
24.326000
20
22.408001
30
-0.063000
70
192
0
VERTEX
8
OBJECT__7
10
24.326000
20
19.934000
30
2.885000
70
192
0
VERTEX
8
OBJECT__7
10
0.000000
20
25.431999
30
-18.805000
70
192
0
VERTEX
8
OBJECT__7
10
24.326000
20
25.481001
30
-8.507000
70
192
0
VERTEX
8
OBJECT__7
10
24.326000
20
25.481001
30
-17.493000
70
192
0
VERTEX
8
OBJECT__7
10
24.326000
20
25.045000
30
-7.308000
70
192
0
VERTEX
8
OBJECT__7
10
24.326000
20
25.045000
30
-18.691999
70
192
0
VERTEX
8
OBJECT__7
10
24.326000
20
22.408001
30
-25.937000
70
192
0
VERTEX
8
OBJECT__7
10
0.000000
20
20.395000
30
-29.264999
70
192
0
VERTEX
8
OBJECT__7
10
0.000000
20
11.318000
30
-36.502998
70
192
0
VERTEX
8
OBJECT__7
10
24.326000
20
16.631001
30
-32.820999
70
192
0
VERTEX
8
OBJECT__7
10
24.326000
20
19.934000
30
-28.885000
70
192
0
VERTEX
8
OBJECT__7
10
0.000000
20
0.000000
30
-39.085999
70
192
0
VERTEX
8
OBJECT__7
10
24.326000
20
8.849000
30
-37.313999
70
192
0
VERTEX
8
OBJECT__7
10
24.326000
20
11.066000
30
-36.034000
70
192
0
VERTEX
8
OBJECT__7
10
24.326000
20
0.000000
30
-38.874001
70
192
0
VERTEX
8
OBJECT__7
10
0
20
0
30
0
70
128
71
1
72
2
73
3
0
VERTEX
8
OBJECT__7
10
0
20
0
30
0
70
128
71
3
72
4
73
1
0
VERTEX
8
OBJECT__7
10
0
20
0
30
0
70
128
71
4
72
5
73
6
0
VERTEX
8
OBJECT__7
10
0
20
0
30
0
70
128
71
6
72
7
73
4
0
VERTEX
8
OBJECT__7
10
0
20
0
30
0
70
128
71
8
72
7
73
9
0
VERTEX
8
OBJECT__7
10
0
20
0
30
0
70
128
71
7
72
10
73
9
0
VERTEX
8
OBJECT__7
10
0
20
0
30
0
70
128
71
11
72
8
73
12
0
VERTEX
8
OBJECT__7
10
0
20
0
30
0
70
128
71
12
72
13
73
11
0
VERTEX
8
OBJECT__7
10
0
20
0
30
0
70
128
71
8
72
14
73
12
0
VERTEX
8
OBJECT__7
10
0
20
0
30
0
70
128
71
11
72
15
73
16
0
VERTEX
8
OBJECT__7
10
0
20
0
30
0
70
128
71
16
72
17
73
11
0
VERTEX
8
OBJECT__7
10
0
20
0
30
0
70
128
71
18
72
17
73
19
0
VERTEX
8
OBJECT__7
10
0
20
0
30
0
70
128
71
17
72
20
73
19
0
VERTEX
8
OBJECT__7
10
0
20
0
30
0
70
128
71
21
72
18
73
22
0
VERTEX
8
OBJECT__7
10
0
20
0
30
0
70
128
71
18
72
23
73
22
0
VERTEX
8
OBJECT__7
10
0
20
0
30
0
70
128
71
22
72
24
73
21
0
VERTEX
8
OBJECT__7
10
0
20
0
30
0
70
128
71
19
72
23
73
18
0
VERTEX
8
OBJECT__7
10
0
20
0
30
0
70
128
71
16
72
20
73
17
0
VERTEX
8
OBJECT__7
10
0
20
0
30
0
70
128
71
13
72
15
73
11
0
VERTEX
8
OBJECT__7
10
0
20
0
30
0
70
128
71
9
72
14
73
8
0
VERTEX
8
OBJECT__7
10
0
20
0
30
0
70
128
71
6
72
10
73
7
0
VERTEX
8
OBJECT__7
10
0
20
0
30
0
70
128
71
3
72
5
73
4
0
SEQEND
8
OBJECT__7
0
POLYLINE
8
OBJECT__9
66
1
70
64
71
24
72
22
62
253
0
VERTEX
8
OBJECT__9
10
0.000000
20
0.000000
30
-39.085999
70
192
0
VERTEX
8
OBJECT__9
10
24.326000
20
0.000000
30
-38.874001
70
192
0
VERTEX
8
OBJECT__9
10
24.326000
20
-8.849000
30
-37.313999
70
192
0
VERTEX
8
OBJECT__9
10
0.000000
20
-11.318000
30
-36.502998
70
192
0
VERTEX
8
OBJECT__9
10
24.326000
20
-11.066000
30
-36.034000
70
192
0
VERTEX
8
OBJECT__9
10
24.326000
20
-16.631001
30
-32.820999
70
192
0
VERTEX
8
OBJECT__9
10
0.000000
20
-20.395000
30
-29.264999
70
192
0
VERTEX
8
OBJECT__9
10
0.000000
20
-25.431999
30
-18.805000
70
192
0
VERTEX
8
OBJECT__9
10
24.326000
20
-22.408001
30
-25.937000
70
192
0
VERTEX
8
OBJECT__9
10
24.326000
20
-19.934000
30
-28.885000
70
192
0
VERTEX
8
OBJECT__9
10
0.000000
20
-25.431999
30
-7.195000
70
192
0
VERTEX
8
OBJECT__9
10
24.326000
20
-25.481001
30
-17.493000
70
192
0
VERTEX
8
OBJECT__9
10
24.326000
20
-25.481001
30
-8.507000
70
192
0
VERTEX
8
OBJECT__9
10
24.326000
20
-25.045000
30
-18.691999
70
192
0
VERTEX
8
OBJECT__9
10
24.326000
20
-25.045000
30
-7.308000
70
192
0
VERTEX
8
OBJECT__9
10
24.326000
20
-22.408001
30
-0.063000
70
192
0
VERTEX
8
OBJECT__9
10
0.000000
20
-20.395000
30
3.265000
70
192
0
VERTEX
8
OBJECT__9
10
0.000000
20
-11.318000
30
10.503000
70
192
0
VERTEX
8
OBJECT__9
10
24.326000
20
-16.631001
30
6.821000
70
192
0
VERTEX
8
OBJECT__9
10
24.326000
20
-19.934000
30
2.885000
70
192
0
VERTEX
8
OBJECT__9
10
0.000000
20
0.000000
30
13.086000
70
192
0
VERTEX
8
OBJECT__9
10
24.326000
20
-8.849000
30
11.314000
70
192
0
VERTEX
8
OBJECT__9
10
24.326000
20
-11.066000
30
10.034000
70
192
0
VERTEX
8
OBJECT__9
10
24.326000
20
0.000000
30
12.874000
70
192
0
VERTEX
8
OBJECT__9
10
0
20
0
30
0
70
128
71
1
72
2
73
3
0
VERTEX
8
OBJECT__9
10
0
20
0
30
0
70
128
71
3
72
4
73
1
0
VERTEX
8
OBJECT__9
10
0
20
0
30
0
70
128
71
4
72
5
73
6
0
VERTEX
8
OBJECT__9
10
0
20
0
30
0
70
128
71
6
72
7
73
4
0
VERTEX
8
OBJECT__9
10
0
20
0
30
0
70
128
71
8
72
7
73
9
0
VERTEX
8
OBJECT__9
10
0
20
0
30
0
70
128
71
7
72
10
73
9
0
VERTEX
8
OBJECT__9
10
0
20
0
30
0
70
128
71
11
72
8
73
12
0
VERTEX
8
OBJECT__9
10
0
20
0
30
0
70
128
71
12
72
13
73
11
0
VERTEX
8
OBJECT__9
10
0
20
0
30
0
70
128
71
8
72
14
73
12
0
VERTEX
8
OBJECT__9
10
0
20
0
30
0
70
128
71
11
72
15
73
16
0
VERTEX
8
OBJECT__9
10
0
20
0
30
0
70
128
71
16
72
17
73
11
0
VERTEX
8
OBJECT__9
10
0
20
0
30
0
70
128
71
18
72
17
73
19
0
VERTEX
8
OBJECT__9
10
0
20
0
30
0
70
128
71
17
72
20
73
19
0
VERTEX
8
OBJECT__9
10
0
20
0
30
0
70
128
71
21
72
18
73
22
0
VERTEX
8
OBJECT__9
10
0
20
0
30
0
70
128
71
18
72
23
73
22
0
VERTEX
8
OBJECT__9
10
0
20
0
30
0
70
128
71
22
72
24
73
21
0
VERTEX
8
OBJECT__9
10
0
20
0
30
0
70
128
71
19
72
23
73
18
0
VERTEX
8
OBJECT__9
10
0
20
0
30
0
70
128
71
16
72
20
73
17
0
VERTEX
8
OBJECT__9
10
0
20
0
30
0
70
128
71
13
72
15
73
11
0
VERTEX
8
OBJECT__9
10
0
20
0
30
0
70
128
71
9
72
14
73
8
0
VERTEX
8
OBJECT__9
10
0
20
0
30
0
70
128
71
6
72
10
73
7
0
VERTEX
8
OBJECT__9
10
0
20
0
30
0
70
128
71
3
72
5
73
4
0
SEQEND
8
OBJECT__9
0
POLYLINE
8
OBJECT__10
66
1
70
64
71
50
72
64
62
253
0
VERTEX
8
OBJECT__10
10
24.326000
20
0.000000
30
12.874000
70
192
0
VERTEX
8
OBJECT__10
10
24.326000
20
-8.849000
30
11.314000
70
192
0
VERTEX
8
OBJECT__10
10
31.719999
20
-8.457000
30
10.236000
70
192
0
VERTEX
8
OBJECT__10
10
31.719999
20
-15.895000
30
5.942000
70
192
0
VERTEX
8
OBJECT__10
10
24.326000
20
-11.066000
30
10.034000
70
192
0
VERTEX
8
OBJECT__10
10
24.326000
20
-16.631001
30
6.821000
70
192
0
VERTEX
8
OBJECT__10
10
24.326000
20
-19.934000
30
2.885000
70
192
0
VERTEX
8
OBJECT__10
10
31.719999
20
-21.415001
30
-0.636000
70
192
0
VERTEX
8
OBJECT__10
10
24.326000
20
-22.408001
30
-0.063000
70
192
0
VERTEX
8
OBJECT__10
10
24.326000
20
-25.045000
30
-7.308000
70
192
0
VERTEX
8
OBJECT__10
10
31.719999
20
-24.351999
30
-8.706000
70
192
0
VERTEX
8
OBJECT__10
10
24.326000
20
-25.481001
30
-8.507000
70
192
0
VERTEX
8
OBJECT__10
10
24.326000
20
-25.481001
30
-17.493000
70
192
0
VERTEX
8
OBJECT__10
10
31.719999
20
-24.351999
30
-17.294001
70
192
0
VERTEX
8
OBJECT__10
10
31.719999
20
-21.415001
30
-25.364000
70
192
0
VERTEX
8
OBJECT__10
10
24.326000
20
-25.045000
30
-18.691999
70
192
0
VERTEX
8
OBJECT__10
10
31.719999
20
-15.895000
30
-31.941999
70
192
0
VERTEX
8
OBJECT__10
10
24.326000
20
-19.934000
30
-28.885000
70
192
0
VERTEX
8
OBJECT__10
10
24.326000
20
-22.408001
30
-25.937000
70
192
0
VERTEX
8
OBJECT__10
10
24.326000
20
-16.631001
30
-32.820999
70
192
0
VERTEX
8
OBJECT__10
10
24.326000
20
-11.066000
30
-36.034000
70
192
0
VERTEX
8
OBJECT__10
10
31.719999
20
-8.457000
30
-36.236000
70
192
0
VERTEX
8
OBJECT__10
10
24.326000
20
-8.849000
30
-37.313999
70
192
0
VERTEX
8
OBJECT__10
10
24.326000
20
0.000000
30
-38.874001
70
192
0
VERTEX
8
OBJECT__10
10
31.719999
20
0.000000
30
-37.728001
70
192
0
VERTEX
8
OBJECT__10
10
31.719999
20
0.000000
30
11.728000
70
192
0
VERTEX
8
OBJECT__10
10
38.477001
20
-7.358000
30
7.216000
70
192
0
VERTEX
8
OBJECT__10
10
38.477001
20
-13.828000
30
3.480000
70
192
0
VERTEX
8
OBJECT__10
10
38.477001
20
-18.631001
30
-2.243000
70
192
0
VERTEX
8
OBJECT__10
10
38.477001
20
-21.186001
30
-9.264000
70
192
0
VERTEX
8
OBJECT__10
10
38.477001
20
-21.186001
30
-16.736000
70
192
0
VERTEX
8
OBJECT__10
10
38.477001
20
-18.631001
30
-23.757000
70
192
0
VERTEX
8
OBJECT__10
10
38.477001
20
-13.828000
30
-29.480000
70
192
0
VERTEX
8
OBJECT__10
10
38.477001
20
-7.358000
30
-33.216000
70
192
0
VERTEX
8
OBJECT__10
10
38.477001
20
0.000000
30
-34.513000
70
192
0
VERTEX
8
OBJECT__10
10
38.477001
20
0.000000
30
8.513000
70
192
0
VERTEX
8
OBJECT__10
10
44.032001
20
-5.643000
30
2.505000
70
192
0
VERTEX
8
OBJECT__10
10
44.032001
20
-10.606000
30
-0.360000
70
192
0
VERTEX
8
OBJECT__10
10
44.032001
20
-14.289000
30
-4.750000
70
192
0
VERTEX
8
OBJECT__10
10
44.032001
20
-10.606000
30
-25.639999
70
192
0
VERTEX
8
OBJECT__10
10
44.032001
20
-5.643000
30
-28.504999
70
192
0
VERTEX
8
OBJECT__10
10
44.032001
20
0.000000
30
-29.500000
70
192
0
VERTEX
8
OBJECT__10
10
43.160000
20
-16.909000
30
-17.509001
70
192
0
VERTEX
8
OBJECT__10
10
44.032001
20
-14.289000
30
-21.250000
70
192
0
VERTEX
8
OBJECT__10
10
44.032001
20
-15.943000
30
-17.250000
70
192
0
VERTEX
8
OBJECT__10
10
43.160000
20
-17.233999
30
-16.039000
70
192
0
VERTEX
8
OBJECT__10
10
43.160000
20
-16.909000
30
-8.491000
70
192
0
VERTEX
8
OBJECT__10
10
43.160000
20
-17.233999
30
-9.961000
70
192
0
VERTEX
8
OBJECT__10
10
44.032001
20
-15.943000
30
-8.750000
70
192
0
VERTEX
8
OBJECT__10
10
44.032001
20
0.000000
30
3.500000
70
192
0
VERTEX
8
OBJECT__10
10
0
20
0
30
0
70
128
71
1
72
2
73
3
0
VERTEX
8
OBJECT__10
10
0
20
0
30
0
70
128
71
4
72
3
73
5
0
VERTEX
8
OBJECT__10
10
0
20
0
30
0
70
128
71
3
72
2
73
5
0
VERTEX
8
OBJECT__10
10
0
20
0
30
0
70
128
71
4
72
6
73
7
0
VERTEX
8
OBJECT__10
10
0
20
0
30
0
70
128
71
7
72
8
73
4
0
VERTEX
8
OBJECT__10
10
0
20
0
30
0
70
128
71
8
72
9
73
10
0
VERTEX
8
OBJECT__10
10
0
20
0
30
0
70
128
71
10
72
11
73
8
0
VERTEX
8
OBJECT__10
10
0
20
0
30
0
70
128
71
12
72
13
73
14
0
VERTEX
8
OBJECT__10
10
0
20
0
30
0
70
128
71
15
72
14
73
16
0
VERTEX
8
OBJECT__10
10
0
20
0
30
0
70
128
71
14
72
13
73
16
0
VERTEX
8
OBJECT__10
10
0
20
0
30
0
70
128
71
17
72
15
73
18
0
VERTEX
8
OBJECT__10
10
0
20
0
30
0
70
128
71
15
72
19
73
18
0
VERTEX
8
OBJECT__10
10
0
20
0
30
0
70
128
71
17
72
20
73
21
0
VERTEX
8
OBJECT__10
10
0
20
0
30
0
70
128
71
21
72
22
73
17
0
VERTEX
8
OBJECT__10
10
0
20
0
30
0
70
128
71
23
72
24
73
25
0
VERTEX
8
OBJECT__10
10
0
20
0
30
0
70
128
71
26
72
3
73
27
0
VERTEX
8
OBJECT__10
10
0
20
0
30
0
70
128
71
3
72
4
73
28
0
VERTEX
8
OBJECT__10
10
0
20
0
30
0
70
128
71
4
72
8
73
29
0
VERTEX
8
OBJECT__10
10
0
20
0
30
0
70
128
71
8
72
11
73
30
0
VERTEX
8
OBJECT__10
10
0
20
0
30
0
70
128
71
11
72
14
73
31
0
VERTEX
8
OBJECT__10
10
0
20
0
30
0
70
128
71
14
72
15
73
32
0
VERTEX
8
OBJECT__10
10
0
20
0
30
0
70
128
71
15
72
17
73
33
0
VERTEX
8
OBJECT__10
10
0
20
0
30
0
70
128
71
17
72
22
73
34
0
VERTEX
8
OBJECT__10
10
0
20
0
30
0
70
128
71
25
72
35
73
34
0
VERTEX
8
OBJECT__10
10
0
20
0
30
0
70
128
71
36
72
27
73
37
0
VERTEX
8
OBJECT__10
10
0
20
0
30
0
70
128
71
27
72
28
73
38
0
VERTEX
8
OBJECT__10
10
0
20
0
30
0
70
128
71
28
72
29
73
39
0
VERTEX
8
OBJECT__10
10
0
20
0
30
0
70
128
71
32
72
33
73
40
0
VERTEX
8
OBJECT__10
10
0
20
0
30
0
70
128
71
33
72
34
73
41
0
VERTEX
8
OBJECT__10
10
0
20
0
30
0
70
128
71
35
72
42
73
41
0
VERTEX
8
OBJECT__10
10
0
20
0
30
0
70
128
71
31
72
32
73
43
0
VERTEX
8
OBJECT__10
10
0
20
0
30
0
70
128
71
44
72
45
73
43
0
VERTEX
8
OBJECT__10
10
0
20
0
30
0
70
128
71
43
72
32
73
44
0
VERTEX
8
OBJECT__10
10
0
20
0
30
0
70
128
71
30
72
31
73
46
0
VERTEX
8
OBJECT__10
10
0
20
0
30
0
70
128
71
39
72
29
73
47
0
VERTEX
8
OBJECT__10
10
0
20
0
30
0
70
128
71
30
72
48
73
47
0
VERTEX
8
OBJECT__10
10
0
20
0
30
0
70
128
71
47
72
29
73
30
0
VERTEX
8
OBJECT__10
10
0
20
0
30
0
70
128
71
47
72
49
73
39
0
VERTEX
8
OBJECT__10
10
0
20
0
30
0
70
128
71
46
72
48
73
30
0
VERTEX
8
OBJECT__10
10
0
20
0
30
0
70
128
71
43
72
46
73
31
0
VERTEX
8
OBJECT__10
10
0
20
0
30
0
70
128
71
41
72
34
73
35
0
VERTEX
8
OBJECT__10
10
0
20
0
30
0
70
128
71
41
72
40
73
33
0
VERTEX
8
OBJECT__10
10
0
20
0
30
0
70
128
71
40
72
44
73
32
0
VERTEX
8
OBJECT__10
10
0
20
0
30
0
70
128
71
39
72
38
73
28
0
VERTEX
8
OBJECT__10
10
0
20
0
30
0
70
128
71
38
72
37
73
27
0
VERTEX
8
OBJECT__10
10
0
20
0
30
0
70
128
71
37
72
50
73
36
0
VERTEX
8
OBJECT__10
10
0
20
0
30
0
70
128
71
34
72
22
73
25
0
VERTEX
8
OBJECT__10
10
0
20
0
30
0
70
128
71
34
72
33
73
17
0
VERTEX
8
OBJECT__10
10
0
20
0
30
0
70
128
71
33
72
32
73
15
0
VERTEX
8
OBJECT__10
10
0
20
0
30
0
70
128
71
32
72
31
73
14
0
VERTEX
8
OBJECT__10
10
0
20
0
30
0
70
128
71
31
72
30
73
11
0
VERTEX
8
OBJECT__10
10
0
20
0
30
0
70
128
71
30
72
29
73
8
0
VERTEX
8
OBJECT__10
10
0
20
0
30
0
70
128
71
29
72
28
73
4
0
VERTEX
8
OBJECT__10
10
0
20
0
30
0
70
128
71
28
72
27
73
3
0
VERTEX
8
OBJECT__10
10
0
20
0
30
0
70
128
71
27
72
36
73
26
0
VERTEX
8
OBJECT__10
10
0
20
0
30
0
70
128
71
25
72
22
73
23
0
VERTEX
8
OBJECT__10
10
0
20
0
30
0
70
128
71
21
72
23
73
22
0
VERTEX
8
OBJECT__10
10
0
20
0
30
0
70
128
71
18
72
20
73
17
0
VERTEX
8
OBJECT__10
10
0
20
0
30
0
70
128
71
16
72
19
73
15
0
VERTEX
8
OBJECT__10
10
0
20
0
30
0
70
128
71
14
72
11
73
12
0
VERTEX
8
OBJECT__10
10
0
20
0
30
0
70
128
71
10
72
12
73
11
0
VERTEX
8
OBJECT__10
10
0
20
0
30
0
70
128
71
7
72
9
73
8
0
VERTEX
8
OBJECT__10
10
0
20
0
30
0
70
128
71
5
72
6
73
4
0
VERTEX
8
OBJECT__10
10
0
20
0
30
0
70
128
71
3
72
26
73
1
0
SEQEND
8
OBJECT__10
0
POLYLINE
8
OBJECT__11
66
1
70
64
71
30
72
30
62
253
0
VERTEX
8
OBJECT__11
10
0.000000
20
25.431999
30
-7.195000
70
192
0
VERTEX
8
OBJECT__11
10
0.000000
20
25.431999
30
-18.805000
70
192
0
VERTEX
8
OBJECT__11
10
0.000000
20
24.410999
30
-13.000000
70
192
0
VERTEX
8
OBJECT__11
10
0.000000
20
20.395000
30
3.265000
70
192
0
VERTEX
8
OBJECT__11
10
0.000000
20
22.552999
30
-3.658000
70
192
0
VERTEX
8
OBJECT__11
10
0.000000
20
22.552999
30
-22.341999
70
192
0
VERTEX
8
OBJECT__11
10
0.000000
20
11.318000
30
10.503000
70
192
0
VERTEX
8
OBJECT__11
10
0.000000
20
17.261000
30
4.261000
70
192
0
VERTEX
8
OBJECT__11
10
0.000000
20
0.000000
30
-39.085999
70
192
0
VERTEX
8
OBJECT__11
10
0.000000
20
-11.318000
30
-36.502998
70
192
0
VERTEX
8
OBJECT__11
10
0.000000
20
-9.342000
30
-35.553001
70
192
0
VERTEX
8
OBJECT__11
10
0.000000
20
-20.395000
30
-29.264999
70
192
0
VERTEX
8
OBJECT__11
10
0.000000
20
-17.261000
30
-30.261000
70
192
0
VERTEX
8
OBJECT__11
10
0.000000
20
20.395000
30
-29.264999
70
192
0
VERTEX
8
OBJECT__11
10
0.000000
20
17.261000
30
-30.261000
70
192
0
VERTEX
8
OBJECT__11
10
0.000000
20
11.318000
30
-36.502998
70
192
0
VERTEX
8
OBJECT__11
10
0.000000
20
9.342000
30
-35.553001
70
192
0
VERTEX
8
OBJECT__11
10
0.000000
20
0.000000
30
-37.410999
70
192
0
VERTEX
8
OBJECT__11
10
0.000000
20
-25.431999
30
-18.805000
70
192
0
VERTEX
8
OBJECT__11
10
0.000000
20
-22.552999
30
-22.341999
70
192
0
VERTEX
8
OBJECT__11
10
0.000000
20
-25.431999
30
-7.195000
70
192
0
VERTEX
8
OBJECT__11
10
0.000000
20
-24.410999
30
-13.000000
70
192
0
VERTEX
8
OBJECT__11
10
0.000000
20
-22.552999
30
-3.658000
70
192
0
VERTEX
8
OBJECT__11
10
0.000000
20
-20.395000
30
3.265000
70
192
0
VERTEX
8
OBJECT__11
10
0.000000
20
-17.261000
30
4.261000
70
192
0
VERTEX
8
OBJECT__11
10
0.000000
20
-11.318000
30
10.503000
70
192
0
VERTEX
8
OBJECT__11
10
0.000000
20
-9.342000
30
9.553000
70
192
0
VERTEX
8
OBJECT__11
10
0.000000
20
0.000000
30
13.086000
70
192
0
VERTEX
8
OBJECT__11
10
0.000000
20
9.342000
30
9.553000
70
192
0
VERTEX
8
OBJECT__11
10
0.000000
20
0.000000
30
11.411000
70
192
0
VERTEX
8
OBJECT__11
10
0
20
0
30
0
70
128
71
1
72
2
73
3
0
VERTEX
8
OBJECT__11
10
0
20
0
30
0
70
128
71
4
72
1
73
5
0
VERTEX
8
OBJECT__11
10
0
20
0
30
0
70
128
71
2
72
6
73
3
0
VERTEX
8
OBJECT__11
10
0
20
0
30
0
70
128
71
7
72
4
73
8
0
VERTEX
8
OBJECT__11
10
0
20
0
30
0
70
128
71
3
72
5
73
1
0
VERTEX
8
OBJECT__11
10
0
20
0
30
0
70
128
71
9
72
10
73
11
0
VERTEX
8
OBJECT__11
10
0
20
0
30
0
70
128
71
10
72
12
73
13
0
VERTEX
8
OBJECT__11
10
0
20
0
30
0
70
128
71
5
72
8
73
4
0
VERTEX
8
OBJECT__11
10
0
20
0
30
0
70
128
71
14
72
15
73
6
0
VERTEX
8
OBJECT__11
10
0
20
0
30
0
70
128
71
16
72
17
73
15
0
VERTEX
8
OBJECT__11
10
0
20
0
30
0
70
128
71
9
72
18
73
17
0
VERTEX
8
OBJECT__11
10
0
20
0
30
0
70
128
71
13
72
11
73
10
0
VERTEX
8
OBJECT__11
10
0
20
0
30
0
70
128
71
12
72
19
73
20
0
VERTEX
8
OBJECT__11
10
0
20
0
30
0
70
128
71
19
72
21
73
22
0
VERTEX
8
OBJECT__11
10
0
20
0
30
0
70
128
71
6
72
2
73
14
0
VERTEX
8
OBJECT__11
10
0
20
0
30
0
70
128
71
17
72
16
73
9
0
VERTEX
8
OBJECT__11
10
0
20
0
30
0
70
128
71
20
72
13
73
12
0
VERTEX
8
OBJECT__11
10
0
20
0
30
0
70
128
71
21
72
23
73
22
0
VERTEX
8
OBJECT__11
10
0
20
0
30
0
70
128
71
24
72
25
73
23
0
VERTEX
8
OBJECT__11
10
0
20
0
30
0
70
128
71
26
72
27
73
25
0
VERTEX
8
OBJECT__11
10
0
20
0
30
0
70
128
71
28
72
7
73
29
0
VERTEX
8
OBJECT__11
10
0
20
0
30
0
70
128
71
15
72
14
73
16
0
VERTEX
8
OBJECT__11
10
0
20
0
30
0
70
128
71
22
72
20
73
19
0
VERTEX
8
OBJECT__11
10
0
20
0
30
0
70
128
71
25
72
24
73
26
0
VERTEX
8
OBJECT__11
10
0
20
0
30
0
70
128
71
8
72
29
73
7
0
VERTEX
8
OBJECT__11
10
0
20
0
30
0
70
128
71
23
72
21
73
24
0
VERTEX
8
OBJECT__11
10
0
20
0
30
0
70
128
71
11
72
18
73
9
0
VERTEX
8
OBJECT__11
10
0
20
0
30
0
70
128
71
28
72
30
73
27
0
VERTEX
8
OBJECT__11
10
0
20
0
30
0
70
128
71
27
72
26
73
28
0
VERTEX
8
OBJECT__11
10
0
20
0
30
0
70
128
71
29
72
30
73
28
0
SEQEND
8
OBJECT__11
0
POLYLINE
8
OBJECT__12
66
1
70
64
71
50
72
64
62
253
0
VERTEX
8
OBJECT__12
10
38.477001
20
0.000000
30
-34.513000
70
192
0
VERTEX
8
OBJECT__12
10
44.032001
20
0.000000
30
-29.500000
70
192
0
VERTEX
8
OBJECT__12
10
44.032001
20
5.643000
30
-28.504999
70
192
0
VERTEX
8
OBJECT__12
10
38.477001
20
7.358000
30
-33.216000
70
192
0
VERTEX
8
OBJECT__12
10
44.032001
20
10.606000
30
-25.639999
70
192
0
VERTEX
8
OBJECT__12
10
38.477001
20
18.631001
30
-23.757000
70
192
0
VERTEX
8
OBJECT__12
10
38.477001
20
13.828000
30
-29.480000
70
192
0
VERTEX
8
OBJECT__12
10
38.477001
20
13.828000
30
3.480000
70
192
0
VERTEX
8
OBJECT__12
10
38.477001
20
18.631001
30
-2.243000
70
192
0
VERTEX
8
OBJECT__12
10
44.032001
20
14.289000
30
-4.750000
70
192
0
VERTEX
8
OBJECT__12
10
44.032001
20
10.606000
30
-0.360000
70
192
0
VERTEX
8
OBJECT__12
10
44.032001
20
5.643000
30
2.505000
70
192
0
VERTEX
8
OBJECT__12
10
38.477001
20
0.000000
30
8.513000
70
192
0
VERTEX
8
OBJECT__12
10
38.477001
20
7.358000
30
7.216000
70
192
0
VERTEX
8
OBJECT__12
10
31.719999
20
0.000000
30
-37.728001
70
192
0
VERTEX
8
OBJECT__12
10
31.719999
20
15.895000
30
-31.941999
70
192
0
VERTEX
8
OBJECT__12
10
31.719999
20
21.415001
30
-25.364000
70
192
0
VERTEX
8
OBJECT__12
10
38.477001
20
21.186001
30
-16.736000
70
192
0
VERTEX
8
OBJECT__12
10
31.719999
20
24.351999
30
-17.294001
70
192
0
VERTEX
8
OBJECT__12
10
38.477001
20
21.186001
30
-9.264000
70
192
0
VERTEX
8
OBJECT__12
10
31.719999
20
24.351999
30
-8.706000
70
192
0
VERTEX
8
OBJECT__12
10
31.719999
20
21.415001
30
-0.636000
70
192
0
VERTEX
8
OBJECT__12
10
31.719999
20
15.895000
30
5.942000
70
192
0
VERTEX
8
OBJECT__12
10
31.719999
20
8.457000
30
10.236000
70
192
0
VERTEX
8
OBJECT__12
10
31.719999
20
0.000000
30
11.728000
70
192
0
VERTEX
8
OBJECT__12
10
24.326000
20
0.000000
30
-38.874001
70
192
0
VERTEX
8
OBJECT__12
10
31.719999
20
8.457000
30
-36.236000
70
192
0
VERTEX
8
OBJECT__12
10
24.326000
20
16.631001
30
-32.820999
70
192
0
VERTEX
8
OBJECT__12
10
24.326000
20
11.066000
30
-36.034000
70
192
0
VERTEX
8
OBJECT__12
10
24.326000
20
19.934000
30
-28.885000
70
192
0
VERTEX
8
OBJECT__12
10
24.326000
20
22.408001
30
-25.937000
70
192
0
VERTEX
8
OBJECT__12
10
24.326000
20
25.045000
30
-18.691999
70
192
0
VERTEX
8
OBJECT__12
10
24.326000
20
25.481001
30
-17.493000
70
192
0
VERTEX
8
OBJECT__12
10
24.326000
20
25.481001
30
-8.507000
70
192
0
VERTEX
8
OBJECT__12
10
24.326000
20
22.408001
30
-0.063000
70
192
0
VERTEX
8
OBJECT__12
10
24.326000
20
25.045000
30
-7.308000
70
192
0
VERTEX
8
OBJECT__12
10
24.326000
20
16.631001
30
6.821000
70
192
0
VERTEX
8
OBJECT__12
10
24.326000
20
19.934000
30
2.885000
70
192
0
VERTEX
8
OBJECT__12
10
24.326000
20
11.066000
30
10.034000
70
192
0
VERTEX
8
OBJECT__12
10
24.326000
20
8.849000
30
11.314000
70
192
0
VERTEX
8
OBJECT__12
10
24.326000
20
0.000000
30
12.874000
70
192
0
VERTEX
8
OBJECT__12
10
43.160000
20
16.909000
30
-17.509001
70
192
0
VERTEX
8
OBJECT__12
10
44.032001
20
14.289000
30
-21.250000
70
192
0
VERTEX
8
OBJECT__12
10
44.032001
20
15.943000
30
-17.250000
70
192
0
VERTEX
8
OBJECT__12
10
43.160000
20
17.233999
30
-16.039000
70
192
0
VERTEX
8
OBJECT__12
10
43.160000
20
16.909000
30
-8.491000
70
192
0
VERTEX
8
OBJECT__12
10
43.160000
20
17.233999
30
-9.961000
70
192
0
VERTEX
8
OBJECT__12
10
44.032001
20
15.943000
30
-8.750000
70
192
0
VERTEX
8
OBJECT__12
10
24.326000
20
8.849000
30
-37.313999
70
192
0
VERTEX
8
OBJECT__12
10
44.032001
20
0.000000
30
3.500000
70
192
0
VERTEX
8
OBJECT__12
10
0
20
0
30
0
70
128
71
1
72
2
73
3
0
VERTEX
8
OBJECT__12
10
0
20
0
30
0
70
128
71
4
72
3
73
5
0
VERTEX
8
OBJECT__12
10
0
20
0
30
0
70
128
71
6
72
7
73
5
0
VERTEX
8
OBJECT__12
10
0
20
0
30
0
70
128
71
8
72
9
73
10
0
VERTEX
8
OBJECT__12
10
0
20
0
30
0
70
128
71
8
72
11
73
12
0
VERTEX
8
OBJECT__12
10
0
20
0
30
0
70
128
71
13
72
14
73
12
0
VERTEX
8
OBJECT__12
10
0
20
0
30
0
70
128
71
15
72
1
73
4
0
VERTEX
8
OBJECT__12
10
0
20
0
30
0
70
128
71
4
72
7
73
16
0
VERTEX
8
OBJECT__12
10
0
20
0
30
0
70
128
71
7
72
6
73
17
0
VERTEX
8
OBJECT__12
10
0
20
0
30
0
70
128
71
6
72
18
73
19
0
VERTEX
8
OBJECT__12
10
0
20
0
30
0
70
128
71
18
72
20
73
21
0
VERTEX
8
OBJECT__12
10
0
20
0
30
0
70
128
71
20
72
9
73
22
0
VERTEX
8
OBJECT__12
10
0
20
0
30
0
70
128
71
9
72
8
73
23
0
VERTEX
8
OBJECT__12
10
0
20
0
30
0
70
128
71
8
72
14
73
24
0
VERTEX
8
OBJECT__12
10
0
20
0
30
0
70
128
71
25
72
24
73
14
0
VERTEX
8
OBJECT__12
10
0
20
0
30
0
70
128
71
26
72
15
73
27
0
VERTEX
8
OBJECT__12
10
0
20
0
30
0
70
128
71
16
72
28
73
29
0
VERTEX
8
OBJECT__12
10
0
20
0
30
0
70
128
71
29
72
27
73
16
0
VERTEX
8
OBJECT__12
10
0
20
0
30
0
70
128
71
16
72
17
73
30
0
VERTEX
8
OBJECT__12
10
0
20
0
30
0
70
128
71
17
72
31
73
30
0
VERTEX
8
OBJECT__12
10
0
20
0
30
0
70
128
71
17
72
19
73
32
0
VERTEX
8
OBJECT__12
10
0
20
0
30
0
70
128
71
19
72
33
73
32
0
VERTEX
8
OBJECT__12
10
0
20
0
30
0
70
128
71
34
72
33
73
19
0
VERTEX
8
OBJECT__12
10
0
20
0
30
0
70
128
71
22
72
35
73
36
0
VERTEX
8
OBJECT__12
10
0
20
0
30
0
70
128
71
36
72
21
73
22
0
VERTEX
8
OBJECT__12
10
0
20
0
30
0
70
128
71
23
72
37
73
38
0
VERTEX
8
OBJECT__12
10
0
20
0
30
0
70
128
71
38
72
22
73
23
0
VERTEX
8
OBJECT__12
10
0
20
0
30
0
70
128
71
23
72
24
73
39
0
VERTEX
8
OBJECT__12
10
0
20
0
30
0
70
128
71
24
72
40
73
39
0
VERTEX
8
OBJECT__12
10
0
20
0
30
0
70
128
71
41
72
40
73
24
0
VERTEX
8
OBJECT__12
10
0
20
0
30
0
70
128
71
18
72
6
73
42
0
VERTEX
8
OBJECT__12
10
0
20
0
30
0
70
128
71
43
72
44
73
42
0
VERTEX
8
OBJECT__12
10
0
20
0
30
0
70
128
71
42
72
6
73
43
0
VERTEX
8
OBJECT__12
10
0
20
0
30
0
70
128
71
20
72
18
73
45
0
VERTEX
8
OBJECT__12
10
0
20
0
30
0
70
128
71
10
72
9
73
46
0
VERTEX
8
OBJECT__12
10
0
20
0
30
0
70
128
71
20
72
47
73
46
0
VERTEX
8
OBJECT__12
10
0
20
0
30
0
70
128
71
46
72
9
73
20
0
VERTEX
8
OBJECT__12
10
0
20
0
30
0
70
128
71
46
72
48
73
10
0
VERTEX
8
OBJECT__12
10
0
20
0
30
0
70
128
71
45
72
47
73
20
0
VERTEX
8
OBJECT__12
10
0
20
0
30
0
70
128
71
42
72
45
73
18
0
VERTEX
8
OBJECT__12
10
0
20
0
30
0
70
128
71
24
72
25
73
41
0
VERTEX
8
OBJECT__12
10
0
20
0
30
0
70
128
71
39
72
37
73
23
0
VERTEX
8
OBJECT__12
10
0
20
0
30
0
70
128
71
38
72
35
73
22
0
VERTEX
8
OBJECT__12
10
0
20
0
30
0
70
128
71
36
72
34
73
21
0
VERTEX
8
OBJECT__12
10
0
20
0
30
0
70
128
71
19
72
21
73
34
0
VERTEX
8
OBJECT__12
10
0
20
0
30
0
70
128
71
32
72
31
73
17
0
VERTEX
8
OBJECT__12
10
0
20
0
30
0
70
128
71
30
72
28
73
16
0
VERTEX
8
OBJECT__12
10
0
20
0
30
0
70
128
71
29
72
49
73
27
0
VERTEX
8
OBJECT__12
10
0
20
0
30
0
70
128
71
27
72
49
73
26
0
VERTEX
8
OBJECT__12
10
0
20
0
30
0
70
128
71
14
72
13
73
25
0
VERTEX
8
OBJECT__12
10
0
20
0
30
0
70
128
71
24
72
23
73
8
0
VERTEX
8
OBJECT__12
10
0
20
0
30
0
70
128
71
23
72
22
73
9
0
VERTEX
8
OBJECT__12
10
0
20
0
30
0
70
128
71
22
72
21
73
20
0
VERTEX
8
OBJECT__12
10
0
20
0
30
0
70
128
71
21
72
19
73
18
0
VERTEX
8
OBJECT__12
10
0
20
0
30
0
70
128
71
19
72
17
73
6
0
VERTEX
8
OBJECT__12
10
0
20
0
30
0
70
128
71
17
72
16
73
7
0
VERTEX
8
OBJECT__12
10
0
20
0
30
0
70
128
71
16
72
27
73
4
0
VERTEX
8
OBJECT__12
10
0
20
0
30
0
70
128
71
4
72
27
73
15
0
VERTEX
8
OBJECT__12
10
0
20
0
30
0
70
128
71
12
72
50
73
13
0
VERTEX
8
OBJECT__12
10
0
20
0
30
0
70
128
71
12
72
14
73
8
0
VERTEX
8
OBJECT__12
10
0
20
0
30
0
70
128
71
10
72
11
73
8
0
VERTEX
8
OBJECT__12
10
0
20
0
30
0
70
128
71
5
72
43
73
6
0
VERTEX
8
OBJECT__12
10
0
20
0
30
0
70
128
71
5
72
7
73
4
0
VERTEX
8
OBJECT__12
10
0
20
0
30
0
70
128
71
3
72
4
73
1
0
SEQEND
8
OBJECT__12
0
POLYLINE
8
OBJECT__13
66
1
70
64
71
24
72
22
62
253
0
VERTEX
8
OBJECT__13
10
0.000000
20
0.000000
30
13.086000
70
192
0
VERTEX
8
OBJECT__13
10
0.000000
20
11.318000
30
10.503000
70
192
0
VERTEX
8
OBJECT__13
10
24.326000
20
8.849000
30
11.314000
70
192
0
VERTEX
8
OBJECT__13
10
24.326000
20
11.066000
30
10.034000
70
192
0
VERTEX
8
OBJECT__13
10
0.000000
20
20.395000
30
3.265000
70
192
0
VERTEX
8
OBJECT__13
10
24.326000
20
16.631001
30
6.821000
70
192
0
VERTEX
8
OBJECT__13
10
24.326000
20
19.934000
30
2.885000
70
192
0
VERTEX
8
OBJECT__13
10
0.000000
20
25.431999
30
-7.195000
70
192
0
VERTEX
8
OBJECT__13
10
24.326000
20
25.045000
30
-7.308000
70
192
0
VERTEX
8
OBJECT__13
10
24.326000
20
22.408001
30
-0.063000
70
192
0
VERTEX
8
OBJECT__13
10
0.000000
20
25.431999
30
-18.805000
70
192
0
VERTEX
8
OBJECT__13
10
24.326000
20
25.481001
30
-17.493000
70
192
0
VERTEX
8
OBJECT__13
10
24.326000
20
25.481001
30
-8.507000
70
192
0
VERTEX
8
OBJECT__13
10
24.326000
20
25.045000
30
-18.691999
70
192
0
VERTEX
8
OBJECT__13
10
0.000000
20
20.395000
30
-29.264999
70
192
0
VERTEX
8
OBJECT__13
10
24.326000
20
22.408001
30
-25.937000
70
192
0
VERTEX
8
OBJECT__13
10
24.326000
20
19.934000
30
-28.885000
70
192
0
VERTEX
8
OBJECT__13
10
0.000000
20
11.318000
30
-36.502998
70
192
0
VERTEX
8
OBJECT__13
10
24.326000
20
11.066000
30
-36.034000
70
192
0
VERTEX
8
OBJECT__13
10
24.326000
20
16.631001
30
-32.820999
70
192
0
VERTEX
8
OBJECT__13
10
0.000000
20
0.000000
30
-39.085999
70
192
0
VERTEX
8
OBJECT__13
10
24.326000
20
0.000000
30
-38.874001
70
192
0
VERTEX
8
OBJECT__13
10
24.326000
20
8.849000
30
-37.313999
70
192
0
VERTEX
8
OBJECT__13
10
24.326000
20
0.000000
30
12.874000
70
192
0
VERTEX
8
OBJECT__13
10
0
20
0
30
0
70
128
71
1
72
2
73
3
0
VERTEX
8
OBJECT__13
10
0
20
0
30
0
70
128
71
2
72
4
73
3
0
VERTEX
8
OBJECT__13
10
0
20
0
30
0
70
128
71
2
72
5
73
6
0
VERTEX
8
OBJECT__13
10
0
20
0
30
0
70
128
71
5
72
7
73
6
0
VERTEX
8
OBJECT__13
10
0
20
0
30
0
70
128
71
8
72
9
73
10
0
VERTEX
8
OBJECT__13
10
0
20
0
30
0
70
128
71
10
72
5
73
8
0
VERTEX
8
OBJECT__13
10
0
20
0
30
0
70
128
71
11
72
12
73
13
0
VERTEX
8
OBJECT__13
10
0
20
0
30
0
70
128
71
13
72
8
73
11
0
VERTEX
8
OBJECT__13
10
0
20
0
30
0
70
128
71
11
72
14
73
12
0
VERTEX
8
OBJECT__13
10
0
20
0
30
0
70
128
71
11
72
15
73
16
0
VERTEX
8
OBJECT__13
10
0
20
0
30
0
70
128
71
15
72
17
73
16
0
VERTEX
8
OBJECT__13
10
0
20
0
30
0
70
128
71
18
72
19
73
20
0
VERTEX
8
OBJECT__13
10
0
20
0
30
0
70
128
71
20
72
15
73
18
0
VERTEX
8
OBJECT__13
10
0
20
0
30
0
70
128
71
21
72
22
73
23
0
VERTEX
8
OBJECT__13
10
0
20
0
30
0
70
128
71
23
72
18
73
21
0
VERTEX
8
OBJECT__13
10
0
20
0
30
0
70
128
71
23
72
19
73
18
0
VERTEX
8
OBJECT__13
10
0
20
0
30
0
70
128
71
20
72
17
73
15
0
VERTEX
8
OBJECT__13
10
0
20
0
30
0
70
128
71
16
72
14
73
11
0
VERTEX
8
OBJECT__13
10
0
20
0
30
0
70
128
71
13
72
9
73
8
0
VERTEX
8
OBJECT__13
10
0
20
0
30
0
70
128
71
10
72
7
73
5
0
VERTEX
8
OBJECT__13
10
0
20
0
30
0
70
128
71
6
72
4
73
2
0
VERTEX
8
OBJECT__13
10
0
20
0
30
0
70
128
71
3
72
24
73
1
0
SEQEND
8
OBJECT__13
0
POLYLINE
8
OBJECT__14
66
1
70
64
71
24
72
22
62
253
0
VERTEX
8
OBJECT__14
10
0.000000
20
0.000000
30
-39.085999
70
192
0
VERTEX
8
OBJECT__14
10
0.000000
20
-11.318000
30
-36.502998
70
192
0
VERTEX
8
OBJECT__14
10
24.326000
20
-8.849000
30
-37.313999
70
192
0
VERTEX
8
OBJECT__14
10
24.326000
20
-11.066000
30
-36.034000
70
192
0
VERTEX
8
OBJECT__14
10
0.000000
20
-20.395000
30
-29.264999
70
192
0
VERTEX
8
OBJECT__14
10
24.326000
20
-16.631001
30
-32.820999
70
192
0
VERTEX
8
OBJECT__14
10
24.326000
20
-19.934000
30
-28.885000
70
192
0
VERTEX
8
OBJECT__14
10
0.000000
20
-25.431999
30
-18.805000
70
192
0
VERTEX
8
OBJECT__14
10
24.326000
20
-25.045000
30
-18.691999
70
192
0
VERTEX
8
OBJECT__14
10
24.326000
20
-22.408001
30
-25.937000
70
192
0
VERTEX
8
OBJECT__14
10
0.000000
20
-25.431999
30
-7.195000
70
192
0
VERTEX
8
OBJECT__14
10
24.326000
20
-25.481001
30
-8.507000
70
192
0
VERTEX
8
OBJECT__14
10
24.326000
20
-25.481001
30
-17.493000
70
192
0
VERTEX
8
OBJECT__14
10
24.326000
20
-25.045000
30
-7.308000
70
192
0
VERTEX
8
OBJECT__14
10
0.000000
20
-20.395000
30
3.265000
70
192
0
VERTEX
8
OBJECT__14
10
24.326000
20
-22.408001
30
-0.063000
70
192
0
VERTEX
8
OBJECT__14
10
24.326000
20
-19.934000
30
2.885000
70
192
0
VERTEX
8
OBJECT__14
10
0.000000
20
-11.318000
30
10.503000
70
192
0
VERTEX
8
OBJECT__14
10
24.326000
20
-11.066000
30
10.034000
70
192
0
VERTEX
8
OBJECT__14
10
24.326000
20
-16.631001
30
6.821000
70
192
0
VERTEX
8
OBJECT__14
10
0.000000
20
0.000000
30
13.086000
70
192
0
VERTEX
8
OBJECT__14
10
24.326000
20
0.000000
30
12.874000
70
192
0
VERTEX
8
OBJECT__14
10
24.326000
20
-8.849000
30
11.314000
70
192
0
VERTEX
8
OBJECT__14
10
24.326000
20
0.000000
30
-38.874001
70
192
0
VERTEX
8
OBJECT__14
10
0
20
0
30
0
70
128
71
1
72
2
73
3
0
VERTEX
8
OBJECT__14
10
0
20
0
30
0
70
128
71
2
72
4
73
3
0
VERTEX
8
OBJECT__14
10
0
20
0
30
0
70
128
71
2
72
5
73
6
0
VERTEX
8
OBJECT__14
10
0
20
0
30
0
70
128
71
5
72
7
73
6
0
VERTEX
8
OBJECT__14
10
0
20
0
30
0
70
128
71
8
72
9
73
10
0
VERTEX
8
OBJECT__14
10
0
20
0
30
0
70
128
71
10
72
5
73
8
0
VERTEX
8
OBJECT__14
10
0
20
0
30
0
70
128
71
11
72
12
73
13
0
VERTEX
8
OBJECT__14
10
0
20
0
30
0
70
128
71
13
72
8
73
11
0
VERTEX
8
OBJECT__14
10
0
20
0
30
0
70
128
71
11
72
14
73
12
0
VERTEX
8
OBJECT__14
10
0
20
0
30
0
70
128
71
11
72
15
73
16
0
VERTEX
8
OBJECT__14
10
0
20
0
30
0
70
128
71
15
72
17
73
16
0
VERTEX
8
OBJECT__14
10
0
20
0
30
0
70
128
71
18
72
19
73
20
0
VERTEX
8
OBJECT__14
10
0
20
0
30
0
70
128
71
20
72
15
73
18
0
VERTEX
8
OBJECT__14
10
0
20
0
30
0
70
128
71
21
72
22
73
23
0
VERTEX
8
OBJECT__14
10
0
20
0
30
0
70
128
71
23
72
18
73
21
0
VERTEX
8
OBJECT__14
10
0
20
0
30
0
70
128
71
23
72
19
73
18
0
VERTEX
8
OBJECT__14
10
0
20
0
30
0
70
128
71
20
72
17
73
15
0
VERTEX
8
OBJECT__14
10
0
20
0
30
0
70
128
71
16
72
14
73
11
0
VERTEX
8
OBJECT__14
10
0
20
0
30
0
70
128
71
13
72
9
73
8
0
VERTEX
8
OBJECT__14
10
0
20
0
30
0
70
128
71
10
72
7
73
5
0
VERTEX
8
OBJECT__14
10
0
20
0
30
0
70
128
71
6
72
4
73
2
0
VERTEX
8
OBJECT__14
10
0
20
0
30
0
70
128
71
3
72
24
73
1
0
SEQEND
8
OBJECT__14
0
POLYLINE
8
OBJECT__15
66
1
70
64
71
50
72
64
62
253
0
VERTEX
8
OBJECT__15
10
38.477001
20
0.000000
30
8.513000
70
192
0
VERTEX
8
OBJECT__15
10
44.032001
20
0.000000
30
3.500000
70
192
0
VERTEX
8
OBJECT__15
10
44.032001
20
-5.643000
30
2.505000
70
192
0
VERTEX
8
OBJECT__15
10
38.477001
20
-7.358000
30
7.216000
70
192
0
VERTEX
8
OBJECT__15
10
44.032001
20
-10.606000
30
-0.360000
70
192
0
VERTEX
8
OBJECT__15
10
38.477001
20
-13.828000
30
3.480000
70
192
0
VERTEX
8
OBJECT__15
10
44.032001
20
-14.289000
30
-4.750000
70
192
0
VERTEX
8
OBJECT__15
10
38.477001
20
-18.631001
30
-23.757000
70
192
0
VERTEX
8
OBJECT__15
10
44.032001
20
-14.289000
30
-21.250000
70
192
0
VERTEX
8
OBJECT__15
10
44.032001
20
-10.606000
30
-25.639999
70
192
0
VERTEX
8
OBJECT__15
10
38.477001
20
-13.828000
30
-29.480000
70
192
0
VERTEX
8
OBJECT__15
10
44.032001
20
-5.643000
30
-28.504999
70
192
0
VERTEX
8
OBJECT__15
10
38.477001
20
0.000000
30
-34.513000
70
192
0
VERTEX
8
OBJECT__15
10
38.477001
20
-7.358000
30
-33.216000
70
192
0
VERTEX
8
OBJECT__15
10
31.719999
20
-8.457000
30
10.236000
70
192
0
VERTEX
8
OBJECT__15
10
31.719999
20
0.000000
30
11.728000
70
192
0
VERTEX
8
OBJECT__15
10
31.719999
20
-15.895000
30
5.942000
70
192
0
VERTEX
8
OBJECT__15
10
38.477001
20
-18.631001
30
-2.243000
70
192
0
VERTEX
8
OBJECT__15
10
31.719999
20
-21.415001
30
-0.636000
70
192
0
VERTEX
8
OBJECT__15
10
38.477001
20
-21.186001
30
-9.264000
70
192
0
VERTEX
8
OBJECT__15
10
31.719999
20
-24.351999
30
-8.706000
70
192
0
VERTEX
8
OBJECT__15
10
38.477001
20
-21.186001
30
-16.736000
70
192
0
VERTEX
8
OBJECT__15
10
31.719999
20
-24.351999
30
-17.294001
70
192
0
VERTEX
8
OBJECT__15
10
31.719999
20
-21.415001
30
-25.364000
70
192
0
VERTEX
8
OBJECT__15
10
31.719999
20
-15.895000
30
-31.941999
70
192
0
VERTEX
8
OBJECT__15
10
31.719999
20
-8.457000
30
-36.236000
70
192
0
VERTEX
8
OBJECT__15
10
31.719999
20
0.000000
30
-37.728001
70
192
0
VERTEX
8
OBJECT__15
10
24.326000
20
-8.849000
30
11.314000
70
192
0
VERTEX
8
OBJECT__15
10
24.326000
20
0.000000
30
12.874000
70
192
0
VERTEX
8
OBJECT__15
10
24.326000
20
-16.631001
30
6.821000
70
192
0
VERTEX
8
OBJECT__15
10
24.326000
20
-11.066000
30
10.034000
70
192
0
VERTEX
8
OBJECT__15
10
24.326000
20
-19.934000
30
2.885000
70
192
0
VERTEX
8
OBJECT__15
10
24.326000
20
-22.408001
30
-0.063000
70
192
0
VERTEX
8
OBJECT__15
10
24.326000
20
-25.045000
30
-7.308000
70
192
0
VERTEX
8
OBJECT__15
10
24.326000
20
-25.481001
30
-8.507000
70
192
0
VERTEX
8
OBJECT__15
10
24.326000
20
-25.481001
30
-17.493000
70
192
0
VERTEX
8
OBJECT__15
10
24.326000
20
-22.408001
30
-25.937000
70
192
0
VERTEX
8
OBJECT__15
10
24.326000
20
-25.045000
30
-18.691999
70
192
0
VERTEX
8
OBJECT__15
10
24.326000
20
-16.631001
30
-32.820999
70
192
0
VERTEX
8
OBJECT__15
10
24.326000
20
-19.934000
30
-28.885000
70
192
0
VERTEX
8
OBJECT__15
10
24.326000
20
-11.066000
30
-36.034000
70
192
0
VERTEX
8
OBJECT__15
10
24.326000
20
-8.849000
30
-37.313999
70
192
0
VERTEX
8
OBJECT__15
10
24.326000
20
0.000000
30
-38.874001
70
192
0
VERTEX
8
OBJECT__15
10
43.160000
20
-16.909000
30
-8.491000
70
192
0
VERTEX
8
OBJECT__15
10
44.032001
20
-15.943000
30
-8.750000
70
192
0
VERTEX
8
OBJECT__15
10
43.160000
20
-17.233999
30
-9.961000
70
192
0
VERTEX
8
OBJECT__15
10
43.160000
20
-17.233999
30
-16.039000
70
192
0
VERTEX
8
OBJECT__15
10
43.160000
20
-16.909000
30
-17.509001
70
192
0
VERTEX
8
OBJECT__15
10
44.032001
20
-15.943000
30
-17.250000
70
192
0
VERTEX
8
OBJECT__15
10
44.032001
20
0.000000
30
-29.500000
70
192
0
VERTEX
8
OBJECT__15
10
0
20
0
30
0
70
128
71
1
72
2
73
3
0
VERTEX
8
OBJECT__15
10
0
20
0
30
0
70
128
71
4
72
3
73
5
0
VERTEX
8
OBJECT__15
10
0
20
0
30
0
70
128
71
6
72
5
73
7
0
VERTEX
8
OBJECT__15
10
0
20
0
30
0
70
128
71
8
72
9
73
10
0
VERTEX
8
OBJECT__15
10
0
20
0
30
0
70
128
71
11
72
10
73
12
0
VERTEX
8
OBJECT__15
10
0
20
0
30
0
70
128
71
13
72
14
73
12
0
VERTEX
8
OBJECT__15
10
0
20
0
30
0
70
128
71
15
72
16
73
1
0
VERTEX
8
OBJECT__15
10
0
20
0
30
0
70
128
71
4
72
6
73
17
0
VERTEX
8
OBJECT__15
10
0
20
0
30
0
70
128
71
6
72
18
73
19
0
VERTEX
8
OBJECT__15
10
0
20
0
30
0
70
128
71
18
72
20
73
21
0
VERTEX
8
OBJECT__15
10
0
20
0
30
0
70
128
71
20
72
22
73
23
0
VERTEX
8
OBJECT__15
10
0
20
0
30
0
70
128
71
22
72
8
73
24
0
VERTEX
8
OBJECT__15
10
0
20
0
30
0
70
128
71
8
72
11
73
25
0
VERTEX
8
OBJECT__15
10
0
20
0
30
0
70
128
71
11
72
14
73
26
0
VERTEX
8
OBJECT__15
10
0
20
0
30
0
70
128
71
27
72
26
73
14
0
VERTEX
8
OBJECT__15
10
0
20
0
30
0
70
128
71
28
72
29
73
16
0
VERTEX
8
OBJECT__15
10
0
20
0
30
0
70
128
71
17
72
30
73
31
0
VERTEX
8
OBJECT__15
10
0
20
0
30
0
70
128
71
31
72
15
73
17
0
VERTEX
8
OBJECT__15
10
0
20
0
30
0
70
128
71
17
72
19
73
32
0
VERTEX
8
OBJECT__15
10
0
20
0
30
0
70
128
71
19
72
33
73
32
0
VERTEX
8
OBJECT__15
10
0
20
0
30
0
70
128
71
19
72
21
73
34
0
VERTEX
8
OBJECT__15
10
0
20
0
30
0
70
128
71
21
72
35
73
34
0
VERTEX
8
OBJECT__15
10
0
20
0
30
0
70
128
71
36
72
35
73
21
0
VERTEX
8
OBJECT__15
10
0
20
0
30
0
70
128
71
24
72
37
73
38
0
VERTEX
8
OBJECT__15
10
0
20
0
30
0
70
128
71
38
72
23
73
24
0
VERTEX
8
OBJECT__15
10
0
20
0
30
0
70
128
71
25
72
39
73
40
0
VERTEX
8
OBJECT__15
10
0
20
0
30
0
70
128
71
40
72
24
73
25
0
VERTEX
8
OBJECT__15
10
0
20
0
30
0
70
128
71
25
72
26
73
41
0
VERTEX
8
OBJECT__15
10
0
20
0
30
0
70
128
71
26
72
42
73
41
0
VERTEX
8
OBJECT__15
10
0
20
0
30
0
70
128
71
43
72
42
73
26
0
VERTEX
8
OBJECT__15
10
0
20
0
30
0
70
128
71
20
72
18
73
44
0
VERTEX
8
OBJECT__15
10
0
20
0
30
0
70
128
71
7
72
45
73
44
0
VERTEX
8
OBJECT__15
10
0
20
0
30
0
70
128
71
44
72
18
73
7
0
VERTEX
8
OBJECT__15
10
0
20
0
30
0
70
128
71
20
72
46
73
47
0
VERTEX
8
OBJECT__15
10
0
20
0
30
0
70
128
71
9
72
8
73
48
0
VERTEX
8
OBJECT__15
10
0
20
0
30
0
70
128
71
22
72
47
73
48
0
VERTEX
8
OBJECT__15
10
0
20
0
30
0
70
128
71
48
72
8
73
22
0
VERTEX
8
OBJECT__15
10
0
20
0
30
0
70
128
71
48
72
49
73
9
0
VERTEX
8
OBJECT__15
10
0
20
0
30
0
70
128
71
47
72
22
73
20
0
VERTEX
8
OBJECT__15
10
0
20
0
30
0
70
128
71
44
72
46
73
20
0
VERTEX
8
OBJECT__15
10
0
20
0
30
0
70
128
71
26
72
27
73
43
0
VERTEX
8
OBJECT__15
10
0
20
0
30
0
70
128
71
41
72
39
73
25
0
VERTEX
8
OBJECT__15
10
0
20
0
30
0
70
128
71
40
72
37
73
24
0
VERTEX
8
OBJECT__15
10
0
20
0
30
0
70
128
71
38
72
36
73
23
0
VERTEX
8
OBJECT__15
10
0
20
0
30
0
70
128
71
21
72
23
73
36
0
VERTEX
8
OBJECT__15
10
0
20
0
30
0
70
128
71
34
72
33
73
19
0
VERTEX
8
OBJECT__15
10
0
20
0
30
0
70
128
71
32
72
30
73
17
0
VERTEX
8
OBJECT__15
10
0
20
0
30
0
70
128
71
31
72
28
73
15
0
VERTEX
8
OBJECT__15
10
0
20
0
30
0
70
128
71
16
72
15
73
28
0
VERTEX
8
OBJECT__15
10
0
20
0
30
0
70
128
71
14
72
13
73
27
0
VERTEX
8
OBJECT__15
10
0
20
0
30
0
70
128
71
26
72
25
73
11
0
VERTEX
8
OBJECT__15
10
0
20
0
30
0
70
128
71
25
72
24
73
8
0
VERTEX
8
OBJECT__15
10
0
20
0
30
0
70
128
71
24
72
23
73
22
0
VERTEX
8
OBJECT__15
10
0
20
0
30
0
70
128
71
23
72
21
73
20
0
VERTEX
8
OBJECT__15
10
0
20
0
30
0
70
128
71
21
72
19
73
18
0
VERTEX
8
OBJECT__15
10
0
20
0
30
0
70
128
71
19
72
17
73
6
0
VERTEX
8
OBJECT__15
10
0
20
0
30
0
70
128
71
17
72
15
73
4
0
VERTEX
8
OBJECT__15
10
0
20
0
30
0
70
128
71
1
72
4
73
15
0
VERTEX
8
OBJECT__15
10
0
20
0
30
0
70
128
71
12
72
50
73
13
0
VERTEX
8
OBJECT__15
10
0
20
0
30
0
70
128
71
12
72
14
73
11
0
VERTEX
8
OBJECT__15
10
0
20
0
30
0
70
128
71
10
72
11
73
8
0
VERTEX
8
OBJECT__15
10
0
20
0
30
0
70
128
71
7
72
18
73
6
0
VERTEX
8
OBJECT__15
10
0
20
0
30
0
70
128
71
5
72
6
73
4
0
VERTEX
8
OBJECT__15
10
0
20
0
30
0
70
128
71
3
72
4
73
1
0
SEQEND
8
OBJECT__15
0
POLYLINE
8
OBJECT__16
66
1
70
64
71
30
72
30
62
253
0
VERTEX
8
OBJECT__16
10
0.000000
20
0.000000
30
-39.085999
70
192
0
VERTEX
8
OBJECT__16
10
0.000000
20
11.318000
30
-36.502998
70
192
0
VERTEX
8
OBJECT__16
10
0.000000
20
9.342000
30
-35.553001
70
192
0
VERTEX
8
OBJECT__16
10
0.000000
20
20.395000
30
-29.264999
70
192
0
VERTEX
8
OBJECT__16
10
0.000000
20
17.261000
30
-30.261000
70
192
0
VERTEX
8
OBJECT__16
10
0.000000
20
25.431999
30
-18.805000
70
192
0
VERTEX
8
OBJECT__16
10
0.000000
20
25.431999
30
-7.195000
70
192
0
VERTEX
8
OBJECT__16
10
0.000000
20
24.410999
30
-13.000000
70
192
0
VERTEX
8
OBJECT__16
10
0.000000
20
22.552999
30
-22.341999
70
192
0
VERTEX
8
OBJECT__16
10
0.000000
20
22.552999
30
-3.658000
70
192
0
VERTEX
8
OBJECT__16
10
0.000000
20
20.395000
30
3.265000
70
192
0
VERTEX
8
OBJECT__16
10
0.000000
20
17.261000
30
4.261000
70
192
0
VERTEX
8
OBJECT__16
10
0.000000
20
-25.431999
30
-18.805000
70
192
0
VERTEX
8
OBJECT__16
10
0.000000
20
-22.552999
30
-22.341999
70
192
0
VERTEX
8
OBJECT__16
10
0.000000
20
-24.410999
30
-13.000000
70
192
0
VERTEX
8
OBJECT__16
10
0.000000
20
-25.431999
30
-7.195000
70
192
0
VERTEX
8
OBJECT__16
10
0.000000
20
-20.395000
30
-29.264999
70
192
0
VERTEX
8
OBJECT__16
10
0.000000
20
-17.261000
30
-30.261000
70
192
0
VERTEX
8
OBJECT__16
10
0.000000
20
-11.318000
30
-36.502998
70
192
0
VERTEX
8
OBJECT__16
10
0.000000
20
-9.342000
30
-35.553001
70
192
0
VERTEX
8
OBJECT__16
10
0.000000
20
0.000000
30
-37.410999
70
192
0
VERTEX
8
OBJECT__16
10
0.000000
20
11.318000
30
10.503000
70
192
0
VERTEX
8
OBJECT__16
10
0.000000
20
9.342000
30
9.553000
70
192
0
VERTEX
8
OBJECT__16
10
0.000000
20
0.000000
30
13.086000
70
192
0
VERTEX
8
OBJECT__16
10
0.000000
20
0.000000
30
11.411000
70
192
0
VERTEX
8
OBJECT__16
10
0.000000
20
-11.318000
30
10.503000
70
192
0
VERTEX
8
OBJECT__16
10
0.000000
20
-9.342000
30
9.553000
70
192
0
VERTEX
8
OBJECT__16
10
0.000000
20
-20.395000
30
3.265000
70
192
0
VERTEX
8
OBJECT__16
10
0.000000
20
-17.261000
30
4.261000
70
192
0
VERTEX
8
OBJECT__16
10
0.000000
20
-22.552999
30
-3.658000
70
192
0
VERTEX
8
OBJECT__16
10
0
20
0
30
0
70
128
71
1
72
2
73
3
0
VERTEX
8
OBJECT__16
10
0
20
0
30
0
70
128
71
2
72
4
73
5
0
VERTEX
8
OBJECT__16
10
0
20
0
30
0
70
128
71
6
72
7
73
8
0
VERTEX
8
OBJECT__16
10
0
20
0
30
0
70
128
71
5
72
3
73
2
0
VERTEX
8
OBJECT__16
10
0
20
0
30
0
70
128
71
4
72
6
73
9
0
VERTEX
8
OBJECT__16
10
0
20
0
30
0
70
128
71
7
72
10
73
8
0
VERTEX
8
OBJECT__16
10
0
20
0
30
0
70
128
71
11
72
12
73
10
0
VERTEX
8
OBJECT__16
10
0
20
0
30
0
70
128
71
13
72
14
73
15
0
VERTEX
8
OBJECT__16
10
0
20
0
30
0
70
128
71
9
72
5
73
4
0
VERTEX
8
OBJECT__16
10
0
20
0
30
0
70
128
71
10
72
7
73
11
0
VERTEX
8
OBJECT__16
10
0
20
0
30
0
70
128
71
15
72
16
73
13
0
VERTEX
8
OBJECT__16
10
0
20
0
30
0
70
128
71
17
72
18
73
14
0
VERTEX
8
OBJECT__16
10
0
20
0
30
0
70
128
71
19
72
20
73
18
0
VERTEX
8
OBJECT__16
10
0
20
0
30
0
70
128
71
1
72
21
73
20
0
VERTEX
8
OBJECT__16
10
0
20
0
30
0
70
128
71
8
72
9
73
6
0
VERTEX
8
OBJECT__16
10
0
20
0
30
0
70
128
71
22
72
23
73
12
0
VERTEX
8
OBJECT__16
10
0
20
0
30
0
70
128
71
24
72
25
73
23
0
VERTEX
8
OBJECT__16
10
0
20
0
30
0
70
128
71
24
72
26
73
27
0
VERTEX
8
OBJECT__16
10
0
20
0
30
0
70
128
71
26
72
28
73
29
0
VERTEX
8
OBJECT__16
10
0
20
0
30
0
70
128
71
28
72
16
73
30
0
VERTEX
8
OBJECT__16
10
0
20
0
30
0
70
128
71
14
72
13
73
17
0
VERTEX
8
OBJECT__16
10
0
20
0
30
0
70
128
71
20
72
19
73
1
0
VERTEX
8
OBJECT__16
10
0
20
0
30
0
70
128
71
12
72
11
73
22
0
VERTEX
8
OBJECT__16
10
0
20
0
30
0
70
128
71
27
72
25
73
24
0
VERTEX
8
OBJECT__16
10
0
20
0
30
0
70
128
71
30
72
29
73
28
0
VERTEX
8
OBJECT__16
10
0
20
0
30
0
70
128
71
18
72
17
73
19
0
VERTEX
8
OBJECT__16
10
0
20
0
30
0
70
128
71
23
72
22
73
24
0
VERTEX
8
OBJECT__16
10
0
20
0
30
0
70
128
71
15
72
30
73
16
0
VERTEX
8
OBJECT__16
10
0
20
0
30
0
70
128
71
29
72
27
73
26
0
VERTEX
8
OBJECT__16
10
0
20
0
30
0
70
128
71
3
72
21
73
1
0
SEQEND
8
OBJECT__16
0
POLYLINE
8
OBJECT__17
66
1
70
64
71
36
72
34
62
253
0
VERTEX
8
OBJECT__17
10
78.417999
20
-12.398000
30
-115.518997
70
192
0
VERTEX
8
OBJECT__17
10
80.982002
20
-14.902000
30
-121.219002
70
192
0
VERTEX
8
OBJECT__17
10
80.866997
20
-14.918000
30
-120.927002
70
192
0
VERTEX
8
OBJECT__17
10
78.353996
20
-15.265000
30
-114.552002
70
192
0
VERTEX
8
OBJECT__17
10
78.471001
20
-7.907000
30
-116.442001
70
192
0
VERTEX
8
OBJECT__17
10
82.249001
20
-13.967000
30
-124.433998
70
192
0
VERTEX
8
OBJECT__17
10
83.333000
20
-12.357000
30
-127.182999
70
192
0
VERTEX
8
OBJECT__17
10
83.402000
20
-12.254000
30
-127.359001
70
192
0
VERTEX
8
OBJECT__17
10
78.496002
20
-3.962000
30
-116.906998
70
192
0
VERTEX
8
OBJECT__17
10
85.116997
20
-6.902000
30
-131.707993
70
192
0
VERTEX
8
OBJECT__17
10
85.095001
20
-6.987000
30
-131.653000
70
192
0
VERTEX
8
OBJECT__17
10
78.488998
20
-6.382000
30
-116.755997
70
192
0
VERTEX
8
OBJECT__17
10
84.376999
20
-9.856000
30
-129.830002
70
192
0
VERTEX
8
OBJECT__17
10
78.473000
20
-7.736000
30
-116.476997
70
192
0
VERTEX
8
OBJECT__17
10
85.737000
20
0.000000
30
-133.279999
70
192
0
VERTEX
8
OBJECT__17
10
85.579002
20
-3.551000
30
-132.880997
70
192
0
VERTEX
8
OBJECT__17
10
78.505997
20
0.002000
30
-117.154999
70
192
0
VERTEX
8
OBJECT__17
10
85.737000
20
0.001000
30
-133.279999
70
192
0
VERTEX
8
OBJECT__17
10
78.507004
20
0.230000
30
-117.168999
70
192
0
VERTEX
8
OBJECT__17
10
85.572998
20
3.600000
30
-132.865005
70
192
0
VERTEX
8
OBJECT__17
10
85.579002
20
3.555000
30
-132.880997
70
192
0
VERTEX
8
OBJECT__17
10
78.494003
20
3.964000
30
-116.875999
70
192
0
VERTEX
8
OBJECT__17
10
85.115997
20
6.904000
30
-131.705994
70
192
0
VERTEX
8
OBJECT__17
10
78.476997
20
7.749000
30
-116.531998
70
192
0
VERTEX
8
OBJECT__17
10
78.474998
20
7.901000
30
-116.497002
70
192
0
VERTEX
8
OBJECT__17
10
83.401001
20
12.257000
30
-127.355003
70
192
0
VERTEX
8
OBJECT__17
10
84.375999
20
9.860000
30
-129.826996
70
192
0
VERTEX
8
OBJECT__17
10
78.481003
20
7.441000
30
-116.602997
70
192
0
VERTEX
8
OBJECT__17
10
85.095001
20
6.987000
30
-131.653000
70
192
0
VERTEX
8
OBJECT__17
10
78.422997
20
11.786000
30
-115.600998
70
192
0
VERTEX
8
OBJECT__17
10
80.980003
20
14.903000
30
-121.214996
70
192
0
VERTEX
8
OBJECT__17
10
82.248001
20
13.968000
30
-124.431000
70
192
0
VERTEX
8
OBJECT__17
10
78.403999
20
13.233000
30
-115.266998
70
192
0
VERTEX
8
OBJECT__17
10
80.866997
20
14.919000
30
-120.928001
70
192
0
VERTEX
8
OBJECT__17
10
78.352997
20
15.265000
30
-114.552002
70
192
0
VERTEX
8
OBJECT__17
10
78.426003
20
-11.741000
30
-115.653999
70
192
0
VERTEX
8
OBJECT__17
10
0
20
0
30
0
70
128
71
1
72
2
73
3
0
VERTEX
8
OBJECT__17
10
0
20
0
30
0
70
128
71
3
72
4
73
1
0
VERTEX
8
OBJECT__17
10
0
20
0
30
0
70
128
71
5
72
6
73
2
0
VERTEX
8
OBJECT__17
10
0
20
0
30
0
70
128
71
5
72
7
73
6
0
VERTEX
8
OBJECT__17
10
0
20
0
30
0
70
128
71
5
72
8
73
7
0
VERTEX
8
OBJECT__17
10
0
20
0
30
0
70
128
71
9
72
10
73
11
0
VERTEX
8
OBJECT__17
10
0
20
0
30
0
70
128
71
12
72
11
73
13
0
VERTEX
8
OBJECT__17
10
0
20
0
30
0
70
128
71
14
72
13
73
8
0
VERTEX
8
OBJECT__17
10
0
20
0
30
0
70
128
71
8
72
5
73
14
0
VERTEX
8
OBJECT__17
10
0
20
0
30
0
70
128
71
13
72
14
73
12
0
VERTEX
8
OBJECT__17
10
0
20
0
30
0
70
128
71
9
72
15
73
16
0
VERTEX
8
OBJECT__17
10
0
20
0
30
0
70
128
71
17
72
18
73
15
0
VERTEX
8
OBJECT__17
10
0
20
0
30
0
70
128
71
15
72
9
73
17
0
VERTEX
8
OBJECT__17
10
0
20
0
30
0
70
128
71
16
72
10
73
9
0
VERTEX
8
OBJECT__17
10
0
20
0
30
0
70
128
71
19
72
20
73
21
0
VERTEX
8
OBJECT__17
10
0
20
0
30
0
70
128
71
19
72
22
73
23
0
VERTEX
8
OBJECT__17
10
0
20
0
30
0
70
128
71
23
72
20
73
19
0
VERTEX
8
OBJECT__17
10
0
20
0
30
0
70
128
71
18
72
17
73
19
0
VERTEX
8
OBJECT__17
10
0
20
0
30
0
70
128
71
24
72
25
73
26
0
VERTEX
8
OBJECT__17
10
0
20
0
30
0
70
128
71
27
72
28
73
24
0
VERTEX
8
OBJECT__17
10
0
20
0
30
0
70
128
71
22
72
28
73
27
0
VERTEX
8
OBJECT__17
10
0
20
0
30
0
70
128
71
27
72
29
73
22
0
VERTEX
8
OBJECT__17
10
0
20
0
30
0
70
128
71
29
72
23
73
22
0
VERTEX
8
OBJECT__17
10
0
20
0
30
0
70
128
71
25
72
30
73
31
0
VERTEX
8
OBJECT__17
10
0
20
0
30
0
70
128
71
31
72
32
73
25
0
VERTEX
8
OBJECT__17
10
0
20
0
30
0
70
128
71
30
72
33
73
34
0
VERTEX
8
OBJECT__17
10
0
20
0
30
0
70
128
71
34
72
31
73
30
0
VERTEX
8
OBJECT__17
10
0
20
0
30
0
70
128
71
33
72
35
73
34
0
VERTEX
8
OBJECT__17
10
0
20
0
30
0
70
128
71
32
72
26
73
25
0
VERTEX
8
OBJECT__17
10
0
20
0
30
0
70
128
71
26
72
27
73
24
0
VERTEX
8
OBJECT__17
10
0
20
0
30
0
70
128
71
21
72
18
73
19
0
VERTEX
8
OBJECT__17
10
0
20
0
30
0
70
128
71
11
72
12
73
9
0
VERTEX
8
OBJECT__17
10
0
20
0
30
0
70
128
71
2
72
36
73
5
0
VERTEX
8
OBJECT__17
10
0
20
0
30
0
70
128
71
1
72
36
73
2
0
SEQEND
8
OBJECT__17
0
POLYLINE
8
OBJECT__18
66
1
70
64
71
32
72
30
62
253
0
VERTEX
8
OBJECT__18
10
78.285004
20
3.939000
30
-114.575996
70
192
0
VERTEX
8
OBJECT__18
10
78.075996
20
7.780000
30
-113.930000
70
192
0
VERTEX
8
OBJECT__18
10
78.481003
20
7.441000
30
-116.602997
70
192
0
VERTEX
8
OBJECT__18
10
78.476997
20
7.749000
30
-116.531998
70
192
0
VERTEX
8
OBJECT__18
10
78.494003
20
3.964000
30
-116.875999
70
192
0
VERTEX
8
OBJECT__18
10
78.306999
20
0.002000
30
-114.646004
70
192
0
VERTEX
8
OBJECT__18
10
78.507004
20
0.230000
30
-117.168999
70
192
0
VERTEX
8
OBJECT__18
10
78.505997
20
0.002000
30
-117.154999
70
192
0
VERTEX
8
OBJECT__18
10
78.306999
20
-0.003000
30
-114.646004
70
192
0
VERTEX
8
OBJECT__18
10
78.426003
20
-11.741000
30
-115.653999
70
192
0
VERTEX
8
OBJECT__18
10
77.845001
20
-11.560000
30
-112.971001
70
192
0
VERTEX
8
OBJECT__18
10
78.111000
20
-7.838000
30
-113.994003
70
192
0
VERTEX
8
OBJECT__18
10
78.473000
20
-7.736000
30
-116.476997
70
192
0
VERTEX
8
OBJECT__18
10
78.471001
20
-7.907000
30
-116.442001
70
192
0
VERTEX
8
OBJECT__18
10
78.417999
20
-12.398000
30
-115.518997
70
192
0
VERTEX
8
OBJECT__18
10
78.353996
20
-15.265000
30
-114.552002
70
192
0
VERTEX
8
OBJECT__18
10
77.700996
20
-13.565000
30
-112.420998
70
192
0
VERTEX
8
OBJECT__18
10
77.911003
20
-15.315000
30
-113.153000
70
192
0
VERTEX
8
OBJECT__18
10
77.626999
20
-15.361000
30
-111.712997
70
192
0
VERTEX
8
OBJECT__18
10
77.862000
20
11.568000
30
-113.024002
70
192
0
VERTEX
8
OBJECT__18
10
78.403999
20
13.233000
30
-115.266998
70
192
0
VERTEX
8
OBJECT__18
10
78.422997
20
11.786000
30
-115.600998
70
192
0
VERTEX
8
OBJECT__18
10
77.917000
20
15.318000
30
-113.178001
70
192
0
VERTEX
8
OBJECT__18
10
78.352997
20
15.265000
30
-114.552002
70
192
0
VERTEX
8
OBJECT__18
10
77.635002
20
15.367000
30
-111.764999
70
192
0
VERTEX
8
OBJECT__18
10
78.474998
20
7.901000
30
-116.497002
70
192
0
VERTEX
8
OBJECT__18
10
78.073997
20
7.820000
30
-113.924004
70
192
0
VERTEX
8
OBJECT__18
10
77.960999
20
9.914000
30
-113.571999
70
192
0
VERTEX
8
OBJECT__18
10
78.496002
20
-3.962000
30
-116.906998
70
192
0
VERTEX
8
OBJECT__18
10
78.320000
20
-2.283000
30
-114.685997
70
192
0
VERTEX
8
OBJECT__18
10
78.112999
20
-7.788000
30
-114.000000
70
192
0
VERTEX
8
OBJECT__18
10
78.488998
20
-6.382000
30
-116.755997
70
192
0
VERTEX
8
OBJECT__18
10
0
20
0
30
0
70
128
71
1
72
2
73
3
0
VERTEX
8
OBJECT__18
10
0
20
0
30
0
70
128
71
2
72
4
73
3
0
VERTEX
8
OBJECT__18
10
0
20
0
30
0
70
128
71
3
72
5
73
1
0
VERTEX
8
OBJECT__18
10
0
20
0
30
0
70
128
71
6
72
1
73
5
0
VERTEX
8
OBJECT__18
10
0
20
0
30
0
70
128
71
5
72
7
73
6
0
VERTEX
8
OBJECT__18
10
0
20
0
30
0
70
128
71
8
72
9
73
6
0
VERTEX
8
OBJECT__18
10
0
20
0
30
0
70
128
71
7
72
8
73
6
0
VERTEX
8
OBJECT__18
10
0
20
0
30
0
70
128
71
10
72
11
73
12
0
VERTEX
8
OBJECT__18
10
0
20
0
30
0
70
128
71
12
72
13
73
14
0
VERTEX
8
OBJECT__18
10
0
20
0
30
0
70
128
71
12
72
14
73
10
0
VERTEX
8
OBJECT__18
10
0
20
0
30
0
70
128
71
15
72
16
73
17
0
VERTEX
8
OBJECT__18
10
0
20
0
30
0
70
128
71
17
72
11
73
15
0
VERTEX
8
OBJECT__18
10
0
20
0
30
0
70
128
71
17
72
16
73
18
0
VERTEX
8
OBJECT__18
10
0
20
0
30
0
70
128
71
18
72
19
73
17
0
VERTEX
8
OBJECT__18
10
0
20
0
30
0
70
128
71
20
72
21
73
22
0
VERTEX
8
OBJECT__18
10
0
20
0
30
0
70
128
71
20
72
23
73
24
0
VERTEX
8
OBJECT__18
10
0
20
0
30
0
70
128
71
24
72
21
73
20
0
VERTEX
8
OBJECT__18
10
0
20
0
30
0
70
128
71
20
72
25
73
23
0
VERTEX
8
OBJECT__18
10
0
20
0
30
0
70
128
71
26
72
27
73
28
0
VERTEX
8
OBJECT__18
10
0
20
0
30
0
70
128
71
28
72
22
73
26
0
VERTEX
8
OBJECT__18
10
0
20
0
30
0
70
128
71
26
72
4
73
27
0
VERTEX
8
OBJECT__18
10
0
20
0
30
0
70
128
71
8
72
29
73
30
0
VERTEX
8
OBJECT__18
10
0
20
0
30
0
70
128
71
31
72
30
73
29
0
VERTEX
8
OBJECT__18
10
0
20
0
30
0
70
128
71
29
72
32
73
31
0
VERTEX
8
OBJECT__18
10
0
20
0
30
0
70
128
71
13
72
12
73
31
0
VERTEX
8
OBJECT__18
10
0
20
0
30
0
70
128
71
32
72
13
73
31
0
VERTEX
8
OBJECT__18
10
0
20
0
30
0
70
128
71
30
72
9
73
8
0
VERTEX
8
OBJECT__18
10
0
20
0
30
0
70
128
71
22
72
28
73
20
0
VERTEX
8
OBJECT__18
10
0
20
0
30
0
70
128
71
10
72
15
73
11
0
VERTEX
8
OBJECT__18
10
0
20
0
30
0
70
128
71
2
72
27
73
4
0
SEQEND
8
OBJECT__18
0
POLYLINE
8
OBJECT__20
66
1
70
64
71
73
72
81
62
253
0
VERTEX
8
OBJECT__20
10
87.010002
20
-0.035000
30
-132.975998
70
192
0
VERTEX
8
OBJECT__20
10
86.899002
20
3.460000
30
-132.380997
70
192
0
VERTEX
8
OBJECT__20
10
87.838997
20
3.213000
30
-131.244995
70
192
0
VERTEX
8
OBJECT__20
10
85.737000
20
0.001000
30
-133.279999
70
192
0
VERTEX
8
OBJECT__20
10
85.579002
20
3.555000
30
-132.880997
70
192
0
VERTEX
8
OBJECT__20
10
85.737000
20
0.000000
30
-133.279999
70
192
0
VERTEX
8
OBJECT__20
10
85.572998
20
3.600000
30
-132.865005
70
192
0
VERTEX
8
OBJECT__20
10
85.195999
20
12.662000
30
-127.452003
70
192
0
VERTEX
8
OBJECT__20
10
82.614998
20
15.503000
30
-120.850998
70
192
0
VERTEX
8
OBJECT__20
10
84.236000
20
13.659000
30
-122.103996
70
192
0
VERTEX
8
OBJECT__20
10
83.456001
20
13.985000
30
-120.125999
70
192
0
VERTEX
8
OBJECT__20
10
83.698997
20
13.884000
30
-120.740997
70
192
0
VERTEX
8
OBJECT__20
10
85.508003
20
12.109000
30
-125.332001
70
192
0
VERTEX
8
OBJECT__20
10
86.236000
20
6.690000
30
-130.852997
70
192
0
VERTEX
8
OBJECT__20
10
86.584999
20
9.686000
30
-128.063004
70
192
0
VERTEX
8
OBJECT__20
10
85.744003
20
11.577000
30
-125.930000
70
192
0
VERTEX
8
OBJECT__20
10
85.871002
20
11.293000
30
-126.250999
70
192
0
VERTEX
8
OBJECT__20
10
87.341003
20
6.804000
30
-129.981003
70
192
0
VERTEX
8
OBJECT__20
10
87.406998
20
6.334000
30
-130.147003
70
192
0
VERTEX
8
OBJECT__20
10
87.376999
20
6.544000
30
-130.072998
70
192
0
VERTEX
8
OBJECT__20
10
85.195999
20
-12.662000
30
-127.452003
70
192
0
VERTEX
8
OBJECT__20
10
86.241997
20
-10.608000
30
-127.193001
70
192
0
VERTEX
8
OBJECT__20
10
85.875000
20
-11.297000
30
-126.263000
70
192
0
VERTEX
8
OBJECT__20
10
87.004997
20
-7.100000
30
-132.074005
70
192
0
VERTEX
8
OBJECT__20
10
87.041000
20
-8.136000
30
-129.218994
70
192
0
VERTEX
8
OBJECT__20
10
87.342003
20
-6.489000
30
-129.981995
70
192
0
VERTEX
8
OBJECT__20
10
82.614998
20
-15.503000
30
-120.850998
70
192
0
VERTEX
8
OBJECT__20
10
83.882004
20
-13.905000
30
-121.205002
70
192
0
VERTEX
8
OBJECT__20
10
83.703003
20
-13.945000
30
-120.751999
70
192
0
VERTEX
8
OBJECT__20
10
85.146004
20
-12.667000
30
-124.413002
70
192
0
VERTEX
8
OBJECT__20
10
85.741997
20
-11.547000
30
-125.925003
70
192
0
VERTEX
8
OBJECT__20
10
87.710999
20
-4.469000
30
-130.917999
70
192
0
VERTEX
8
OBJECT__20
10
87.377998
20
-6.292000
30
-130.074005
70
192
0
VERTEX
8
OBJECT__20
10
87.969002
20
-0.600000
30
-131.572998
70
192
0
VERTEX
8
OBJECT__20
10
87.948997
20
-0.007000
30
-131.522003
70
192
0
VERTEX
8
OBJECT__20
10
85.919998
20
-7.153000
30
-132.343994
70
192
0
VERTEX
8
OBJECT__20
10
84.376999
20
-9.856000
30
-129.830002
70
192
0
VERTEX
8
OBJECT__20
10
85.095001
20
-6.987000
30
-131.653000
70
192
0
VERTEX
8
OBJECT__20
10
83.402000
20
-12.254000
30
-127.359001
70
192
0
VERTEX
8
OBJECT__20
10
83.333000
20
-12.357000
30
-127.182999
70
192
0
VERTEX
8
OBJECT__20
10
82.249001
20
-13.967000
30
-124.433998
70
192
0
VERTEX
8
OBJECT__20
10
80.866997
20
-14.918000
30
-120.927002
70
192
0
VERTEX
8
OBJECT__20
10
80.982002
20
-14.902000
30
-121.219002
70
192
0
VERTEX
8
OBJECT__20
10
85.116997
20
-6.902000
30
-131.707993
70
192
0
VERTEX
8
OBJECT__20
10
85.579002
20
-3.551000
30
-132.880997
70
192
0
VERTEX
8
OBJECT__20
10
86.573997
20
0.000000
30
-134.016998
70
192
0
VERTEX
8
OBJECT__20
10
82.248001
20
13.968000
30
-124.431000
70
192
0
VERTEX
8
OBJECT__20
10
80.980003
20
14.903000
30
-121.214996
70
192
0
VERTEX
8
OBJECT__20
10
83.401001
20
12.257000
30
-127.355003
70
192
0
VERTEX
8
OBJECT__20
10
85.095001
20
6.987000
30
-131.653000
70
192
0
VERTEX
8
OBJECT__20
10
84.375999
20
9.860000
30
-129.826996
70
192
0
VERTEX
8
OBJECT__20
10
85.115997
20
6.904000
30
-131.705994
70
192
0
VERTEX
8
OBJECT__20
10
78.651001
20
15.985000
30
-114.233002
70
192
0
VERTEX
8
OBJECT__20
10
79.432999
20
16.243000
30
-114.058998
70
192
0
VERTEX
8
OBJECT__20
10
80.866997
20
14.919000
30
-120.928001
70
192
0
VERTEX
8
OBJECT__20
10
78.352997
20
15.265000
30
-114.552002
70
192
0
VERTEX
8
OBJECT__20
10
81.286003
20
14.431000
30
-114.634003
70
192
0
VERTEX
8
OBJECT__20
10
81.295998
20
14.393000
30
-114.647003
70
192
0
VERTEX
8
OBJECT__20
10
81.374001
20
14.385000
30
-114.845001
70
192
0
VERTEX
8
OBJECT__20
10
79.934998
20
16.028999
30
-114.111000
70
192
0
VERTEX
8
OBJECT__20
10
79.949997
20
16.023001
30
-114.112000
70
192
0
VERTEX
8
OBJECT__20
10
80.468002
20
15.802000
30
-114.166000
70
192
0
VERTEX
8
OBJECT__20
10
82.875000
20
14.229000
30
-118.652000
70
192
0
VERTEX
8
OBJECT__20
10
82.033997
20
-14.316000
30
-116.517998
70
192
0
VERTEX
8
OBJECT__20
10
80.468002
20
-15.803000
30
-114.166000
70
192
0
VERTEX
8
OBJECT__20
10
79.948997
20
-16.023001
30
-114.112999
70
192
0
VERTEX
8
OBJECT__20
10
81.295998
20
-14.393000
30
-114.646004
70
192
0
VERTEX
8
OBJECT__20
10
81.285004
20
-14.438000
30
-114.630997
70
192
0
VERTEX
8
OBJECT__20
10
83.459999
20
-13.999000
30
-120.136002
70
192
0
VERTEX
8
OBJECT__20
10
79.934998
20
-16.028999
30
-114.111000
70
192
0
VERTEX
8
OBJECT__20
10
78.652000
20
-15.985000
30
-114.233002
70
192
0
VERTEX
8
OBJECT__20
10
78.353996
20
-15.265000
30
-114.552002
70
192
0
VERTEX
8
OBJECT__20
10
79.432999
20
-16.243000
30
-114.059998
70
192
0
VERTEX
8
OBJECT__20
10
0
20
0
30
0
70
128
71
1
72
2
73
3
0
VERTEX
8
OBJECT__20
10
0
20
0
30
0
70
128
71
2
72
4
73
5
0
VERTEX
8
OBJECT__20
10
0
20
0
30
0
70
128
71
1
72
6
73
4
0
VERTEX
8
OBJECT__20
10
0
20
0
30
0
70
128
71
4
72
2
73
1
0
VERTEX
8
OBJECT__20
10
0
20
0
30
0
70
128
71
5
72
7
73
2
0
VERTEX
8
OBJECT__20
10
0
20
0
30
0
70
128
71
8
72
9
73
10
0
VERTEX
8
OBJECT__20
10
0
20
0
30
0
70
128
71
9
72
11
73
12
0
VERTEX
8
OBJECT__20
10
0
20
0
30
0
70
128
71
12
72
10
73
9
0
VERTEX
8
OBJECT__20
10
0
20
0
30
0
70
128
71
10
72
13
73
8
0
VERTEX
8
OBJECT__20
10
0
20
0
30
0
70
128
71
14
72
8
73
15
0
VERTEX
8
OBJECT__20
10
0
20
0
30
0
70
128
71
8
72
16
73
17
0
VERTEX
8
OBJECT__20
10
0
20
0
30
0
70
128
71
17
72
15
73
8
0
VERTEX
8
OBJECT__20
10
0
20
0
30
0
70
128
71
15
72
18
73
14
0
VERTEX
8
OBJECT__20
10
0
20
0
30
0
70
128
71
2
72
14
73
19
0
VERTEX
8
OBJECT__20
10
0
20
0
30
0
70
128
71
14
72
20
73
19
0
VERTEX
8
OBJECT__20
10
0
20
0
30
0
70
128
71
21
72
22
73
23
0
VERTEX
8
OBJECT__20
10
0
20
0
30
0
70
128
71
21
72
24
73
25
0
VERTEX
8
OBJECT__20
10
0
20
0
30
0
70
128
71
25
72
22
73
21
0
VERTEX
8
OBJECT__20
10
0
20
0
30
0
70
128
71
24
72
26
73
25
0
VERTEX
8
OBJECT__20
10
0
20
0
30
0
70
128
71
27
72
28
73
29
0
VERTEX
8
OBJECT__20
10
0
20
0
30
0
70
128
71
27
72
21
73
30
0
VERTEX
8
OBJECT__20
10
0
20
0
30
0
70
128
71
21
72
31
73
30
0
VERTEX
8
OBJECT__20
10
0
20
0
30
0
70
128
71
30
72
28
73
27
0
VERTEX
8
OBJECT__20
10
0
20
0
30
0
70
128
71
24
72
32
73
33
0
VERTEX
8
OBJECT__20
10
0
20
0
30
0
70
128
71
1
72
34
73
32
0
VERTEX
8
OBJECT__20
10
0
20
0
30
0
70
128
71
35
72
34
73
1
0
VERTEX
8
OBJECT__20
10
0
20
0
30
0
70
128
71
32
72
24
73
1
0
VERTEX
8
OBJECT__20
10
0
20
0
30
0
70
128
71
36
72
21
73
37
0
VERTEX
8
OBJECT__20
10
0
20
0
30
0
70
128
71
37
72
38
73
36
0
VERTEX
8
OBJECT__20
10
0
20
0
30
0
70
128
71
21
72
39
73
37
0
VERTEX
8
OBJECT__20
10
0
20
0
30
0
70
128
71
21
72
40
73
39
0
VERTEX
8
OBJECT__20
10
0
20
0
30
0
70
128
71
21
72
27
73
41
0
VERTEX
8
OBJECT__20
10
0
20
0
30
0
70
128
71
27
72
42
73
43
0
VERTEX
8
OBJECT__20
10
0
20
0
30
0
70
128
71
43
72
41
73
27
0
VERTEX
8
OBJECT__20
10
0
20
0
30
0
70
128
71
36
72
44
73
45
0
VERTEX
8
OBJECT__20
10
0
20
0
30
0
70
128
71
45
72
46
73
36
0
VERTEX
8
OBJECT__20
10
0
20
0
30
0
70
128
71
36
72
38
73
44
0
VERTEX
8
OBJECT__20
10
0
20
0
30
0
70
128
71
36
72
46
73
1
0
VERTEX
8
OBJECT__20
10
0
20
0
30
0
70
128
71
9
72
47
73
48
0
VERTEX
8
OBJECT__20
10
0
20
0
30
0
70
128
71
8
72
49
73
47
0
VERTEX
8
OBJECT__20
10
0
20
0
30
0
70
128
71
47
72
9
73
8
0
VERTEX
8
OBJECT__20
10
0
20
0
30
0
70
128
71
14
72
50
73
51
0
VERTEX
8
OBJECT__20
10
0
20
0
30
0
70
128
71
51
72
8
73
14
0
VERTEX
8
OBJECT__20
10
0
20
0
30
0
70
128
71
7
72
52
73
14
0
VERTEX
8
OBJECT__20
10
0
20
0
30
0
70
128
71
14
72
2
73
7
0
VERTEX
8
OBJECT__20
10
0
20
0
30
0
70
128
71
9
72
53
73
54
0
VERTEX
8
OBJECT__20
10
0
20
0
30
0
70
128
71
53
72
9
73
55
0
VERTEX
8
OBJECT__20
10
0
20
0
30
0
70
128
71
55
72
56
73
53
0
VERTEX
8
OBJECT__20
10
0
20
0
30
0
70
128
71
57
72
58
73
59
0
VERTEX
8
OBJECT__20
10
0
20
0
30
0
70
128
71
59
72
9
73
57
0
VERTEX
8
OBJECT__20
10
0
20
0
30
0
70
128
71
9
72
60
73
61
0
VERTEX
8
OBJECT__20
10
0
20
0
30
0
70
128
71
61
72
62
73
9
0
VERTEX
8
OBJECT__20
10
0
20
0
30
0
70
128
71
62
72
57
73
9
0
VERTEX
8
OBJECT__20
10
0
20
0
30
0
70
128
71
59
72
63
73
9
0
VERTEX
8
OBJECT__20
10
0
20
0
30
0
70
128
71
64
72
65
73
66
0
VERTEX
8
OBJECT__20
10
0
20
0
30
0
70
128
71
64
72
67
73
68
0
VERTEX
8
OBJECT__20
10
0
20
0
30
0
70
128
71
68
72
65
73
64
0
VERTEX
8
OBJECT__20
10
0
20
0
30
0
70
128
71
27
72
69
73
64
0
VERTEX
8
OBJECT__20
10
0
20
0
30
0
70
128
71
64
72
70
73
27
0
VERTEX
8
OBJECT__20
10
0
20
0
30
0
70
128
71
27
72
71
73
72
0
VERTEX
8
OBJECT__20
10
0
20
0
30
0
70
128
71
27
72
70
73
73
0
VERTEX
8
OBJECT__20
10
0
20
0
30
0
70
128
71
73
72
71
73
27
0
VERTEX
8
OBJECT__20
10
0
20
0
30
0
70
128
71
72
72
42
73
27
0
VERTEX
8
OBJECT__20
10
0
20
0
30
0
70
128
71
66
72
70
73
64
0
VERTEX
8
OBJECT__20
10
0
20
0
30
0
70
128
71
63
72
11
73
9
0
VERTEX
8
OBJECT__20
10
0
20
0
30
0
70
128
71
54
72
60
73
9
0
VERTEX
8
OBJECT__20
10
0
20
0
30
0
70
128
71
52
72
50
73
14
0
VERTEX
8
OBJECT__20
10
0
20
0
30
0
70
128
71
51
72
49
73
8
0
VERTEX
8
OBJECT__20
10
0
20
0
30
0
70
128
71
48
72
55
73
9
0
VERTEX
8
OBJECT__20
10
0
20
0
30
0
70
128
71
1
72
24
73
36
0
VERTEX
8
OBJECT__20
10
0
20
0
30
0
70
128
71
45
72
6
73
46
0
VERTEX
8
OBJECT__20
10
0
20
0
30
0
70
128
71
41
72
40
73
21
0
VERTEX
8
OBJECT__20
10
0
20
0
30
0
70
128
71
36
72
24
73
21
0
VERTEX
8
OBJECT__20
10
0
20
0
30
0
70
128
71
33
72
26
73
24
0
VERTEX
8
OBJECT__20
10
0
20
0
30
0
70
128
71
29
72
69
73
27
0
VERTEX
8
OBJECT__20
10
0
20
0
30
0
70
128
71
23
72
31
73
21
0
VERTEX
8
OBJECT__20
10
0
20
0
30
0
70
128
71
19
72
3
73
2
0
VERTEX
8
OBJECT__20
10
0
20
0
30
0
70
128
71
18
72
20
73
14
0
VERTEX
8
OBJECT__20
10
0
20
0
30
0
70
128
71
13
72
16
73
8
0
VERTEX
8
OBJECT__20
10
0
20
0
30
0
70
128
71
1
72
46
73
6
0
VERTEX
8
OBJECT__20
10
0
20
0
30
0
70
128
71
3
72
35
73
1
0
SEQEND
8
OBJECT__20
0
POLYLINE
8
OBJECT__21
66
1
70
64
71
44
72
42
62
253
0
VERTEX
8
OBJECT__21
10
81.932999
20
11.125000
30
-115.509003
70
192
0
VERTEX
8
OBJECT__21
10
83.698997
20
13.884000
30
-120.740997
70
192
0
VERTEX
8
OBJECT__21
10
83.456001
20
13.985000
30
-120.125999
70
192
0
VERTEX
8
OBJECT__21
10
81.737000
20
12.442000
30
-115.242996
70
192
0
VERTEX
8
OBJECT__21
10
82.875000
20
14.229000
30
-118.652000
70
192
0
VERTEX
8
OBJECT__21
10
81.374001
20
14.385000
30
-114.845001
70
192
0
VERTEX
8
OBJECT__21
10
81.295998
20
14.393000
30
-114.647003
70
192
0
VERTEX
8
OBJECT__21
10
82.483002
20
7.438000
30
-116.252998
70
192
0
VERTEX
8
OBJECT__21
10
84.236000
20
13.659000
30
-122.103996
70
192
0
VERTEX
8
OBJECT__21
10
85.744003
20
11.577000
30
-125.930000
70
192
0
VERTEX
8
OBJECT__21
10
85.508003
20
12.109000
30
-125.332001
70
192
0
VERTEX
8
OBJECT__21
10
85.871002
20
11.293000
30
-126.250999
70
192
0
VERTEX
8
OBJECT__21
10
82.727997
20
3.723000
30
-116.582001
70
192
0
VERTEX
8
OBJECT__21
10
87.341003
20
6.804000
30
-129.981003
70
192
0
VERTEX
8
OBJECT__21
10
86.584999
20
9.686000
30
-128.063004
70
192
0
VERTEX
8
OBJECT__21
10
87.376999
20
6.544000
30
-130.072998
70
192
0
VERTEX
8
OBJECT__21
10
87.406998
20
6.334000
30
-130.147003
70
192
0
VERTEX
8
OBJECT__21
10
82.500000
20
7.322000
30
-116.277000
70
192
0
VERTEX
8
OBJECT__21
10
82.561996
20
6.907000
30
-116.360001
70
192
0
VERTEX
8
OBJECT__21
10
82.894997
20
0.002000
30
-116.805000
70
192
0
VERTEX
8
OBJECT__21
10
87.948997
20
-0.007000
30
-131.522003
70
192
0
VERTEX
8
OBJECT__21
10
82.906998
20
0.288000
30
-116.820999
70
192
0
VERTEX
8
OBJECT__21
10
87.838997
20
3.213000
30
-131.244995
70
192
0
VERTEX
8
OBJECT__21
10
82.894997
20
0.001000
30
-116.805000
70
192
0
VERTEX
8
OBJECT__21
10
82.742996
20
-3.728000
30
-116.602997
70
192
0
VERTEX
8
OBJECT__21
10
87.377998
20
-6.292000
30
-130.074005
70
192
0
VERTEX
8
OBJECT__21
10
87.710999
20
-4.469000
30
-130.917999
70
192
0
VERTEX
8
OBJECT__21
10
87.969002
20
-0.600000
30
-131.572998
70
192
0
VERTEX
8
OBJECT__21
10
82.469002
20
-7.312000
30
-116.234001
70
192
0
VERTEX
8
OBJECT__21
10
82.450996
20
-7.449000
30
-116.209000
70
192
0
VERTEX
8
OBJECT__21
10
85.875000
20
-11.297000
30
-126.263000
70
192
0
VERTEX
8
OBJECT__21
10
82.653000
20
-5.937000
30
-116.483002
70
192
0
VERTEX
8
OBJECT__21
10
86.241997
20
-10.608000
30
-127.193001
70
192
0
VERTEX
8
OBJECT__21
10
87.041000
20
-8.136000
30
-129.218994
70
192
0
VERTEX
8
OBJECT__21
10
87.342003
20
-6.489000
30
-129.981995
70
192
0
VERTEX
8
OBJECT__21
10
81.964996
20
-11.083000
30
-115.551003
70
192
0
VERTEX
8
OBJECT__21
10
83.703003
20
-13.945000
30
-120.751999
70
192
0
VERTEX
8
OBJECT__21
10
83.882004
20
-13.905000
30
-121.205002
70
192
0
VERTEX
8
OBJECT__21
10
85.146004
20
-12.667000
30
-124.413002
70
192
0
VERTEX
8
OBJECT__21
10
85.741997
20
-11.547000
30
-125.925003
70
192
0
VERTEX
8
OBJECT__21
10
81.882004
20
-11.699000
30
-115.439003
70
192
0
VERTEX
8
OBJECT__21
10
81.295998
20
-14.393000
30
-114.646004
70
192
0
VERTEX
8
OBJECT__21
10
82.033997
20
-14.316000
30
-116.517998
70
192
0
VERTEX
8
OBJECT__21
10
83.459999
20
-13.999000
30
-120.136002
70
192
0
VERTEX
8
OBJECT__21
10
0
20
0
30
0
70
128
71
1
72
2
73
3
0
VERTEX
8
OBJECT__21
10
0
20
0
30
0
70
128
71
4
72
3
73
5
0
VERTEX
8
OBJECT__21
10
0
20
0
30
0
70
128
71
5
72
6
73
4
0
VERTEX
8
OBJECT__21
10
0
20
0
30
0
70
128
71
6
72
7
73
4
0
VERTEX
8
OBJECT__21
10
0
20
0
30
0
70
128
71
8
72
9
73
2
0
VERTEX
8
OBJECT__21
10
0
20
0
30
0
70
128
71
8
72
10
73
11
0
VERTEX
8
OBJECT__21
10
0
20
0
30
0
70
128
71
11
72
9
73
8
0
VERTEX
8
OBJECT__21
10
0
20
0
30
0
70
128
71
8
72
12
73
10
0
VERTEX
8
OBJECT__21
10
0
20
0
30
0
70
128
71
13
72
14
73
15
0
VERTEX
8
OBJECT__21
10
0
20
0
30
0
70
128
71
13
72
16
73
14
0
VERTEX
8
OBJECT__21
10
0
20
0
30
0
70
128
71
13
72
17
73
16
0
VERTEX
8
OBJECT__21
10
0
20
0
30
0
70
128
71
18
72
15
73
12
0
VERTEX
8
OBJECT__21
10
0
20
0
30
0
70
128
71
12
72
8
73
18
0
VERTEX
8
OBJECT__21
10
0
20
0
30
0
70
128
71
18
72
19
73
15
0
VERTEX
8
OBJECT__21
10
0
20
0
30
0
70
128
71
22
72
23
73
17
0
VERTEX
8
OBJECT__21
10
0
20
0
30
0
70
128
71
22
72
21
73
23
0
VERTEX
8
OBJECT__21
10
0
20
0
30
0
70
128
71
17
72
13
73
22
0
VERTEX
8
OBJECT__21
10
0
20
0
30
0
70
128
71
24
72
25
73
26
0
VERTEX
8
OBJECT__21
10
0
20
0
30
0
70
128
71
26
72
27
73
24
0
VERTEX
8
OBJECT__21
10
0
20
0
30
0
70
128
71
24
72
28
73
21
0
VERTEX
8
OBJECT__21
10
0
20
0
30
0
70
128
71
21
72
20
73
24
0
VERTEX
8
OBJECT__21
10
0
20
0
30
0
70
128
71
29
72
30
73
31
0
VERTEX
8
OBJECT__21
10
0
20
0
30
0
70
128
71
32
72
29
73
33
0
VERTEX
8
OBJECT__21
10
0
20
0
30
0
70
128
71
33
72
34
73
32
0
VERTEX
8
OBJECT__21
10
0
20
0
30
0
70
128
71
25
72
32
73
34
0
VERTEX
8
OBJECT__21
10
0
20
0
30
0
70
128
71
34
72
35
73
25
0
VERTEX
8
OBJECT__21
10
0
20
0
30
0
70
128
71
35
72
26
73
25
0
VERTEX
8
OBJECT__21
10
0
20
0
30
0
70
128
71
30
72
36
73
37
0
VERTEX
8
OBJECT__21
10
0
20
0
30
0
70
128
71
37
72
38
73
30
0
VERTEX
8
OBJECT__21
10
0
20
0
30
0
70
128
71
38
72
39
73
30
0
VERTEX
8
OBJECT__21
10
0
20
0
30
0
70
128
71
39
72
40
73
30
0
VERTEX
8
OBJECT__21
10
0
20
0
30
0
70
128
71
41
72
42
73
43
0
VERTEX
8
OBJECT__21
10
0
20
0
30
0
70
128
71
43
72
44
73
41
0
VERTEX
8
OBJECT__21
10
0
20
0
30
0
70
128
71
37
72
36
73
41
0
VERTEX
8
OBJECT__21
10
0
20
0
30
0
70
128
71
44
72
37
73
41
0
VERTEX
8
OBJECT__21
10
0
20
0
30
0
70
128
71
40
72
31
73
30
0
VERTEX
8
OBJECT__21
10
0
20
0
30
0
70
128
71
31
72
33
73
29
0
VERTEX
8
OBJECT__21
10
0
20
0
30
0
70
128
71
27
72
28
73
24
0
VERTEX
8
OBJECT__21
10
0
20
0
30
0
70
128
71
21
72
22
73
20
0
VERTEX
8
OBJECT__21
10
0
20
0
30
0
70
128
71
15
72
19
73
13
0
VERTEX
8
OBJECT__21
10
0
20
0
30
0
70
128
71
2
72
1
73
8
0
VERTEX
8
OBJECT__21
10
0
20
0
30
0
70
128
71
3
72
4
73
1
0
SEQEND
8
OBJECT__21
0
POLYLINE
8
OBJECT__22
66
1
70
64
71
19
72
17
62
253
0
VERTEX
8
OBJECT__22
10
79.948997
20
-16.023001
30
-114.112999
70
192
0
VERTEX
8
OBJECT__22
10
79.939003
20
-15.470000
30
-111.474998
70
192
0
VERTEX
8
OBJECT__22
10
79.688004
20
-15.923000
30
-111.303001
70
192
0
VERTEX
8
OBJECT__22
10
80.808998
20
-14.448000
30
-113.265999
70
192
0
VERTEX
8
OBJECT__22
10
80.475998
20
-14.502000
30
-111.842003
70
192
0
VERTEX
8
OBJECT__22
10
80.468002
20
-15.803000
30
-114.166000
70
192
0
VERTEX
8
OBJECT__22
10
81.285004
20
-14.438000
30
-114.630997
70
192
0
VERTEX
8
OBJECT__22
10
81.295998
20
-14.393000
30
-114.646004
70
192
0
VERTEX
8
OBJECT__22
10
79.177002
20
-16.153000
30
-111.237999
70
192
0
VERTEX
8
OBJECT__22
10
79.432999
20
-16.243000
30
-114.059998
70
192
0
VERTEX
8
OBJECT__22
10
79.934998
20
-16.028999
30
-114.111000
70
192
0
VERTEX
8
OBJECT__22
10
78.652000
20
-15.985000
30
-114.233002
70
192
0
VERTEX
8
OBJECT__22
10
78.143997
20
-16.174000
30
-111.309998
70
192
0
VERTEX
8
OBJECT__22
10
77.911003
20
-16.082001
30
-111.371002
70
192
0
VERTEX
8
OBJECT__22
10
79.141998
20
-16.169001
30
-111.233002
70
192
0
VERTEX
8
OBJECT__22
10
78.669998
20
-16.382000
30
-111.172997
70
192
0
VERTEX
8
OBJECT__22
10
77.626999
20
-15.361000
30
-111.712997
70
192
0
VERTEX
8
OBJECT__22
10
77.911003
20
-15.315000
30
-113.153000
70
192
0
VERTEX
8
OBJECT__22
10
78.353996
20
-15.265000
30
-114.552002
70
192
0
VERTEX
8
OBJECT__22
10
0
20
0
30
0
70
128
71
1
72
2
73
3
0
VERTEX
8
OBJECT__22
10
0
20
0
30
0
70
128
71
1
72
4
73
5
0
VERTEX
8
OBJECT__22
10
0
20
0
30
0
70
128
71
5
72
2
73
1
0
VERTEX
8
OBJECT__22
10
0
20
0
30
0
70
128
71
4
72
1
73
6
0
VERTEX
8
OBJECT__22
10
0
20
0
30
0
70
128
71
6
72
7
73
4
0
VERTEX
8
OBJECT__22
10
0
20
0
30
0
70
128
71
7
72
8
73
4
0
VERTEX
8
OBJECT__22
10
0
20
0
30
0
70
128
71
9
72
10
73
11
0
VERTEX
8
OBJECT__22
10
0
20
0
30
0
70
128
71
12
72
13
73
14
0
VERTEX
8
OBJECT__22
10
0
20
0
30
0
70
128
71
12
72
15
73
16
0
VERTEX
8
OBJECT__22
10
0
20
0
30
0
70
128
71
16
72
13
73
12
0
VERTEX
8
OBJECT__22
10
0
20
0
30
0
70
128
71
12
72
10
73
9
0
VERTEX
8
OBJECT__22
10
0
20
0
30
0
70
128
71
9
72
15
73
12
0
VERTEX
8
OBJECT__22
10
0
20
0
30
0
70
128
71
12
72
17
73
18
0
VERTEX
8
OBJECT__22
10
0
20
0
30
0
70
128
71
18
72
19
73
12
0
VERTEX
8
OBJECT__22
10
0
20
0
30
0
70
128
71
14
72
17
73
12
0
VERTEX
8
OBJECT__22
10
0
20
0
30
0
70
128
71
11
72
1
73
9
0
VERTEX
8
OBJECT__22
10
0
20
0
30
0
70
128
71
3
72
9
73
1
0
SEQEND
8
OBJECT__22
0
POLYLINE
8
OBJECT__23
66
1
70
64
71
19
72
17
62
253
0
VERTEX
8
OBJECT__23
10
78.651001
20
15.985000
30
-114.233002
70
192
0
VERTEX
8
OBJECT__23
10
78.352997
20
15.265000
30
-114.552002
70
192
0
VERTEX
8
OBJECT__23
10
77.917000
20
15.318000
30
-113.178001
70
192
0
VERTEX
8
OBJECT__23
10
79.148003
20
16.173000
30
-111.288002
70
192
0
VERTEX
8
OBJECT__23
10
79.182999
20
16.157000
30
-111.292000
70
192
0
VERTEX
8
OBJECT__23
10
78.152000
20
16.181000
30
-111.363998
70
192
0
VERTEX
8
OBJECT__23
10
78.678001
20
16.389000
30
-111.226997
70
192
0
VERTEX
8
OBJECT__23
10
77.635002
20
15.367000
30
-111.764999
70
192
0
VERTEX
8
OBJECT__23
10
77.918999
20
16.089001
30
-111.425003
70
192
0
VERTEX
8
OBJECT__23
10
79.432999
20
16.243000
30
-114.058998
70
192
0
VERTEX
8
OBJECT__23
10
79.949997
20
16.023001
30
-114.112000
70
192
0
VERTEX
8
OBJECT__23
10
79.934998
20
16.028999
30
-114.111000
70
192
0
VERTEX
8
OBJECT__23
10
80.815002
20
14.451000
30
-113.291000
70
192
0
VERTEX
8
OBJECT__23
10
81.295998
20
14.393000
30
-114.647003
70
192
0
VERTEX
8
OBJECT__23
10
81.286003
20
14.431000
30
-114.634003
70
192
0
VERTEX
8
OBJECT__23
10
80.468002
20
15.802000
30
-114.166000
70
192
0
VERTEX
8
OBJECT__23
10
79.950996
20
15.478000
30
-111.526001
70
192
0
VERTEX
8
OBJECT__23
10
80.484001
20
14.507000
30
-111.891998
70
192
0
VERTEX
8
OBJECT__23
10
79.710999
20
15.915000
30
-111.361000
70
192
0
VERTEX
8
OBJECT__23
10
0
20
0
30
0
70
128
71
1
72
2
73
3
0
VERTEX
8
OBJECT__23
10
0
20
0
30
0
70
128
71
1
72
4
73
5
0
VERTEX
8
OBJECT__23
10
0
20
0
30
0
70
128
71
1
72
6
73
7
0
VERTEX
8
OBJECT__23
10
0
20
0
30
0
70
128
71
1
72
8
73
9
0
VERTEX
8
OBJECT__23
10
0
20
0
30
0
70
128
71
9
72
6
73
1
0
VERTEX
8
OBJECT__23
10
0
20
0
30
0
70
128
71
7
72
4
73
1
0
VERTEX
8
OBJECT__23
10
0
20
0
30
0
70
128
71
5
72
10
73
1
0
VERTEX
8
OBJECT__23
10
0
20
0
30
0
70
128
71
5
72
11
73
12
0
VERTEX
8
OBJECT__23
10
0
20
0
30
0
70
128
71
12
72
10
73
5
0
VERTEX
8
OBJECT__23
10
0
20
0
30
0
70
128
71
13
72
14
73
15
0
VERTEX
8
OBJECT__23
10
0
20
0
30
0
70
128
71
15
72
16
73
13
0
VERTEX
8
OBJECT__23
10
0
20
0
30
0
70
128
71
11
72
17
73
18
0
VERTEX
8
OBJECT__23
10
0
20
0
30
0
70
128
71
11
72
5
73
19
0
VERTEX
8
OBJECT__23
10
0
20
0
30
0
70
128
71
19
72
17
73
11
0
VERTEX
8
OBJECT__23
10
0
20
0
30
0
70
128
71
18
72
13
73
11
0
VERTEX
8
OBJECT__23
10
0
20
0
30
0
70
128
71
16
72
11
73
13
0
VERTEX
8
OBJECT__23
10
0
20
0
30
0
70
128
71
3
72
8
73
1
0
SEQEND
8
OBJECT__23
0
POLYLINE
8
OBJECT__24
66
1
70
64
71
30
72
28
62
253
0
VERTEX
8
OBJECT__24
10
82.333000
20
-2.320000
30
-114.366997
70
192
0
VERTEX
8
OBJECT__24
10
81.900002
20
-7.418000
30
-113.775002
70
192
0
VERTEX
8
OBJECT__24
10
82.653000
20
-5.937000
30
-116.483002
70
192
0
VERTEX
8
OBJECT__24
10
82.469002
20
-7.312000
30
-116.234001
70
192
0
VERTEX
8
OBJECT__24
10
82.742996
20
-3.728000
30
-116.602997
70
192
0
VERTEX
8
OBJECT__24
10
82.894997
20
0.001000
30
-116.805000
70
192
0
VERTEX
8
OBJECT__24
10
82.305000
20
-0.006000
30
-114.333000
70
192
0
VERTEX
8
OBJECT__24
10
81.856003
20
7.410000
30
-113.737999
70
192
0
VERTEX
8
OBJECT__24
10
82.500000
20
7.322000
30
-116.277000
70
192
0
VERTEX
8
OBJECT__24
10
82.483002
20
7.438000
30
-116.252998
70
192
0
VERTEX
8
OBJECT__24
10
81.932999
20
11.125000
30
-115.509003
70
192
0
VERTEX
8
OBJECT__24
10
81.692001
20
8.896000
30
-113.518997
70
192
0
VERTEX
8
OBJECT__24
10
80.815002
20
14.451000
30
-113.291000
70
192
0
VERTEX
8
OBJECT__24
10
81.737000
20
12.442000
30
-115.242996
70
192
0
VERTEX
8
OBJECT__24
10
81.295998
20
14.393000
30
-114.647003
70
192
0
VERTEX
8
OBJECT__24
10
80.484001
20
14.507000
30
-111.891998
70
192
0
VERTEX
8
OBJECT__24
10
80.896004
20
-12.877000
30
-112.412003
70
192
0
VERTEX
8
OBJECT__24
10
80.475998
20
-14.502000
30
-111.842003
70
192
0
VERTEX
8
OBJECT__24
10
80.808998
20
-14.448000
30
-113.265999
70
192
0
VERTEX
8
OBJECT__24
10
81.899002
20
-7.430000
30
-113.773003
70
192
0
VERTEX
8
OBJECT__24
10
81.964996
20
-11.083000
30
-115.551003
70
192
0
VERTEX
8
OBJECT__24
10
81.295998
20
-14.393000
30
-114.646004
70
192
0
VERTEX
8
OBJECT__24
10
81.882004
20
-11.699000
30
-115.439003
70
192
0
VERTEX
8
OBJECT__24
10
82.450996
20
-7.449000
30
-116.209000
70
192
0
VERTEX
8
OBJECT__24
10
82.305000
20
0.001000
30
-114.333000
70
192
0
VERTEX
8
OBJECT__24
10
82.906998
20
0.288000
30
-116.820999
70
192
0
VERTEX
8
OBJECT__24
10
82.727997
20
3.723000
30
-116.582001
70
192
0
VERTEX
8
OBJECT__24
10
82.894997
20
0.002000
30
-116.805000
70
192
0
VERTEX
8
OBJECT__24
10
82.261002
20
3.736000
30
-114.278999
70
192
0
VERTEX
8
OBJECT__24
10
82.561996
20
6.907000
30
-116.360001
70
192
0
VERTEX
8
OBJECT__24
10
0
20
0
30
0
70
128
71
1
72
2
73
3
0
VERTEX
8
OBJECT__24
10
0
20
0
30
0
70
128
71
2
72
4
73
3
0
VERTEX
8
OBJECT__24
10
0
20
0
30
0
70
128
71
3
72
5
73
1
0
VERTEX
8
OBJECT__24
10
0
20
0
30
0
70
128
71
6
72
7
73
1
0
VERTEX
8
OBJECT__24
10
0
20
0
30
0
70
128
71
1
72
5
73
6
0
VERTEX
8
OBJECT__24
10
0
20
0
30
0
70
128
71
8
72
9
73
10
0
VERTEX
8
OBJECT__24
10
0
20
0
30
0
70
128
71
10
72
11
73
12
0
VERTEX
8
OBJECT__24
10
0
20
0
30
0
70
128
71
12
72
8
73
10
0
VERTEX
8
OBJECT__24
10
0
20
0
30
0
70
128
71
13
72
12
73
14
0
VERTEX
8
OBJECT__24
10
0
20
0
30
0
70
128
71
12
72
11
73
14
0
VERTEX
8
OBJECT__24
10
0
20
0
30
0
70
128
71
14
72
15
73
13
0
VERTEX
8
OBJECT__24
10
0
20
0
30
0
70
128
71
13
72
16
73
12
0
VERTEX
8
OBJECT__24
10
0
20
0
30
0
70
128
71
17
72
18
73
19
0
VERTEX
8
OBJECT__24
10
0
20
0
30
0
70
128
71
20
72
17
73
21
0
VERTEX
8
OBJECT__24
10
0
20
0
30
0
70
128
71
17
72
22
73
23
0
VERTEX
8
OBJECT__24
10
0
20
0
30
0
70
128
71
23
72
21
73
17
0
VERTEX
8
OBJECT__24
10
0
20
0
30
0
70
128
71
21
72
24
73
20
0
VERTEX
8
OBJECT__24
10
0
20
0
30
0
70
128
71
24
72
4
73
20
0
VERTEX
8
OBJECT__24
10
0
20
0
30
0
70
128
71
25
72
7
73
6
0
VERTEX
8
OBJECT__24
10
0
20
0
30
0
70
128
71
25
72
26
73
27
0
VERTEX
8
OBJECT__24
10
0
20
0
30
0
70
128
71
25
72
28
73
26
0
VERTEX
8
OBJECT__24
10
0
20
0
30
0
70
128
71
27
72
29
73
25
0
VERTEX
8
OBJECT__24
10
0
20
0
30
0
70
128
71
29
72
27
73
30
0
VERTEX
8
OBJECT__24
10
0
20
0
30
0
70
128
71
30
72
8
73
29
0
VERTEX
8
OBJECT__24
10
0
20
0
30
0
70
128
71
30
72
9
73
8
0
VERTEX
8
OBJECT__24
10
0
20
0
30
0
70
128
71
6
72
28
73
25
0
VERTEX
8
OBJECT__24
10
0
20
0
30
0
70
128
71
19
72
22
73
17
0
VERTEX
8
OBJECT__24
10
0
20
0
30
0
70
128
71
2
72
20
73
4
0
SEQEND
8
OBJECT__24
0
POLYLINE
8
OBJECT__25
66
1
70
64
71
86
72
101
62
253
0
VERTEX
8
OBJECT__25
10
73.014000
20
-17.149000
30
-67.682999
70
192
0
VERTEX
8
OBJECT__25
10
70.421997
20
-18.018999
30
-52.884998
70
192
0
VERTEX
8
OBJECT__25
10
69.764999
20
-18.507999
30
-53.118999
70
192
0
VERTEX
8
OBJECT__25
10
34.000000
20
-27.582001
30
-12.731000
70
192
0
VERTEX
8
OBJECT__25
10
41.292999
20
-26.801001
30
-13.927000
70
192
0
VERTEX
8
OBJECT__25
10
40.099998
20
-26.917999
30
-13.052000
70
192
0
VERTEX
8
OBJECT__25
10
41.341999
20
-26.752001
30
-13.435000
70
192
0
VERTEX
8
OBJECT__25
10
40.227001
20
-26.903999
30
-13.069000
70
192
0
VERTEX
8
OBJECT__25
10
71.473999
20
-17.819000
30
-67.953003
70
192
0
VERTEX
8
OBJECT__25
10
68.986000
20
-18.620001
30
-53.401001
70
192
0
VERTEX
8
OBJECT__25
10
69.551003
20
-17.648001
30
-59.639000
70
192
0
VERTEX
8
OBJECT__25
10
69.167000
20
-17.778999
30
-57.230999
70
192
0
VERTEX
8
OBJECT__25
10
68.375999
20
-18.059000
30
-53.625000
70
192
0
VERTEX
8
OBJECT__25
10
35.558998
20
-27.408001
30
-13.367000
70
192
0
VERTEX
8
OBJECT__25
10
34.000000
20
-27.579000
30
-13.246000
70
192
0
VERTEX
8
OBJECT__25
10
40.820000
20
-26.794001
30
-14.367000
70
192
0
VERTEX
8
OBJECT__25
10
72.968002
20
-16.608000
30
-64.728996
70
192
0
VERTEX
8
OBJECT__25
10
71.647003
20
-17.047001
30
-56.525002
70
192
0
VERTEX
8
OBJECT__25
10
73.434998
20
-16.452999
30
-67.628998
70
192
0
VERTEX
8
OBJECT__25
10
72.335999
20
-17.724001
30
-67.794998
70
192
0
VERTEX
8
OBJECT__25
10
74.690002
20
-17.134001
30
-82.432999
70
192
0
VERTEX
8
OBJECT__25
10
75.382004
20
-16.513000
30
-82.356003
70
192
0
VERTEX
8
OBJECT__25
10
75.516998
20
-15.762000
30
-80.568001
70
192
0
VERTEX
8
OBJECT__25
10
75.805000
20
-15.670000
30
-82.358002
70
192
0
VERTEX
8
OBJECT__25
10
75.760002
20
-15.681000
30
-82.077003
70
192
0
VERTEX
8
OBJECT__25
10
59.136002
20
-22.844999
30
-25.969000
70
192
0
VERTEX
8
OBJECT__25
10
62.890999
20
-21.237000
30
-32.134998
70
192
0
VERTEX
8
OBJECT__25
10
62.074001
20
-21.424000
30
-28.615999
70
192
0
VERTEX
8
OBJECT__25
10
60.127998
20
-22.336000
30
-25.514999
70
192
0
VERTEX
8
OBJECT__25
10
63.785000
20
-20.622000
30
-31.341000
70
192
0
VERTEX
8
OBJECT__25
10
48.118000
20
-25.806000
30
-16.693001
70
192
0
VERTEX
8
OBJECT__25
10
54.200001
20
-24.450001
30
-20.709000
70
192
0
VERTEX
8
OBJECT__25
10
52.034000
20
-24.945000
30
-18.004000
70
192
0
VERTEX
8
OBJECT__25
10
52.466000
20
-24.823000
30
-18.333000
70
192
0
VERTEX
8
OBJECT__25
10
54.542999
20
-24.242001
30
-19.912001
70
192
0
VERTEX
8
OBJECT__25
10
46.271999
20
-26.080000
30
-15.053000
70
192
0
VERTEX
8
OBJECT__25
10
46.533001
20
-26.028999
30
-15.187000
70
192
0
VERTEX
8
OBJECT__25
10
48.270000
20
-25.686001
30
-16.077000
70
192
0
VERTEX
8
OBJECT__25
10
57.847000
20
-23.187000
30
-22.938000
70
192
0
VERTEX
8
OBJECT__25
10
56.459999
20
-23.705000
30
-21.370001
70
192
0
VERTEX
8
OBJECT__25
10
59.728001
20
-22.485001
30
-25.063000
70
192
0
VERTEX
8
OBJECT__25
10
68.059998
20
-19.059999
30
-45.866001
70
192
0
VERTEX
8
OBJECT__25
10
69.143997
20
-18.028999
30
-45.202000
70
192
0
VERTEX
8
OBJECT__25
10
67.988998
20
-18.559000
30
-41.634998
70
192
0
VERTEX
8
OBJECT__25
10
65.818001
20
-19.923000
30
-38.818001
70
192
0
VERTEX
8
OBJECT__25
10
65.424004
20
-19.796000
30
-34.902000
70
192
0
VERTEX
8
OBJECT__25
10
66.786003
20
-19.111000
30
-37.924000
70
192
0
VERTEX
8
OBJECT__25
10
66.720001
20
-19.142000
30
-37.719002
70
192
0
VERTEX
8
OBJECT__25
10
70.052002
20
-17.667999
30
-49.215000
70
192
0
VERTEX
8
OBJECT__25
10
69.244003
20
-17.983000
30
-45.508999
70
192
0
VERTEX
8
OBJECT__25
10
70.824997
20
-17.367001
30
-52.756001
70
192
0
VERTEX
8
OBJECT__25
10
58.450001
20
-22.524000
30
-26.990000
70
192
0
VERTEX
8
OBJECT__25
10
61.123001
20
-21.261000
30
-31.520000
70
192
0
VERTEX
8
OBJECT__25
10
61.686001
20
-20.995001
30
-32.474998
70
192
0
VERTEX
8
OBJECT__25
10
47.852001
20
-25.650000
30
-17.490999
70
192
0
VERTEX
8
OBJECT__25
10
50.576000
20
-25.094999
30
-19.100000
70
192
0
VERTEX
8
OBJECT__25
10
42.780998
20
-26.510000
30
-15.114000
70
192
0
VERTEX
8
OBJECT__25
10
45.722000
20
-26.083000
30
-16.233999
70
192
0
VERTEX
8
OBJECT__25
10
41.209999
20
-26.738001
30
-14.516000
70
192
0
VERTEX
8
OBJECT__25
10
54.695000
20
-23.943001
30
-22.478001
70
192
0
VERTEX
8
OBJECT__25
10
56.708000
20
-23.198999
30
-24.812000
70
192
0
VERTEX
8
OBJECT__25
10
53.720001
20
-24.216000
30
-21.679001
70
192
0
VERTEX
8
OBJECT__25
10
58.153000
20
-22.664000
30
-26.487000
70
192
0
VERTEX
8
OBJECT__25
10
66.808998
20
-18.612000
30
-46.483002
70
192
0
VERTEX
8
OBJECT__25
10
68.211998
20
-18.117001
30
-52.879002
70
192
0
VERTEX
8
OBJECT__25
10
65.263000
20
-19.875000
30
-39.391998
70
192
0
VERTEX
8
OBJECT__25
10
66.707001
20
-18.655001
30
-46.158001
70
192
0
VERTEX
8
OBJECT__25
10
64.740997
20
-19.486000
30
-39.868000
70
192
0
VERTEX
8
OBJECT__25
10
64.519997
20
-19.580000
30
-39.161999
70
192
0
VERTEX
8
OBJECT__25
10
61.992001
20
-20.843000
30
-33.195999
70
192
0
VERTEX
8
OBJECT__25
10
73.790001
20
-17.146000
30
-82.600998
70
192
0
VERTEX
8
OBJECT__25
10
71.343002
20
-17.033001
30
-70.892998
70
192
0
VERTEX
8
OBJECT__25
10
70.891998
20
-17.188000
30
-68.059998
70
192
0
VERTEX
8
OBJECT__25
10
78.143997
20
-16.174000
30
-111.309998
70
192
0
VERTEX
8
OBJECT__25
10
75.759003
20
-15.858000
30
-99.580002
70
192
0
VERTEX
8
OBJECT__25
10
73.731003
20
-16.398001
30
-86.404999
70
192
0
VERTEX
8
OBJECT__25
10
73.168999
20
-16.547001
30
-82.750999
70
192
0
VERTEX
8
OBJECT__25
10
77.626999
20
-15.361000
30
-111.712997
70
192
0
VERTEX
8
OBJECT__25
10
77.911003
20
-16.082001
30
-111.371002
70
192
0
VERTEX
8
OBJECT__25
10
78.669998
20
-16.382000
30
-111.172997
70
192
0
VERTEX
8
OBJECT__25
10
79.141998
20
-16.169001
30
-111.233002
70
192
0
VERTEX
8
OBJECT__25
10
79.177002
20
-16.153000
30
-111.237999
70
192
0
VERTEX
8
OBJECT__25
10
79.688004
20
-15.923000
30
-111.303001
70
192
0
VERTEX
8
OBJECT__25
10
79.939003
20
-15.470000
30
-111.474998
70
192
0
VERTEX
8
OBJECT__25
10
80.475998
20
-14.502000
30
-111.842003
70
192
0
VERTEX
8
OBJECT__25
10
34.000000
20
-27.584999
30
-12.217000
70
192
0
VERTEX
8
OBJECT__25
10
0
20
0
30
0
70
128
71
1
72
2
73
3
0
VERTEX
8
OBJECT__25
10
0
20
0
30
0
70
128
71
4
72
5
73
6
0
VERTEX
8
OBJECT__25
10
0
20
0
30
0
70
128
71
5
72
7
73
8
0
VERTEX
8
OBJECT__25
10
0
20
0
30
0
70
128
71
8
72
6
73
5
0
VERTEX
8
OBJECT__25
10
0
20
0
30
0
70
128
71
9
72
10
73
11
0
VERTEX
8
OBJECT__25
10
0
20
0
30
0
70
128
71
10
72
12
73
11
0
VERTEX
8
OBJECT__25
10
0
20
0
30
0
70
128
71
10
72
13
73
12
0
VERTEX
8
OBJECT__25
10
0
20
0
30
0
70
128
71
5
72
4
73
14
0
VERTEX
8
OBJECT__25
10
0
20
0
30
0
70
128
71
4
72
15
73
14
0
VERTEX
8
OBJECT__25
10
0
20
0
30
0
70
128
71
14
72
16
73
5
0
VERTEX
8
OBJECT__25
10
0
20
0
30
0
70
128
71
1
72
17
73
18
0
VERTEX
8
OBJECT__25
10
0
20
0
30
0
70
128
71
18
72
2
73
1
0
VERTEX
8
OBJECT__25
10
0
20
0
30
0
70
128
71
1
72
19
73
17
0
VERTEX
8
OBJECT__25
10
0
20
0
30
0
70
128
71
1
72
20
73
21
0
VERTEX
8
OBJECT__25
10
0
20
0
30
0
70
128
71
1
72
22
73
23
0
VERTEX
8
OBJECT__25
10
0
20
0
30
0
70
128
71
22
72
24
73
25
0
VERTEX
8
OBJECT__25
10
0
20
0
30
0
70
128
71
25
72
23
73
22
0
VERTEX
8
OBJECT__25
10
0
20
0
30
0
70
128
71
26
72
27
73
28
0
VERTEX
8
OBJECT__25
10
0
20
0
30
0
70
128
71
28
72
29
73
26
0
VERTEX
8
OBJECT__25
10
0
20
0
30
0
70
128
71
27
72
30
73
28
0
VERTEX
8
OBJECT__25
10
0
20
0
30
0
70
128
71
31
72
32
73
33
0
VERTEX
8
OBJECT__25
10
0
20
0
30
0
70
128
71
32
72
34
73
33
0
VERTEX
8
OBJECT__25
10
0
20
0
30
0
70
128
71
32
72
35
73
34
0
VERTEX
8
OBJECT__25
10
0
20
0
30
0
70
128
71
5
72
31
73
36
0
VERTEX
8
OBJECT__25
10
0
20
0
30
0
70
128
71
31
72
37
73
36
0
VERTEX
8
OBJECT__25
10
0
20
0
30
0
70
128
71
31
72
38
73
37
0
VERTEX
8
OBJECT__25
10
0
20
0
30
0
70
128
71
32
72
26
73
39
0
VERTEX
8
OBJECT__25
10
0
20
0
30
0
70
128
71
39
72
40
73
32
0
VERTEX
8
OBJECT__25
10
0
20
0
30
0
70
128
71
26
72
41
73
39
0
VERTEX
8
OBJECT__25
10
0
20
0
30
0
70
128
71
42
72
43
73
44
0
VERTEX
8
OBJECT__25
10
0
20
0
30
0
70
128
71
44
72
45
73
42
0
VERTEX
8
OBJECT__25
10
0
20
0
30
0
70
128
71
27
72
45
73
46
0
VERTEX
8
OBJECT__25
10
0
20
0
30
0
70
128
71
45
72
47
73
48
0
VERTEX
8
OBJECT__25
10
0
20
0
30
0
70
128
71
48
72
46
73
45
0
VERTEX
8
OBJECT__25
10
0
20
0
30
0
70
128
71
42
72
49
73
50
0
VERTEX
8
OBJECT__25
10
0
20
0
30
0
70
128
71
2
72
51
73
49
0
VERTEX
8
OBJECT__25
10
0
20
0
30
0
70
128
71
49
72
42
73
2
0
VERTEX
8
OBJECT__25
10
0
20
0
30
0
70
128
71
42
72
3
73
2
0
VERTEX
8
OBJECT__25
10
0
20
0
30
0
70
128
71
26
72
52
73
53
0
VERTEX
8
OBJECT__25
10
0
20
0
30
0
70
128
71
53
72
27
73
26
0
VERTEX
8
OBJECT__25
10
0
20
0
30
0
70
128
71
53
72
54
73
27
0
VERTEX
8
OBJECT__25
10
0
20
0
30
0
70
128
71
31
72
55
73
56
0
VERTEX
8
OBJECT__25
10
0
20
0
30
0
70
128
71
56
72
32
73
31
0
VERTEX
8
OBJECT__25
10
0
20
0
30
0
70
128
71
5
72
57
73
58
0
VERTEX
8
OBJECT__25
10
0
20
0
30
0
70
128
71
5
72
59
73
57
0
VERTEX
8
OBJECT__25
10
0
20
0
30
0
70
128
71
58
72
31
73
5
0
VERTEX
8
OBJECT__25
10
0
20
0
30
0
70
128
71
32
72
60
73
61
0
VERTEX
8
OBJECT__25
10
0
20
0
30
0
70
128
71
61
72
26
73
32
0
VERTEX
8
OBJECT__25
10
0
20
0
30
0
70
128
71
32
72
62
73
60
0
VERTEX
8
OBJECT__25
10
0
20
0
30
0
70
128
71
61
72
63
73
26
0
VERTEX
8
OBJECT__25
10
0
20
0
30
0
70
128
71
10
72
64
73
65
0
VERTEX
8
OBJECT__25
10
0
20
0
30
0
70
128
71
66
72
67
73
64
0
VERTEX
8
OBJECT__25
10
0
20
0
30
0
70
128
71
66
72
68
73
67
0
VERTEX
8
OBJECT__25
10
0
20
0
30
0
70
128
71
64
72
10
73
66
0
VERTEX
8
OBJECT__25
10
0
20
0
30
0
70
128
71
69
72
68
73
66
0
VERTEX
8
OBJECT__25
10
0
20
0
30
0
70
128
71
45
72
27
73
70
0
VERTEX
8
OBJECT__25
10
0
20
0
30
0
70
128
71
70
72
69
73
45
0
VERTEX
8
OBJECT__25
10
0
20
0
30
0
70
128
71
66
72
10
73
42
0
VERTEX
8
OBJECT__25
10
0
20
0
30
0
70
128
71
10
72
3
73
42
0
VERTEX
8
OBJECT__25
10
0
20
0
30
0
70
128
71
20
72
3
73
10
0
VERTEX
8
OBJECT__25
10
0
20
0
30
0
70
128
71
71
72
9
73
72
0
VERTEX
8
OBJECT__25
10
0
20
0
30
0
70
128
71
9
72
73
73
72
0
VERTEX
8
OBJECT__25
10
0
20
0
30
0
70
128
71
9
72
71
73
21
0
VERTEX
8
OBJECT__25
10
0
20
0
30
0
70
128
71
74
72
71
73
75
0
VERTEX
8
OBJECT__25
10
0
20
0
30
0
70
128
71
71
72
76
73
75
0
VERTEX
8
OBJECT__25
10
0
20
0
30
0
70
128
71
71
72
77
73
76
0
VERTEX
8
OBJECT__25
10
0
20
0
30
0
70
128
71
75
72
78
73
79
0
VERTEX
8
OBJECT__25
10
0
20
0
30
0
70
128
71
71
72
74
73
80
0
VERTEX
8
OBJECT__25
10
0
20
0
30
0
70
128
71
80
72
21
73
71
0
VERTEX
8
OBJECT__25
10
0
20
0
30
0
70
128
71
22
72
21
73
81
0
VERTEX
8
OBJECT__25
10
0
20
0
30
0
70
128
71
81
72
82
73
22
0
VERTEX
8
OBJECT__25
10
0
20
0
30
0
70
128
71
82
72
83
73
22
0
VERTEX
8
OBJECT__25
10
0
20
0
30
0
70
128
71
24
72
22
73
84
0
VERTEX
8
OBJECT__25
10
0
20
0
30
0
70
128
71
84
72
85
73
24
0
VERTEX
8
OBJECT__25
10
0
20
0
30
0
70
128
71
83
72
84
73
22
0
VERTEX
8
OBJECT__25
10
0
20
0
30
0
70
128
71
80
72
81
73
21
0
VERTEX
8
OBJECT__25
10
0
20
0
30
0
70
128
71
75
72
79
73
74
0
VERTEX
8
OBJECT__25
10
0
20
0
30
0
70
128
71
21
72
20
73
9
0
VERTEX
8
OBJECT__25
10
0
20
0
30
0
70
128
71
72
72
77
73
71
0
VERTEX
8
OBJECT__25
10
0
20
0
30
0
70
128
71
10
72
9
73
20
0
VERTEX
8
OBJECT__25
10
0
20
0
30
0
70
128
71
42
72
45
73
66
0
VERTEX
8
OBJECT__25
10
0
20
0
30
0
70
128
71
66
72
45
73
69
0
VERTEX
8
OBJECT__25
10
0
20
0
30
0
70
128
71
65
72
13
73
10
0
VERTEX
8
OBJECT__25
10
0
20
0
30
0
70
128
71
63
72
52
73
26
0
VERTEX
8
OBJECT__25
10
0
20
0
30
0
70
128
71
58
72
55
73
31
0
VERTEX
8
OBJECT__25
10
0
20
0
30
0
70
128
71
56
72
62
73
32
0
VERTEX
8
OBJECT__25
10
0
20
0
30
0
70
128
71
54
72
70
73
27
0
VERTEX
8
OBJECT__25
10
0
20
0
30
0
70
128
71
50
72
43
73
42
0
VERTEX
8
OBJECT__25
10
0
20
0
30
0
70
128
71
46
72
30
73
27
0
VERTEX
8
OBJECT__25
10
0
20
0
30
0
70
128
71
44
72
47
73
45
0
VERTEX
8
OBJECT__25
10
0
20
0
30
0
70
128
71
40
72
35
73
32
0
VERTEX
8
OBJECT__25
10
0
20
0
30
0
70
128
71
36
72
7
73
5
0
VERTEX
8
OBJECT__25
10
0
20
0
30
0
70
128
71
33
72
38
73
31
0
VERTEX
8
OBJECT__25
10
0
20
0
30
0
70
128
71
29
72
41
73
26
0
VERTEX
8
OBJECT__25
10
0
20
0
30
0
70
128
71
23
72
19
73
1
0
VERTEX
8
OBJECT__25
10
0
20
0
30
0
70
128
71
21
72
22
73
1
0
VERTEX
8
OBJECT__25
10
0
20
0
30
0
70
128
71
18
72
51
73
2
0
VERTEX
8
OBJECT__25
10
0
20
0
30
0
70
128
71
16
72
59
73
5
0
VERTEX
8
OBJECT__25
10
0
20
0
30
0
70
128
71
11
72
73
73
9
0
VERTEX
8
OBJECT__25
10
0
20
0
30
0
70
128
71
6
72
86
73
4
0
VERTEX
8
OBJECT__25
10
0
20
0
30
0
70
128
71
3
72
20
73
1
0
SEQEND
8
OBJECT__25
0
POLYLINE
8
OBJECT__26
66
1
70
64
71
46
72
44
62
253
0
VERTEX
8
OBJECT__26
10
34.000000
20
-27.582001
30
-12.731000
70
192
0
VERTEX
8
OBJECT__26
10
34.000000
20
10.282000
30
12.522000
70
192
0
VERTEX
8
OBJECT__26
10
34.000000
20
10.683000
30
12.419000
70
192
0
VERTEX
8
OBJECT__26
10
34.000000
20
-10.123000
30
12.240000
70
192
0
VERTEX
8
OBJECT__26
10
34.000000
20
-6.997000
30
13.745000
70
192
0
VERTEX
8
OBJECT__26
10
34.000000
20
-18.900999
30
6.580000
70
192
0
VERTEX
8
OBJECT__26
10
34.000000
20
-15.479000
30
9.663000
70
192
0
VERTEX
8
OBJECT__26
10
34.000000
20
-22.059000
30
2.414000
70
192
0
VERTEX
8
OBJECT__26
10
34.000000
20
24.712999
30
-2.144000
70
192
0
VERTEX
8
OBJECT__26
10
34.000000
20
25.650000
30
-3.797000
70
192
0
VERTEX
8
OBJECT__26
10
34.000000
20
5.172000
30
13.825000
70
192
0
VERTEX
8
OBJECT__26
10
34.000000
20
0.031000
30
14.448000
70
192
0
VERTEX
8
OBJECT__26
10
34.000000
20
1.966000
30
14.642000
70
192
0
VERTEX
8
OBJECT__26
10
34.000000
20
-5.221000
30
13.922000
70
192
0
VERTEX
8
OBJECT__26
10
34.000000
20
-20.040001
30
5.554000
70
192
0
VERTEX
8
OBJECT__26
10
34.000000
20
-19.191999
30
-32.452000
70
192
0
VERTEX
8
OBJECT__26
10
34.000000
20
-20.520000
30
-31.275000
70
192
0
VERTEX
8
OBJECT__26
10
34.000000
20
-10.298000
30
-38.219002
70
192
0
VERTEX
8
OBJECT__26
10
34.000000
20
-15.194000
30
-35.995998
70
192
0
VERTEX
8
OBJECT__26
10
34.000000
20
18.914000
30
-32.977001
70
192
0
VERTEX
8
OBJECT__26
10
34.000000
20
11.321000
30
-38.198002
70
192
0
VERTEX
8
OBJECT__26
10
34.000000
20
27.517000
30
-14.347000
70
192
0
VERTEX
8
OBJECT__26
10
34.000000
20
25.384001
30
-23.365000
70
192
0
VERTEX
8
OBJECT__26
10
34.000000
20
27.591999
30
-12.217000
70
192
0
VERTEX
8
OBJECT__26
10
34.000000
20
18.959000
30
6.635000
70
192
0
VERTEX
8
OBJECT__26
10
34.000000
20
20.959000
30
4.483000
70
192
0
VERTEX
8
OBJECT__26
10
34.000000
20
14.721000
30
9.731000
70
192
0
VERTEX
8
OBJECT__26
10
34.000000
20
18.292999
30
7.352000
70
192
0
VERTEX
8
OBJECT__26
10
34.000000
20
-14.876000
30
9.953000
70
192
0
VERTEX
8
OBJECT__26
10
34.000000
20
-24.909000
30
-2.021000
70
192
0
VERTEX
8
OBJECT__26
10
34.000000
20
-27.584999
30
-12.217000
70
192
0
VERTEX
8
OBJECT__26
10
34.000000
20
-25.129000
30
-23.618999
70
192
0
VERTEX
8
OBJECT__26
10
34.000000
20
-25.563000
30
-22.898001
70
192
0
VERTEX
8
OBJECT__26
10
34.000000
20
-27.579000
30
-13.246000
70
192
0
VERTEX
8
OBJECT__26
10
34.000000
20
0.029000
30
-40.408001
70
192
0
VERTEX
8
OBJECT__26
10
34.000000
20
-6.670000
30
-39.866001
70
192
0
VERTEX
8
OBJECT__26
10
34.000000
20
10.437000
30
-38.438000
70
192
0
VERTEX
8
OBJECT__26
10
34.000000
20
2.466000
30
-40.605000
70
192
0
VERTEX
8
OBJECT__26
10
34.000000
20
19.305000
30
-32.566002
70
192
0
VERTEX
8
OBJECT__26
10
34.000000
20
25.202999
30
-23.659000
70
192
0
VERTEX
8
OBJECT__26
10
34.000000
20
20.476999
30
-31.332001
70
192
0
VERTEX
8
OBJECT__26
10
34.000000
20
27.587000
30
-13.246000
70
192
0
VERTEX
8
OBJECT__26
10
34.000000
20
27.608999
30
-12.484000
70
192
0
VERTEX
8
OBJECT__26
10
34.000000
20
27.608999
30
-12.731000
70
192
0
VERTEX
8
OBJECT__26
10
34.000000
20
22.108000
30
2.454000
70
192
0
VERTEX
8
OBJECT__26
10
34.000000
20
-24.943001
30
-2.073000
70
192
0
VERTEX
8
OBJECT__26
10
0
20
0
30
0
70
128
71
1
72
2
73
3
0
VERTEX
8
OBJECT__26
10
0
20
0
30
0
70
128
71
1
72
4
73
5
0
VERTEX
8
OBJECT__26
10
0
20
0
30
0
70
128
71
1
72
6
73
7
0
VERTEX
8
OBJECT__26
10
0
20
0
30
0
70
128
71
6
72
1
73
8
0
VERTEX
8
OBJECT__26
10
0
20
0
30
0
70
128
71
1
72
9
73
10
0
VERTEX
8
OBJECT__26
10
0
20
0
30
0
70
128
71
1
72
11
73
2
0
VERTEX
8
OBJECT__26
10
0
20
0
30
0
70
128
71
1
72
12
73
13
0
VERTEX
8
OBJECT__26
10
0
20
0
30
0
70
128
71
5
72
14
73
1
0
VERTEX
8
OBJECT__26
10
0
20
0
30
0
70
128
71
8
72
15
73
6
0
VERTEX
8
OBJECT__26
10
0
20
0
30
0
70
128
71
1
72
16
73
17
0
VERTEX
8
OBJECT__26
10
0
20
0
30
0
70
128
71
1
72
18
73
19
0
VERTEX
8
OBJECT__26
10
0
20
0
30
0
70
128
71
1
72
20
73
21
0
VERTEX
8
OBJECT__26
10
0
20
0
30
0
70
128
71
1
72
22
73
23
0
VERTEX
8
OBJECT__26
10
0
20
0
30
0
70
128
71
10
72
24
73
1
0
VERTEX
8
OBJECT__26
10
0
20
0
30
0
70
128
71
1
72
25
73
26
0
VERTEX
8
OBJECT__26
10
0
20
0
30
0
70
128
71
1
72
27
73
28
0
VERTEX
8
OBJECT__26
10
0
20
0
30
0
70
128
71
13
72
11
73
1
0
VERTEX
8
OBJECT__26
10
0
20
0
30
0
70
128
71
1
72
29
73
4
0
VERTEX
8
OBJECT__26
10
0
20
0
30
0
70
128
71
1
72
30
73
8
0
VERTEX
8
OBJECT__26
10
0
20
0
30
0
70
128
71
30
72
1
73
31
0
VERTEX
8
OBJECT__26
10
0
20
0
30
0
70
128
71
32
72
33
73
34
0
VERTEX
8
OBJECT__26
10
0
20
0
30
0
70
128
71
19
72
16
73
1
0
VERTEX
8
OBJECT__26
10
0
20
0
30
0
70
128
71
1
72
35
73
36
0
VERTEX
8
OBJECT__26
10
0
20
0
30
0
70
128
71
1
72
37
73
38
0
VERTEX
8
OBJECT__26
10
0
20
0
30
0
70
128
71
1
72
39
73
20
0
VERTEX
8
OBJECT__26
10
0
20
0
30
0
70
128
71
1
72
40
73
41
0
VERTEX
8
OBJECT__26
10
0
20
0
30
0
70
128
71
1
72
42
73
22
0
VERTEX
8
OBJECT__26
10
0
20
0
30
0
70
128
71
1
72
43
73
44
0
VERTEX
8
OBJECT__26
10
0
20
0
30
0
70
128
71
1
72
45
73
9
0
VERTEX
8
OBJECT__26
10
0
20
0
30
0
70
128
71
28
72
25
73
1
0
VERTEX
8
OBJECT__26
10
0
20
0
30
0
70
128
71
14
72
12
73
1
0
VERTEX
8
OBJECT__26
10
0
20
0
30
0
70
128
71
31
72
46
73
30
0
VERTEX
8
OBJECT__26
10
0
20
0
30
0
70
128
71
17
72
32
73
1
0
VERTEX
8
OBJECT__26
10
0
20
0
30
0
70
128
71
38
72
35
73
1
0
VERTEX
8
OBJECT__26
10
0
20
0
30
0
70
128
71
41
72
39
73
1
0
VERTEX
8
OBJECT__26
10
0
20
0
30
0
70
128
71
44
72
42
73
1
0
VERTEX
8
OBJECT__26
10
0
20
0
30
0
70
128
71
26
72
45
73
1
0
VERTEX
8
OBJECT__26
10
0
20
0
30
0
70
128
71
7
72
29
73
1
0
VERTEX
8
OBJECT__26
10
0
20
0
30
0
70
128
71
36
72
18
73
1
0
VERTEX
8
OBJECT__26
10
0
20
0
30
0
70
128
71
23
72
40
73
1
0
VERTEX
8
OBJECT__26
10
0
20
0
30
0
70
128
71
3
72
27
73
1
0
VERTEX
8
OBJECT__26
10
0
20
0
30
0
70
128
71
21
72
37
73
1
0
VERTEX
8
OBJECT__26
10
0
20
0
30
0
70
128
71
34
72
1
73
32
0
VERTEX
8
OBJECT__26
10
0
20
0
30
0
70
128
71
24
72
43
73
1
0
SEQEND
8
OBJECT__26
0
POLYLINE
8
OBJECT__27
66
1
70
64
71
157
72
219
62
253
0
VERTEX
8
OBJECT__27
10
76.822998
20
0.004000
30
-63.102001
70
192
0
VERTEX
8
OBJECT__27
10
75.839996
20
8.481000
30
-63.528999
70
192
0
VERTEX
8
OBJECT__27
10
73.245003
20
9.154000
30
-46.429001
70
192
0
VERTEX
8
OBJECT__27
10
73.245003
20
-9.147000
30
-46.429001
70
192
0
VERTEX
8
OBJECT__27
10
70.824997
20
-17.367001
30
-52.756001
70
192
0
VERTEX
8
OBJECT__27
10
71.647003
20
-17.047001
30
-56.525002
70
192
0
VERTEX
8
OBJECT__27
10
71.891998
20
-13.485000
30
-47.637001
70
192
0
VERTEX
8
OBJECT__27
10
70.052002
20
-17.667999
30
-49.215000
70
192
0
VERTEX
8
OBJECT__27
10
75.838997
20
-8.475000
30
-63.529999
70
192
0
VERTEX
8
OBJECT__27
10
71.257004
20
17.202000
30
-54.453999
70
192
0
VERTEX
8
OBJECT__27
10
70.869003
20
17.356001
30
-52.772999
70
192
0
VERTEX
8
OBJECT__27
10
72.948997
20
16.608000
30
-64.732002
70
192
0
VERTEX
8
OBJECT__27
10
78.720001
20
0.004000
30
-80.627998
70
192
0
VERTEX
8
OBJECT__27
10
77.924004
20
8.063000
30
-80.598000
70
192
0
VERTEX
8
OBJECT__27
10
74.648003
20
16.011999
30
-75.055000
70
192
0
VERTEX
8
OBJECT__27
10
73.431000
20
16.438999
30
-67.661003
70
192
0
VERTEX
8
OBJECT__27
10
75.521004
20
15.787000
30
-80.568001
70
192
0
VERTEX
8
OBJECT__27
10
63.044998
20
7.087000
30
-10.452000
70
192
0
VERTEX
8
OBJECT__27
10
63.436001
20
0.004000
30
-9.532000
70
192
0
VERTEX
8
OBJECT__27
10
67.533997
20
0.004000
30
-18.191999
70
192
0
VERTEX
8
OBJECT__27
10
50.587002
20
8.760000
30
4.096000
70
192
0
VERTEX
8
OBJECT__27
10
50.896000
20
0.004000
30
5.619000
70
192
0
VERTEX
8
OBJECT__27
10
58.021000
20
0.004000
30
-1.602000
70
192
0
VERTEX
8
OBJECT__27
10
42.344002
20
9.555000
30
9.459000
70
192
0
VERTEX
8
OBJECT__27
10
42.472000
20
4.867000
30
10.840000
70
192
0
VERTEX
8
OBJECT__27
10
49.681999
20
16.485001
30
-0.294000
70
192
0
VERTEX
8
OBJECT__27
10
41.842999
20
17.794001
30
4.219000
70
192
0
VERTEX
8
OBJECT__27
10
42.132999
20
13.913000
30
7.226000
70
192
0
VERTEX
8
OBJECT__27
10
57.630001
20
7.948000
30
-2.788000
70
192
0
VERTEX
8
OBJECT__27
10
56.479000
20
15.103000
30
-6.267000
70
192
0
VERTEX
8
OBJECT__27
10
54.689999
20
20.791000
30
-11.671000
70
192
0
VERTEX
8
OBJECT__27
10
48.272999
20
22.333000
30
-7.010000
70
192
0
VERTEX
8
OBJECT__27
10
41.062000
20
23.709999
30
-3.640000
70
192
0
VERTEX
8
OBJECT__27
10
41.484001
20
21.091000
30
0.558000
70
192
0
VERTEX
8
OBJECT__27
10
46.209999
20
26.098000
30
-15.027000
70
192
0
VERTEX
8
OBJECT__27
10
41.344002
20
26.757999
30
-13.440000
70
192
0
VERTEX
8
OBJECT__27
10
46.530998
20
26.035000
30
-15.189000
70
192
0
VERTEX
8
OBJECT__27
10
40.153999
20
26.920000
30
-13.052000
70
192
0
VERTEX
8
OBJECT__27
10
51.590000
20
25.056000
30
-17.733000
70
192
0
VERTEX
8
OBJECT__27
10
48.283001
20
25.695999
30
-16.070000
70
192
0
VERTEX
8
OBJECT__27
10
52.450001
20
24.823999
30
-18.355000
70
192
0
VERTEX
8
OBJECT__27
10
61.889999
20
13.588000
30
-13.197000
70
192
0
VERTEX
8
OBJECT__27
10
60.106998
20
18.995001
30
-17.511000
70
192
0
VERTEX
8
OBJECT__27
10
55.844002
20
23.909000
30
-20.813000
70
192
0
VERTEX
8
OBJECT__27
10
54.573002
20
24.252001
30
-19.893000
70
192
0
VERTEX
8
OBJECT__27
10
57.840000
20
23.193001
30
-22.948000
70
192
0
VERTEX
8
OBJECT__27
10
66.030998
20
12.093000
30
-21.011999
70
192
0
VERTEX
8
OBJECT__27
10
64.297997
20
17.167000
30
-24.356001
70
192
0
VERTEX
8
OBJECT__27
10
71.474998
20
9.790000
30
-37.980000
70
192
0
VERTEX
8
OBJECT__27
10
69.120003
20
10.779000
30
-29.357000
70
192
0
VERTEX
8
OBJECT__27
10
70.167999
20
5.531000
30
-27.809999
70
192
0
VERTEX
8
OBJECT__27
10
74.391998
20
0.004000
30
-45.393002
70
192
0
VERTEX
8
OBJECT__27
10
70.515999
20
0.004000
30
-27.299999
70
192
0
VERTEX
8
OBJECT__27
10
67.155998
20
6.255000
30
-18.893999
70
192
0
VERTEX
8
OBJECT__27
10
66.297997
20
19.360001
30
-36.680000
70
192
0
VERTEX
8
OBJECT__27
10
65.439003
20
19.792999
30
-34.895000
70
192
0
VERTEX
8
OBJECT__27
10
67.503998
20
15.534000
30
-31.789000
70
192
0
VERTEX
8
OBJECT__27
10
66.740997
20
19.150999
30
-37.966000
70
192
0
VERTEX
8
OBJECT__27
10
68.003998
20
18.556000
30
-41.631001
70
192
0
VERTEX
8
OBJECT__27
10
59.638000
20
22.548000
30
-24.871000
70
192
0
VERTEX
8
OBJECT__27
10
62.087002
20
21.426001
30
-28.608999
70
192
0
VERTEX
8
OBJECT__27
10
63.681000
20
20.679001
30
-31.239000
70
192
0
VERTEX
8
OBJECT__27
10
63.324001
20
20.860001
30
-30.495001
70
192
0
VERTEX
8
OBJECT__27
10
69.125000
20
18.045000
30
-45.229000
70
192
0
VERTEX
8
OBJECT__27
10
68.883003
20
18.141001
30
-44.185001
70
192
0
VERTEX
8
OBJECT__27
10
70.046997
20
17.681000
30
-49.217999
70
192
0
VERTEX
8
OBJECT__27
10
64.297997
20
-17.160000
30
-24.356001
70
192
0
VERTEX
8
OBJECT__27
10
60.106998
20
-18.987000
30
-17.511000
70
192
0
VERTEX
8
OBJECT__27
10
59.728001
20
-22.485001
30
-25.063000
70
192
0
VERTEX
8
OBJECT__27
10
57.847000
20
-23.187000
30
-22.938000
70
192
0
VERTEX
8
OBJECT__27
10
60.127998
20
-22.336000
30
-25.514999
70
192
0
VERTEX
8
OBJECT__27
10
54.691002
20
-20.782000
30
-11.670000
70
192
0
VERTEX
8
OBJECT__27
10
48.273998
20
-22.323999
30
-7.008000
70
192
0
VERTEX
8
OBJECT__27
10
48.270000
20
-25.686001
30
-16.077000
70
192
0
VERTEX
8
OBJECT__27
10
46.533001
20
-26.028999
30
-15.187000
70
192
0
VERTEX
8
OBJECT__27
10
52.034000
20
-24.945000
30
-18.004000
70
192
0
VERTEX
8
OBJECT__27
10
41.063000
20
-23.701000
30
-3.636000
70
192
0
VERTEX
8
OBJECT__27
10
41.341999
20
-26.752001
30
-13.435000
70
192
0
VERTEX
8
OBJECT__27
10
40.227001
20
-26.903999
30
-13.069000
70
192
0
VERTEX
8
OBJECT__27
10
46.271999
20
-26.080000
30
-15.053000
70
192
0
VERTEX
8
OBJECT__27
10
40.099998
20
-26.917999
30
-13.052000
70
192
0
VERTEX
8
OBJECT__27
10
54.542999
20
-24.242001
30
-19.912001
70
192
0
VERTEX
8
OBJECT__27
10
52.466000
20
-24.823000
30
-18.333000
70
192
0
VERTEX
8
OBJECT__27
10
56.459999
20
-23.705000
30
-21.370001
70
192
0
VERTEX
8
OBJECT__27
10
56.480000
20
-15.093000
30
-6.265000
70
192
0
VERTEX
8
OBJECT__27
10
49.034000
20
-19.674999
30
-3.403000
70
192
0
VERTEX
8
OBJECT__27
10
49.682999
20
-16.474001
30
-0.292000
70
192
0
VERTEX
8
OBJECT__27
10
41.484001
20
-21.080999
30
0.562000
70
192
0
VERTEX
8
OBJECT__27
10
41.844002
20
-17.783001
30
4.222000
70
192
0
VERTEX
8
OBJECT__27
10
61.889999
20
-13.578000
30
-13.195000
70
192
0
VERTEX
8
OBJECT__27
10
66.031998
20
-12.084000
30
-21.011000
70
192
0
VERTEX
8
OBJECT__27
10
69.983002
20
-14.290000
30
-39.576000
70
192
0
VERTEX
8
OBJECT__27
10
66.720001
20
-19.142000
30
-37.719002
70
192
0
VERTEX
8
OBJECT__27
10
66.786003
20
-19.111000
30
-37.924000
70
192
0
VERTEX
8
OBJECT__27
10
67.503998
20
-15.527000
30
-31.789000
70
192
0
VERTEX
8
OBJECT__27
10
65.424004
20
-19.796000
30
-34.902000
70
192
0
VERTEX
8
OBJECT__27
10
62.074001
20
-21.424000
30
-28.615999
70
192
0
VERTEX
8
OBJECT__27
10
63.785000
20
-20.622000
30
-31.341000
70
192
0
VERTEX
8
OBJECT__27
10
67.988998
20
-18.559000
30
-41.634998
70
192
0
VERTEX
8
OBJECT__27
10
69.143997
20
-18.028999
30
-45.202000
70
192
0
VERTEX
8
OBJECT__27
10
69.244003
20
-17.983000
30
-45.508999
70
192
0
VERTEX
8
OBJECT__27
10
69.120003
20
-10.770000
30
-29.356001
70
192
0
VERTEX
8
OBJECT__27
10
67.156998
20
-6.246000
30
-18.893999
70
192
0
VERTEX
8
OBJECT__27
10
57.630001
20
-7.938000
30
-2.787000
70
192
0
VERTEX
8
OBJECT__27
10
50.206001
20
-12.802000
30
2.238000
70
192
0
VERTEX
8
OBJECT__27
10
50.587002
20
-8.750000
30
4.096000
70
192
0
VERTEX
8
OBJECT__27
10
42.132999
20
-13.902000
30
7.228000
70
192
0
VERTEX
8
OBJECT__27
10
42.344002
20
-9.546000
30
9.460000
70
192
0
VERTEX
8
OBJECT__27
10
63.044998
20
-7.078000
30
-10.452000
70
192
0
VERTEX
8
OBJECT__27
10
50.818001
20
-4.438000
30
5.233000
70
192
0
VERTEX
8
OBJECT__27
10
42.472000
20
-4.855000
30
10.841000
70
192
0
VERTEX
8
OBJECT__27
10
74.108002
20
-4.631000
30
-45.651001
70
192
0
VERTEX
8
OBJECT__27
10
70.167999
20
-5.523000
30
-27.809999
70
192
0
VERTEX
8
OBJECT__27
10
77.924004
20
-8.057000
30
-80.598000
70
192
0
VERTEX
8
OBJECT__27
10
73.434998
20
-16.452999
30
-67.628998
70
192
0
VERTEX
8
OBJECT__27
10
72.968002
20
-16.608000
30
-64.728996
70
192
0
VERTEX
8
OBJECT__27
10
40.101002
20
26.926001
30
-13.044000
70
192
0
VERTEX
8
OBJECT__27
10
34.000000
20
27.591999
30
-12.217000
70
192
0
VERTEX
8
OBJECT__27
10
34.000000
20
25.650000
30
-3.797000
70
192
0
VERTEX
8
OBJECT__27
10
34.000000
20
24.712999
30
-2.144000
70
192
0
VERTEX
8
OBJECT__27
10
34.000000
20
22.108000
30
2.454000
70
192
0
VERTEX
8
OBJECT__27
10
34.000000
20
20.959000
30
4.483000
70
192
0
VERTEX
8
OBJECT__27
10
34.000000
20
18.292999
30
7.352000
70
192
0
VERTEX
8
OBJECT__27
10
34.000000
20
18.959000
30
6.635000
70
192
0
VERTEX
8
OBJECT__27
10
34.000000
20
14.721000
30
9.731000
70
192
0
VERTEX
8
OBJECT__27
10
34.000000
20
10.683000
30
12.419000
70
192
0
VERTEX
8
OBJECT__27
10
34.000000
20
10.282000
30
12.522000
70
192
0
VERTEX
8
OBJECT__27
10
34.000000
20
5.172000
30
13.825000
70
192
0
VERTEX
8
OBJECT__27
10
34.000000
20
1.966000
30
14.642000
70
192
0
VERTEX
8
OBJECT__27
10
42.514999
20
0.004000
30
11.314000
70
192
0
VERTEX
8
OBJECT__27
10
34.000000
20
-5.221000
30
13.922000
70
192
0
VERTEX
8
OBJECT__27
10
34.000000
20
-6.997000
30
13.745000
70
192
0
VERTEX
8
OBJECT__27
10
34.000000
20
-10.123000
30
12.240000
70
192
0
VERTEX
8
OBJECT__27
10
34.000000
20
-14.876000
30
9.953000
70
192
0
VERTEX
8
OBJECT__27
10
34.000000
20
-15.479000
30
9.663000
70
192
0
VERTEX
8
OBJECT__27
10
34.000000
20
-18.900999
30
6.580000
70
192
0
VERTEX
8
OBJECT__27
10
34.000000
20
-20.040001
30
5.554000
70
192
0
VERTEX
8
OBJECT__27
10
34.000000
20
-22.059000
30
2.414000
70
192
0
VERTEX
8
OBJECT__27
10
34.000000
20
-24.909000
30
-2.021000
70
192
0
VERTEX
8
OBJECT__27
10
34.000000
20
-24.943001
30
-2.073000
70
192
0
VERTEX
8
OBJECT__27
10
34.000000
20
-27.584999
30
-12.217000
70
192
0
VERTEX
8
OBJECT__27
10
80.896004
20
-12.877000
30
-112.412003
70
192
0
VERTEX
8
OBJECT__27
10
81.899002
20
-7.430000
30
-113.773003
70
192
0
VERTEX
8
OBJECT__27
10
75.805000
20
-15.670000
30
-82.358002
70
192
0
VERTEX
8
OBJECT__27
10
80.475998
20
-14.502000
30
-111.842003
70
192
0
VERTEX
8
OBJECT__27
10
75.760002
20
-15.681000
30
-82.077003
70
192
0
VERTEX
8
OBJECT__27
10
75.516998
20
-15.762000
30
-80.568001
70
192
0
VERTEX
8
OBJECT__27
10
81.900002
20
-7.418000
30
-113.775002
70
192
0
VERTEX
8
OBJECT__27
10
82.333000
20
-2.320000
30
-114.366997
70
192
0
VERTEX
8
OBJECT__27
10
82.305000
20
-0.006000
30
-114.333000
70
192
0
VERTEX
8
OBJECT__27
10
81.856003
20
7.410000
30
-113.737999
70
192
0
VERTEX
8
OBJECT__27
10
82.305000
20
0.001000
30
-114.333000
70
192
0
VERTEX
8
OBJECT__27
10
82.261002
20
3.736000
30
-114.278999
70
192
0
VERTEX
8
OBJECT__27
10
81.692001
20
8.896000
30
-113.518997
70
192
0
VERTEX
8
OBJECT__27
10
80.484001
20
14.507000
30
-111.891998
70
192
0
VERTEX
8
OBJECT__27
10
75.810997
20
15.712000
30
-82.397003
70
192
0
VERTEX
8
OBJECT__27
10
34.000000
20
0.031000
30
14.448000
70
192
0
VERTEX
8
OBJECT__27
10
0
20
0
30
0
70
128
71
1
72
2
73
3
0
VERTEX
8
OBJECT__27
10
0
20
0
30
0
70
128
71
4
72
5
73
6
0
VERTEX
8
OBJECT__27
10
0
20
0
30
0
70
128
71
5
72
4
73
7
0
VERTEX
8
OBJECT__27
10
0
20
0
30
0
70
128
71
7
72
8
73
5
0
VERTEX
8
OBJECT__27
10
0
20
0
30
0
70
128
71
6
72
9
73
4
0
VERTEX
8
OBJECT__27
10
0
20
0
30
0
70
128
71
3
72
10
73
11
0
VERTEX
8
OBJECT__27
10
0
20
0
30
0
70
128
71
2
72
12
73
10
0
VERTEX
8
OBJECT__27
10
0
20
0
30
0
70
128
71
10
72
3
73
2
0
VERTEX
8
OBJECT__27
10
0
20
0
30
0
70
128
71
1
72
13
73
14
0
VERTEX
8
OBJECT__27
10
0
20
0
30
0
70
128
71
2
72
14
73
15
0
VERTEX
8
OBJECT__27
10
0
20
0
30
0
70
128
71
15
72
16
73
2
0
VERTEX
8
OBJECT__27
10
0
20
0
30
0
70
128
71
14
72
17
73
15
0
VERTEX
8
OBJECT__27
10
0
20
0
30
0
70
128
71
18
72
19
73
20
0
VERTEX
8
OBJECT__27
10
0
20
0
30
0
70
128
71
21
72
22
73
23
0
VERTEX
8
OBJECT__27
10
0
20
0
30
0
70
128
71
21
72
24
73
25
0
VERTEX
8
OBJECT__27
10
0
20
0
30
0
70
128
71
25
72
22
73
21
0
VERTEX
8
OBJECT__27
10
0
20
0
30
0
70
128
71
26
72
27
73
28
0
VERTEX
8
OBJECT__27
10
0
20
0
30
0
70
128
71
28
72
21
73
26
0
VERTEX
8
OBJECT__27
10
0
20
0
30
0
70
128
71
26
72
21
73
29
0
VERTEX
8
OBJECT__27
10
0
20
0
30
0
70
128
71
29
72
23
73
19
0
VERTEX
8
OBJECT__27
10
0
20
0
30
0
70
128
71
30
72
29
73
18
0
VERTEX
8
OBJECT__27
10
0
20
0
30
0
70
128
71
30
72
31
73
32
0
VERTEX
8
OBJECT__27
10
0
20
0
30
0
70
128
71
32
72
33
73
34
0
VERTEX
8
OBJECT__27
10
0
20
0
30
0
70
128
71
34
72
26
73
32
0
VERTEX
8
OBJECT__27
10
0
20
0
30
0
70
128
71
32
72
35
73
36
0
VERTEX
8
OBJECT__27
10
0
20
0
30
0
70
128
71
36
72
33
73
32
0
VERTEX
8
OBJECT__27
10
0
20
0
30
0
70
128
71
32
72
37
73
35
0
VERTEX
8
OBJECT__27
10
0
20
0
30
0
70
128
71
36
72
38
73
33
0
VERTEX
8
OBJECT__27
10
0
20
0
30
0
70
128
71
31
72
39
73
40
0
VERTEX
8
OBJECT__27
10
0
20
0
30
0
70
128
71
40
72
32
73
31
0
VERTEX
8
OBJECT__27
10
0
20
0
30
0
70
128
71
31
72
41
73
39
0
VERTEX
8
OBJECT__27
10
0
20
0
30
0
70
128
71
31
72
30
73
42
0
VERTEX
8
OBJECT__27
10
0
20
0
30
0
70
128
71
43
72
44
73
45
0
VERTEX
8
OBJECT__27
10
0
20
0
30
0
70
128
71
45
72
31
73
43
0
VERTEX
8
OBJECT__27
10
0
20
0
30
0
70
128
71
43
72
46
73
44
0
VERTEX
8
OBJECT__27
10
0
20
0
30
0
70
128
71
47
72
48
73
43
0
VERTEX
8
OBJECT__27
10
0
20
0
30
0
70
128
71
49
72
50
73
51
0
VERTEX
8
OBJECT__27
10
0
20
0
30
0
70
128
71
52
72
3
73
49
0
VERTEX
8
OBJECT__27
10
0
20
0
30
0
70
128
71
49
72
53
73
52
0
VERTEX
8
OBJECT__27
10
0
20
0
30
0
70
128
71
42
72
18
73
54
0
VERTEX
8
OBJECT__27
10
0
20
0
30
0
70
128
71
54
72
20
73
53
0
VERTEX
8
OBJECT__27
10
0
20
0
30
0
70
128
71
47
72
54
73
51
0
VERTEX
8
OBJECT__27
10
0
20
0
30
0
70
128
71
55
72
56
73
57
0
VERTEX
8
OBJECT__27
10
0
20
0
30
0
70
128
71
49
72
58
73
55
0
VERTEX
8
OBJECT__27
10
0
20
0
30
0
70
128
71
49
72
59
73
58
0
VERTEX
8
OBJECT__27
10
0
20
0
30
0
70
128
71
55
72
50
73
49
0
VERTEX
8
OBJECT__27
10
0
20
0
30
0
70
128
71
43
72
48
73
60
0
VERTEX
8
OBJECT__27
10
0
20
0
30
0
70
128
71
48
72
61
73
60
0
VERTEX
8
OBJECT__27
10
0
20
0
30
0
70
128
71
50
72
57
73
48
0
VERTEX
8
OBJECT__27
10
0
20
0
30
0
70
128
71
57
72
62
73
63
0
VERTEX
8
OBJECT__27
10
0
20
0
30
0
70
128
71
57
72
56
73
62
0
VERTEX
8
OBJECT__27
10
0
20
0
30
0
70
128
71
63
72
48
73
57
0
VERTEX
8
OBJECT__27
10
0
20
0
30
0
70
128
71
3
72
64
73
65
0
VERTEX
8
OBJECT__27
10
0
20
0
30
0
70
128
71
3
72
66
73
64
0
VERTEX
8
OBJECT__27
10
0
20
0
30
0
70
128
71
65
72
49
73
3
0
VERTEX
8
OBJECT__27
10
0
20
0
30
0
70
128
71
67
72
68
73
69
0
VERTEX
8
OBJECT__27
10
0
20
0
30
0
70
128
71
68
72
70
73
69
0
VERTEX
8
OBJECT__27
10
0
20
0
30
0
70
128
71
69
72
71
73
67
0
VERTEX
8
OBJECT__27
10
0
20
0
30
0
70
128
71
72
72
73
73
74
0
VERTEX
8
OBJECT__27
10
0
20
0
30
0
70
128
71
73
72
75
73
74
0
VERTEX
8
OBJECT__27
10
0
20
0
30
0
70
128
71
74
72
76
73
72
0
VERTEX
8
OBJECT__27
10
0
20
0
30
0
70
128
71
73
72
77
73
78
0
VERTEX
8
OBJECT__27
10
0
20
0
30
0
70
128
71
77
72
79
73
78
0
VERTEX
8
OBJECT__27
10
0
20
0
30
0
70
128
71
78
72
80
73
73
0
VERTEX
8
OBJECT__27
10
0
20
0
30
0
70
128
71
77
72
81
73
79
0
VERTEX
8
OBJECT__27
10
0
20
0
30
0
70
128
71
68
72
72
73
82
0
VERTEX
8
OBJECT__27
10
0
20
0
30
0
70
128
71
72
72
83
73
82
0
VERTEX
8
OBJECT__27
10
0
20
0
30
0
70
128
71
82
72
84
73
68
0
VERTEX
8
OBJECT__27
10
0
20
0
30
0
70
128
71
85
72
86
73
73
0
VERTEX
8
OBJECT__27
10
0
20
0
30
0
70
128
71
85
72
87
73
86
0
VERTEX
8
OBJECT__27
10
0
20
0
30
0
70
128
71
86
72
88
73
77
0
VERTEX
8
OBJECT__27
10
0
20
0
30
0
70
128
71
87
72
89
73
88
0
VERTEX
8
OBJECT__27
10
0
20
0
30
0
70
128
71
72
72
68
73
90
0
VERTEX
8
OBJECT__27
10
0
20
0
30
0
70
128
71
91
72
90
73
68
0
VERTEX
8
OBJECT__27
10
0
20
0
30
0
70
128
71
92
72
93
73
94
0
VERTEX
8
OBJECT__27
10
0
20
0
30
0
70
128
71
95
72
96
73
93
0
VERTEX
8
OBJECT__27
10
0
20
0
30
0
70
128
71
93
72
92
73
95
0
VERTEX
8
OBJECT__27
10
0
20
0
30
0
70
128
71
67
72
97
73
98
0
VERTEX
8
OBJECT__27
10
0
20
0
30
0
70
128
71
98
72
95
73
67
0
VERTEX
8
OBJECT__27
10
0
20
0
30
0
70
128
71
92
72
99
73
100
0
VERTEX
8
OBJECT__27
10
0
20
0
30
0
70
128
71
100
72
7
73
92
0
VERTEX
8
OBJECT__27
10
0
20
0
30
0
70
128
71
100
72
101
73
7
0
VERTEX
8
OBJECT__27
10
0
20
0
30
0
70
128
71
102
72
95
73
92
0
VERTEX
8
OBJECT__27
10
0
20
0
30
0
70
128
71
92
72
4
73
102
0
VERTEX
8
OBJECT__27
10
0
20
0
30
0
70
128
71
102
72
91
73
67
0
VERTEX
8
OBJECT__27
10
0
20
0
30
0
70
128
71
90
72
91
73
103
0
VERTEX
8
OBJECT__27
10
0
20
0
30
0
70
128
71
85
72
104
73
105
0
VERTEX
8
OBJECT__27
10
0
20
0
30
0
70
128
71
104
72
106
73
105
0
VERTEX
8
OBJECT__27
10
0
20
0
30
0
70
128
71
105
72
107
73
89
0
VERTEX
8
OBJECT__27
10
0
20
0
30
0
70
128
71
106
72
108
73
107
0
VERTEX
8
OBJECT__27
10
0
20
0
30
0
70
128
71
85
72
90
73
109
0
VERTEX
8
OBJECT__27
10
0
20
0
30
0
70
128
71
104
72
23
73
110
0
VERTEX
8
OBJECT__27
10
0
20
0
30
0
70
128
71
23
72
22
73
110
0
VERTEX
8
OBJECT__27
10
0
20
0
30
0
70
128
71
108
72
106
73
110
0
VERTEX
8
OBJECT__27
10
0
20
0
30
0
70
128
71
111
72
110
73
22
0
VERTEX
8
OBJECT__27
10
0
20
0
30
0
70
128
71
104
72
109
73
19
0
VERTEX
8
OBJECT__27
10
0
20
0
30
0
70
128
71
109
72
103
73
20
0
VERTEX
8
OBJECT__27
10
0
20
0
30
0
70
128
71
112
72
113
73
102
0
VERTEX
8
OBJECT__27
10
0
20
0
30
0
70
128
71
91
72
102
73
113
0
VERTEX
8
OBJECT__27
10
0
20
0
30
0
70
128
71
113
72
112
73
52
0
VERTEX
8
OBJECT__27
10
0
20
0
30
0
70
128
71
103
72
113
73
53
0
VERTEX
8
OBJECT__27
10
0
20
0
30
0
70
128
71
9
72
1
73
112
0
VERTEX
8
OBJECT__27
10
0
20
0
30
0
70
128
71
1
72
52
73
112
0
VERTEX
8
OBJECT__27
10
0
20
0
30
0
70
128
71
114
72
9
73
115
0
VERTEX
8
OBJECT__27
10
0
20
0
30
0
70
128
71
9
72
116
73
115
0
VERTEX
8
OBJECT__27
10
0
20
0
30
0
70
128
71
1
72
9
73
114
0
VERTEX
8
OBJECT__27
10
0
20
0
30
0
70
128
71
33
72
117
73
118
0
VERTEX
8
OBJECT__27
10
0
20
0
30
0
70
128
71
118
72
119
73
33
0
VERTEX
8
OBJECT__27
10
0
20
0
30
0
70
128
71
34
72
33
73
120
0
VERTEX
8
OBJECT__27
10
0
20
0
30
0
70
128
71
34
72
121
73
122
0
VERTEX
8
OBJECT__27
10
0
20
0
30
0
70
128
71
122
72
27
73
34
0
VERTEX
8
OBJECT__27
10
0
20
0
30
0
70
128
71
28
72
27
73
123
0
VERTEX
8
OBJECT__27
10
0
20
0
30
0
70
128
71
27
72
124
73
123
0
VERTEX
8
OBJECT__27
10
0
20
0
30
0
70
128
71
24
72
28
73
125
0
VERTEX
8
OBJECT__27
10
0
20
0
30
0
70
128
71
125
72
126
73
24
0
VERTEX
8
OBJECT__27
10
0
20
0
30
0
70
128
71
127
72
128
73
25
0
VERTEX
8
OBJECT__27
10
0
20
0
30
0
70
128
71
25
72
128
73
129
0
VERTEX
8
OBJECT__27
10
0
20
0
30
0
70
128
71
129
72
130
73
25
0
VERTEX
8
OBJECT__27
10
0
20
0
30
0
70
128
71
131
72
111
73
130
0
VERTEX
8
OBJECT__27
10
0
20
0
30
0
70
128
71
111
72
132
73
133
0
VERTEX
8
OBJECT__27
10
0
20
0
30
0
70
128
71
111
72
131
73
132
0
VERTEX
8
OBJECT__27
10
0
20
0
30
0
70
128
71
134
72
107
73
108
0
VERTEX
8
OBJECT__27
10
0
20
0
30
0
70
128
71
107
72
135
73
136
0
VERTEX
8
OBJECT__27
10
0
20
0
30
0
70
128
71
107
72
134
73
135
0
VERTEX
8
OBJECT__27
10
0
20
0
30
0
70
128
71
89
72
137
73
138
0
VERTEX
8
OBJECT__27
10
0
20
0
30
0
70
128
71
89
72
136
73
137
0
VERTEX
8
OBJECT__27
10
0
20
0
30
0
70
128
71
88
72
138
73
139
0
VERTEX
8
OBJECT__27
10
0
20
0
30
0
70
128
71
77
72
140
73
141
0
VERTEX
8
OBJECT__27
10
0
20
0
30
0
70
128
71
77
72
139
73
140
0
VERTEX
8
OBJECT__27
10
0
20
0
30
0
70
128
71
114
72
142
73
143
0
VERTEX
8
OBJECT__27
10
0
20
0
30
0
70
128
71
114
72
144
73
145
0
VERTEX
8
OBJECT__27
10
0
20
0
30
0
70
128
71
145
72
142
73
114
0
VERTEX
8
OBJECT__27
10
0
20
0
30
0
70
128
71
114
72
146
73
144
0
VERTEX
8
OBJECT__27
10
0
20
0
30
0
70
128
71
114
72
147
73
146
0
VERTEX
8
OBJECT__27
10
0
20
0
30
0
70
128
71
13
72
114
73
148
0
VERTEX
8
OBJECT__27
10
0
20
0
30
0
70
128
71
148
72
149
73
13
0
VERTEX
8
OBJECT__27
10
0
20
0
30
0
70
128
71
149
72
150
73
13
0
VERTEX
8
OBJECT__27
10
0
20
0
30
0
70
128
71
13
72
152
73
153
0
VERTEX
8
OBJECT__27
10
0
20
0
30
0
70
128
71
153
72
151
73
13
0
VERTEX
8
OBJECT__27
10
0
20
0
30
0
70
128
71
14
72
154
73
155
0
VERTEX
8
OBJECT__27
10
0
20
0
30
0
70
128
71
14
72
151
73
154
0
VERTEX
8
OBJECT__27
10
0
20
0
30
0
70
128
71
155
72
156
73
14
0
VERTEX
8
OBJECT__27
10
0
20
0
30
0
70
128
71
156
72
17
73
14
0
VERTEX
8
OBJECT__27
10
0
20
0
30
0
70
128
71
151
72
14
73
13
0
VERTEX
8
OBJECT__27
10
0
20
0
30
0
70
128
71
150
72
152
73
13
0
VERTEX
8
OBJECT__27
10
0
20
0
30
0
70
128
71
143
72
148
73
114
0
VERTEX
8
OBJECT__27
10
0
20
0
30
0
70
128
71
141
72
81
73
77
0
VERTEX
8
OBJECT__27
10
0
20
0
30
0
70
128
71
139
72
77
73
88
0
VERTEX
8
OBJECT__27
10
0
20
0
30
0
70
128
71
138
72
88
73
89
0
VERTEX
8
OBJECT__27
10
0
20
0
30
0
70
128
71
136
72
89
73
107
0
VERTEX
8
OBJECT__27
10
0
20
0
30
0
70
128
71
108
72
133
73
134
0
VERTEX
8
OBJECT__27
10
0
20
0
30
0
70
128
71
133
72
108
73
111
0
VERTEX
8
OBJECT__27
10
0
20
0
30
0
70
128
71
130
72
157
73
131
0
VERTEX
8
OBJECT__27
10
0
20
0
30
0
70
128
71
129
72
157
73
130
0
VERTEX
8
OBJECT__27
10
0
20
0
30
0
70
128
71
25
72
24
73
127
0
VERTEX
8
OBJECT__27
10
0
20
0
30
0
70
128
71
126
72
127
73
24
0
VERTEX
8
OBJECT__27
10
0
20
0
30
0
70
128
71
123
72
125
73
28
0
VERTEX
8
OBJECT__27
10
0
20
0
30
0
70
128
71
122
72
124
73
27
0
VERTEX
8
OBJECT__27
10
0
20
0
30
0
70
128
71
120
72
121
73
34
0
VERTEX
8
OBJECT__27
10
0
20
0
30
0
70
128
71
119
72
120
73
33
0
VERTEX
8
OBJECT__27
10
0
20
0
30
0
70
128
71
114
72
13
73
1
0
VERTEX
8
OBJECT__27
10
0
20
0
30
0
70
128
71
115
72
147
73
114
0
VERTEX
8
OBJECT__27
10
0
20
0
30
0
70
128
71
112
72
4
73
9
0
VERTEX
8
OBJECT__27
10
0
20
0
30
0
70
128
71
53
72
20
73
103
0
VERTEX
8
OBJECT__27
10
0
20
0
30
0
70
128
71
52
72
53
73
113
0
VERTEX
8
OBJECT__27
10
0
20
0
30
0
70
128
71
113
72
103
73
91
0
VERTEX
8
OBJECT__27
10
0
20
0
30
0
70
128
71
102
72
4
73
112
0
VERTEX
8
OBJECT__27
10
0
20
0
30
0
70
128
71
20
72
19
73
109
0
VERTEX
8
OBJECT__27
10
0
20
0
30
0
70
128
71
19
72
23
73
104
0
VERTEX
8
OBJECT__27
10
0
20
0
30
0
70
128
71
22
72
130
73
111
0
VERTEX
8
OBJECT__27
10
0
20
0
30
0
70
128
71
110
72
111
73
108
0
VERTEX
8
OBJECT__27
10
0
20
0
30
0
70
128
71
110
72
106
73
104
0
VERTEX
8
OBJECT__27
10
0
20
0
30
0
70
128
71
109
72
104
73
85
0
VERTEX
8
OBJECT__27
10
0
20
0
30
0
70
128
71
107
72
105
73
106
0
VERTEX
8
OBJECT__27
10
0
20
0
30
0
70
128
71
89
72
87
73
105
0
VERTEX
8
OBJECT__27
10
0
20
0
30
0
70
128
71
105
72
87
73
85
0
VERTEX
8
OBJECT__27
10
0
20
0
30
0
70
128
71
103
72
109
73
90
0
VERTEX
8
OBJECT__27
10
0
20
0
30
0
70
128
71
67
72
95
73
102
0
VERTEX
8
OBJECT__27
10
0
20
0
30
0
70
128
71
92
72
7
73
4
0
VERTEX
8
OBJECT__27
10
0
20
0
30
0
70
128
71
101
72
8
73
7
0
VERTEX
8
OBJECT__27
10
0
20
0
30
0
70
128
71
98
72
96
73
95
0
VERTEX
8
OBJECT__27
10
0
20
0
30
0
70
128
71
94
72
99
73
92
0
VERTEX
8
OBJECT__27
10
0
20
0
30
0
70
128
71
68
72
67
73
91
0
VERTEX
8
OBJECT__27
10
0
20
0
30
0
70
128
71
90
72
85
73
72
0
VERTEX
8
OBJECT__27
10
0
20
0
30
0
70
128
71
88
72
86
73
87
0
VERTEX
8
OBJECT__27
10
0
20
0
30
0
70
128
71
77
72
73
73
86
0
VERTEX
8
OBJECT__27
10
0
20
0
30
0
70
128
71
73
72
72
73
85
0
VERTEX
8
OBJECT__27
10
0
20
0
30
0
70
128
71
84
72
70
73
68
0
VERTEX
8
OBJECT__27
10
0
20
0
30
0
70
128
71
80
72
75
73
73
0
VERTEX
8
OBJECT__27
10
0
20
0
30
0
70
128
71
76
72
83
73
72
0
VERTEX
8
OBJECT__27
10
0
20
0
30
0
70
128
71
71
72
97
73
67
0
VERTEX
8
OBJECT__27
10
0
20
0
30
0
70
128
71
65
72
59
73
49
0
VERTEX
8
OBJECT__27
10
0
20
0
30
0
70
128
71
63
72
61
73
48
0
VERTEX
8
OBJECT__27
10
0
20
0
30
0
70
128
71
48
72
47
73
50
0
VERTEX
8
OBJECT__27
10
0
20
0
30
0
70
128
71
60
72
46
73
43
0
VERTEX
8
OBJECT__27
10
0
20
0
30
0
70
128
71
57
72
50
73
55
0
VERTEX
8
OBJECT__27
10
0
20
0
30
0
70
128
71
51
72
50
73
47
0
VERTEX
8
OBJECT__27
10
0
20
0
30
0
70
128
71
53
72
51
73
54
0
VERTEX
8
OBJECT__27
10
0
20
0
30
0
70
128
71
54
72
47
73
42
0
VERTEX
8
OBJECT__27
10
0
20
0
30
0
70
128
71
51
72
53
73
49
0
VERTEX
8
OBJECT__27
10
0
20
0
30
0
70
128
71
43
72
42
73
47
0
VERTEX
8
OBJECT__27
10
0
20
0
30
0
70
128
71
45
72
41
73
31
0
VERTEX
8
OBJECT__27
10
0
20
0
30
0
70
128
71
42
72
43
73
31
0
VERTEX
8
OBJECT__27
10
0
20
0
30
0
70
128
71
40
72
37
73
32
0
VERTEX
8
OBJECT__27
10
0
20
0
30
0
70
128
71
38
72
117
73
33
0
VERTEX
8
OBJECT__27
10
0
20
0
30
0
70
128
71
34
72
27
73
26
0
VERTEX
8
OBJECT__27
10
0
20
0
30
0
70
128
71
32
72
26
73
30
0
VERTEX
8
OBJECT__27
10
0
20
0
30
0
70
128
71
18
72
42
73
30
0
VERTEX
8
OBJECT__27
10
0
20
0
30
0
70
128
71
19
72
18
73
29
0
VERTEX
8
OBJECT__27
10
0
20
0
30
0
70
128
71
29
72
30
73
26
0
VERTEX
8
OBJECT__27
10
0
20
0
30
0
70
128
71
28
72
24
73
21
0
VERTEX
8
OBJECT__27
10
0
20
0
30
0
70
128
71
25
72
130
73
22
0
VERTEX
8
OBJECT__27
10
0
20
0
30
0
70
128
71
23
72
29
73
21
0
VERTEX
8
OBJECT__27
10
0
20
0
30
0
70
128
71
20
72
54
73
18
0
VERTEX
8
OBJECT__27
10
0
20
0
30
0
70
128
71
16
72
12
73
2
0
VERTEX
8
OBJECT__27
10
0
20
0
30
0
70
128
71
14
72
2
73
1
0
VERTEX
8
OBJECT__27
10
0
20
0
30
0
70
128
71
11
72
66
73
3
0
VERTEX
8
OBJECT__27
10
0
20
0
30
0
70
128
71
6
72
116
73
9
0
VERTEX
8
OBJECT__27
10
0
20
0
30
0
70
128
71
3
72
52
73
1
0
SEQEND
8
OBJECT__27
0
POLYLINE
8
OBJECT__28
66
1
70
64
71
88
72
103
62
253
0
VERTEX
8
OBJECT__28
10
73.018997
20
17.155001
30
-67.713997
70
192
0
VERTEX
8
OBJECT__28
10
72.341003
20
17.730000
30
-67.825996
70
192
0
VERTEX
8
OBJECT__28
10
69.769997
20
18.514000
30
-53.144001
70
192
0
VERTEX
8
OBJECT__28
10
71.478996
20
17.825001
30
-67.984001
70
192
0
VERTEX
8
OBJECT__28
10
70.925003
20
17.176001
30
-68.172997
70
192
0
VERTEX
8
OBJECT__28
10
69.514000
20
17.667000
30
-59.646000
70
192
0
VERTEX
8
OBJECT__28
10
68.990997
20
18.625999
30
-53.425999
70
192
0
VERTEX
8
OBJECT__28
10
68.721001
20
17.943001
30
-54.855000
70
192
0
VERTEX
8
OBJECT__28
10
41.296001
20
26.809000
30
-13.928000
70
192
0
VERTEX
8
OBJECT__28
10
40.101002
20
26.926001
30
-13.044000
70
192
0
VERTEX
8
OBJECT__28
10
40.153999
20
26.920000
30
-13.052000
70
192
0
VERTEX
8
OBJECT__28
10
34.000000
20
27.608999
30
-12.731000
70
192
0
VERTEX
8
OBJECT__28
10
34.000000
20
27.608999
30
-12.484000
70
192
0
VERTEX
8
OBJECT__28
10
34.000000
20
27.591999
30
-12.217000
70
192
0
VERTEX
8
OBJECT__28
10
39.654999
20
26.945999
30
-14.069000
70
192
0
VERTEX
8
OBJECT__28
10
41.192001
20
26.736000
30
-14.582000
70
192
0
VERTEX
8
OBJECT__28
10
70.427002
20
18.025000
30
-52.910000
70
192
0
VERTEX
8
OBJECT__28
10
71.257004
20
17.202000
30
-54.453999
70
192
0
VERTEX
8
OBJECT__28
10
72.948997
20
16.608000
30
-64.732002
70
192
0
VERTEX
8
OBJECT__28
10
70.869003
20
17.356001
30
-52.772999
70
192
0
VERTEX
8
OBJECT__28
10
75.388000
20
16.518999
30
-82.392998
70
192
0
VERTEX
8
OBJECT__28
10
74.695999
20
17.139999
30
-82.470001
70
192
0
VERTEX
8
OBJECT__28
10
73.431000
20
16.438999
30
-67.661003
70
192
0
VERTEX
8
OBJECT__28
10
74.648003
20
16.011999
30
-75.055000
70
192
0
VERTEX
8
OBJECT__28
10
75.521004
20
15.787000
30
-80.568001
70
192
0
VERTEX
8
OBJECT__28
10
73.795998
20
17.152000
30
-82.639000
70
192
0
VERTEX
8
OBJECT__28
10
73.175003
20
16.569000
30
-82.789001
70
192
0
VERTEX
8
OBJECT__28
10
71.705002
20
16.965000
30
-73.242996
70
192
0
VERTEX
8
OBJECT__28
10
59.144001
20
22.850000
30
-25.978001
70
192
0
VERTEX
8
OBJECT__28
10
62.897999
20
21.242001
30
-32.147999
70
192
0
VERTEX
8
OBJECT__28
10
60.639000
20
21.524000
30
-30.469000
70
192
0
VERTEX
8
OBJECT__28
10
61.945000
20
20.871000
30
-33.243000
70
192
0
VERTEX
8
OBJECT__28
10
61.130001
20
21.278999
30
-31.511999
70
192
0
VERTEX
8
OBJECT__28
10
48.123001
20
25.813000
30
-16.695999
70
192
0
VERTEX
8
OBJECT__28
10
54.207001
20
24.455000
30
-20.715000
70
192
0
VERTEX
8
OBJECT__28
10
50.659000
20
25.044001
30
-19.275000
70
192
0
VERTEX
8
OBJECT__28
10
53.719002
20
24.253000
30
-21.577000
70
192
0
VERTEX
8
OBJECT__28
10
49.224998
20
25.415001
30
-18.195999
70
192
0
VERTEX
8
OBJECT__28
10
53.771999
20
24.235001
30
-21.634001
70
192
0
VERTEX
8
OBJECT__28
10
44.630001
20
26.268999
30
-15.730000
70
192
0
VERTEX
8
OBJECT__28
10
42.786999
20
26.518999
30
-15.114000
70
192
0
VERTEX
8
OBJECT__28
10
47.875999
20
25.665001
30
-17.472000
70
192
0
VERTEX
8
OBJECT__28
10
56.735001
20
23.207001
30
-24.794001
70
192
0
VERTEX
8
OBJECT__28
10
57.504002
20
22.940001
30
-25.614000
70
192
0
VERTEX
8
OBJECT__28
10
58.417000
20
22.528000
30
-27.028000
70
192
0
VERTEX
8
OBJECT__28
10
65.269997
20
19.879999
30
-39.410000
70
192
0
VERTEX
8
OBJECT__28
10
66.638000
20
18.694000
30
-46.174999
70
192
0
VERTEX
8
OBJECT__28
10
68.246002
20
18.114000
30
-52.873001
70
192
0
VERTEX
8
OBJECT__28
10
68.429001
20
18.048000
30
-53.638000
70
192
0
VERTEX
8
OBJECT__28
10
66.155998
20
18.868000
30
-44.164001
70
192
0
VERTEX
8
OBJECT__28
10
65.823997
20
19.927999
30
-38.835999
70
192
0
VERTEX
8
OBJECT__28
10
63.659000
20
20.014000
30
-36.886002
70
192
0
VERTEX
8
OBJECT__28
10
64.367996
20
19.688999
30
-38.953999
70
192
0
VERTEX
8
OBJECT__28
10
64.696999
20
19.538000
30
-39.910999
70
192
0
VERTEX
8
OBJECT__28
10
68.065002
20
19.065001
30
-45.888000
70
192
0
VERTEX
8
OBJECT__28
10
62.087002
20
21.426001
30
-28.608999
70
192
0
VERTEX
8
OBJECT__28
10
63.324001
20
20.860001
30
-30.495001
70
192
0
VERTEX
8
OBJECT__28
10
59.638000
20
22.548000
30
-24.871000
70
192
0
VERTEX
8
OBJECT__28
10
48.283001
20
25.695999
30
-16.070000
70
192
0
VERTEX
8
OBJECT__28
10
51.590000
20
25.056000
30
-17.733000
70
192
0
VERTEX
8
OBJECT__28
10
52.450001
20
24.823999
30
-18.355000
70
192
0
VERTEX
8
OBJECT__28
10
41.344002
20
26.757999
30
-13.440000
70
192
0
VERTEX
8
OBJECT__28
10
46.209999
20
26.098000
30
-15.027000
70
192
0
VERTEX
8
OBJECT__28
10
46.530998
20
26.035000
30
-15.189000
70
192
0
VERTEX
8
OBJECT__28
10
55.844002
20
23.909000
30
-20.813000
70
192
0
VERTEX
8
OBJECT__28
10
57.840000
20
23.193001
30
-22.948000
70
192
0
VERTEX
8
OBJECT__28
10
54.573002
20
24.252001
30
-19.893000
70
192
0
VERTEX
8
OBJECT__28
10
68.003998
20
18.556000
30
-41.631001
70
192
0
VERTEX
8
OBJECT__28
10
68.883003
20
18.141001
30
-44.185001
70
192
0
VERTEX
8
OBJECT__28
10
66.740997
20
19.150999
30
-37.966000
70
192
0
VERTEX
8
OBJECT__28
10
65.439003
20
19.792999
30
-34.895000
70
192
0
VERTEX
8
OBJECT__28
10
66.297997
20
19.360001
30
-36.680000
70
192
0
VERTEX
8
OBJECT__28
10
63.681000
20
20.679001
30
-31.239000
70
192
0
VERTEX
8
OBJECT__28
10
70.046997
20
17.681000
30
-49.217999
70
192
0
VERTEX
8
OBJECT__28
10
69.125000
20
18.045000
30
-45.229000
70
192
0
VERTEX
8
OBJECT__28
10
75.810997
20
15.712000
30
-82.397003
70
192
0
VERTEX
8
OBJECT__28
10
80.484001
20
14.507000
30
-111.891998
70
192
0
VERTEX
8
OBJECT__28
10
79.950996
20
15.478000
30
-111.526001
70
192
0
VERTEX
8
OBJECT__28
10
79.182999
20
16.157000
30
-111.292000
70
192
0
VERTEX
8
OBJECT__28
10
79.148003
20
16.173000
30
-111.288002
70
192
0
VERTEX
8
OBJECT__28
10
79.710999
20
15.915000
30
-111.361000
70
192
0
VERTEX
8
OBJECT__28
10
78.678001
20
16.389000
30
-111.226997
70
192
0
VERTEX
8
OBJECT__28
10
78.152000
20
16.181000
30
-111.363998
70
192
0
VERTEX
8
OBJECT__28
10
77.918999
20
16.089001
30
-111.425003
70
192
0
VERTEX
8
OBJECT__28
10
75.759003
20
15.872000
30
-99.581001
70
192
0
VERTEX
8
OBJECT__28
10
73.731003
20
16.419001
30
-86.404999
70
192
0
VERTEX
8
OBJECT__28
10
77.635002
20
15.367000
30
-111.764999
70
192
0
VERTEX
8
OBJECT__28
10
34.000000
20
27.587000
30
-13.246000
70
192
0
VERTEX
8
OBJECT__28
10
0
20
0
30
0
70
128
71
1
72
2
73
3
0
VERTEX
8
OBJECT__28
10
0
20
0
30
0
70
128
71
4
72
5
73
6
0
VERTEX
8
OBJECT__28
10
0
20
0
30
0
70
128
71
6
72
7
73
4
0
VERTEX
8
OBJECT__28
10
0
20
0
30
0
70
128
71
6
72
8
73
7
0
VERTEX
8
OBJECT__28
10
0
20
0
30
0
70
128
71
9
72
10
73
11
0
VERTEX
8
OBJECT__28
10
0
20
0
30
0
70
128
71
12
72
13
73
10
0
VERTEX
8
OBJECT__28
10
0
20
0
30
0
70
128
71
10
72
9
73
12
0
VERTEX
8
OBJECT__28
10
0
20
0
30
0
70
128
71
13
72
14
73
10
0
VERTEX
8
OBJECT__28
10
0
20
0
30
0
70
128
71
12
72
9
73
15
0
VERTEX
8
OBJECT__28
10
0
20
0
30
0
70
128
71
9
72
16
73
15
0
VERTEX
8
OBJECT__28
10
0
20
0
30
0
70
128
71
17
72
18
73
19
0
VERTEX
8
OBJECT__28
10
0
20
0
30
0
70
128
71
17
72
20
73
18
0
VERTEX
8
OBJECT__28
10
0
20
0
30
0
70
128
71
19
72
1
73
17
0
VERTEX
8
OBJECT__28
10
0
20
0
30
0
70
128
71
1
72
21
73
22
0
VERTEX
8
OBJECT__28
10
0
20
0
30
0
70
128
71
1
72
23
73
24
0
VERTEX
8
OBJECT__28
10
0
20
0
30
0
70
128
71
24
72
21
73
1
0
VERTEX
8
OBJECT__28
10
0
20
0
30
0
70
128
71
24
72
25
73
21
0
VERTEX
8
OBJECT__28
10
0
20
0
30
0
70
128
71
2
72
4
73
7
0
VERTEX
8
OBJECT__28
10
0
20
0
30
0
70
128
71
26
72
27
73
28
0
VERTEX
8
OBJECT__28
10
0
20
0
30
0
70
128
71
28
72
4
73
26
0
VERTEX
8
OBJECT__28
10
0
20
0
30
0
70
128
71
4
72
2
73
22
0
VERTEX
8
OBJECT__28
10
0
20
0
30
0
70
128
71
29
72
30
73
31
0
VERTEX
8
OBJECT__28
10
0
20
0
30
0
70
128
71
30
72
32
73
33
0
VERTEX
8
OBJECT__28
10
0
20
0
30
0
70
128
71
33
72
31
73
30
0
VERTEX
8
OBJECT__28
10
0
20
0
30
0
70
128
71
34
72
35
73
36
0
VERTEX
8
OBJECT__28
10
0
20
0
30
0
70
128
71
35
72
37
73
36
0
VERTEX
8
OBJECT__28
10
0
20
0
30
0
70
128
71
36
72
38
73
34
0
VERTEX
8
OBJECT__28
10
0
20
0
30
0
70
128
71
35
72
39
73
37
0
VERTEX
8
OBJECT__28
10
0
20
0
30
0
70
128
71
9
72
34
73
40
0
VERTEX
8
OBJECT__28
10
0
20
0
30
0
70
128
71
40
72
41
73
9
0
VERTEX
8
OBJECT__28
10
0
20
0
30
0
70
128
71
34
72
42
73
40
0
VERTEX
8
OBJECT__28
10
0
20
0
30
0
70
128
71
35
72
29
73
43
0
VERTEX
8
OBJECT__28
10
0
20
0
30
0
70
128
71
29
72
44
73
43
0
VERTEX
8
OBJECT__28
10
0
20
0
30
0
70
128
71
29
72
45
73
44
0
VERTEX
8
OBJECT__28
10
0
20
0
30
0
70
128
71
46
72
7
73
47
0
VERTEX
8
OBJECT__28
10
0
20
0
30
0
70
128
71
7
72
48
73
47
0
VERTEX
8
OBJECT__28
10
0
20
0
30
0
70
128
71
7
72
49
73
48
0
VERTEX
8
OBJECT__28
10
0
20
0
30
0
70
128
71
47
72
50
73
46
0
VERTEX
8
OBJECT__28
10
0
20
0
30
0
70
128
71
30
72
51
73
52
0
VERTEX
8
OBJECT__28
10
0
20
0
30
0
70
128
71
53
72
51
73
46
0
VERTEX
8
OBJECT__28
10
0
20
0
30
0
70
128
71
46
72
54
73
53
0
VERTEX
8
OBJECT__28
10
0
20
0
30
0
70
128
71
53
72
52
73
51
0
VERTEX
8
OBJECT__28
10
0
20
0
30
0
70
128
71
46
72
51
73
55
0
VERTEX
8
OBJECT__28
10
0
20
0
30
0
70
128
71
55
72
7
73
46
0
VERTEX
8
OBJECT__28
10
0
20
0
30
0
70
128
71
30
72
56
73
57
0
VERTEX
8
OBJECT__28
10
0
20
0
30
0
70
128
71
29
72
58
73
56
0
VERTEX
8
OBJECT__28
10
0
20
0
30
0
70
128
71
56
72
30
73
29
0
VERTEX
8
OBJECT__28
10
0
20
0
30
0
70
128
71
34
72
59
73
60
0
VERTEX
8
OBJECT__28
10
0
20
0
30
0
70
128
71
60
72
35
73
34
0
VERTEX
8
OBJECT__28
10
0
20
0
30
0
70
128
71
60
72
61
73
35
0
VERTEX
8
OBJECT__28
10
0
20
0
30
0
70
128
71
9
72
62
73
63
0
VERTEX
8
OBJECT__28
10
0
20
0
30
0
70
128
71
63
72
34
73
9
0
VERTEX
8
OBJECT__28
10
0
20
0
30
0
70
128
71
63
72
64
73
34
0
VERTEX
8
OBJECT__28
10
0
20
0
30
0
70
128
71
35
72
65
73
66
0
VERTEX
8
OBJECT__28
10
0
20
0
30
0
70
128
71
35
72
67
73
65
0
VERTEX
8
OBJECT__28
10
0
20
0
30
0
70
128
71
66
72
29
73
35
0
VERTEX
8
OBJECT__28
10
0
20
0
30
0
70
128
71
55
72
68
73
69
0
VERTEX
8
OBJECT__28
10
0
20
0
30
0
70
128
71
51
72
70
73
68
0
VERTEX
8
OBJECT__28
10
0
20
0
30
0
70
128
71
68
72
55
73
51
0
VERTEX
8
OBJECT__28
10
0
20
0
30
0
70
128
71
51
72
71
73
72
0
VERTEX
8
OBJECT__28
10
0
20
0
30
0
70
128
71
30
72
73
73
71
0
VERTEX
8
OBJECT__28
10
0
20
0
30
0
70
128
71
71
72
51
73
30
0
VERTEX
8
OBJECT__28
10
0
20
0
30
0
70
128
71
17
72
55
73
74
0
VERTEX
8
OBJECT__28
10
0
20
0
30
0
70
128
71
55
72
75
73
74
0
VERTEX
8
OBJECT__28
10
0
20
0
30
0
70
128
71
74
72
20
73
17
0
VERTEX
8
OBJECT__28
10
0
20
0
30
0
70
128
71
76
72
77
73
78
0
VERTEX
8
OBJECT__28
10
0
20
0
30
0
70
128
71
21
72
79
73
80
0
VERTEX
8
OBJECT__28
10
0
20
0
30
0
70
128
71
21
72
81
73
79
0
VERTEX
8
OBJECT__28
10
0
20
0
30
0
70
128
71
21
72
78
73
81
0
VERTEX
8
OBJECT__28
10
0
20
0
30
0
70
128
71
26
72
22
73
82
0
VERTEX
8
OBJECT__28
10
0
20
0
30
0
70
128
71
22
72
80
73
82
0
VERTEX
8
OBJECT__28
10
0
20
0
30
0
70
128
71
83
72
84
73
85
0
VERTEX
8
OBJECT__28
10
0
20
0
30
0
70
128
71
85
72
26
73
83
0
VERTEX
8
OBJECT__28
10
0
20
0
30
0
70
128
71
85
72
86
73
26
0
VERTEX
8
OBJECT__28
10
0
20
0
30
0
70
128
71
86
72
27
73
26
0
VERTEX
8
OBJECT__28
10
0
20
0
30
0
70
128
71
84
72
87
73
85
0
VERTEX
8
OBJECT__28
10
0
20
0
30
0
70
128
71
82
72
83
73
26
0
VERTEX
8
OBJECT__28
10
0
20
0
30
0
70
128
71
80
72
22
73
21
0
VERTEX
8
OBJECT__28
10
0
20
0
30
0
70
128
71
78
72
21
73
76
0
VERTEX
8
OBJECT__28
10
0
20
0
30
0
70
128
71
17
72
3
73
55
0
VERTEX
8
OBJECT__28
10
0
20
0
30
0
70
128
71
72
72
70
73
51
0
VERTEX
8
OBJECT__28
10
0
20
0
30
0
70
128
71
69
72
75
73
55
0
VERTEX
8
OBJECT__28
10
0
20
0
30
0
70
128
71
66
72
58
73
29
0
VERTEX
8
OBJECT__28
10
0
20
0
30
0
70
128
71
64
72
59
73
34
0
VERTEX
8
OBJECT__28
10
0
20
0
30
0
70
128
71
61
72
67
73
35
0
VERTEX
8
OBJECT__28
10
0
20
0
30
0
70
128
71
57
72
73
73
30
0
VERTEX
8
OBJECT__28
10
0
20
0
30
0
70
128
71
55
72
3
73
7
0
VERTEX
8
OBJECT__28
10
0
20
0
30
0
70
128
71
52
72
32
73
30
0
VERTEX
8
OBJECT__28
10
0
20
0
30
0
70
128
71
50
72
54
73
46
0
VERTEX
8
OBJECT__28
10
0
20
0
30
0
70
128
71
43
72
39
73
35
0
VERTEX
8
OBJECT__28
10
0
20
0
30
0
70
128
71
41
72
16
73
9
0
VERTEX
8
OBJECT__28
10
0
20
0
30
0
70
128
71
38
72
42
73
34
0
VERTEX
8
OBJECT__28
10
0
20
0
30
0
70
128
71
31
72
45
73
29
0
VERTEX
8
OBJECT__28
10
0
20
0
30
0
70
128
71
22
72
26
73
4
0
VERTEX
8
OBJECT__28
10
0
20
0
30
0
70
128
71
28
72
5
73
4
0
VERTEX
8
OBJECT__28
10
0
20
0
30
0
70
128
71
7
72
3
73
2
0
VERTEX
8
OBJECT__28
10
0
20
0
30
0
70
128
71
25
72
76
73
21
0
VERTEX
8
OBJECT__28
10
0
20
0
30
0
70
128
71
22
72
2
73
1
0
VERTEX
8
OBJECT__28
10
0
20
0
30
0
70
128
71
19
72
23
73
1
0
VERTEX
8
OBJECT__28
10
0
20
0
30
0
70
128
71
15
72
88
73
12
0
VERTEX
8
OBJECT__28
10
0
20
0
30
0
70
128
71
11
72
62
73
9
0
VERTEX
8
OBJECT__28
10
0
20
0
30
0
70
128
71
8
72
49
73
7
0
VERTEX
8
OBJECT__28
10
0
20
0
30
0
70
128
71
3
72
17
73
1
0
SEQEND
8
OBJECT__28
0
POLYLINE
8
OBJECT__29
66
1
70
64
71
167
72
242
62
253
0
VERTEX
8
OBJECT__29
10
74.984001
20
0.004000
30
-65.695999
70
192
0
VERTEX
8
OBJECT__29
10
73.529999
20
0.004000
30
-58.936001
70
192
0
VERTEX
8
OBJECT__29
10
73.080002
20
4.389000
30
-59.141998
70
192
0
VERTEX
8
OBJECT__29
10
44.058998
20
0.004000
30
-41.134998
70
192
0
VERTEX
8
OBJECT__29
10
34.000000
20
2.466000
30
-40.605000
70
192
0
VERTEX
8
OBJECT__29
10
39.387001
20
9.734000
30
-38.713001
70
192
0
VERTEX
8
OBJECT__29
10
34.000000
20
10.437000
30
-38.438000
70
192
0
VERTEX
8
OBJECT__29
10
34.000000
20
0.029000
30
-40.408001
70
192
0
VERTEX
8
OBJECT__29
10
77.260002
20
0.004000
30
-86.842003
70
192
0
VERTEX
8
OBJECT__29
10
76.884003
20
4.405000
30
-86.782997
70
192
0
VERTEX
8
OBJECT__29
10
78.038002
20
4.164000
30
-101.007004
70
192
0
VERTEX
8
OBJECT__29
10
71.489998
20
12.509000
30
-73.269997
70
192
0
VERTEX
8
OBJECT__29
10
73.763000
20
8.670000
30
-72.901001
70
192
0
VERTEX
8
OBJECT__29
10
72.933998
20
8.712000
30
-66.226997
70
192
0
VERTEX
8
OBJECT__29
10
69.697998
20
13.166000
30
-60.140999
70
192
0
VERTEX
8
OBJECT__29
10
75.779999
20
0.004000
30
-72.585999
70
192
0
VERTEX
8
OBJECT__29
10
75.334999
20
4.483000
30
-72.653000
70
192
0
VERTEX
8
OBJECT__29
10
74.512001
20
4.432000
30
-65.835999
70
192
0
VERTEX
8
OBJECT__29
10
71.662003
20
8.785000
30
-59.647999
70
192
0
VERTEX
8
OBJECT__29
10
75.481003
20
8.437000
30
-86.705002
70
192
0
VERTEX
8
OBJECT__29
10
73.417999
20
12.037000
30
-86.655998
70
192
0
VERTEX
8
OBJECT__29
10
75.670998
20
11.707000
30
-100.273003
70
192
0
VERTEX
8
OBJECT__29
10
78.542999
20
0.004000
30
-108.279999
70
192
0
VERTEX
8
OBJECT__29
10
78.296997
20
0.004000
30
-101.125000
70
192
0
VERTEX
8
OBJECT__29
10
77.765999
20
7.913000
30
-107.741997
70
192
0
VERTEX
8
OBJECT__29
10
77.084000
20
8.082000
30
-100.710999
70
192
0
VERTEX
8
OBJECT__29
10
72.933998
20
-8.702000
30
-66.226997
70
192
0
VERTEX
8
OBJECT__29
10
71.662003
20
-8.775000
30
-59.647999
70
192
0
VERTEX
8
OBJECT__29
10
71.494003
20
-12.503000
30
-73.269997
70
192
0
VERTEX
8
OBJECT__29
10
69.699997
20
-13.159000
30
-60.139999
70
192
0
VERTEX
8
OBJECT__29
10
73.764000
20
-8.662000
30
-72.901001
70
192
0
VERTEX
8
OBJECT__29
10
75.481003
20
-8.428000
30
-86.705002
70
192
0
VERTEX
8
OBJECT__29
10
73.421997
20
-12.031000
30
-86.655998
70
192
0
VERTEX
8
OBJECT__29
10
77.084000
20
-8.073000
30
-100.711998
70
192
0
VERTEX
8
OBJECT__29
10
75.674004
20
-11.701000
30
-100.273003
70
192
0
VERTEX
8
OBJECT__29
10
77.766998
20
-7.904000
30
-107.742996
70
192
0
VERTEX
8
OBJECT__29
10
39.386002
20
-9.722000
30
-38.715000
70
192
0
VERTEX
8
OBJECT__29
10
40.294998
20
-17.889999
30
-32.945000
70
192
0
VERTEX
8
OBJECT__29
10
34.000000
20
-15.194000
30
-35.995998
70
192
0
VERTEX
8
OBJECT__29
10
34.000000
20
-19.191999
30
-32.452000
70
192
0
VERTEX
8
OBJECT__29
10
41.516998
20
-23.590000
30
-24.650000
70
192
0
VERTEX
8
OBJECT__29
10
34.000000
20
-25.129000
30
-23.618999
70
192
0
VERTEX
8
OBJECT__29
10
34.000000
20
-20.520000
30
-31.275000
70
192
0
VERTEX
8
OBJECT__29
10
46.175999
20
-16.237000
30
-34.261002
70
192
0
VERTEX
8
OBJECT__29
10
48.293999
20
-21.683001
30
-27.291000
70
192
0
VERTEX
8
OBJECT__29
10
51.735001
20
-14.293000
30
-36.479000
70
192
0
VERTEX
8
OBJECT__29
10
53.998001
20
-19.527000
30
-31.174000
70
192
0
VERTEX
8
OBJECT__29
10
56.738998
20
-12.285000
30
-39.580002
70
192
0
VERTEX
8
OBJECT__29
10
58.563999
20
-17.354000
30
-36.171001
70
192
0
VERTEX
8
OBJECT__29
10
44.646999
20
-8.807000
30
-39.237000
70
192
0
VERTEX
8
OBJECT__29
10
50.154999
20
-7.660000
30
-40.272999
70
192
0
VERTEX
8
OBJECT__29
10
34.000000
20
-6.670000
30
-39.866001
70
192
0
VERTEX
8
OBJECT__29
10
34.000000
20
-10.298000
30
-38.219002
70
192
0
VERTEX
8
OBJECT__29
10
55.108002
20
0.004000
30
-42.834000
70
192
0
VERTEX
8
OBJECT__29
10
55.543999
20
-6.432000
30
-41.933998
70
192
0
VERTEX
8
OBJECT__29
10
60.672001
20
-5.380000
30
-44.277000
70
192
0
VERTEX
8
OBJECT__29
10
61.254002
20
-10.593000
30
-43.358002
70
192
0
VERTEX
8
OBJECT__29
10
62.304001
20
-15.541000
30
-41.827999
70
192
0
VERTEX
8
OBJECT__29
10
65.591003
20
-9.529000
30
-47.846001
70
192
0
VERTEX
8
OBJECT__29
10
65.503998
20
-14.367000
30
-47.674000
70
192
0
VERTEX
8
OBJECT__29
10
69.306000
20
-9.004000
30
-53.369999
70
192
0
VERTEX
8
OBJECT__29
10
68.053001
20
-13.656000
30
-53.730000
70
192
0
VERTEX
8
OBJECT__29
10
70.611000
20
0.004000
30
-52.693001
70
192
0
VERTEX
8
OBJECT__29
10
65.807999
20
-4.727000
30
-47.750000
70
192
0
VERTEX
8
OBJECT__29
10
60.476002
20
0.004000
30
-44.610001
70
192
0
VERTEX
8
OBJECT__29
10
65.892998
20
0.004000
30
-47.686001
70
192
0
VERTEX
8
OBJECT__29
10
41.518002
20
23.598000
30
-24.649000
70
192
0
VERTEX
8
OBJECT__29
10
40.294998
20
17.900000
30
-32.943001
70
192
0
VERTEX
8
OBJECT__29
10
34.000000
20
20.476999
30
-31.332001
70
192
0
VERTEX
8
OBJECT__29
10
34.000000
20
19.305000
30
-32.566002
70
192
0
VERTEX
8
OBJECT__29
10
55.543999
20
6.441000
30
-41.932999
70
192
0
VERTEX
8
OBJECT__29
10
60.672001
20
5.389000
30
-44.277000
70
192
0
VERTEX
8
OBJECT__29
10
34.000000
20
11.321000
30
-38.198002
70
192
0
VERTEX
8
OBJECT__29
10
34.000000
20
18.914000
30
-32.977001
70
192
0
VERTEX
8
OBJECT__29
10
50.154999
20
7.671000
30
-40.271999
70
192
0
VERTEX
8
OBJECT__29
10
44.647999
20
8.818000
30
-39.235001
70
192
0
VERTEX
8
OBJECT__29
10
46.175999
20
16.245001
30
-34.261002
70
192
0
VERTEX
8
OBJECT__29
10
51.735001
20
14.301000
30
-36.480000
70
192
0
VERTEX
8
OBJECT__29
10
56.738998
20
12.294000
30
-39.580002
70
192
0
VERTEX
8
OBJECT__29
10
61.254002
20
10.603000
30
-43.358002
70
192
0
VERTEX
8
OBJECT__29
10
65.807999
20
4.735000
30
-47.750999
70
192
0
VERTEX
8
OBJECT__29
10
70.281998
20
4.454000
30
-52.898998
70
192
0
VERTEX
8
OBJECT__29
10
65.591003
20
9.540000
30
-47.846001
70
192
0
VERTEX
8
OBJECT__29
10
69.306000
20
9.015000
30
-53.369999
70
192
0
VERTEX
8
OBJECT__29
10
58.564999
20
17.363001
30
-36.168999
70
192
0
VERTEX
8
OBJECT__29
10
62.305000
20
15.550000
30
-41.827000
70
192
0
VERTEX
8
OBJECT__29
10
34.000000
20
25.202999
30
-23.659000
70
192
0
VERTEX
8
OBJECT__29
10
41.192001
20
26.736000
30
-14.582000
70
192
0
VERTEX
8
OBJECT__29
10
34.000000
20
25.384001
30
-23.365000
70
192
0
VERTEX
8
OBJECT__29
10
34.000000
20
27.517000
30
-14.347000
70
192
0
VERTEX
8
OBJECT__29
10
39.654999
20
26.945999
30
-14.069000
70
192
0
VERTEX
8
OBJECT__29
10
34.000000
20
27.587000
30
-13.246000
70
192
0
VERTEX
8
OBJECT__29
10
48.294998
20
21.691000
30
-27.289000
70
192
0
VERTEX
8
OBJECT__29
10
53.999001
20
19.535999
30
-31.172001
70
192
0
VERTEX
8
OBJECT__29
10
53.771999
20
24.235001
30
-21.634001
70
192
0
VERTEX
8
OBJECT__29
10
56.735001
20
23.207001
30
-24.794001
70
192
0
VERTEX
8
OBJECT__29
10
50.659000
20
25.044001
30
-19.275000
70
192
0
VERTEX
8
OBJECT__29
10
53.719002
20
24.253000
30
-21.577000
70
192
0
VERTEX
8
OBJECT__29
10
49.224998
20
25.415001
30
-18.195999
70
192
0
VERTEX
8
OBJECT__29
10
47.875999
20
25.665001
30
-17.472000
70
192
0
VERTEX
8
OBJECT__29
10
42.786999
20
26.518999
30
-15.114000
70
192
0
VERTEX
8
OBJECT__29
10
44.630001
20
26.268999
30
-15.730000
70
192
0
VERTEX
8
OBJECT__29
10
60.639000
20
21.524000
30
-30.469000
70
192
0
VERTEX
8
OBJECT__29
10
61.130001
20
21.278999
30
-31.511999
70
192
0
VERTEX
8
OBJECT__29
10
58.417000
20
22.528000
30
-27.028000
70
192
0
VERTEX
8
OBJECT__29
10
57.504002
20
22.940001
30
-25.614000
70
192
0
VERTEX
8
OBJECT__29
10
65.503998
20
14.375000
30
-47.674000
70
192
0
VERTEX
8
OBJECT__29
10
68.052002
20
13.663000
30
-53.730000
70
192
0
VERTEX
8
OBJECT__29
10
68.246002
20
18.114000
30
-52.873001
70
192
0
VERTEX
8
OBJECT__29
10
66.155998
20
18.868000
30
-44.164001
70
192
0
VERTEX
8
OBJECT__29
10
64.367996
20
19.688999
30
-38.953999
70
192
0
VERTEX
8
OBJECT__29
10
64.696999
20
19.538000
30
-39.910999
70
192
0
VERTEX
8
OBJECT__29
10
68.721001
20
17.943001
30
-54.855000
70
192
0
VERTEX
8
OBJECT__29
10
68.429001
20
18.048000
30
-53.638000
70
192
0
VERTEX
8
OBJECT__29
10
75.759003
20
-15.858000
30
-99.580002
70
192
0
VERTEX
8
OBJECT__29
10
70.891998
20
-17.188000
30
-68.059998
70
192
0
VERTEX
8
OBJECT__29
10
71.343002
20
-17.033001
30
-70.892998
70
192
0
VERTEX
8
OBJECT__29
10
73.168999
20
-16.547001
30
-82.750999
70
192
0
VERTEX
8
OBJECT__29
10
73.731003
20
-16.398001
30
-86.404999
70
192
0
VERTEX
8
OBJECT__29
10
69.167000
20
-17.778999
30
-57.230999
70
192
0
VERTEX
8
OBJECT__29
10
68.375999
20
-18.059000
30
-53.625000
70
192
0
VERTEX
8
OBJECT__29
10
69.551003
20
-17.648001
30
-59.639000
70
192
0
VERTEX
8
OBJECT__29
10
68.211998
20
-18.117001
30
-52.879002
70
192
0
VERTEX
8
OBJECT__29
10
66.808998
20
-18.612000
30
-46.483002
70
192
0
VERTEX
8
OBJECT__29
10
66.707001
20
-18.655001
30
-46.158001
70
192
0
VERTEX
8
OBJECT__29
10
64.740997
20
-19.486000
30
-39.868000
70
192
0
VERTEX
8
OBJECT__29
10
61.992001
20
-20.843000
30
-33.195999
70
192
0
VERTEX
8
OBJECT__29
10
61.686001
20
-20.995001
30
-32.474998
70
192
0
VERTEX
8
OBJECT__29
10
64.519997
20
-19.580000
30
-39.161999
70
192
0
VERTEX
8
OBJECT__29
10
58.450001
20
-22.524000
30
-26.990000
70
192
0
VERTEX
8
OBJECT__29
10
58.153000
20
-22.664000
30
-26.487000
70
192
0
VERTEX
8
OBJECT__29
10
61.123001
20
-21.261000
30
-31.520000
70
192
0
VERTEX
8
OBJECT__29
10
56.708000
20
-23.198999
30
-24.812000
70
192
0
VERTEX
8
OBJECT__29
10
54.695000
20
-23.943001
30
-22.478001
70
192
0
VERTEX
8
OBJECT__29
10
53.720001
20
-24.216000
30
-21.679001
70
192
0
VERTEX
8
OBJECT__29
10
47.852001
20
-25.650000
30
-17.490999
70
192
0
VERTEX
8
OBJECT__29
10
45.722000
20
-26.083000
30
-16.233999
70
192
0
VERTEX
8
OBJECT__29
10
50.576000
20
-25.094999
30
-19.100000
70
192
0
VERTEX
8
OBJECT__29
10
34.000000
20
-25.563000
30
-22.898001
70
192
0
VERTEX
8
OBJECT__29
10
41.209999
20
-26.738001
30
-14.516000
70
192
0
VERTEX
8
OBJECT__29
10
40.820000
20
-26.794001
30
-14.367000
70
192
0
VERTEX
8
OBJECT__29
10
35.558998
20
-27.408001
30
-13.367000
70
192
0
VERTEX
8
OBJECT__29
10
34.000000
20
-27.579000
30
-13.246000
70
192
0
VERTEX
8
OBJECT__29
10
42.780998
20
-26.510000
30
-15.114000
70
192
0
VERTEX
8
OBJECT__29
10
63.659000
20
20.014000
30
-36.886002
70
192
0
VERTEX
8
OBJECT__29
10
61.945000
20
20.871000
30
-33.243000
70
192
0
VERTEX
8
OBJECT__29
10
69.514000
20
17.667000
30
-59.646000
70
192
0
VERTEX
8
OBJECT__29
10
70.925003
20
17.176001
30
-68.172997
70
192
0
VERTEX
8
OBJECT__29
10
71.705002
20
16.965000
30
-73.242996
70
192
0
VERTEX
8
OBJECT__29
10
73.175003
20
16.569000
30
-82.789001
70
192
0
VERTEX
8
OBJECT__29
10
73.731003
20
16.419001
30
-86.404999
70
192
0
VERTEX
8
OBJECT__29
10
75.759003
20
15.872000
30
-99.581001
70
192
0
VERTEX
8
OBJECT__29
10
77.635002
20
15.367000
30
-111.764999
70
192
0
VERTEX
8
OBJECT__29
10
77.862000
20
11.568000
30
-113.024002
70
192
0
VERTEX
8
OBJECT__29
10
77.960999
20
9.914000
30
-113.571999
70
192
0
VERTEX
8
OBJECT__29
10
78.073997
20
7.820000
30
-113.924004
70
192
0
VERTEX
8
OBJECT__29
10
78.075996
20
7.780000
30
-113.930000
70
192
0
VERTEX
8
OBJECT__29
10
78.285004
20
3.939000
30
-114.575996
70
192
0
VERTEX
8
OBJECT__29
10
78.306999
20
-0.003000
30
-114.646004
70
192
0
VERTEX
8
OBJECT__29
10
78.320000
20
-2.283000
30
-114.685997
70
192
0
VERTEX
8
OBJECT__29
10
78.306999
20
0.002000
30
-114.646004
70
192
0
VERTEX
8
OBJECT__29
10
78.112999
20
-7.788000
30
-114.000000
70
192
0
VERTEX
8
OBJECT__29
10
78.111000
20
-7.838000
30
-113.994003
70
192
0
VERTEX
8
OBJECT__29
10
77.845001
20
-11.560000
30
-112.971001
70
192
0
VERTEX
8
OBJECT__29
10
77.700996
20
-13.565000
30
-112.420998
70
192
0
VERTEX
8
OBJECT__29
10
77.626999
20
-15.361000
30
-111.712997
70
192
0
VERTEX
8
OBJECT__29
10
66.638000
20
18.694000
30
-46.174999
70
192
0
VERTEX
8
OBJECT__29
10
0
20
0
30
0
70
128
71
1
72
2
73
3
0
VERTEX
8
OBJECT__29
10
0
20
0
30
0
70
128
71
4
72
5
73
6
0
VERTEX
8
OBJECT__29
10
0
20
0
30
0
70
128
71
5
72
7
73
6
0
VERTEX
8
OBJECT__29
10
0
20
0
30
0
70
128
71
4
72
8
73
5
0
VERTEX
8
OBJECT__29
10
0
20
0
30
0
70
128
71
9
72
10
73
11
0
VERTEX
8
OBJECT__29
10
0
20
0
30
0
70
128
71
12
72
13
73
14
0
VERTEX
8
OBJECT__29
10
0
20
0
30
0
70
128
71
14
72
15
73
12
0
VERTEX
8
OBJECT__29
10
0
20
0
30
0
70
128
71
16
72
17
73
10
0
VERTEX
8
OBJECT__29
10
0
20
0
30
0
70
128
71
18
72
3
73
19
0
VERTEX
8
OBJECT__29
10
0
20
0
30
0
70
128
71
16
72
1
73
18
0
VERTEX
8
OBJECT__29
10
0
20
0
30
0
70
128
71
17
72
18
73
14
0
VERTEX
8
OBJECT__29
10
0
20
0
30
0
70
128
71
17
72
13
73
20
0
VERTEX
8
OBJECT__29
10
0
20
0
30
0
70
128
71
13
72
12
73
21
0
VERTEX
8
OBJECT__29
10
0
20
0
30
0
70
128
71
20
72
21
73
22
0
VERTEX
8
OBJECT__29
10
0
20
0
30
0
70
128
71
23
72
24
73
11
0
VERTEX
8
OBJECT__29
10
0
20
0
30
0
70
128
71
11
72
25
73
23
0
VERTEX
8
OBJECT__29
10
0
20
0
30
0
70
128
71
10
72
20
73
26
0
VERTEX
8
OBJECT__29
10
0
20
0
30
0
70
128
71
1
72
27
73
28
0
VERTEX
8
OBJECT__29
10
0
20
0
30
0
70
128
71
29
72
30
73
27
0
VERTEX
8
OBJECT__29
10
0
20
0
30
0
70
128
71
30
72
28
73
27
0
VERTEX
8
OBJECT__29
10
0
20
0
30
0
70
128
71
31
72
32
73
33
0
VERTEX
8
OBJECT__29
10
0
20
0
30
0
70
128
71
32
72
34
73
35
0
VERTEX
8
OBJECT__29
10
0
20
0
30
0
70
128
71
9
72
24
73
34
0
VERTEX
8
OBJECT__29
10
0
20
0
30
0
70
128
71
16
72
9
73
32
0
VERTEX
8
OBJECT__29
10
0
20
0
30
0
70
128
71
16
72
31
73
27
0
VERTEX
8
OBJECT__29
10
0
20
0
30
0
70
128
71
24
72
23
73
36
0
VERTEX
8
OBJECT__29
10
0
20
0
30
0
70
128
71
37
72
38
73
39
0
VERTEX
8
OBJECT__29
10
0
20
0
30
0
70
128
71
38
72
40
73
39
0
VERTEX
8
OBJECT__29
10
0
20
0
30
0
70
128
71
41
72
42
73
43
0
VERTEX
8
OBJECT__29
10
0
20
0
30
0
70
128
71
43
72
38
73
41
0
VERTEX
8
OBJECT__29
10
0
20
0
30
0
70
128
71
38
72
44
73
45
0
VERTEX
8
OBJECT__29
10
0
20
0
30
0
70
128
71
44
72
46
73
47
0
VERTEX
8
OBJECT__29
10
0
20
0
30
0
70
128
71
46
72
48
73
49
0
VERTEX
8
OBJECT__29
10
0
20
0
30
0
70
128
71
50
72
51
73
46
0
VERTEX
8
OBJECT__29
10
0
20
0
30
0
70
128
71
4
72
50
73
52
0
VERTEX
8
OBJECT__29
10
0
20
0
30
0
70
128
71
52
72
50
73
37
0
VERTEX
8
OBJECT__29
10
0
20
0
30
0
70
128
71
37
72
53
73
52
0
VERTEX
8
OBJECT__29
10
0
20
0
30
0
70
128
71
37
72
50
73
44
0
VERTEX
8
OBJECT__29
10
0
20
0
30
0
70
128
71
54
72
55
73
51
0
VERTEX
8
OBJECT__29
10
0
20
0
30
0
70
128
71
51
72
4
73
54
0
VERTEX
8
OBJECT__29
10
0
20
0
30
0
70
128
71
51
72
55
73
48
0
VERTEX
8
OBJECT__29
10
0
20
0
30
0
70
128
71
55
72
56
73
57
0
VERTEX
8
OBJECT__29
10
0
20
0
30
0
70
128
71
48
72
57
73
58
0
VERTEX
8
OBJECT__29
10
0
20
0
30
0
70
128
71
57
72
59
73
60
0
VERTEX
8
OBJECT__29
10
0
20
0
30
0
70
128
71
59
72
61
73
62
0
VERTEX
8
OBJECT__29
10
0
20
0
30
0
70
128
71
61
72
28
73
30
0
VERTEX
8
OBJECT__29
10
0
20
0
30
0
70
128
71
63
72
61
73
64
0
VERTEX
8
OBJECT__29
10
0
20
0
30
0
70
128
71
61
72
59
73
64
0
VERTEX
8
OBJECT__29
10
0
20
0
30
0
70
128
71
54
72
65
73
56
0
VERTEX
8
OBJECT__29
10
0
20
0
30
0
70
128
71
56
72
64
73
59
0
VERTEX
8
OBJECT__29
10
0
20
0
30
0
70
128
71
65
72
66
73
64
0
VERTEX
8
OBJECT__29
10
0
20
0
30
0
70
128
71
63
72
2
73
28
0
VERTEX
8
OBJECT__29
10
0
20
0
30
0
70
128
71
67
72
68
73
69
0
VERTEX
8
OBJECT__29
10
0
20
0
30
0
70
128
71
68
72
70
73
69
0
VERTEX
8
OBJECT__29
10
0
20
0
30
0
70
128
71
54
72
71
73
72
0
VERTEX
8
OBJECT__29
10
0
20
0
30
0
70
128
71
68
72
6
73
73
0
VERTEX
8
OBJECT__29
10
0
20
0
30
0
70
128
71
6
72
7
73
73
0
VERTEX
8
OBJECT__29
10
0
20
0
30
0
70
128
71
73
72
74
73
68
0
VERTEX
8
OBJECT__29
10
0
20
0
30
0
70
128
71
54
72
4
73
75
0
VERTEX
8
OBJECT__29
10
0
20
0
30
0
70
128
71
4
72
76
73
75
0
VERTEX
8
OBJECT__29
10
0
20
0
30
0
70
128
71
76
72
77
73
78
0
VERTEX
8
OBJECT__29
10
0
20
0
30
0
70
128
71
6
72
68
73
77
0
VERTEX
8
OBJECT__29
10
0
20
0
30
0
70
128
71
75
72
78
73
79
0
VERTEX
8
OBJECT__29
10
0
20
0
30
0
70
128
71
71
72
79
73
80
0
VERTEX
8
OBJECT__29
10
0
20
0
30
0
70
128
71
66
72
81
73
82
0
VERTEX
8
OBJECT__29
10
0
20
0
30
0
70
128
71
65
72
72
73
81
0
VERTEX
8
OBJECT__29
10
0
20
0
30
0
70
128
71
63
72
82
73
3
0
VERTEX
8
OBJECT__29
10
0
20
0
30
0
70
128
71
81
72
83
73
84
0
VERTEX
8
OBJECT__29
10
0
20
0
30
0
70
128
71
72
72
80
73
83
0
VERTEX
8
OBJECT__29
10
0
20
0
30
0
70
128
71
82
72
84
73
19
0
VERTEX
8
OBJECT__29
10
0
20
0
30
0
70
128
71
79
72
85
73
86
0
VERTEX
8
OBJECT__29
10
0
20
0
30
0
70
128
71
67
72
87
73
88
0
VERTEX
8
OBJECT__29
10
0
20
0
30
0
70
128
71
89
72
90
73
91
0
VERTEX
8
OBJECT__29
10
0
20
0
30
0
70
128
71
88
72
87
73
89
0
VERTEX
8
OBJECT__29
10
0
20
0
30
0
70
128
71
91
72
88
73
89
0
VERTEX
8
OBJECT__29
10
0
20
0
30
0
70
128
71
90
72
92
73
91
0
VERTEX
8
OBJECT__29
10
0
20
0
30
0
70
128
71
77
72
93
73
94
0
VERTEX
8
OBJECT__29
10
0
20
0
30
0
70
128
71
68
72
67
73
93
0
VERTEX
8
OBJECT__29
10
0
20
0
30
0
70
128
71
78
72
94
73
85
0
VERTEX
8
OBJECT__29
10
0
20
0
30
0
70
128
71
93
72
95
73
96
0
VERTEX
8
OBJECT__29
10
0
20
0
30
0
70
128
71
93
72
97
73
98
0
VERTEX
8
OBJECT__29
10
0
20
0
30
0
70
128
71
98
72
95
73
93
0
VERTEX
8
OBJECT__29
10
0
20
0
30
0
70
128
71
67
72
99
73
97
0
VERTEX
8
OBJECT__29
10
0
20
0
30
0
70
128
71
67
72
100
73
99
0
VERTEX
8
OBJECT__29
10
0
20
0
30
0
70
128
71
67
72
101
73
102
0
VERTEX
8
OBJECT__29
10
0
20
0
30
0
70
128
71
102
72
100
73
67
0
VERTEX
8
OBJECT__29
10
0
20
0
30
0
70
128
71
94
72
103
73
104
0
VERTEX
8
OBJECT__29
10
0
20
0
30
0
70
128
71
94
72
105
73
103
0
VERTEX
8
OBJECT__29
10
0
20
0
30
0
70
128
71
94
72
96
73
106
0
VERTEX
8
OBJECT__29
10
0
20
0
30
0
70
128
71
106
72
105
73
94
0
VERTEX
8
OBJECT__29
10
0
20
0
30
0
70
128
71
83
72
107
73
108
0
VERTEX
8
OBJECT__29
10
0
20
0
30
0
70
128
71
80
72
86
73
107
0
VERTEX
8
OBJECT__29
10
0
20
0
30
0
70
128
71
84
72
108
73
15
0
VERTEX
8
OBJECT__29
10
0
20
0
30
0
70
128
71
109
72
108
73
107
0
VERTEX
8
OBJECT__29
10
0
20
0
30
0
70
128
71
107
72
86
73
110
0
VERTEX
8
OBJECT__29
10
0
20
0
30
0
70
128
71
86
72
111
73
112
0
VERTEX
8
OBJECT__29
10
0
20
0
30
0
70
128
71
112
72
110
73
86
0
VERTEX
8
OBJECT__29
10
0
20
0
30
0
70
128
71
15
72
108
73
113
0
VERTEX
8
OBJECT__29
10
0
20
0
30
0
70
128
71
108
72
109
73
114
0
VERTEX
8
OBJECT__29
10
0
20
0
30
0
70
128
71
114
72
113
73
108
0
VERTEX
8
OBJECT__29
10
0
20
0
30
0
70
128
71
33
72
35
73
115
0
VERTEX
8
OBJECT__29
10
0
20
0
30
0
70
128
71
30
72
29
73
116
0
VERTEX
8
OBJECT__29
10
0
20
0
30
0
70
128
71
29
72
117
73
116
0
VERTEX
8
OBJECT__29
10
0
20
0
30
0
70
128
71
29
72
33
73
118
0
VERTEX
8
OBJECT__29
10
0
20
0
30
0
70
128
71
33
72
119
73
118
0
VERTEX
8
OBJECT__29
10
0
20
0
30
0
70
128
71
118
72
117
73
29
0
VERTEX
8
OBJECT__29
10
0
20
0
30
0
70
128
71
62
72
30
73
120
0
VERTEX
8
OBJECT__29
10
0
20
0
30
0
70
128
71
120
72
121
73
62
0
VERTEX
8
OBJECT__29
10
0
20
0
30
0
70
128
71
30
72
122
73
120
0
VERTEX
8
OBJECT__29
10
0
20
0
30
0
70
128
71
60
72
62
73
123
0
VERTEX
8
OBJECT__29
10
0
20
0
30
0
70
128
71
123
72
124
73
60
0
VERTEX
8
OBJECT__29
10
0
20
0
30
0
70
128
71
58
72
60
73
125
0
VERTEX
8
OBJECT__29
10
0
20
0
30
0
70
128
71
125
72
126
73
58
0
VERTEX
8
OBJECT__29
10
0
20
0
30
0
70
128
71
49
72
127
73
128
0
VERTEX
8
OBJECT__29
10
0
20
0
30
0
70
128
71
49
72
58
73
129
0
VERTEX
8
OBJECT__29
10
0
20
0
30
0
70
128
71
129
72
127
73
49
0
VERTEX
8
OBJECT__29
10
0
20
0
30
0
70
128
71
47
72
130
73
131
0
VERTEX
8
OBJECT__29
10
0
20
0
30
0
70
128
71
47
72
49
73
132
0
VERTEX
8
OBJECT__29
10
0
20
0
30
0
70
128
71
132
72
130
73
47
0
VERTEX
8
OBJECT__29
10
0
20
0
30
0
70
128
71
45
72
47
73
133
0
VERTEX
8
OBJECT__29
10
0
20
0
30
0
70
128
71
133
72
134
73
45
0
VERTEX
8
OBJECT__29
10
0
20
0
30
0
70
128
71
134
72
135
73
45
0
VERTEX
8
OBJECT__29
10
0
20
0
30
0
70
128
71
41
72
136
73
137
0
VERTEX
8
OBJECT__29
10
0
20
0
30
0
70
128
71
41
72
45
73
138
0
VERTEX
8
OBJECT__29
10
0
20
0
30
0
70
128
71
138
72
136
73
41
0
VERTEX
8
OBJECT__29
10
0
20
0
30
0
70
128
71
139
72
140
73
141
0
VERTEX
8
OBJECT__29
10
0
20
0
30
0
70
128
71
141
72
142
73
139
0
VERTEX
8
OBJECT__29
10
0
20
0
30
0
70
128
71
142
72
143
73
139
0
VERTEX
8
OBJECT__29
10
0
20
0
30
0
70
128
71
41
72
144
73
140
0
VERTEX
8
OBJECT__29
10
0
20
0
30
0
70
128
71
140
72
42
73
41
0
VERTEX
8
OBJECT__29
10
0
20
0
30
0
70
128
71
85
72
145
73
111
0
VERTEX
8
OBJECT__29
10
0
20
0
30
0
70
128
71
85
72
146
73
145
0
VERTEX
8
OBJECT__29
10
0
20
0
30
0
70
128
71
85
72
104
73
146
0
VERTEX
8
OBJECT__29
10
0
20
0
30
0
70
128
71
15
72
147
73
148
0
VERTEX
8
OBJECT__29
10
0
20
0
30
0
70
128
71
148
72
12
73
15
0
VERTEX
8
OBJECT__29
10
0
20
0
30
0
70
128
71
12
72
149
73
150
0
VERTEX
8
OBJECT__29
10
0
20
0
30
0
70
128
71
150
72
21
73
12
0
VERTEX
8
OBJECT__29
10
0
20
0
30
0
70
128
71
21
72
151
73
152
0
VERTEX
8
OBJECT__29
10
0
20
0
30
0
70
128
71
22
72
152
73
153
0
VERTEX
8
OBJECT__29
10
0
20
0
30
0
70
128
71
22
72
154
73
25
0
VERTEX
8
OBJECT__29
10
0
20
0
30
0
70
128
71
25
72
154
73
155
0
VERTEX
8
OBJECT__29
10
0
20
0
30
0
70
128
71
155
72
156
73
25
0
VERTEX
8
OBJECT__29
10
0
20
0
30
0
70
128
71
25
72
26
73
22
0
VERTEX
8
OBJECT__29
10
0
20
0
30
0
70
128
71
25
72
157
73
158
0
VERTEX
8
OBJECT__29
10
0
20
0
30
0
70
128
71
158
72
23
73
25
0
VERTEX
8
OBJECT__29
10
0
20
0
30
0
70
128
71
36
72
159
73
160
0
VERTEX
8
OBJECT__29
10
0
20
0
30
0
70
128
71
23
72
161
73
159
0
VERTEX
8
OBJECT__29
10
0
20
0
30
0
70
128
71
159
72
36
73
23
0
VERTEX
8
OBJECT__29
10
0
20
0
30
0
70
128
71
160
72
162
73
36
0
VERTEX
8
OBJECT__29
10
0
20
0
30
0
70
128
71
36
72
162
73
163
0
VERTEX
8
OBJECT__29
10
0
20
0
30
0
70
128
71
35
72
34
73
36
0
VERTEX
8
OBJECT__29
10
0
20
0
30
0
70
128
71
36
72
164
73
35
0
VERTEX
8
OBJECT__29
10
0
20
0
30
0
70
128
71
35
72
165
73
166
0
VERTEX
8
OBJECT__29
10
0
20
0
30
0
70
128
71
35
72
164
73
165
0
VERTEX
8
OBJECT__29
10
0
20
0
30
0
70
128
71
166
72
115
73
35
0
VERTEX
8
OBJECT__29
10
0
20
0
30
0
70
128
71
163
72
164
73
36
0
VERTEX
8
OBJECT__29
10
0
20
0
30
0
70
128
71
158
72
161
73
23
0
VERTEX
8
OBJECT__29
10
0
20
0
30
0
70
128
71
156
72
157
73
25
0
VERTEX
8
OBJECT__29
10
0
20
0
30
0
70
128
71
153
72
154
73
22
0
VERTEX
8
OBJECT__29
10
0
20
0
30
0
70
128
71
152
72
22
73
21
0
VERTEX
8
OBJECT__29
10
0
20
0
30
0
70
128
71
150
72
151
73
21
0
VERTEX
8
OBJECT__29
10
0
20
0
30
0
70
128
71
148
72
149
73
12
0
VERTEX
8
OBJECT__29
10
0
20
0
30
0
70
128
71
111
72
86
73
85
0
VERTEX
8
OBJECT__29
10
0
20
0
30
0
70
128
71
139
72
42
73
140
0
VERTEX
8
OBJECT__29
10
0
20
0
30
0
70
128
71
137
72
144
73
41
0
VERTEX
8
OBJECT__29
10
0
20
0
30
0
70
128
71
135
72
138
73
45
0
VERTEX
8
OBJECT__29
10
0
20
0
30
0
70
128
71
131
72
133
73
47
0
VERTEX
8
OBJECT__29
10
0
20
0
30
0
70
128
71
128
72
132
73
49
0
VERTEX
8
OBJECT__29
10
0
20
0
30
0
70
128
71
126
72
129
73
58
0
VERTEX
8
OBJECT__29
10
0
20
0
30
0
70
128
71
124
72
125
73
60
0
VERTEX
8
OBJECT__29
10
0
20
0
30
0
70
128
71
121
72
123
73
62
0
VERTEX
8
OBJECT__29
10
0
20
0
30
0
70
128
71
116
72
122
73
30
0
VERTEX
8
OBJECT__29
10
0
20
0
30
0
70
128
71
115
72
119
73
33
0
VERTEX
8
OBJECT__29
10
0
20
0
30
0
70
128
71
113
72
147
73
15
0
VERTEX
8
OBJECT__29
10
0
20
0
30
0
70
128
71
110
72
167
73
107
0
VERTEX
8
OBJECT__29
10
0
20
0
30
0
70
128
71
107
72
167
73
109
0
VERTEX
8
OBJECT__29
10
0
20
0
30
0
70
128
71
15
72
19
73
84
0
VERTEX
8
OBJECT__29
10
0
20
0
30
0
70
128
71
107
72
83
73
80
0
VERTEX
8
OBJECT__29
10
0
20
0
30
0
70
128
71
108
72
84
73
83
0
VERTEX
8
OBJECT__29
10
0
20
0
30
0
70
128
71
104
72
85
73
94
0
VERTEX
8
OBJECT__29
10
0
20
0
30
0
70
128
71
97
72
93
73
67
0
VERTEX
8
OBJECT__29
10
0
20
0
30
0
70
128
71
96
72
94
73
93
0
VERTEX
8
OBJECT__29
10
0
20
0
30
0
70
128
71
85
72
79
73
78
0
VERTEX
8
OBJECT__29
10
0
20
0
30
0
70
128
71
93
72
77
73
68
0
VERTEX
8
OBJECT__29
10
0
20
0
30
0
70
128
71
94
72
78
73
77
0
VERTEX
8
OBJECT__29
10
0
20
0
30
0
70
128
71
88
72
101
73
67
0
VERTEX
8
OBJECT__29
10
0
20
0
30
0
70
128
71
86
72
80
73
79
0
VERTEX
8
OBJECT__29
10
0
20
0
30
0
70
128
71
19
72
3
73
82
0
VERTEX
8
OBJECT__29
10
0
20
0
30
0
70
128
71
83
72
81
73
72
0
VERTEX
8
OBJECT__29
10
0
20
0
30
0
70
128
71
84
72
82
73
81
0
VERTEX
8
OBJECT__29
10
0
20
0
30
0
70
128
71
3
72
2
73
63
0
VERTEX
8
OBJECT__29
10
0
20
0
30
0
70
128
71
81
72
66
73
65
0
VERTEX
8
OBJECT__29
10
0
20
0
30
0
70
128
71
82
72
63
73
66
0
VERTEX
8
OBJECT__29
10
0
20
0
30
0
70
128
71
80
72
72
73
71
0
VERTEX
8
OBJECT__29
10
0
20
0
30
0
70
128
71
79
72
71
73
75
0
VERTEX
8
OBJECT__29
10
0
20
0
30
0
70
128
71
77
72
76
73
6
0
VERTEX
8
OBJECT__29
10
0
20
0
30
0
70
128
71
78
72
75
73
76
0
VERTEX
8
OBJECT__29
10
0
20
0
30
0
70
128
71
75
72
71
73
54
0
VERTEX
8
OBJECT__29
10
0
20
0
30
0
70
128
71
74
72
70
73
68
0
VERTEX
8
OBJECT__29
10
0
20
0
30
0
70
128
71
72
72
65
73
54
0
VERTEX
8
OBJECT__29
10
0
20
0
30
0
70
128
71
69
72
87
73
67
0
VERTEX
8
OBJECT__29
10
0
20
0
30
0
70
128
71
28
72
61
73
63
0
VERTEX
8
OBJECT__29
10
0
20
0
30
0
70
128
71
64
72
56
73
65
0
VERTEX
8
OBJECT__29
10
0
20
0
30
0
70
128
71
59
72
57
73
56
0
VERTEX
8
OBJECT__29
10
0
20
0
30
0
70
128
71
56
72
55
73
54
0
VERTEX
8
OBJECT__29
10
0
20
0
30
0
70
128
71
64
72
66
73
63
0
VERTEX
8
OBJECT__29
10
0
20
0
30
0
70
128
71
30
72
62
73
61
0
VERTEX
8
OBJECT__29
10
0
20
0
30
0
70
128
71
62
72
60
73
59
0
VERTEX
8
OBJECT__29
10
0
20
0
30
0
70
128
71
60
72
58
73
57
0
VERTEX
8
OBJECT__29
10
0
20
0
30
0
70
128
71
58
72
49
73
48
0
VERTEX
8
OBJECT__29
10
0
20
0
30
0
70
128
71
57
72
48
73
55
0
VERTEX
8
OBJECT__29
10
0
20
0
30
0
70
128
71
48
72
46
73
51
0
VERTEX
8
OBJECT__29
10
0
20
0
30
0
70
128
71
51
72
50
73
4
0
VERTEX
8
OBJECT__29
10
0
20
0
30
0
70
128
71
44
72
38
73
37
0
VERTEX
8
OBJECT__29
10
0
20
0
30
0
70
128
71
52
72
8
73
4
0
VERTEX
8
OBJECT__29
10
0
20
0
30
0
70
128
71
46
72
44
73
50
0
VERTEX
8
OBJECT__29
10
0
20
0
30
0
70
128
71
49
72
47
73
46
0
VERTEX
8
OBJECT__29
10
0
20
0
30
0
70
128
71
47
72
45
73
44
0
VERTEX
8
OBJECT__29
10
0
20
0
30
0
70
128
71
45
72
41
73
38
0
VERTEX
8
OBJECT__29
10
0
20
0
30
0
70
128
71
43
72
40
73
38
0
VERTEX
8
OBJECT__29
10
0
20
0
30
0
70
128
71
39
72
53
73
37
0
VERTEX
8
OBJECT__29
10
0
20
0
30
0
70
128
71
36
72
34
73
24
0
VERTEX
8
OBJECT__29
10
0
20
0
30
0
70
128
71
27
72
1
73
16
0
VERTEX
8
OBJECT__29
10
0
20
0
30
0
70
128
71
32
72
31
73
16
0
VERTEX
8
OBJECT__29
10
0
20
0
30
0
70
128
71
34
72
32
73
9
0
VERTEX
8
OBJECT__29
10
0
20
0
30
0
70
128
71
35
72
33
73
32
0
VERTEX
8
OBJECT__29
10
0
20
0
30
0
70
128
71
33
72
29
73
31
0
VERTEX
8
OBJECT__29
10
0
20
0
30
0
70
128
71
27
72
31
73
29
0
VERTEX
8
OBJECT__29
10
0
20
0
30
0
70
128
71
28
72
2
73
1
0
VERTEX
8
OBJECT__29
10
0
20
0
30
0
70
128
71
26
72
11
73
10
0
VERTEX
8
OBJECT__29
10
0
20
0
30
0
70
128
71
11
72
26
73
25
0
VERTEX
8
OBJECT__29
10
0
20
0
30
0
70
128
71
22
72
26
73
20
0
VERTEX
8
OBJECT__29
10
0
20
0
30
0
70
128
71
21
72
20
73
13
0
VERTEX
8
OBJECT__29
10
0
20
0
30
0
70
128
71
20
72
10
73
17
0
VERTEX
8
OBJECT__29
10
0
20
0
30
0
70
128
71
14
72
13
73
17
0
VERTEX
8
OBJECT__29
10
0
20
0
30
0
70
128
71
18
72
17
73
16
0
VERTEX
8
OBJECT__29
10
0
20
0
30
0
70
128
71
19
72
14
73
18
0
VERTEX
8
OBJECT__29
10
0
20
0
30
0
70
128
71
10
72
9
73
16
0
VERTEX
8
OBJECT__29
10
0
20
0
30
0
70
128
71
14
72
19
73
15
0
VERTEX
8
OBJECT__29
10
0
20
0
30
0
70
128
71
11
72
24
73
9
0
VERTEX
8
OBJECT__29
10
0
20
0
30
0
70
128
71
6
72
76
73
4
0
VERTEX
8
OBJECT__29
10
0
20
0
30
0
70
128
71
3
72
18
73
1
0
SEQEND
8
OBJECT__29
0
POLYLINE
8
OBJECT__30
66
1
70
64
71
79
72
130
62
253
0
VERTEX
8
OBJECT__30
10
6.500000
20
0.000000
30
-20.070999
70
192
0
VERTEX
8
OBJECT__30
10
6.500000
20
-4.803000
30
-19.488001
70
192
0
VERTEX
8
OBJECT__30
10
8.916000
20
-9.576000
30
-38.851002
70
192
0
VERTEX
8
OBJECT__30
10
6.500000
20
-9.328000
30
-17.771999
70
192
0
VERTEX
8
OBJECT__30
10
8.916000
20
-18.594999
30
-35.430000
70
192
0
VERTEX
8
OBJECT__30
10
6.500000
20
-13.310000
30
-15.024000
70
192
0
VERTEX
8
OBJECT__30
10
8.916000
20
-26.534000
30
-29.950001
70
192
0
VERTEX
8
OBJECT__30
10
6.500000
20
-16.518000
30
-11.402000
70
192
0
VERTEX
8
OBJECT__30
10
8.916000
20
-32.930000
30
-22.730000
70
192
0
VERTEX
8
OBJECT__30
10
6.500000
20
-18.767000
30
-7.117000
70
192
0
VERTEX
8
OBJECT__30
10
8.916000
20
-37.412998
30
-14.189000
70
192
0
VERTEX
8
OBJECT__30
10
6.500000
20
-19.924999
30
-2.419000
70
192
0
VERTEX
8
OBJECT__30
10
8.916000
20
-39.721001
30
-4.823000
70
192
0
VERTEX
8
OBJECT__30
10
6.500000
20
-19.924999
30
2.419000
70
192
0
VERTEX
8
OBJECT__30
10
8.916000
20
-39.721001
30
4.823000
70
192
0
VERTEX
8
OBJECT__30
10
6.500000
20
-18.767000
30
7.117000
70
192
0
VERTEX
8
OBJECT__30
10
8.916000
20
-37.412998
30
14.189000
70
192
0
VERTEX
8
OBJECT__30
10
6.500000
20
-16.518000
30
11.402000
70
192
0
VERTEX
8
OBJECT__30
10
8.916000
20
-32.930000
30
22.730000
70
192
0
VERTEX
8
OBJECT__30
10
6.500000
20
-13.310000
30
15.024000
70
192
0
VERTEX
8
OBJECT__30
10
8.916000
20
-26.534000
30
29.950001
70
192
0
VERTEX
8
OBJECT__30
10
6.500000
20
-9.328000
30
17.771999
70
192
0
VERTEX
8
OBJECT__30
10
8.916000
20
-18.594999
30
35.430000
70
192
0
VERTEX
8
OBJECT__30
10
6.500000
20
-4.803000
30
19.488001
70
192
0
VERTEX
8
OBJECT__30
10
8.916000
20
-9.576000
30
38.851002
70
192
0
VERTEX
8
OBJECT__30
10
6.500000
20
0.000000
30
20.070999
70
192
0
VERTEX
8
OBJECT__30
10
8.916000
20
0.000000
30
40.013000
70
192
0
VERTEX
8
OBJECT__30
10
6.500000
20
4.803000
30
19.488001
70
192
0
VERTEX
8
OBJECT__30
10
8.916000
20
9.576000
30
38.851002
70
192
0
VERTEX
8
OBJECT__30
10
6.500000
20
9.328000
30
17.771999
70
192
0
VERTEX
8
OBJECT__30
10
8.916000
20
18.594999
30
35.430000
70
192
0
VERTEX
8
OBJECT__30
10
6.500000
20
13.310000
30
15.024000
70
192
0
VERTEX
8
OBJECT__30
10
8.916000
20
26.534000
30
29.950001
70
192
0
VERTEX
8
OBJECT__30
10
6.500000
20
16.518000
30
11.402000
70
192
0
VERTEX
8
OBJECT__30
10
8.916000
20
32.930000
30
22.730000
70
192
0
VERTEX
8
OBJECT__30
10
6.500000
20
18.767000
30
7.117000
70
192
0
VERTEX
8
OBJECT__30
10
8.916000
20
37.412998
30
14.189000
70
192
0
VERTEX
8
OBJECT__30
10
6.500000
20
19.924999
30
2.419000
70
192
0
VERTEX
8
OBJECT__30
10
8.916000
20
39.721001
30
4.823000
70
192
0
VERTEX
8
OBJECT__30
10
6.500000
20
19.924999
30
-2.419000
70
192
0
VERTEX
8
OBJECT__30
10
8.916000
20
39.721001
30
-4.823000
70
192
0
VERTEX
8
OBJECT__30
10
6.500000
20
18.767000
30
-7.117000
70
192
0
VERTEX
8
OBJECT__30
10
8.916000
20
37.412998
30
-14.189000
70
192
0
VERTEX
8
OBJECT__30
10
6.500000
20
16.518000
30
-11.402000
70
192
0
VERTEX
8
OBJECT__30
10
8.916000
20
32.930000
30
-22.730000
70
192
0
VERTEX
8
OBJECT__30
10
6.500000
20
13.310000
30
-15.024000
70
192
0
VERTEX
8
OBJECT__30
10
8.916000
20
26.534000
30
-29.950001
70
192
0
VERTEX
8
OBJECT__30
10
6.500000
20
9.328000
30
-17.771999
70
192
0
VERTEX
8
OBJECT__30
10
8.916000
20
18.594999
30
-35.430000
70
192
0
VERTEX
8
OBJECT__30
10
6.500000
20
4.803000
30
-19.488001
70
192
0
VERTEX
8
OBJECT__30
10
8.916000
20
9.576000
30
-38.851002
70
192
0
VERTEX
8
OBJECT__30
10
8.916000
20
0.000000
30
-40.013000
70
192
0
VERTEX
8
OBJECT__30
10
12.925000
20
0.000000
30
-59.696999
70
192
0
VERTEX
8
OBJECT__30
10
12.925000
20
-14.286000
30
-57.962002
70
192
0
VERTEX
8
OBJECT__30
10
12.925000
20
-39.585999
30
-44.683998
70
192
0
VERTEX
8
OBJECT__30
10
12.925000
20
-27.742001
30
-52.859001
70
192
0
VERTEX
8
OBJECT__30
10
12.925000
20
-55.817001
30
-21.169001
70
192
0
VERTEX
8
OBJECT__30
10
12.925000
20
-49.129002
30
-33.911999
70
192
0
VERTEX
8
OBJECT__30
10
12.925000
20
-59.261002
30
-7.196000
70
192
0
VERTEX
8
OBJECT__30
10
12.925000
20
-59.261002
30
7.196000
70
192
0
VERTEX
8
OBJECT__30
10
12.925000
20
-55.817001
30
21.169001
70
192
0
VERTEX
8
OBJECT__30
10
12.925000
20
-39.585999
30
44.683998
70
192
0
VERTEX
8
OBJECT__30
10
12.925000
20
-49.129002
30
33.911999
70
192
0
VERTEX
8
OBJECT__30
10
12.925000
20
-14.286000
30
57.962002
70
192
0
VERTEX
8
OBJECT__30
10
12.925000
20
-27.742001
30
52.859001
70
192
0
VERTEX
8
OBJECT__30
10
12.925000
20
14.286000
30
57.962002
70
192
0
VERTEX
8
OBJECT__30
10
12.925000
20
0.000000
30
59.696999
70
192
0
VERTEX
8
OBJECT__30
10
12.925000
20
27.742001
30
52.859001
70
192
0
VERTEX
8
OBJECT__30
10
12.925000
20
39.585999
30
44.683998
70
192
0
VERTEX
8
OBJECT__30
10
12.925000
20
55.817001
30
21.169001
70
192
0
VERTEX
8
OBJECT__30
10
12.925000
20
49.129002
30
33.911999
70
192
0
VERTEX
8
OBJECT__30
10
12.925000
20
59.261002
30
7.196000
70
192
0
VERTEX
8
OBJECT__30
10
12.925000
20
55.817001
30
-21.169001
70
192
0
VERTEX
8
OBJECT__30
10
12.925000
20
59.261002
30
-7.196000
70
192
0
VERTEX
8
OBJECT__30
10
12.925000
20
39.585999
30
-44.683998
70
192
0
VERTEX
8
OBJECT__30
10
12.925000
20
49.129002
30
-33.911999
70
192
0
VERTEX
8
OBJECT__30
10
12.925000
20
27.742001
30
-52.859001
70
192
0
VERTEX
8
OBJECT__30
10
12.925000
20
14.286000
30
-57.962002
70
192
0
VERTEX
8
OBJECT__30
10
5.693000
20
0.000000
30
0.000000
70
192
0
VERTEX
8
OBJECT__30
10
0
20
0
30
0
70
128
71
1
72
2
73
3
0
VERTEX
8
OBJECT__30
10
0
20
0
30
0
70
128
71
2
72
4
73
5
0
VERTEX
8
OBJECT__30
10
0
20
0
30
0
70
128
71
4
72
6
73
7
0
VERTEX
8
OBJECT__30
10
0
20
0
30
0
70
128
71
6
72
8
73
9
0
VERTEX
8
OBJECT__30
10
0
20
0
30
0
70
128
71
8
72
10
73
11
0
VERTEX
8
OBJECT__30
10
0
20
0
30
0
70
128
71
10
72
12
73
13
0
VERTEX
8
OBJECT__30
10
0
20
0
30
0
70
128
71
12
72
14
73
15
0
VERTEX
8
OBJECT__30
10
0
20
0
30
0
70
128
71
14
72
16
73
17
0
VERTEX
8
OBJECT__30
10
0
20
0
30
0
70
128
71
16
72
18
73
19
0
VERTEX
8
OBJECT__30
10
0
20
0
30
0
70
128
71
18
72
20
73
21
0
VERTEX
8
OBJECT__30
10
0
20
0
30
0
70
128
71
20
72
22
73
23
0
VERTEX
8
OBJECT__30
10
0
20
0
30
0
70
128
71
22
72
24
73
25
0
VERTEX
8
OBJECT__30
10
0
20
0
30
0
70
128
71
24
72
26
73
27
0
VERTEX
8
OBJECT__30
10
0
20
0
30
0
70
128
71
26
72
28
73
29
0
VERTEX
8
OBJECT__30
10
0
20
0
30
0
70
128
71
28
72
30
73
31
0
VERTEX
8
OBJECT__30
10
0
20
0
30
0
70
128
71
30
72
32
73
33
0
VERTEX
8
OBJECT__30
10
0
20
0
30
0
70
128
71
32
72
34
73
35
0
VERTEX
8
OBJECT__30
10
0
20
0
30
0
70
128
71
34
72
36
73
37
0
VERTEX
8
OBJECT__30
10
0
20
0
30
0
70
128
71
36
72
38
73
39
0
VERTEX
8
OBJECT__30
10
0
20
0
30
0
70
128
71
38
72
40
73
41
0
VERTEX
8
OBJECT__30
10
0
20
0
30
0
70
128
71
40
72
42
73
43
0
VERTEX
8
OBJECT__30
10
0
20
0
30
0
70
128
71
42
72
44
73
45
0
VERTEX
8
OBJECT__30
10
0
20
0
30
0
70
128
71
44
72
46
73
47
0
VERTEX
8
OBJECT__30
10
0
20
0
30
0
70
128
71
46
72
48
73
49
0
VERTEX
8
OBJECT__30
10
0
20
0
30
0
70
128
71
48
72
50
73
51
0
VERTEX
8
OBJECT__30
10
0
20
0
30
0
70
128
71
50
72
1
73
52
0
VERTEX
8
OBJECT__30
10
0
20
0
30
0
70
128
71
53
72
52
73
3
0
VERTEX
8
OBJECT__30
10
0
20
0
30
0
70
128
71
54
72
3
73
5
0
VERTEX
8
OBJECT__30
10
0
20
0
30
0
70
128
71
55
72
56
73
5
0
VERTEX
8
OBJECT__30
10
0
20
0
30
0
70
128
71
55
72
7
73
9
0
VERTEX
8
OBJECT__30
10
0
20
0
30
0
70
128
71
57
72
58
73
9
0
VERTEX
8
OBJECT__30
10
0
20
0
30
0
70
128
71
59
72
57
73
11
0
VERTEX
8
OBJECT__30
10
0
20
0
30
0
70
128
71
60
72
59
73
13
0
VERTEX
8
OBJECT__30
10
0
20
0
30
0
70
128
71
61
72
60
73
15
0
VERTEX
8
OBJECT__30
10
0
20
0
30
0
70
128
71
61
72
17
73
19
0
VERTEX
8
OBJECT__30
10
0
20
0
30
0
70
128
71
62
72
63
73
19
0
VERTEX
8
OBJECT__30
10
0
20
0
30
0
70
128
71
62
72
21
73
23
0
VERTEX
8
OBJECT__30
10
0
20
0
30
0
70
128
71
64
72
65
73
23
0
VERTEX
8
OBJECT__30
10
0
20
0
30
0
70
128
71
64
72
25
73
27
0
VERTEX
8
OBJECT__30
10
0
20
0
30
0
70
128
71
66
72
67
73
27
0
VERTEX
8
OBJECT__30
10
0
20
0
30
0
70
128
71
68
72
66
73
29
0
VERTEX
8
OBJECT__30
10
0
20
0
30
0
70
128
71
69
72
68
73
31
0
VERTEX
8
OBJECT__30
10
0
20
0
30
0
70
128
71
69
72
33
73
35
0
VERTEX
8
OBJECT__30
10
0
20
0
30
0
70
128
71
70
72
71
73
35
0
VERTEX
8
OBJECT__30
10
0
20
0
30
0
70
128
71
72
72
70
73
37
0
VERTEX
8
OBJECT__30
10
0
20
0
30
0
70
128
71
72
72
39
73
41
0
VERTEX
8
OBJECT__30
10
0
20
0
30
0
70
128
71
73
72
74
73
41
0
VERTEX
8
OBJECT__30
10
0
20
0
30
0
70
128
71
73
72
43
73
45
0
VERTEX
8
OBJECT__30
10
0
20
0
30
0
70
128
71
75
72
76
73
45
0
VERTEX
8
OBJECT__30
10
0
20
0
30
0
70
128
71
77
72
75
73
47
0
VERTEX
8
OBJECT__30
10
0
20
0
30
0
70
128
71
78
72
77
73
49
0
VERTEX
8
OBJECT__30
10
0
20
0
30
0
70
128
71
78
72
51
73
52
0
VERTEX
8
OBJECT__30
10
0
20
0
30
0
70
128
71
52
72
53
73
78
0
VERTEX
8
OBJECT__30
10
0
20
0
30
0
70
128
71
49
72
51
73
78
0
VERTEX
8
OBJECT__30
10
0
20
0
30
0
70
128
71
47
72
49
73
77
0
VERTEX
8
OBJECT__30
10
0
20
0
30
0
70
128
71
45
72
47
73
75
0
VERTEX
8
OBJECT__30
10
0
20
0
30
0
70
128
71
45
72
76
73
73
0
VERTEX
8
OBJECT__30
10
0
20
0
30
0
70
128
71
41
72
43
73
73
0
VERTEX
8
OBJECT__30
10
0
20
0
30
0
70
128
71
41
72
74
73
72
0
VERTEX
8
OBJECT__30
10
0
20
0
30
0
70
128
71
37
72
39
73
72
0
VERTEX
8
OBJECT__30
10
0
20
0
30
0
70
128
71
35
72
37
73
70
0
VERTEX
8
OBJECT__30
10
0
20
0
30
0
70
128
71
35
72
71
73
69
0
VERTEX
8
OBJECT__30
10
0
20
0
30
0
70
128
71
31
72
33
73
69
0
VERTEX
8
OBJECT__30
10
0
20
0
30
0
70
128
71
29
72
31
73
68
0
VERTEX
8
OBJECT__30
10
0
20
0
30
0
70
128
71
27
72
29
73
66
0
VERTEX
8
OBJECT__30
10
0
20
0
30
0
70
128
71
27
72
67
73
64
0
VERTEX
8
OBJECT__30
10
0
20
0
30
0
70
128
71
23
72
25
73
64
0
VERTEX
8
OBJECT__30
10
0
20
0
30
0
70
128
71
23
72
65
73
62
0
VERTEX
8
OBJECT__30
10
0
20
0
30
0
70
128
71
19
72
21
73
62
0
VERTEX
8
OBJECT__30
10
0
20
0
30
0
70
128
71
19
72
63
73
61
0
VERTEX
8
OBJECT__30
10
0
20
0
30
0
70
128
71
15
72
17
73
61
0
VERTEX
8
OBJECT__30
10
0
20
0
30
0
70
128
71
13
72
15
73
60
0
VERTEX
8
OBJECT__30
10
0
20
0
30
0
70
128
71
11
72
13
73
59
0
VERTEX
8
OBJECT__30
10
0
20
0
30
0
70
128
71
9
72
11
73
57
0
VERTEX
8
OBJECT__30
10
0
20
0
30
0
70
128
71
9
72
58
73
55
0
VERTEX
8
OBJECT__30
10
0
20
0
30
0
70
128
71
5
72
7
73
55
0
VERTEX
8
OBJECT__30
10
0
20
0
30
0
70
128
71
5
72
56
73
54
0
VERTEX
8
OBJECT__30
10
0
20
0
30
0
70
128
71
3
72
54
73
53
0
VERTEX
8
OBJECT__30
10
0
20
0
30
0
70
128
71
52
72
51
73
50
0
VERTEX
8
OBJECT__30
10
0
20
0
30
0
70
128
71
51
72
49
73
48
0
VERTEX
8
OBJECT__30
10
0
20
0
30
0
70
128
71
49
72
47
73
46
0
VERTEX
8
OBJECT__30
10
0
20
0
30
0
70
128
71
47
72
45
73
44
0
VERTEX
8
OBJECT__30
10
0
20
0
30
0
70
128
71
45
72
43
73
42
0
VERTEX
8
OBJECT__30
10
0
20
0
30
0
70
128
71
43
72
41
73
40
0
VERTEX
8
OBJECT__30
10
0
20
0
30
0
70
128
71
41
72
39
73
38
0
VERTEX
8
OBJECT__30
10
0
20
0
30
0
70
128
71
39
72
37
73
36
0
VERTEX
8
OBJECT__30
10
0
20
0
30
0
70
128
71
37
72
35
73
34
0
VERTEX
8
OBJECT__30
10
0
20
0
30
0
70
128
71
35
72
33
73
32
0
VERTEX
8
OBJECT__30
10
0
20
0
30
0
70
128
71
33
72
31
73
30
0
VERTEX
8
OBJECT__30
10
0
20
0
30
0
70
128
71
31
72
29
73
28
0
VERTEX
8
OBJECT__30
10
0
20
0
30
0
70
128
71
29
72
27
73
26
0
VERTEX
8
OBJECT__30
10
0
20
0
30
0
70
128
71
27
72
25
73
24
0
VERTEX
8
OBJECT__30
10
0
20
0
30
0
70
128
71
25
72
23
73
22
0
VERTEX
8
OBJECT__30
10
0
20
0
30
0
70
128
71
23
72
21
73
20
0
VERTEX
8
OBJECT__30
10
0
20
0
30
0
70
128
71
21
72
19
73
18
0
VERTEX
8
OBJECT__30
10
0
20
0
30
0
70
128
71
19
72
17
73
16
0
VERTEX
8
OBJECT__30
10
0
20
0
30
0
70
128
71
17
72
15
73
14
0
VERTEX
8
OBJECT__30
10
0
20
0
30
0
70
128
71
15
72
13
73
12
0
VERTEX
8
OBJECT__30
10
0
20
0
30
0
70
128
71
13
72
11
73
10
0
VERTEX
8
OBJECT__30
10
0
20
0
30
0
70
128
71
11
72
9
73
8
0
VERTEX
8
OBJECT__30
10
0
20
0
30
0
70
128
71
9
72
7
73
6
0
VERTEX
8
OBJECT__30
10
0
20
0
30
0
70
128
71
7
72
5
73
4
0
VERTEX
8
OBJECT__30
10
0
20
0
30
0
70
128
71
5
72
3
73
2
0
VERTEX
8
OBJECT__30
10
0
20
0
30
0
70
128
71
3
72
52
73
1
0
VERTEX
8
OBJECT__30
10
0
20
0
30
0
70
128
71
1
72
50
73
79
0
VERTEX
8
OBJECT__30
10
0
20
0
30
0
70
128
71
50
72
48
73
79
0
VERTEX
8
OBJECT__30
10
0
20
0
30
0
70
128
71
48
72
46
73
79
0
VERTEX
8
OBJECT__30
10
0
20
0
30
0
70
128
71
46
72
44
73
79
0
VERTEX
8
OBJECT__30
10
0
20
0
30
0
70
128
71
44
72
42
73
79
0
VERTEX
8
OBJECT__30
10
0
20
0
30
0
70
128
71
42
72
40
73
79
0
VERTEX
8
OBJECT__30
10
0
20
0
30
0
70
128
71
40
72
38
73
79
0
VERTEX
8
OBJECT__30
10
0
20
0
30
0
70
128
71
38
72
36
73
79
0
VERTEX
8
OBJECT__30
10
0
20
0
30
0
70
128
71
36
72
34
73
79
0
VERTEX
8
OBJECT__30
10
0
20
0
30
0
70
128
71
34
72
32
73
79
0
VERTEX
8
OBJECT__30
10
0
20
0
30
0
70
128
71
32
72
30
73
79
0
VERTEX
8
OBJECT__30
10
0
20
0
30
0
70
128
71
30
72
28
73
79
0
VERTEX
8
OBJECT__30
10
0
20
0
30
0
70
128
71
28
72
26
73
79
0
VERTEX
8
OBJECT__30
10
0
20
0
30
0
70
128
71
26
72
24
73
79
0
VERTEX
8
OBJECT__30
10
0
20
0
30
0
70
128
71
24
72
22
73
79
0
VERTEX
8
OBJECT__30
10
0
20
0
30
0
70
128
71
22
72
20
73
79
0
VERTEX
8
OBJECT__30
10
0
20
0
30
0
70
128
71
20
72
18
73
79
0
VERTEX
8
OBJECT__30
10
0
20
0
30
0
70
128
71
18
72
16
73
79
0
VERTEX
8
OBJECT__30
10
0
20
0
30
0
70
128
71
16
72
14
73
79
0
VERTEX
8
OBJECT__30
10
0
20
0
30
0
70
128
71
14
72
12
73
79
0
VERTEX
8
OBJECT__30
10
0
20
0
30
0
70
128
71
12
72
10
73
79
0
VERTEX
8
OBJECT__30
10
0
20
0
30
0
70
128
71
10
72
8
73
79
0
VERTEX
8
OBJECT__30
10
0
20
0
30
0
70
128
71
8
72
6
73
79
0
VERTEX
8
OBJECT__30
10
0
20
0
30
0
70
128
71
6
72
4
73
79
0
VERTEX
8
OBJECT__30
10
0
20
0
30
0
70
128
71
4
72
2
73
79
0
VERTEX
8
OBJECT__30
10
0
20
0
30
0
70
128
71
2
72
1
73
79
0
SEQEND
8
OBJECT__30
0
POLYLINE
8
OBJECT__31
66
1
70
64
71
80
72
80
62
253
0
VERTEX
8
OBJECT__31
10
12.925000
20
0.000000
30
59.696999
70
192
0
VERTEX
8
OBJECT__31
10
12.925000
20
14.286000
30
57.962002
70
192
0
VERTEX
8
OBJECT__31
10
12.997000
20
12.951000
30
58.763000
70
192
0
VERTEX
8
OBJECT__31
10
12.997000
20
14.439000
30
58.582001
70
192
0
VERTEX
8
OBJECT__31
10
12.925000
20
27.742001
30
52.859001
70
192
0
VERTEX
8
OBJECT__31
10
12.997000
20
25.232000
30
54.488998
70
192
0
VERTEX
8
OBJECT__31
10
12.997000
20
28.039000
30
53.424999
70
192
0
VERTEX
8
OBJECT__31
10
12.925000
20
39.585999
30
44.683998
70
192
0
VERTEX
8
OBJECT__31
10
12.997000
20
36.299999
30
47.723000
70
192
0
VERTEX
8
OBJECT__31
10
12.997000
20
40.009998
30
45.161999
70
192
0
VERTEX
8
OBJECT__31
10
12.925000
20
49.129002
30
33.911999
70
192
0
VERTEX
8
OBJECT__31
10
12.997000
20
45.666000
30
38.777000
70
192
0
VERTEX
8
OBJECT__31
10
12.997000
20
49.654999
30
34.275002
70
192
0
VERTEX
8
OBJECT__31
10
12.925000
20
55.817001
30
21.169001
70
192
0
VERTEX
8
OBJECT__31
10
12.997000
20
56.415001
30
21.395000
70
192
0
VERTEX
8
OBJECT__31
10
12.997000
20
52.917999
30
28.058001
70
192
0
VERTEX
8
OBJECT__31
10
12.925000
20
59.261002
30
7.196000
70
192
0
VERTEX
8
OBJECT__31
10
12.997000
20
59.896000
30
7.273000
70
192
0
VERTEX
8
OBJECT__31
10
12.997000
20
57.734001
30
16.042000
70
192
0
VERTEX
8
OBJECT__31
10
12.925000
20
59.261002
30
-7.196000
70
192
0
VERTEX
8
OBJECT__31
10
12.997000
20
59.896000
30
-7.273000
70
192
0
VERTEX
8
OBJECT__31
10
12.997000
20
59.896000
30
3.267000
70
192
0
VERTEX
8
OBJECT__31
10
12.925000
20
55.817001
30
-21.169001
70
192
0
VERTEX
8
OBJECT__31
10
12.997000
20
56.415001
30
-21.395000
70
192
0
VERTEX
8
OBJECT__31
10
12.997000
20
59.297001
30
-9.701000
70
192
0
VERTEX
8
OBJECT__31
10
12.925000
20
49.129002
30
-33.911999
70
192
0
VERTEX
8
OBJECT__31
10
12.997000
20
49.887001
30
-33.832001
70
192
0
VERTEX
8
OBJECT__31
10
12.997000
20
55.950001
30
-22.280001
70
192
0
VERTEX
8
OBJECT__31
10
12.997000
20
49.654999
30
-34.275002
70
192
0
VERTEX
8
OBJECT__31
10
12.925000
20
39.585999
30
-44.683998
70
192
0
VERTEX
8
OBJECT__31
10
12.997000
20
41.335999
30
-43.665001
70
192
0
VERTEX
8
OBJECT__31
10
12.997000
20
40.009998
30
-45.161999
70
192
0
VERTEX
8
OBJECT__31
10
12.925000
20
27.742001
30
-52.859001
70
192
0
VERTEX
8
OBJECT__31
10
12.997000
20
30.923000
30
-51.433998
70
192
0
VERTEX
8
OBJECT__31
10
12.997000
20
28.039000
30
-53.424999
70
192
0
VERTEX
8
OBJECT__31
10
12.925000
20
14.286000
30
-57.962002
70
192
0
VERTEX
8
OBJECT__31
10
12.997000
20
19.124001
30
-56.806000
70
192
0
VERTEX
8
OBJECT__31
10
12.997000
20
14.439000
30
-58.582001
70
192
0
VERTEX
8
OBJECT__31
10
12.925000
20
0.000000
30
-59.696999
70
192
0
VERTEX
8
OBJECT__31
10
12.997000
20
6.471000
30
-59.549999
70
192
0
VERTEX
8
OBJECT__31
10
12.997000
20
0.000000
30
-60.335999
70
192
0
VERTEX
8
OBJECT__31
10
12.925000
20
-14.286000
30
-57.962002
70
192
0
VERTEX
8
OBJECT__31
10
12.997000
20
-14.439000
30
-58.582001
70
192
0
VERTEX
8
OBJECT__31
10
12.997000
20
-6.471000
30
-59.549999
70
192
0
VERTEX
8
OBJECT__31
10
12.925000
20
-27.742001
30
-52.859001
70
192
0
VERTEX
8
OBJECT__31
10
12.997000
20
-28.039000
30
-53.424999
70
192
0
VERTEX
8
OBJECT__31
10
12.997000
20
-19.124001
30
-56.806000
70
192
0
VERTEX
8
OBJECT__31
10
12.925000
20
-39.585999
30
-44.683998
70
192
0
VERTEX
8
OBJECT__31
10
12.997000
20
-40.009998
30
-45.161999
70
192
0
VERTEX
8
OBJECT__31
10
12.997000
20
-30.923000
30
-51.433998
70
192
0
VERTEX
8
OBJECT__31
10
12.925000
20
-49.129002
30
-33.911999
70
192
0
VERTEX
8
OBJECT__31
10
12.997000
20
-49.654999
30
-34.275002
70
192
0
VERTEX
8
OBJECT__31
10
12.997000
20
-41.335999
30
-43.665001
70
192
0
VERTEX
8
OBJECT__31
10
12.925000
20
-55.817001
30
-21.169001
70
192
0
VERTEX
8
OBJECT__31
10
12.997000
20
-55.950001
30
-22.280001
70
192
0
VERTEX
8
OBJECT__31
10
12.997000
20
-49.887001
30
-33.832001
70
192
0
VERTEX
8
OBJECT__31
10
12.997000
20
-56.415001
30
-21.395000
70
192
0
VERTEX
8
OBJECT__31
10
12.925000
20
-59.261002
30
-7.196000
70
192
0
VERTEX
8
OBJECT__31
10
12.997000
20
-59.297001
30
-9.701000
70
192
0
VERTEX
8
OBJECT__31
10
12.997000
20
-59.896000
30
-7.273000
70
192
0
VERTEX
8
OBJECT__31
10
12.925000
20
-59.261002
30
7.196000
70
192
0
VERTEX
8
OBJECT__31
10
12.997000
20
-59.896000
30
3.267000
70
192
0
VERTEX
8
OBJECT__31
10
12.997000
20
-59.896000
30
7.273000
70
192
0
VERTEX
8
OBJECT__31
10
12.925000
20
-55.817001
30
21.169001
70
192
0
VERTEX
8
OBJECT__31
10
12.997000
20
-57.734001
30
16.042000
70
192
0
VERTEX
8
OBJECT__31
10
12.997000
20
-56.415001
30
21.395000
70
192
0
VERTEX
8
OBJECT__31
10
12.925000
20
-49.129002
30
33.911999
70
192
0
VERTEX
8
OBJECT__31
10
12.997000
20
-52.917999
30
28.058001
70
192
0
VERTEX
8
OBJECT__31
10
12.997000
20
-49.654999
30
34.275002
70
192
0
VERTEX
8
OBJECT__31
10
12.925000
20
-39.585999
30
44.683998
70
192
0
VERTEX
8
OBJECT__31
10
12.997000
20
-40.009998
30
45.161999
70
192
0
VERTEX
8
OBJECT__31
10
12.997000
20
-45.666000
30
38.777000
70
192
0
VERTEX
8
OBJECT__31
10
12.925000
20
-27.742001
30
52.859001
70
192
0
VERTEX
8
OBJECT__31
10
12.997000
20
-28.039000
30
53.424999
70
192
0
VERTEX
8
OBJECT__31
10
12.997000
20
-36.299999
30
47.723000
70
192
0
VERTEX
8
OBJECT__31
10
12.925000
20
-14.286000
30
57.962002
70
192
0
VERTEX
8
OBJECT__31
10
12.997000
20
-14.439000
30
58.582001
70
192
0
VERTEX
8
OBJECT__31
10
12.997000
20
-25.232000
30
54.488998
70
192
0
VERTEX
8
OBJECT__31
10
12.997000
20
0.000000
30
60.335999
70
192
0
VERTEX
8
OBJECT__31
10
12.997000
20
-12.951000
30
58.763000
70
192
0
VERTEX
8
OBJECT__31
10
0
20
0
30
0
70
128
71
1
72
2
73
3
0
VERTEX
8
OBJECT__31
10
0
20
0
30
0
70
128
71
2
72
4
73
3
0
VERTEX
8
OBJECT__31
10
0
20
0
30
0
70
128
71
2
72
5
73
6
0
VERTEX
8
OBJECT__31
10
0
20
0
30
0
70
128
71
5
72
7
73
6
0
VERTEX
8
OBJECT__31
10
0
20
0
30
0
70
128
71
5
72
8
73
9
0
VERTEX
8
OBJECT__31
10
0
20
0
30
0
70
128
71
8
72
10
73
9
0
VERTEX
8
OBJECT__31
10
0
20
0
30
0
70
128
71
8
72
11
73
12
0
VERTEX
8
OBJECT__31
10
0
20
0
30
0
70
128
71
11
72
13
73
12
0
VERTEX
8
OBJECT__31
10
0
20
0
30
0
70
128
71
14
72
15
73
16
0
VERTEX
8
OBJECT__31
10
0
20
0
30
0
70
128
71
16
72
11
73
14
0
VERTEX
8
OBJECT__31
10
0
20
0
30
0
70
128
71
17
72
18
73
19
0
VERTEX
8
OBJECT__31
10
0
20
0
30
0
70
128
71
19
72
14
73
17
0
VERTEX
8
OBJECT__31
10
0
20
0
30
0
70
128
71
20
72
21
73
22
0
VERTEX
8
OBJECT__31
10
0
20
0
30
0
70
128
71
22
72
17
73
20
0
VERTEX
8
OBJECT__31
10
0
20
0
30
0
70
128
71
23
72
24
73
25
0
VERTEX
8
OBJECT__31
10
0
20
0
30
0
70
128
71
25
72
20
73
23
0
VERTEX
8
OBJECT__31
10
0
20
0
30
0
70
128
71
26
72
27
73
28
0
VERTEX
8
OBJECT__31
10
0
20
0
30
0
70
128
71
26
72
29
73
27
0
VERTEX
8
OBJECT__31
10
0
20
0
30
0
70
128
71
28
72
23
73
26
0
VERTEX
8
OBJECT__31
10
0
20
0
30
0
70
128
71
26
72
30
73
31
0
VERTEX
8
OBJECT__31
10
0
20
0
30
0
70
128
71
30
72
32
73
31
0
VERTEX
8
OBJECT__31
10
0
20
0
30
0
70
128
71
30
72
33
73
34
0
VERTEX
8
OBJECT__31
10
0
20
0
30
0
70
128
71
33
72
35
73
34
0
VERTEX
8
OBJECT__31
10
0
20
0
30
0
70
128
71
33
72
36
73
37
0
VERTEX
8
OBJECT__31
10
0
20
0
30
0
70
128
71
36
72
38
73
37
0
VERTEX
8
OBJECT__31
10
0
20
0
30
0
70
128
71
36
72
39
73
40
0
VERTEX
8
OBJECT__31
10
0
20
0
30
0
70
128
71
39
72
41
73
40
0
VERTEX
8
OBJECT__31
10
0
20
0
30
0
70
128
71
42
72
43
73
44
0
VERTEX
8
OBJECT__31
10
0
20
0
30
0
70
128
71
44
72
39
73
42
0
VERTEX
8
OBJECT__31
10
0
20
0
30
0
70
128
71
45
72
46
73
47
0
VERTEX
8
OBJECT__31
10
0
20
0
30
0
70
128
71
47
72
42
73
45
0
VERTEX
8
OBJECT__31
10
0
20
0
30
0
70
128
71
48
72
49
73
50
0
VERTEX
8
OBJECT__31
10
0
20
0
30
0
70
128
71
50
72
45
73
48
0
VERTEX
8
OBJECT__31
10
0
20
0
30
0
70
128
71
51
72
52
73
53
0
VERTEX
8
OBJECT__31
10
0
20
0
30
0
70
128
71
53
72
48
73
51
0
VERTEX
8
OBJECT__31
10
0
20
0
30
0
70
128
71
51
72
54
73
55
0
VERTEX
8
OBJECT__31
10
0
20
0
30
0
70
128
71
55
72
56
73
51
0
VERTEX
8
OBJECT__31
10
0
20
0
30
0
70
128
71
54
72
57
73
55
0
VERTEX
8
OBJECT__31
10
0
20
0
30
0
70
128
71
54
72
58
73
59
0
VERTEX
8
OBJECT__31
10
0
20
0
30
0
70
128
71
58
72
60
73
59
0
VERTEX
8
OBJECT__31
10
0
20
0
30
0
70
128
71
58
72
61
73
62
0
VERTEX
8
OBJECT__31
10
0
20
0
30
0
70
128
71
61
72
63
73
62
0
VERTEX
8
OBJECT__31
10
0
20
0
30
0
70
128
71
61
72
64
73
65
0
VERTEX
8
OBJECT__31
10
0
20
0
30
0
70
128
71
64
72
66
73
65
0
VERTEX
8
OBJECT__31
10
0
20
0
30
0
70
128
71
64
72
67
73
68
0
VERTEX
8
OBJECT__31
10
0
20
0
30
0
70
128
71
67
72
69
73
68
0
VERTEX
8
OBJECT__31
10
0
20
0
30
0
70
128
71
70
72
71
73
72
0
VERTEX
8
OBJECT__31
10
0
20
0
30
0
70
128
71
72
72
67
73
70
0
VERTEX
8
OBJECT__31
10
0
20
0
30
0
70
128
71
73
72
74
73
75
0
VERTEX
8
OBJECT__31
10
0
20
0
30
0
70
128
71
75
72
70
73
73
0
VERTEX
8
OBJECT__31
10
0
20
0
30
0
70
128
71
76
72
77
73
78
0
VERTEX
8
OBJECT__31
10
0
20
0
30
0
70
128
71
78
72
73
73
76
0
VERTEX
8
OBJECT__31
10
0
20
0
30
0
70
128
71
1
72
79
73
80
0
VERTEX
8
OBJECT__31
10
0
20
0
30
0
70
128
71
80
72
76
73
1
0
VERTEX
8
OBJECT__31
10
0
20
0
30
0
70
128
71
80
72
77
73
76
0
VERTEX
8
OBJECT__31
10
0
20
0
30
0
70
128
71
78
72
74
73
73
0
VERTEX
8
OBJECT__31
10
0
20
0
30
0
70
128
71
75
72
71
73
70
0
VERTEX
8
OBJECT__31
10
0
20
0
30
0
70
128
71
72
72
69
73
67
0
VERTEX
8
OBJECT__31
10
0
20
0
30
0
70
128
71
68
72
66
73
64
0
VERTEX
8
OBJECT__31
10
0
20
0
30
0
70
128
71
65
72
63
73
61
0
VERTEX
8
OBJECT__31
10
0
20
0
30
0
70
128
71
62
72
60
73
58
0
VERTEX
8
OBJECT__31
10
0
20
0
30
0
70
128
71
59
72
57
73
54
0
VERTEX
8
OBJECT__31
10
0
20
0
30
0
70
128
71
56
72
52
73
51
0
VERTEX
8
OBJECT__31
10
0
20
0
30
0
70
128
71
53
72
49
73
48
0
VERTEX
8
OBJECT__31
10
0
20
0
30
0
70
128
71
50
72
46
73
45
0
VERTEX
8
OBJECT__31
10
0
20
0
30
0
70
128
71
47
72
43
73
42
0
VERTEX
8
OBJECT__31
10
0
20
0
30
0
70
128
71
44
72
41
73
39
0
VERTEX
8
OBJECT__31
10
0
20
0
30
0
70
128
71
40
72
38
73
36
0
VERTEX
8
OBJECT__31
10
0
20
0
30
0
70
128
71
37
72
35
73
33
0
VERTEX
8
OBJECT__31
10
0
20
0
30
0
70
128
71
34
72
32
73
30
0
VERTEX
8
OBJECT__31
10
0
20
0
30
0
70
128
71
31
72
29
73
26
0
VERTEX
8
OBJECT__31
10
0
20
0
30
0
70
128
71
28
72
24
73
23
0
VERTEX
8
OBJECT__31
10
0
20
0
30
0
70
128
71
25
72
21
73
20
0
VERTEX
8
OBJECT__31
10
0
20
0
30
0
70
128
71
22
72
18
73
17
0
VERTEX
8
OBJECT__31
10
0
20
0
30
0
70
128
71
19
72
15
73
14
0
VERTEX
8
OBJECT__31
10
0
20
0
30
0
70
128
71
16
72
13
73
11
0
VERTEX
8
OBJECT__31
10
0
20
0
30
0
70
128
71
12
72
10
73
8
0
VERTEX
8
OBJECT__31
10
0
20
0
30
0
70
128
71
9
72
7
73
5
0
VERTEX
8
OBJECT__31
10
0
20
0
30
0
70
128
71
6
72
4
73
2
0
VERTEX
8
OBJECT__31
10
0
20
0
30
0
70
128
71
3
72
79
73
1
0
SEQEND
8
OBJECT__31
0
POLYLINE
8
OBJECT__33
66
1
70
64
71
132
72
161
62
253
0
VERTEX
8
OBJECT__33
10
11.266000
20
14.649000
30
66.553001
70
192
0
VERTEX
8
OBJECT__33
10
11.266000
20
0.000000
30
68.146004
70
192
0
VERTEX
8
OBJECT__33
10
12.997000
20
0.000000
30
60.335999
70
192
0
VERTEX
8
OBJECT__33
10
11.266000
20
28.614000
30
61.848000
70
192
0
VERTEX
8
OBJECT__33
10
12.997000
20
14.439000
30
58.582001
70
192
0
VERTEX
8
OBJECT__33
10
12.997000
20
12.951000
30
58.763000
70
192
0
VERTEX
8
OBJECT__33
10
11.266000
20
41.240002
30
54.250999
70
192
0
VERTEX
8
OBJECT__33
10
12.997000
20
28.039000
30
53.424999
70
192
0
VERTEX
8
OBJECT__33
10
12.997000
20
25.232000
30
54.488998
70
192
0
VERTEX
8
OBJECT__33
10
11.266000
20
51.938999
30
44.117001
70
192
0
VERTEX
8
OBJECT__33
10
12.997000
20
40.009998
30
45.161999
70
192
0
VERTEX
8
OBJECT__33
10
12.997000
20
36.299999
30
47.723000
70
192
0
VERTEX
8
OBJECT__33
10
11.266000
20
60.208000
30
31.920000
70
192
0
VERTEX
8
OBJECT__33
10
12.997000
20
49.654999
30
34.275002
70
192
0
VERTEX
8
OBJECT__33
10
12.997000
20
45.666000
30
38.777000
70
192
0
VERTEX
8
OBJECT__33
10
12.997000
20
52.917999
30
28.058001
70
192
0
VERTEX
8
OBJECT__33
10
12.997000
20
56.415001
30
21.395000
70
192
0
VERTEX
8
OBJECT__33
10
11.266000
20
65.662003
30
18.231001
70
192
0
VERTEX
8
OBJECT__33
10
12.997000
20
57.734001
30
16.042000
70
192
0
VERTEX
8
OBJECT__33
10
12.997000
20
59.896000
30
7.273000
70
192
0
VERTEX
8
OBJECT__33
10
11.266000
20
68.045998
30
3.689000
70
192
0
VERTEX
8
OBJECT__33
10
12.997000
20
59.896000
30
3.267000
70
192
0
VERTEX
8
OBJECT__33
10
12.997000
20
59.896000
30
-7.273000
70
192
0
VERTEX
8
OBJECT__33
10
11.266000
20
67.249001
30
-11.025000
70
192
0
VERTEX
8
OBJECT__33
10
12.997000
20
59.297001
30
-9.701000
70
192
0
VERTEX
8
OBJECT__33
10
12.997000
20
56.415001
30
-21.395000
70
192
0
VERTEX
8
OBJECT__33
10
11.266000
20
63.306000
30
-25.224001
70
192
0
VERTEX
8
OBJECT__33
10
12.997000
20
55.950001
30
-22.280001
70
192
0
VERTEX
8
OBJECT__33
10
12.997000
20
49.887001
30
-33.832001
70
192
0
VERTEX
8
OBJECT__33
10
11.266000
20
46.863998
30
-49.473999
70
192
0
VERTEX
8
OBJECT__33
10
11.266000
20
56.403999
30
-38.243000
70
192
0
VERTEX
8
OBJECT__33
10
12.997000
20
49.654999
30
-34.275002
70
192
0
VERTEX
8
OBJECT__33
10
11.266000
20
35.132999
30
-58.391998
70
192
0
VERTEX
8
OBJECT__33
10
12.997000
20
40.009998
30
-45.161999
70
192
0
VERTEX
8
OBJECT__33
10
12.997000
20
41.335999
30
-43.665001
70
192
0
VERTEX
8
OBJECT__33
10
11.266000
20
21.759001
30
-64.579002
70
192
0
VERTEX
8
OBJECT__33
10
12.997000
20
28.039000
30
-53.424999
70
192
0
VERTEX
8
OBJECT__33
10
12.997000
20
30.923000
30
-51.433998
70
192
0
VERTEX
8
OBJECT__33
10
11.266000
20
7.368000
30
-67.747002
70
192
0
VERTEX
8
OBJECT__33
10
12.997000
20
14.439000
30
-58.582001
70
192
0
VERTEX
8
OBJECT__33
10
12.997000
20
19.124001
30
-56.806000
70
192
0
VERTEX
8
OBJECT__33
10
11.266000
20
-7.368000
30
-67.747002
70
192
0
VERTEX
8
OBJECT__33
10
12.997000
20
0.000000
30
-60.335999
70
192
0
VERTEX
8
OBJECT__33
10
12.997000
20
6.471000
30
-59.549999
70
192
0
VERTEX
8
OBJECT__33
10
12.997000
20
-6.471000
30
-59.549999
70
192
0
VERTEX
8
OBJECT__33
10
12.997000
20
-14.439000
30
-58.582001
70
192
0
VERTEX
8
OBJECT__33
10
11.266000
20
-21.759001
30
-64.579002
70
192
0
VERTEX
8
OBJECT__33
10
12.997000
20
-19.124001
30
-56.806000
70
192
0
VERTEX
8
OBJECT__33
10
12.997000
20
-28.039000
30
-53.424999
70
192
0
VERTEX
8
OBJECT__33
10
11.266000
20
-35.132999
30
-58.391998
70
192
0
VERTEX
8
OBJECT__33
10
12.997000
20
-30.923000
30
-51.433998
70
192
0
VERTEX
8
OBJECT__33
10
12.997000
20
-40.009998
30
-45.161999
70
192
0
VERTEX
8
OBJECT__33
10
11.266000
20
-46.863998
30
-49.473999
70
192
0
VERTEX
8
OBJECT__33
10
12.997000
20
-41.335999
30
-43.665001
70
192
0
VERTEX
8
OBJECT__33
10
12.997000
20
-49.654999
30
-34.275002
70
192
0
VERTEX
8
OBJECT__33
10
11.266000
20
-56.403999
30
-38.243000
70
192
0
VERTEX
8
OBJECT__33
10
11.266000
20
-63.306000
30
-25.224001
70
192
0
VERTEX
8
OBJECT__33
10
12.997000
20
-49.887001
30
-33.832001
70
192
0
VERTEX
8
OBJECT__33
10
11.266000
20
-67.249001
30
-11.025000
70
192
0
VERTEX
8
OBJECT__33
10
12.997000
20
-56.415001
30
-21.395000
70
192
0
VERTEX
8
OBJECT__33
10
12.997000
20
-55.950001
30
-22.280001
70
192
0
VERTEX
8
OBJECT__33
10
11.266000
20
-68.045998
30
3.689000
70
192
0
VERTEX
8
OBJECT__33
10
12.997000
20
-59.896000
30
-7.273000
70
192
0
VERTEX
8
OBJECT__33
10
12.997000
20
-59.297001
30
-9.701000
70
192
0
VERTEX
8
OBJECT__33
10
11.266000
20
-65.662003
30
18.231001
70
192
0
VERTEX
8
OBJECT__33
10
12.997000
20
-59.896000
30
7.273000
70
192
0
VERTEX
8
OBJECT__33
10
12.997000
20
-59.896000
30
3.267000
70
192
0
VERTEX
8
OBJECT__33
10
11.266000
20
-60.208000
30
31.920000
70
192
0
VERTEX
8
OBJECT__33
10
12.997000
20
-56.415001
30
21.395000
70
192
0
VERTEX
8
OBJECT__33
10
12.997000
20
-57.734001
30
16.042000
70
192
0
VERTEX
8
OBJECT__33
10
12.997000
20
-52.917999
30
28.058001
70
192
0
VERTEX
8
OBJECT__33
10
12.997000
20
-49.654999
30
34.275002
70
192
0
VERTEX
8
OBJECT__33
10
11.266000
20
-51.938999
30
44.117001
70
192
0
VERTEX
8
OBJECT__33
10
12.997000
20
-45.666000
30
38.777000
70
192
0
VERTEX
8
OBJECT__33
10
12.997000
20
-40.009998
30
45.161999
70
192
0
VERTEX
8
OBJECT__33
10
11.266000
20
-41.240002
30
54.250999
70
192
0
VERTEX
8
OBJECT__33
10
12.997000
20
-36.299999
30
47.723000
70
192
0
VERTEX
8
OBJECT__33
10
12.997000
20
-28.039000
30
53.424999
70
192
0
VERTEX
8
OBJECT__33
10
11.266000
20
-28.614000
30
61.848000
70
192
0
VERTEX
8
OBJECT__33
10
12.997000
20
-25.232000
30
54.488998
70
192
0
VERTEX
8
OBJECT__33
10
12.997000
20
-14.439000
30
58.582001
70
192
0
VERTEX
8
OBJECT__33
10
11.266000
20
-14.649000
30
66.553001
70
192
0
VERTEX
8
OBJECT__33
10
12.997000
20
-12.951000
30
58.763000
70
192
0
VERTEX
8
OBJECT__33
10
6.612000
20
16.048000
30
72.907997
70
192
0
VERTEX
8
OBJECT__33
10
6.612000
20
0.000000
30
74.653999
70
192
0
VERTEX
8
OBJECT__33
10
6.612000
20
31.346001
30
67.753998
70
192
0
VERTEX
8
OBJECT__33
10
6.612000
20
21.872999
30
70.945999
70
192
0
VERTEX
8
OBJECT__33
10
6.612000
20
41.889999
30
61.410000
70
192
0
VERTEX
8
OBJECT__33
10
6.612000
20
45.178001
30
59.431000
70
192
0
VERTEX
8
OBJECT__33
10
6.612000
20
56.897999
30
48.330002
70
192
0
VERTEX
8
OBJECT__33
10
6.612000
20
65.957001
30
34.967999
70
192
0
VERTEX
8
OBJECT__33
10
6.612000
20
58.188999
30
46.424999
70
192
0
VERTEX
8
OBJECT__33
10
6.612000
20
69.086998
30
27.112000
70
192
0
VERTEX
8
OBJECT__33
10
6.612000
20
71.931999
30
19.972000
70
192
0
VERTEX
8
OBJECT__33
10
6.612000
20
74.295998
30
5.554000
70
192
0
VERTEX
8
OBJECT__33
10
6.612000
20
74.543999
30
4.042000
70
192
0
VERTEX
8
OBJECT__33
10
6.612000
20
73.669998
30
-12.078000
70
192
0
VERTEX
8
OBJECT__33
10
6.612000
20
69.350998
30
-27.632000
70
192
0
VERTEX
8
OBJECT__33
10
6.612000
20
72.438004
30
-16.516001
70
192
0
VERTEX
8
OBJECT__33
10
6.612000
20
64.307999
30
-37.145000
70
192
0
VERTEX
8
OBJECT__33
10
6.612000
20
61.790001
30
-41.895000
70
192
0
VERTEX
8
OBJECT__33
10
6.612000
20
51.339001
30
-54.198002
70
192
0
VERTEX
8
OBJECT__33
10
6.612000
20
50.729000
30
-54.661999
70
192
0
VERTEX
8
OBJECT__33
10
6.612000
20
38.487999
30
-63.966999
70
192
0
VERTEX
8
OBJECT__33
10
6.612000
20
23.837000
30
-70.746002
70
192
0
VERTEX
8
OBJECT__33
10
6.612000
20
32.210999
30
-66.871002
70
192
0
VERTEX
8
OBJECT__33
10
6.612000
20
11.069000
30
-73.556000
70
192
0
VERTEX
8
OBJECT__33
10
6.612000
20
8.071000
30
-74.216003
70
192
0
VERTEX
8
OBJECT__33
10
6.612000
20
-23.837000
30
-70.746002
70
192
0
VERTEX
8
OBJECT__33
10
6.612000
20
-11.069000
30
-73.556000
70
192
0
VERTEX
8
OBJECT__33
10
6.612000
20
-32.210999
30
-66.871002
70
192
0
VERTEX
8
OBJECT__33
10
6.612000
20
-38.487999
30
-63.966999
70
192
0
VERTEX
8
OBJECT__33
10
6.612000
20
-50.729000
30
-54.661999
70
192
0
VERTEX
8
OBJECT__33
10
6.612000
20
-51.339001
30
-54.198002
70
192
0
VERTEX
8
OBJECT__33
10
6.612000
20
-61.790001
30
-41.895000
70
192
0
VERTEX
8
OBJECT__33
10
6.612000
20
-69.350998
30
-27.632000
70
192
0
VERTEX
8
OBJECT__33
10
6.612000
20
-64.307999
30
-37.145000
70
192
0
VERTEX
8
OBJECT__33
10
6.612000
20
-72.438004
30
-16.516001
70
192
0
VERTEX
8
OBJECT__33
10
6.612000
20
-73.669998
30
-12.078000
70
192
0
VERTEX
8
OBJECT__33
10
6.612000
20
-74.543999
30
4.042000
70
192
0
VERTEX
8
OBJECT__33
10
6.612000
20
-71.931999
30
19.972000
70
192
0
VERTEX
8
OBJECT__33
10
6.612000
20
-74.295998
30
5.554000
70
192
0
VERTEX
8
OBJECT__33
10
6.612000
20
-65.957001
30
34.967999
70
192
0
VERTEX
8
OBJECT__33
10
6.612000
20
-69.086998
30
27.112000
70
192
0
VERTEX
8
OBJECT__33
10
6.612000
20
-58.188999
30
46.424999
70
192
0
VERTEX
8
OBJECT__33
10
6.612000
20
-56.897999
30
48.330002
70
192
0
VERTEX
8
OBJECT__33
10
6.612000
20
-45.178001
30
59.431000
70
192
0
VERTEX
8
OBJECT__33
10
6.612000
20
-31.346001
30
67.753998
70
192
0
VERTEX
8
OBJECT__33
10
6.612000
20
-41.889999
30
61.410000
70
192
0
VERTEX
8
OBJECT__33
10
6.612000
20
-21.872999
30
70.945999
70
192
0
VERTEX
8
OBJECT__33
10
6.612000
20
-16.048000
30
72.907997
70
192
0
VERTEX
8
OBJECT__33
10
6.612000
20
-8.071000
30
-74.216003
70
192
0
VERTEX
8
OBJECT__33
10
0
20
0
30
0
70
128
71
1
72
2
73
3
0
VERTEX
8
OBJECT__33
10
0
20
0
30
0
70
128
71
4
72
1
73
5
0
VERTEX
8
OBJECT__33
10
0
20
0
30
0
70
128
71
1
72
6
73
5
0
VERTEX
8
OBJECT__33
10
0
20
0
30
0
70
128
71
7
72
4
73
8
0
VERTEX
8
OBJECT__33
10
0
20
0
30
0
70
128
71
4
72
9
73
8
0
VERTEX
8
OBJECT__33
10
0
20
0
30
0
70
128
71
10
72
7
73
11
0
VERTEX
8
OBJECT__33
10
0
20
0
30
0
70
128
71
7
72
12
73
11
0
VERTEX
8
OBJECT__33
10
0
20
0
30
0
70
128
71
13
72
10
73
14
0
VERTEX
8
OBJECT__33
10
0
20
0
30
0
70
128
71
10
72
15
73
14
0
VERTEX
8
OBJECT__33
10
0
20
0
30
0
70
128
71
13
72
16
73
17
0
VERTEX
8
OBJECT__33
10
0
20
0
30
0
70
128
71
17
72
18
73
13
0
VERTEX
8
OBJECT__33
10
0
20
0
30
0
70
128
71
18
72
19
73
20
0
VERTEX
8
OBJECT__33
10
0
20
0
30
0
70
128
71
20
72
21
73
18
0
VERTEX
8
OBJECT__33
10
0
20
0
30
0
70
128
71
21
72
22
73
23
0
VERTEX
8
OBJECT__33
10
0
20
0
30
0
70
128
71
23
72
24
73
21
0
VERTEX
8
OBJECT__33
10
0
20
0
30
0
70
128
71
24
72
25
73
26
0
VERTEX
8
OBJECT__33
10
0
20
0
30
0
70
128
71
26
72
27
73
24
0
VERTEX
8
OBJECT__33
10
0
20
0
30
0
70
128
71
27
72
28
73
29
0
VERTEX
8
OBJECT__33
10
0
20
0
30
0
70
128
71
30
72
31
73
32
0
VERTEX
8
OBJECT__33
10
0
20
0
30
0
70
128
71
31
72
29
73
32
0
VERTEX
8
OBJECT__33
10
0
20
0
30
0
70
128
71
33
72
30
73
34
0
VERTEX
8
OBJECT__33
10
0
20
0
30
0
70
128
71
30
72
35
73
34
0
VERTEX
8
OBJECT__33
10
0
20
0
30
0
70
128
71
36
72
33
73
37
0
VERTEX
8
OBJECT__33
10
0
20
0
30
0
70
128
71
33
72
38
73
37
0
VERTEX
8
OBJECT__33
10
0
20
0
30
0
70
128
71
39
72
36
73
40
0
VERTEX
8
OBJECT__33
10
0
20
0
30
0
70
128
71
36
72
41
73
40
0
VERTEX
8
OBJECT__33
10
0
20
0
30
0
70
128
71
42
72
39
73
43
0
VERTEX
8
OBJECT__33
10
0
20
0
30
0
70
128
71
39
72
44
73
43
0
VERTEX
8
OBJECT__33
10
0
20
0
30
0
70
128
71
42
72
45
73
46
0
VERTEX
8
OBJECT__33
10
0
20
0
30
0
70
128
71
46
72
47
73
42
0
VERTEX
8
OBJECT__33
10
0
20
0
30
0
70
128
71
47
72
48
73
49
0
VERTEX
8
OBJECT__33
10
0
20
0
30
0
70
128
71
49
72
50
73
47
0
VERTEX
8
OBJECT__33
10
0
20
0
30
0
70
128
71
50
72
51
73
52
0
VERTEX
8
OBJECT__33
10
0
20
0
30
0
70
128
71
52
72
53
73
50
0
VERTEX
8
OBJECT__33
10
0
20
0
30
0
70
128
71
53
72
54
73
55
0
VERTEX
8
OBJECT__33
10
0
20
0
30
0
70
128
71
55
72
56
73
53
0
VERTEX
8
OBJECT__33
10
0
20
0
30
0
70
128
71
57
72
56
73
58
0
VERTEX
8
OBJECT__33
10
0
20
0
30
0
70
128
71
59
72
57
73
60
0
VERTEX
8
OBJECT__33
10
0
20
0
30
0
70
128
71
57
72
61
73
60
0
VERTEX
8
OBJECT__33
10
0
20
0
30
0
70
128
71
62
72
59
73
63
0
VERTEX
8
OBJECT__33
10
0
20
0
30
0
70
128
71
59
72
64
73
63
0
VERTEX
8
OBJECT__33
10
0
20
0
30
0
70
128
71
65
72
62
73
66
0
VERTEX
8
OBJECT__33
10
0
20
0
30
0
70
128
71
62
72
67
73
66
0
VERTEX
8
OBJECT__33
10
0
20
0
30
0
70
128
71
68
72
65
73
69
0
VERTEX
8
OBJECT__33
10
0
20
0
30
0
70
128
71
65
72
70
73
69
0
VERTEX
8
OBJECT__33
10
0
20
0
30
0
70
128
71
68
72
71
73
72
0
VERTEX
8
OBJECT__33
10
0
20
0
30
0
70
128
71
72
72
73
73
68
0
VERTEX
8
OBJECT__33
10
0
20
0
30
0
70
128
71
73
72
74
73
75
0
VERTEX
8
OBJECT__33
10
0
20
0
30
0
70
128
71
75
72
76
73
73
0
VERTEX
8
OBJECT__33
10
0
20
0
30
0
70
128
71
76
72
77
73
78
0
VERTEX
8
OBJECT__33
10
0
20
0
30
0
70
128
71
78
72
79
73
76
0
VERTEX
8
OBJECT__33
10
0
20
0
30
0
70
128
71
79
72
80
73
81
0
VERTEX
8
OBJECT__33
10
0
20
0
30
0
70
128
71
81
72
82
73
79
0
VERTEX
8
OBJECT__33
10
0
20
0
30
0
70
128
71
82
72
83
73
3
0
VERTEX
8
OBJECT__33
10
0
20
0
30
0
70
128
71
84
72
85
73
2
0
VERTEX
8
OBJECT__33
10
0
20
0
30
0
70
128
71
4
72
86
73
87
0
VERTEX
8
OBJECT__33
10
0
20
0
30
0
70
128
71
87
72
1
73
4
0
VERTEX
8
OBJECT__33
10
0
20
0
30
0
70
128
71
4
72
7
73
88
0
VERTEX
8
OBJECT__33
10
0
20
0
30
0
70
128
71
7
72
89
73
88
0
VERTEX
8
OBJECT__33
10
0
20
0
30
0
70
128
71
90
72
89
73
7
0
VERTEX
8
OBJECT__33
10
0
20
0
30
0
70
128
71
13
72
91
73
92
0
VERTEX
8
OBJECT__33
10
0
20
0
30
0
70
128
71
92
72
10
73
13
0
VERTEX
8
OBJECT__33
10
0
20
0
30
0
70
128
71
13
72
18
73
93
0
VERTEX
8
OBJECT__33
10
0
20
0
30
0
70
128
71
18
72
94
73
93
0
VERTEX
8
OBJECT__33
10
0
20
0
30
0
70
128
71
18
72
21
73
95
0
VERTEX
8
OBJECT__33
10
0
20
0
30
0
70
128
71
21
72
96
73
95
0
VERTEX
8
OBJECT__33
10
0
20
0
30
0
70
128
71
97
72
96
73
21
0
VERTEX
8
OBJECT__33
10
0
20
0
30
0
70
128
71
27
72
98
73
99
0
VERTEX
8
OBJECT__33
10
0
20
0
30
0
70
128
71
99
72
24
73
27
0
VERTEX
8
OBJECT__33
10
0
20
0
30
0
70
128
71
27
72
31
73
100
0
VERTEX
8
OBJECT__33
10
0
20
0
30
0
70
128
71
31
72
101
73
100
0
VERTEX
8
OBJECT__33
10
0
20
0
30
0
70
128
71
102
72
101
73
31
0
VERTEX
8
OBJECT__33
10
0
20
0
30
0
70
128
71
103
72
30
73
33
0
VERTEX
8
OBJECT__33
10
0
20
0
30
0
70
128
71
33
72
104
73
103
0
VERTEX
8
OBJECT__33
10
0
20
0
30
0
70
128
71
36
72
105
73
106
0
VERTEX
8
OBJECT__33
10
0
20
0
30
0
70
128
71
106
72
33
73
36
0
VERTEX
8
OBJECT__33
10
0
20
0
30
0
70
128
71
36
72
39
73
107
0
VERTEX
8
OBJECT__33
10
0
20
0
30
0
70
128
71
39
72
108
73
107
0
VERTEX
8
OBJECT__33
10
0
20
0
30
0
70
128
71
108
72
39
73
42
0
VERTEX
8
OBJECT__33
10
0
20
0
30
0
70
128
71
47
72
109
73
110
0
VERTEX
8
OBJECT__33
10
0
20
0
30
0
70
128
71
110
72
42
73
47
0
VERTEX
8
OBJECT__33
10
0
20
0
30
0
70
128
71
47
72
50
73
111
0
VERTEX
8
OBJECT__33
10
0
20
0
30
0
70
128
71
50
72
112
73
111
0
VERTEX
8
OBJECT__33
10
0
20
0
30
0
70
128
71
113
72
112
73
50
0
VERTEX
8
OBJECT__33
10
0
20
0
30
0
70
128
71
53
72
114
73
113
0
VERTEX
8
OBJECT__33
10
0
20
0
30
0
70
128
71
115
72
114
73
53
0
VERTEX
8
OBJECT__33
10
0
20
0
30
0
70
128
71
57
72
116
73
117
0
VERTEX
8
OBJECT__33
10
0
20
0
30
0
70
128
71
117
72
56
73
57
0
VERTEX
8
OBJECT__33
10
0
20
0
30
0
70
128
71
57
72
59
73
118
0
VERTEX
8
OBJECT__33
10
0
20
0
30
0
70
128
71
59
72
119
73
118
0
VERTEX
8
OBJECT__33
10
0
20
0
30
0
70
128
71
120
72
119
73
59
0
VERTEX
8
OBJECT__33
10
0
20
0
30
0
70
128
71
65
72
121
73
122
0
VERTEX
8
OBJECT__33
10
0
20
0
30
0
70
128
71
122
72
62
73
65
0
VERTEX
8
OBJECT__33
10
0
20
0
30
0
70
128
71
68
72
123
73
124
0
VERTEX
8
OBJECT__33
10
0
20
0
30
0
70
128
71
124
72
65
73
68
0
VERTEX
8
OBJECT__33
10
0
20
0
30
0
70
128
71
68
72
73
73
125
0
VERTEX
8
OBJECT__33
10
0
20
0
30
0
70
128
71
73
72
126
73
125
0
VERTEX
8
OBJECT__33
10
0
20
0
30
0
70
128
71
127
72
126
73
73
0
VERTEX
8
OBJECT__33
10
0
20
0
30
0
70
128
71
79
72
128
73
129
0
VERTEX
8
OBJECT__33
10
0
20
0
30
0
70
128
71
129
72
76
73
79
0
VERTEX
8
OBJECT__33
10
0
20
0
30
0
70
128
71
79
72
82
73
130
0
VERTEX
8
OBJECT__33
10
0
20
0
30
0
70
128
71
82
72
131
73
130
0
VERTEX
8
OBJECT__33
10
0
20
0
30
0
70
128
71
131
72
82
73
2
0
VERTEX
8
OBJECT__33
10
0
20
0
30
0
70
128
71
2
72
85
73
131
0
VERTEX
8
OBJECT__33
10
0
20
0
30
0
70
128
71
130
72
128
73
79
0
VERTEX
8
OBJECT__33
10
0
20
0
30
0
70
128
71
129
72
127
73
76
0
VERTEX
8
OBJECT__33
10
0
20
0
30
0
70
128
71
73
72
76
73
127
0
VERTEX
8
OBJECT__33
10
0
20
0
30
0
70
128
71
125
72
123
73
68
0
VERTEX
8
OBJECT__33
10
0
20
0
30
0
70
128
71
124
72
121
73
65
0
VERTEX
8
OBJECT__33
10
0
20
0
30
0
70
128
71
122
72
120
73
62
0
VERTEX
8
OBJECT__33
10
0
20
0
30
0
70
128
71
59
72
62
73
120
0
VERTEX
8
OBJECT__33
10
0
20
0
30
0
70
128
71
118
72
116
73
57
0
VERTEX
8
OBJECT__33
10
0
20
0
30
0
70
128
71
117
72
115
73
56
0
VERTEX
8
OBJECT__33
10
0
20
0
30
0
70
128
71
53
72
56
73
115
0
VERTEX
8
OBJECT__33
10
0
20
0
30
0
70
128
71
50
72
53
73
113
0
VERTEX
8
OBJECT__33
10
0
20
0
30
0
70
128
71
111
72
109
73
47
0
VERTEX
8
OBJECT__33
10
0
20
0
30
0
70
128
71
110
72
132
73
42
0
VERTEX
8
OBJECT__33
10
0
20
0
30
0
70
128
71
42
72
132
73
108
0
VERTEX
8
OBJECT__33
10
0
20
0
30
0
70
128
71
107
72
105
73
36
0
VERTEX
8
OBJECT__33
10
0
20
0
30
0
70
128
71
106
72
104
73
33
0
VERTEX
8
OBJECT__33
10
0
20
0
30
0
70
128
71
103
72
102
73
30
0
VERTEX
8
OBJECT__33
10
0
20
0
30
0
70
128
71
31
72
30
73
102
0
VERTEX
8
OBJECT__33
10
0
20
0
30
0
70
128
71
100
72
98
73
27
0
VERTEX
8
OBJECT__33
10
0
20
0
30
0
70
128
71
99
72
97
73
24
0
VERTEX
8
OBJECT__33
10
0
20
0
30
0
70
128
71
21
72
24
73
97
0
VERTEX
8
OBJECT__33
10
0
20
0
30
0
70
128
71
95
72
94
73
18
0
VERTEX
8
OBJECT__33
10
0
20
0
30
0
70
128
71
93
72
91
73
13
0
VERTEX
8
OBJECT__33
10
0
20
0
30
0
70
128
71
92
72
90
73
10
0
VERTEX
8
OBJECT__33
10
0
20
0
30
0
70
128
71
7
72
10
73
90
0
VERTEX
8
OBJECT__33
10
0
20
0
30
0
70
128
71
88
72
86
73
4
0
VERTEX
8
OBJECT__33
10
0
20
0
30
0
70
128
71
87
72
84
73
1
0
VERTEX
8
OBJECT__33
10
0
20
0
30
0
70
128
71
2
72
1
73
84
0
VERTEX
8
OBJECT__33
10
0
20
0
30
0
70
128
71
3
72
2
73
82
0
VERTEX
8
OBJECT__33
10
0
20
0
30
0
70
128
71
81
72
83
73
82
0
VERTEX
8
OBJECT__33
10
0
20
0
30
0
70
128
71
78
72
80
73
79
0
VERTEX
8
OBJECT__33
10
0
20
0
30
0
70
128
71
75
72
77
73
76
0
VERTEX
8
OBJECT__33
10
0
20
0
30
0
70
128
71
72
72
74
73
73
0
VERTEX
8
OBJECT__33
10
0
20
0
30
0
70
128
71
69
72
71
73
68
0
VERTEX
8
OBJECT__33
10
0
20
0
30
0
70
128
71
66
72
70
73
65
0
VERTEX
8
OBJECT__33
10
0
20
0
30
0
70
128
71
63
72
67
73
62
0
VERTEX
8
OBJECT__33
10
0
20
0
30
0
70
128
71
60
72
64
73
59
0
VERTEX
8
OBJECT__33
10
0
20
0
30
0
70
128
71
58
72
61
73
57
0
VERTEX
8
OBJECT__33
10
0
20
0
30
0
70
128
71
55
72
58
73
56
0
VERTEX
8
OBJECT__33
10
0
20
0
30
0
70
128
71
52
72
54
73
53
0
VERTEX
8
OBJECT__33
10
0
20
0
30
0
70
128
71
49
72
51
73
50
0
VERTEX
8
OBJECT__33
10
0
20
0
30
0
70
128
71
46
72
48
73
47
0
VERTEX
8
OBJECT__33
10
0
20
0
30
0
70
128
71
43
72
45
73
42
0
VERTEX
8
OBJECT__33
10
0
20
0
30
0
70
128
71
40
72
44
73
39
0
VERTEX
8
OBJECT__33
10
0
20
0
30
0
70
128
71
37
72
41
73
36
0
VERTEX
8
OBJECT__33
10
0
20
0
30
0
70
128
71
34
72
38
73
33
0
VERTEX
8
OBJECT__33
10
0
20
0
30
0
70
128
71
32
72
35
73
30
0
VERTEX
8
OBJECT__33
10
0
20
0
30
0
70
128
71
29
72
31
73
27
0
VERTEX
8
OBJECT__33
10
0
20
0
30
0
70
128
71
26
72
28
73
27
0
VERTEX
8
OBJECT__33
10
0
20
0
30
0
70
128
71
23
72
25
73
24
0
VERTEX
8
OBJECT__33
10
0
20
0
30
0
70
128
71
20
72
22
73
21
0
VERTEX
8
OBJECT__33
10
0
20
0
30
0
70
128
71
17
72
19
73
18
0
VERTEX
8
OBJECT__33
10
0
20
0
30
0
70
128
71
14
72
16
73
13
0
VERTEX
8
OBJECT__33
10
0
20
0
30
0
70
128
71
11
72
15
73
10
0
VERTEX
8
OBJECT__33
10
0
20
0
30
0
70
128
71
8
72
12
73
7
0
VERTEX
8
OBJECT__33
10
0
20
0
30
0
70
128
71
5
72
9
73
4
0
VERTEX
8
OBJECT__33
10
0
20
0
30
0
70
128
71
3
72
6
73
1
0
SEQEND
8
OBJECT__33
0
POLYLINE
8
OBJECT__34
66
1
70
64
71
70
72
70
62
253
0
VERTEX
8
OBJECT__34
10
0.000000
20
0.000000
30
75.000000
70
192
0
VERTEX
8
OBJECT__34
10
6.612000
20
0.000000
30
74.653999
70
192
0
VERTEX
8
OBJECT__34
10
6.612000
20
16.048000
30
72.907997
70
192
0
VERTEX
8
OBJECT__34
10
0.000000
20
22.107000
30
71.667999
70
192
0
VERTEX
8
OBJECT__34
10
0.000000
20
42.249001
30
61.967999
70
192
0
VERTEX
8
OBJECT__34
10
6.612000
20
31.346001
30
67.753998
70
192
0
VERTEX
8
OBJECT__34
10
6.612000
20
21.872999
30
70.945999
70
192
0
VERTEX
8
OBJECT__34
10
0.000000
20
58.637001
30
46.762001
70
192
0
VERTEX
8
OBJECT__34
10
6.612000
20
45.178001
30
59.431000
70
192
0
VERTEX
8
OBJECT__34
10
6.612000
20
41.889999
30
61.410000
70
192
0
VERTEX
8
OBJECT__34
10
6.612000
20
56.897999
30
48.330002
70
192
0
VERTEX
8
OBJECT__34
10
6.612000
20
58.188999
30
46.424999
70
192
0
VERTEX
8
OBJECT__34
10
6.612000
20
65.957001
30
34.967999
70
192
0
VERTEX
8
OBJECT__34
10
0.000000
20
69.816002
30
27.400999
70
192
0
VERTEX
8
OBJECT__34
10
0.000000
20
74.790001
30
5.605000
70
192
0
VERTEX
8
OBJECT__34
10
6.612000
20
71.931999
30
19.972000
70
192
0
VERTEX
8
OBJECT__34
10
6.612000
20
69.086998
30
27.112000
70
192
0
VERTEX
8
OBJECT__34
10
6.612000
20
74.543999
30
4.042000
70
192
0
VERTEX
8
OBJECT__34
10
6.612000
20
73.669998
30
-12.078000
70
192
0
VERTEX
8
OBJECT__34
10
0.000000
20
73.120003
30
-16.688999
70
192
0
VERTEX
8
OBJECT__34
10
6.612000
20
74.295998
30
5.554000
70
192
0
VERTEX
8
OBJECT__34
10
6.612000
20
72.438004
30
-16.516001
70
192
0
VERTEX
8
OBJECT__34
10
6.612000
20
69.350998
30
-27.632000
70
192
0
VERTEX
8
OBJECT__34
10
0.000000
20
64.952003
30
-37.500000
70
192
0
VERTEX
8
OBJECT__34
10
0.000000
20
51.013000
30
-54.979000
70
192
0
VERTEX
8
OBJECT__34
10
6.612000
20
61.790001
30
-41.895000
70
192
0
VERTEX
8
OBJECT__34
10
6.612000
20
64.307999
30
-37.145000
70
192
0
VERTEX
8
OBJECT__34
10
6.612000
20
51.339001
30
-54.198002
70
192
0
VERTEX
8
OBJECT__34
10
6.612000
20
50.729000
30
-54.661999
70
192
0
VERTEX
8
OBJECT__34
10
6.612000
20
38.487999
30
-63.966999
70
192
0
VERTEX
8
OBJECT__34
10
0.000000
20
32.541000
30
-67.572998
70
192
0
VERTEX
8
OBJECT__34
10
0.000000
20
11.178000
30
-74.162003
70
192
0
VERTEX
8
OBJECT__34
10
6.612000
20
23.837000
30
-70.746002
70
192
0
VERTEX
8
OBJECT__34
10
6.612000
20
32.210999
30
-66.871002
70
192
0
VERTEX
8
OBJECT__34
10
0.000000
20
-11.178000
30
-74.162003
70
192
0
VERTEX
8
OBJECT__34
10
6.612000
20
8.071000
30
-74.216003
70
192
0
VERTEX
8
OBJECT__34
10
6.612000
20
-8.071000
30
-74.216003
70
192
0
VERTEX
8
OBJECT__34
10
6.612000
20
11.069000
30
-73.556000
70
192
0
VERTEX
8
OBJECT__34
10
6.612000
20
-11.069000
30
-73.556000
70
192
0
VERTEX
8
OBJECT__34
10
6.612000
20
-23.837000
30
-70.746002
70
192
0
VERTEX
8
OBJECT__34
10
0.000000
20
-32.541000
30
-67.572998
70
192
0
VERTEX
8
OBJECT__34
10
0.000000
20
-51.013000
30
-54.979000
70
192
0
VERTEX
8
OBJECT__34
10
6.612000
20
-38.487999
30
-63.966999
70
192
0
VERTEX
8
OBJECT__34
10
6.612000
20
-32.210999
30
-66.871002
70
192
0
VERTEX
8
OBJECT__34
10
6.612000
20
-51.339001
30
-54.198002
70
192
0
VERTEX
8
OBJECT__34
10
6.612000
20
-61.790001
30
-41.895000
70
192
0
VERTEX
8
OBJECT__34
10
0.000000
20
-64.952003
30
-37.500000
70
192
0
VERTEX
8
OBJECT__34
10
6.612000
20
-50.729000
30
-54.661999
70
192
0
VERTEX
8
OBJECT__34
10
0.000000
20
-73.120003
30
-16.688999
70
192
0
VERTEX
8
OBJECT__34
10
6.612000
20
-69.350998
30
-27.632000
70
192
0
VERTEX
8
OBJECT__34
10
6.612000
20
-64.307999
30
-37.145000
70
192
0
VERTEX
8
OBJECT__34
10
0.000000
20
-74.790001
30
5.605000
70
192
0
VERTEX
8
OBJECT__34
10
6.612000
20
-73.669998
30
-12.078000
70
192
0
VERTEX
8
OBJECT__34
10
6.612000
20
-72.438004
30
-16.516001
70
192
0
VERTEX
8
OBJECT__34
10
6.612000
20
-74.543999
30
4.042000
70
192
0
VERTEX
8
OBJECT__34
10
6.612000
20
-74.295998
30
5.554000
70
192
0
VERTEX
8
OBJECT__34
10
6.612000
20
-71.931999
30
19.972000
70
192
0
VERTEX
8
OBJECT__34
10
0.000000
20
-69.816002
30
27.400999
70
192
0
VERTEX
8
OBJECT__34
10
0.000000
20
-58.637001
30
46.762001
70
192
0
VERTEX
8
OBJECT__34
10
6.612000
20
-65.957001
30
34.967999
70
192
0
VERTEX
8
OBJECT__34
10
6.612000
20
-69.086998
30
27.112000
70
192
0
VERTEX
8
OBJECT__34
10
6.612000
20
-56.897999
30
48.330002
70
192
0
VERTEX
8
OBJECT__34
10
6.612000
20
-45.178001
30
59.431000
70
192
0
VERTEX
8
OBJECT__34
10
0.000000
20
-42.249001
30
61.967999
70
192
0
VERTEX
8
OBJECT__34
10
6.612000
20
-58.188999
30
46.424999
70
192
0
VERTEX
8
OBJECT__34
10
6.612000
20
-41.889999
30
61.410000
70
192
0
VERTEX
8
OBJECT__34
10
6.612000
20
-31.346001
30
67.753998
70
192
0
VERTEX
8
OBJECT__34
10
0.000000
20
-22.107000
30
71.667999
70
192
0
VERTEX
8
OBJECT__34
10
6.612000
20
-16.048000
30
72.907997
70
192
0
VERTEX
8
OBJECT__34
10
6.612000
20
-21.872999
30
70.945999
70
192
0
VERTEX
8
OBJECT__34
10
0
20
0
30
0
70
128
71
1
72
2
73
3
0
VERTEX
8
OBJECT__34
10
0
20
0
30
0
70
128
71
3
72
4
73
1
0
VERTEX
8
OBJECT__34
10
0
20
0
30
0
70
128
71
5
72
4
73
6
0
VERTEX
8
OBJECT__34
10
0
20
0
30
0
70
128
71
4
72
7
73
6
0
VERTEX
8
OBJECT__34
10
0
20
0
30
0
70
128
71
8
72
5
73
9
0
VERTEX
8
OBJECT__34
10
0
20
0
30
0
70
128
71
5
72
10
73
9
0
VERTEX
8
OBJECT__34
10
0
20
0
30
0
70
128
71
9
72
11
73
8
0
VERTEX
8
OBJECT__34
10
0
20
0
30
0
70
128
71
8
72
12
73
13
0
VERTEX
8
OBJECT__34
10
0
20
0
30
0
70
128
71
13
72
14
73
8
0
VERTEX
8
OBJECT__34
10
0
20
0
30
0
70
128
71
15
72
14
73
16
0
VERTEX
8
OBJECT__34
10
0
20
0
30
0
70
128
71
14
72
17
73
16
0
VERTEX
8
OBJECT__34
10
0
20
0
30
0
70
128
71
15
72
18
73
19
0
VERTEX
8
OBJECT__34
10
0
20
0
30
0
70
128
71
19
72
20
73
15
0
VERTEX
8
OBJECT__34
10
0
20
0
30
0
70
128
71
15
72
21
73
18
0
VERTEX
8
OBJECT__34
10
0
20
0
30
0
70
128
71
20
72
22
73
23
0
VERTEX
8
OBJECT__34
10
0
20
0
30
0
70
128
71
23
72
24
73
20
0
VERTEX
8
OBJECT__34
10
0
20
0
30
0
70
128
71
25
72
24
73
26
0
VERTEX
8
OBJECT__34
10
0
20
0
30
0
70
128
71
24
72
27
73
26
0
VERTEX
8
OBJECT__34
10
0
20
0
30
0
70
128
71
26
72
28
73
25
0
VERTEX
8
OBJECT__34
10
0
20
0
30
0
70
128
71
25
72
29
73
30
0
VERTEX
8
OBJECT__34
10
0
20
0
30
0
70
128
71
30
72
31
73
25
0
VERTEX
8
OBJECT__34
10
0
20
0
30
0
70
128
71
32
72
31
73
33
0
VERTEX
8
OBJECT__34
10
0
20
0
30
0
70
128
71
31
72
34
73
33
0
VERTEX
8
OBJECT__34
10
0
20
0
30
0
70
128
71
35
72
32
73
36
0
VERTEX
8
OBJECT__34
10
0
20
0
30
0
70
128
71
36
72
37
73
35
0
VERTEX
8
OBJECT__34
10
0
20
0
30
0
70
128
71
32
72
38
73
36
0
VERTEX
8
OBJECT__34
10
0
20
0
30
0
70
128
71
35
72
39
73
40
0
VERTEX
8
OBJECT__34
10
0
20
0
30
0
70
128
71
40
72
41
73
35
0
VERTEX
8
OBJECT__34
10
0
20
0
30
0
70
128
71
42
72
41
73
43
0
VERTEX
8
OBJECT__34
10
0
20
0
30
0
70
128
71
41
72
44
73
43
0
VERTEX
8
OBJECT__34
10
0
20
0
30
0
70
128
71
42
72
45
73
46
0
VERTEX
8
OBJECT__34
10
0
20
0
30
0
70
128
71
46
72
47
73
42
0
VERTEX
8
OBJECT__34
10
0
20
0
30
0
70
128
71
42
72
48
73
45
0
VERTEX
8
OBJECT__34
10
0
20
0
30
0
70
128
71
49
72
47
73
50
0
VERTEX
8
OBJECT__34
10
0
20
0
30
0
70
128
71
47
72
51
73
50
0
VERTEX
8
OBJECT__34
10
0
20
0
30
0
70
128
71
52
72
49
73
53
0
VERTEX
8
OBJECT__34
10
0
20
0
30
0
70
128
71
49
72
54
73
53
0
VERTEX
8
OBJECT__34
10
0
20
0
30
0
70
128
71
53
72
55
73
52
0
VERTEX
8
OBJECT__34
10
0
20
0
30
0
70
128
71
52
72
56
73
57
0
VERTEX
8
OBJECT__34
10
0
20
0
30
0
70
128
71
57
72
58
73
52
0
VERTEX
8
OBJECT__34
10
0
20
0
30
0
70
128
71
59
72
58
73
60
0
VERTEX
8
OBJECT__34
10
0
20
0
30
0
70
128
71
58
72
61
73
60
0
VERTEX
8
OBJECT__34
10
0
20
0
30
0
70
128
71
59
72
62
73
63
0
VERTEX
8
OBJECT__34
10
0
20
0
30
0
70
128
71
63
72
64
73
59
0
VERTEX
8
OBJECT__34
10
0
20
0
30
0
70
128
71
59
72
65
73
62
0
VERTEX
8
OBJECT__34
10
0
20
0
30
0
70
128
71
64
72
66
73
67
0
VERTEX
8
OBJECT__34
10
0
20
0
30
0
70
128
71
67
72
68
73
64
0
VERTEX
8
OBJECT__34
10
0
20
0
30
0
70
128
71
1
72
68
73
69
0
VERTEX
8
OBJECT__34
10
0
20
0
30
0
70
128
71
68
72
70
73
69
0
VERTEX
8
OBJECT__34
10
0
20
0
30
0
70
128
71
69
72
2
73
1
0
VERTEX
8
OBJECT__34
10
0
20
0
30
0
70
128
71
67
72
70
73
68
0
VERTEX
8
OBJECT__34
10
0
20
0
30
0
70
128
71
63
72
66
73
64
0
VERTEX
8
OBJECT__34
10
0
20
0
30
0
70
128
71
60
72
65
73
59
0
VERTEX
8
OBJECT__34
10
0
20
0
30
0
70
128
71
57
72
61
73
58
0
VERTEX
8
OBJECT__34
10
0
20
0
30
0
70
128
71
55
72
56
73
52
0
VERTEX
8
OBJECT__34
10
0
20
0
30
0
70
128
71
50
72
54
73
49
0
VERTEX
8
OBJECT__34
10
0
20
0
30
0
70
128
71
46
72
51
73
47
0
VERTEX
8
OBJECT__34
10
0
20
0
30
0
70
128
71
43
72
48
73
42
0
VERTEX
8
OBJECT__34
10
0
20
0
30
0
70
128
71
40
72
44
73
41
0
VERTEX
8
OBJECT__34
10
0
20
0
30
0
70
128
71
37
72
39
73
35
0
VERTEX
8
OBJECT__34
10
0
20
0
30
0
70
128
71
33
72
38
73
32
0
VERTEX
8
OBJECT__34
10
0
20
0
30
0
70
128
71
30
72
34
73
31
0
VERTEX
8
OBJECT__34
10
0
20
0
30
0
70
128
71
28
72
29
73
25
0
VERTEX
8
OBJECT__34
10
0
20
0
30
0
70
128
71
23
72
27
73
24
0
VERTEX
8
OBJECT__34
10
0
20
0
30
0
70
128
71
19
72
22
73
20
0
VERTEX
8
OBJECT__34
10
0
20
0
30
0
70
128
71
16
72
21
73
15
0
VERTEX
8
OBJECT__34
10
0
20
0
30
0
70
128
71
13
72
17
73
14
0
VERTEX
8
OBJECT__34
10
0
20
0
30
0
70
128
71
11
72
12
73
8
0
VERTEX
8
OBJECT__34
10
0
20
0
30
0
70
128
71
6
72
10
73
5
0
VERTEX
8
OBJECT__34
10
0
20
0
30
0
70
128
71
3
72
7
73
4
0
SEQEND
8
OBJECT__34
0
POLYLINE
8
OBJECT__35
66
1
70
64
71
21
72
19
62
253
0
VERTEX
8
OBJECT__35
10
0.000000
20
-51.013000
30
-54.979000
70
192
0
VERTEX
8
OBJECT__35
10
0.000000
20
-74.790001
30
5.605000
70
192
0
VERTEX
8
OBJECT__35
10
0.000000
20
-69.816002
30
27.400999
70
192
0
VERTEX
8
OBJECT__35
10
0.000000
20
-64.952003
30
-37.500000
70
192
0
VERTEX
8
OBJECT__35
10
0.000000
20
-73.120003
30
-16.688999
70
192
0
VERTEX
8
OBJECT__35
10
0.000000
20
-42.249001
30
61.967999
70
192
0
VERTEX
8
OBJECT__35
10
0.000000
20
74.790001
30
5.605000
70
192
0
VERTEX
8
OBJECT__35
10
0.000000
20
73.120003
30
-16.688999
70
192
0
VERTEX
8
OBJECT__35
10
0.000000
20
69.816002
30
27.400999
70
192
0
VERTEX
8
OBJECT__35
10
0.000000
20
22.107000
30
71.667999
70
192
0
VERTEX
8
OBJECT__35
10
0.000000
20
42.249001
30
61.967999
70
192
0
VERTEX
8
OBJECT__35
10
0.000000
20
-58.637001
30
46.762001
70
192
0
VERTEX
8
OBJECT__35
10
0.000000
20
-11.178000
30
-74.162003
70
192
0
VERTEX
8
OBJECT__35
10
0.000000
20
-32.541000
30
-67.572998
70
192
0
VERTEX
8
OBJECT__35
10
0.000000
20
64.952003
30
-37.500000
70
192
0
VERTEX
8
OBJECT__35
10
0.000000
20
51.013000
30
-54.979000
70
192
0
VERTEX
8
OBJECT__35
10
0.000000
20
0.000000
30
75.000000
70
192
0
VERTEX
8
OBJECT__35
10
0.000000
20
-22.107000
30
71.667999
70
192
0
VERTEX
8
OBJECT__35
10
0.000000
20
32.541000
30
-67.572998
70
192
0
VERTEX
8
OBJECT__35
10
0.000000
20
11.178000
30
-74.162003
70
192
0
VERTEX
8
OBJECT__35
10
0.000000
20
58.637001
30
46.762001
70
192
0
VERTEX
8
OBJECT__35
10
0
20
0
30
0
70
128
71
1
72
2
73
3
0
VERTEX
8
OBJECT__35
10
0
20
0
30
0
70
128
71
2
72
1
73
4
0
VERTEX
8
OBJECT__35
10
0
20
0
30
0
70
128
71
4
72
5
73
2
0
VERTEX
8
OBJECT__35
10
0
20
0
30
0
70
128
71
6
72
7
73
8
0
VERTEX
8
OBJECT__35
10
0
20
0
30
0
70
128
71
9
72
10
73
11
0
VERTEX
8
OBJECT__35
10
0
20
0
30
0
70
128
71
3
72
12
73
1
0
VERTEX
8
OBJECT__35
10
0
20
0
30
0
70
128
71
6
72
13
73
14
0
VERTEX
8
OBJECT__35
10
0
20
0
30
0
70
128
71
6
72
15
73
16
0
VERTEX
8
OBJECT__35
10
0
20
0
30
0
70
128
71
6
72
9
73
7
0
VERTEX
8
OBJECT__35
10
0
20
0
30
0
70
128
71
9
72
17
73
10
0
VERTEX
8
OBJECT__35
10
0
20
0
30
0
70
128
71
9
72
6
73
18
0
VERTEX
8
OBJECT__35
10
0
20
0
30
0
70
128
71
14
72
1
73
6
0
VERTEX
8
OBJECT__35
10
0
20
0
30
0
70
128
71
6
72
19
73
20
0
VERTEX
8
OBJECT__35
10
0
20
0
30
0
70
128
71
8
72
15
73
6
0
VERTEX
8
OBJECT__35
10
0
20
0
30
0
70
128
71
18
72
17
73
9
0
VERTEX
8
OBJECT__35
10
0
20
0
30
0
70
128
71
20
72
13
73
6
0
VERTEX
8
OBJECT__35
10
0
20
0
30
0
70
128
71
11
72
21
73
9
0
VERTEX
8
OBJECT__35
10
0
20
0
30
0
70
128
71
16
72
19
73
6
0
VERTEX
8
OBJECT__35
10
0
20
0
30
0
70
128
71
12
72
6
73
1
0
SEQEND
8
OBJECT__35
0
ENDSEC
0
EOF
