999
Converted by 3D Exploration 
999
XDimension Software, LLC
999
http://www.xdsoft.com/explorer/
0
SECTION
2
HEADER
9
$ACADVER
1
AC1008
9
$UCSORG
10
0.0
20
0.0
30
0.0
9
$UCSXDIR
10
1.0
20
0.0
30
0.0
9
$TILEMODE
70
1
9
$UCSYDIR
10
0.0
20
1.0
30
0.0
9
$EXTMIN
10
0.000000
20
-43.650002
30
-43.650002
9
$EXTMAX
10
132.136002
20
113.412003
30
51.469002
0
ENDSEC
0
SECTION
2
TABLES
0
TABLE
2
LTYPE
70
1
0
LTYPE
2
CONTINUOUS
70
64
3
Solid line
72
65
73
0
40
0.0
0
ENDTAB
0
TABLE
2
LAYER
70
117
0
LAYER
2
OBJECT__0
70
0
62
253
6
CONTINUOUS
0
LAYER
2
OBJECT__1
70
0
62
253
6
CONTINUOUS
0
LAYER
2
OBJECT__3
70
0
62
253
6
CONTINUOUS
0
LAYER
2
OBJECT__4
70
0
62
253
6
CONTINUOUS
0
LAYER
2
OBJECT__5
70
0
62
253
6
CONTINUOUS
0
LAYER
2
OBJECT__6
70
0
62
253
6
CONTINUOUS
0
LAYER
2
OBJECT__7
70
0
62
253
6
CONTINUOUS
0
LAYER
2
OBJECT__8
70
0
62
253
6
CONTINUOUS
0
LAYER
2
OBJECT__9
70
0
62
253
6
CONTINUOUS
0
LAYER
2
OBJECT__10
70
0
62
253
6
CONTINUOUS
0
LAYER
2
OBJECT__11
70
0
62
253
6
CONTINUOUS
0
LAYER
2
OBJECT__12
70
0
62
253
6
CONTINUOUS
0
LAYER
2
OBJECT__13
70
0
62
253
6
CONTINUOUS
0
LAYER
2
OBJECT__14
70
0
62
253
6
CONTINUOUS
0
LAYER
2
OBJECT__15
70
0
62
253
6
CONTINUOUS
0
LAYER
2
OBJECT__17
70
0
62
253
6
CONTINUOUS
0
LAYER
2
OBJECT__18
70
0
62
253
6
CONTINUOUS
0
LAYER
2
OBJECT__19
70
0
62
253
6
CONTINUOUS
0
LAYER
2
OBJECT__20
70
0
62
253
6
CONTINUOUS
0
LAYER
2
OBJECT__21
70
0
62
253
6
CONTINUOUS
0
LAYER
2
OBJECT__22
70
0
62
253
6
CONTINUOUS
0
LAYER
2
OBJECT__24
70
0
62
253
6
CONTINUOUS
0
LAYER
2
OBJECT__25
70
0
62
253
6
CONTINUOUS
0
LAYER
2
OBJECT__26
70
0
62
253
6
CONTINUOUS
0
LAYER
2
OBJECT__27
70
0
62
253
6
CONTINUOUS
0
LAYER
2
OBJECT__28
70
0
62
253
6
CONTINUOUS
0
LAYER
2
OBJECT__29
70
0
62
253
6
CONTINUOUS
0
LAYER
2
OBJECT__30
70
0
62
253
6
CONTINUOUS
0
LAYER
2
OBJECT__32
70
0
62
253
6
CONTINUOUS
0
LAYER
2
OBJECT__33
70
0
62
253
6
CONTINUOUS
0
LAYER
2
OBJECT__34
70
0
62
253
6
CONTINUOUS
0
LAYER
2
OBJECT__35
70
0
62
253
6
CONTINUOUS
0
LAYER
2
OBJECT__36
70
0
62
253
6
CONTINUOUS
0
LAYER
2
OBJECT__38
70
0
62
253
6
CONTINUOUS
0
LAYER
2
OBJECT__39
70
0
62
253
6
CONTINUOUS
0
LAYER
2
OBJECT__40
70
0
62
253
6
CONTINUOUS
0
LAYER
2
OBJECT__42
70
0
62
253
6
CONTINUOUS
0
LAYER
2
OBJECT__43
70
0
62
253
6
CONTINUOUS
0
LAYER
2
OBJECT__45
70
0
62
253
6
CONTINUOUS
0
LAYER
2
OBJECT__46
70
0
62
253
6
CONTINUOUS
0
LAYER
2
OBJECT__48
70
0
62
253
6
CONTINUOUS
0
LAYER
2
OBJECT__49
70
0
62
253
6
CONTINUOUS
0
LAYER
2
OBJECT__50
70
0
62
253
6
CONTINUOUS
0
LAYER
2
OBJECT__52
70
0
62
253
6
CONTINUOUS
0
LAYER
2
OBJECT__53
70
0
62
253
6
CONTINUOUS
0
LAYER
2
OBJECT__55
70
0
62
253
6
CONTINUOUS
0
LAYER
2
OBJECT__56
70
0
62
253
6
CONTINUOUS
0
LAYER
2
OBJECT__58
70
0
62
253
6
CONTINUOUS
0
LAYER
2
OBJECT__59
70
0
62
253
6
CONTINUOUS
0
LAYER
2
OBJECT__61
70
0
62
253
6
CONTINUOUS
0
LAYER
2
OBJECT__62
70
0
62
253
6
CONTINUOUS
0
LAYER
2
OBJECT__64
70
0
62
253
6
CONTINUOUS
0
LAYER
2
OBJECT__65
70
0
62
253
6
CONTINUOUS
0
LAYER
2
OBJECT__66
70
0
62
253
6
CONTINUOUS
0
LAYER
2
OBJECT__67
70
0
62
253
6
CONTINUOUS
0
LAYER
2
OBJECT__68
70
0
62
253
6
CONTINUOUS
0
LAYER
2
OBJECT__69
70
0
62
253
6
CONTINUOUS
0
LAYER
2
OBJECT__70
70
0
62
253
6
CONTINUOUS
0
LAYER
2
OBJECT__71
70
0
62
253
6
CONTINUOUS
0
LAYER
2
OBJECT__72
70
0
62
253
6
CONTINUOUS
0
LAYER
2
OBJECT__73
70
0
62
253
6
CONTINUOUS
0
LAYER
2
OBJECT__75
70
0
62
253
6
CONTINUOUS
0
LAYER
2
OBJECT__76
70
0
62
253
6
CONTINUOUS
0
LAYER
2
OBJECT__77
70
0
62
253
6
CONTINUOUS
0
LAYER
2
OBJECT__78
70
0
62
253
6
CONTINUOUS
0
LAYER
2
OBJECT__79
70
0
62
253
6
CONTINUOUS
0
LAYER
2
OBJECT__80
70
0
62
253
6
CONTINUOUS
0
LAYER
2
OBJECT__81
70
0
62
253
6
CONTINUOUS
0
LAYER
2
OBJECT__82
70
0
62
253
6
CONTINUOUS
0
LAYER
2
OBJECT__84
70
0
62
253
6
CONTINUOUS
0
LAYER
2
OBJECT__85
70
0
62
253
6
CONTINUOUS
0
LAYER
2
OBJECT__86
70
0
62
253
6
CONTINUOUS
0
LAYER
2
OBJECT__88
70
0
62
253
6
CONTINUOUS
0
LAYER
2
OBJECT__89
70
0
62
253
6
CONTINUOUS
0
LAYER
2
OBJECT__90
70
0
62
253
6
CONTINUOUS
0
LAYER
2
OBJECT__91
70
0
62
253
6
CONTINUOUS
0
LAYER
2
OBJECT__92
70
0
62
253
6
CONTINUOUS
0
LAYER
2
OBJECT__93
70
0
62
253
6
CONTINUOUS
0
LAYER
2
OBJECT__94
70
0
62
253
6
CONTINUOUS
0
LAYER
2
OBJECT__95
70
0
62
253
6
CONTINUOUS
0
LAYER
2
OBJECT__96
70
0
62
253
6
CONTINUOUS
0
LAYER
2
OBJECT__97
70
0
62
253
6
CONTINUOUS
0
LAYER
2
OBJECT__98
70
0
62
253
6
CONTINUOUS
0
LAYER
2
OBJECT__99
70
0
62
253
6
CONTINUOUS
0
LAYER
2
OBJECT__101
70
0
62
253
6
CONTINUOUS
0
LAYER
2
OBJECT__102
70
0
62
253
6
CONTINUOUS
0
LAYER
2
OBJECT__103
70
0
62
253
6
CONTINUOUS
0
LAYER
2
OBJECT__104
70
0
62
253
6
CONTINUOUS
0
LAYER
2
OBJECT__105
70
0
62
253
6
CONTINUOUS
0
LAYER
2
OBJECT__107
70
0
62
253
6
CONTINUOUS
0
LAYER
2
OBJECT__108
70
0
62
253
6
CONTINUOUS
0
LAYER
2
OBJECT__109
70
0
62
253
6
CONTINUOUS
0
LAYER
2
OBJECT__110
70
0
62
253
6
CONTINUOUS
0
LAYER
2
OBJECT__111
70
0
62
253
6
CONTINUOUS
0
LAYER
2
OBJECT__112
70
0
62
253
6
CONTINUOUS
0
LAYER
2
OBJECT__113
70
0
62
253
6
CONTINUOUS
0
LAYER
2
OBJECT__114
70
0
62
253
6
CONTINUOUS
0
LAYER
2
OBJECT__115
70
0
62
253
6
CONTINUOUS
0
LAYER
2
OBJECT__116
70
0
62
253
6
CONTINUOUS
0
ENDTAB
0
TABLE
2
STYLE
70
1
0
STYLE
2
STANDARD
70
0
40
0.0
41
1.0
50
0.0
71
0
42
0.2
3
txt
4
1
0
ENDTAB
0
TABLE
2
UCS
70
0
0
ENDTAB
0
ENDSEC
0
SECTION
2
ENTITIES
0
POLYLINE
8
OBJECT__0
66
1
70
64
71
29
72
27
62
253
0
VERTEX
8
OBJECT__0
10
55.831001
20
53.400002
30
-427.786011
70
192
0
VERTEX
8
OBJECT__0
10
56.598999
20
57.977001
30
-427.920990
70
192
0
VERTEX
8
OBJECT__0
10
56.825001
20
57.876999
30
-428.269012
70
192
0
VERTEX
8
OBJECT__0
10
58.984001
20
61.814999
30
-428.648987
70
192
0
VERTEX
8
OBJECT__0
10
57.216000
20
59.103001
30
-428.029999
70
192
0
VERTEX
8
OBJECT__0
10
62.323002
20
64.859001
30
-429.238007
70
192
0
VERTEX
8
OBJECT__0
10
60.363998
20
63.423000
30
-428.585999
70
192
0
VERTEX
8
OBJECT__0
10
58.806000
20
62.001999
30
-428.311005
70
192
0
VERTEX
8
OBJECT__0
10
62.217999
20
65.112999
30
-428.914001
70
192
0
VERTEX
8
OBJECT__0
10
64.561996
20
66.071999
30
-429.328003
70
192
0
VERTEX
8
OBJECT__0
10
66.517998
20
66.575996
30
-429.977997
70
192
0
VERTEX
8
OBJECT__0
10
66.510002
20
66.870003
30
-429.671997
70
192
0
VERTEX
8
OBJECT__0
10
69.371002
20
66.984001
30
-430.175995
70
192
0
VERTEX
8
OBJECT__0
10
70.771004
20
66.745003
30
-430.727997
70
192
0
VERTEX
8
OBJECT__0
10
70.859001
20
67.042999
30
-430.437988
70
192
0
VERTEX
8
OBJECT__0
10
74.385002
20
66.014999
30
-431.058014
70
192
0
VERTEX
8
OBJECT__0
10
75.025002
20
65.504997
30
-431.477997
70
192
0
VERTEX
8
OBJECT__0
10
75.203003
20
65.776001
30
-431.201996
70
192
0
VERTEX
8
OBJECT__0
10
78.791000
20
63.153000
30
-431.832001
70
192
0
VERTEX
8
OBJECT__0
10
78.814003
20
62.734001
30
-432.145996
70
192
0
VERTEX
8
OBJECT__0
10
81.482002
20
59.330002
30
-432.304993
70
192
0
VERTEX
8
OBJECT__0
10
81.162003
20
59.202000
30
-432.559998
70
192
0
VERTEX
8
OBJECT__0
10
82.431000
20
54.785999
30
-432.783997
70
192
0
VERTEX
8
OBJECT__0
10
81.695000
20
58.587002
30
-432.342010
70
192
0
VERTEX
8
OBJECT__0
10
82.778999
20
54.820999
30
-432.529999
70
192
0
VERTEX
8
OBJECT__0
10
82.862000
20
53.400002
30
-432.544006
70
192
0
VERTEX
8
OBJECT__0
10
82.513000
20
53.400002
30
-432.798004
70
192
0
VERTEX
8
OBJECT__0
10
79.082001
20
62.939999
30
-431.884003
70
192
0
VERTEX
8
OBJECT__0
10
56.074001
20
53.400002
30
-428.135986
70
192
0
VERTEX
8
OBJECT__0
10
0
20
0
30
0
70
128
71
1
72
2
73
3
0
VERTEX
8
OBJECT__0
10
0
20
0
30
0
70
128
71
4
72
3
73
5
0
VERTEX
8
OBJECT__0
10
0
20
0
30
0
70
128
71
3
72
2
73
5
0
VERTEX
8
OBJECT__0
10
0
20
0
30
0
70
128
71
6
72
4
73
7
0
VERTEX
8
OBJECT__0
10
0
20
0
30
0
70
128
71
4
72
8
73
7
0
VERTEX
8
OBJECT__0
10
0
20
0
30
0
70
128
71
6
72
9
73
10
0
VERTEX
8
OBJECT__0
10
0
20
0
30
0
70
128
71
10
72
11
73
6
0
VERTEX
8
OBJECT__0
10
0
20
0
30
0
70
128
71
11
72
12
73
13
0
VERTEX
8
OBJECT__0
10
0
20
0
30
0
70
128
71
13
72
14
73
11
0
VERTEX
8
OBJECT__0
10
0
20
0
30
0
70
128
71
14
72
15
73
16
0
VERTEX
8
OBJECT__0
10
0
20
0
30
0
70
128
71
16
72
17
73
14
0
VERTEX
8
OBJECT__0
10
0
20
0
30
0
70
128
71
17
72
18
73
19
0
VERTEX
8
OBJECT__0
10
0
20
0
30
0
70
128
71
19
72
20
73
17
0
VERTEX
8
OBJECT__0
10
0
20
0
30
0
70
128
71
21
72
22
73
20
0
VERTEX
8
OBJECT__0
10
0
20
0
30
0
70
128
71
23
72
22
73
24
0
VERTEX
8
OBJECT__0
10
0
20
0
30
0
70
128
71
22
72
21
73
24
0
VERTEX
8
OBJECT__0
10
0
20
0
30
0
70
128
71
25
72
26
73
27
0
VERTEX
8
OBJECT__0
10
0
20
0
30
0
70
128
71
27
72
23
73
25
0
VERTEX
8
OBJECT__0
10
0
20
0
30
0
70
128
71
24
72
25
73
23
0
VERTEX
8
OBJECT__0
10
0
20
0
30
0
70
128
71
20
72
28
73
21
0
VERTEX
8
OBJECT__0
10
0
20
0
30
0
70
128
71
19
72
28
73
20
0
VERTEX
8
OBJECT__0
10
0
20
0
30
0
70
128
71
16
72
18
73
17
0
VERTEX
8
OBJECT__0
10
0
20
0
30
0
70
128
71
13
72
15
73
14
0
VERTEX
8
OBJECT__0
10
0
20
0
30
0
70
128
71
10
72
12
73
11
0
VERTEX
8
OBJECT__0
10
0
20
0
30
0
70
128
71
7
72
9
73
6
0
VERTEX
8
OBJECT__0
10
0
20
0
30
0
70
128
71
5
72
8
73
4
0
VERTEX
8
OBJECT__0
10
0
20
0
30
0
70
128
71
3
72
29
73
1
0
SEQEND
8
OBJECT__0
0
POLYLINE
8
OBJECT__1
66
1
70
64
71
29
72
27
62
253
0
VERTEX
8
OBJECT__1
10
82.146004
20
49.143002
30
-432.420990
70
192
0
VERTEX
8
OBJECT__1
10
81.813004
20
49.237999
30
-432.674988
70
192
0
VERTEX
8
OBJECT__1
10
82.513000
20
53.400002
30
-432.798004
70
192
0
VERTEX
8
OBJECT__1
10
79.845001
20
45.334999
30
-432.328003
70
192
0
VERTEX
8
OBJECT__1
10
81.690002
20
48.237999
30
-432.341003
70
192
0
VERTEX
8
OBJECT__1
10
76.317001
20
42.005001
30
-431.705994
70
192
0
VERTEX
8
OBJECT__1
10
78.666000
20
43.771000
30
-431.811005
70
192
0
VERTEX
8
OBJECT__1
10
80.137001
20
45.159000
30
-432.069000
70
192
0
VERTEX
8
OBJECT__1
10
76.524002
20
41.750000
30
-431.433990
70
192
0
VERTEX
8
OBJECT__1
10
74.353996
20
40.827000
30
-431.053009
70
192
0
VERTEX
8
OBJECT__1
10
72.486000
20
40.376999
30
-431.029999
70
192
0
VERTEX
8
OBJECT__1
10
72.610001
20
40.085999
30
-430.746002
70
192
0
VERTEX
8
OBJECT__1
10
69.350998
20
39.820999
30
-430.173004
70
192
0
VERTEX
8
OBJECT__1
10
67.952003
20
40.008999
30
-430.230988
70
192
0
VERTEX
8
OBJECT__1
10
67.976997
20
39.709999
30
-429.931000
70
192
0
VERTEX
8
OBJECT__1
10
64.526001
20
40.685001
30
-429.321014
70
192
0
VERTEX
8
OBJECT__1
10
63.535000
20
41.256001
30
-429.451996
70
192
0
VERTEX
8
OBJECT__1
10
63.458000
20
40.986000
30
-429.132996
70
192
0
VERTEX
8
OBJECT__1
10
60.275002
20
43.287998
30
-428.571014
70
192
0
VERTEX
8
OBJECT__1
10
60.062000
20
43.768002
30
-428.838989
70
192
0
VERTEX
8
OBJECT__1
10
59.905998
20
43.554001
30
-428.506012
70
192
0
VERTEX
8
OBJECT__1
10
57.261002
20
47.244999
30
-428.037994
70
192
0
VERTEX
8
OBJECT__1
10
57.472000
20
47.380001
30
-428.382996
70
192
0
VERTEX
8
OBJECT__1
10
56.164001
20
51.818001
30
-428.152008
70
192
0
VERTEX
8
OBJECT__1
10
57.145000
20
47.639999
30
-428.018005
70
192
0
VERTEX
8
OBJECT__1
10
55.831001
20
53.400002
30
-427.786011
70
192
0
VERTEX
8
OBJECT__1
10
56.074001
20
53.400002
30
-428.135986
70
192
0
VERTEX
8
OBJECT__1
10
55.923000
20
51.783001
30
-427.802002
70
192
0
VERTEX
8
OBJECT__1
10
82.862000
20
53.400002
30
-432.544006
70
192
0
VERTEX
8
OBJECT__1
10
0
20
0
30
0
70
128
71
1
72
2
73
3
0
VERTEX
8
OBJECT__1
10
0
20
0
30
0
70
128
71
4
72
2
73
5
0
VERTEX
8
OBJECT__1
10
0
20
0
30
0
70
128
71
2
72
1
73
5
0
VERTEX
8
OBJECT__1
10
0
20
0
30
0
70
128
71
6
72
4
73
7
0
VERTEX
8
OBJECT__1
10
0
20
0
30
0
70
128
71
4
72
8
73
7
0
VERTEX
8
OBJECT__1
10
0
20
0
30
0
70
128
71
6
72
9
73
10
0
VERTEX
8
OBJECT__1
10
0
20
0
30
0
70
128
71
10
72
11
73
6
0
VERTEX
8
OBJECT__1
10
0
20
0
30
0
70
128
71
11
72
12
73
13
0
VERTEX
8
OBJECT__1
10
0
20
0
30
0
70
128
71
13
72
14
73
11
0
VERTEX
8
OBJECT__1
10
0
20
0
30
0
70
128
71
14
72
15
73
16
0
VERTEX
8
OBJECT__1
10
0
20
0
30
0
70
128
71
16
72
17
73
14
0
VERTEX
8
OBJECT__1
10
0
20
0
30
0
70
128
71
17
72
18
73
19
0
VERTEX
8
OBJECT__1
10
0
20
0
30
0
70
128
71
19
72
20
73
17
0
VERTEX
8
OBJECT__1
10
0
20
0
30
0
70
128
71
21
72
22
73
23
0
VERTEX
8
OBJECT__1
10
0
20
0
30
0
70
128
71
24
72
23
73
25
0
VERTEX
8
OBJECT__1
10
0
20
0
30
0
70
128
71
23
72
22
73
25
0
VERTEX
8
OBJECT__1
10
0
20
0
30
0
70
128
71
26
72
27
73
24
0
VERTEX
8
OBJECT__1
10
0
20
0
30
0
70
128
71
24
72
28
73
26
0
VERTEX
8
OBJECT__1
10
0
20
0
30
0
70
128
71
25
72
28
73
24
0
VERTEX
8
OBJECT__1
10
0
20
0
30
0
70
128
71
23
72
20
73
21
0
VERTEX
8
OBJECT__1
10
0
20
0
30
0
70
128
71
19
72
21
73
20
0
VERTEX
8
OBJECT__1
10
0
20
0
30
0
70
128
71
16
72
18
73
17
0
VERTEX
8
OBJECT__1
10
0
20
0
30
0
70
128
71
13
72
15
73
14
0
VERTEX
8
OBJECT__1
10
0
20
0
30
0
70
128
71
10
72
12
73
11
0
VERTEX
8
OBJECT__1
10
0
20
0
30
0
70
128
71
7
72
9
73
6
0
VERTEX
8
OBJECT__1
10
0
20
0
30
0
70
128
71
5
72
8
73
4
0
VERTEX
8
OBJECT__1
10
0
20
0
30
0
70
128
71
3
72
29
73
1
0
SEQEND
8
OBJECT__1
0
POLYLINE
8
OBJECT__3
66
1
70
64
71
128
72
183
62
253
0
VERTEX
8
OBJECT__3
10
99.679001
20
95.620003
30
-298.032990
70
192
0
VERTEX
8
OBJECT__3
10
97.438004
20
85.720001
30
-306.897003
70
192
0
VERTEX
8
OBJECT__3
10
93.260002
20
87.887001
30
-305.635010
70
192
0
VERTEX
8
OBJECT__3
10
106.556000
20
109.736000
30
-274.694000
70
192
0
VERTEX
8
OBJECT__3
10
102.691002
20
103.978996
30
-287.351990
70
192
0
VERTEX
8
OBJECT__3
10
98.486000
20
105.273003
30
-286.063995
70
192
0
VERTEX
8
OBJECT__3
10
95.551003
20
97.239998
30
-296.769989
70
192
0
VERTEX
8
OBJECT__3
10
103.295998
20
90.672997
30
-299.143005
70
192
0
VERTEX
8
OBJECT__3
10
100.681999
20
80.384003
30
-307.875000
70
192
0
VERTEX
8
OBJECT__3
10
106.528000
20
99.734001
30
-288.528015
70
192
0
VERTEX
8
OBJECT__3
10
102.296997
20
111.042999
30
-273.388000
70
192
0
VERTEX
8
OBJECT__3
10
109.579002
20
113.002998
30
-259.186005
70
192
0
VERTEX
8
OBJECT__3
10
110.936996
20
111.898003
30
-259.601013
70
192
0
VERTEX
8
OBJECT__3
10
106.839996
20
113.301003
30
-258.348999
70
192
0
VERTEX
8
OBJECT__3
10
110.419998
20
105.834999
30
-275.878998
70
192
0
VERTEX
8
OBJECT__3
10
114.280998
20
109.179001
30
-260.622986
70
192
0
VERTEX
8
OBJECT__3
10
88.102997
20
89.464996
30
-294.510010
70
192
0
VERTEX
8
OBJECT__3
10
91.505997
20
95.585999
30
-295.540985
70
192
0
VERTEX
8
OBJECT__3
10
89.228996
20
86.755997
30
-304.411011
70
192
0
VERTEX
8
OBJECT__3
10
85.844002
20
76.824997
30
-293.825989
70
192
0
VERTEX
8
OBJECT__3
10
85.862000
20
81.221001
30
-303.386993
70
192
0
VERTEX
8
OBJECT__3
10
88.610001
20
84.057999
30
-283.044006
70
192
0
VERTEX
8
OBJECT__3
10
90.920998
20
97.338997
30
-283.752014
70
192
0
VERTEX
8
OBJECT__3
10
92.235001
20
89.808998
30
-270.299011
70
192
0
VERTEX
8
OBJECT__3
10
94.709000
20
103.269997
30
-271.062012
70
192
0
VERTEX
8
OBJECT__3
10
97.203003
20
96.591003
30
-255.401993
70
192
0
VERTEX
8
OBJECT__3
10
96.773003
20
92.306000
30
-255.270996
70
192
0
VERTEX
8
OBJECT__3
10
94.383003
20
103.403999
30
-284.809998
70
192
0
VERTEX
8
OBJECT__3
10
98.204002
20
109.127998
30
-272.134003
70
192
0
VERTEX
8
OBJECT__3
10
99.357002
20
105.903999
30
-256.061005
70
192
0
VERTEX
8
OBJECT__3
10
102.190002
20
110.946999
30
-256.927002
70
192
0
VERTEX
8
OBJECT__3
10
102.938004
20
111.455002
30
-257.156006
70
192
0
VERTEX
8
OBJECT__3
10
105.819000
20
113.412003
30
-258.036011
70
192
0
VERTEX
8
OBJECT__3
10
77.176003
20
61.490002
30
-328.761993
70
192
0
VERTEX
8
OBJECT__3
10
76.418999
20
53.400002
30
-328.605011
70
192
0
VERTEX
8
OBJECT__3
10
78.373001
20
53.400002
30
-319.795013
70
192
0
VERTEX
8
OBJECT__3
10
80.601997
20
64.338997
30
-314.368988
70
192
0
VERTEX
8
OBJECT__3
10
69.911003
20
59.925999
30
-362.954987
70
192
0
VERTEX
8
OBJECT__3
10
69.138000
20
53.400002
30
-362.816986
70
192
0
VERTEX
8
OBJECT__3
10
72.836998
20
53.400002
30
-344.756012
70
192
0
VERTEX
8
OBJECT__3
10
77.022003
20
65.876999
30
-340.714996
70
192
0
VERTEX
8
OBJECT__3
10
79.491997
20
67.379997
30
-329.233002
70
192
0
VERTEX
8
OBJECT__3
10
76.208000
20
67.177002
30
-364.102997
70
192
0
VERTEX
8
OBJECT__3
10
72.444000
20
64.561996
30
-363.417999
70
192
0
VERTEX
8
OBJECT__3
10
80.536003
20
67.824997
30
-364.894989
70
192
0
VERTEX
8
OBJECT__3
10
80.587997
20
68.527000
30
-341.394012
70
192
0
VERTEX
8
OBJECT__3
10
82.945000
20
70.299004
30
-329.914001
70
192
0
VERTEX
8
OBJECT__3
10
84.685997
20
68.989998
30
-342.164001
70
192
0
VERTEX
8
OBJECT__3
10
81.227997
20
69.422997
30
-321.782013
70
192
0
VERTEX
8
OBJECT__3
10
84.609001
20
72.904999
30
-322.490997
70
192
0
VERTEX
8
OBJECT__3
10
82.788002
20
53.400002
30
-302.450989
70
192
0
VERTEX
8
OBJECT__3
10
83.542000
20
70.167000
30
-302.683990
70
192
0
VERTEX
8
OBJECT__3
10
82.930000
20
72.578003
30
-314.928986
70
192
0
VERTEX
8
OBJECT__3
10
86.262001
20
76.833000
30
-315.755005
70
192
0
VERTEX
8
OBJECT__3
10
86.905998
20
70.719002
30
-330.688995
70
192
0
VERTEX
8
OBJECT__3
10
90.070000
20
77.538002
30
-316.700012
70
192
0
VERTEX
8
OBJECT__3
10
88.474998
20
73.418999
30
-323.306000
70
192
0
VERTEX
8
OBJECT__3
10
92.204002
20
71.732002
30
-324.084991
70
192
0
VERTEX
8
OBJECT__3
10
88.574997
20
67.724998
30
-342.898987
70
192
0
VERTEX
8
OBJECT__3
10
90.689003
20
69.323997
30
-331.428986
70
192
0
VERTEX
8
OBJECT__3
10
84.717003
20
66.661003
30
-365.666992
70
192
0
VERTEX
8
OBJECT__3
10
91.652000
20
65.055000
30
-343.471008
70
192
0
VERTEX
8
OBJECT__3
10
93.666000
20
66.403999
30
-332.005005
70
192
0
VERTEX
8
OBJECT__3
10
95.166000
20
68.259003
30
-324.701996
70
192
0
VERTEX
8
OBJECT__3
10
93.787003
20
75.489998
30
-317.609009
70
192
0
VERTEX
8
OBJECT__3
10
96.769997
20
71.224998
30
-318.337006
70
192
0
VERTEX
8
OBJECT__3
10
95.364998
20
61.730999
30
-332.321014
70
192
0
VERTEX
8
OBJECT__3
10
98.500000
20
64.648003
30
-318.769989
70
192
0
VERTEX
8
OBJECT__3
10
90.341003
20
60.081001
30
-366.661011
70
192
0
VERTEX
8
OBJECT__3
10
88.151001
20
64.055000
30
-366.290009
70
192
0
VERTEX
8
OBJECT__3
10
95.473000
20
53.400002
30
-334.671997
70
192
0
VERTEX
8
OBJECT__3
10
96.007004
20
53.400002
30
-332.437012
70
192
0
VERTEX
8
OBJECT__3
10
99.227997
20
53.400002
30
-318.954987
70
192
0
VERTEX
8
OBJECT__3
10
102.138000
20
70.970001
30
-308.313995
70
192
0
VERTEX
8
OBJECT__3
10
113.797997
20
104.489998
30
-270.122986
70
192
0
VERTEX
8
OBJECT__3
10
113.154999
20
104.045998
30
-272.217987
70
192
0
VERTEX
8
OBJECT__3
10
114.904999
20
108.096001
30
-260.813995
70
192
0
VERTEX
8
OBJECT__3
10
116.509003
20
105.317001
30
-261.304993
70
192
0
VERTEX
8
OBJECT__3
10
110.556999
20
101.204002
30
-280.671997
70
192
0
VERTEX
8
OBJECT__3
10
111.911003
20
102.684998
30
-276.265991
70
192
0
VERTEX
8
OBJECT__3
10
108.426003
20
97.418999
30
-287.632996
70
192
0
VERTEX
8
OBJECT__3
10
106.261002
20
91.808998
30
-294.717010
70
192
0
VERTEX
8
OBJECT__3
10
105.255997
20
88.151001
30
-297.993011
70
192
0
VERTEX
8
OBJECT__3
10
108.032997
20
96.400002
30
-288.920013
70
192
0
VERTEX
8
OBJECT__3
10
103.180000
20
78.064003
30
-304.981995
70
192
0
VERTEX
8
OBJECT__3
10
102.366997
20
71.551003
30
-307.722992
70
192
0
VERTEX
8
OBJECT__3
10
104.614998
20
85.820999
30
-300.079010
70
192
0
VERTEX
8
OBJECT__3
10
104.726997
20
86.589996
30
-299.582001
70
192
0
VERTEX
8
OBJECT__3
10
104.772003
20
86.389999
30
-299.570007
70
192
0
VERTEX
8
OBJECT__3
10
102.242996
20
70.555000
30
-308.141998
70
192
0
VERTEX
8
OBJECT__3
10
101.619003
20
61.553001
30
-310.308990
70
192
0
VERTEX
8
OBJECT__3
10
101.447998
20
53.400002
30
-310.925995
70
192
0
VERTEX
8
OBJECT__3
10
100.169998
20
53.400002
30
-315.014008
70
192
0
VERTEX
8
OBJECT__3
10
102.189003
20
69.778999
30
-308.329010
70
192
0
VERTEX
8
OBJECT__3
10
91.333000
20
53.400002
30
-366.803009
70
192
0
VERTEX
8
OBJECT__3
10
82.778999
20
54.820999
30
-432.529999
70
192
0
VERTEX
8
OBJECT__3
10
81.695000
20
58.587002
30
-432.342010
70
192
0
VERTEX
8
OBJECT__3
10
82.862000
20
53.400002
30
-432.544006
70
192
0
VERTEX
8
OBJECT__3
10
79.082001
20
62.939999
30
-431.884003
70
192
0
VERTEX
8
OBJECT__3
10
78.791000
20
63.153000
30
-431.832001
70
192
0
VERTEX
8
OBJECT__3
10
81.482002
20
59.330002
30
-432.304993
70
192
0
VERTEX
8
OBJECT__3
10
75.203003
20
65.776001
30
-431.201996
70
192
0
VERTEX
8
OBJECT__3
10
74.385002
20
66.014999
30
-431.058014
70
192
0
VERTEX
8
OBJECT__3
10
70.859001
20
67.042999
30
-430.437988
70
192
0
VERTEX
8
OBJECT__3
10
69.371002
20
66.984001
30
-430.175995
70
192
0
VERTEX
8
OBJECT__3
10
66.510002
20
66.870003
30
-429.671997
70
192
0
VERTEX
8
OBJECT__3
10
64.561996
20
66.071999
30
-429.328003
70
192
0
VERTEX
8
OBJECT__3
10
62.217999
20
65.112999
30
-428.914001
70
192
0
VERTEX
8
OBJECT__3
10
60.363998
20
63.423000
30
-428.585999
70
192
0
VERTEX
8
OBJECT__3
10
58.806000
20
62.001999
30
-428.311005
70
192
0
VERTEX
8
OBJECT__3
10
56.598999
20
57.977001
30
-427.920990
70
192
0
VERTEX
8
OBJECT__3
10
57.216000
20
59.103001
30
-428.029999
70
192
0
VERTEX
8
OBJECT__3
10
87.510002
20
75.179001
30
-285.404999
70
192
0
VERTEX
8
OBJECT__3
10
88.264999
20
78.228996
30
-282.901001
70
192
0
VERTEX
8
OBJECT__3
10
86.958000
20
72.112999
30
-287.233002
70
192
0
VERTEX
8
OBJECT__3
10
86.021004
20
64.806000
30
-290.229004
70
192
0
VERTEX
8
OBJECT__3
10
85.045998
20
53.400002
30
-293.583008
70
192
0
VERTEX
8
OBJECT__3
10
85.738998
20
61.312000
30
-291.095001
70
192
0
VERTEX
8
OBJECT__3
10
85.480003
20
53.400002
30
-291.877014
70
192
0
VERTEX
8
OBJECT__3
10
90.117996
20
84.384003
30
-276.808014
70
192
0
VERTEX
8
OBJECT__3
10
89.005997
20
81.224998
30
-280.441986
70
192
0
VERTEX
8
OBJECT__3
10
93.490997
20
90.098999
30
-265.786987
70
192
0
VERTEX
8
OBJECT__3
10
95.777000
20
91.583000
30
-258.313995
70
192
0
VERTEX
8
OBJECT__3
10
92.136002
20
88.375000
30
-270.218994
70
192
0
VERTEX
8
OBJECT__3
10
92.123001
20
88.348000
30
-270.263000
70
192
0
VERTEX
8
OBJECT__3
10
96.713997
20
91.717003
30
-255.253006
70
192
0
VERTEX
8
OBJECT__3
10
55.831001
20
53.400002
30
-427.786011
70
192
0
VERTEX
8
OBJECT__3
10
79.802002
20
53.400002
30
-314.183990
70
192
0
VERTEX
8
OBJECT__3
10
0
20
0
30
0
70
128
71
1
72
2
73
3
0
VERTEX
8
OBJECT__3
10
0
20
0
30
0
70
128
71
4
72
5
73
6
0
VERTEX
8
OBJECT__3
10
0
20
0
30
0
70
128
71
5
72
1
73
7
0
VERTEX
8
OBJECT__3
10
0
20
0
30
0
70
128
71
8
72
9
73
2
0
VERTEX
8
OBJECT__3
10
0
20
0
30
0
70
128
71
10
72
8
73
1
0
VERTEX
8
OBJECT__3
10
0
20
0
30
0
70
128
71
11
72
12
73
13
0
VERTEX
8
OBJECT__3
10
0
20
0
30
0
70
128
71
11
72
14
73
12
0
VERTEX
8
OBJECT__3
10
0
20
0
30
0
70
128
71
15
72
10
73
5
0
VERTEX
8
OBJECT__3
10
0
20
0
30
0
70
128
71
15
72
4
73
16
0
VERTEX
8
OBJECT__3
10
0
20
0
30
0
70
128
71
4
72
13
73
16
0
VERTEX
8
OBJECT__3
10
0
20
0
30
0
70
128
71
17
72
18
73
19
0
VERTEX
8
OBJECT__3
10
0
20
0
30
0
70
128
71
20
72
17
73
21
0
VERTEX
8
OBJECT__3
10
0
20
0
30
0
70
128
71
22
72
23
73
17
0
VERTEX
8
OBJECT__3
10
0
20
0
30
0
70
128
71
24
72
25
73
23
0
VERTEX
8
OBJECT__3
10
0
20
0
30
0
70
128
71
25
72
24
73
26
0
VERTEX
8
OBJECT__3
10
0
20
0
30
0
70
128
71
24
72
27
73
26
0
VERTEX
8
OBJECT__3
10
0
20
0
30
0
70
128
71
28
72
23
73
25
0
VERTEX
8
OBJECT__3
10
0
20
0
30
0
70
128
71
3
72
19
73
18
0
VERTEX
8
OBJECT__3
10
0
20
0
30
0
70
128
71
23
72
28
73
18
0
VERTEX
8
OBJECT__3
10
0
20
0
30
0
70
128
71
7
72
18
73
28
0
VERTEX
8
OBJECT__3
10
0
20
0
30
0
70
128
71
6
72
28
73
29
0
VERTEX
8
OBJECT__3
10
0
20
0
30
0
70
128
71
29
72
25
73
30
0
VERTEX
8
OBJECT__3
10
0
20
0
30
0
70
128
71
30
72
31
73
29
0
VERTEX
8
OBJECT__3
10
0
20
0
30
0
70
128
71
11
72
29
73
32
0
VERTEX
8
OBJECT__3
10
0
20
0
30
0
70
128
71
32
72
33
73
11
0
VERTEX
8
OBJECT__3
10
0
20
0
30
0
70
128
71
34
72
35
73
36
0
VERTEX
8
OBJECT__3
10
0
20
0
30
0
70
128
71
36
72
37
73
34
0
VERTEX
8
OBJECT__3
10
0
20
0
30
0
70
128
71
38
72
39
73
40
0
VERTEX
8
OBJECT__3
10
0
20
0
30
0
70
128
71
40
72
34
73
38
0
VERTEX
8
OBJECT__3
10
0
20
0
30
0
70
128
71
38
72
34
73
41
0
VERTEX
8
OBJECT__3
10
0
20
0
30
0
70
128
71
34
72
42
73
41
0
VERTEX
8
OBJECT__3
10
0
20
0
30
0
70
128
71
43
72
44
73
41
0
VERTEX
8
OBJECT__3
10
0
20
0
30
0
70
128
71
45
72
43
73
46
0
VERTEX
8
OBJECT__3
10
0
20
0
30
0
70
128
71
42
72
47
73
46
0
VERTEX
8
OBJECT__3
10
0
20
0
30
0
70
128
71
48
72
46
73
47
0
VERTEX
8
OBJECT__3
10
0
20
0
30
0
70
128
71
49
72
50
73
47
0
VERTEX
8
OBJECT__3
10
0
20
0
30
0
70
128
71
51
72
52
73
37
0
VERTEX
8
OBJECT__3
10
0
20
0
30
0
70
128
71
34
72
37
73
49
0
VERTEX
8
OBJECT__3
10
0
20
0
30
0
70
128
71
37
72
53
73
49
0
VERTEX
8
OBJECT__3
10
0
20
0
30
0
70
128
71
52
72
21
73
53
0
VERTEX
8
OBJECT__3
10
0
20
0
30
0
70
128
71
21
72
19
73
54
0
VERTEX
8
OBJECT__3
10
0
20
0
30
0
70
128
71
55
72
47
73
50
0
VERTEX
8
OBJECT__3
10
0
20
0
30
0
70
128
71
53
72
54
73
50
0
VERTEX
8
OBJECT__3
10
0
20
0
30
0
70
128
71
54
72
56
73
57
0
VERTEX
8
OBJECT__3
10
0
20
0
30
0
70
128
71
19
72
3
73
56
0
VERTEX
8
OBJECT__3
10
0
20
0
30
0
70
128
71
55
72
57
73
58
0
VERTEX
8
OBJECT__3
10
0
20
0
30
0
70
128
71
45
72
48
73
59
0
VERTEX
8
OBJECT__3
10
0
20
0
30
0
70
128
71
48
72
55
73
60
0
VERTEX
8
OBJECT__3
10
0
20
0
30
0
70
128
71
61
72
59
73
62
0
VERTEX
8
OBJECT__3
10
0
20
0
30
0
70
128
71
59
72
60
73
63
0
VERTEX
8
OBJECT__3
10
0
20
0
30
0
70
128
71
64
72
63
73
60
0
VERTEX
8
OBJECT__3
10
0
20
0
30
0
70
128
71
2
72
65
73
56
0
VERTEX
8
OBJECT__3
10
0
20
0
30
0
70
128
71
57
72
56
73
65
0
VERTEX
8
OBJECT__3
10
0
20
0
30
0
70
128
71
65
72
2
73
9
0
VERTEX
8
OBJECT__3
10
0
20
0
30
0
70
128
71
66
72
64
73
58
0
VERTEX
8
OBJECT__3
10
0
20
0
30
0
70
128
71
67
72
63
73
64
0
VERTEX
8
OBJECT__3
10
0
20
0
30
0
70
128
71
64
72
68
73
67
0
VERTEX
8
OBJECT__3
10
0
20
0
30
0
70
128
71
69
72
70
73
62
0
VERTEX
8
OBJECT__3
10
0
20
0
30
0
70
128
71
62
72
67
73
69
0
VERTEX
8
OBJECT__3
10
0
20
0
30
0
70
128
71
69
72
67
73
71
0
VERTEX
8
OBJECT__3
10
0
20
0
30
0
70
128
71
67
72
72
73
71
0
VERTEX
8
OBJECT__3
10
0
20
0
30
0
70
128
71
73
72
72
73
67
0
VERTEX
8
OBJECT__3
10
0
20
0
30
0
70
128
71
74
72
68
73
66
0
VERTEX
8
OBJECT__3
10
0
20
0
30
0
70
128
71
15
72
75
73
76
0
VERTEX
8
OBJECT__3
10
0
20
0
30
0
70
128
71
77
72
78
73
75
0
VERTEX
8
OBJECT__3
10
0
20
0
30
0
70
128
71
75
72
15
73
77
0
VERTEX
8
OBJECT__3
10
0
20
0
30
0
70
128
71
10
72
15
73
79
0
VERTEX
8
OBJECT__3
10
0
20
0
30
0
70
128
71
15
72
80
73
79
0
VERTEX
8
OBJECT__3
10
0
20
0
30
0
70
128
71
79
72
81
73
10
0
VERTEX
8
OBJECT__3
10
0
20
0
30
0
70
128
71
8
72
82
73
83
0
VERTEX
8
OBJECT__3
10
0
20
0
30
0
70
128
71
10
72
84
73
82
0
VERTEX
8
OBJECT__3
10
0
20
0
30
0
70
128
71
82
72
8
73
10
0
VERTEX
8
OBJECT__3
10
0
20
0
30
0
70
128
71
9
72
85
73
86
0
VERTEX
8
OBJECT__3
10
0
20
0
30
0
70
128
71
9
72
8
73
87
0
VERTEX
8
OBJECT__3
10
0
20
0
30
0
70
128
71
87
72
85
73
9
0
VERTEX
8
OBJECT__3
10
0
20
0
30
0
70
128
71
87
72
8
73
88
0
VERTEX
8
OBJECT__3
10
0
20
0
30
0
70
128
71
88
72
89
73
87
0
VERTEX
8
OBJECT__3
10
0
20
0
30
0
70
128
71
74
72
86
73
90
0
VERTEX
8
OBJECT__3
10
0
20
0
30
0
70
128
71
91
72
92
73
93
0
VERTEX
8
OBJECT__3
10
0
20
0
30
0
70
128
71
93
72
68
73
91
0
VERTEX
8
OBJECT__3
10
0
20
0
30
0
70
128
71
68
72
74
73
94
0
VERTEX
8
OBJECT__3
10
0
20
0
30
0
70
128
71
94
72
91
73
68
0
VERTEX
8
OBJECT__3
10
0
20
0
30
0
70
128
71
95
72
96
73
97
0
VERTEX
8
OBJECT__3
10
0
20
0
30
0
70
128
71
95
72
98
73
96
0
VERTEX
8
OBJECT__3
10
0
20
0
30
0
70
128
71
69
72
99
73
100
0
VERTEX
8
OBJECT__3
10
0
20
0
30
0
70
128
71
69
72
101
73
99
0
VERTEX
8
OBJECT__3
10
0
20
0
30
0
70
128
71
69
72
97
73
101
0
VERTEX
8
OBJECT__3
10
0
20
0
30
0
70
128
71
102
72
61
73
70
0
VERTEX
8
OBJECT__3
10
0
20
0
30
0
70
128
71
70
72
100
73
102
0
VERTEX
8
OBJECT__3
10
0
20
0
30
0
70
128
71
61
72
103
73
104
0
VERTEX
8
OBJECT__3
10
0
20
0
30
0
70
128
71
104
72
45
73
61
0
VERTEX
8
OBJECT__3
10
0
20
0
30
0
70
128
71
45
72
105
73
106
0
VERTEX
8
OBJECT__3
10
0
20
0
30
0
70
128
71
106
72
43
73
45
0
VERTEX
8
OBJECT__3
10
0
20
0
30
0
70
128
71
43
72
107
73
108
0
VERTEX
8
OBJECT__3
10
0
20
0
30
0
70
128
71
108
72
44
73
43
0
VERTEX
8
OBJECT__3
10
0
20
0
30
0
70
128
71
44
72
109
73
110
0
VERTEX
8
OBJECT__3
10
0
20
0
30
0
70
128
71
110
72
38
73
44
0
VERTEX
8
OBJECT__3
10
0
20
0
30
0
70
128
71
39
72
38
73
111
0
VERTEX
8
OBJECT__3
10
0
20
0
30
0
70
128
71
38
72
112
73
111
0
VERTEX
8
OBJECT__3
10
0
20
0
30
0
70
128
71
20
72
113
73
114
0
VERTEX
8
OBJECT__3
10
0
20
0
30
0
70
128
71
20
72
115
73
113
0
VERTEX
8
OBJECT__3
10
0
20
0
30
0
70
128
71
116
72
115
73
20
0
VERTEX
8
OBJECT__3
10
0
20
0
30
0
70
128
71
51
72
117
73
118
0
VERTEX
8
OBJECT__3
10
0
20
0
30
0
70
128
71
118
72
52
73
51
0
VERTEX
8
OBJECT__3
10
0
20
0
30
0
70
128
71
117
72
119
73
118
0
VERTEX
8
OBJECT__3
10
0
20
0
30
0
70
128
71
118
72
116
73
52
0
VERTEX
8
OBJECT__3
10
0
20
0
30
0
70
128
71
20
72
52
73
116
0
VERTEX
8
OBJECT__3
10
0
20
0
30
0
70
128
71
24
72
22
73
120
0
VERTEX
8
OBJECT__3
10
0
20
0
30
0
70
128
71
22
72
114
73
121
0
VERTEX
8
OBJECT__3
10
0
20
0
30
0
70
128
71
121
72
120
73
22
0
VERTEX
8
OBJECT__3
10
0
20
0
30
0
70
128
71
24
72
122
73
123
0
VERTEX
8
OBJECT__3
10
0
20
0
30
0
70
128
71
123
72
27
73
24
0
VERTEX
8
OBJECT__3
10
0
20
0
30
0
70
128
71
24
72
124
73
122
0
VERTEX
8
OBJECT__3
10
0
20
0
30
0
70
128
71
24
72
125
73
124
0
VERTEX
8
OBJECT__3
10
0
20
0
30
0
70
128
71
123
72
126
73
27
0
VERTEX
8
OBJECT__3
10
0
20
0
30
0
70
128
71
120
72
125
73
24
0
VERTEX
8
OBJECT__3
10
0
20
0
30
0
70
128
71
114
72
22
73
20
0
VERTEX
8
OBJECT__3
10
0
20
0
30
0
70
128
71
111
72
127
73
39
0
VERTEX
8
OBJECT__3
10
0
20
0
30
0
70
128
71
110
72
112
73
38
0
VERTEX
8
OBJECT__3
10
0
20
0
30
0
70
128
71
108
72
109
73
44
0
VERTEX
8
OBJECT__3
10
0
20
0
30
0
70
128
71
106
72
107
73
43
0
VERTEX
8
OBJECT__3
10
0
20
0
30
0
70
128
71
104
72
105
73
45
0
VERTEX
8
OBJECT__3
10
0
20
0
30
0
70
128
71
102
72
103
73
61
0
VERTEX
8
OBJECT__3
10
0
20
0
30
0
70
128
71
100
72
70
73
69
0
VERTEX
8
OBJECT__3
10
0
20
0
30
0
70
128
71
97
72
69
73
95
0
VERTEX
8
OBJECT__3
10
0
20
0
30
0
70
128
71
93
72
73
73
68
0
VERTEX
8
OBJECT__3
10
0
20
0
30
0
70
128
71
90
72
94
73
74
0
VERTEX
8
OBJECT__3
10
0
20
0
30
0
70
128
71
86
72
74
73
9
0
VERTEX
8
OBJECT__3
10
0
20
0
30
0
70
128
71
89
72
88
73
83
0
VERTEX
8
OBJECT__3
10
0
20
0
30
0
70
128
71
83
72
88
73
8
0
VERTEX
8
OBJECT__3
10
0
20
0
30
0
70
128
71
81
72
84
73
10
0
VERTEX
8
OBJECT__3
10
0
20
0
30
0
70
128
71
76
72
80
73
15
0
VERTEX
8
OBJECT__3
10
0
20
0
30
0
70
128
71
66
72
9
73
74
0
VERTEX
8
OBJECT__3
10
0
20
0
30
0
70
128
71
67
72
68
73
73
0
VERTEX
8
OBJECT__3
10
0
20
0
30
0
70
128
71
71
72
95
73
69
0
VERTEX
8
OBJECT__3
10
0
20
0
30
0
70
128
71
62
72
63
73
67
0
VERTEX
8
OBJECT__3
10
0
20
0
30
0
70
128
71
64
72
66
73
68
0
VERTEX
8
OBJECT__3
10
0
20
0
30
0
70
128
71
58
72
65
73
66
0
VERTEX
8
OBJECT__3
10
0
20
0
30
0
70
128
71
9
72
66
73
65
0
VERTEX
8
OBJECT__3
10
0
20
0
30
0
70
128
71
65
72
58
73
57
0
VERTEX
8
OBJECT__3
10
0
20
0
30
0
70
128
71
56
72
3
73
2
0
VERTEX
8
OBJECT__3
10
0
20
0
30
0
70
128
71
60
72
58
73
64
0
VERTEX
8
OBJECT__3
10
0
20
0
30
0
70
128
71
63
72
62
73
59
0
VERTEX
8
OBJECT__3
10
0
20
0
30
0
70
128
71
62
72
70
73
61
0
VERTEX
8
OBJECT__3
10
0
20
0
30
0
70
128
71
60
72
59
73
48
0
VERTEX
8
OBJECT__3
10
0
20
0
30
0
70
128
71
59
72
61
73
45
0
VERTEX
8
OBJECT__3
10
0
20
0
30
0
70
128
71
58
72
60
73
55
0
VERTEX
8
OBJECT__3
10
0
20
0
30
0
70
128
71
56
72
54
73
19
0
VERTEX
8
OBJECT__3
10
0
20
0
30
0
70
128
71
57
72
50
73
54
0
VERTEX
8
OBJECT__3
10
0
20
0
30
0
70
128
71
50
72
49
73
53
0
VERTEX
8
OBJECT__3
10
0
20
0
30
0
70
128
71
50
72
57
73
55
0
VERTEX
8
OBJECT__3
10
0
20
0
30
0
70
128
71
54
72
53
73
21
0
VERTEX
8
OBJECT__3
10
0
20
0
30
0
70
128
71
53
72
37
73
52
0
VERTEX
8
OBJECT__3
10
0
20
0
30
0
70
128
71
49
72
42
73
34
0
VERTEX
8
OBJECT__3
10
0
20
0
30
0
70
128
71
37
72
128
73
51
0
VERTEX
8
OBJECT__3
10
0
20
0
30
0
70
128
71
47
72
42
73
49
0
VERTEX
8
OBJECT__3
10
0
20
0
30
0
70
128
71
47
72
55
73
48
0
VERTEX
8
OBJECT__3
10
0
20
0
30
0
70
128
71
46
72
41
73
42
0
VERTEX
8
OBJECT__3
10
0
20
0
30
0
70
128
71
46
72
48
73
45
0
VERTEX
8
OBJECT__3
10
0
20
0
30
0
70
128
71
41
72
46
73
43
0
VERTEX
8
OBJECT__3
10
0
20
0
30
0
70
128
71
41
72
44
73
38
0
VERTEX
8
OBJECT__3
10
0
20
0
30
0
70
128
71
40
72
35
73
34
0
VERTEX
8
OBJECT__3
10
0
20
0
30
0
70
128
71
36
72
128
73
37
0
VERTEX
8
OBJECT__3
10
0
20
0
30
0
70
128
71
33
72
14
73
11
0
VERTEX
8
OBJECT__3
10
0
20
0
30
0
70
128
71
31
72
32
73
29
0
VERTEX
8
OBJECT__3
10
0
20
0
30
0
70
128
71
29
72
11
73
6
0
VERTEX
8
OBJECT__3
10
0
20
0
30
0
70
128
71
28
72
6
73
7
0
VERTEX
8
OBJECT__3
10
0
20
0
30
0
70
128
71
18
72
17
73
23
0
VERTEX
8
OBJECT__3
10
0
20
0
30
0
70
128
71
18
72
7
73
3
0
VERTEX
8
OBJECT__3
10
0
20
0
30
0
70
128
71
25
72
29
73
28
0
VERTEX
8
OBJECT__3
10
0
20
0
30
0
70
128
71
26
72
30
73
25
0
VERTEX
8
OBJECT__3
10
0
20
0
30
0
70
128
71
23
72
22
73
24
0
VERTEX
8
OBJECT__3
10
0
20
0
30
0
70
128
71
17
72
20
73
22
0
VERTEX
8
OBJECT__3
10
0
20
0
30
0
70
128
71
21
72
52
73
20
0
VERTEX
8
OBJECT__3
10
0
20
0
30
0
70
128
71
19
72
21
73
17
0
VERTEX
8
OBJECT__3
10
0
20
0
30
0
70
128
71
16
72
77
73
15
0
VERTEX
8
OBJECT__3
10
0
20
0
30
0
70
128
71
5
72
4
73
15
0
VERTEX
8
OBJECT__3
10
0
20
0
30
0
70
128
71
13
72
4
73
11
0
VERTEX
8
OBJECT__3
10
0
20
0
30
0
70
128
71
1
72
5
73
10
0
VERTEX
8
OBJECT__3
10
0
20
0
30
0
70
128
71
2
72
1
73
8
0
VERTEX
8
OBJECT__3
10
0
20
0
30
0
70
128
71
7
72
6
73
5
0
VERTEX
8
OBJECT__3
10
0
20
0
30
0
70
128
71
6
72
11
73
4
0
VERTEX
8
OBJECT__3
10
0
20
0
30
0
70
128
71
3
72
7
73
1
0
SEQEND
8
OBJECT__3
0
POLYLINE
8
OBJECT__4
66
1
70
64
71
128
72
183
62
253
0
VERTEX
8
OBJECT__4
10
99.679001
20
11.180000
30
-298.032990
70
192
0
VERTEX
8
OBJECT__4
10
95.551003
20
9.560000
30
-296.769989
70
192
0
VERTEX
8
OBJECT__4
10
93.260002
20
18.913000
30
-305.635010
70
192
0
VERTEX
8
OBJECT__4
10
85.045998
20
53.400002
30
-293.583008
70
192
0
VERTEX
8
OBJECT__4
10
82.788002
20
53.400002
30
-302.450989
70
192
0
VERTEX
8
OBJECT__4
10
83.542000
20
36.632999
30
-302.683990
70
192
0
VERTEX
8
OBJECT__4
10
106.556000
20
-2.936000
30
-274.694000
70
192
0
VERTEX
8
OBJECT__4
10
102.296997
20
-4.243000
30
-273.388000
70
192
0
VERTEX
8
OBJECT__4
10
98.486000
20
1.527000
30
-286.063995
70
192
0
VERTEX
8
OBJECT__4
10
103.295998
20
16.127001
30
-299.143005
70
192
0
VERTEX
8
OBJECT__4
10
97.438004
20
21.084999
30
-306.897003
70
192
0
VERTEX
8
OBJECT__4
10
102.691002
20
2.821000
30
-287.351990
70
192
0
VERTEX
8
OBJECT__4
10
106.528000
20
7.066000
30
-288.528015
70
192
0
VERTEX
8
OBJECT__4
10
110.419998
20
0.965000
30
-275.878998
70
192
0
VERTEX
8
OBJECT__4
10
110.936996
20
-5.098000
30
-259.601013
70
192
0
VERTEX
8
OBJECT__4
10
109.579002
20
-6.203000
30
-259.186005
70
192
0
VERTEX
8
OBJECT__4
10
114.904999
20
-1.296000
30
-260.813995
70
192
0
VERTEX
8
OBJECT__4
10
114.280998
20
-2.379000
30
-260.622986
70
192
0
VERTEX
8
OBJECT__4
10
86.905998
20
36.081001
30
-330.688995
70
192
0
VERTEX
8
OBJECT__4
10
90.689003
20
37.476002
30
-331.428986
70
192
0
VERTEX
8
OBJECT__4
10
92.204002
20
35.070999
30
-324.084991
70
192
0
VERTEX
8
OBJECT__4
10
80.536003
20
38.974998
30
-364.894989
70
192
0
VERTEX
8
OBJECT__4
10
84.717003
20
40.139000
30
-365.666992
70
192
0
VERTEX
8
OBJECT__4
10
88.574997
20
39.075001
30
-342.898987
70
192
0
VERTEX
8
OBJECT__4
10
88.151001
20
42.744999
30
-366.290009
70
192
0
VERTEX
8
OBJECT__4
10
91.652000
20
41.744999
30
-343.471008
70
192
0
VERTEX
8
OBJECT__4
10
84.685997
20
37.810001
30
-342.164001
70
192
0
VERTEX
8
OBJECT__4
10
93.666000
20
40.396999
30
-332.005005
70
192
0
VERTEX
8
OBJECT__4
10
90.341003
20
46.719002
30
-366.661011
70
192
0
VERTEX
8
OBJECT__4
10
95.364998
20
45.071999
30
-332.321014
70
192
0
VERTEX
8
OBJECT__4
10
91.333000
20
53.400002
30
-366.803009
70
192
0
VERTEX
8
OBJECT__4
10
95.473000
20
53.400002
30
-334.671997
70
192
0
VERTEX
8
OBJECT__4
10
98.500000
20
42.355000
30
-318.769989
70
192
0
VERTEX
8
OBJECT__4
10
95.166000
20
38.566002
30
-324.701996
70
192
0
VERTEX
8
OBJECT__4
10
96.769997
20
35.660000
30
-318.337006
70
192
0
VERTEX
8
OBJECT__4
10
90.070000
20
29.261999
30
-316.700012
70
192
0
VERTEX
8
OBJECT__4
10
88.474998
20
33.381001
30
-323.306000
70
192
0
VERTEX
8
OBJECT__4
10
93.787003
20
31.320000
30
-317.609009
70
192
0
VERTEX
8
OBJECT__4
10
100.681999
20
26.459000
30
-307.875000
70
192
0
VERTEX
8
OBJECT__4
10
102.138000
20
35.930000
30
-308.313995
70
192
0
VERTEX
8
OBJECT__4
10
99.227997
20
53.400002
30
-318.954987
70
192
0
VERTEX
8
OBJECT__4
10
77.176003
20
45.310001
30
-328.761993
70
192
0
VERTEX
8
OBJECT__4
10
80.601997
20
42.460999
30
-314.368988
70
192
0
VERTEX
8
OBJECT__4
10
78.373001
20
53.400002
30
-319.795013
70
192
0
VERTEX
8
OBJECT__4
10
79.802002
20
53.400002
30
-314.183990
70
192
0
VERTEX
8
OBJECT__4
10
69.911003
20
46.874001
30
-362.954987
70
192
0
VERTEX
8
OBJECT__4
10
72.836998
20
53.400002
30
-344.756012
70
192
0
VERTEX
8
OBJECT__4
10
76.418999
20
53.400002
30
-328.605011
70
192
0
VERTEX
8
OBJECT__4
10
72.444000
20
42.237999
30
-363.417999
70
192
0
VERTEX
8
OBJECT__4
10
77.022003
20
40.923000
30
-340.714996
70
192
0
VERTEX
8
OBJECT__4
10
79.491997
20
39.419998
30
-329.233002
70
192
0
VERTEX
8
OBJECT__4
10
81.227997
20
37.376999
30
-321.782013
70
192
0
VERTEX
8
OBJECT__4
10
82.930000
20
34.222000
30
-314.928986
70
192
0
VERTEX
8
OBJECT__4
10
82.945000
20
36.500999
30
-329.914001
70
192
0
VERTEX
8
OBJECT__4
10
76.208000
20
39.623001
30
-364.102997
70
192
0
VERTEX
8
OBJECT__4
10
80.587997
20
38.272999
30
-341.394012
70
192
0
VERTEX
8
OBJECT__4
10
84.609001
20
33.895000
30
-322.490997
70
192
0
VERTEX
8
OBJECT__4
10
85.862000
20
25.579000
30
-303.386993
70
192
0
VERTEX
8
OBJECT__4
10
86.262001
20
29.966999
30
-315.755005
70
192
0
VERTEX
8
OBJECT__4
10
89.228996
20
20.044001
30
-304.411011
70
192
0
VERTEX
8
OBJECT__4
10
88.102997
20
17.334999
30
-294.510010
70
192
0
VERTEX
8
OBJECT__4
10
85.844002
20
29.975000
30
-293.825989
70
192
0
VERTEX
8
OBJECT__4
10
88.610001
20
22.742001
30
-283.044006
70
192
0
VERTEX
8
OBJECT__4
10
90.920998
20
9.461000
30
-283.752014
70
192
0
VERTEX
8
OBJECT__4
10
91.505997
20
11.214000
30
-295.540985
70
192
0
VERTEX
8
OBJECT__4
10
94.383003
20
3.396000
30
-284.809998
70
192
0
VERTEX
8
OBJECT__4
10
98.204002
20
-2.328000
30
-272.134003
70
192
0
VERTEX
8
OBJECT__4
10
94.709000
20
3.530000
30
-271.062012
70
192
0
VERTEX
8
OBJECT__4
10
92.235001
20
16.990999
30
-270.299011
70
192
0
VERTEX
8
OBJECT__4
10
99.357002
20
0.896000
30
-256.061005
70
192
0
VERTEX
8
OBJECT__4
10
97.203003
20
10.209000
30
-255.401993
70
192
0
VERTEX
8
OBJECT__4
10
102.190002
20
-4.147000
30
-256.927002
70
192
0
VERTEX
8
OBJECT__4
10
102.938004
20
-4.655000
30
-257.156006
70
192
0
VERTEX
8
OBJECT__4
10
105.819000
20
-6.612000
30
-258.036011
70
192
0
VERTEX
8
OBJECT__4
10
106.839996
20
-6.501000
30
-258.348999
70
192
0
VERTEX
8
OBJECT__4
10
101.782997
20
41.993000
30
-309.712006
70
192
0
VERTEX
8
OBJECT__4
10
102.181999
20
37.551998
30
-308.351013
70
192
0
VERTEX
8
OBJECT__4
10
101.665001
20
44.183998
30
-310.136993
70
192
0
VERTEX
8
OBJECT__4
10
100.169998
20
53.400002
30
-315.014008
70
192
0
VERTEX
8
OBJECT__4
10
101.447998
20
53.400002
30
-310.925995
70
192
0
VERTEX
8
OBJECT__4
10
104.726997
20
20.209999
30
-299.582001
70
192
0
VERTEX
8
OBJECT__4
10
103.639999
20
25.867001
30
-303.386993
70
192
0
VERTEX
8
OBJECT__4
10
104.791000
20
20.535999
30
-299.531006
70
192
0
VERTEX
8
OBJECT__4
10
102.388000
20
35.271000
30
-307.652008
70
192
0
VERTEX
8
OBJECT__4
10
102.578003
20
33.152000
30
-307.002991
70
192
0
VERTEX
8
OBJECT__4
10
105.240997
20
18.455999
30
-298.026001
70
192
0
VERTEX
8
OBJECT__4
10
107.001999
20
12.840000
30
-292.304993
70
192
0
VERTEX
8
OBJECT__4
10
105.125000
20
18.992001
30
-298.414001
70
192
0
VERTEX
8
OBJECT__4
10
109.263000
20
7.715000
30
-284.891998
70
192
0
VERTEX
8
OBJECT__4
10
111.464996
20
4.404000
30
-277.721008
70
192
0
VERTEX
8
OBJECT__4
10
108.045998
20
10.473000
30
-288.881989
70
192
0
VERTEX
8
OBJECT__4
10
114.109001
20
2.130000
30
-269.110992
70
192
0
VERTEX
8
OBJECT__4
10
111.901001
20
4.029000
30
-276.302002
70
192
0
VERTEX
8
OBJECT__4
10
96.773003
20
14.494000
30
-255.270996
70
192
0
VERTEX
8
OBJECT__4
10
96.713997
20
15.083000
30
-255.253006
70
192
0
VERTEX
8
OBJECT__4
10
94.399002
20
15.909000
30
-262.819000
70
192
0
VERTEX
8
OBJECT__4
10
93.375999
20
16.820999
30
-266.160004
70
192
0
VERTEX
8
OBJECT__4
10
91.239998
20
19.965000
30
-273.148987
70
192
0
VERTEX
8
OBJECT__4
10
90.341003
20
21.875000
30
-276.079010
70
192
0
VERTEX
8
OBJECT__4
10
92.135002
20
18.646999
30
-270.218994
70
192
0
VERTEX
8
OBJECT__4
10
88.575996
20
27.058001
30
-281.862000
70
192
0
VERTEX
8
OBJECT__4
10
85.984001
20
42.388000
30
-290.343994
70
192
0
VERTEX
8
OBJECT__4
10
85.522003
20
50.201000
30
-291.750000
70
192
0
VERTEX
8
OBJECT__4
10
86.504997
20
37.752998
30
-288.703003
70
192
0
VERTEX
8
OBJECT__4
10
88.257004
20
28.391001
30
-282.923004
70
192
0
VERTEX
8
OBJECT__4
10
87.665001
20
30.861000
30
-284.889008
70
192
0
VERTEX
8
OBJECT__4
10
69.138000
20
53.400002
30
-362.816986
70
192
0
VERTEX
8
OBJECT__4
10
55.923000
20
51.783001
30
-427.802002
70
192
0
VERTEX
8
OBJECT__4
10
55.831001
20
53.400002
30
-427.786011
70
192
0
VERTEX
8
OBJECT__4
10
57.261002
20
47.244999
30
-428.037994
70
192
0
VERTEX
8
OBJECT__4
10
59.905998
20
43.554001
30
-428.506012
70
192
0
VERTEX
8
OBJECT__4
10
57.145000
20
47.639999
30
-428.018005
70
192
0
VERTEX
8
OBJECT__4
10
60.275002
20
43.287998
30
-428.571014
70
192
0
VERTEX
8
OBJECT__4
10
63.458000
20
40.986000
30
-429.132996
70
192
0
VERTEX
8
OBJECT__4
10
64.526001
20
40.685001
30
-429.321014
70
192
0
VERTEX
8
OBJECT__4
10
67.976997
20
39.709999
30
-429.931000
70
192
0
VERTEX
8
OBJECT__4
10
69.350998
20
39.820999
30
-430.173004
70
192
0
VERTEX
8
OBJECT__4
10
72.610001
20
40.085999
30
-430.746002
70
192
0
VERTEX
8
OBJECT__4
10
74.353996
20
40.827000
30
-431.053009
70
192
0
VERTEX
8
OBJECT__4
10
76.524002
20
41.750000
30
-431.433990
70
192
0
VERTEX
8
OBJECT__4
10
78.666000
20
43.771000
30
-431.811005
70
192
0
VERTEX
8
OBJECT__4
10
80.137001
20
45.159000
30
-432.069000
70
192
0
VERTEX
8
OBJECT__4
10
82.146004
20
49.143002
30
-432.420990
70
192
0
VERTEX
8
OBJECT__4
10
81.690002
20
48.237999
30
-432.341003
70
192
0
VERTEX
8
OBJECT__4
10
82.862000
20
53.400002
30
-432.544006
70
192
0
VERTEX
8
OBJECT__4
10
85.480003
20
53.400002
30
-291.877014
70
192
0
VERTEX
8
OBJECT__4
10
116.509003
20
1.483000
30
-261.304993
70
192
0
VERTEX
8
OBJECT__4
10
96.007004
20
53.400002
30
-332.437012
70
192
0
VERTEX
8
OBJECT__4
10
0
20
0
30
0
70
128
71
1
72
2
73
3
0
VERTEX
8
OBJECT__4
10
0
20
0
30
0
70
128
71
4
72
5
73
6
0
VERTEX
8
OBJECT__4
10
0
20
0
30
0
70
128
71
7
72
8
73
9
0
VERTEX
8
OBJECT__4
10
0
20
0
30
0
70
128
71
10
72
1
73
11
0
VERTEX
8
OBJECT__4
10
0
20
0
30
0
70
128
71
12
72
9
73
2
0
VERTEX
8
OBJECT__4
10
0
20
0
30
0
70
128
71
13
72
12
73
1
0
VERTEX
8
OBJECT__4
10
0
20
0
30
0
70
128
71
14
72
7
73
12
0
VERTEX
8
OBJECT__4
10
0
20
0
30
0
70
128
71
8
72
7
73
15
0
VERTEX
8
OBJECT__4
10
0
20
0
30
0
70
128
71
15
72
16
73
8
0
VERTEX
8
OBJECT__4
10
0
20
0
30
0
70
128
71
14
72
17
73
18
0
VERTEX
8
OBJECT__4
10
0
20
0
30
0
70
128
71
18
72
7
73
14
0
VERTEX
8
OBJECT__4
10
0
20
0
30
0
70
128
71
19
72
20
73
21
0
VERTEX
8
OBJECT__4
10
0
20
0
30
0
70
128
71
22
72
23
73
24
0
VERTEX
8
OBJECT__4
10
0
20
0
30
0
70
128
71
23
72
25
73
26
0
VERTEX
8
OBJECT__4
10
0
20
0
30
0
70
128
71
27
72
24
73
20
0
VERTEX
8
OBJECT__4
10
0
20
0
30
0
70
128
71
24
72
26
73
28
0
VERTEX
8
OBJECT__4
10
0
20
0
30
0
70
128
71
29
72
30
73
26
0
VERTEX
8
OBJECT__4
10
0
20
0
30
0
70
128
71
30
72
28
73
26
0
VERTEX
8
OBJECT__4
10
0
20
0
30
0
70
128
71
29
72
31
73
32
0
VERTEX
8
OBJECT__4
10
0
20
0
30
0
70
128
71
32
72
30
73
29
0
VERTEX
8
OBJECT__4
10
0
20
0
30
0
70
128
71
30
72
33
73
34
0
VERTEX
8
OBJECT__4
10
0
20
0
30
0
70
128
71
33
72
35
73
34
0
VERTEX
8
OBJECT__4
10
0
20
0
30
0
70
128
71
11
72
3
73
36
0
VERTEX
8
OBJECT__4
10
0
20
0
30
0
70
128
71
34
72
21
73
20
0
VERTEX
8
OBJECT__4
10
0
20
0
30
0
70
128
71
37
72
21
73
38
0
VERTEX
8
OBJECT__4
10
0
20
0
30
0
70
128
71
35
72
38
73
21
0
VERTEX
8
OBJECT__4
10
0
20
0
30
0
70
128
71
38
72
35
73
39
0
VERTEX
8
OBJECT__4
10
0
20
0
30
0
70
128
71
40
72
39
73
35
0
VERTEX
8
OBJECT__4
10
0
20
0
30
0
70
128
71
41
72
33
73
30
0
VERTEX
8
OBJECT__4
10
0
20
0
30
0
70
128
71
42
72
43
73
44
0
VERTEX
8
OBJECT__4
10
0
20
0
30
0
70
128
71
43
72
45
73
44
0
VERTEX
8
OBJECT__4
10
0
20
0
30
0
70
128
71
46
72
42
73
47
0
VERTEX
8
OBJECT__4
10
0
20
0
30
0
70
128
71
42
72
48
73
47
0
VERTEX
8
OBJECT__4
10
0
20
0
30
0
70
128
71
46
72
49
73
50
0
VERTEX
8
OBJECT__4
10
0
20
0
30
0
70
128
71
50
72
42
73
46
0
VERTEX
8
OBJECT__4
10
0
20
0
30
0
70
128
71
42
72
51
73
52
0
VERTEX
8
OBJECT__4
10
0
20
0
30
0
70
128
71
52
72
43
73
42
0
VERTEX
8
OBJECT__4
10
0
20
0
30
0
70
128
71
5
72
45
73
43
0
VERTEX
8
OBJECT__4
10
0
20
0
30
0
70
128
71
6
72
43
73
53
0
VERTEX
8
OBJECT__4
10
0
20
0
30
0
70
128
71
52
72
51
73
54
0
VERTEX
8
OBJECT__4
10
0
20
0
30
0
70
128
71
55
72
56
73
50
0
VERTEX
8
OBJECT__4
10
0
20
0
30
0
70
128
71
51
72
50
73
56
0
VERTEX
8
OBJECT__4
10
0
20
0
30
0
70
128
71
22
72
27
73
56
0
VERTEX
8
OBJECT__4
10
0
20
0
30
0
70
128
71
27
72
19
73
54
0
VERTEX
8
OBJECT__4
10
0
20
0
30
0
70
128
71
19
72
37
73
57
0
VERTEX
8
OBJECT__4
10
0
20
0
30
0
70
128
71
58
72
53
73
59
0
VERTEX
8
OBJECT__4
10
0
20
0
30
0
70
128
71
53
72
52
73
57
0
VERTEX
8
OBJECT__4
10
0
20
0
30
0
70
128
71
60
72
59
73
36
0
VERTEX
8
OBJECT__4
10
0
20
0
30
0
70
128
71
59
72
57
73
37
0
VERTEX
8
OBJECT__4
10
0
20
0
30
0
70
128
71
61
72
58
73
60
0
VERTEX
8
OBJECT__4
10
0
20
0
30
0
70
128
71
62
72
6
73
58
0
VERTEX
8
OBJECT__4
10
0
20
0
30
0
70
128
71
63
72
62
73
61
0
VERTEX
8
OBJECT__4
10
0
20
0
30
0
70
128
71
64
72
61
73
65
0
VERTEX
8
OBJECT__4
10
0
20
0
30
0
70
128
71
3
72
2
73
65
0
VERTEX
8
OBJECT__4
10
0
20
0
30
0
70
128
71
2
72
9
73
66
0
VERTEX
8
OBJECT__4
10
0
20
0
30
0
70
128
71
66
72
67
73
68
0
VERTEX
8
OBJECT__4
10
0
20
0
30
0
70
128
71
69
72
63
73
64
0
VERTEX
8
OBJECT__4
10
0
20
0
30
0
70
128
71
68
72
70
73
71
0
VERTEX
8
OBJECT__4
10
0
20
0
30
0
70
128
71
71
72
69
73
68
0
VERTEX
8
OBJECT__4
10
0
20
0
30
0
70
128
71
67
72
72
73
70
0
VERTEX
8
OBJECT__4
10
0
20
0
30
0
70
128
71
67
72
73
73
72
0
VERTEX
8
OBJECT__4
10
0
20
0
30
0
70
128
71
9
72
8
73
67
0
VERTEX
8
OBJECT__4
10
0
20
0
30
0
70
128
71
8
72
74
73
73
0
VERTEX
8
OBJECT__4
10
0
20
0
30
0
70
128
71
8
72
75
73
74
0
VERTEX
8
OBJECT__4
10
0
20
0
30
0
70
128
71
33
72
76
73
77
0
VERTEX
8
OBJECT__4
10
0
20
0
30
0
70
128
71
78
72
33
73
79
0
VERTEX
8
OBJECT__4
10
0
20
0
30
0
70
128
71
33
72
41
73
79
0
VERTEX
8
OBJECT__4
10
0
20
0
30
0
70
128
71
79
72
80
73
78
0
VERTEX
8
OBJECT__4
10
0
20
0
30
0
70
128
71
78
72
76
73
33
0
VERTEX
8
OBJECT__4
10
0
20
0
30
0
70
128
71
81
72
39
73
82
0
VERTEX
8
OBJECT__4
10
0
20
0
30
0
70
128
71
82
72
83
73
81
0
VERTEX
8
OBJECT__4
10
0
20
0
30
0
70
128
71
39
72
40
73
84
0
VERTEX
8
OBJECT__4
10
0
20
0
30
0
70
128
71
84
72
85
73
39
0
VERTEX
8
OBJECT__4
10
0
20
0
30
0
70
128
71
85
72
82
73
39
0
VERTEX
8
OBJECT__4
10
0
20
0
30
0
70
128
71
10
72
86
73
87
0
VERTEX
8
OBJECT__4
10
0
20
0
30
0
70
128
71
87
72
13
73
10
0
VERTEX
8
OBJECT__4
10
0
20
0
30
0
70
128
71
10
72
81
73
88
0
VERTEX
8
OBJECT__4
10
0
20
0
30
0
70
128
71
88
72
86
73
10
0
VERTEX
8
OBJECT__4
10
0
20
0
30
0
70
128
71
14
72
13
73
89
0
VERTEX
8
OBJECT__4
10
0
20
0
30
0
70
128
71
89
72
90
73
14
0
VERTEX
8
OBJECT__4
10
0
20
0
30
0
70
128
71
13
72
91
73
89
0
VERTEX
8
OBJECT__4
10
0
20
0
30
0
70
128
71
17
72
14
73
92
0
VERTEX
8
OBJECT__4
10
0
20
0
30
0
70
128
71
14
72
93
73
92
0
VERTEX
8
OBJECT__4
10
0
20
0
30
0
70
128
71
94
72
95
73
96
0
VERTEX
8
OBJECT__4
10
0
20
0
30
0
70
128
71
96
72
69
73
94
0
VERTEX
8
OBJECT__4
10
0
20
0
30
0
70
128
71
96
72
97
73
69
0
VERTEX
8
OBJECT__4
10
0
20
0
30
0
70
128
71
63
72
69
73
98
0
VERTEX
8
OBJECT__4
10
0
20
0
30
0
70
128
71
98
72
99
73
63
0
VERTEX
8
OBJECT__4
10
0
20
0
30
0
70
128
71
69
72
100
73
98
0
VERTEX
8
OBJECT__4
10
0
20
0
30
0
70
128
71
99
72
101
73
63
0
VERTEX
8
OBJECT__4
10
0
20
0
30
0
70
128
71
62
72
102
73
103
0
VERTEX
8
OBJECT__4
10
0
20
0
30
0
70
128
71
103
72
4
73
62
0
VERTEX
8
OBJECT__4
10
0
20
0
30
0
70
128
71
62
72
104
73
102
0
VERTEX
8
OBJECT__4
10
0
20
0
30
0
70
128
71
62
72
63
73
105
0
VERTEX
8
OBJECT__4
10
0
20
0
30
0
70
128
71
105
72
106
73
62
0
VERTEX
8
OBJECT__4
10
0
20
0
30
0
70
128
71
106
72
104
73
62
0
VERTEX
8
OBJECT__4
10
0
20
0
30
0
70
128
71
46
72
107
73
108
0
VERTEX
8
OBJECT__4
10
0
20
0
30
0
70
128
71
107
72
109
73
108
0
VERTEX
8
OBJECT__4
10
0
20
0
30
0
70
128
71
46
72
110
73
111
0
VERTEX
8
OBJECT__4
10
0
20
0
30
0
70
128
71
46
72
112
73
110
0
VERTEX
8
OBJECT__4
10
0
20
0
30
0
70
128
71
111
72
49
73
46
0
VERTEX
8
OBJECT__4
10
0
20
0
30
0
70
128
71
49
72
113
73
114
0
VERTEX
8
OBJECT__4
10
0
20
0
30
0
70
128
71
114
72
55
73
49
0
VERTEX
8
OBJECT__4
10
0
20
0
30
0
70
128
71
55
72
115
73
116
0
VERTEX
8
OBJECT__4
10
0
20
0
30
0
70
128
71
116
72
22
73
55
0
VERTEX
8
OBJECT__4
10
0
20
0
30
0
70
128
71
22
72
117
73
118
0
VERTEX
8
OBJECT__4
10
0
20
0
30
0
70
128
71
118
72
23
73
22
0
VERTEX
8
OBJECT__4
10
0
20
0
30
0
70
128
71
25
72
23
73
119
0
VERTEX
8
OBJECT__4
10
0
20
0
30
0
70
128
71
119
72
120
73
25
0
VERTEX
8
OBJECT__4
10
0
20
0
30
0
70
128
71
29
72
25
73
121
0
VERTEX
8
OBJECT__4
10
0
20
0
30
0
70
128
71
121
72
122
73
29
0
VERTEX
8
OBJECT__4
10
0
20
0
30
0
70
128
71
31
72
29
73
123
0
VERTEX
8
OBJECT__4
10
0
20
0
30
0
70
128
71
29
72
124
73
123
0
VERTEX
8
OBJECT__4
10
0
20
0
30
0
70
128
71
123
72
125
73
31
0
VERTEX
8
OBJECT__4
10
0
20
0
30
0
70
128
71
122
72
124
73
29
0
VERTEX
8
OBJECT__4
10
0
20
0
30
0
70
128
71
120
72
121
73
25
0
VERTEX
8
OBJECT__4
10
0
20
0
30
0
70
128
71
118
72
119
73
23
0
VERTEX
8
OBJECT__4
10
0
20
0
30
0
70
128
71
116
72
117
73
22
0
VERTEX
8
OBJECT__4
10
0
20
0
30
0
70
128
71
114
72
115
73
55
0
VERTEX
8
OBJECT__4
10
0
20
0
30
0
70
128
71
111
72
113
73
49
0
VERTEX
8
OBJECT__4
10
0
20
0
30
0
70
128
71
108
72
112
73
46
0
VERTEX
8
OBJECT__4
10
0
20
0
30
0
70
128
71
103
72
126
73
4
0
VERTEX
8
OBJECT__4
10
0
20
0
30
0
70
128
71
101
72
105
73
63
0
VERTEX
8
OBJECT__4
10
0
20
0
30
0
70
128
71
97
72
100
73
69
0
VERTEX
8
OBJECT__4
10
0
20
0
30
0
70
128
71
92
72
127
73
17
0
VERTEX
8
OBJECT__4
10
0
20
0
30
0
70
128
71
90
72
93
73
14
0
VERTEX
8
OBJECT__4
10
0
20
0
30
0
70
128
71
87
72
91
73
13
0
VERTEX
8
OBJECT__4
10
0
20
0
30
0
70
128
71
88
72
81
73
83
0
VERTEX
8
OBJECT__4
10
0
20
0
30
0
70
128
71
81
72
10
73
39
0
VERTEX
8
OBJECT__4
10
0
20
0
30
0
70
128
71
84
72
40
73
77
0
VERTEX
8
OBJECT__4
10
0
20
0
30
0
70
128
71
77
72
40
73
33
0
VERTEX
8
OBJECT__4
10
0
20
0
30
0
70
128
71
73
72
67
73
8
0
VERTEX
8
OBJECT__4
10
0
20
0
30
0
70
128
71
67
72
66
73
9
0
VERTEX
8
OBJECT__4
10
0
20
0
30
0
70
128
71
70
72
68
73
67
0
VERTEX
8
OBJECT__4
10
0
20
0
30
0
70
128
71
71
72
94
73
69
0
VERTEX
8
OBJECT__4
10
0
20
0
30
0
70
128
71
64
72
68
73
69
0
VERTEX
8
OBJECT__4
10
0
20
0
30
0
70
128
71
68
72
64
73
66
0
VERTEX
8
OBJECT__4
10
0
20
0
30
0
70
128
71
66
72
65
73
2
0
VERTEX
8
OBJECT__4
10
0
20
0
30
0
70
128
71
65
72
60
73
3
0
VERTEX
8
OBJECT__4
10
0
20
0
30
0
70
128
71
65
72
66
73
64
0
VERTEX
8
OBJECT__4
10
0
20
0
30
0
70
128
71
61
72
64
73
63
0
VERTEX
8
OBJECT__4
10
0
20
0
30
0
70
128
71
58
72
61
73
62
0
VERTEX
8
OBJECT__4
10
0
20
0
30
0
70
128
71
60
72
65
73
61
0
VERTEX
8
OBJECT__4
10
0
20
0
30
0
70
128
71
37
72
36
73
59
0
VERTEX
8
OBJECT__4
10
0
20
0
30
0
70
128
71
36
72
3
73
60
0
VERTEX
8
OBJECT__4
10
0
20
0
30
0
70
128
71
57
72
59
73
53
0
VERTEX
8
OBJECT__4
10
0
20
0
30
0
70
128
71
59
72
60
73
58
0
VERTEX
8
OBJECT__4
10
0
20
0
30
0
70
128
71
57
72
54
73
19
0
VERTEX
8
OBJECT__4
10
0
20
0
30
0
70
128
71
54
72
56
73
27
0
VERTEX
8
OBJECT__4
10
0
20
0
30
0
70
128
71
56
72
55
73
22
0
VERTEX
8
OBJECT__4
10
0
20
0
30
0
70
128
71
56
72
54
73
51
0
VERTEX
8
OBJECT__4
10
0
20
0
30
0
70
128
71
50
72
49
73
55
0
VERTEX
8
OBJECT__4
10
0
20
0
30
0
70
128
71
54
72
57
73
52
0
VERTEX
8
OBJECT__4
10
0
20
0
30
0
70
128
71
53
72
58
73
6
0
VERTEX
8
OBJECT__4
10
0
20
0
30
0
70
128
71
43
72
6
73
5
0
VERTEX
8
OBJECT__4
10
0
20
0
30
0
70
128
71
52
72
53
73
43
0
VERTEX
8
OBJECT__4
10
0
20
0
30
0
70
128
71
50
72
51
73
42
0
VERTEX
8
OBJECT__4
10
0
20
0
30
0
70
128
71
47
72
107
73
46
0
VERTEX
8
OBJECT__4
10
0
20
0
30
0
70
128
71
44
72
48
73
42
0
VERTEX
8
OBJECT__4
10
0
20
0
30
0
70
128
71
30
72
128
73
41
0
VERTEX
8
OBJECT__4
10
0
20
0
30
0
70
128
71
35
72
33
73
40
0
VERTEX
8
OBJECT__4
10
0
20
0
30
0
70
128
71
39
72
11
73
38
0
VERTEX
8
OBJECT__4
10
0
20
0
30
0
70
128
71
21
72
34
73
35
0
VERTEX
8
OBJECT__4
10
0
20
0
30
0
70
128
71
38
72
36
73
37
0
VERTEX
8
OBJECT__4
10
0
20
0
30
0
70
128
71
20
72
28
73
34
0
VERTEX
8
OBJECT__4
10
0
20
0
30
0
70
128
71
36
72
38
73
11
0
VERTEX
8
OBJECT__4
10
0
20
0
30
0
70
128
71
34
72
28
73
30
0
VERTEX
8
OBJECT__4
10
0
20
0
30
0
70
128
71
32
72
128
73
30
0
VERTEX
8
OBJECT__4
10
0
20
0
30
0
70
128
71
26
72
25
73
29
0
VERTEX
8
OBJECT__4
10
0
20
0
30
0
70
128
71
28
72
20
73
24
0
VERTEX
8
OBJECT__4
10
0
20
0
30
0
70
128
71
20
72
19
73
27
0
VERTEX
8
OBJECT__4
10
0
20
0
30
0
70
128
71
26
72
24
73
23
0
VERTEX
8
OBJECT__4
10
0
20
0
30
0
70
128
71
24
72
27
73
22
0
VERTEX
8
OBJECT__4
10
0
20
0
30
0
70
128
71
21
72
37
73
19
0
VERTEX
8
OBJECT__4
10
0
20
0
30
0
70
128
71
18
72
15
73
7
0
VERTEX
8
OBJECT__4
10
0
20
0
30
0
70
128
71
16
72
75
73
8
0
VERTEX
8
OBJECT__4
10
0
20
0
30
0
70
128
71
12
72
13
73
14
0
VERTEX
8
OBJECT__4
10
0
20
0
30
0
70
128
71
1
72
10
73
13
0
VERTEX
8
OBJECT__4
10
0
20
0
30
0
70
128
71
2
72
1
73
12
0
VERTEX
8
OBJECT__4
10
0
20
0
30
0
70
128
71
11
72
39
73
10
0
VERTEX
8
OBJECT__4
10
0
20
0
30
0
70
128
71
9
72
12
73
7
0
VERTEX
8
OBJECT__4
10
0
20
0
30
0
70
128
71
6
72
62
73
4
0
VERTEX
8
OBJECT__4
10
0
20
0
30
0
70
128
71
3
72
11
73
1
0
SEQEND
8
OBJECT__4
0
POLYLINE
8
OBJECT__5
66
1
70
64
71
32
72
30
62
253
0
VERTEX
8
OBJECT__5
10
113.797997
20
104.489998
30
-270.122986
70
192
0
VERTEX
8
OBJECT__5
10
116.418999
20
105.183998
30
-261.277008
70
192
0
VERTEX
8
OBJECT__5
10
116.329002
20
105.050003
30
-261.250000
70
192
0
VERTEX
8
OBJECT__5
10
116.509003
20
105.317001
30
-261.304993
70
192
0
VERTEX
8
OBJECT__5
10
113.632004
20
104.227997
30
-270.023010
70
192
0
VERTEX
8
OBJECT__5
10
112.991997
20
103.786003
30
-272.105988
70
192
0
VERTEX
8
OBJECT__5
10
110.527000
20
101.084000
30
-280.132996
70
192
0
VERTEX
8
OBJECT__5
10
111.911003
20
102.684998
30
-276.265991
70
192
0
VERTEX
8
OBJECT__5
10
110.556999
20
101.204002
30
-280.671997
70
192
0
VERTEX
8
OBJECT__5
10
110.408997
20
100.955002
30
-280.515991
70
192
0
VERTEX
8
OBJECT__5
10
108.292000
20
97.185997
30
-287.440002
70
192
0
VERTEX
8
OBJECT__5
10
106.140999
20
91.602997
30
-294.483002
70
192
0
VERTEX
8
OBJECT__5
10
106.261002
20
91.808998
30
-294.717010
70
192
0
VERTEX
8
OBJECT__5
10
108.032997
20
96.400002
30
-288.920013
70
192
0
VERTEX
8
OBJECT__5
10
105.652000
20
89.830002
30
-296.072998
70
192
0
VERTEX
8
OBJECT__5
10
104.500000
20
85.650002
30
-299.821014
70
192
0
VERTEX
8
OBJECT__5
10
104.772003
20
86.389999
30
-299.570007
70
192
0
VERTEX
8
OBJECT__5
10
105.255997
20
88.151001
30
-297.993011
70
192
0
VERTEX
8
OBJECT__5
10
104.614998
20
85.820999
30
-300.079010
70
192
0
VERTEX
8
OBJECT__5
10
103.180000
20
78.064003
30
-304.981995
70
192
0
VERTEX
8
OBJECT__5
10
103.058998
20
77.944000
30
-304.714996
70
192
0
VERTEX
8
OBJECT__5
10
102.448997
20
73.106003
30
-306.764008
70
192
0
VERTEX
8
OBJECT__5
10
102.366997
20
71.551003
30
-307.722992
70
192
0
VERTEX
8
OBJECT__5
10
102.116997
20
70.478996
30
-307.877014
70
192
0
VERTEX
8
OBJECT__5
10
102.242996
20
70.555000
30
-308.141998
70
192
0
VERTEX
8
OBJECT__5
10
101.488998
20
61.519001
30
-310.050995
70
192
0
VERTEX
8
OBJECT__5
10
101.619003
20
61.553001
30
-310.308990
70
192
0
VERTEX
8
OBJECT__5
10
102.189003
20
69.778999
30
-308.329010
70
192
0
VERTEX
8
OBJECT__5
10
101.447998
20
53.400002
30
-310.925995
70
192
0
VERTEX
8
OBJECT__5
10
101.317001
20
53.400002
30
-310.670013
70
192
0
VERTEX
8
OBJECT__5
10
108.426003
20
97.418999
30
-287.632996
70
192
0
VERTEX
8
OBJECT__5
10
113.154999
20
104.045998
30
-272.217987
70
192
0
VERTEX
8
OBJECT__5
10
0
20
0
30
0
70
128
71
1
72
2
73
3
0
VERTEX
8
OBJECT__5
10
0
20
0
30
0
70
128
71
1
72
4
73
2
0
VERTEX
8
OBJECT__5
10
0
20
0
30
0
70
128
71
1
72
5
73
6
0
VERTEX
8
OBJECT__5
10
0
20
0
30
0
70
128
71
6
72
7
73
8
0
VERTEX
8
OBJECT__5
10
0
20
0
30
0
70
128
71
9
72
8
73
7
0
VERTEX
8
OBJECT__5
10
0
20
0
30
0
70
128
71
7
72
10
73
9
0
VERTEX
8
OBJECT__5
10
0
20
0
30
0
70
128
71
9
72
10
73
11
0
VERTEX
8
OBJECT__5
10
0
20
0
30
0
70
128
71
12
72
13
73
14
0
VERTEX
8
OBJECT__5
10
0
20
0
30
0
70
128
71
14
72
11
73
12
0
VERTEX
8
OBJECT__5
10
0
20
0
30
0
70
128
71
13
72
12
73
15
0
VERTEX
8
OBJECT__5
10
0
20
0
30
0
70
128
71
16
72
17
73
18
0
VERTEX
8
OBJECT__5
10
0
20
0
30
0
70
128
71
18
72
15
73
16
0
VERTEX
8
OBJECT__5
10
0
20
0
30
0
70
128
71
16
72
19
73
17
0
VERTEX
8
OBJECT__5
10
0
20
0
30
0
70
128
71
20
72
19
73
16
0
VERTEX
8
OBJECT__5
10
0
20
0
30
0
70
128
71
20
72
21
73
22
0
VERTEX
8
OBJECT__5
10
0
20
0
30
0
70
128
71
22
72
23
73
20
0
VERTEX
8
OBJECT__5
10
0
20
0
30
0
70
128
71
24
72
25
73
23
0
VERTEX
8
OBJECT__5
10
0
20
0
30
0
70
128
71
26
72
27
73
28
0
VERTEX
8
OBJECT__5
10
0
20
0
30
0
70
128
71
28
72
24
73
26
0
VERTEX
8
OBJECT__5
10
0
20
0
30
0
70
128
71
29
72
27
73
26
0
VERTEX
8
OBJECT__5
10
0
20
0
30
0
70
128
71
26
72
30
73
29
0
VERTEX
8
OBJECT__5
10
0
20
0
30
0
70
128
71
28
72
25
73
24
0
VERTEX
8
OBJECT__5
10
0
20
0
30
0
70
128
71
22
72
24
73
23
0
VERTEX
8
OBJECT__5
10
0
20
0
30
0
70
128
71
16
72
21
73
20
0
VERTEX
8
OBJECT__5
10
0
20
0
30
0
70
128
71
15
72
18
73
13
0
VERTEX
8
OBJECT__5
10
0
20
0
30
0
70
128
71
14
72
31
73
11
0
VERTEX
8
OBJECT__5
10
0
20
0
30
0
70
128
71
11
72
31
73
9
0
VERTEX
8
OBJECT__5
10
0
20
0
30
0
70
128
71
8
72
32
73
6
0
VERTEX
8
OBJECT__5
10
0
20
0
30
0
70
128
71
6
72
32
73
1
0
VERTEX
8
OBJECT__5
10
0
20
0
30
0
70
128
71
3
72
5
73
1
0
SEQEND
8
OBJECT__5
0
POLYLINE
8
OBJECT__6
66
1
70
64
71
46
72
46
62
253
0
VERTEX
8
OBJECT__6
10
116.418999
20
105.183998
30
-261.277008
70
192
0
VERTEX
8
OBJECT__6
10
116.509003
20
105.317001
30
-261.304993
70
192
0
VERTEX
8
OBJECT__6
10
120.140999
20
103.808998
30
-249.423004
70
192
0
VERTEX
8
OBJECT__6
10
120.400002
20
103.372002
30
-248.492004
70
192
0
VERTEX
8
OBJECT__6
10
120.425003
20
103.440002
30
-248.494003
70
192
0
VERTEX
8
OBJECT__6
10
123.563004
20
99.370003
30
-238.231995
70
192
0
VERTEX
8
OBJECT__6
10
120.400002
20
3.428000
30
-248.492004
70
192
0
VERTEX
8
OBJECT__6
10
124.063004
20
8.611000
30
-236.593994
70
192
0
VERTEX
8
OBJECT__6
10
123.563004
20
7.430000
30
-238.231995
70
192
0
VERTEX
8
OBJECT__6
10
116.418999
20
1.616000
30
-261.277008
70
192
0
VERTEX
8
OBJECT__6
10
120.140999
20
2.991000
30
-249.423004
70
192
0
VERTEX
8
OBJECT__6
10
120.425003
20
3.360000
30
-248.494003
70
192
0
VERTEX
8
OBJECT__6
10
120.237000
20
103.290001
30
-248.466003
70
192
0
VERTEX
8
OBJECT__6
10
116.329002
20
105.050003
30
-261.250000
70
192
0
VERTEX
8
OBJECT__6
10
124.063004
20
98.189003
30
-236.593994
70
192
0
VERTEX
8
OBJECT__6
10
122.057999
20
100.709999
30
-242.509003
70
192
0
VERTEX
8
OBJECT__6
10
123.878998
20
98.129997
30
-236.552994
70
192
0
VERTEX
8
OBJECT__6
10
127.180000
20
89.922997
30
-226.401001
70
192
0
VERTEX
8
OBJECT__6
10
127.007004
20
89.921997
30
-226.322998
70
192
0
VERTEX
8
OBJECT__6
10
129.567001
20
79.202003
30
-218.593002
70
192
0
VERTEX
8
OBJECT__6
10
131.065994
20
66.749001
30
-213.688995
70
192
0
VERTEX
8
OBJECT__6
10
130.914993
20
66.767998
30
-213.539001
70
192
0
VERTEX
8
OBJECT__6
10
130.160995
20
72.997002
30
-216.007004
70
192
0
VERTEX
8
OBJECT__6
10
131.576996
20
53.400002
30
-212.018005
70
192
0
VERTEX
8
OBJECT__6
10
130.914993
20
40.032001
30
-213.539001
70
192
0
VERTEX
8
OBJECT__6
10
131.429993
20
53.400002
30
-211.856003
70
192
0
VERTEX
8
OBJECT__6
10
131.065994
20
40.050999
30
-213.688995
70
192
0
VERTEX
8
OBJECT__6
10
129.567001
20
27.598000
30
-218.593002
70
192
0
VERTEX
8
OBJECT__6
10
130.160995
20
33.803001
30
-216.007004
70
192
0
VERTEX
8
OBJECT__6
10
129.406006
20
27.575001
30
-218.473999
70
192
0
VERTEX
8
OBJECT__6
10
127.007004
20
16.878000
30
-226.322998
70
192
0
VERTEX
8
OBJECT__6
10
123.878998
20
8.670000
30
-236.552994
70
192
0
VERTEX
8
OBJECT__6
10
127.180000
20
16.877001
30
-226.401001
70
192
0
VERTEX
8
OBJECT__6
10
120.237000
20
3.510000
30
-248.466003
70
192
0
VERTEX
8
OBJECT__6
10
122.057999
20
6.090000
30
-242.509003
70
192
0
VERTEX
8
OBJECT__6
10
116.329002
20
1.750000
30
-261.250000
70
192
0
VERTEX
8
OBJECT__6
10
129.406006
20
79.224998
30
-218.473999
70
192
0
VERTEX
8
OBJECT__6
10
116.509003
20
1.483000
30
-261.304993
70
192
0
VERTEX
8
OBJECT__6
10
126.573997
20
14.539000
30
-228.380997
70
192
0
VERTEX
8
OBJECT__6
10
129.001007
20
23.908001
30
-220.445007
70
192
0
VERTEX
8
OBJECT__6
10
130.701004
20
34.990002
30
-214.882004
70
192
0
VERTEX
8
OBJECT__6
10
131.576996
20
47.141998
30
-212.018005
70
192
0
VERTEX
8
OBJECT__6
10
131.576996
20
59.658001
30
-212.018005
70
192
0
VERTEX
8
OBJECT__6
10
130.701004
20
71.809998
30
-214.882004
70
192
0
VERTEX
8
OBJECT__6
10
129.001007
20
82.891998
30
-220.445007
70
192
0
VERTEX
8
OBJECT__6
10
126.573997
20
92.261002
30
-228.380997
70
192
0
VERTEX
8
OBJECT__6
10
0
20
0
30
0
70
128
71
1
72
2
73
3
0
VERTEX
8
OBJECT__6
10
0
20
0
30
0
70
128
71
3
72
4
73
1
0
VERTEX
8
OBJECT__6
10
0
20
0
30
0
70
128
71
4
72
5
73
6
0
VERTEX
8
OBJECT__6
10
0
20
0
30
0
70
128
71
7
72
8
73
9
0
VERTEX
8
OBJECT__6
10
0
20
0
30
0
70
128
71
10
72
7
73
11
0
VERTEX
8
OBJECT__6
10
0
20
0
30
0
70
128
71
7
72
12
73
11
0
VERTEX
8
OBJECT__6
10
0
20
0
30
0
70
128
71
4
72
13
73
14
0
VERTEX
8
OBJECT__6
10
0
20
0
30
0
70
128
71
4
72
15
73
16
0
VERTEX
8
OBJECT__6
10
0
20
0
30
0
70
128
71
15
72
17
73
16
0
VERTEX
8
OBJECT__6
10
0
20
0
30
0
70
128
71
17
72
15
73
18
0
VERTEX
8
OBJECT__6
10
0
20
0
30
0
70
128
71
19
72
18
73
20
0
VERTEX
8
OBJECT__6
10
0
20
0
30
0
70
128
71
21
72
22
73
23
0
VERTEX
8
OBJECT__6
10
0
20
0
30
0
70
128
71
23
72
20
73
21
0
VERTEX
8
OBJECT__6
10
0
20
0
30
0
70
128
71
22
72
21
73
24
0
VERTEX
8
OBJECT__6
10
0
20
0
30
0
70
128
71
25
72
26
73
24
0
VERTEX
8
OBJECT__6
10
0
20
0
30
0
70
128
71
27
72
28
73
29
0
VERTEX
8
OBJECT__6
10
0
20
0
30
0
70
128
71
28
72
30
73
29
0
VERTEX
8
OBJECT__6
10
0
20
0
30
0
70
128
71
31
72
30
73
28
0
VERTEX
8
OBJECT__6
10
0
20
0
30
0
70
128
71
32
72
31
73
33
0
VERTEX
8
OBJECT__6
10
0
20
0
30
0
70
128
71
7
72
34
73
35
0
VERTEX
8
OBJECT__6
10
0
20
0
30
0
70
128
71
35
72
8
73
7
0
VERTEX
8
OBJECT__6
10
0
20
0
30
0
70
128
71
7
72
10
73
36
0
VERTEX
8
OBJECT__6
10
0
20
0
30
0
70
128
71
36
72
34
73
7
0
VERTEX
8
OBJECT__6
10
0
20
0
30
0
70
128
71
35
72
32
73
8
0
VERTEX
8
OBJECT__6
10
0
20
0
30
0
70
128
71
33
72
8
73
32
0
VERTEX
8
OBJECT__6
10
0
20
0
30
0
70
128
71
28
72
33
73
31
0
VERTEX
8
OBJECT__6
10
0
20
0
30
0
70
128
71
29
72
25
73
27
0
VERTEX
8
OBJECT__6
10
0
20
0
30
0
70
128
71
24
72
27
73
25
0
VERTEX
8
OBJECT__6
10
0
20
0
30
0
70
128
71
24
72
26
73
22
0
VERTEX
8
OBJECT__6
10
0
20
0
30
0
70
128
71
23
72
37
73
20
0
VERTEX
8
OBJECT__6
10
0
20
0
30
0
70
128
71
20
72
37
73
19
0
VERTEX
8
OBJECT__6
10
0
20
0
30
0
70
128
71
18
72
19
73
17
0
VERTEX
8
OBJECT__6
10
0
20
0
30
0
70
128
71
16
72
13
73
4
0
VERTEX
8
OBJECT__6
10
0
20
0
30
0
70
128
71
14
72
1
73
4
0
VERTEX
8
OBJECT__6
10
0
20
0
30
0
70
128
71
11
72
38
73
10
0
VERTEX
8
OBJECT__6
10
0
20
0
30
0
70
128
71
9
72
12
73
7
0
VERTEX
8
OBJECT__6
10
0
20
0
30
0
70
128
71
8
72
33
73
39
0
VERTEX
8
OBJECT__6
10
0
20
0
30
0
70
128
71
33
72
28
73
40
0
VERTEX
8
OBJECT__6
10
0
20
0
30
0
70
128
71
28
72
27
73
41
0
VERTEX
8
OBJECT__6
10
0
20
0
30
0
70
128
71
27
72
24
73
42
0
VERTEX
8
OBJECT__6
10
0
20
0
30
0
70
128
71
24
72
21
73
43
0
VERTEX
8
OBJECT__6
10
0
20
0
30
0
70
128
71
21
72
20
73
44
0
VERTEX
8
OBJECT__6
10
0
20
0
30
0
70
128
71
20
72
18
73
45
0
VERTEX
8
OBJECT__6
10
0
20
0
30
0
70
128
71
18
72
15
73
46
0
VERTEX
8
OBJECT__6
10
0
20
0
30
0
70
128
71
6
72
15
73
4
0
VERTEX
8
OBJECT__6
10
0
20
0
30
0
70
128
71
3
72
5
73
4
0
SEQEND
8
OBJECT__6
0
POLYLINE
8
OBJECT__7
66
1
70
64
71
32
72
30
62
253
0
VERTEX
8
OBJECT__7
10
101.447998
20
53.400002
30
-310.925995
70
192
0
VERTEX
8
OBJECT__7
10
101.317001
20
53.400002
30
-310.670013
70
192
0
VERTEX
8
OBJECT__7
10
101.535004
20
44.223000
30
-309.877014
70
192
0
VERTEX
8
OBJECT__7
10
101.665001
20
44.183998
30
-310.136993
70
192
0
VERTEX
8
OBJECT__7
10
101.653999
20
42.042000
30
-309.450989
70
192
0
VERTEX
8
OBJECT__7
10
102.417999
20
33.645000
30
-306.859985
70
192
0
VERTEX
8
OBJECT__7
10
102.181999
20
37.551998
30
-308.351013
70
192
0
VERTEX
8
OBJECT__7
10
102.388000
20
35.271000
30
-307.652008
70
192
0
VERTEX
8
OBJECT__7
10
102.578003
20
33.152000
30
-307.002991
70
192
0
VERTEX
8
OBJECT__7
10
102.455002
20
33.244999
30
-306.735992
70
192
0
VERTEX
8
OBJECT__7
10
103.522003
20
26.006001
30
-303.122009
70
192
0
VERTEX
8
OBJECT__7
10
105.125000
20
18.643000
30
-297.774994
70
192
0
VERTEX
8
OBJECT__7
10
104.791000
20
20.535999
30
-299.531006
70
192
0
VERTEX
8
OBJECT__7
10
105.240997
20
18.455999
30
-298.026001
70
192
0
VERTEX
8
OBJECT__7
10
105.125000
20
18.992001
30
-298.414001
70
192
0
VERTEX
8
OBJECT__7
10
107.001999
20
12.840000
30
-292.304993
70
192
0
VERTEX
8
OBJECT__7
10
105.647003
20
16.976999
30
-296.078003
70
192
0
VERTEX
8
OBJECT__7
10
109.123001
20
7.955000
30
-284.713989
70
192
0
VERTEX
8
OBJECT__7
10
109.263000
20
7.715000
30
-284.891998
70
192
0
VERTEX
8
OBJECT__7
10
108.045998
20
10.473000
30
-288.881989
70
192
0
VERTEX
8
OBJECT__7
10
106.876999
20
13.057000
30
-292.084991
70
192
0
VERTEX
8
OBJECT__7
10
110.542999
20
5.816000
30
-280.087006
70
192
0
VERTEX
8
OBJECT__7
10
111.464996
20
4.404000
30
-277.721008
70
192
0
VERTEX
8
OBJECT__7
10
113.941002
20
2.393000
30
-269.015015
70
192
0
VERTEX
8
OBJECT__7
10
114.109001
20
2.130000
30
-269.110992
70
192
0
VERTEX
8
OBJECT__7
10
111.901001
20
4.029000
30
-276.302002
70
192
0
VERTEX
8
OBJECT__7
10
111.311996
20
4.657000
30
-277.580994
70
192
0
VERTEX
8
OBJECT__7
10
116.418999
20
1.616000
30
-261.277008
70
192
0
VERTEX
8
OBJECT__7
10
116.329002
20
1.750000
30
-261.250000
70
192
0
VERTEX
8
OBJECT__7
10
116.509003
20
1.483000
30
-261.304993
70
192
0
VERTEX
8
OBJECT__7
10
103.639999
20
25.867001
30
-303.386993
70
192
0
VERTEX
8
OBJECT__7
10
101.782997
20
41.993000
30
-309.712006
70
192
0
VERTEX
8
OBJECT__7
10
0
20
0
30
0
70
128
71
1
72
2
73
3
0
VERTEX
8
OBJECT__7
10
0
20
0
30
0
70
128
71
4
72
3
73
5
0
VERTEX
8
OBJECT__7
10
0
20
0
30
0
70
128
71
5
72
6
73
7
0
VERTEX
8
OBJECT__7
10
0
20
0
30
0
70
128
71
6
72
8
73
7
0
VERTEX
8
OBJECT__7
10
0
20
0
30
0
70
128
71
9
72
8
73
6
0
VERTEX
8
OBJECT__7
10
0
20
0
30
0
70
128
71
6
72
10
73
9
0
VERTEX
8
OBJECT__7
10
0
20
0
30
0
70
128
71
9
72
10
73
11
0
VERTEX
8
OBJECT__7
10
0
20
0
30
0
70
128
71
11
72
12
73
13
0
VERTEX
8
OBJECT__7
10
0
20
0
30
0
70
128
71
12
72
14
73
15
0
VERTEX
8
OBJECT__7
10
0
20
0
30
0
70
128
71
15
72
13
73
12
0
VERTEX
8
OBJECT__7
10
0
20
0
30
0
70
128
71
16
72
14
73
17
0
VERTEX
8
OBJECT__7
10
0
20
0
30
0
70
128
71
14
72
12
73
17
0
VERTEX
8
OBJECT__7
10
0
20
0
30
0
70
128
71
18
72
19
73
20
0
VERTEX
8
OBJECT__7
10
0
20
0
30
0
70
128
71
20
72
21
73
18
0
VERTEX
8
OBJECT__7
10
0
20
0
30
0
70
128
71
19
72
18
73
22
0
VERTEX
8
OBJECT__7
10
0
20
0
30
0
70
128
71
22
72
23
73
19
0
VERTEX
8
OBJECT__7
10
0
20
0
30
0
70
128
71
24
72
25
73
26
0
VERTEX
8
OBJECT__7
10
0
20
0
30
0
70
128
71
26
72
27
73
24
0
VERTEX
8
OBJECT__7
10
0
20
0
30
0
70
128
71
28
72
25
73
24
0
VERTEX
8
OBJECT__7
10
0
20
0
30
0
70
128
71
24
72
29
73
28
0
VERTEX
8
OBJECT__7
10
0
20
0
30
0
70
128
71
28
72
30
73
25
0
VERTEX
8
OBJECT__7
10
0
20
0
30
0
70
128
71
26
72
23
73
27
0
VERTEX
8
OBJECT__7
10
0
20
0
30
0
70
128
71
22
72
27
73
23
0
VERTEX
8
OBJECT__7
10
0
20
0
30
0
70
128
71
20
72
16
73
21
0
VERTEX
8
OBJECT__7
10
0
20
0
30
0
70
128
71
17
72
21
73
16
0
VERTEX
8
OBJECT__7
10
0
20
0
30
0
70
128
71
13
72
31
73
11
0
VERTEX
8
OBJECT__7
10
0
20
0
30
0
70
128
71
11
72
31
73
9
0
VERTEX
8
OBJECT__7
10
0
20
0
30
0
70
128
71
7
72
32
73
5
0
VERTEX
8
OBJECT__7
10
0
20
0
30
0
70
128
71
5
72
32
73
4
0
VERTEX
8
OBJECT__7
10
0
20
0
30
0
70
128
71
3
72
4
73
1
0
SEQEND
8
OBJECT__7
0
POLYLINE
8
OBJECT__8
66
1
70
64
71
64
72
64
62
253
0
VERTEX
8
OBJECT__8
10
101.181999
20
73.166000
30
-306.518005
70
192
0
VERTEX
8
OBJECT__8
10
100.032997
20
53.400002
30
-310.277008
70
192
0
VERTEX
8
OBJECT__8
10
101.488998
20
61.519001
30
-310.050995
70
192
0
VERTEX
8
OBJECT__8
10
101.317001
20
53.400002
30
-310.670013
70
192
0
VERTEX
8
OBJECT__8
10
102.116997
20
70.478996
30
-307.877014
70
192
0
VERTEX
8
OBJECT__8
10
101.181999
20
33.633999
30
-306.518005
70
192
0
VERTEX
8
OBJECT__8
10
101.653999
20
42.042000
30
-309.450989
70
192
0
VERTEX
8
OBJECT__8
10
101.535004
20
44.223000
30
-309.877014
70
192
0
VERTEX
8
OBJECT__8
10
102.417999
20
33.645000
30
-306.859985
70
192
0
VERTEX
8
OBJECT__8
10
105.647003
20
16.976999
30
-296.078003
70
192
0
VERTEX
8
OBJECT__8
10
105.125000
20
18.643000
30
-297.774994
70
192
0
VERTEX
8
OBJECT__8
10
103.980003
20
18.580000
30
-297.365997
70
192
0
VERTEX
8
OBJECT__8
10
103.595001
20
20.079000
30
-298.623993
70
192
0
VERTEX
8
OBJECT__8
10
103.670998
20
19.723000
30
-298.329987
70
192
0
VERTEX
8
OBJECT__8
10
103.522003
20
26.006001
30
-303.122009
70
192
0
VERTEX
8
OBJECT__8
10
102.455002
20
33.244999
30
-306.735992
70
192
0
VERTEX
8
OBJECT__8
10
109.355003
20
5.682000
30
-279.786011
70
192
0
VERTEX
8
OBJECT__8
10
109.123001
20
7.955000
30
-284.713989
70
192
0
VERTEX
8
OBJECT__8
10
106.876999
20
13.057000
30
-292.084991
70
192
0
VERTEX
8
OBJECT__8
10
104.456001
20
16.878000
30
-295.809998
70
192
0
VERTEX
8
OBJECT__8
10
110.542999
20
5.816000
30
-280.087006
70
192
0
VERTEX
8
OBJECT__8
10
115.134003
20
1.750000
30
-260.884003
70
192
0
VERTEX
8
OBJECT__8
10
113.941002
20
2.393000
30
-269.015015
70
192
0
VERTEX
8
OBJECT__8
10
111.311996
20
4.657000
30
-277.580994
70
192
0
VERTEX
8
OBJECT__8
10
116.329002
20
1.750000
30
-261.250000
70
192
0
VERTEX
8
OBJECT__8
10
120.912003
20
5.682000
30
-241.981995
70
192
0
VERTEX
8
OBJECT__8
10
120.237000
20
3.510000
30
-248.466003
70
192
0
VERTEX
8
OBJECT__8
10
122.057999
20
6.090000
30
-242.509003
70
192
0
VERTEX
8
OBJECT__8
10
125.811996
20
16.878000
30
-225.957993
70
192
0
VERTEX
8
OBJECT__8
10
127.007004
20
16.878000
30
-226.322998
70
192
0
VERTEX
8
OBJECT__8
10
123.878998
20
8.670000
30
-236.552994
70
192
0
VERTEX
8
OBJECT__8
10
129.085007
20
33.633999
30
-215.251007
70
192
0
VERTEX
8
OBJECT__8
10
129.406006
20
27.575001
30
-218.473999
70
192
0
VERTEX
8
OBJECT__8
10
130.160995
20
33.803001
30
-216.007004
70
192
0
VERTEX
8
OBJECT__8
10
130.235001
20
53.400002
30
-211.490997
70
192
0
VERTEX
8
OBJECT__8
10
131.429993
20
53.400002
30
-211.856003
70
192
0
VERTEX
8
OBJECT__8
10
130.914993
20
40.032001
30
-213.539001
70
192
0
VERTEX
8
OBJECT__8
10
129.085007
20
73.166000
30
-215.251007
70
192
0
VERTEX
8
OBJECT__8
10
130.914993
20
66.767998
30
-213.539001
70
192
0
VERTEX
8
OBJECT__8
10
130.160995
20
72.997002
30
-216.007004
70
192
0
VERTEX
8
OBJECT__8
10
125.811996
20
89.921997
30
-225.957993
70
192
0
VERTEX
8
OBJECT__8
10
127.007004
20
89.921997
30
-226.322998
70
192
0
VERTEX
8
OBJECT__8
10
129.406006
20
79.224998
30
-218.473999
70
192
0
VERTEX
8
OBJECT__8
10
120.912003
20
101.117996
30
-241.981995
70
192
0
VERTEX
8
OBJECT__8
10
123.878998
20
98.129997
30
-236.552994
70
192
0
VERTEX
8
OBJECT__8
10
122.057999
20
100.709999
30
-242.509003
70
192
0
VERTEX
8
OBJECT__8
10
115.134003
20
105.050003
30
-260.884003
70
192
0
VERTEX
8
OBJECT__8
10
116.329002
20
105.050003
30
-261.250000
70
192
0
VERTEX
8
OBJECT__8
10
120.237000
20
103.290001
30
-248.466003
70
192
0
VERTEX
8
OBJECT__8
10
109.355003
20
101.117996
30
-279.786011
70
192
0
VERTEX
8
OBJECT__8
10
112.991997
20
103.786003
30
-272.105988
70
192
0
VERTEX
8
OBJECT__8
10
113.632004
20
104.227997
30
-270.023010
70
192
0
VERTEX
8
OBJECT__8
10
110.527000
20
101.084000
30
-280.132996
70
192
0
VERTEX
8
OBJECT__8
10
104.456001
20
89.921997
30
-295.809998
70
192
0
VERTEX
8
OBJECT__8
10
106.140999
20
91.602997
30
-294.483002
70
192
0
VERTEX
8
OBJECT__8
10
108.292000
20
97.185997
30
-287.440002
70
192
0
VERTEX
8
OBJECT__8
10
105.652000
20
89.830002
30
-296.072998
70
192
0
VERTEX
8
OBJECT__8
10
110.408997
20
100.955002
30
-280.515991
70
192
0
VERTEX
8
OBJECT__8
10
103.595001
20
86.721001
30
-298.623993
70
192
0
VERTEX
8
OBJECT__8
10
103.058998
20
77.944000
30
-304.714996
70
192
0
VERTEX
8
OBJECT__8
10
102.448997
20
73.106003
30
-306.764008
70
192
0
VERTEX
8
OBJECT__8
10
103.980003
20
88.220001
30
-297.365997
70
192
0
VERTEX
8
OBJECT__8
10
103.875000
20
87.871002
30
-297.664001
70
192
0
VERTEX
8
OBJECT__8
10
104.500000
20
85.650002
30
-299.821014
70
192
0
VERTEX
8
OBJECT__8
10
0
20
0
30
0
70
128
71
1
72
2
73
3
0
VERTEX
8
OBJECT__8
10
0
20
0
30
0
70
128
71
2
72
4
73
3
0
VERTEX
8
OBJECT__8
10
0
20
0
30
0
70
128
71
3
72
5
73
1
0
VERTEX
8
OBJECT__8
10
0
20
0
30
0
70
128
71
2
72
6
73
7
0
VERTEX
8
OBJECT__8
10
0
20
0
30
0
70
128
71
7
72
8
73
2
0
VERTEX
8
OBJECT__8
10
0
20
0
30
0
70
128
71
6
72
9
73
7
0
VERTEX
8
OBJECT__8
10
0
20
0
30
0
70
128
71
10
72
11
73
12
0
VERTEX
8
OBJECT__8
10
0
20
0
30
0
70
128
71
11
72
13
73
14
0
VERTEX
8
OBJECT__8
10
0
20
0
30
0
70
128
71
14
72
12
73
11
0
VERTEX
8
OBJECT__8
10
0
20
0
30
0
70
128
71
6
72
13
73
15
0
VERTEX
8
OBJECT__8
10
0
20
0
30
0
70
128
71
15
72
16
73
6
0
VERTEX
8
OBJECT__8
10
0
20
0
30
0
70
128
71
13
72
11
73
15
0
VERTEX
8
OBJECT__8
10
0
20
0
30
0
70
128
71
16
72
9
73
6
0
VERTEX
8
OBJECT__8
10
0
20
0
30
0
70
128
71
17
72
18
73
19
0
VERTEX
8
OBJECT__8
10
0
20
0
30
0
70
128
71
19
72
20
73
17
0
VERTEX
8
OBJECT__8
10
0
20
0
30
0
70
128
71
17
72
21
73
18
0
VERTEX
8
OBJECT__8
10
0
20
0
30
0
70
128
71
17
72
22
73
23
0
VERTEX
8
OBJECT__8
10
0
20
0
30
0
70
128
71
23
72
24
73
17
0
VERTEX
8
OBJECT__8
10
0
20
0
30
0
70
128
71
22
72
25
73
23
0
VERTEX
8
OBJECT__8
10
0
20
0
30
0
70
128
71
22
72
26
73
27
0
VERTEX
8
OBJECT__8
10
0
20
0
30
0
70
128
71
26
72
28
73
27
0
VERTEX
8
OBJECT__8
10
0
20
0
30
0
70
128
71
29
72
30
73
31
0
VERTEX
8
OBJECT__8
10
0
20
0
30
0
70
128
71
31
72
26
73
29
0
VERTEX
8
OBJECT__8
10
0
20
0
30
0
70
128
71
29
72
32
73
33
0
VERTEX
8
OBJECT__8
10
0
20
0
30
0
70
128
71
32
72
34
73
33
0
VERTEX
8
OBJECT__8
10
0
20
0
30
0
70
128
71
35
72
36
73
37
0
VERTEX
8
OBJECT__8
10
0
20
0
30
0
70
128
71
37
72
32
73
35
0
VERTEX
8
OBJECT__8
10
0
20
0
30
0
70
128
71
35
72
38
73
39
0
VERTEX
8
OBJECT__8
10
0
20
0
30
0
70
128
71
38
72
40
73
39
0
VERTEX
8
OBJECT__8
10
0
20
0
30
0
70
128
71
41
72
42
73
43
0
VERTEX
8
OBJECT__8
10
0
20
0
30
0
70
128
71
43
72
38
73
41
0
VERTEX
8
OBJECT__8
10
0
20
0
30
0
70
128
71
41
72
44
73
45
0
VERTEX
8
OBJECT__8
10
0
20
0
30
0
70
128
71
44
72
46
73
45
0
VERTEX
8
OBJECT__8
10
0
20
0
30
0
70
128
71
47
72
48
73
49
0
VERTEX
8
OBJECT__8
10
0
20
0
30
0
70
128
71
49
72
44
73
47
0
VERTEX
8
OBJECT__8
10
0
20
0
30
0
70
128
71
50
72
51
73
52
0
VERTEX
8
OBJECT__8
10
0
20
0
30
0
70
128
71
50
72
53
73
51
0
VERTEX
8
OBJECT__8
10
0
20
0
30
0
70
128
71
52
72
47
73
50
0
VERTEX
8
OBJECT__8
10
0
20
0
30
0
70
128
71
54
72
55
73
56
0
VERTEX
8
OBJECT__8
10
0
20
0
30
0
70
128
71
54
72
57
73
55
0
VERTEX
8
OBJECT__8
10
0
20
0
30
0
70
128
71
56
72
50
73
54
0
VERTEX
8
OBJECT__8
10
0
20
0
30
0
70
128
71
56
72
58
73
50
0
VERTEX
8
OBJECT__8
10
0
20
0
30
0
70
128
71
59
72
1
73
60
0
VERTEX
8
OBJECT__8
10
0
20
0
30
0
70
128
71
1
72
61
73
60
0
VERTEX
8
OBJECT__8
10
0
20
0
30
0
70
128
71
57
72
62
73
63
0
VERTEX
8
OBJECT__8
10
0
20
0
30
0
70
128
71
63
72
64
73
57
0
VERTEX
8
OBJECT__8
10
0
20
0
30
0
70
128
71
63
72
59
73
64
0
VERTEX
8
OBJECT__8
10
0
20
0
30
0
70
128
71
57
72
54
73
62
0
VERTEX
8
OBJECT__8
10
0
20
0
30
0
70
128
71
60
72
64
73
59
0
VERTEX
8
OBJECT__8
10
0
20
0
30
0
70
128
71
58
72
53
73
50
0
VERTEX
8
OBJECT__8
10
0
20
0
30
0
70
128
71
52
72
48
73
47
0
VERTEX
8
OBJECT__8
10
0
20
0
30
0
70
128
71
49
72
46
73
44
0
VERTEX
8
OBJECT__8
10
0
20
0
30
0
70
128
71
45
72
42
73
41
0
VERTEX
8
OBJECT__8
10
0
20
0
30
0
70
128
71
43
72
40
73
38
0
VERTEX
8
OBJECT__8
10
0
20
0
30
0
70
128
71
39
72
36
73
35
0
VERTEX
8
OBJECT__8
10
0
20
0
30
0
70
128
71
37
72
34
73
32
0
VERTEX
8
OBJECT__8
10
0
20
0
30
0
70
128
71
33
72
30
73
29
0
VERTEX
8
OBJECT__8
10
0
20
0
30
0
70
128
71
31
72
28
73
26
0
VERTEX
8
OBJECT__8
10
0
20
0
30
0
70
128
71
27
72
25
73
22
0
VERTEX
8
OBJECT__8
10
0
20
0
30
0
70
128
71
24
72
21
73
17
0
VERTEX
8
OBJECT__8
10
0
20
0
30
0
70
128
71
19
72
10
73
20
0
VERTEX
8
OBJECT__8
10
0
20
0
30
0
70
128
71
12
72
20
73
10
0
VERTEX
8
OBJECT__8
10
0
20
0
30
0
70
128
71
8
72
4
73
2
0
VERTEX
8
OBJECT__8
10
0
20
0
30
0
70
128
71
5
72
61
73
1
0
SEQEND
8
OBJECT__8
0
POLYLINE
8
OBJECT__9
66
1
70
64
71
142
72
212
62
253
0
VERTEX
8
OBJECT__9
10
100.224998
20
11.464000
30
-245.518005
70
192
0
VERTEX
8
OBJECT__9
10
99.394997
20
16.197001
30
-246.483994
70
192
0
VERTEX
8
OBJECT__9
10
96.773003
20
14.494000
30
-255.270996
70
192
0
VERTEX
8
OBJECT__9
10
96.713997
20
15.083000
30
-255.253006
70
192
0
VERTEX
8
OBJECT__9
10
103.070999
20
15.156000
30
-236.207001
70
192
0
VERTEX
8
OBJECT__9
10
101.919998
20
19.472000
30
-238.223999
70
192
0
VERTEX
8
OBJECT__9
10
100.151001
20
17.177999
30
-244.009003
70
192
0
VERTEX
8
OBJECT__9
10
105.577003
20
21.070999
30
-228.013000
70
192
0
VERTEX
8
OBJECT__9
10
103.253998
20
22.622000
30
-233.860001
70
192
0
VERTEX
8
OBJECT__9
10
104.141998
20
24.719999
30
-230.953995
70
192
0
VERTEX
8
OBJECT__9
10
107.595001
20
28.865000
30
-221.410004
70
192
0
VERTEX
8
OBJECT__9
10
105.754997
20
30.945000
30
-225.679993
70
192
0
VERTEX
8
OBJECT__9
10
105.932999
20
31.634001
30
-225.097000
70
192
0
VERTEX
8
OBJECT__9
10
109.010002
20
38.084000
30
-216.783005
70
192
0
VERTEX
8
OBJECT__9
10
107.188004
20
39.813000
30
-220.990997
70
192
0
VERTEX
8
OBJECT__9
10
109.738998
20
48.194000
30
-214.399994
70
192
0
VERTEX
8
OBJECT__9
10
107.834999
20
48.780998
30
-218.876999
70
192
0
VERTEX
8
OBJECT__9
10
107.317001
20
41.602001
30
-220.570007
70
192
0
VERTEX
8
OBJECT__9
10
109.738998
20
58.605999
30
-214.399994
70
192
0
VERTEX
8
OBJECT__9
10
107.834999
20
53.400002
30
-218.876999
70
192
0
VERTEX
8
OBJECT__9
10
107.834999
20
58.019001
30
-218.876999
70
192
0
VERTEX
8
OBJECT__9
10
109.010002
20
68.716003
30
-216.783005
70
192
0
VERTEX
8
OBJECT__9
10
107.317001
20
65.197998
30
-220.570007
70
192
0
VERTEX
8
OBJECT__9
10
107.188004
20
66.987000
30
-220.990997
70
192
0
VERTEX
8
OBJECT__9
10
107.595001
20
77.934998
30
-221.410004
70
192
0
VERTEX
8
OBJECT__9
10
105.932999
20
75.166000
30
-225.097000
70
192
0
VERTEX
8
OBJECT__9
10
105.577003
20
85.728996
30
-228.013000
70
192
0
VERTEX
8
OBJECT__9
10
104.141998
20
82.080002
30
-230.953995
70
192
0
VERTEX
8
OBJECT__9
10
105.754997
20
75.855003
30
-225.679993
70
192
0
VERTEX
8
OBJECT__9
10
103.070999
20
91.643997
30
-236.207001
70
192
0
VERTEX
8
OBJECT__9
10
101.919998
20
87.328003
30
-238.223999
70
192
0
VERTEX
8
OBJECT__9
10
103.253998
20
84.178001
30
-233.860001
70
192
0
VERTEX
8
OBJECT__9
10
100.224998
20
95.335999
30
-245.518005
70
192
0
VERTEX
8
OBJECT__9
10
100.151001
20
89.622002
30
-244.009003
70
192
0
VERTEX
8
OBJECT__9
10
99.394997
20
90.602997
30
-246.483994
70
192
0
VERTEX
8
OBJECT__9
10
97.203003
20
96.591003
30
-255.401993
70
192
0
VERTEX
8
OBJECT__9
10
96.773003
20
92.306000
30
-255.270996
70
192
0
VERTEX
8
OBJECT__9
10
99.357002
20
0.896000
30
-256.061005
70
192
0
VERTEX
8
OBJECT__9
10
103.030998
20
2.421000
30
-244.044998
70
192
0
VERTEX
8
OBJECT__9
10
106.490997
20
6.910000
30
-232.727005
70
192
0
VERTEX
8
OBJECT__9
10
109.537003
20
14.100000
30
-222.764999
70
192
0
VERTEX
8
OBJECT__9
10
111.990997
20
23.573999
30
-214.738998
70
192
0
VERTEX
8
OBJECT__9
10
113.709999
20
34.782001
30
-209.113998
70
192
0
VERTEX
8
OBJECT__9
10
114.596001
20
47.070999
30
-206.216995
70
192
0
VERTEX
8
OBJECT__9
10
114.596001
20
59.729000
30
-206.216995
70
192
0
VERTEX
8
OBJECT__9
10
113.709999
20
72.017998
30
-209.113998
70
192
0
VERTEX
8
OBJECT__9
10
111.990997
20
83.225998
30
-214.738998
70
192
0
VERTEX
8
OBJECT__9
10
109.537003
20
92.699997
30
-222.764999
70
192
0
VERTEX
8
OBJECT__9
10
106.490997
20
99.889999
30
-232.727005
70
192
0
VERTEX
8
OBJECT__9
10
103.030998
20
104.378998
30
-244.044998
70
192
0
VERTEX
8
OBJECT__9
10
99.357002
20
105.903999
30
-256.061005
70
192
0
VERTEX
8
OBJECT__9
10
106.216003
20
-2.475000
30
-243.757004
70
192
0
VERTEX
8
OBJECT__9
10
110.009003
20
2.445000
30
-231.352005
70
192
0
VERTEX
8
OBJECT__9
10
113.347000
20
10.326000
30
-220.434006
70
192
0
VERTEX
8
OBJECT__9
10
116.036003
20
20.709999
30
-211.636002
70
192
0
VERTEX
8
OBJECT__9
10
117.920998
20
32.993999
30
-205.470993
70
192
0
VERTEX
8
OBJECT__9
10
118.891998
20
46.463001
30
-202.296005
70
192
0
VERTEX
8
OBJECT__9
10
118.891998
20
60.337002
30
-202.296005
70
192
0
VERTEX
8
OBJECT__9
10
117.920998
20
73.806000
30
-205.470993
70
192
0
VERTEX
8
OBJECT__9
10
116.036003
20
86.089996
30
-211.636002
70
192
0
VERTEX
8
OBJECT__9
10
113.347000
20
96.473999
30
-220.434006
70
192
0
VERTEX
8
OBJECT__9
10
110.009003
20
104.355003
30
-231.352005
70
192
0
VERTEX
8
OBJECT__9
10
106.216003
20
109.275002
30
-243.757004
70
192
0
VERTEX
8
OBJECT__9
10
102.190002
20
110.946999
30
-256.927002
70
192
0
VERTEX
8
OBJECT__9
10
110.017998
20
-4.869000
30
-244.302002
70
192
0
VERTEX
8
OBJECT__9
10
102.938004
20
-4.655000
30
-257.156006
70
192
0
VERTEX
8
OBJECT__9
10
102.190002
20
-4.147000
30
-256.927002
70
192
0
VERTEX
8
OBJECT__9
10
113.973000
20
0.262000
30
-231.365997
70
192
0
VERTEX
8
OBJECT__9
10
117.454002
20
8.480000
30
-219.979996
70
192
0
VERTEX
8
OBJECT__9
10
120.259003
20
19.309000
30
-210.804993
70
192
0
VERTEX
8
OBJECT__9
10
122.223999
20
32.118999
30
-204.376007
70
192
0
VERTEX
8
OBJECT__9
10
123.237000
20
46.166000
30
-201.065002
70
192
0
VERTEX
8
OBJECT__9
10
123.237000
20
60.633999
30
-201.065002
70
192
0
VERTEX
8
OBJECT__9
10
122.223999
20
74.681000
30
-204.376007
70
192
0
VERTEX
8
OBJECT__9
10
120.259003
20
87.490997
30
-210.804993
70
192
0
VERTEX
8
OBJECT__9
10
117.454002
20
98.320000
30
-219.979996
70
192
0
VERTEX
8
OBJECT__9
10
113.973000
20
106.538002
30
-231.365997
70
192
0
VERTEX
8
OBJECT__9
10
110.017998
20
111.668999
30
-244.302002
70
192
0
VERTEX
8
OBJECT__9
10
105.819000
20
113.412003
30
-258.036011
70
192
0
VERTEX
8
OBJECT__9
10
102.938004
20
111.455002
30
-257.156006
70
192
0
VERTEX
8
OBJECT__9
10
113.750000
20
-4.471000
30
-245.546005
70
192
0
VERTEX
8
OBJECT__9
10
106.839996
20
-6.501000
30
-258.348999
70
192
0
VERTEX
8
OBJECT__9
10
105.819000
20
-6.612000
30
-258.036011
70
192
0
VERTEX
8
OBJECT__9
10
117.678001
20
0.624000
30
-232.697998
70
192
0
VERTEX
8
OBJECT__9
10
121.135002
20
8.787000
30
-221.389008
70
192
0
VERTEX
8
OBJECT__9
10
123.920998
20
19.542000
30
-212.276993
70
192
0
VERTEX
8
OBJECT__9
10
125.873001
20
32.264999
30
-205.891998
70
192
0
VERTEX
8
OBJECT__9
10
126.877998
20
46.216000
30
-202.602997
70
192
0
VERTEX
8
OBJECT__9
10
126.877998
20
60.584000
30
-202.602997
70
192
0
VERTEX
8
OBJECT__9
10
125.873001
20
74.535004
30
-205.891998
70
192
0
VERTEX
8
OBJECT__9
10
123.920998
20
87.258003
30
-212.276993
70
192
0
VERTEX
8
OBJECT__9
10
121.135002
20
98.013000
30
-221.389008
70
192
0
VERTEX
8
OBJECT__9
10
117.678001
20
106.176003
30
-232.697998
70
192
0
VERTEX
8
OBJECT__9
10
113.750000
20
111.271004
30
-245.546005
70
192
0
VERTEX
8
OBJECT__9
10
109.579002
20
113.002998
30
-259.186005
70
192
0
VERTEX
8
OBJECT__9
10
106.839996
20
113.301003
30
-258.348999
70
192
0
VERTEX
8
OBJECT__9
10
110.936996
20
-5.098000
30
-259.601013
70
192
0
VERTEX
8
OBJECT__9
10
114.280998
20
-2.379000
30
-260.622986
70
192
0
VERTEX
8
OBJECT__9
10
118.182999
20
-0.758000
30
-247.858002
70
192
0
VERTEX
8
OBJECT__9
10
109.579002
20
-6.203000
30
-259.186005
70
192
0
VERTEX
8
OBJECT__9
10
121.859001
20
4.010000
30
-235.834000
70
192
0
VERTEX
8
OBJECT__9
10
125.095001
20
11.649000
30
-225.251007
70
192
0
VERTEX
8
OBJECT__9
10
127.702003
20
21.714001
30
-216.723999
70
192
0
VERTEX
8
OBJECT__9
10
129.529007
20
33.619999
30
-210.748001
70
192
0
VERTEX
8
OBJECT__9
10
130.470001
20
46.676998
30
-207.671005
70
192
0
VERTEX
8
OBJECT__9
10
130.470001
20
60.123001
30
-207.671005
70
192
0
VERTEX
8
OBJECT__9
10
129.529007
20
73.180000
30
-210.748001
70
192
0
VERTEX
8
OBJECT__9
10
127.702003
20
85.085999
30
-216.723999
70
192
0
VERTEX
8
OBJECT__9
10
125.095001
20
95.151001
30
-225.251007
70
192
0
VERTEX
8
OBJECT__9
10
121.859001
20
102.790001
30
-235.834000
70
192
0
VERTEX
8
OBJECT__9
10
118.182999
20
107.557999
30
-247.858002
70
192
0
VERTEX
8
OBJECT__9
10
110.936996
20
111.898003
30
-259.601013
70
192
0
VERTEX
8
OBJECT__9
10
114.280998
20
109.179001
30
-260.622986
70
192
0
VERTEX
8
OBJECT__9
10
114.904999
20
-1.296000
30
-260.813995
70
192
0
VERTEX
8
OBJECT__9
10
116.509003
20
1.483000
30
-261.304993
70
192
0
VERTEX
8
OBJECT__9
10
120.425003
20
3.360000
30
-248.494003
70
192
0
VERTEX
8
OBJECT__9
10
120.140999
20
2.991000
30
-249.423004
70
192
0
VERTEX
8
OBJECT__9
10
124.063004
20
8.611000
30
-236.593994
70
192
0
VERTEX
8
OBJECT__9
10
123.563004
20
7.430000
30
-238.231995
70
192
0
VERTEX
8
OBJECT__9
10
127.180000
20
16.877001
30
-226.401001
70
192
0
VERTEX
8
OBJECT__9
10
126.573997
20
14.539000
30
-228.380997
70
192
0
VERTEX
8
OBJECT__9
10
129.567001
20
27.598000
30
-218.593002
70
192
0
VERTEX
8
OBJECT__9
10
129.001007
20
23.908001
30
-220.445007
70
192
0
VERTEX
8
OBJECT__9
10
131.065994
20
40.050999
30
-213.688995
70
192
0
VERTEX
8
OBJECT__9
10
130.701004
20
34.990002
30
-214.882004
70
192
0
VERTEX
8
OBJECT__9
10
131.576996
20
47.141998
30
-212.018005
70
192
0
VERTEX
8
OBJECT__9
10
131.576996
20
53.400002
30
-212.018005
70
192
0
VERTEX
8
OBJECT__9
10
131.576996
20
59.658001
30
-212.018005
70
192
0
VERTEX
8
OBJECT__9
10
131.065994
20
66.749001
30
-213.688995
70
192
0
VERTEX
8
OBJECT__9
10
130.701004
20
71.809998
30
-214.882004
70
192
0
VERTEX
8
OBJECT__9
10
129.567001
20
79.202003
30
-218.593002
70
192
0
VERTEX
8
OBJECT__9
10
129.001007
20
82.891998
30
-220.445007
70
192
0
VERTEX
8
OBJECT__9
10
127.180000
20
89.922997
30
-226.401001
70
192
0
VERTEX
8
OBJECT__9
10
126.573997
20
92.261002
30
-228.380997
70
192
0
VERTEX
8
OBJECT__9
10
124.063004
20
98.189003
30
-236.593994
70
192
0
VERTEX
8
OBJECT__9
10
123.563004
20
99.370003
30
-238.231995
70
192
0
VERTEX
8
OBJECT__9
10
120.425003
20
103.440002
30
-248.494003
70
192
0
VERTEX
8
OBJECT__9
10
114.904999
20
108.096001
30
-260.813995
70
192
0
VERTEX
8
OBJECT__9
10
120.140999
20
103.808998
30
-249.423004
70
192
0
VERTEX
8
OBJECT__9
10
116.509003
20
105.317001
30
-261.304993
70
192
0
VERTEX
8
OBJECT__9
10
97.203003
20
10.209000
30
-255.401993
70
192
0
VERTEX
8
OBJECT__9
10
96.713997
20
91.717003
30
-255.253006
70
192
0
VERTEX
8
OBJECT__9
10
0
20
0
30
0
70
128
71
1
72
2
73
3
0
VERTEX
8
OBJECT__9
10
0
20
0
30
0
70
128
71
2
72
4
73
3
0
VERTEX
8
OBJECT__9
10
0
20
0
30
0
70
128
71
5
72
6
73
7
0
VERTEX
8
OBJECT__9
10
0
20
0
30
0
70
128
71
7
72
1
73
5
0
VERTEX
8
OBJECT__9
10
0
20
0
30
0
70
128
71
5
72
8
73
9
0
VERTEX
8
OBJECT__9
10
0
20
0
30
0
70
128
71
8
72
10
73
9
0
VERTEX
8
OBJECT__9
10
0
20
0
30
0
70
128
71
8
72
11
73
12
0
VERTEX
8
OBJECT__9
10
0
20
0
30
0
70
128
71
11
72
13
73
12
0
VERTEX
8
OBJECT__9
10
0
20
0
30
0
70
128
71
14
72
15
73
13
0
VERTEX
8
OBJECT__9
10
0
20
0
30
0
70
128
71
16
72
17
73
18
0
VERTEX
8
OBJECT__9
10
0
20
0
30
0
70
128
71
18
72
14
73
16
0
VERTEX
8
OBJECT__9
10
0
20
0
30
0
70
128
71
16
72
19
73
20
0
VERTEX
8
OBJECT__9
10
0
20
0
30
0
70
128
71
19
72
21
73
20
0
VERTEX
8
OBJECT__9
10
0
20
0
30
0
70
128
71
19
72
22
73
23
0
VERTEX
8
OBJECT__9
10
0
20
0
30
0
70
128
71
22
72
24
73
23
0
VERTEX
8
OBJECT__9
10
0
20
0
30
0
70
128
71
25
72
26
73
24
0
VERTEX
8
OBJECT__9
10
0
20
0
30
0
70
128
71
27
72
28
73
29
0
VERTEX
8
OBJECT__9
10
0
20
0
30
0
70
128
71
29
72
25
73
27
0
VERTEX
8
OBJECT__9
10
0
20
0
30
0
70
128
71
30
72
31
73
32
0
VERTEX
8
OBJECT__9
10
0
20
0
30
0
70
128
71
32
72
27
73
30
0
VERTEX
8
OBJECT__9
10
0
20
0
30
0
70
128
71
30
72
33
73
34
0
VERTEX
8
OBJECT__9
10
0
20
0
30
0
70
128
71
33
72
35
73
34
0
VERTEX
8
OBJECT__9
10
0
20
0
30
0
70
128
71
33
72
36
73
37
0
VERTEX
8
OBJECT__9
10
0
20
0
30
0
70
128
71
37
72
35
73
33
0
VERTEX
8
OBJECT__9
10
0
20
0
30
0
70
128
71
38
72
39
73
1
0
VERTEX
8
OBJECT__9
10
0
20
0
30
0
70
128
71
39
72
40
73
5
0
VERTEX
8
OBJECT__9
10
0
20
0
30
0
70
128
71
40
72
41
73
8
0
VERTEX
8
OBJECT__9
10
0
20
0
30
0
70
128
71
41
72
42
73
11
0
VERTEX
8
OBJECT__9
10
0
20
0
30
0
70
128
71
42
72
43
73
14
0
VERTEX
8
OBJECT__9
10
0
20
0
30
0
70
128
71
43
72
44
73
16
0
VERTEX
8
OBJECT__9
10
0
20
0
30
0
70
128
71
44
72
45
73
19
0
VERTEX
8
OBJECT__9
10
0
20
0
30
0
70
128
71
45
72
46
73
22
0
VERTEX
8
OBJECT__9
10
0
20
0
30
0
70
128
71
46
72
47
73
25
0
VERTEX
8
OBJECT__9
10
0
20
0
30
0
70
128
71
47
72
48
73
27
0
VERTEX
8
OBJECT__9
10
0
20
0
30
0
70
128
71
48
72
49
73
30
0
VERTEX
8
OBJECT__9
10
0
20
0
30
0
70
128
71
49
72
50
73
33
0
VERTEX
8
OBJECT__9
10
0
20
0
30
0
70
128
71
50
72
51
73
36
0
VERTEX
8
OBJECT__9
10
0
20
0
30
0
70
128
71
52
72
39
73
38
0
VERTEX
8
OBJECT__9
10
0
20
0
30
0
70
128
71
52
72
53
73
40
0
VERTEX
8
OBJECT__9
10
0
20
0
30
0
70
128
71
53
72
54
73
41
0
VERTEX
8
OBJECT__9
10
0
20
0
30
0
70
128
71
54
72
55
73
42
0
VERTEX
8
OBJECT__9
10
0
20
0
30
0
70
128
71
55
72
56
73
43
0
VERTEX
8
OBJECT__9
10
0
20
0
30
0
70
128
71
56
72
57
73
44
0
VERTEX
8
OBJECT__9
10
0
20
0
30
0
70
128
71
57
72
58
73
45
0
VERTEX
8
OBJECT__9
10
0
20
0
30
0
70
128
71
58
72
59
73
46
0
VERTEX
8
OBJECT__9
10
0
20
0
30
0
70
128
71
59
72
60
73
47
0
VERTEX
8
OBJECT__9
10
0
20
0
30
0
70
128
71
60
72
61
73
48
0
VERTEX
8
OBJECT__9
10
0
20
0
30
0
70
128
71
61
72
62
73
49
0
VERTEX
8
OBJECT__9
10
0
20
0
30
0
70
128
71
62
72
63
73
50
0
VERTEX
8
OBJECT__9
10
0
20
0
30
0
70
128
71
64
72
51
73
50
0
VERTEX
8
OBJECT__9
10
0
20
0
30
0
70
128
71
65
72
52
73
66
0
VERTEX
8
OBJECT__9
10
0
20
0
30
0
70
128
71
52
72
67
73
66
0
VERTEX
8
OBJECT__9
10
0
20
0
30
0
70
128
71
65
72
68
73
53
0
VERTEX
8
OBJECT__9
10
0
20
0
30
0
70
128
71
68
72
69
73
54
0
VERTEX
8
OBJECT__9
10
0
20
0
30
0
70
128
71
69
72
70
73
55
0
VERTEX
8
OBJECT__9
10
0
20
0
30
0
70
128
71
70
72
71
73
56
0
VERTEX
8
OBJECT__9
10
0
20
0
30
0
70
128
71
71
72
72
73
57
0
VERTEX
8
OBJECT__9
10
0
20
0
30
0
70
128
71
72
72
73
73
58
0
VERTEX
8
OBJECT__9
10
0
20
0
30
0
70
128
71
73
72
74
73
59
0
VERTEX
8
OBJECT__9
10
0
20
0
30
0
70
128
71
74
72
75
73
60
0
VERTEX
8
OBJECT__9
10
0
20
0
30
0
70
128
71
75
72
76
73
61
0
VERTEX
8
OBJECT__9
10
0
20
0
30
0
70
128
71
76
72
77
73
62
0
VERTEX
8
OBJECT__9
10
0
20
0
30
0
70
128
71
77
72
78
73
63
0
VERTEX
8
OBJECT__9
10
0
20
0
30
0
70
128
71
78
72
79
73
80
0
VERTEX
8
OBJECT__9
10
0
20
0
30
0
70
128
71
80
72
63
73
78
0
VERTEX
8
OBJECT__9
10
0
20
0
30
0
70
128
71
81
72
65
73
82
0
VERTEX
8
OBJECT__9
10
0
20
0
30
0
70
128
71
65
72
83
73
82
0
VERTEX
8
OBJECT__9
10
0
20
0
30
0
70
128
71
81
72
84
73
68
0
VERTEX
8
OBJECT__9
10
0
20
0
30
0
70
128
71
84
72
85
73
69
0
VERTEX
8
OBJECT__9
10
0
20
0
30
0
70
128
71
85
72
86
73
70
0
VERTEX
8
OBJECT__9
10
0
20
0
30
0
70
128
71
86
72
87
73
71
0
VERTEX
8
OBJECT__9
10
0
20
0
30
0
70
128
71
87
72
88
73
72
0
VERTEX
8
OBJECT__9
10
0
20
0
30
0
70
128
71
88
72
89
73
73
0
VERTEX
8
OBJECT__9
10
0
20
0
30
0
70
128
71
89
72
90
73
74
0
VERTEX
8
OBJECT__9
10
0
20
0
30
0
70
128
71
90
72
91
73
75
0
VERTEX
8
OBJECT__9
10
0
20
0
30
0
70
128
71
91
72
92
73
76
0
VERTEX
8
OBJECT__9
10
0
20
0
30
0
70
128
71
92
72
93
73
77
0
VERTEX
8
OBJECT__9
10
0
20
0
30
0
70
128
71
93
72
94
73
78
0
VERTEX
8
OBJECT__9
10
0
20
0
30
0
70
128
71
94
72
95
73
96
0
VERTEX
8
OBJECT__9
10
0
20
0
30
0
70
128
71
96
72
78
73
94
0
VERTEX
8
OBJECT__9
10
0
20
0
30
0
70
128
71
97
72
98
73
99
0
VERTEX
8
OBJECT__9
10
0
20
0
30
0
70
128
71
81
72
100
73
97
0
VERTEX
8
OBJECT__9
10
0
20
0
30
0
70
128
71
99
72
101
73
84
0
VERTEX
8
OBJECT__9
10
0
20
0
30
0
70
128
71
101
72
102
73
85
0
VERTEX
8
OBJECT__9
10
0
20
0
30
0
70
128
71
102
72
103
73
86
0
VERTEX
8
OBJECT__9
10
0
20
0
30
0
70
128
71
103
72
104
73
87
0
VERTEX
8
OBJECT__9
10
0
20
0
30
0
70
128
71
104
72
105
73
88
0
VERTEX
8
OBJECT__9
10
0
20
0
30
0
70
128
71
105
72
106
73
89
0
VERTEX
8
OBJECT__9
10
0
20
0
30
0
70
128
71
106
72
107
73
90
0
VERTEX
8
OBJECT__9
10
0
20
0
30
0
70
128
71
107
72
108
73
91
0
VERTEX
8
OBJECT__9
10
0
20
0
30
0
70
128
71
108
72
109
73
92
0
VERTEX
8
OBJECT__9
10
0
20
0
30
0
70
128
71
109
72
110
73
93
0
VERTEX
8
OBJECT__9
10
0
20
0
30
0
70
128
71
110
72
111
73
94
0
VERTEX
8
OBJECT__9
10
0
20
0
30
0
70
128
71
112
72
94
73
111
0
VERTEX
8
OBJECT__9
10
0
20
0
30
0
70
128
71
111
72
113
73
112
0
VERTEX
8
OBJECT__9
10
0
20
0
30
0
70
128
71
99
72
114
73
115
0
VERTEX
8
OBJECT__9
10
0
20
0
30
0
70
128
71
99
72
98
73
114
0
VERTEX
8
OBJECT__9
10
0
20
0
30
0
70
128
71
101
72
99
73
116
0
VERTEX
8
OBJECT__9
10
0
20
0
30
0
70
128
71
99
72
117
73
116
0
VERTEX
8
OBJECT__9
10
0
20
0
30
0
70
128
71
102
72
101
73
118
0
VERTEX
8
OBJECT__9
10
0
20
0
30
0
70
128
71
101
72
119
73
118
0
VERTEX
8
OBJECT__9
10
0
20
0
30
0
70
128
71
103
72
102
73
120
0
VERTEX
8
OBJECT__9
10
0
20
0
30
0
70
128
71
102
72
121
73
120
0
VERTEX
8
OBJECT__9
10
0
20
0
30
0
70
128
71
104
72
103
73
122
0
VERTEX
8
OBJECT__9
10
0
20
0
30
0
70
128
71
103
72
123
73
122
0
VERTEX
8
OBJECT__9
10
0
20
0
30
0
70
128
71
105
72
104
73
124
0
VERTEX
8
OBJECT__9
10
0
20
0
30
0
70
128
71
104
72
125
73
124
0
VERTEX
8
OBJECT__9
10
0
20
0
30
0
70
128
71
105
72
126
73
127
0
VERTEX
8
OBJECT__9
10
0
20
0
30
0
70
128
71
127
72
106
73
105
0
VERTEX
8
OBJECT__9
10
0
20
0
30
0
70
128
71
106
72
128
73
129
0
VERTEX
8
OBJECT__9
10
0
20
0
30
0
70
128
71
129
72
107
73
106
0
VERTEX
8
OBJECT__9
10
0
20
0
30
0
70
128
71
107
72
130
73
131
0
VERTEX
8
OBJECT__9
10
0
20
0
30
0
70
128
71
131
72
108
73
107
0
VERTEX
8
OBJECT__9
10
0
20
0
30
0
70
128
71
108
72
132
73
133
0
VERTEX
8
OBJECT__9
10
0
20
0
30
0
70
128
71
133
72
109
73
108
0
VERTEX
8
OBJECT__9
10
0
20
0
30
0
70
128
71
109
72
134
73
135
0
VERTEX
8
OBJECT__9
10
0
20
0
30
0
70
128
71
135
72
110
73
109
0
VERTEX
8
OBJECT__9
10
0
20
0
30
0
70
128
71
110
72
136
73
137
0
VERTEX
8
OBJECT__9
10
0
20
0
30
0
70
128
71
137
72
111
73
110
0
VERTEX
8
OBJECT__9
10
0
20
0
30
0
70
128
71
138
72
111
73
139
0
VERTEX
8
OBJECT__9
10
0
20
0
30
0
70
128
71
139
72
140
73
138
0
VERTEX
8
OBJECT__9
10
0
20
0
30
0
70
128
71
138
72
113
73
111
0
VERTEX
8
OBJECT__9
10
0
20
0
30
0
70
128
71
137
72
139
73
111
0
VERTEX
8
OBJECT__9
10
0
20
0
30
0
70
128
71
135
72
136
73
110
0
VERTEX
8
OBJECT__9
10
0
20
0
30
0
70
128
71
133
72
134
73
109
0
VERTEX
8
OBJECT__9
10
0
20
0
30
0
70
128
71
131
72
132
73
108
0
VERTEX
8
OBJECT__9
10
0
20
0
30
0
70
128
71
129
72
130
73
107
0
VERTEX
8
OBJECT__9
10
0
20
0
30
0
70
128
71
127
72
128
73
106
0
VERTEX
8
OBJECT__9
10
0
20
0
30
0
70
128
71
124
72
126
73
105
0
VERTEX
8
OBJECT__9
10
0
20
0
30
0
70
128
71
122
72
125
73
104
0
VERTEX
8
OBJECT__9
10
0
20
0
30
0
70
128
71
120
72
123
73
103
0
VERTEX
8
OBJECT__9
10
0
20
0
30
0
70
128
71
118
72
121
73
102
0
VERTEX
8
OBJECT__9
10
0
20
0
30
0
70
128
71
116
72
119
73
101
0
VERTEX
8
OBJECT__9
10
0
20
0
30
0
70
128
71
115
72
117
73
99
0
VERTEX
8
OBJECT__9
10
0
20
0
30
0
70
128
71
112
72
95
73
94
0
VERTEX
8
OBJECT__9
10
0
20
0
30
0
70
128
71
94
72
93
73
110
0
VERTEX
8
OBJECT__9
10
0
20
0
30
0
70
128
71
93
72
92
73
109
0
VERTEX
8
OBJECT__9
10
0
20
0
30
0
70
128
71
92
72
91
73
108
0
VERTEX
8
OBJECT__9
10
0
20
0
30
0
70
128
71
91
72
90
73
107
0
VERTEX
8
OBJECT__9
10
0
20
0
30
0
70
128
71
90
72
89
73
106
0
VERTEX
8
OBJECT__9
10
0
20
0
30
0
70
128
71
89
72
88
73
105
0
VERTEX
8
OBJECT__9
10
0
20
0
30
0
70
128
71
88
72
87
73
104
0
VERTEX
8
OBJECT__9
10
0
20
0
30
0
70
128
71
87
72
86
73
103
0
VERTEX
8
OBJECT__9
10
0
20
0
30
0
70
128
71
86
72
85
73
102
0
VERTEX
8
OBJECT__9
10
0
20
0
30
0
70
128
71
85
72
84
73
101
0
VERTEX
8
OBJECT__9
10
0
20
0
30
0
70
128
71
84
72
81
73
99
0
VERTEX
8
OBJECT__9
10
0
20
0
30
0
70
128
71
99
72
81
73
97
0
VERTEX
8
OBJECT__9
10
0
20
0
30
0
70
128
71
96
72
79
73
78
0
VERTEX
8
OBJECT__9
10
0
20
0
30
0
70
128
71
78
72
77
73
93
0
VERTEX
8
OBJECT__9
10
0
20
0
30
0
70
128
71
77
72
76
73
92
0
VERTEX
8
OBJECT__9
10
0
20
0
30
0
70
128
71
76
72
75
73
91
0
VERTEX
8
OBJECT__9
10
0
20
0
30
0
70
128
71
75
72
74
73
90
0
VERTEX
8
OBJECT__9
10
0
20
0
30
0
70
128
71
74
72
73
73
89
0
VERTEX
8
OBJECT__9
10
0
20
0
30
0
70
128
71
73
72
72
73
88
0
VERTEX
8
OBJECT__9
10
0
20
0
30
0
70
128
71
72
72
71
73
87
0
VERTEX
8
OBJECT__9
10
0
20
0
30
0
70
128
71
71
72
70
73
86
0
VERTEX
8
OBJECT__9
10
0
20
0
30
0
70
128
71
70
72
69
73
85
0
VERTEX
8
OBJECT__9
10
0
20
0
30
0
70
128
71
69
72
68
73
84
0
VERTEX
8
OBJECT__9
10
0
20
0
30
0
70
128
71
68
72
65
73
81
0
VERTEX
8
OBJECT__9
10
0
20
0
30
0
70
128
71
82
72
100
73
81
0
VERTEX
8
OBJECT__9
10
0
20
0
30
0
70
128
71
80
72
64
73
63
0
VERTEX
8
OBJECT__9
10
0
20
0
30
0
70
128
71
63
72
62
73
77
0
VERTEX
8
OBJECT__9
10
0
20
0
30
0
70
128
71
62
72
61
73
76
0
VERTEX
8
OBJECT__9
10
0
20
0
30
0
70
128
71
61
72
60
73
75
0
VERTEX
8
OBJECT__9
10
0
20
0
30
0
70
128
71
60
72
59
73
74
0
VERTEX
8
OBJECT__9
10
0
20
0
30
0
70
128
71
59
72
58
73
73
0
VERTEX
8
OBJECT__9
10
0
20
0
30
0
70
128
71
58
72
57
73
72
0
VERTEX
8
OBJECT__9
10
0
20
0
30
0
70
128
71
57
72
56
73
71
0
VERTEX
8
OBJECT__9
10
0
20
0
30
0
70
128
71
56
72
55
73
70
0
VERTEX
8
OBJECT__9
10
0
20
0
30
0
70
128
71
55
72
54
73
69
0
VERTEX
8
OBJECT__9
10
0
20
0
30
0
70
128
71
54
72
53
73
68
0
VERTEX
8
OBJECT__9
10
0
20
0
30
0
70
128
71
53
72
52
73
65
0
VERTEX
8
OBJECT__9
10
0
20
0
30
0
70
128
71
66
72
83
73
65
0
VERTEX
8
OBJECT__9
10
0
20
0
30
0
70
128
71
50
72
63
73
64
0
VERTEX
8
OBJECT__9
10
0
20
0
30
0
70
128
71
50
72
49
73
62
0
VERTEX
8
OBJECT__9
10
0
20
0
30
0
70
128
71
49
72
48
73
61
0
VERTEX
8
OBJECT__9
10
0
20
0
30
0
70
128
71
48
72
47
73
60
0
VERTEX
8
OBJECT__9
10
0
20
0
30
0
70
128
71
47
72
46
73
59
0
VERTEX
8
OBJECT__9
10
0
20
0
30
0
70
128
71
46
72
45
73
58
0
VERTEX
8
OBJECT__9
10
0
20
0
30
0
70
128
71
45
72
44
73
57
0
VERTEX
8
OBJECT__9
10
0
20
0
30
0
70
128
71
44
72
43
73
56
0
VERTEX
8
OBJECT__9
10
0
20
0
30
0
70
128
71
43
72
42
73
55
0
VERTEX
8
OBJECT__9
10
0
20
0
30
0
70
128
71
42
72
41
73
54
0
VERTEX
8
OBJECT__9
10
0
20
0
30
0
70
128
71
41
72
40
73
53
0
VERTEX
8
OBJECT__9
10
0
20
0
30
0
70
128
71
40
72
39
73
52
0
VERTEX
8
OBJECT__9
10
0
20
0
30
0
70
128
71
38
72
67
73
52
0
VERTEX
8
OBJECT__9
10
0
20
0
30
0
70
128
71
36
72
33
73
50
0
VERTEX
8
OBJECT__9
10
0
20
0
30
0
70
128
71
33
72
30
73
49
0
VERTEX
8
OBJECT__9
10
0
20
0
30
0
70
128
71
30
72
27
73
48
0
VERTEX
8
OBJECT__9
10
0
20
0
30
0
70
128
71
27
72
25
73
47
0
VERTEX
8
OBJECT__9
10
0
20
0
30
0
70
128
71
25
72
22
73
46
0
VERTEX
8
OBJECT__9
10
0
20
0
30
0
70
128
71
22
72
19
73
45
0
VERTEX
8
OBJECT__9
10
0
20
0
30
0
70
128
71
19
72
16
73
44
0
VERTEX
8
OBJECT__9
10
0
20
0
30
0
70
128
71
16
72
14
73
43
0
VERTEX
8
OBJECT__9
10
0
20
0
30
0
70
128
71
14
72
11
73
42
0
VERTEX
8
OBJECT__9
10
0
20
0
30
0
70
128
71
11
72
8
73
41
0
VERTEX
8
OBJECT__9
10
0
20
0
30
0
70
128
71
8
72
5
73
40
0
VERTEX
8
OBJECT__9
10
0
20
0
30
0
70
128
71
5
72
1
73
39
0
VERTEX
8
OBJECT__9
10
0
20
0
30
0
70
128
71
1
72
141
73
38
0
VERTEX
8
OBJECT__9
10
0
20
0
30
0
70
128
71
37
72
142
73
35
0
VERTEX
8
OBJECT__9
10
0
20
0
30
0
70
128
71
34
72
31
73
30
0
VERTEX
8
OBJECT__9
10
0
20
0
30
0
70
128
71
32
72
28
73
27
0
VERTEX
8
OBJECT__9
10
0
20
0
30
0
70
128
71
29
72
26
73
25
0
VERTEX
8
OBJECT__9
10
0
20
0
30
0
70
128
71
24
72
22
73
25
0
VERTEX
8
OBJECT__9
10
0
20
0
30
0
70
128
71
23
72
21
73
19
0
VERTEX
8
OBJECT__9
10
0
20
0
30
0
70
128
71
20
72
17
73
16
0
VERTEX
8
OBJECT__9
10
0
20
0
30
0
70
128
71
18
72
15
73
14
0
VERTEX
8
OBJECT__9
10
0
20
0
30
0
70
128
71
13
72
11
73
14
0
VERTEX
8
OBJECT__9
10
0
20
0
30
0
70
128
71
12
72
10
73
8
0
VERTEX
8
OBJECT__9
10
0
20
0
30
0
70
128
71
9
72
6
73
5
0
VERTEX
8
OBJECT__9
10
0
20
0
30
0
70
128
71
7
72
2
73
1
0
VERTEX
8
OBJECT__9
10
0
20
0
30
0
70
128
71
3
72
141
73
1
0
SEQEND
8
OBJECT__9
0
POLYLINE
8
OBJECT__10
66
1
70
64
71
28
72
26
62
253
0
VERTEX
8
OBJECT__10
10
85.480003
20
53.400002
30
-291.877014
70
192
0
VERTEX
8
OBJECT__10
10
85.732002
20
53.400002
30
-291.735992
70
192
0
VERTEX
8
OBJECT__10
10
85.989998
20
61.266998
30
-290.955994
70
192
0
VERTEX
8
OBJECT__10
10
86.021004
20
64.806000
30
-290.229004
70
192
0
VERTEX
8
OBJECT__10
10
85.738998
20
61.312000
30
-291.095001
70
192
0
VERTEX
8
OBJECT__10
10
86.039001
20
61.872002
30
-290.806000
70
192
0
VERTEX
8
OBJECT__10
10
86.271004
20
64.741997
30
-290.093994
70
192
0
VERTEX
8
OBJECT__10
10
87.203003
20
72.008003
30
-287.110992
70
192
0
VERTEX
8
OBJECT__10
10
86.958000
20
72.112999
30
-287.233002
70
192
0
VERTEX
8
OBJECT__10
10
87.752998
20
75.056000
30
-285.291992
70
192
0
VERTEX
8
OBJECT__10
10
87.510002
20
75.179001
30
-285.404999
70
192
0
VERTEX
8
OBJECT__10
10
88.242996
20
77.036003
30
-283.666992
70
192
0
VERTEX
8
OBJECT__10
10
89.239998
20
81.068001
30
-280.358002
70
192
0
VERTEX
8
OBJECT__10
10
89.005997
20
81.224998
30
-280.441986
70
192
0
VERTEX
8
OBJECT__10
10
88.264999
20
78.228996
30
-282.901001
70
192
0
VERTEX
8
OBJECT__10
10
90.117996
20
84.384003
30
-276.808014
70
192
0
VERTEX
8
OBJECT__10
10
90.346001
20
84.209000
30
-276.743988
70
192
0
VERTEX
8
OBJECT__10
10
92.083000
20
87.643997
30
-271.072998
70
192
0
VERTEX
8
OBJECT__10
10
92.123001
20
88.348000
30
-270.263000
70
192
0
VERTEX
8
OBJECT__10
10
92.352997
20
88.177002
30
-270.191986
70
192
0
VERTEX
8
OBJECT__10
10
92.136002
20
88.375000
30
-270.218994
70
192
0
VERTEX
8
OBJECT__10
10
93.698997
20
89.890999
30
-265.785004
70
192
0
VERTEX
8
OBJECT__10
10
95.777000
20
91.583000
30
-258.313995
70
192
0
VERTEX
8
OBJECT__10
10
93.490997
20
90.098999
30
-265.786987
70
192
0
VERTEX
8
OBJECT__10
10
96.808998
20
91.608002
30
-255.281998
70
192
0
VERTEX
8
OBJECT__10
10
95.973000
20
91.366997
30
-258.355011
70
192
0
VERTEX
8
OBJECT__10
10
96.903999
20
91.500000
30
-255.311005
70
192
0
VERTEX
8
OBJECT__10
10
96.713997
20
91.717003
30
-255.253006
70
192
0
VERTEX
8
OBJECT__10
10
0
20
0
30
0
70
128
71
1
72
2
73
3
0
VERTEX
8
OBJECT__10
10
0
20
0
30
0
70
128
71
4
72
5
73
6
0
VERTEX
8
OBJECT__10
10
0
20
0
30
0
70
128
71
5
72
3
73
6
0
VERTEX
8
OBJECT__10
10
0
20
0
30
0
70
128
71
4
72
7
73
8
0
VERTEX
8
OBJECT__10
10
0
20
0
30
0
70
128
71
9
72
8
73
10
0
VERTEX
8
OBJECT__10
10
0
20
0
30
0
70
128
71
11
72
10
73
12
0
VERTEX
8
OBJECT__10
10
0
20
0
30
0
70
128
71
13
72
14
73
15
0
VERTEX
8
OBJECT__10
10
0
20
0
30
0
70
128
71
15
72
12
73
13
0
VERTEX
8
OBJECT__10
10
0
20
0
30
0
70
128
71
16
72
14
73
13
0
VERTEX
8
OBJECT__10
10
0
20
0
30
0
70
128
71
16
72
17
73
18
0
VERTEX
8
OBJECT__10
10
0
20
0
30
0
70
128
71
18
72
19
73
16
0
VERTEX
8
OBJECT__10
10
0
20
0
30
0
70
128
71
20
72
21
73
19
0
VERTEX
8
OBJECT__10
10
0
20
0
30
0
70
128
71
21
72
20
73
22
0
VERTEX
8
OBJECT__10
10
0
20
0
30
0
70
128
71
23
72
24
73
22
0
VERTEX
8
OBJECT__10
10
0
20
0
30
0
70
128
71
25
72
23
73
26
0
VERTEX
8
OBJECT__10
10
0
20
0
30
0
70
128
71
26
72
27
73
25
0
VERTEX
8
OBJECT__10
10
0
20
0
30
0
70
128
71
25
72
28
73
23
0
VERTEX
8
OBJECT__10
10
0
20
0
30
0
70
128
71
22
72
26
73
23
0
VERTEX
8
OBJECT__10
10
0
20
0
30
0
70
128
71
22
72
24
73
21
0
VERTEX
8
OBJECT__10
10
0
20
0
30
0
70
128
71
18
72
20
73
19
0
VERTEX
8
OBJECT__10
10
0
20
0
30
0
70
128
71
13
72
17
73
16
0
VERTEX
8
OBJECT__10
10
0
20
0
30
0
70
128
71
12
72
15
73
11
0
VERTEX
8
OBJECT__10
10
0
20
0
30
0
70
128
71
10
72
11
73
9
0
VERTEX
8
OBJECT__10
10
0
20
0
30
0
70
128
71
8
72
9
73
4
0
VERTEX
8
OBJECT__10
10
0
20
0
30
0
70
128
71
6
72
7
73
4
0
VERTEX
8
OBJECT__10
10
0
20
0
30
0
70
128
71
3
72
5
73
1
0
SEQEND
8
OBJECT__10
0
POLYLINE
8
OBJECT__11
66
1
70
64
71
78
72
112
62
253
0
VERTEX
8
OBJECT__11
10
96.808998
20
15.192000
30
-255.281998
70
192
0
VERTEX
8
OBJECT__11
10
96.713997
20
15.083000
30
-255.253006
70
192
0
VERTEX
8
OBJECT__11
10
99.394997
20
16.197001
30
-246.483994
70
192
0
VERTEX
8
OBJECT__11
10
105.791000
20
30.966999
30
-225.740997
70
192
0
VERTEX
8
OBJECT__11
10
103.253998
20
22.622000
30
-233.860001
70
192
0
VERTEX
8
OBJECT__11
10
104.141998
20
24.719999
30
-230.953995
70
192
0
VERTEX
8
OBJECT__11
10
107.188004
20
39.813000
30
-220.990997
70
192
0
VERTEX
8
OBJECT__11
10
107.024002
20
38.407001
30
-221.705002
70
192
0
VERTEX
8
OBJECT__11
10
107.018997
20
38.362999
30
-221.723007
70
192
0
VERTEX
8
OBJECT__11
10
107.029999
20
38.450001
30
-221.688004
70
192
0
VERTEX
8
OBJECT__11
10
107.008003
20
38.277000
30
-221.757996
70
192
0
VERTEX
8
OBJECT__11
10
105.932999
20
31.634001
30
-225.097000
70
192
0
VERTEX
8
OBJECT__11
10
106.705002
20
36.074001
30
-222.748993
70
192
0
VERTEX
8
OBJECT__11
10
106.986000
20
38.105999
30
-221.830002
70
192
0
VERTEX
8
OBJECT__11
10
106.897003
20
37.422001
30
-222.123001
70
192
0
VERTEX
8
OBJECT__11
10
107.071999
20
38.794998
30
-221.548996
70
192
0
VERTEX
8
OBJECT__11
10
107.317001
20
41.602001
30
-220.570007
70
192
0
VERTEX
8
OBJECT__11
10
107.375999
20
41.605999
30
-220.557007
70
192
0
VERTEX
8
OBJECT__11
10
107.834999
20
48.780998
30
-218.876999
70
192
0
VERTEX
8
OBJECT__11
10
107.824997
20
48.903999
30
-218.923996
70
192
0
VERTEX
8
OBJECT__11
10
107.764000
20
47.418999
30
-219.141006
70
192
0
VERTEX
8
OBJECT__11
10
107.871002
20
50.396999
30
-218.763000
70
192
0
VERTEX
8
OBJECT__11
10
107.841003
20
49.368999
30
-218.867996
70
192
0
VERTEX
8
OBJECT__11
10
107.834999
20
53.400002
30
-218.876999
70
192
0
VERTEX
8
OBJECT__11
10
107.837997
20
49.276001
30
-218.878006
70
192
0
VERTEX
8
OBJECT__11
10
107.838997
20
49.323002
30
-218.873001
70
192
0
VERTEX
8
OBJECT__11
10
107.844002
20
49.463001
30
-218.856995
70
192
0
VERTEX
8
OBJECT__11
10
107.849998
20
49.648998
30
-218.835999
70
192
0
VERTEX
8
OBJECT__11
10
107.834999
20
58.019001
30
-218.876999
70
192
0
VERTEX
8
OBJECT__11
10
107.317001
20
65.197998
30
-220.570007
70
192
0
VERTEX
8
OBJECT__11
10
107.764000
20
59.381001
30
-219.141006
70
192
0
VERTEX
8
OBJECT__11
10
107.824997
20
57.896000
30
-218.923996
70
192
0
VERTEX
8
OBJECT__11
10
107.841003
20
57.431000
30
-218.867996
70
192
0
VERTEX
8
OBJECT__11
10
107.838997
20
57.477001
30
-218.873001
70
192
0
VERTEX
8
OBJECT__11
10
107.837997
20
57.523998
30
-218.878006
70
192
0
VERTEX
8
OBJECT__11
10
107.871002
20
56.403000
30
-218.763000
70
192
0
VERTEX
8
OBJECT__11
10
107.849998
20
57.151001
30
-218.835999
70
192
0
VERTEX
8
OBJECT__11
10
107.844002
20
57.337002
30
-218.856995
70
192
0
VERTEX
8
OBJECT__11
10
107.375999
20
65.194000
30
-220.557007
70
192
0
VERTEX
8
OBJECT__11
10
105.932999
20
75.166000
30
-225.097000
70
192
0
VERTEX
8
OBJECT__11
10
105.791000
20
75.833000
30
-225.740997
70
192
0
VERTEX
8
OBJECT__11
10
106.705002
20
70.725998
30
-222.748993
70
192
0
VERTEX
8
OBJECT__11
10
107.188004
20
66.987000
30
-220.990997
70
192
0
VERTEX
8
OBJECT__11
10
107.071999
20
68.004997
30
-221.548996
70
192
0
VERTEX
8
OBJECT__11
10
105.754997
20
75.855003
30
-225.679993
70
192
0
VERTEX
8
OBJECT__11
10
107.358002
20
65.372002
30
-220.613007
70
192
0
VERTEX
8
OBJECT__11
10
107.349998
20
65.459999
30
-220.641006
70
192
0
VERTEX
8
OBJECT__11
10
107.353996
20
65.416000
30
-220.626999
70
192
0
VERTEX
8
OBJECT__11
10
107.341003
20
65.549004
30
-220.669998
70
192
0
VERTEX
8
OBJECT__11
10
107.306000
20
65.903999
30
-220.785004
70
192
0
VERTEX
8
OBJECT__11
10
107.232002
20
66.609001
30
-221.026993
70
192
0
VERTEX
8
OBJECT__11
10
104.141998
20
82.080002
30
-230.953995
70
192
0
VERTEX
8
OBJECT__11
10
96.808998
20
91.608002
30
-255.281998
70
192
0
VERTEX
8
OBJECT__11
10
100.151001
20
89.622002
30
-244.009003
70
192
0
VERTEX
8
OBJECT__11
10
99.394997
20
90.602997
30
-246.483994
70
192
0
VERTEX
8
OBJECT__11
10
96.903999
20
15.300000
30
-255.311005
70
192
0
VERTEX
8
OBJECT__11
10
100.151001
20
17.177999
30
-244.009003
70
192
0
VERTEX
8
OBJECT__11
10
103.452003
20
22.576000
30
-233.895004
70
192
0
VERTEX
8
OBJECT__11
10
101.676003
20
19.482000
30
-239.701996
70
192
0
VERTEX
8
OBJECT__11
10
105.566002
20
29.806999
30
-226.979996
70
192
0
VERTEX
8
OBJECT__11
10
105.916000
20
31.004999
30
-225.834000
70
192
0
VERTEX
8
OBJECT__11
10
107.498001
20
41.625999
30
-220.658997
70
192
0
VERTEX
8
OBJECT__11
10
107.653999
20
44.981998
30
-220.151001
70
192
0
VERTEX
8
OBJECT__11
10
108.043999
20
53.400002
30
-218.876007
70
192
0
VERTEX
8
OBJECT__11
10
107.653999
20
61.818001
30
-220.151001
70
192
0
VERTEX
8
OBJECT__11
10
107.498001
20
65.174004
30
-220.658997
70
192
0
VERTEX
8
OBJECT__11
10
105.916000
20
75.794998
30
-225.834000
70
192
0
VERTEX
8
OBJECT__11
10
103.253998
20
84.178001
30
-233.860001
70
192
0
VERTEX
8
OBJECT__11
10
103.452003
20
84.223999
30
-233.895004
70
192
0
VERTEX
8
OBJECT__11
10
105.566002
20
76.992996
30
-226.979996
70
192
0
VERTEX
8
OBJECT__11
10
101.676003
20
87.318001
30
-239.701996
70
192
0
VERTEX
8
OBJECT__11
10
100.346001
20
89.635002
30
-244.052002
70
192
0
VERTEX
8
OBJECT__11
10
96.903999
20
91.500000
30
-255.311005
70
192
0
VERTEX
8
OBJECT__11
10
100.346001
20
17.165001
30
-244.052002
70
192
0
VERTEX
8
OBJECT__11
10
96.713997
20
91.717003
30
-255.253006
70
192
0
VERTEX
8
OBJECT__11
10
101.919998
20
87.328003
30
-238.223999
70
192
0
VERTEX
8
OBJECT__11
10
105.754997
20
30.945000
30
-225.679993
70
192
0
VERTEX
8
OBJECT__11
10
101.919998
20
19.472000
30
-238.223999
70
192
0
VERTEX
8
OBJECT__11
10
0
20
0
30
0
70
128
71
1
72
2
73
3
0
VERTEX
8
OBJECT__11
10
0
20
0
30
0
70
128
71
4
72
5
73
6
0
VERTEX
8
OBJECT__11
10
0
20
0
30
0
70
128
71
7
72
8
73
9
0
VERTEX
8
OBJECT__11
10
0
20
0
30
0
70
128
71
7
72
10
73
8
0
VERTEX
8
OBJECT__11
10
0
20
0
30
0
70
128
71
9
72
11
73
7
0
VERTEX
8
OBJECT__11
10
0
20
0
30
0
70
128
71
12
72
7
73
13
0
VERTEX
8
OBJECT__11
10
0
20
0
30
0
70
128
71
13
72
4
73
12
0
VERTEX
8
OBJECT__11
10
0
20
0
30
0
70
128
71
7
72
11
73
14
0
VERTEX
8
OBJECT__11
10
0
20
0
30
0
70
128
71
14
72
15
73
7
0
VERTEX
8
OBJECT__11
10
0
20
0
30
0
70
128
71
15
72
13
73
7
0
VERTEX
8
OBJECT__11
10
0
20
0
30
0
70
128
71
7
72
16
73
10
0
VERTEX
8
OBJECT__11
10
0
20
0
30
0
70
128
71
7
72
17
73
18
0
VERTEX
8
OBJECT__11
10
0
20
0
30
0
70
128
71
18
72
16
73
7
0
VERTEX
8
OBJECT__11
10
0
20
0
30
0
70
128
71
19
72
20
73
21
0
VERTEX
8
OBJECT__11
10
0
20
0
30
0
70
128
71
21
72
17
73
19
0
VERTEX
8
OBJECT__11
10
0
20
0
30
0
70
128
71
21
72
18
73
17
0
VERTEX
8
OBJECT__11
10
0
20
0
30
0
70
128
71
22
72
23
73
19
0
VERTEX
8
OBJECT__11
10
0
20
0
30
0
70
128
71
19
72
24
73
22
0
VERTEX
8
OBJECT__11
10
0
20
0
30
0
70
128
71
23
72
25
73
19
0
VERTEX
8
OBJECT__11
10
0
20
0
30
0
70
128
71
23
72
26
73
25
0
VERTEX
8
OBJECT__11
10
0
20
0
30
0
70
128
71
22
72
27
73
23
0
VERTEX
8
OBJECT__11
10
0
20
0
30
0
70
128
71
22
72
28
73
27
0
VERTEX
8
OBJECT__11
10
0
20
0
30
0
70
128
71
25
72
20
73
19
0
VERTEX
8
OBJECT__11
10
0
20
0
30
0
70
128
71
29
72
30
73
31
0
VERTEX
8
OBJECT__11
10
0
20
0
30
0
70
128
71
31
72
32
73
29
0
VERTEX
8
OBJECT__11
10
0
20
0
30
0
70
128
71
33
72
24
73
29
0
VERTEX
8
OBJECT__11
10
0
20
0
30
0
70
128
71
29
72
34
73
33
0
VERTEX
8
OBJECT__11
10
0
20
0
30
0
70
128
71
29
72
35
73
34
0
VERTEX
8
OBJECT__11
10
0
20
0
30
0
70
128
71
33
72
36
73
24
0
VERTEX
8
OBJECT__11
10
0
20
0
30
0
70
128
71
33
72
37
73
36
0
VERTEX
8
OBJECT__11
10
0
20
0
30
0
70
128
71
33
72
38
73
37
0
VERTEX
8
OBJECT__11
10
0
20
0
30
0
70
128
71
29
72
32
73
35
0
VERTEX
8
OBJECT__11
10
0
20
0
30
0
70
128
71
30
72
39
73
31
0
VERTEX
8
OBJECT__11
10
0
20
0
30
0
70
128
71
40
72
41
73
42
0
VERTEX
8
OBJECT__11
10
0
20
0
30
0
70
128
71
42
72
43
73
40
0
VERTEX
8
OBJECT__11
10
0
20
0
30
0
70
128
71
42
72
44
73
43
0
VERTEX
8
OBJECT__11
10
0
20
0
30
0
70
128
71
40
72
45
73
41
0
VERTEX
8
OBJECT__11
10
0
20
0
30
0
70
128
71
30
72
43
73
46
0
VERTEX
8
OBJECT__11
10
0
20
0
30
0
70
128
71
43
72
47
73
48
0
VERTEX
8
OBJECT__11
10
0
20
0
30
0
70
128
71
43
72
49
73
47
0
VERTEX
8
OBJECT__11
10
0
20
0
30
0
70
128
71
48
72
46
73
43
0
VERTEX
8
OBJECT__11
10
0
20
0
30
0
70
128
71
43
72
50
73
49
0
VERTEX
8
OBJECT__11
10
0
20
0
30
0
70
128
71
43
72
51
73
50
0
VERTEX
8
OBJECT__11
10
0
20
0
30
0
70
128
71
46
72
39
73
30
0
VERTEX
8
OBJECT__11
10
0
20
0
30
0
70
128
71
41
72
45
73
52
0
VERTEX
8
OBJECT__11
10
0
20
0
30
0
70
128
71
53
72
54
73
55
0
VERTEX
8
OBJECT__11
10
0
20
0
30
0
70
128
71
56
72
1
73
57
0
VERTEX
8
OBJECT__11
10
0
20
0
30
0
70
128
71
5
72
58
73
59
0
VERTEX
8
OBJECT__11
10
0
20
0
30
0
70
128
71
59
72
57
73
5
0
VERTEX
8
OBJECT__11
10
0
20
0
30
0
70
128
71
5
72
4
73
60
0
VERTEX
8
OBJECT__11
10
0
20
0
30
0
70
128
71
4
72
61
73
60
0
VERTEX
8
OBJECT__11
10
0
20
0
30
0
70
128
71
62
72
61
73
16
0
VERTEX
8
OBJECT__11
10
0
20
0
30
0
70
128
71
61
72
10
73
16
0
VERTEX
8
OBJECT__11
10
0
20
0
30
0
70
128
71
61
72
8
73
10
0
VERTEX
8
OBJECT__11
10
0
20
0
30
0
70
128
71
61
72
4
73
13
0
VERTEX
8
OBJECT__11
10
0
20
0
30
0
70
128
71
13
72
15
73
61
0
VERTEX
8
OBJECT__11
10
0
20
0
30
0
70
128
71
15
72
14
73
61
0
VERTEX
8
OBJECT__11
10
0
20
0
30
0
70
128
71
14
72
11
73
61
0
VERTEX
8
OBJECT__11
10
0
20
0
30
0
70
128
71
11
72
9
73
61
0
VERTEX
8
OBJECT__11
10
0
20
0
30
0
70
128
71
9
72
8
73
61
0
VERTEX
8
OBJECT__11
10
0
20
0
30
0
70
128
71
18
72
21
73
63
0
VERTEX
8
OBJECT__11
10
0
20
0
30
0
70
128
71
64
72
63
73
22
0
VERTEX
8
OBJECT__11
10
0
20
0
30
0
70
128
71
63
72
28
73
22
0
VERTEX
8
OBJECT__11
10
0
20
0
30
0
70
128
71
63
72
27
73
28
0
VERTEX
8
OBJECT__11
10
0
20
0
30
0
70
128
71
63
72
23
73
27
0
VERTEX
8
OBJECT__11
10
0
20
0
30
0
70
128
71
63
72
26
73
23
0
VERTEX
8
OBJECT__11
10
0
20
0
30
0
70
128
71
63
72
21
73
20
0
VERTEX
8
OBJECT__11
10
0
20
0
30
0
70
128
71
20
72
25
73
63
0
VERTEX
8
OBJECT__11
10
0
20
0
30
0
70
128
71
25
72
26
73
63
0
VERTEX
8
OBJECT__11
10
0
20
0
30
0
70
128
71
22
72
24
73
64
0
VERTEX
8
OBJECT__11
10
0
20
0
30
0
70
128
71
65
72
35
73
32
0
VERTEX
8
OBJECT__11
10
0
20
0
30
0
70
128
71
65
72
34
73
35
0
VERTEX
8
OBJECT__11
10
0
20
0
30
0
70
128
71
64
72
24
73
36
0
VERTEX
8
OBJECT__11
10
0
20
0
30
0
70
128
71
36
72
65
73
64
0
VERTEX
8
OBJECT__11
10
0
20
0
30
0
70
128
71
36
72
37
73
65
0
VERTEX
8
OBJECT__11
10
0
20
0
30
0
70
128
71
37
72
38
73
65
0
VERTEX
8
OBJECT__11
10
0
20
0
30
0
70
128
71
38
72
33
73
65
0
VERTEX
8
OBJECT__11
10
0
20
0
30
0
70
128
71
33
72
34
73
65
0
VERTEX
8
OBJECT__11
10
0
20
0
30
0
70
128
71
39
72
66
73
65
0
VERTEX
8
OBJECT__11
10
0
20
0
30
0
70
128
71
65
72
31
73
39
0
VERTEX
8
OBJECT__11
10
0
20
0
30
0
70
128
71
67
72
44
73
42
0
VERTEX
8
OBJECT__11
10
0
20
0
30
0
70
128
71
66
72
51
73
44
0
VERTEX
8
OBJECT__11
10
0
20
0
30
0
70
128
71
44
72
67
73
66
0
VERTEX
8
OBJECT__11
10
0
20
0
30
0
70
128
71
66
72
50
73
51
0
VERTEX
8
OBJECT__11
10
0
20
0
30
0
70
128
71
66
72
49
73
50
0
VERTEX
8
OBJECT__11
10
0
20
0
30
0
70
128
71
66
72
47
73
49
0
VERTEX
8
OBJECT__11
10
0
20
0
30
0
70
128
71
66
72
48
73
47
0
VERTEX
8
OBJECT__11
10
0
20
0
30
0
70
128
71
66
72
39
73
46
0
VERTEX
8
OBJECT__11
10
0
20
0
30
0
70
128
71
46
72
48
73
66
0
VERTEX
8
OBJECT__11
10
0
20
0
30
0
70
128
71
68
72
69
73
70
0
VERTEX
8
OBJECT__11
10
0
20
0
30
0
70
128
71
70
72
41
73
68
0
VERTEX
8
OBJECT__11
10
0
20
0
30
0
70
128
71
68
72
54
73
71
0
VERTEX
8
OBJECT__11
10
0
20
0
30
0
70
128
71
54
72
72
73
71
0
VERTEX
8
OBJECT__11
10
0
20
0
30
0
70
128
71
73
72
72
73
54
0
VERTEX
8
OBJECT__11
10
0
20
0
30
0
70
128
71
54
72
53
73
73
0
VERTEX
8
OBJECT__11
10
0
20
0
30
0
70
128
71
71
72
69
73
68
0
VERTEX
8
OBJECT__11
10
0
20
0
30
0
70
128
71
70
72
67
73
41
0
VERTEX
8
OBJECT__11
10
0
20
0
30
0
70
128
71
42
72
41
73
67
0
VERTEX
8
OBJECT__11
10
0
20
0
30
0
70
128
71
32
72
31
73
65
0
VERTEX
8
OBJECT__11
10
0
20
0
30
0
70
128
71
63
72
62
73
18
0
VERTEX
8
OBJECT__11
10
0
20
0
30
0
70
128
71
16
72
18
73
62
0
VERTEX
8
OBJECT__11
10
0
20
0
30
0
70
128
71
60
72
58
73
5
0
VERTEX
8
OBJECT__11
10
0
20
0
30
0
70
128
71
59
72
74
73
57
0
VERTEX
8
OBJECT__11
10
0
20
0
30
0
70
128
71
57
72
74
73
56
0
VERTEX
8
OBJECT__11
10
0
20
0
30
0
70
128
71
55
72
75
73
53
0
VERTEX
8
OBJECT__11
10
0
20
0
30
0
70
128
71
54
72
68
73
76
0
VERTEX
8
OBJECT__11
10
0
20
0
30
0
70
128
71
52
72
68
73
41
0
VERTEX
8
OBJECT__11
10
0
20
0
30
0
70
128
71
44
72
51
73
43
0
VERTEX
8
OBJECT__11
10
0
20
0
30
0
70
128
71
4
72
77
73
12
0
VERTEX
8
OBJECT__11
10
0
20
0
30
0
70
128
71
6
72
77
73
4
0
VERTEX
8
OBJECT__11
10
0
20
0
30
0
70
128
71
5
72
57
73
78
0
VERTEX
8
OBJECT__11
10
0
20
0
30
0
70
128
71
3
72
57
73
1
0
SEQEND
8
OBJECT__11
0
POLYLINE
8
OBJECT__12
66
1
70
64
71
28
72
26
62
253
0
VERTEX
8
OBJECT__12
10
94.399002
20
15.909000
30
-262.819000
70
192
0
VERTEX
8
OBJECT__12
10
96.808998
20
15.192000
30
-255.281998
70
192
0
VERTEX
8
OBJECT__12
10
96.903999
20
15.300000
30
-255.311005
70
192
0
VERTEX
8
OBJECT__12
10
96.713997
20
15.083000
30
-255.253006
70
192
0
VERTEX
8
OBJECT__12
10
94.601997
20
16.121000
30
-262.834991
70
192
0
VERTEX
8
OBJECT__12
10
93.585999
20
17.027000
30
-266.157013
70
192
0
VERTEX
8
OBJECT__12
10
92.088997
20
19.231001
30
-271.053986
70
192
0
VERTEX
8
OBJECT__12
10
92.135002
20
18.646999
30
-270.218994
70
192
0
VERTEX
8
OBJECT__12
10
91.239998
20
19.965000
30
-273.148987
70
192
0
VERTEX
8
OBJECT__12
10
91.460999
20
20.153999
30
-273.105988
70
192
0
VERTEX
8
OBJECT__12
10
90.568001
20
22.052999
30
-276.019012
70
192
0
VERTEX
8
OBJECT__12
10
90.341003
20
21.875000
30
-276.079010
70
192
0
VERTEX
8
OBJECT__12
10
88.813004
20
27.207001
30
-281.769012
70
192
0
VERTEX
8
OBJECT__12
10
88.218002
20
29.691000
30
-283.747009
70
192
0
VERTEX
8
OBJECT__12
10
88.257004
20
28.391001
30
-282.923004
70
192
0
VERTEX
8
OBJECT__12
10
87.665001
20
30.861000
30
-284.889008
70
192
0
VERTEX
8
OBJECT__12
10
87.906998
20
30.988001
30
-284.778992
70
192
0
VERTEX
8
OBJECT__12
10
86.504997
20
37.752998
30
-288.703003
70
192
0
VERTEX
8
OBJECT__12
10
86.752998
20
37.841000
30
-288.574005
70
192
0
VERTEX
8
OBJECT__12
10
86.234001
20
42.450001
30
-290.209015
70
192
0
VERTEX
8
OBJECT__12
10
85.522003
20
50.201000
30
-291.750000
70
192
0
VERTEX
8
OBJECT__12
10
85.984001
20
42.388000
30
-290.343994
70
192
0
VERTEX
8
OBJECT__12
10
86.084999
20
44.955002
30
-290.660004
70
192
0
VERTEX
8
OBJECT__12
10
85.480003
20
53.400002
30
-291.877014
70
192
0
VERTEX
8
OBJECT__12
10
85.774002
20
50.219002
30
-291.609985
70
192
0
VERTEX
8
OBJECT__12
10
85.732002
20
53.400002
30
-291.735992
70
192
0
VERTEX
8
OBJECT__12
10
88.575996
20
27.058001
30
-281.862000
70
192
0
VERTEX
8
OBJECT__12
10
93.375999
20
16.820999
30
-266.160004
70
192
0
VERTEX
8
OBJECT__12
10
0
20
0
30
0
70
128
71
1
72
2
73
3
0
VERTEX
8
OBJECT__12
10
0
20
0
30
0
70
128
71
1
72
4
73
2
0
VERTEX
8
OBJECT__12
10
0
20
0
30
0
70
128
71
1
72
5
73
6
0
VERTEX
8
OBJECT__12
10
0
20
0
30
0
70
128
71
6
72
7
73
8
0
VERTEX
8
OBJECT__12
10
0
20
0
30
0
70
128
71
9
72
8
73
7
0
VERTEX
8
OBJECT__12
10
0
20
0
30
0
70
128
71
7
72
10
73
9
0
VERTEX
8
OBJECT__12
10
0
20
0
30
0
70
128
71
9
72
10
73
11
0
VERTEX
8
OBJECT__12
10
0
20
0
30
0
70
128
71
12
72
11
73
13
0
VERTEX
8
OBJECT__12
10
0
20
0
30
0
70
128
71
13
72
14
73
15
0
VERTEX
8
OBJECT__12
10
0
20
0
30
0
70
128
71
16
72
15
73
14
0
VERTEX
8
OBJECT__12
10
0
20
0
30
0
70
128
71
14
72
17
73
16
0
VERTEX
8
OBJECT__12
10
0
20
0
30
0
70
128
71
18
72
16
73
17
0
VERTEX
8
OBJECT__12
10
0
20
0
30
0
70
128
71
18
72
19
73
20
0
VERTEX
8
OBJECT__12
10
0
20
0
30
0
70
128
71
21
72
22
73
23
0
VERTEX
8
OBJECT__12
10
0
20
0
30
0
70
128
71
22
72
20
73
23
0
VERTEX
8
OBJECT__12
10
0
20
0
30
0
70
128
71
24
72
21
73
25
0
VERTEX
8
OBJECT__12
10
0
20
0
30
0
70
128
71
25
72
26
73
24
0
VERTEX
8
OBJECT__12
10
0
20
0
30
0
70
128
71
23
72
25
73
21
0
VERTEX
8
OBJECT__12
10
0
20
0
30
0
70
128
71
20
72
22
73
18
0
VERTEX
8
OBJECT__12
10
0
20
0
30
0
70
128
71
17
72
19
73
18
0
VERTEX
8
OBJECT__12
10
0
20
0
30
0
70
128
71
15
72
27
73
13
0
VERTEX
8
OBJECT__12
10
0
20
0
30
0
70
128
71
13
72
27
73
12
0
VERTEX
8
OBJECT__12
10
0
20
0
30
0
70
128
71
11
72
12
73
9
0
VERTEX
8
OBJECT__12
10
0
20
0
30
0
70
128
71
8
72
28
73
6
0
VERTEX
8
OBJECT__12
10
0
20
0
30
0
70
128
71
6
72
28
73
1
0
VERTEX
8
OBJECT__12
10
0
20
0
30
0
70
128
71
3
72
5
73
1
0
SEQEND
8
OBJECT__12
0
POLYLINE
8
OBJECT__13
66
1
70
64
71
56
72
56
62
253
0
VERTEX
8
OBJECT__13
10
97.777000
20
15.300000
30
-255.578003
70
192
0
VERTEX
8
OBJECT__13
10
96.903999
20
15.300000
30
-255.311005
70
192
0
VERTEX
8
OBJECT__13
10
100.346001
20
17.165001
30
-244.052002
70
192
0
VERTEX
8
OBJECT__13
10
102.610001
20
19.073000
30
-239.768997
70
192
0
VERTEX
8
OBJECT__13
10
106.486000
20
29.645000
30
-227.091003
70
192
0
VERTEX
8
OBJECT__13
10
103.452003
20
22.576000
30
-233.895004
70
192
0
VERTEX
8
OBJECT__13
10
101.676003
20
19.482000
30
-239.701996
70
192
0
VERTEX
8
OBJECT__13
10
105.916000
20
31.004999
30
-225.834000
70
192
0
VERTEX
8
OBJECT__13
10
107.498001
20
41.625999
30
-220.658997
70
192
0
VERTEX
8
OBJECT__13
10
108.637001
20
44.922001
30
-220.056000
70
192
0
VERTEX
8
OBJECT__13
10
105.566002
20
29.806999
30
-226.979996
70
192
0
VERTEX
8
OBJECT__13
10
108.637001
20
61.877998
30
-220.056000
70
192
0
VERTEX
8
OBJECT__13
10
108.043999
20
53.400002
30
-218.876007
70
192
0
VERTEX
8
OBJECT__13
10
107.653999
20
44.981998
30
-220.151001
70
192
0
VERTEX
8
OBJECT__13
10
106.486000
20
77.154999
30
-227.091003
70
192
0
VERTEX
8
OBJECT__13
10
107.498001
20
65.174004
30
-220.658997
70
192
0
VERTEX
8
OBJECT__13
10
107.653999
20
61.818001
30
-220.151001
70
192
0
VERTEX
8
OBJECT__13
10
105.916000
20
75.794998
30
-225.834000
70
192
0
VERTEX
8
OBJECT__13
10
105.566002
20
76.992996
30
-226.979996
70
192
0
VERTEX
8
OBJECT__13
10
103.452003
20
84.223999
30
-233.895004
70
192
0
VERTEX
8
OBJECT__13
10
102.610001
20
87.726997
30
-239.768997
70
192
0
VERTEX
8
OBJECT__13
10
97.777000
20
91.500000
30
-255.578003
70
192
0
VERTEX
8
OBJECT__13
10
100.346001
20
89.635002
30
-244.052002
70
192
0
VERTEX
8
OBJECT__13
10
101.676003
20
87.318001
30
-239.701996
70
192
0
VERTEX
8
OBJECT__13
10
95.973000
20
91.366997
30
-258.355011
70
192
0
VERTEX
8
OBJECT__13
10
93.698997
20
89.890999
30
-265.785004
70
192
0
VERTEX
8
OBJECT__13
10
92.943001
20
87.726997
30
-271.385986
70
192
0
VERTEX
8
OBJECT__13
10
96.903999
20
91.500000
30
-255.311005
70
192
0
VERTEX
8
OBJECT__13
10
92.352997
20
88.177002
30
-270.191986
70
192
0
VERTEX
8
OBJECT__13
10
89.067001
20
77.154999
30
-284.063995
70
192
0
VERTEX
8
OBJECT__13
10
90.346001
20
84.209000
30
-276.743988
70
192
0
VERTEX
8
OBJECT__13
10
89.239998
20
81.068001
30
-280.358002
70
192
0
VERTEX
8
OBJECT__13
10
92.083000
20
87.643997
30
-271.072998
70
192
0
VERTEX
8
OBJECT__13
10
86.917000
20
61.877998
30
-291.098999
70
192
0
VERTEX
8
OBJECT__13
10
87.203003
20
72.008003
30
-287.110992
70
192
0
VERTEX
8
OBJECT__13
10
86.271004
20
64.741997
30
-290.093994
70
192
0
VERTEX
8
OBJECT__13
10
88.242996
20
77.036003
30
-283.666992
70
192
0
VERTEX
8
OBJECT__13
10
87.752998
20
75.056000
30
-285.291992
70
192
0
VERTEX
8
OBJECT__13
10
85.989998
20
61.266998
30
-290.955994
70
192
0
VERTEX
8
OBJECT__13
10
85.732002
20
53.400002
30
-291.735992
70
192
0
VERTEX
8
OBJECT__13
10
86.917000
20
44.922001
30
-291.098999
70
192
0
VERTEX
8
OBJECT__13
10
85.774002
20
50.219002
30
-291.609985
70
192
0
VERTEX
8
OBJECT__13
10
86.039001
20
61.872002
30
-290.806000
70
192
0
VERTEX
8
OBJECT__13
10
89.067001
20
29.645000
30
-284.063995
70
192
0
VERTEX
8
OBJECT__13
10
86.752998
20
37.841000
30
-288.574005
70
192
0
VERTEX
8
OBJECT__13
10
87.906998
20
30.988001
30
-284.778992
70
192
0
VERTEX
8
OBJECT__13
10
86.084999
20
44.955002
30
-290.660004
70
192
0
VERTEX
8
OBJECT__13
10
86.234001
20
42.450001
30
-290.209015
70
192
0
VERTEX
8
OBJECT__13
10
88.813004
20
27.207001
30
-281.769012
70
192
0
VERTEX
8
OBJECT__13
10
90.568001
20
22.052999
30
-276.019012
70
192
0
VERTEX
8
OBJECT__13
10
88.218002
20
29.691000
30
-283.747009
70
192
0
VERTEX
8
OBJECT__13
10
92.943001
20
19.073000
30
-271.385986
70
192
0
VERTEX
8
OBJECT__13
10
91.460999
20
20.153999
30
-273.105988
70
192
0
VERTEX
8
OBJECT__13
10
93.585999
20
17.027000
30
-266.157013
70
192
0
VERTEX
8
OBJECT__13
10
94.601997
20
16.121000
30
-262.834991
70
192
0
VERTEX
8
OBJECT__13
10
92.088997
20
19.231001
30
-271.053986
70
192
0
VERTEX
8
OBJECT__13
10
0
20
0
30
0
70
128
71
1
72
2
73
3
0
VERTEX
8
OBJECT__13
10
0
20
0
30
0
70
128
71
3
72
4
73
1
0
VERTEX
8
OBJECT__13
10
0
20
0
30
0
70
128
71
5
72
4
73
6
0
VERTEX
8
OBJECT__13
10
0
20
0
30
0
70
128
71
4
72
7
73
6
0
VERTEX
8
OBJECT__13
10
0
20
0
30
0
70
128
71
5
72
8
73
9
0
VERTEX
8
OBJECT__13
10
0
20
0
30
0
70
128
71
9
72
10
73
5
0
VERTEX
8
OBJECT__13
10
0
20
0
30
0
70
128
71
5
72
11
73
8
0
VERTEX
8
OBJECT__13
10
0
20
0
30
0
70
128
71
12
72
10
73
13
0
VERTEX
8
OBJECT__13
10
0
20
0
30
0
70
128
71
10
72
14
73
13
0
VERTEX
8
OBJECT__13
10
0
20
0
30
0
70
128
71
15
72
12
73
16
0
VERTEX
8
OBJECT__13
10
0
20
0
30
0
70
128
71
12
72
17
73
16
0
VERTEX
8
OBJECT__13
10
0
20
0
30
0
70
128
71
16
72
18
73
15
0
VERTEX
8
OBJECT__13
10
0
20
0
30
0
70
128
71
15
72
19
73
20
0
VERTEX
8
OBJECT__13
10
0
20
0
30
0
70
128
71
20
72
21
73
15
0
VERTEX
8
OBJECT__13
10
0
20
0
30
0
70
128
71
22
72
21
73
23
0
VERTEX
8
OBJECT__13
10
0
20
0
30
0
70
128
71
21
72
24
73
23
0
VERTEX
8
OBJECT__13
10
0
20
0
30
0
70
128
71
22
72
25
73
26
0
VERTEX
8
OBJECT__13
10
0
20
0
30
0
70
128
71
26
72
27
73
22
0
VERTEX
8
OBJECT__13
10
0
20
0
30
0
70
128
71
22
72
28
73
25
0
VERTEX
8
OBJECT__13
10
0
20
0
30
0
70
128
71
26
72
29
73
27
0
VERTEX
8
OBJECT__13
10
0
20
0
30
0
70
128
71
30
72
27
73
31
0
VERTEX
8
OBJECT__13
10
0
20
0
30
0
70
128
71
31
72
32
73
30
0
VERTEX
8
OBJECT__13
10
0
20
0
30
0
70
128
71
27
72
33
73
31
0
VERTEX
8
OBJECT__13
10
0
20
0
30
0
70
128
71
34
72
30
73
35
0
VERTEX
8
OBJECT__13
10
0
20
0
30
0
70
128
71
35
72
36
73
34
0
VERTEX
8
OBJECT__13
10
0
20
0
30
0
70
128
71
30
72
37
73
38
0
VERTEX
8
OBJECT__13
10
0
20
0
30
0
70
128
71
38
72
35
73
30
0
VERTEX
8
OBJECT__13
10
0
20
0
30
0
70
128
71
34
72
39
73
40
0
VERTEX
8
OBJECT__13
10
0
20
0
30
0
70
128
71
40
72
41
73
34
0
VERTEX
8
OBJECT__13
10
0
20
0
30
0
70
128
71
40
72
42
73
41
0
VERTEX
8
OBJECT__13
10
0
20
0
30
0
70
128
71
34
72
43
73
39
0
VERTEX
8
OBJECT__13
10
0
20
0
30
0
70
128
71
44
72
41
73
45
0
VERTEX
8
OBJECT__13
10
0
20
0
30
0
70
128
71
45
72
46
73
44
0
VERTEX
8
OBJECT__13
10
0
20
0
30
0
70
128
71
41
72
47
73
48
0
VERTEX
8
OBJECT__13
10
0
20
0
30
0
70
128
71
48
72
45
73
41
0
VERTEX
8
OBJECT__13
10
0
20
0
30
0
70
128
71
44
72
49
73
50
0
VERTEX
8
OBJECT__13
10
0
20
0
30
0
70
128
71
44
72
51
73
49
0
VERTEX
8
OBJECT__13
10
0
20
0
30
0
70
128
71
50
72
52
73
44
0
VERTEX
8
OBJECT__13
10
0
20
0
30
0
70
128
71
50
72
53
73
52
0
VERTEX
8
OBJECT__13
10
0
20
0
30
0
70
128
71
52
72
54
73
55
0
VERTEX
8
OBJECT__13
10
0
20
0
30
0
70
128
71
52
72
56
73
54
0
VERTEX
8
OBJECT__13
10
0
20
0
30
0
70
128
71
55
72
1
73
52
0
VERTEX
8
OBJECT__13
10
0
20
0
30
0
70
128
71
55
72
2
73
1
0
VERTEX
8
OBJECT__13
10
0
20
0
30
0
70
128
71
53
72
56
73
52
0
VERTEX
8
OBJECT__13
10
0
20
0
30
0
70
128
71
46
72
51
73
44
0
VERTEX
8
OBJECT__13
10
0
20
0
30
0
70
128
71
42
72
47
73
41
0
VERTEX
8
OBJECT__13
10
0
20
0
30
0
70
128
71
36
72
43
73
34
0
VERTEX
8
OBJECT__13
10
0
20
0
30
0
70
128
71
32
72
37
73
30
0
VERTEX
8
OBJECT__13
10
0
20
0
30
0
70
128
71
29
72
33
73
27
0
VERTEX
8
OBJECT__13
10
0
20
0
30
0
70
128
71
23
72
28
73
22
0
VERTEX
8
OBJECT__13
10
0
20
0
30
0
70
128
71
20
72
24
73
21
0
VERTEX
8
OBJECT__13
10
0
20
0
30
0
70
128
71
18
72
19
73
15
0
VERTEX
8
OBJECT__13
10
0
20
0
30
0
70
128
71
13
72
17
73
12
0
VERTEX
8
OBJECT__13
10
0
20
0
30
0
70
128
71
9
72
14
73
10
0
VERTEX
8
OBJECT__13
10
0
20
0
30
0
70
128
71
6
72
11
73
5
0
VERTEX
8
OBJECT__13
10
0
20
0
30
0
70
128
71
3
72
7
73
4
0
SEQEND
8
OBJECT__13
0
POLYLINE
8
OBJECT__14
66
1
70
64
71
4
72
2
62
253
0
VERTEX
8
OBJECT__14
10
72.141998
20
53.400002
30
-471.484985
70
192
0
VERTEX
8
OBJECT__14
10
62.342999
20
43.450001
30
-469.756989
70
192
0
VERTEX
8
OBJECT__14
10
52.543999
20
53.400002
30
-468.028992
70
192
0
VERTEX
8
OBJECT__14
10
62.342999
20
63.349998
30
-469.756989
70
192
0
VERTEX
8
OBJECT__14
10
0
20
0
30
0
70
128
71
1
72
2
73
3
0
VERTEX
8
OBJECT__14
10
0
20
0
30
0
70
128
71
3
72
4
73
1
0
SEQEND
8
OBJECT__14
0
POLYLINE
8
OBJECT__15
66
1
70
64
71
8
72
8
62
253
0
VERTEX
8
OBJECT__15
10
62.898998
20
63.349998
30
-466.605988
70
192
0
VERTEX
8
OBJECT__15
10
72.697998
20
53.400002
30
-468.334015
70
192
0
VERTEX
8
OBJECT__15
10
72.141998
20
53.400002
30
-471.484985
70
192
0
VERTEX
8
OBJECT__15
10
53.099998
20
53.400002
30
-464.877991
70
192
0
VERTEX
8
OBJECT__15
10
62.342999
20
63.349998
30
-469.756989
70
192
0
VERTEX
8
OBJECT__15
10
52.543999
20
53.400002
30
-468.028992
70
192
0
VERTEX
8
OBJECT__15
10
62.342999
20
43.450001
30
-469.756989
70
192
0
VERTEX
8
OBJECT__15
10
62.898998
20
43.450001
30
-466.605988
70
192
0
VERTEX
8
OBJECT__15
10
0
20
0
30
0
70
128
71
1
72
2
73
3
0
VERTEX
8
OBJECT__15
10
0
20
0
30
0
70
128
71
4
72
1
73
5
0
VERTEX
8
OBJECT__15
10
0
20
0
30
0
70
128
71
6
72
7
73
8
0
VERTEX
8
OBJECT__15
10
0
20
0
30
0
70
128
71
8
72
7
73
3
0
VERTEX
8
OBJECT__15
10
0
20
0
30
0
70
128
71
3
72
2
73
8
0
VERTEX
8
OBJECT__15
10
0
20
0
30
0
70
128
71
8
72
4
73
6
0
VERTEX
8
OBJECT__15
10
0
20
0
30
0
70
128
71
5
72
6
73
4
0
VERTEX
8
OBJECT__15
10
0
20
0
30
0
70
128
71
3
72
5
73
1
0
SEQEND
8
OBJECT__15
0
POLYLINE
8
OBJECT__17
66
1
70
64
71
8
72
8
62
253
0
VERTEX
8
OBJECT__17
10
62.963001
20
63.721001
30
-466.240997
70
192
0
VERTEX
8
OBJECT__17
10
73.126999
20
53.400002
30
-468.032990
70
192
0
VERTEX
8
OBJECT__17
10
72.697998
20
53.400002
30
-468.334015
70
192
0
VERTEX
8
OBJECT__17
10
52.799000
20
53.400002
30
-464.449005
70
192
0
VERTEX
8
OBJECT__17
10
62.898998
20
63.349998
30
-466.605988
70
192
0
VERTEX
8
OBJECT__17
10
53.099998
20
53.400002
30
-464.877991
70
192
0
VERTEX
8
OBJECT__17
10
62.898998
20
43.450001
30
-466.605988
70
192
0
VERTEX
8
OBJECT__17
10
62.963001
20
43.078999
30
-466.240997
70
192
0
VERTEX
8
OBJECT__17
10
0
20
0
30
0
70
128
71
1
72
2
73
3
0
VERTEX
8
OBJECT__17
10
0
20
0
30
0
70
128
71
4
72
1
73
5
0
VERTEX
8
OBJECT__17
10
0
20
0
30
0
70
128
71
4
72
6
73
7
0
VERTEX
8
OBJECT__17
10
0
20
0
30
0
70
128
71
8
72
7
73
3
0
VERTEX
8
OBJECT__17
10
0
20
0
30
0
70
128
71
3
72
2
73
8
0
VERTEX
8
OBJECT__17
10
0
20
0
30
0
70
128
71
7
72
8
73
4
0
VERTEX
8
OBJECT__17
10
0
20
0
30
0
70
128
71
5
72
6
73
4
0
VERTEX
8
OBJECT__17
10
0
20
0
30
0
70
128
71
3
72
5
73
1
0
SEQEND
8
OBJECT__17
0
POLYLINE
8
OBJECT__18
66
1
70
64
71
8
72
8
62
253
0
VERTEX
8
OBJECT__18
10
79.486000
20
53.400002
30
-440.489014
70
192
0
VERTEX
8
OBJECT__18
10
73.126999
20
53.400002
30
-468.032990
70
192
0
VERTEX
8
OBJECT__18
10
62.963001
20
63.721001
30
-466.240997
70
192
0
VERTEX
8
OBJECT__18
10
67.864998
20
65.199997
30
-438.440002
70
192
0
VERTEX
8
OBJECT__18
10
52.799000
20
53.400002
30
-464.449005
70
192
0
VERTEX
8
OBJECT__18
10
67.864998
20
41.599998
30
-438.440002
70
192
0
VERTEX
8
OBJECT__18
10
56.243999
20
53.400002
30
-436.390991
70
192
0
VERTEX
8
OBJECT__18
10
62.963001
20
43.078999
30
-466.240997
70
192
0
VERTEX
8
OBJECT__18
10
0
20
0
30
0
70
128
71
1
72
2
73
3
0
VERTEX
8
OBJECT__18
10
0
20
0
30
0
70
128
71
4
72
3
73
5
0
VERTEX
8
OBJECT__18
10
0
20
0
30
0
70
128
71
6
72
7
73
5
0
VERTEX
8
OBJECT__18
10
0
20
0
30
0
70
128
71
1
72
6
73
8
0
VERTEX
8
OBJECT__18
10
0
20
0
30
0
70
128
71
8
72
2
73
1
0
VERTEX
8
OBJECT__18
10
0
20
0
30
0
70
128
71
5
72
8
73
6
0
VERTEX
8
OBJECT__18
10
0
20
0
30
0
70
128
71
5
72
7
73
4
0
VERTEX
8
OBJECT__18
10
0
20
0
30
0
70
128
71
3
72
4
73
1
0
SEQEND
8
OBJECT__18
0
POLYLINE
8
OBJECT__19
66
1
70
64
71
8
72
8
62
253
0
VERTEX
8
OBJECT__19
10
67.864998
20
65.199997
30
-438.440002
70
192
0
VERTEX
8
OBJECT__19
10
56.243999
20
53.400002
30
-436.390991
70
192
0
VERTEX
8
OBJECT__19
10
56.591999
20
53.400002
30
-436.148010
70
192
0
VERTEX
8
OBJECT__19
10
79.486000
20
53.400002
30
-440.489014
70
192
0
VERTEX
8
OBJECT__19
10
67.917000
20
64.900002
30
-438.144989
70
192
0
VERTEX
8
OBJECT__19
10
79.242996
20
53.400002
30
-440.141998
70
192
0
VERTEX
8
OBJECT__19
10
67.917000
20
41.900002
30
-438.144989
70
192
0
VERTEX
8
OBJECT__19
10
67.864998
20
41.599998
30
-438.440002
70
192
0
VERTEX
8
OBJECT__19
10
0
20
0
30
0
70
128
71
1
72
2
73
3
0
VERTEX
8
OBJECT__19
10
0
20
0
30
0
70
128
71
4
72
1
73
5
0
VERTEX
8
OBJECT__19
10
0
20
0
30
0
70
128
71
4
72
6
73
7
0
VERTEX
8
OBJECT__19
10
0
20
0
30
0
70
128
71
8
72
7
73
3
0
VERTEX
8
OBJECT__19
10
0
20
0
30
0
70
128
71
3
72
2
73
8
0
VERTEX
8
OBJECT__19
10
0
20
0
30
0
70
128
71
7
72
8
73
4
0
VERTEX
8
OBJECT__19
10
0
20
0
30
0
70
128
71
5
72
6
73
4
0
VERTEX
8
OBJECT__19
10
0
20
0
30
0
70
128
71
3
72
5
73
1
0
SEQEND
8
OBJECT__19
0
POLYLINE
8
OBJECT__20
66
1
70
64
71
8
72
8
62
253
0
VERTEX
8
OBJECT__20
10
67.917000
20
64.900002
30
-438.144989
70
192
0
VERTEX
8
OBJECT__20
10
68.473000
20
64.900002
30
-434.993988
70
192
0
VERTEX
8
OBJECT__20
10
79.797997
20
53.400002
30
-436.990997
70
192
0
VERTEX
8
OBJECT__20
10
57.147999
20
53.400002
30
-432.997009
70
192
0
VERTEX
8
OBJECT__20
10
67.917000
20
41.900002
30
-438.144989
70
192
0
VERTEX
8
OBJECT__20
10
68.473000
20
41.900002
30
-434.993988
70
192
0
VERTEX
8
OBJECT__20
10
79.242996
20
53.400002
30
-440.141998
70
192
0
VERTEX
8
OBJECT__20
10
56.591999
20
53.400002
30
-436.148010
70
192
0
VERTEX
8
OBJECT__20
10
0
20
0
30
0
70
128
71
1
72
2
73
3
0
VERTEX
8
OBJECT__20
10
0
20
0
30
0
70
128
71
4
72
2
73
1
0
VERTEX
8
OBJECT__20
10
0
20
0
30
0
70
128
71
5
72
6
73
4
0
VERTEX
8
OBJECT__20
10
0
20
0
30
0
70
128
71
7
72
3
73
6
0
VERTEX
8
OBJECT__20
10
0
20
0
30
0
70
128
71
6
72
5
73
7
0
VERTEX
8
OBJECT__20
10
0
20
0
30
0
70
128
71
4
72
8
73
5
0
VERTEX
8
OBJECT__20
10
0
20
0
30
0
70
128
71
1
72
8
73
4
0
VERTEX
8
OBJECT__20
10
0
20
0
30
0
70
128
71
3
72
7
73
1
0
SEQEND
8
OBJECT__20
0
POLYLINE
8
OBJECT__21
66
1
70
64
71
23
72
23
62
253
0
VERTEX
8
OBJECT__21
10
106.429001
20
76.999001
30
-227.278000
70
192
0
VERTEX
8
OBJECT__21
10
97.777000
20
91.250000
30
-255.578003
70
192
0
VERTEX
8
OBJECT__21
10
103.415001
20
84.021004
30
-234.037003
70
192
0
VERTEX
8
OBJECT__21
10
105.133003
20
75.932999
30
-228.417007
70
192
0
VERTEX
8
OBJECT__21
10
96.910004
20
91.250000
30
-255.313004
70
192
0
VERTEX
8
OBJECT__21
10
107.434998
20
65.096001
30
-220.888000
70
192
0
VERTEX
8
OBJECT__21
10
108.565002
20
44.978001
30
-220.289001
70
192
0
VERTEX
8
OBJECT__21
10
107.434998
20
44.978001
30
-220.888000
70
192
0
VERTEX
8
OBJECT__21
10
102.578003
20
19.298000
30
-239.873001
70
192
0
VERTEX
8
OBJECT__21
10
107.434998
20
41.703999
30
-220.888000
70
192
0
VERTEX
8
OBJECT__21
10
103.415001
20
22.778999
30
-234.037003
70
192
0
VERTEX
8
OBJECT__21
10
101.574997
20
20.733999
30
-240.054001
70
192
0
VERTEX
8
OBJECT__21
10
96.910004
20
15.550000
30
-255.313004
70
192
0
VERTEX
8
OBJECT__21
10
92.974998
20
19.298000
30
-271.282990
70
192
0
VERTEX
8
OBJECT__21
10
92.245003
20
20.733999
30
-270.571014
70
192
0
VERTEX
8
OBJECT__21
10
86.987999
20
44.978001
30
-290.865997
70
192
0
VERTEX
8
OBJECT__21
10
90.404999
20
22.778999
30
-276.588013
70
192
0
VERTEX
8
OBJECT__21
10
86.385002
20
41.703999
30
-289.737000
70
192
0
VERTEX
8
OBJECT__21
10
86.385002
20
44.978001
30
-289.737000
70
192
0
VERTEX
8
OBJECT__21
10
89.125000
20
76.999001
30
-283.877014
70
192
0
VERTEX
8
OBJECT__21
10
86.385002
20
65.096001
30
-289.737000
70
192
0
VERTEX
8
OBJECT__21
10
88.686996
20
75.932999
30
-282.208008
70
192
0
VERTEX
8
OBJECT__21
10
90.404999
20
84.021004
30
-276.588013
70
192
0
VERTEX
8
OBJECT__21
10
0
20
0
30
0
70
128
71
1
72
2
73
3
0
VERTEX
8
OBJECT__21
10
0
20
0
30
0
70
128
71
3
72
4
73
1
0
VERTEX
8
OBJECT__21
10
0
20
0
30
0
70
128
71
2
72
5
73
3
0
VERTEX
8
OBJECT__21
10
0
20
0
30
0
70
128
71
1
72
4
73
6
0
VERTEX
8
OBJECT__21
10
0
20
0
30
0
70
128
71
6
72
7
73
1
0
VERTEX
8
OBJECT__21
10
0
20
0
30
0
70
128
71
6
72
8
73
7
0
VERTEX
8
OBJECT__21
10
0
20
0
30
0
70
128
71
9
72
10
73
11
0
VERTEX
8
OBJECT__21
10
0
20
0
30
0
70
128
71
11
72
12
73
9
0
VERTEX
8
OBJECT__21
10
0
20
0
30
0
70
128
71
7
72
8
73
10
0
VERTEX
8
OBJECT__21
10
0
20
0
30
0
70
128
71
10
72
9
73
7
0
VERTEX
8
OBJECT__21
10
0
20
0
30
0
70
128
71
9
72
12
73
13
0
VERTEX
8
OBJECT__21
10
0
20
0
30
0
70
128
71
13
72
14
73
9
0
VERTEX
8
OBJECT__21
10
0
20
0
30
0
70
128
71
13
72
15
73
14
0
VERTEX
8
OBJECT__21
10
0
20
0
30
0
70
128
71
16
72
17
73
18
0
VERTEX
8
OBJECT__21
10
0
20
0
30
0
70
128
71
18
72
19
73
16
0
VERTEX
8
OBJECT__21
10
0
20
0
30
0
70
128
71
14
72
15
73
17
0
VERTEX
8
OBJECT__21
10
0
20
0
30
0
70
128
71
17
72
16
73
14
0
VERTEX
8
OBJECT__21
10
0
20
0
30
0
70
128
71
20
72
16
73
21
0
VERTEX
8
OBJECT__21
10
0
20
0
30
0
70
128
71
21
72
22
73
20
0
VERTEX
8
OBJECT__21
10
0
20
0
30
0
70
128
71
16
72
19
73
21
0
VERTEX
8
OBJECT__21
10
0
20
0
30
0
70
128
71
20
72
22
73
23
0
VERTEX
8
OBJECT__21
10
0
20
0
30
0
70
128
71
23
72
2
73
20
0
VERTEX
8
OBJECT__21
10
0
20
0
30
0
70
128
71
23
72
5
73
2
0
SEQEND
8
OBJECT__21
0
POLYLINE
8
OBJECT__22
66
1
70
64
71
36
72
36
62
253
0
VERTEX
8
OBJECT__22
10
92.129997
20
19.930000
30
-270.946991
70
192
0
VERTEX
8
OBJECT__22
10
96.623001
20
17.676001
30
-255.225006
70
192
0
VERTEX
8
OBJECT__22
10
93.230003
20
17.676001
30
-266.325012
70
192
0
VERTEX
8
OBJECT__22
10
96.910004
20
15.550000
30
-255.313004
70
192
0
VERTEX
8
OBJECT__22
10
86.690002
20
42.361000
30
-287.716003
70
192
0
VERTEX
8
OBJECT__22
10
86.690002
20
64.439003
30
-287.716003
70
192
0
VERTEX
8
OBJECT__22
10
86.385002
20
65.096001
30
-289.737000
70
192
0
VERTEX
8
OBJECT__22
10
85.640999
20
53.400002
30
-291.145996
70
192
0
VERTEX
8
OBJECT__22
10
107.514000
20
44.914001
30
-220.626999
70
192
0
VERTEX
8
OBJECT__22
10
106.556999
20
64.439003
30
-222.733994
70
192
0
VERTEX
8
OBJECT__22
10
107.605003
20
53.400002
30
-219.304001
70
192
0
VERTEX
8
OBJECT__22
10
107.434998
20
65.096001
30
-220.888000
70
192
0
VERTEX
8
OBJECT__22
10
101.690002
20
19.930000
30
-239.677994
70
192
0
VERTEX
8
OBJECT__22
10
102.763000
20
24.499001
30
-235.145004
70
192
0
VERTEX
8
OBJECT__22
10
100.016998
20
17.676001
30
-244.125000
70
192
0
VERTEX
8
OBJECT__22
10
107.434998
20
41.703999
30
-220.888000
70
192
0
VERTEX
8
OBJECT__22
10
106.556999
20
42.361000
30
-222.733994
70
192
0
VERTEX
8
OBJECT__22
10
105.508003
20
31.320999
30
-226.164001
70
192
0
VERTEX
8
OBJECT__22
10
103.415001
20
22.778999
30
-234.037003
70
192
0
VERTEX
8
OBJECT__22
10
105.408997
20
76.691002
30
-227.511993
70
192
0
VERTEX
8
OBJECT__22
10
102.763000
20
82.301003
30
-235.145004
70
192
0
VERTEX
8
OBJECT__22
10
105.508003
20
75.478996
30
-226.164001
70
192
0
VERTEX
8
OBJECT__22
10
103.415001
20
84.021004
30
-234.037003
70
192
0
VERTEX
8
OBJECT__22
10
96.910004
20
91.250000
30
-255.313004
70
192
0
VERTEX
8
OBJECT__22
10
100.016998
20
89.124001
30
-244.125000
70
192
0
VERTEX
8
OBJECT__22
10
96.623001
20
90.961998
30
-255.225006
70
192
0
VERTEX
8
OBJECT__22
10
90.404999
20
84.021004
30
-276.588013
70
192
0
VERTEX
8
OBJECT__22
10
90.484001
20
82.301003
30
-275.304993
70
192
0
VERTEX
8
OBJECT__22
10
93.230003
20
89.124001
30
-266.325012
70
192
0
VERTEX
8
OBJECT__22
10
88.411003
20
76.691002
30
-283.113007
70
192
0
VERTEX
8
OBJECT__22
10
87.738998
20
75.478996
30
-284.286011
70
192
0
VERTEX
8
OBJECT__22
10
86.306000
20
44.914001
30
-289.997986
70
192
0
VERTEX
8
OBJECT__22
10
90.404999
20
22.778999
30
-276.588013
70
192
0
VERTEX
8
OBJECT__22
10
90.484001
20
24.499001
30
-275.304993
70
192
0
VERTEX
8
OBJECT__22
10
87.738998
20
31.320999
30
-284.286011
70
192
0
VERTEX
8
OBJECT__22
10
86.385002
20
41.703999
30
-289.737000
70
192
0
VERTEX
8
OBJECT__22
10
0
20
0
30
0
70
128
71
1
72
2
73
3
0
VERTEX
8
OBJECT__22
10
0
20
0
30
0
70
128
71
1
72
4
73
2
0
VERTEX
8
OBJECT__22
10
0
20
0
30
0
70
128
71
5
72
6
73
7
0
VERTEX
8
OBJECT__22
10
0
20
0
30
0
70
128
71
5
72
8
73
6
0
VERTEX
8
OBJECT__22
10
0
20
0
30
0
70
128
71
9
72
10
73
11
0
VERTEX
8
OBJECT__22
10
0
20
0
30
0
70
128
71
9
72
12
73
10
0
VERTEX
8
OBJECT__22
10
0
20
0
30
0
70
128
71
13
72
14
73
15
0
VERTEX
8
OBJECT__22
10
0
20
0
30
0
70
128
71
15
72
4
73
13
0
VERTEX
8
OBJECT__22
10
0
20
0
30
0
70
128
71
15
72
2
73
4
0
VERTEX
8
OBJECT__22
10
0
20
0
30
0
70
128
71
16
72
17
73
18
0
VERTEX
8
OBJECT__22
10
0
20
0
30
0
70
128
71
18
72
19
73
16
0
VERTEX
8
OBJECT__22
10
0
20
0
30
0
70
128
71
18
72
14
73
19
0
VERTEX
8
OBJECT__22
10
0
20
0
30
0
70
128
71
11
72
17
73
9
0
VERTEX
8
OBJECT__22
10
0
20
0
30
0
70
128
71
20
72
21
73
22
0
VERTEX
8
OBJECT__22
10
0
20
0
30
0
70
128
71
22
72
12
73
20
0
VERTEX
8
OBJECT__22
10
0
20
0
30
0
70
128
71
20
72
23
73
21
0
VERTEX
8
OBJECT__22
10
0
20
0
30
0
70
128
71
23
72
24
73
25
0
VERTEX
8
OBJECT__22
10
0
20
0
30
0
70
128
71
25
72
21
73
23
0
VERTEX
8
OBJECT__22
10
0
20
0
30
0
70
128
71
24
72
26
73
25
0
VERTEX
8
OBJECT__22
10
0
20
0
30
0
70
128
71
27
72
28
73
29
0
VERTEX
8
OBJECT__22
10
0
20
0
30
0
70
128
71
29
72
24
73
27
0
VERTEX
8
OBJECT__22
10
0
20
0
30
0
70
128
71
29
72
26
73
24
0
VERTEX
8
OBJECT__22
10
0
20
0
30
0
70
128
71
30
72
7
73
31
0
VERTEX
8
OBJECT__22
10
0
20
0
30
0
70
128
71
31
72
27
73
30
0
VERTEX
8
OBJECT__22
10
0
20
0
30
0
70
128
71
7
72
6
73
31
0
VERTEX
8
OBJECT__22
10
0
20
0
30
0
70
128
71
7
72
32
73
5
0
VERTEX
8
OBJECT__22
10
0
20
0
30
0
70
128
71
33
72
34
73
35
0
VERTEX
8
OBJECT__22
10
0
20
0
30
0
70
128
71
35
72
36
73
33
0
VERTEX
8
OBJECT__22
10
0
20
0
30
0
70
128
71
35
72
5
73
36
0
VERTEX
8
OBJECT__22
10
0
20
0
30
0
70
128
71
3
72
34
73
1
0
VERTEX
8
OBJECT__22
10
0
20
0
30
0
70
128
71
34
72
33
73
1
0
VERTEX
8
OBJECT__22
10
0
20
0
30
0
70
128
71
32
72
36
73
5
0
VERTEX
8
OBJECT__22
10
0
20
0
30
0
70
128
71
31
72
28
73
27
0
VERTEX
8
OBJECT__22
10
0
20
0
30
0
70
128
71
22
72
10
73
12
0
VERTEX
8
OBJECT__22
10
0
20
0
30
0
70
128
71
17
72
16
73
9
0
VERTEX
8
OBJECT__22
10
0
20
0
30
0
70
128
71
13
72
19
73
14
0
SEQEND
8
OBJECT__22
0
POLYLINE
8
OBJECT__24
66
1
70
64
71
60
72
80
62
253
0
VERTEX
8
OBJECT__24
10
89.188004
20
53.400002
30
-281.132996
70
192
0
VERTEX
8
OBJECT__24
10
90.693001
20
69.240997
30
-276.210999
70
192
0
VERTEX
8
OBJECT__24
10
86.690002
20
64.439003
30
-287.716003
70
192
0
VERTEX
8
OBJECT__24
10
87.738998
20
75.478996
30
-284.286011
70
192
0
VERTEX
8
OBJECT__24
10
94.632004
20
79.030998
30
-263.325012
70
192
0
VERTEX
8
OBJECT__24
10
90.484001
20
82.301003
30
-275.304993
70
192
0
VERTEX
8
OBJECT__24
10
93.230003
20
89.124001
30
-266.325012
70
192
0
VERTEX
8
OBJECT__24
10
99.501999
20
79.030998
30
-247.397003
70
192
0
VERTEX
8
OBJECT__24
10
96.623001
20
90.961998
30
-255.225006
70
192
0
VERTEX
8
OBJECT__24
10
100.016998
20
89.124001
30
-244.125000
70
192
0
VERTEX
8
OBJECT__24
10
103.442001
20
69.240997
30
-234.511002
70
192
0
VERTEX
8
OBJECT__24
10
102.763000
20
82.301003
30
-235.145004
70
192
0
VERTEX
8
OBJECT__24
10
105.508003
20
75.478996
30
-226.164001
70
192
0
VERTEX
8
OBJECT__24
10
104.946999
20
53.400002
30
-229.589005
70
192
0
VERTEX
8
OBJECT__24
10
106.556999
20
64.439003
30
-222.733994
70
192
0
VERTEX
8
OBJECT__24
10
107.605003
20
53.400002
30
-219.304001
70
192
0
VERTEX
8
OBJECT__24
10
103.442001
20
37.558998
30
-234.511002
70
192
0
VERTEX
8
OBJECT__24
10
105.508003
20
31.320999
30
-226.164001
70
192
0
VERTEX
8
OBJECT__24
10
106.556999
20
42.361000
30
-222.733994
70
192
0
VERTEX
8
OBJECT__24
10
99.501999
20
27.768999
30
-247.397003
70
192
0
VERTEX
8
OBJECT__24
10
100.016998
20
17.676001
30
-244.125000
70
192
0
VERTEX
8
OBJECT__24
10
102.763000
20
24.499001
30
-235.145004
70
192
0
VERTEX
8
OBJECT__24
10
94.632004
20
27.768999
30
-263.325012
70
192
0
VERTEX
8
OBJECT__24
10
93.230003
20
17.676001
30
-266.325012
70
192
0
VERTEX
8
OBJECT__24
10
96.623001
20
17.676001
30
-255.225006
70
192
0
VERTEX
8
OBJECT__24
10
90.693001
20
37.558998
30
-276.210999
70
192
0
VERTEX
8
OBJECT__24
10
87.738998
20
31.320999
30
-284.286011
70
192
0
VERTEX
8
OBJECT__24
10
90.484001
20
24.499001
30
-275.304993
70
192
0
VERTEX
8
OBJECT__24
10
85.640999
20
53.400002
30
-291.145996
70
192
0
VERTEX
8
OBJECT__24
10
86.690002
20
42.361000
30
-287.716003
70
192
0
VERTEX
8
OBJECT__24
10
90.820000
20
53.400002
30
-279.408997
70
192
0
VERTEX
8
OBJECT__24
10
92.206001
20
67.990997
30
-274.875000
70
192
0
VERTEX
8
OBJECT__24
10
95.834999
20
77.009003
30
-263.005005
70
192
0
VERTEX
8
OBJECT__24
10
100.320000
20
77.009003
30
-248.334000
70
192
0
VERTEX
8
OBJECT__24
10
103.948997
20
67.990997
30
-236.464005
70
192
0
VERTEX
8
OBJECT__24
10
105.334999
20
53.400002
30
-231.931000
70
192
0
VERTEX
8
OBJECT__24
10
103.948997
20
38.808998
30
-236.464005
70
192
0
VERTEX
8
OBJECT__24
10
100.320000
20
29.791000
30
-248.334000
70
192
0
VERTEX
8
OBJECT__24
10
95.834999
20
29.791000
30
-263.005005
70
192
0
VERTEX
8
OBJECT__24
10
92.206001
20
38.808998
30
-274.875000
70
192
0
VERTEX
8
OBJECT__24
10
102.306000
20
53.400002
30
-278.045013
70
192
0
VERTEX
8
OBJECT__24
10
103.331001
20
64.197998
30
-274.690002
70
192
0
VERTEX
8
OBJECT__24
10
103.431000
20
65.250999
30
-274.363007
70
192
0
VERTEX
8
OBJECT__24
10
105.851997
20
71.264999
30
-266.446014
70
192
0
VERTEX
8
OBJECT__24
10
110.022003
20
72.574997
30
-252.806000
70
192
0
VERTEX
8
OBJECT__24
10
111.903999
20
67.899002
30
-246.651993
70
192
0
VERTEX
8
OBJECT__24
10
112.969002
20
65.250999
30
-243.166000
70
192
0
VERTEX
8
OBJECT__24
10
113.584000
20
58.778000
30
-241.154999
70
192
0
VERTEX
8
OBJECT__24
10
113.584000
20
48.021999
30
-241.154999
70
192
0
VERTEX
8
OBJECT__24
10
114.095001
20
53.400002
30
-239.483994
70
192
0
VERTEX
8
OBJECT__24
10
111.903999
20
38.901001
30
-246.651993
70
192
0
VERTEX
8
OBJECT__24
10
112.969002
20
41.549000
30
-243.166000
70
192
0
VERTEX
8
OBJECT__24
10
109.039001
20
34.224998
30
-256.020996
70
192
0
VERTEX
8
OBJECT__24
10
110.022003
20
34.224998
30
-252.806000
70
192
0
VERTEX
8
OBJECT__24
10
105.851997
20
35.535000
30
-266.446014
70
192
0
VERTEX
8
OBJECT__24
10
106.378998
20
34.224998
30
-264.722992
70
192
0
VERTEX
8
OBJECT__24
10
103.431000
20
41.549000
30
-274.363007
70
192
0
VERTEX
8
OBJECT__24
10
108.199997
20
73.557999
30
-258.765015
70
192
0
VERTEX
8
OBJECT__24
10
109.028000
20
73.112000
30
-256.057007
70
192
0
VERTEX
8
OBJECT__24
10
106.378998
20
72.574997
30
-264.722992
70
192
0
VERTEX
8
OBJECT__24
10
0
20
0
30
0
70
128
71
1
72
2
73
3
0
VERTEX
8
OBJECT__24
10
0
20
0
30
0
70
128
71
2
72
4
73
3
0
VERTEX
8
OBJECT__24
10
0
20
0
30
0
70
128
71
2
72
5
73
6
0
VERTEX
8
OBJECT__24
10
0
20
0
30
0
70
128
71
5
72
7
73
6
0
VERTEX
8
OBJECT__24
10
0
20
0
30
0
70
128
71
5
72
8
73
9
0
VERTEX
8
OBJECT__24
10
0
20
0
30
0
70
128
71
8
72
10
73
9
0
VERTEX
8
OBJECT__24
10
0
20
0
30
0
70
128
71
8
72
11
73
12
0
VERTEX
8
OBJECT__24
10
0
20
0
30
0
70
128
71
11
72
13
73
12
0
VERTEX
8
OBJECT__24
10
0
20
0
30
0
70
128
71
11
72
14
73
15
0
VERTEX
8
OBJECT__24
10
0
20
0
30
0
70
128
71
14
72
16
73
15
0
VERTEX
8
OBJECT__24
10
0
20
0
30
0
70
128
71
17
72
18
73
19
0
VERTEX
8
OBJECT__24
10
0
20
0
30
0
70
128
71
19
72
14
73
17
0
VERTEX
8
OBJECT__24
10
0
20
0
30
0
70
128
71
20
72
21
73
22
0
VERTEX
8
OBJECT__24
10
0
20
0
30
0
70
128
71
22
72
17
73
20
0
VERTEX
8
OBJECT__24
10
0
20
0
30
0
70
128
71
23
72
24
73
25
0
VERTEX
8
OBJECT__24
10
0
20
0
30
0
70
128
71
25
72
20
73
23
0
VERTEX
8
OBJECT__24
10
0
20
0
30
0
70
128
71
26
72
27
73
28
0
VERTEX
8
OBJECT__24
10
0
20
0
30
0
70
128
71
28
72
23
73
26
0
VERTEX
8
OBJECT__24
10
0
20
0
30
0
70
128
71
1
72
29
73
30
0
VERTEX
8
OBJECT__24
10
0
20
0
30
0
70
128
71
30
72
26
73
1
0
VERTEX
8
OBJECT__24
10
0
20
0
30
0
70
128
71
31
72
32
73
2
0
VERTEX
8
OBJECT__24
10
0
20
0
30
0
70
128
71
32
72
33
73
5
0
VERTEX
8
OBJECT__24
10
0
20
0
30
0
70
128
71
33
72
34
73
8
0
VERTEX
8
OBJECT__24
10
0
20
0
30
0
70
128
71
34
72
35
73
11
0
VERTEX
8
OBJECT__24
10
0
20
0
30
0
70
128
71
35
72
36
73
14
0
VERTEX
8
OBJECT__24
10
0
20
0
30
0
70
128
71
36
72
37
73
17
0
VERTEX
8
OBJECT__24
10
0
20
0
30
0
70
128
71
37
72
38
73
20
0
VERTEX
8
OBJECT__24
10
0
20
0
30
0
70
128
71
38
72
39
73
23
0
VERTEX
8
OBJECT__24
10
0
20
0
30
0
70
128
71
39
72
40
73
26
0
VERTEX
8
OBJECT__24
10
0
20
0
30
0
70
128
71
40
72
31
73
1
0
VERTEX
8
OBJECT__24
10
0
20
0
30
0
70
128
71
31
72
41
73
42
0
VERTEX
8
OBJECT__24
10
0
20
0
30
0
70
128
71
42
72
32
73
31
0
VERTEX
8
OBJECT__24
10
0
20
0
30
0
70
128
71
32
72
43
73
44
0
VERTEX
8
OBJECT__24
10
0
20
0
30
0
70
128
71
44
72
33
73
32
0
VERTEX
8
OBJECT__24
10
0
20
0
30
0
70
128
71
34
72
45
73
46
0
VERTEX
8
OBJECT__24
10
0
20
0
30
0
70
128
71
46
72
35
73
34
0
VERTEX
8
OBJECT__24
10
0
20
0
30
0
70
128
71
35
72
47
73
48
0
VERTEX
8
OBJECT__24
10
0
20
0
30
0
70
128
71
48
72
36
73
35
0
VERTEX
8
OBJECT__24
10
0
20
0
30
0
70
128
71
37
72
36
73
49
0
VERTEX
8
OBJECT__24
10
0
20
0
30
0
70
128
71
36
72
50
73
49
0
VERTEX
8
OBJECT__24
10
0
20
0
30
0
70
128
71
38
72
37
73
51
0
VERTEX
8
OBJECT__24
10
0
20
0
30
0
70
128
71
37
72
52
73
51
0
VERTEX
8
OBJECT__24
10
0
20
0
30
0
70
128
71
39
72
38
73
53
0
VERTEX
8
OBJECT__24
10
0
20
0
30
0
70
128
71
38
72
54
73
53
0
VERTEX
8
OBJECT__24
10
0
20
0
30
0
70
128
71
40
72
39
73
55
0
VERTEX
8
OBJECT__24
10
0
20
0
30
0
70
128
71
39
72
56
73
55
0
VERTEX
8
OBJECT__24
10
0
20
0
30
0
70
128
71
31
72
40
73
57
0
VERTEX
8
OBJECT__24
10
0
20
0
30
0
70
128
71
34
72
33
73
58
0
VERTEX
8
OBJECT__24
10
0
20
0
30
0
70
128
71
58
72
59
73
34
0
VERTEX
8
OBJECT__24
10
0
20
0
30
0
70
128
71
33
72
60
73
58
0
VERTEX
8
OBJECT__24
10
0
20
0
30
0
70
128
71
59
72
45
73
34
0
VERTEX
8
OBJECT__24
10
0
20
0
30
0
70
128
71
57
72
41
73
31
0
VERTEX
8
OBJECT__24
10
0
20
0
30
0
70
128
71
55
72
57
73
40
0
VERTEX
8
OBJECT__24
10
0
20
0
30
0
70
128
71
53
72
56
73
39
0
VERTEX
8
OBJECT__24
10
0
20
0
30
0
70
128
71
51
72
54
73
38
0
VERTEX
8
OBJECT__24
10
0
20
0
30
0
70
128
71
49
72
52
73
37
0
VERTEX
8
OBJECT__24
10
0
20
0
30
0
70
128
71
48
72
50
73
36
0
VERTEX
8
OBJECT__24
10
0
20
0
30
0
70
128
71
46
72
47
73
35
0
VERTEX
8
OBJECT__24
10
0
20
0
30
0
70
128
71
44
72
60
73
33
0
VERTEX
8
OBJECT__24
10
0
20
0
30
0
70
128
71
42
72
43
73
32
0
VERTEX
8
OBJECT__24
10
0
20
0
30
0
70
128
71
1
72
26
73
40
0
VERTEX
8
OBJECT__24
10
0
20
0
30
0
70
128
71
26
72
23
73
39
0
VERTEX
8
OBJECT__24
10
0
20
0
30
0
70
128
71
23
72
20
73
38
0
VERTEX
8
OBJECT__24
10
0
20
0
30
0
70
128
71
20
72
17
73
37
0
VERTEX
8
OBJECT__24
10
0
20
0
30
0
70
128
71
17
72
14
73
36
0
VERTEX
8
OBJECT__24
10
0
20
0
30
0
70
128
71
14
72
11
73
35
0
VERTEX
8
OBJECT__24
10
0
20
0
30
0
70
128
71
11
72
8
73
34
0
VERTEX
8
OBJECT__24
10
0
20
0
30
0
70
128
71
8
72
5
73
33
0
VERTEX
8
OBJECT__24
10
0
20
0
30
0
70
128
71
5
72
2
73
32
0
VERTEX
8
OBJECT__24
10
0
20
0
30
0
70
128
71
2
72
1
73
31
0
VERTEX
8
OBJECT__24
10
0
20
0
30
0
70
128
71
30
72
27
73
26
0
VERTEX
8
OBJECT__24
10
0
20
0
30
0
70
128
71
28
72
24
73
23
0
VERTEX
8
OBJECT__24
10
0
20
0
30
0
70
128
71
25
72
21
73
20
0
VERTEX
8
OBJECT__24
10
0
20
0
30
0
70
128
71
22
72
18
73
17
0
VERTEX
8
OBJECT__24
10
0
20
0
30
0
70
128
71
19
72
16
73
14
0
VERTEX
8
OBJECT__24
10
0
20
0
30
0
70
128
71
15
72
13
73
11
0
VERTEX
8
OBJECT__24
10
0
20
0
30
0
70
128
71
12
72
10
73
8
0
VERTEX
8
OBJECT__24
10
0
20
0
30
0
70
128
71
9
72
7
73
5
0
VERTEX
8
OBJECT__24
10
0
20
0
30
0
70
128
71
6
72
4
73
2
0
VERTEX
8
OBJECT__24
10
0
20
0
30
0
70
128
71
3
72
29
73
1
0
SEQEND
8
OBJECT__24
0
POLYLINE
8
OBJECT__25
66
1
70
64
71
65
72
87
62
253
0
VERTEX
8
OBJECT__25
10
109.515999
20
65.754997
30
-279.269989
70
192
0
VERTEX
8
OBJECT__25
10
103.331001
20
64.197998
30
-274.690002
70
192
0
VERTEX
8
OBJECT__25
10
102.306000
20
53.400002
30
-278.045013
70
192
0
VERTEX
8
OBJECT__25
10
112.362000
20
74.186996
30
-269.963989
70
192
0
VERTEX
8
OBJECT__25
10
105.851997
20
71.264999
30
-266.446014
70
192
0
VERTEX
8
OBJECT__25
10
103.431000
20
65.250999
30
-274.363007
70
192
0
VERTEX
8
OBJECT__25
10
116.087997
20
76.019997
30
-257.774994
70
192
0
VERTEX
8
OBJECT__25
10
108.199997
20
73.557999
30
-258.765015
70
192
0
VERTEX
8
OBJECT__25
10
109.028000
20
73.112000
30
-256.057007
70
192
0
VERTEX
8
OBJECT__25
10
106.378998
20
72.574997
30
-264.722992
70
192
0
VERTEX
8
OBJECT__25
10
119.513000
20
70.670998
30
-246.574005
70
192
0
VERTEX
8
OBJECT__25
10
111.903999
20
67.899002
30
-246.651993
70
192
0
VERTEX
8
OBJECT__25
10
110.022003
20
72.574997
30
-252.806000
70
192
0
VERTEX
8
OBJECT__25
10
121.547997
20
59.838001
30
-239.917007
70
192
0
VERTEX
8
OBJECT__25
10
113.584000
20
58.778000
30
-241.154999
70
192
0
VERTEX
8
OBJECT__25
10
112.969002
20
65.250999
30
-243.166000
70
192
0
VERTEX
8
OBJECT__25
10
121.547997
20
46.962002
30
-239.917007
70
192
0
VERTEX
8
OBJECT__25
10
114.095001
20
53.400002
30
-239.483994
70
192
0
VERTEX
8
OBJECT__25
10
113.584000
20
48.021999
30
-241.154999
70
192
0
VERTEX
8
OBJECT__25
10
119.513000
20
36.129002
30
-246.574005
70
192
0
VERTEX
8
OBJECT__25
10
112.969002
20
41.549000
30
-243.166000
70
192
0
VERTEX
8
OBJECT__25
10
111.903999
20
38.901001
30
-246.651993
70
192
0
VERTEX
8
OBJECT__25
10
116.087997
20
30.780001
30
-257.774994
70
192
0
VERTEX
8
OBJECT__25
10
110.022003
20
34.224998
30
-252.806000
70
192
0
VERTEX
8
OBJECT__25
10
109.039001
20
34.224998
30
-256.020996
70
192
0
VERTEX
8
OBJECT__25
10
112.362000
20
32.612999
30
-269.963989
70
192
0
VERTEX
8
OBJECT__25
10
106.378998
20
34.224998
30
-264.722992
70
192
0
VERTEX
8
OBJECT__25
10
105.851997
20
35.535000
30
-266.446014
70
192
0
VERTEX
8
OBJECT__25
10
109.515999
20
41.044998
30
-279.269989
70
192
0
VERTEX
8
OBJECT__25
10
103.431000
20
41.549000
30
-274.363007
70
192
0
VERTEX
8
OBJECT__25
10
108.456001
20
53.400002
30
-282.739014
70
192
0
VERTEX
8
OBJECT__25
10
108.919998
20
53.400002
30
-294.147003
70
192
0
VERTEX
8
OBJECT__25
10
110.480003
20
71.580002
30
-289.042999
70
192
0
VERTEX
8
OBJECT__25
10
114.667000
20
83.987999
30
-275.348999
70
192
0
VERTEX
8
OBJECT__25
10
120.150002
20
86.683998
30
-257.414001
70
192
0
VERTEX
8
OBJECT__25
10
125.189003
20
78.813004
30
-240.932007
70
192
0
VERTEX
8
OBJECT__25
10
128.184006
20
62.874001
30
-231.136002
70
192
0
VERTEX
8
OBJECT__25
10
128.184006
20
43.925999
30
-231.136002
70
192
0
VERTEX
8
OBJECT__25
10
125.189003
20
27.987000
30
-240.932007
70
192
0
VERTEX
8
OBJECT__25
10
120.150002
20
20.115999
30
-257.414001
70
192
0
VERTEX
8
OBJECT__25
10
114.667000
20
22.812000
30
-275.348999
70
192
0
VERTEX
8
OBJECT__25
10
110.480003
20
35.220001
30
-289.042999
70
192
0
VERTEX
8
OBJECT__25
10
104.823997
20
59.776001
30
-305.615997
70
192
0
VERTEX
8
OBJECT__25
10
106.487999
20
79.168999
30
-300.170013
70
192
0
VERTEX
8
OBJECT__25
10
104.276001
20
53.400002
30
-307.406006
70
192
0
VERTEX
8
OBJECT__25
10
107.957001
20
83.521004
30
-295.368011
70
192
0
VERTEX
8
OBJECT__25
10
112.422997
20
96.755997
30
-280.760010
70
192
0
VERTEX
8
OBJECT__25
10
114.346001
20
98.186996
30
-274.470001
70
192
0
VERTEX
8
OBJECT__25
10
118.211998
20
101.064003
30
-261.825012
70
192
0
VERTEX
8
OBJECT__25
10
121.961998
20
97.818001
30
-249.557999
70
192
0
VERTEX
8
OBJECT__25
10
127.336998
20
89.421997
30
-231.975998
70
192
0
VERTEX
8
OBJECT__25
10
120.195000
20
100.578003
30
-255.337997
70
192
0
VERTEX
8
OBJECT__25
10
128.388000
20
83.831001
30
-228.539993
70
192
0
VERTEX
8
OBJECT__25
10
131.582993
20
66.828003
30
-218.091003
70
192
0
VERTEX
8
OBJECT__25
10
131.582993
20
60.182999
30
-218.091003
70
192
0
VERTEX
8
OBJECT__25
10
131.582993
20
39.972000
30
-218.091003
70
192
0
VERTEX
8
OBJECT__25
10
130.531998
20
34.381001
30
-221.526001
70
192
0
VERTEX
8
OBJECT__25
10
127.336998
20
17.378000
30
-231.975998
70
192
0
VERTEX
8
OBJECT__25
10
125.570000
20
14.618000
30
-237.757004
70
192
0
VERTEX
8
OBJECT__25
10
120.195000
20
6.222000
30
-255.337997
70
192
0
VERTEX
8
OBJECT__25
10
118.272003
20
7.167000
30
-261.628998
70
192
0
VERTEX
8
OBJECT__25
10
112.422997
20
10.044000
30
-280.760010
70
192
0
VERTEX
8
OBJECT__25
10
110.954002
20
14.395000
30
-285.562988
70
192
0
VERTEX
8
OBJECT__25
10
106.487999
20
27.631001
30
-300.170013
70
192
0
VERTEX
8
OBJECT__25
10
105.941002
20
34.007000
30
-301.960999
70
192
0
VERTEX
8
OBJECT__25
10
0
20
0
30
0
70
128
71
1
72
2
73
3
0
VERTEX
8
OBJECT__25
10
0
20
0
30
0
70
128
71
4
72
5
73
6
0
VERTEX
8
OBJECT__25
10
0
20
0
30
0
70
128
71
6
72
1
73
4
0
VERTEX
8
OBJECT__25
10
0
20
0
30
0
70
128
71
4
72
7
73
8
0
VERTEX
8
OBJECT__25
10
0
20
0
30
0
70
128
71
7
72
9
73
8
0
VERTEX
8
OBJECT__25
10
0
20
0
30
0
70
128
71
8
72
10
73
4
0
VERTEX
8
OBJECT__25
10
0
20
0
30
0
70
128
71
11
72
12
73
13
0
VERTEX
8
OBJECT__25
10
0
20
0
30
0
70
128
71
13
72
7
73
11
0
VERTEX
8
OBJECT__25
10
0
20
0
30
0
70
128
71
14
72
15
73
16
0
VERTEX
8
OBJECT__25
10
0
20
0
30
0
70
128
71
16
72
11
73
14
0
VERTEX
8
OBJECT__25
10
0
20
0
30
0
70
128
71
14
72
17
73
18
0
VERTEX
8
OBJECT__25
10
0
20
0
30
0
70
128
71
17
72
19
73
18
0
VERTEX
8
OBJECT__25
10
0
20
0
30
0
70
128
71
17
72
20
73
21
0
VERTEX
8
OBJECT__25
10
0
20
0
30
0
70
128
71
20
72
22
73
21
0
VERTEX
8
OBJECT__25
10
0
20
0
30
0
70
128
71
20
72
23
73
24
0
VERTEX
8
OBJECT__25
10
0
20
0
30
0
70
128
71
23
72
25
73
24
0
VERTEX
8
OBJECT__25
10
0
20
0
30
0
70
128
71
23
72
26
73
27
0
VERTEX
8
OBJECT__25
10
0
20
0
30
0
70
128
71
26
72
28
73
27
0
VERTEX
8
OBJECT__25
10
0
20
0
30
0
70
128
71
26
72
29
73
30
0
VERTEX
8
OBJECT__25
10
0
20
0
30
0
70
128
71
29
72
31
73
3
0
VERTEX
8
OBJECT__25
10
0
20
0
30
0
70
128
71
32
72
33
73
1
0
VERTEX
8
OBJECT__25
10
0
20
0
30
0
70
128
71
33
72
34
73
4
0
VERTEX
8
OBJECT__25
10
0
20
0
30
0
70
128
71
34
72
35
73
7
0
VERTEX
8
OBJECT__25
10
0
20
0
30
0
70
128
71
35
72
36
73
11
0
VERTEX
8
OBJECT__25
10
0
20
0
30
0
70
128
71
36
72
37
73
14
0
VERTEX
8
OBJECT__25
10
0
20
0
30
0
70
128
71
37
72
38
73
17
0
VERTEX
8
OBJECT__25
10
0
20
0
30
0
70
128
71
38
72
39
73
20
0
VERTEX
8
OBJECT__25
10
0
20
0
30
0
70
128
71
39
72
40
73
23
0
VERTEX
8
OBJECT__25
10
0
20
0
30
0
70
128
71
40
72
41
73
26
0
VERTEX
8
OBJECT__25
10
0
20
0
30
0
70
128
71
41
72
42
73
29
0
VERTEX
8
OBJECT__25
10
0
20
0
30
0
70
128
71
42
72
32
73
31
0
VERTEX
8
OBJECT__25
10
0
20
0
30
0
70
128
71
43
72
44
73
33
0
VERTEX
8
OBJECT__25
10
0
20
0
30
0
70
128
71
32
72
45
73
43
0
VERTEX
8
OBJECT__25
10
0
20
0
30
0
70
128
71
46
72
47
73
34
0
VERTEX
8
OBJECT__25
10
0
20
0
30
0
70
128
71
33
72
44
73
46
0
VERTEX
8
OBJECT__25
10
0
20
0
30
0
70
128
71
35
72
34
73
48
0
VERTEX
8
OBJECT__25
10
0
20
0
30
0
70
128
71
48
72
49
73
35
0
VERTEX
8
OBJECT__25
10
0
20
0
30
0
70
128
71
34
72
47
73
48
0
VERTEX
8
OBJECT__25
10
0
20
0
30
0
70
128
71
50
72
51
73
36
0
VERTEX
8
OBJECT__25
10
0
20
0
30
0
70
128
71
35
72
52
73
50
0
VERTEX
8
OBJECT__25
10
0
20
0
30
0
70
128
71
53
72
54
73
37
0
VERTEX
8
OBJECT__25
10
0
20
0
30
0
70
128
71
36
72
51
73
53
0
VERTEX
8
OBJECT__25
10
0
20
0
30
0
70
128
71
55
72
56
73
38
0
VERTEX
8
OBJECT__25
10
0
20
0
30
0
70
128
71
37
72
54
73
55
0
VERTEX
8
OBJECT__25
10
0
20
0
30
0
70
128
71
57
72
58
73
39
0
VERTEX
8
OBJECT__25
10
0
20
0
30
0
70
128
71
38
72
56
73
57
0
VERTEX
8
OBJECT__25
10
0
20
0
30
0
70
128
71
59
72
60
73
40
0
VERTEX
8
OBJECT__25
10
0
20
0
30
0
70
128
71
39
72
58
73
59
0
VERTEX
8
OBJECT__25
10
0
20
0
30
0
70
128
71
61
72
62
73
41
0
VERTEX
8
OBJECT__25
10
0
20
0
30
0
70
128
71
40
72
60
73
61
0
VERTEX
8
OBJECT__25
10
0
20
0
30
0
70
128
71
63
72
64
73
42
0
VERTEX
8
OBJECT__25
10
0
20
0
30
0
70
128
71
41
72
62
73
63
0
VERTEX
8
OBJECT__25
10
0
20
0
30
0
70
128
71
65
72
45
73
32
0
VERTEX
8
OBJECT__25
10
0
20
0
30
0
70
128
71
42
72
64
73
65
0
VERTEX
8
OBJECT__25
10
0
20
0
30
0
70
128
71
32
72
42
73
65
0
VERTEX
8
OBJECT__25
10
0
20
0
30
0
70
128
71
42
72
41
73
63
0
VERTEX
8
OBJECT__25
10
0
20
0
30
0
70
128
71
41
72
40
73
61
0
VERTEX
8
OBJECT__25
10
0
20
0
30
0
70
128
71
40
72
39
73
59
0
VERTEX
8
OBJECT__25
10
0
20
0
30
0
70
128
71
39
72
38
73
57
0
VERTEX
8
OBJECT__25
10
0
20
0
30
0
70
128
71
38
72
37
73
55
0
VERTEX
8
OBJECT__25
10
0
20
0
30
0
70
128
71
37
72
36
73
53
0
VERTEX
8
OBJECT__25
10
0
20
0
30
0
70
128
71
36
72
35
73
50
0
VERTEX
8
OBJECT__25
10
0
20
0
30
0
70
128
71
49
72
52
73
35
0
VERTEX
8
OBJECT__25
10
0
20
0
30
0
70
128
71
34
72
33
73
46
0
VERTEX
8
OBJECT__25
10
0
20
0
30
0
70
128
71
33
72
32
73
43
0
VERTEX
8
OBJECT__25
10
0
20
0
30
0
70
128
71
31
72
29
73
42
0
VERTEX
8
OBJECT__25
10
0
20
0
30
0
70
128
71
29
72
26
73
41
0
VERTEX
8
OBJECT__25
10
0
20
0
30
0
70
128
71
26
72
23
73
40
0
VERTEX
8
OBJECT__25
10
0
20
0
30
0
70
128
71
23
72
20
73
39
0
VERTEX
8
OBJECT__25
10
0
20
0
30
0
70
128
71
20
72
17
73
38
0
VERTEX
8
OBJECT__25
10
0
20
0
30
0
70
128
71
17
72
14
73
37
0
VERTEX
8
OBJECT__25
10
0
20
0
30
0
70
128
71
14
72
11
73
36
0
VERTEX
8
OBJECT__25
10
0
20
0
30
0
70
128
71
11
72
7
73
35
0
VERTEX
8
OBJECT__25
10
0
20
0
30
0
70
128
71
7
72
4
73
34
0
VERTEX
8
OBJECT__25
10
0
20
0
30
0
70
128
71
4
72
1
73
33
0
VERTEX
8
OBJECT__25
10
0
20
0
30
0
70
128
71
1
72
31
73
32
0
VERTEX
8
OBJECT__25
10
0
20
0
30
0
70
128
71
3
72
30
73
29
0
VERTEX
8
OBJECT__25
10
0
20
0
30
0
70
128
71
30
72
28
73
26
0
VERTEX
8
OBJECT__25
10
0
20
0
30
0
70
128
71
27
72
25
73
23
0
VERTEX
8
OBJECT__25
10
0
20
0
30
0
70
128
71
24
72
22
73
20
0
VERTEX
8
OBJECT__25
10
0
20
0
30
0
70
128
71
21
72
19
73
17
0
VERTEX
8
OBJECT__25
10
0
20
0
30
0
70
128
71
18
72
15
73
14
0
VERTEX
8
OBJECT__25
10
0
20
0
30
0
70
128
71
16
72
12
73
11
0
VERTEX
8
OBJECT__25
10
0
20
0
30
0
70
128
71
13
72
9
73
7
0
VERTEX
8
OBJECT__25
10
0
20
0
30
0
70
128
71
10
72
5
73
4
0
VERTEX
8
OBJECT__25
10
0
20
0
30
0
70
128
71
6
72
2
73
1
0
VERTEX
8
OBJECT__25
10
0
20
0
30
0
70
128
71
3
72
31
73
1
0
SEQEND
8
OBJECT__25
0
POLYLINE
8
OBJECT__26
66
1
70
64
71
41
72
41
62
253
0
VERTEX
8
OBJECT__26
10
130.748001
20
33.540001
30
-220.184006
70
192
0
VERTEX
8
OBJECT__26
10
125.570000
20
14.618000
30
-237.757004
70
192
0
VERTEX
8
OBJECT__26
10
127.336998
20
17.378000
30
-231.975998
70
192
0
VERTEX
8
OBJECT__26
10
125.589996
20
13.182000
30
-237.054001
70
192
0
VERTEX
8
OBJECT__26
10
127.802002
20
19.784000
30
-229.802994
70
192
0
VERTEX
8
OBJECT__26
10
105.319000
20
33.540001
30
-303.356995
70
192
0
VERTEX
8
OBJECT__26
10
104.823997
20
59.776001
30
-305.615997
70
192
0
VERTEX
8
OBJECT__26
10
104.276001
20
53.400002
30
-307.406006
70
192
0
VERTEX
8
OBJECT__26
10
104.197998
20
60.203999
30
-307.023010
70
192
0
VERTEX
8
OBJECT__26
10
104.168999
20
53.611000
30
-307.105011
70
192
0
VERTEX
8
OBJECT__26
10
128.388000
20
83.831001
30
-228.539993
70
192
0
VERTEX
8
OBJECT__26
10
121.961998
20
97.818001
30
-249.557999
70
192
0
VERTEX
8
OBJECT__26
10
121.971001
20
99.269997
30
-248.889999
70
192
0
VERTEX
8
OBJECT__26
10
127.336998
20
89.421997
30
-231.975998
70
192
0
VERTEX
8
OBJECT__26
10
118.032997
20
5.593000
30
-261.770996
70
192
0
VERTEX
8
OBJECT__26
10
120.195000
20
6.222000
30
-255.337997
70
192
0
VERTEX
8
OBJECT__26
10
118.272003
20
7.167000
30
-261.628998
70
192
0
VERTEX
8
OBJECT__26
10
131.889008
20
53.611000
30
-216.434006
70
192
0
VERTEX
8
OBJECT__26
10
131.582993
20
39.972000
30
-218.091003
70
192
0
VERTEX
8
OBJECT__26
10
131.582993
20
60.182999
30
-218.091003
70
192
0
VERTEX
8
OBJECT__26
10
130.531998
20
34.381001
30
-221.526001
70
192
0
VERTEX
8
OBJECT__26
10
131.867996
20
60.203999
30
-216.518005
70
192
0
VERTEX
8
OBJECT__26
10
128.597000
20
84.707001
30
-227.218994
70
192
0
VERTEX
8
OBJECT__26
10
131.582993
20
66.828003
30
-218.091003
70
192
0
VERTEX
8
OBJECT__26
10
127.867996
20
86.793999
30
-229.589996
70
192
0
VERTEX
8
OBJECT__26
10
114.095001
20
99.269997
30
-274.651001
70
192
0
VERTEX
8
OBJECT__26
10
118.032997
20
101.207001
30
-261.770996
70
192
0
VERTEX
8
OBJECT__26
10
118.211998
20
101.064003
30
-261.825012
70
192
0
VERTEX
8
OBJECT__26
10
120.195000
20
100.578003
30
-255.337997
70
192
0
VERTEX
8
OBJECT__26
10
108.192001
20
86.793999
30
-293.949005
70
192
0
VERTEX
8
OBJECT__26
10
112.422997
20
96.755997
30
-280.760010
70
192
0
VERTEX
8
OBJECT__26
10
107.957001
20
83.521004
30
-295.368011
70
192
0
VERTEX
8
OBJECT__26
10
114.346001
20
98.186996
30
-274.470001
70
192
0
VERTEX
8
OBJECT__26
10
107.470001
20
84.707001
30
-296.321991
70
192
0
VERTEX
8
OBJECT__26
10
106.487999
20
79.168999
30
-300.170013
70
192
0
VERTEX
8
OBJECT__26
10
108.255997
20
19.784000
30
-293.735992
70
192
0
VERTEX
8
OBJECT__26
10
106.487999
20
27.631001
30
-300.170013
70
192
0
VERTEX
8
OBJECT__26
10
110.954002
20
14.395000
30
-285.562988
70
192
0
VERTEX
8
OBJECT__26
10
105.941002
20
34.007000
30
-301.960999
70
192
0
VERTEX
8
OBJECT__26
10
110.475998
20
13.182000
30
-286.488007
70
192
0
VERTEX
8
OBJECT__26
10
112.422997
20
10.044000
30
-280.760010
70
192
0
VERTEX
8
OBJECT__26
10
0
20
0
30
0
70
128
71
1
72
2
73
3
0
VERTEX
8
OBJECT__26
10
0
20
0
30
0
70
128
71
1
72
4
73
2
0
VERTEX
8
OBJECT__26
10
0
20
0
30
0
70
128
71
1
72
5
73
4
0
VERTEX
8
OBJECT__26
10
0
20
0
30
0
70
128
71
6
72
7
73
8
0
VERTEX
8
OBJECT__26
10
0
20
0
30
0
70
128
71
6
72
9
73
7
0
VERTEX
8
OBJECT__26
10
0
20
0
30
0
70
128
71
6
72
10
73
9
0
VERTEX
8
OBJECT__26
10
0
20
0
30
0
70
128
71
11
72
12
73
13
0
VERTEX
8
OBJECT__26
10
0
20
0
30
0
70
128
71
11
72
14
73
12
0
VERTEX
8
OBJECT__26
10
0
20
0
30
0
70
128
71
4
72
15
73
16
0
VERTEX
8
OBJECT__26
10
0
20
0
30
0
70
128
71
16
72
2
73
4
0
VERTEX
8
OBJECT__26
10
0
20
0
30
0
70
128
71
15
72
17
73
16
0
VERTEX
8
OBJECT__26
10
0
20
0
30
0
70
128
71
18
72
1
73
19
0
VERTEX
8
OBJECT__26
10
0
20
0
30
0
70
128
71
19
72
20
73
18
0
VERTEX
8
OBJECT__26
10
0
20
0
30
0
70
128
71
1
72
21
73
19
0
VERTEX
8
OBJECT__26
10
0
20
0
30
0
70
128
71
20
72
22
73
18
0
VERTEX
8
OBJECT__26
10
0
20
0
30
0
70
128
71
23
72
22
73
24
0
VERTEX
8
OBJECT__26
10
0
20
0
30
0
70
128
71
24
72
11
73
23
0
VERTEX
8
OBJECT__26
10
0
20
0
30
0
70
128
71
22
72
20
73
24
0
VERTEX
8
OBJECT__26
10
0
20
0
30
0
70
128
71
13
72
25
73
11
0
VERTEX
8
OBJECT__26
10
0
20
0
30
0
70
128
71
26
72
27
73
28
0
VERTEX
8
OBJECT__26
10
0
20
0
30
0
70
128
71
13
72
12
73
29
0
VERTEX
8
OBJECT__26
10
0
20
0
30
0
70
128
71
29
72
27
73
13
0
VERTEX
8
OBJECT__26
10
0
20
0
30
0
70
128
71
29
72
28
73
27
0
VERTEX
8
OBJECT__26
10
0
20
0
30
0
70
128
71
30
72
26
73
31
0
VERTEX
8
OBJECT__26
10
0
20
0
30
0
70
128
71
31
72
32
73
30
0
VERTEX
8
OBJECT__26
10
0
20
0
30
0
70
128
71
26
72
33
73
31
0
VERTEX
8
OBJECT__26
10
0
20
0
30
0
70
128
71
9
72
34
73
35
0
VERTEX
8
OBJECT__26
10
0
20
0
30
0
70
128
71
35
72
7
73
9
0
VERTEX
8
OBJECT__26
10
0
20
0
30
0
70
128
71
34
72
32
73
35
0
VERTEX
8
OBJECT__26
10
0
20
0
30
0
70
128
71
36
72
6
73
37
0
VERTEX
8
OBJECT__26
10
0
20
0
30
0
70
128
71
37
72
38
73
36
0
VERTEX
8
OBJECT__26
10
0
20
0
30
0
70
128
71
6
72
39
73
37
0
VERTEX
8
OBJECT__26
10
0
20
0
30
0
70
128
71
38
72
40
73
36
0
VERTEX
8
OBJECT__26
10
0
20
0
30
0
70
128
71
15
72
40
73
41
0
VERTEX
8
OBJECT__26
10
0
20
0
30
0
70
128
71
41
72
17
73
15
0
VERTEX
8
OBJECT__26
10
0
20
0
30
0
70
128
71
40
72
38
73
41
0
VERTEX
8
OBJECT__26
10
0
20
0
30
0
70
128
71
8
72
39
73
6
0
VERTEX
8
OBJECT__26
10
0
20
0
30
0
70
128
71
32
72
34
73
30
0
VERTEX
8
OBJECT__26
10
0
20
0
30
0
70
128
71
28
72
33
73
26
0
VERTEX
8
OBJECT__26
10
0
20
0
30
0
70
128
71
25
72
23
73
11
0
VERTEX
8
OBJECT__26
10
0
20
0
30
0
70
128
71
3
72
21
73
1
0
SEQEND
8
OBJECT__26
0
POLYLINE
8
OBJECT__27
66
1
70
64
71
34
72
34
62
253
0
VERTEX
8
OBJECT__27
10
126.209000
20
20.721001
30
-230.098999
70
192
0
VERTEX
8
OBJECT__27
10
123.649002
20
11.965000
30
-238.472000
70
192
0
VERTEX
8
OBJECT__27
10
125.589996
20
13.182000
30
-237.054001
70
192
0
VERTEX
8
OBJECT__27
10
118.032997
20
5.593000
30
-261.770996
70
192
0
VERTEX
8
OBJECT__27
10
116.654999
20
5.555000
30
-261.348999
70
192
0
VERTEX
8
OBJECT__27
10
130.643997
20
53.400002
30
-215.595001
70
192
0
VERTEX
8
OBJECT__27
10
128.768997
20
29.478001
30
-221.725006
70
192
0
VERTEX
8
OBJECT__27
10
130.748001
20
33.540001
30
-220.184006
70
192
0
VERTEX
8
OBJECT__27
10
127.515999
20
20.784000
30
-230.755005
70
192
0
VERTEX
8
OBJECT__27
10
131.867996
20
60.203999
30
-216.518005
70
192
0
VERTEX
8
OBJECT__27
10
128.597000
20
84.707001
30
-227.218994
70
192
0
VERTEX
8
OBJECT__27
10
128.768997
20
77.321999
30
-221.725006
70
192
0
VERTEX
8
OBJECT__27
10
126.209000
20
86.079002
30
-230.098999
70
192
0
VERTEX
8
OBJECT__27
10
131.591003
20
53.605999
30
-217.425003
70
192
0
VERTEX
8
OBJECT__27
10
116.654999
20
101.245003
30
-261.348999
70
192
0
VERTEX
8
OBJECT__27
10
123.649002
20
94.834999
30
-238.472000
70
192
0
VERTEX
8
OBJECT__27
10
121.971001
20
99.269997
30
-248.889999
70
192
0
VERTEX
8
OBJECT__27
10
127.782997
20
86.495003
30
-229.880005
70
192
0
VERTEX
8
OBJECT__27
10
108.282997
20
86.495003
30
-293.661987
70
192
0
VERTEX
8
OBJECT__27
10
107.100998
20
86.079002
30
-292.600006
70
192
0
VERTEX
8
OBJECT__27
10
109.661003
20
94.834999
30
-284.226013
70
192
0
VERTEX
8
OBJECT__27
10
118.032997
20
101.207001
30
-261.770996
70
192
0
VERTEX
8
OBJECT__27
10
114.095001
20
99.269997
30
-274.651001
70
192
0
VERTEX
8
OBJECT__27
10
104.197998
20
60.203999
30
-307.023010
70
192
0
VERTEX
8
OBJECT__27
10
102.667000
20
53.400002
30
-307.102997
70
192
0
VERTEX
8
OBJECT__27
10
104.541000
20
77.321999
30
-300.973999
70
192
0
VERTEX
8
OBJECT__27
10
107.470001
20
84.707001
30
-296.321991
70
192
0
VERTEX
8
OBJECT__27
10
108.551003
20
20.784000
30
-292.786987
70
192
0
VERTEX
8
OBJECT__27
10
107.100998
20
20.721001
30
-292.600006
70
192
0
VERTEX
8
OBJECT__27
10
104.541000
20
29.478001
30
-300.973999
70
192
0
VERTEX
8
OBJECT__27
10
104.474998
20
53.605999
30
-306.115997
70
192
0
VERTEX
8
OBJECT__27
10
105.319000
20
33.540001
30
-303.356995
70
192
0
VERTEX
8
OBJECT__27
10
109.661003
20
11.965000
30
-284.226013
70
192
0
VERTEX
8
OBJECT__27
10
110.475998
20
13.182000
30
-286.488007
70
192
0
VERTEX
8
OBJECT__27
10
0
20
0
30
0
70
128
71
1
72
2
73
3
0
VERTEX
8
OBJECT__27
10
0
20
0
30
0
70
128
71
4
72
3
73
2
0
VERTEX
8
OBJECT__27
10
0
20
0
30
0
70
128
71
2
72
5
73
4
0
VERTEX
8
OBJECT__27
10
0
20
0
30
0
70
128
71
6
72
7
73
8
0
VERTEX
8
OBJECT__27
10
0
20
0
30
0
70
128
71
9
72
8
73
7
0
VERTEX
8
OBJECT__27
10
0
20
0
30
0
70
128
71
7
72
1
73
9
0
VERTEX
8
OBJECT__27
10
0
20
0
30
0
70
128
71
10
72
11
73
12
0
VERTEX
8
OBJECT__27
10
0
20
0
30
0
70
128
71
12
72
6
73
10
0
VERTEX
8
OBJECT__27
10
0
20
0
30
0
70
128
71
11
72
13
73
12
0
VERTEX
8
OBJECT__27
10
0
20
0
30
0
70
128
71
6
72
14
73
10
0
VERTEX
8
OBJECT__27
10
0
20
0
30
0
70
128
71
15
72
16
73
17
0
VERTEX
8
OBJECT__27
10
0
20
0
30
0
70
128
71
18
72
17
73
16
0
VERTEX
8
OBJECT__27
10
0
20
0
30
0
70
128
71
16
72
13
73
18
0
VERTEX
8
OBJECT__27
10
0
20
0
30
0
70
128
71
19
72
20
73
21
0
VERTEX
8
OBJECT__27
10
0
20
0
30
0
70
128
71
15
72
22
73
23
0
VERTEX
8
OBJECT__27
10
0
20
0
30
0
70
128
71
23
72
21
73
15
0
VERTEX
8
OBJECT__27
10
0
20
0
30
0
70
128
71
24
72
25
73
26
0
VERTEX
8
OBJECT__27
10
0
20
0
30
0
70
128
71
26
72
27
73
24
0
VERTEX
8
OBJECT__27
10
0
20
0
30
0
70
128
71
26
72
20
73
27
0
VERTEX
8
OBJECT__27
10
0
20
0
30
0
70
128
71
20
72
19
73
27
0
VERTEX
8
OBJECT__27
10
0
20
0
30
0
70
128
71
28
72
29
73
30
0
VERTEX
8
OBJECT__27
10
0
20
0
30
0
70
128
71
25
72
31
73
32
0
VERTEX
8
OBJECT__27
10
0
20
0
30
0
70
128
71
32
72
30
73
25
0
VERTEX
8
OBJECT__27
10
0
20
0
30
0
70
128
71
4
72
5
73
33
0
VERTEX
8
OBJECT__27
10
0
20
0
30
0
70
128
71
29
72
28
73
34
0
VERTEX
8
OBJECT__27
10
0
20
0
30
0
70
128
71
34
72
33
73
29
0
VERTEX
8
OBJECT__27
10
0
20
0
30
0
70
128
71
33
72
34
73
4
0
VERTEX
8
OBJECT__27
10
0
20
0
30
0
70
128
71
30
72
32
73
28
0
VERTEX
8
OBJECT__27
10
0
20
0
30
0
70
128
71
24
72
31
73
25
0
VERTEX
8
OBJECT__27
10
0
20
0
30
0
70
128
71
21
72
23
73
19
0
VERTEX
8
OBJECT__27
10
0
20
0
30
0
70
128
71
17
72
22
73
15
0
VERTEX
8
OBJECT__27
10
0
20
0
30
0
70
128
71
11
72
18
73
13
0
VERTEX
8
OBJECT__27
10
0
20
0
30
0
70
128
71
8
72
14
73
6
0
VERTEX
8
OBJECT__27
10
0
20
0
30
0
70
128
71
3
72
9
73
1
0
SEQEND
8
OBJECT__27
0
POLYLINE
8
OBJECT__28
66
1
70
64
71
28
72
28
62
253
0
VERTEX
8
OBJECT__28
10
123.416000
20
95.005997
30
-238.298004
70
192
0
VERTEX
8
OBJECT__28
10
123.649002
20
94.834999
30
-238.472000
70
192
0
VERTEX
8
OBJECT__28
10
116.654999
20
101.245003
30
-261.348999
70
192
0
VERTEX
8
OBJECT__28
10
128.557007
20
77.420998
30
-221.481995
70
192
0
VERTEX
8
OBJECT__28
10
126.209000
20
86.079002
30
-230.098999
70
192
0
VERTEX
8
OBJECT__28
10
128.768997
20
77.321999
30
-221.725006
70
192
0
VERTEX
8
OBJECT__28
10
130.438995
20
53.400002
30
-215.326996
70
192
0
VERTEX
8
OBJECT__28
10
130.643997
20
53.400002
30
-215.595001
70
192
0
VERTEX
8
OBJECT__28
10
128.557007
20
29.379000
30
-221.481995
70
192
0
VERTEX
8
OBJECT__28
10
128.768997
20
29.478001
30
-221.725006
70
192
0
VERTEX
8
OBJECT__28
10
123.416000
20
11.794000
30
-238.298004
70
192
0
VERTEX
8
OBJECT__28
10
126.209000
20
20.721001
30
-230.098999
70
192
0
VERTEX
8
OBJECT__28
10
123.649002
20
11.965000
30
-238.472000
70
192
0
VERTEX
8
OBJECT__28
10
116.392998
20
5.358000
30
-261.269012
70
192
0
VERTEX
8
OBJECT__28
10
116.654999
20
5.555000
30
-261.348999
70
192
0
VERTEX
8
OBJECT__28
10
109.370003
20
11.794000
30
-284.240997
70
192
0
VERTEX
8
OBJECT__28
10
109.661003
20
11.965000
30
-284.226013
70
192
0
VERTEX
8
OBJECT__28
10
104.228996
20
29.379000
30
-301.057007
70
192
0
VERTEX
8
OBJECT__28
10
107.100998
20
20.721001
30
-292.600006
70
192
0
VERTEX
8
OBJECT__28
10
104.541000
20
29.478001
30
-300.973999
70
192
0
VERTEX
8
OBJECT__28
10
102.347000
20
53.400002
30
-307.212006
70
192
0
VERTEX
8
OBJECT__28
10
102.667000
20
53.400002
30
-307.102997
70
192
0
VERTEX
8
OBJECT__28
10
104.228996
20
77.420998
30
-301.057007
70
192
0
VERTEX
8
OBJECT__28
10
104.541000
20
77.321999
30
-300.973999
70
192
0
VERTEX
8
OBJECT__28
10
109.370003
20
95.005997
30
-284.240997
70
192
0
VERTEX
8
OBJECT__28
10
109.661003
20
94.834999
30
-284.226013
70
192
0
VERTEX
8
OBJECT__28
10
107.100998
20
86.079002
30
-292.600006
70
192
0
VERTEX
8
OBJECT__28
10
116.392998
20
101.442001
30
-261.269012
70
192
0
VERTEX
8
OBJECT__28
10
0
20
0
30
0
70
128
71
1
72
2
73
3
0
VERTEX
8
OBJECT__28
10
0
20
0
30
0
70
128
71
1
72
4
73
5
0
VERTEX
8
OBJECT__28
10
0
20
0
30
0
70
128
71
4
72
6
73
5
0
VERTEX
8
OBJECT__28
10
0
20
0
30
0
70
128
71
7
72
8
73
6
0
VERTEX
8
OBJECT__28
10
0
20
0
30
0
70
128
71
9
72
10
73
8
0
VERTEX
8
OBJECT__28
10
0
20
0
30
0
70
128
71
9
72
11
73
12
0
VERTEX
8
OBJECT__28
10
0
20
0
30
0
70
128
71
11
72
13
73
12
0
VERTEX
8
OBJECT__28
10
0
20
0
30
0
70
128
71
14
72
15
73
13
0
VERTEX
8
OBJECT__28
10
0
20
0
30
0
70
128
71
16
72
17
73
15
0
VERTEX
8
OBJECT__28
10
0
20
0
30
0
70
128
71
16
72
18
73
19
0
VERTEX
8
OBJECT__28
10
0
20
0
30
0
70
128
71
18
72
20
73
19
0
VERTEX
8
OBJECT__28
10
0
20
0
30
0
70
128
71
21
72
22
73
20
0
VERTEX
8
OBJECT__28
10
0
20
0
30
0
70
128
71
23
72
24
73
22
0
VERTEX
8
OBJECT__28
10
0
20
0
30
0
70
128
71
25
72
26
73
27
0
VERTEX
8
OBJECT__28
10
0
20
0
30
0
70
128
71
27
72
23
73
25
0
VERTEX
8
OBJECT__28
10
0
20
0
30
0
70
128
71
25
72
28
73
3
0
VERTEX
8
OBJECT__28
10
0
20
0
30
0
70
128
71
3
72
26
73
25
0
VERTEX
8
OBJECT__28
10
0
20
0
30
0
70
128
71
27
72
24
73
23
0
VERTEX
8
OBJECT__28
10
0
20
0
30
0
70
128
71
22
72
21
73
23
0
VERTEX
8
OBJECT__28
10
0
20
0
30
0
70
128
71
20
72
18
73
21
0
VERTEX
8
OBJECT__28
10
0
20
0
30
0
70
128
71
19
72
17
73
16
0
VERTEX
8
OBJECT__28
10
0
20
0
30
0
70
128
71
15
72
14
73
16
0
VERTEX
8
OBJECT__28
10
0
20
0
30
0
70
128
71
13
72
11
73
14
0
VERTEX
8
OBJECT__28
10
0
20
0
30
0
70
128
71
12
72
10
73
9
0
VERTEX
8
OBJECT__28
10
0
20
0
30
0
70
128
71
8
72
7
73
9
0
VERTEX
8
OBJECT__28
10
0
20
0
30
0
70
128
71
6
72
4
73
7
0
VERTEX
8
OBJECT__28
10
0
20
0
30
0
70
128
71
5
72
2
73
1
0
VERTEX
8
OBJECT__28
10
0
20
0
30
0
70
128
71
3
72
28
73
1
0
SEQEND
8
OBJECT__28
0
POLYLINE
8
OBJECT__29
66
1
70
64
71
27
72
27
62
253
0
VERTEX
8
OBJECT__29
10
113.844002
20
1.874000
30
-260.489990
70
192
0
VERTEX
8
OBJECT__29
10
116.522003
20
1.874000
30
-261.308990
70
192
0
VERTEX
8
OBJECT__29
10
124.054001
20
8.777000
30
-236.671005
70
192
0
VERTEX
8
OBJECT__29
10
123.528000
20
13.929000
30
-228.817001
70
192
0
VERTEX
8
OBJECT__29
10
128.679993
20
44.452999
30
-211.964005
70
192
0
VERTEX
8
OBJECT__29
10
129.567993
20
27.636999
30
-218.636002
70
192
0
VERTEX
8
OBJECT__29
10
125.883003
20
15.032000
30
-230.690002
70
192
0
VERTEX
8
OBJECT__29
10
126.890999
20
79.163002
30
-217.817001
70
192
0
VERTEX
8
OBJECT__29
10
131.585999
20
53.400002
30
-212.033997
70
192
0
VERTEX
8
OBJECT__29
10
130.917007
20
44.855999
30
-214.223007
70
192
0
VERTEX
8
OBJECT__29
10
129.567993
20
79.163002
30
-218.636002
70
192
0
VERTEX
8
OBJECT__29
10
124.054001
20
98.023003
30
-236.671005
70
192
0
VERTEX
8
OBJECT__29
10
118.997002
20
101.819000
30
-243.636993
70
192
0
VERTEX
8
OBJECT__29
10
121.556000
20
100.311996
30
-244.841995
70
192
0
VERTEX
8
OBJECT__29
10
116.522003
20
104.926003
30
-261.308990
70
192
0
VERTEX
8
OBJECT__29
10
108.692001
20
101.819000
30
-277.342987
70
192
0
VERTEX
8
OBJECT__29
10
100.797997
20
79.163002
30
-303.162994
70
192
0
VERTEX
8
OBJECT__29
10
108.988998
20
98.023003
30
-285.946014
70
192
0
VERTEX
8
OBJECT__29
10
111.487000
20
100.311996
30
-277.774994
70
192
0
VERTEX
8
OBJECT__29
10
103.474998
20
79.163002
30
-303.981995
70
192
0
VERTEX
8
OBJECT__29
10
101.457001
20
53.400002
30
-310.583008
70
192
0
VERTEX
8
OBJECT__29
10
99.008003
20
44.452999
30
-309.015991
70
192
0
VERTEX
8
OBJECT__29
10
104.161003
20
13.929000
30
-292.162994
70
192
0
VERTEX
8
OBJECT__29
10
103.474998
20
27.636999
30
-303.981995
70
192
0
VERTEX
8
OBJECT__29
10
102.125999
20
44.855999
30
-308.394012
70
192
0
VERTEX
8
OBJECT__29
10
108.988998
20
8.777000
30
-285.946014
70
192
0
VERTEX
8
OBJECT__29
10
107.161003
20
15.032000
30
-291.927002
70
192
0
VERTEX
8
OBJECT__29
10
0
20
0
30
0
70
128
71
1
72
2
73
3
0
VERTEX
8
OBJECT__29
10
0
20
0
30
0
70
128
71
3
72
4
73
1
0
VERTEX
8
OBJECT__29
10
0
20
0
30
0
70
128
71
5
72
4
73
6
0
VERTEX
8
OBJECT__29
10
0
20
0
30
0
70
128
71
4
72
7
73
6
0
VERTEX
8
OBJECT__29
10
0
20
0
30
0
70
128
71
8
72
5
73
9
0
VERTEX
8
OBJECT__29
10
0
20
0
30
0
70
128
71
5
72
10
73
9
0
VERTEX
8
OBJECT__29
10
0
20
0
30
0
70
128
71
8
72
11
73
12
0
VERTEX
8
OBJECT__29
10
0
20
0
30
0
70
128
71
12
72
13
73
8
0
VERTEX
8
OBJECT__29
10
0
20
0
30
0
70
128
71
13
72
14
73
15
0
VERTEX
8
OBJECT__29
10
0
20
0
30
0
70
128
71
15
72
16
73
13
0
VERTEX
8
OBJECT__29
10
0
20
0
30
0
70
128
71
17
72
16
73
18
0
VERTEX
8
OBJECT__29
10
0
20
0
30
0
70
128
71
16
72
19
73
18
0
VERTEX
8
OBJECT__29
10
0
20
0
30
0
70
128
71
17
72
20
73
21
0
VERTEX
8
OBJECT__29
10
0
20
0
30
0
70
128
71
21
72
22
73
17
0
VERTEX
8
OBJECT__29
10
0
20
0
30
0
70
128
71
23
72
22
73
24
0
VERTEX
8
OBJECT__29
10
0
20
0
30
0
70
128
71
22
72
25
73
24
0
VERTEX
8
OBJECT__29
10
0
20
0
30
0
70
128
71
1
72
23
73
26
0
VERTEX
8
OBJECT__29
10
0
20
0
30
0
70
128
71
23
72
27
73
26
0
VERTEX
8
OBJECT__29
10
0
20
0
30
0
70
128
71
26
72
2
73
1
0
VERTEX
8
OBJECT__29
10
0
20
0
30
0
70
128
71
24
72
27
73
23
0
VERTEX
8
OBJECT__29
10
0
20
0
30
0
70
128
71
21
72
25
73
22
0
VERTEX
8
OBJECT__29
10
0
20
0
30
0
70
128
71
18
72
20
73
17
0
VERTEX
8
OBJECT__29
10
0
20
0
30
0
70
128
71
15
72
19
73
16
0
VERTEX
8
OBJECT__29
10
0
20
0
30
0
70
128
71
12
72
14
73
13
0
VERTEX
8
OBJECT__29
10
0
20
0
30
0
70
128
71
9
72
11
73
8
0
VERTEX
8
OBJECT__29
10
0
20
0
30
0
70
128
71
6
72
10
73
5
0
VERTEX
8
OBJECT__29
10
0
20
0
30
0
70
128
71
3
72
7
73
4
0
SEQEND
8
OBJECT__29
0
POLYLINE
8
OBJECT__30
66
1
70
64
71
30
72
30
62
253
0
VERTEX
8
OBJECT__30
10
116.522003
20
1.874000
30
-261.308990
70
192
0
VERTEX
8
OBJECT__30
10
116.693001
20
1.985000
30
-261.360992
70
192
0
VERTEX
8
OBJECT__30
10
124.209000
20
8.873000
30
-236.776993
70
192
0
VERTEX
8
OBJECT__30
10
129.710999
20
27.691999
30
-218.779999
70
192
0
VERTEX
8
OBJECT__30
10
129.567993
20
27.636999
30
-218.636002
70
192
0
VERTEX
8
OBJECT__30
10
125.883003
20
15.032000
30
-230.690002
70
192
0
VERTEX
8
OBJECT__30
10
131.725006
20
53.400002
30
-212.192001
70
192
0
VERTEX
8
OBJECT__30
10
130.917007
20
44.855999
30
-214.223007
70
192
0
VERTEX
8
OBJECT__30
10
131.585999
20
53.400002
30
-212.033997
70
192
0
VERTEX
8
OBJECT__30
10
129.567993
20
79.163002
30
-218.636002
70
192
0
VERTEX
8
OBJECT__30
10
124.054001
20
98.023003
30
-236.671005
70
192
0
VERTEX
8
OBJECT__30
10
129.710999
20
79.108002
30
-218.779999
70
192
0
VERTEX
8
OBJECT__30
10
116.693001
20
104.815002
30
-261.360992
70
192
0
VERTEX
8
OBJECT__30
10
116.522003
20
104.926003
30
-261.308990
70
192
0
VERTEX
8
OBJECT__30
10
121.556000
20
100.311996
30
-244.841995
70
192
0
VERTEX
8
OBJECT__30
10
124.209000
20
97.927002
30
-236.776993
70
192
0
VERTEX
8
OBJECT__30
10
109.177002
20
97.927002
30
-285.945007
70
192
0
VERTEX
8
OBJECT__30
10
111.487000
20
100.311996
30
-277.774994
70
192
0
VERTEX
8
OBJECT__30
10
108.988998
20
98.023003
30
-285.946014
70
192
0
VERTEX
8
OBJECT__30
10
103.474998
20
79.163002
30
-303.981995
70
192
0
VERTEX
8
OBJECT__30
10
101.457001
20
53.400002
30
-310.583008
70
192
0
VERTEX
8
OBJECT__30
10
103.675003
20
79.108002
30
-303.941986
70
192
0
VERTEX
8
OBJECT__30
10
103.675003
20
27.691999
30
-303.941986
70
192
0
VERTEX
8
OBJECT__30
10
103.474998
20
27.636999
30
-303.981995
70
192
0
VERTEX
8
OBJECT__30
10
102.125999
20
44.855999
30
-308.394012
70
192
0
VERTEX
8
OBJECT__30
10
101.661003
20
53.400002
30
-310.529999
70
192
0
VERTEX
8
OBJECT__30
10
109.177002
20
8.873000
30
-285.945007
70
192
0
VERTEX
8
OBJECT__30
10
107.161003
20
15.032000
30
-291.927002
70
192
0
VERTEX
8
OBJECT__30
10
108.988998
20
8.777000
30
-285.946014
70
192
0
VERTEX
8
OBJECT__30
10
124.054001
20
8.777000
30
-236.671005
70
192
0
VERTEX
8
OBJECT__30
10
0
20
0
30
0
70
128
71
1
72
2
73
3
0
VERTEX
8
OBJECT__30
10
0
20
0
30
0
70
128
71
4
72
5
73
6
0
VERTEX
8
OBJECT__30
10
0
20
0
30
0
70
128
71
6
72
3
73
4
0
VERTEX
8
OBJECT__30
10
0
20
0
30
0
70
128
71
4
72
7
73
8
0
VERTEX
8
OBJECT__30
10
0
20
0
30
0
70
128
71
7
72
9
73
8
0
VERTEX
8
OBJECT__30
10
0
20
0
30
0
70
128
71
10
72
9
73
7
0
VERTEX
8
OBJECT__30
10
0
20
0
30
0
70
128
71
11
72
10
73
12
0
VERTEX
8
OBJECT__30
10
0
20
0
30
0
70
128
71
13
72
14
73
15
0
VERTEX
8
OBJECT__30
10
0
20
0
30
0
70
128
71
15
72
16
73
13
0
VERTEX
8
OBJECT__30
10
0
20
0
30
0
70
128
71
13
72
17
73
18
0
VERTEX
8
OBJECT__30
10
0
20
0
30
0
70
128
71
17
72
19
73
18
0
VERTEX
8
OBJECT__30
10
0
20
0
30
0
70
128
71
20
72
19
73
17
0
VERTEX
8
OBJECT__30
10
0
20
0
30
0
70
128
71
21
72
20
73
22
0
VERTEX
8
OBJECT__30
10
0
20
0
30
0
70
128
71
23
72
24
73
25
0
VERTEX
8
OBJECT__30
10
0
20
0
30
0
70
128
71
25
72
26
73
23
0
VERTEX
8
OBJECT__30
10
0
20
0
30
0
70
128
71
23
72
27
73
28
0
VERTEX
8
OBJECT__30
10
0
20
0
30
0
70
128
71
27
72
29
73
28
0
VERTEX
8
OBJECT__30
10
0
20
0
30
0
70
128
71
29
72
27
73
2
0
VERTEX
8
OBJECT__30
10
0
20
0
30
0
70
128
71
2
72
1
73
29
0
VERTEX
8
OBJECT__30
10
0
20
0
30
0
70
128
71
28
72
24
73
23
0
VERTEX
8
OBJECT__30
10
0
20
0
30
0
70
128
71
25
72
21
73
26
0
VERTEX
8
OBJECT__30
10
0
20
0
30
0
70
128
71
22
72
26
73
21
0
VERTEX
8
OBJECT__30
10
0
20
0
30
0
70
128
71
17
72
22
73
20
0
VERTEX
8
OBJECT__30
10
0
20
0
30
0
70
128
71
18
72
14
73
13
0
VERTEX
8
OBJECT__30
10
0
20
0
30
0
70
128
71
15
72
11
73
16
0
VERTEX
8
OBJECT__30
10
0
20
0
30
0
70
128
71
12
72
16
73
11
0
VERTEX
8
OBJECT__30
10
0
20
0
30
0
70
128
71
7
72
12
73
10
0
VERTEX
8
OBJECT__30
10
0
20
0
30
0
70
128
71
8
72
5
73
4
0
VERTEX
8
OBJECT__30
10
0
20
0
30
0
70
128
71
6
72
30
73
3
0
VERTEX
8
OBJECT__30
10
0
20
0
30
0
70
128
71
3
72
30
73
1
0
SEQEND
8
OBJECT__30
0
POLYLINE
8
OBJECT__32
66
1
70
64
71
24
72
24
62
253
0
VERTEX
8
OBJECT__32
10
116.693001
20
1.985000
30
-261.360992
70
192
0
VERTEX
8
OBJECT__32
10
118.041000
20
5.190000
30
-261.773010
70
192
0
VERTEX
8
OBJECT__32
10
125.088997
20
11.649000
30
-238.720993
70
192
0
VERTEX
8
OBJECT__32
10
124.209000
20
8.873000
30
-236.776993
70
192
0
VERTEX
8
OBJECT__32
10
130.248001
20
29.295000
30
-221.845993
70
192
0
VERTEX
8
OBJECT__32
10
129.710999
20
27.691999
30
-218.779999
70
192
0
VERTEX
8
OBJECT__32
10
132.136002
20
53.400002
30
-215.669998
70
192
0
VERTEX
8
OBJECT__32
10
131.725006
20
53.400002
30
-212.192001
70
192
0
VERTEX
8
OBJECT__32
10
130.248001
20
77.504997
30
-221.845993
70
192
0
VERTEX
8
OBJECT__32
10
129.710999
20
79.108002
30
-218.779999
70
192
0
VERTEX
8
OBJECT__32
10
125.088997
20
95.151001
30
-238.720993
70
192
0
VERTEX
8
OBJECT__32
10
124.209000
20
97.927002
30
-236.776993
70
192
0
VERTEX
8
OBJECT__32
10
118.041000
20
101.610001
30
-261.773010
70
192
0
VERTEX
8
OBJECT__32
10
116.693001
20
104.815002
30
-261.360992
70
192
0
VERTEX
8
OBJECT__32
10
110.992996
20
95.151001
30
-284.825012
70
192
0
VERTEX
8
OBJECT__32
10
109.177002
20
97.927002
30
-285.945007
70
192
0
VERTEX
8
OBJECT__32
10
105.834000
20
77.504997
30
-301.700012
70
192
0
VERTEX
8
OBJECT__32
10
103.675003
20
79.108002
30
-303.941986
70
192
0
VERTEX
8
OBJECT__32
10
103.945999
20
53.400002
30
-307.877014
70
192
0
VERTEX
8
OBJECT__32
10
101.661003
20
53.400002
30
-310.529999
70
192
0
VERTEX
8
OBJECT__32
10
105.834000
20
29.295000
30
-301.700012
70
192
0
VERTEX
8
OBJECT__32
10
103.675003
20
27.691999
30
-303.941986
70
192
0
VERTEX
8
OBJECT__32
10
110.992996
20
11.649000
30
-284.825012
70
192
0
VERTEX
8
OBJECT__32
10
109.177002
20
8.873000
30
-285.945007
70
192
0
VERTEX
8
OBJECT__32
10
0
20
0
30
0
70
128
71
1
72
2
73
3
0
VERTEX
8
OBJECT__32
10
0
20
0
30
0
70
128
71
4
72
3
73
5
0
VERTEX
8
OBJECT__32
10
0
20
0
30
0
70
128
71
6
72
5
73
7
0
VERTEX
8
OBJECT__32
10
0
20
0
30
0
70
128
71
8
72
7
73
9
0
VERTEX
8
OBJECT__32
10
0
20
0
30
0
70
128
71
10
72
9
73
11
0
VERTEX
8
OBJECT__32
10
0
20
0
30
0
70
128
71
12
72
11
73
13
0
VERTEX
8
OBJECT__32
10
0
20
0
30
0
70
128
71
14
72
13
73
15
0
VERTEX
8
OBJECT__32
10
0
20
0
30
0
70
128
71
16
72
15
73
17
0
VERTEX
8
OBJECT__32
10
0
20
0
30
0
70
128
71
18
72
17
73
19
0
VERTEX
8
OBJECT__32
10
0
20
0
30
0
70
128
71
20
72
19
73
21
0
VERTEX
8
OBJECT__32
10
0
20
0
30
0
70
128
71
22
72
21
73
23
0
VERTEX
8
OBJECT__32
10
0
20
0
30
0
70
128
71
24
72
23
73
2
0
VERTEX
8
OBJECT__32
10
0
20
0
30
0
70
128
71
2
72
1
73
24
0
VERTEX
8
OBJECT__32
10
0
20
0
30
0
70
128
71
23
72
24
73
22
0
VERTEX
8
OBJECT__32
10
0
20
0
30
0
70
128
71
21
72
22
73
20
0
VERTEX
8
OBJECT__32
10
0
20
0
30
0
70
128
71
19
72
20
73
18
0
VERTEX
8
OBJECT__32
10
0
20
0
30
0
70
128
71
17
72
18
73
16
0
VERTEX
8
OBJECT__32
10
0
20
0
30
0
70
128
71
15
72
16
73
14
0
VERTEX
8
OBJECT__32
10
0
20
0
30
0
70
128
71
13
72
14
73
12
0
VERTEX
8
OBJECT__32
10
0
20
0
30
0
70
128
71
11
72
12
73
10
0
VERTEX
8
OBJECT__32
10
0
20
0
30
0
70
128
71
9
72
10
73
8
0
VERTEX
8
OBJECT__32
10
0
20
0
30
0
70
128
71
7
72
8
73
6
0
VERTEX
8
OBJECT__32
10
0
20
0
30
0
70
128
71
5
72
6
73
4
0
VERTEX
8
OBJECT__32
10
0
20
0
30
0
70
128
71
3
72
4
73
1
0
SEQEND
8
OBJECT__32
0
POLYLINE
8
OBJECT__33
66
1
70
64
71
40
72
52
62
253
0
VERTEX
8
OBJECT__33
10
118.019997
20
5.375000
30
-261.766998
70
192
0
VERTEX
8
OBJECT__33
10
117.862000
20
5.462000
30
-261.717987
70
192
0
VERTEX
8
OBJECT__33
10
124.870003
20
11.884000
30
-238.796997
70
192
0
VERTEX
8
OBJECT__33
10
130.179993
20
29.386999
30
-221.992996
70
192
0
VERTEX
8
OBJECT__33
10
125.041000
20
11.809000
30
-238.802994
70
192
0
VERTEX
8
OBJECT__33
10
127.434998
20
20.658001
30
-230.406998
70
192
0
VERTEX
8
OBJECT__33
10
130.000000
20
29.431000
30
-222.016998
70
192
0
VERTEX
8
OBJECT__33
10
131.878006
20
53.400002
30
-215.875000
70
192
0
VERTEX
8
OBJECT__33
10
132.061005
20
53.400002
30
-215.839996
70
192
0
VERTEX
8
OBJECT__33
10
130.000000
20
77.369003
30
-222.016998
70
192
0
VERTEX
8
OBJECT__33
10
125.041000
20
94.990997
30
-238.802994
70
192
0
VERTEX
8
OBJECT__33
10
130.179993
20
77.413002
30
-221.992996
70
192
0
VERTEX
8
OBJECT__33
10
127.434998
20
86.141998
30
-230.406998
70
192
0
VERTEX
8
OBJECT__33
10
124.870003
20
94.916000
30
-238.796997
70
192
0
VERTEX
8
OBJECT__33
10
117.862000
20
101.337997
30
-261.717987
70
192
0
VERTEX
8
OBJECT__33
10
118.019997
20
101.425003
30
-261.766998
70
192
0
VERTEX
8
OBJECT__33
10
110.853996
20
94.916000
30
-284.640015
70
192
0
VERTEX
8
OBJECT__33
10
105.860001
20
77.413002
30
-301.540009
70
192
0
VERTEX
8
OBJECT__33
10
110.999001
20
94.990997
30
-284.730011
70
192
0
VERTEX
8
OBJECT__33
10
108.289001
20
86.141998
30
-293.029999
70
192
0
VERTEX
8
OBJECT__33
10
105.723999
20
77.369003
30
-301.420013
70
192
0
VERTEX
8
OBJECT__33
10
103.847000
20
53.400002
30
-307.562012
70
192
0
VERTEX
8
OBJECT__33
10
103.978996
20
53.400002
30
-307.692993
70
192
0
VERTEX
8
OBJECT__33
10
105.723999
20
29.431000
30
-301.420013
70
192
0
VERTEX
8
OBJECT__33
10
110.999001
20
11.809000
30
-284.730011
70
192
0
VERTEX
8
OBJECT__33
10
105.860001
20
29.386999
30
-301.540009
70
192
0
VERTEX
8
OBJECT__33
10
108.289001
20
20.658001
30
-293.029999
70
192
0
VERTEX
8
OBJECT__33
10
110.853996
20
11.884000
30
-284.640015
70
192
0
VERTEX
8
OBJECT__33
10
125.088997
20
11.649000
30
-238.720993
70
192
0
VERTEX
8
OBJECT__33
10
118.041000
20
5.190000
30
-261.773010
70
192
0
VERTEX
8
OBJECT__33
10
130.248001
20
29.295000
30
-221.845993
70
192
0
VERTEX
8
OBJECT__33
10
132.136002
20
53.400002
30
-215.669998
70
192
0
VERTEX
8
OBJECT__33
10
130.248001
20
77.504997
30
-221.845993
70
192
0
VERTEX
8
OBJECT__33
10
125.088997
20
95.151001
30
-238.720993
70
192
0
VERTEX
8
OBJECT__33
10
118.041000
20
101.610001
30
-261.773010
70
192
0
VERTEX
8
OBJECT__33
10
110.992996
20
95.151001
30
-284.825012
70
192
0
VERTEX
8
OBJECT__33
10
105.834000
20
77.504997
30
-301.700012
70
192
0
VERTEX
8
OBJECT__33
10
103.945999
20
53.400002
30
-307.877014
70
192
0
VERTEX
8
OBJECT__33
10
105.834000
20
29.295000
30
-301.700012
70
192
0
VERTEX
8
OBJECT__33
10
110.992996
20
11.649000
30
-284.825012
70
192
0
VERTEX
8
OBJECT__33
10
0
20
0
30
0
70
128
71
1
72
2
73
3
0
VERTEX
8
OBJECT__33
10
0
20
0
30
0
70
128
71
4
72
5
73
6
0
VERTEX
8
OBJECT__33
10
0
20
0
30
0
70
128
71
5
72
3
73
6
0
VERTEX
8
OBJECT__33
10
0
20
0
30
0
70
128
71
4
72
7
73
8
0
VERTEX
8
OBJECT__33
10
0
20
0
30
0
70
128
71
9
72
8
73
10
0
VERTEX
8
OBJECT__33
10
0
20
0
30
0
70
128
71
11
72
12
73
13
0
VERTEX
8
OBJECT__33
10
0
20
0
30
0
70
128
71
12
72
10
73
13
0
VERTEX
8
OBJECT__33
10
0
20
0
30
0
70
128
71
11
72
14
73
15
0
VERTEX
8
OBJECT__33
10
0
20
0
30
0
70
128
71
16
72
15
73
17
0
VERTEX
8
OBJECT__33
10
0
20
0
30
0
70
128
71
18
72
19
73
20
0
VERTEX
8
OBJECT__33
10
0
20
0
30
0
70
128
71
19
72
17
73
20
0
VERTEX
8
OBJECT__33
10
0
20
0
30
0
70
128
71
18
72
21
73
22
0
VERTEX
8
OBJECT__33
10
0
20
0
30
0
70
128
71
23
72
22
73
24
0
VERTEX
8
OBJECT__33
10
0
20
0
30
0
70
128
71
25
72
26
73
27
0
VERTEX
8
OBJECT__33
10
0
20
0
30
0
70
128
71
26
72
24
73
27
0
VERTEX
8
OBJECT__33
10
0
20
0
30
0
70
128
71
25
72
28
73
2
0
VERTEX
8
OBJECT__33
10
0
20
0
30
0
70
128
71
29
72
30
73
1
0
VERTEX
8
OBJECT__33
10
0
20
0
30
0
70
128
71
31
72
29
73
5
0
VERTEX
8
OBJECT__33
10
0
20
0
30
0
70
128
71
32
72
31
73
4
0
VERTEX
8
OBJECT__33
10
0
20
0
30
0
70
128
71
33
72
32
73
9
0
VERTEX
8
OBJECT__33
10
0
20
0
30
0
70
128
71
34
72
33
73
12
0
VERTEX
8
OBJECT__33
10
0
20
0
30
0
70
128
71
35
72
34
73
11
0
VERTEX
8
OBJECT__33
10
0
20
0
30
0
70
128
71
36
72
35
73
16
0
VERTEX
8
OBJECT__33
10
0
20
0
30
0
70
128
71
37
72
36
73
19
0
VERTEX
8
OBJECT__33
10
0
20
0
30
0
70
128
71
38
72
37
73
18
0
VERTEX
8
OBJECT__33
10
0
20
0
30
0
70
128
71
39
72
38
73
23
0
VERTEX
8
OBJECT__33
10
0
20
0
30
0
70
128
71
40
72
39
73
26
0
VERTEX
8
OBJECT__33
10
0
20
0
30
0
70
128
71
30
72
40
73
25
0
VERTEX
8
OBJECT__33
10
0
20
0
30
0
70
128
71
25
72
1
73
30
0
VERTEX
8
OBJECT__33
10
0
20
0
30
0
70
128
71
26
72
25
73
40
0
VERTEX
8
OBJECT__33
10
0
20
0
30
0
70
128
71
23
72
26
73
39
0
VERTEX
8
OBJECT__33
10
0
20
0
30
0
70
128
71
18
72
23
73
38
0
VERTEX
8
OBJECT__33
10
0
20
0
30
0
70
128
71
19
72
18
73
37
0
VERTEX
8
OBJECT__33
10
0
20
0
30
0
70
128
71
16
72
19
73
36
0
VERTEX
8
OBJECT__33
10
0
20
0
30
0
70
128
71
11
72
16
73
35
0
VERTEX
8
OBJECT__33
10
0
20
0
30
0
70
128
71
12
72
11
73
34
0
VERTEX
8
OBJECT__33
10
0
20
0
30
0
70
128
71
9
72
12
73
33
0
VERTEX
8
OBJECT__33
10
0
20
0
30
0
70
128
71
4
72
9
73
32
0
VERTEX
8
OBJECT__33
10
0
20
0
30
0
70
128
71
5
72
4
73
31
0
VERTEX
8
OBJECT__33
10
0
20
0
30
0
70
128
71
1
72
5
73
29
0
VERTEX
8
OBJECT__33
10
0
20
0
30
0
70
128
71
2
72
1
73
25
0
VERTEX
8
OBJECT__33
10
0
20
0
30
0
70
128
71
27
72
28
73
25
0
VERTEX
8
OBJECT__33
10
0
20
0
30
0
70
128
71
24
72
26
73
23
0
VERTEX
8
OBJECT__33
10
0
20
0
30
0
70
128
71
22
72
23
73
18
0
VERTEX
8
OBJECT__33
10
0
20
0
30
0
70
128
71
20
72
21
73
18
0
VERTEX
8
OBJECT__33
10
0
20
0
30
0
70
128
71
17
72
19
73
16
0
VERTEX
8
OBJECT__33
10
0
20
0
30
0
70
128
71
15
72
16
73
11
0
VERTEX
8
OBJECT__33
10
0
20
0
30
0
70
128
71
13
72
14
73
11
0
VERTEX
8
OBJECT__33
10
0
20
0
30
0
70
128
71
10
72
12
73
9
0
VERTEX
8
OBJECT__33
10
0
20
0
30
0
70
128
71
8
72
9
73
4
0
VERTEX
8
OBJECT__33
10
0
20
0
30
0
70
128
71
6
72
7
73
4
0
VERTEX
8
OBJECT__33
10
0
20
0
30
0
70
128
71
3
72
5
73
1
0
SEQEND
8
OBJECT__33
0
POLYLINE
8
OBJECT__34
66
1
70
64
71
24
72
24
62
253
0
VERTEX
8
OBJECT__34
10
113.844002
20
5.462000
30
-260.489990
70
192
0
VERTEX
8
OBJECT__34
10
117.862000
20
5.462000
30
-261.717987
70
192
0
VERTEX
8
OBJECT__34
10
110.853996
20
11.884000
30
-284.640015
70
192
0
VERTEX
8
OBJECT__34
10
103.932999
20
19.503000
30
-292.906006
70
192
0
VERTEX
8
OBJECT__34
10
99.828003
20
53.400002
30
-306.334015
70
192
0
VERTEX
8
OBJECT__34
10
105.723999
20
29.431000
30
-301.420013
70
192
0
VERTEX
8
OBJECT__34
10
108.289001
20
20.658001
30
-293.029999
70
192
0
VERTEX
8
OBJECT__34
10
103.847000
20
53.400002
30
-307.562012
70
192
0
VERTEX
8
OBJECT__34
10
105.723999
20
77.369003
30
-301.420013
70
192
0
VERTEX
8
OBJECT__34
10
103.932999
20
87.296997
30
-292.906006
70
192
0
VERTEX
8
OBJECT__34
10
113.844002
20
101.337997
30
-260.489990
70
192
0
VERTEX
8
OBJECT__34
10
110.853996
20
94.916000
30
-284.640015
70
192
0
VERTEX
8
OBJECT__34
10
108.289001
20
86.141998
30
-293.029999
70
192
0
VERTEX
8
OBJECT__34
10
117.862000
20
101.337997
30
-261.717987
70
192
0
VERTEX
8
OBJECT__34
10
124.870003
20
94.916000
30
-238.796997
70
192
0
VERTEX
8
OBJECT__34
10
123.754997
20
87.296997
30
-228.074005
70
192
0
VERTEX
8
OBJECT__34
10
127.860001
20
53.400002
30
-214.645996
70
192
0
VERTEX
8
OBJECT__34
10
130.000000
20
77.369003
30
-222.016998
70
192
0
VERTEX
8
OBJECT__34
10
127.434998
20
86.141998
30
-230.406998
70
192
0
VERTEX
8
OBJECT__34
10
131.878006
20
53.400002
30
-215.875000
70
192
0
VERTEX
8
OBJECT__34
10
130.000000
20
29.431000
30
-222.016998
70
192
0
VERTEX
8
OBJECT__34
10
123.754997
20
19.503000
30
-228.074005
70
192
0
VERTEX
8
OBJECT__34
10
124.870003
20
11.884000
30
-238.796997
70
192
0
VERTEX
8
OBJECT__34
10
127.434998
20
20.658001
30
-230.406998
70
192
0
VERTEX
8
OBJECT__34
10
0
20
0
30
0
70
128
71
1
72
2
73
3
0
VERTEX
8
OBJECT__34
10
0
20
0
30
0
70
128
71
3
72
4
73
1
0
VERTEX
8
OBJECT__34
10
0
20
0
30
0
70
128
71
5
72
4
73
6
0
VERTEX
8
OBJECT__34
10
0
20
0
30
0
70
128
71
4
72
7
73
6
0
VERTEX
8
OBJECT__34
10
0
20
0
30
0
70
128
71
5
72
8
73
9
0
VERTEX
8
OBJECT__34
10
0
20
0
30
0
70
128
71
9
72
10
73
5
0
VERTEX
8
OBJECT__34
10
0
20
0
30
0
70
128
71
11
72
10
73
12
0
VERTEX
8
OBJECT__34
10
0
20
0
30
0
70
128
71
10
72
13
73
12
0
VERTEX
8
OBJECT__34
10
0
20
0
30
0
70
128
71
11
72
14
73
15
0
VERTEX
8
OBJECT__34
10
0
20
0
30
0
70
128
71
15
72
16
73
11
0
VERTEX
8
OBJECT__34
10
0
20
0
30
0
70
128
71
17
72
16
73
18
0
VERTEX
8
OBJECT__34
10
0
20
0
30
0
70
128
71
16
72
19
73
18
0
VERTEX
8
OBJECT__34
10
0
20
0
30
0
70
128
71
17
72
20
73
21
0
VERTEX
8
OBJECT__34
10
0
20
0
30
0
70
128
71
21
72
22
73
17
0
VERTEX
8
OBJECT__34
10
0
20
0
30
0
70
128
71
1
72
22
73
23
0
VERTEX
8
OBJECT__34
10
0
20
0
30
0
70
128
71
22
72
24
73
23
0
VERTEX
8
OBJECT__34
10
0
20
0
30
0
70
128
71
23
72
2
73
1
0
VERTEX
8
OBJECT__34
10
0
20
0
30
0
70
128
71
21
72
24
73
22
0
VERTEX
8
OBJECT__34
10
0
20
0
30
0
70
128
71
18
72
20
73
17
0
VERTEX
8
OBJECT__34
10
0
20
0
30
0
70
128
71
15
72
19
73
16
0
VERTEX
8
OBJECT__34
10
0
20
0
30
0
70
128
71
12
72
14
73
11
0
VERTEX
8
OBJECT__34
10
0
20
0
30
0
70
128
71
9
72
13
73
10
0
VERTEX
8
OBJECT__34
10
0
20
0
30
0
70
128
71
6
72
8
73
5
0
VERTEX
8
OBJECT__34
10
0
20
0
30
0
70
128
71
3
72
7
73
4
0
SEQEND
8
OBJECT__34
0
POLYLINE
8
OBJECT__35
66
1
70
64
71
8
72
8
62
253
0
VERTEX
8
OBJECT__35
10
32.094002
20
61.049999
30
-641.310974
70
192
0
VERTEX
8
OBJECT__35
10
39.626999
20
53.400002
30
-642.638977
70
192
0
VERTEX
8
OBJECT__35
10
42.578999
20
53.400002
30
-625.896973
70
192
0
VERTEX
8
OBJECT__35
10
24.559999
20
53.400002
30
-639.981995
70
192
0
VERTEX
8
OBJECT__35
10
35.046001
20
61.049999
30
-624.568970
70
192
0
VERTEX
8
OBJECT__35
10
35.046001
20
45.750000
30
-624.568970
70
192
0
VERTEX
8
OBJECT__35
10
32.094002
20
45.750000
30
-641.310974
70
192
0
VERTEX
8
OBJECT__35
10
27.511999
20
53.400002
30
-623.241028
70
192
0
VERTEX
8
OBJECT__35
10
0
20
0
30
0
70
128
71
1
72
2
73
3
0
VERTEX
8
OBJECT__35
10
0
20
0
30
0
70
128
71
4
72
1
73
5
0
VERTEX
8
OBJECT__35
10
0
20
0
30
0
70
128
71
6
72
7
73
4
0
VERTEX
8
OBJECT__35
10
0
20
0
30
0
70
128
71
3
72
2
73
7
0
VERTEX
8
OBJECT__35
10
0
20
0
30
0
70
128
71
7
72
6
73
3
0
VERTEX
8
OBJECT__35
10
0
20
0
30
0
70
128
71
4
72
8
73
6
0
VERTEX
8
OBJECT__35
10
0
20
0
30
0
70
128
71
5
72
8
73
4
0
VERTEX
8
OBJECT__35
10
0
20
0
30
0
70
128
71
3
72
5
73
1
0
SEQEND
8
OBJECT__35
0
POLYLINE
8
OBJECT__36
66
1
70
64
71
8
72
8
62
253
0
VERTEX
8
OBJECT__36
10
35.046001
20
61.400002
30
-624.568970
70
192
0
VERTEX
8
OBJECT__36
10
27.167000
20
53.400002
30
-623.179993
70
192
0
VERTEX
8
OBJECT__36
10
27.511999
20
53.400002
30
-623.241028
70
192
0
VERTEX
8
OBJECT__36
10
35.046001
20
45.400002
30
-624.568970
70
192
0
VERTEX
8
OBJECT__36
10
35.046001
20
45.750000
30
-624.568970
70
192
0
VERTEX
8
OBJECT__36
10
42.924000
20
53.400002
30
-625.958008
70
192
0
VERTEX
8
OBJECT__36
10
42.578999
20
53.400002
30
-625.896973
70
192
0
VERTEX
8
OBJECT__36
10
35.046001
20
61.049999
30
-624.568970
70
192
0
VERTEX
8
OBJECT__36
10
0
20
0
30
0
70
128
71
1
72
2
73
3
0
VERTEX
8
OBJECT__36
10
0
20
0
30
0
70
128
71
4
72
5
73
3
0
VERTEX
8
OBJECT__36
10
0
20
0
30
0
70
128
71
4
72
6
73
7
0
VERTEX
8
OBJECT__36
10
0
20
0
30
0
70
128
71
3
72
8
73
1
0
VERTEX
8
OBJECT__36
10
0
20
0
30
0
70
128
71
7
72
5
73
4
0
VERTEX
8
OBJECT__36
10
0
20
0
30
0
70
128
71
3
72
2
73
4
0
VERTEX
8
OBJECT__36
10
0
20
0
30
0
70
128
71
8
72
7
73
1
0
VERTEX
8
OBJECT__36
10
0
20
0
30
0
70
128
71
7
72
6
73
1
0
SEQEND
8
OBJECT__36
0
POLYLINE
8
OBJECT__38
66
1
70
64
71
8
72
8
62
253
0
VERTEX
8
OBJECT__38
10
32.094002
20
45.400002
30
-641.310974
70
192
0
VERTEX
8
OBJECT__38
10
39.972000
20
53.400002
30
-642.700012
70
192
0
VERTEX
8
OBJECT__38
10
42.924000
20
53.400002
30
-625.958008
70
192
0
VERTEX
8
OBJECT__38
10
24.215000
20
53.400002
30
-639.921997
70
192
0
VERTEX
8
OBJECT__38
10
35.046001
20
45.400002
30
-624.568970
70
192
0
VERTEX
8
OBJECT__38
10
35.046001
20
61.400002
30
-624.568970
70
192
0
VERTEX
8
OBJECT__38
10
32.094002
20
61.400002
30
-641.310974
70
192
0
VERTEX
8
OBJECT__38
10
27.167000
20
53.400002
30
-623.179993
70
192
0
VERTEX
8
OBJECT__38
10
0
20
0
30
0
70
128
71
1
72
2
73
3
0
VERTEX
8
OBJECT__38
10
0
20
0
30
0
70
128
71
4
72
1
73
5
0
VERTEX
8
OBJECT__38
10
0
20
0
30
0
70
128
71
6
72
7
73
4
0
VERTEX
8
OBJECT__38
10
0
20
0
30
0
70
128
71
3
72
2
73
7
0
VERTEX
8
OBJECT__38
10
0
20
0
30
0
70
128
71
7
72
6
73
3
0
VERTEX
8
OBJECT__38
10
0
20
0
30
0
70
128
71
4
72
8
73
6
0
VERTEX
8
OBJECT__38
10
0
20
0
30
0
70
128
71
5
72
8
73
4
0
VERTEX
8
OBJECT__38
10
0
20
0
30
0
70
128
71
3
72
5
73
1
0
SEQEND
8
OBJECT__38
0
POLYLINE
8
OBJECT__39
66
1
70
64
71
4
72
2
62
253
0
VERTEX
8
OBJECT__39
10
32.266998
20
64.900002
30
-640.325989
70
192
0
VERTEX
8
OBJECT__39
10
20.941999
20
53.400002
30
-638.328979
70
192
0
VERTEX
8
OBJECT__39
10
32.266998
20
41.900002
30
-640.325989
70
192
0
VERTEX
8
OBJECT__39
10
43.592999
20
53.400002
30
-642.322998
70
192
0
VERTEX
8
OBJECT__39
10
0
20
0
30
0
70
128
71
1
72
2
73
3
0
VERTEX
8
OBJECT__39
10
0
20
0
30
0
70
128
71
3
72
4
73
1
0
SEQEND
8
OBJECT__39
0
POLYLINE
8
OBJECT__40
66
1
70
64
71
8
72
8
62
253
0
VERTEX
8
OBJECT__40
10
32.266998
20
41.900002
30
-640.325989
70
192
0
VERTEX
8
OBJECT__40
10
20.941999
20
53.400002
30
-638.328979
70
192
0
VERTEX
8
OBJECT__40
10
18.771000
20
53.400002
30
-650.638977
70
192
0
VERTEX
8
OBJECT__40
10
41.422001
20
53.400002
30
-654.632996
70
192
0
VERTEX
8
OBJECT__40
10
43.592999
20
53.400002
30
-642.322998
70
192
0
VERTEX
8
OBJECT__40
10
30.097000
20
64.900002
30
-652.635986
70
192
0
VERTEX
8
OBJECT__40
10
32.266998
20
64.900002
30
-640.325989
70
192
0
VERTEX
8
OBJECT__40
10
30.097000
20
41.900002
30
-652.635986
70
192
0
VERTEX
8
OBJECT__40
10
0
20
0
30
0
70
128
71
1
72
2
73
3
0
VERTEX
8
OBJECT__40
10
0
20
0
30
0
70
128
71
4
72
5
73
1
0
VERTEX
8
OBJECT__40
10
0
20
0
30
0
70
128
71
6
72
7
73
5
0
VERTEX
8
OBJECT__40
10
0
20
0
30
0
70
128
71
2
72
7
73
6
0
VERTEX
8
OBJECT__40
10
0
20
0
30
0
70
128
71
6
72
3
73
2
0
VERTEX
8
OBJECT__40
10
0
20
0
30
0
70
128
71
5
72
4
73
6
0
VERTEX
8
OBJECT__40
10
0
20
0
30
0
70
128
71
1
72
8
73
4
0
VERTEX
8
OBJECT__40
10
0
20
0
30
0
70
128
71
3
72
8
73
1
0
SEQEND
8
OBJECT__40
0
POLYLINE
8
OBJECT__42
66
1
70
64
71
4
72
2
62
253
0
VERTEX
8
OBJECT__42
10
30.097000
20
41.900002
30
-652.635986
70
192
0
VERTEX
8
OBJECT__42
10
18.771000
20
53.400002
30
-650.638977
70
192
0
VERTEX
8
OBJECT__42
10
30.097000
20
64.900002
30
-652.635986
70
192
0
VERTEX
8
OBJECT__42
10
41.422001
20
53.400002
30
-654.632996
70
192
0
VERTEX
8
OBJECT__42
10
0
20
0
30
0
70
128
71
1
72
2
73
3
0
VERTEX
8
OBJECT__42
10
0
20
0
30
0
70
128
71
3
72
4
73
1
0
SEQEND
8
OBJECT__42
0
POLYLINE
8
OBJECT__43
66
1
70
64
71
8
72
8
62
253
0
VERTEX
8
OBJECT__43
10
74.036003
20
53.400002
30
-446.635986
70
192
0
VERTEX
8
OBJECT__43
10
66.650002
20
45.900002
30
-445.334015
70
192
0
VERTEX
8
OBJECT__43
10
31.920000
20
45.900002
30
-642.296021
70
192
0
VERTEX
8
OBJECT__43
10
39.306000
20
53.400002
30
-643.598022
70
192
0
VERTEX
8
OBJECT__43
10
59.264000
20
53.400002
30
-444.032013
70
192
0
VERTEX
8
OBJECT__43
10
24.534000
20
53.400002
30
-640.992981
70
192
0
VERTEX
8
OBJECT__43
10
66.650002
20
60.900002
30
-445.334015
70
192
0
VERTEX
8
OBJECT__43
10
31.920000
20
60.900002
30
-642.296021
70
192
0
VERTEX
8
OBJECT__43
10
0
20
0
30
0
70
128
71
1
72
2
73
3
0
VERTEX
8
OBJECT__43
10
0
20
0
30
0
70
128
71
1
72
3
73
4
0
VERTEX
8
OBJECT__43
10
0
20
0
30
0
70
128
71
2
72
5
73
6
0
VERTEX
8
OBJECT__43
10
0
20
0
30
0
70
128
71
2
72
6
73
3
0
VERTEX
8
OBJECT__43
10
0
20
0
30
0
70
128
71
5
72
7
73
8
0
VERTEX
8
OBJECT__43
10
0
20
0
30
0
70
128
71
5
72
8
73
6
0
VERTEX
8
OBJECT__43
10
0
20
0
30
0
70
128
71
7
72
1
73
4
0
VERTEX
8
OBJECT__43
10
0
20
0
30
0
70
128
71
7
72
4
73
8
0
SEQEND
8
OBJECT__43
0
POLYLINE
8
OBJECT__45
66
1
70
64
71
25
72
25
62
253
0
VERTEX
8
OBJECT__45
10
65.000000
20
12.350000
30
-954.690002
70
192
0
VERTEX
8
OBJECT__45
10
65.000000
20
11.700000
30
-954.690002
70
192
0
VERTEX
8
OBJECT__45
10
61.384998
20
11.127000
30
-954.690002
70
192
0
VERTEX
8
OBJECT__45
10
65.000000
20
-12.350000
30
-954.690002
70
192
0
VERTEX
8
OBJECT__45
10
65.000000
20
-11.700000
30
-954.690002
70
192
0
VERTEX
8
OBJECT__45
10
68.614998
20
-11.127000
30
-954.690002
70
192
0
VERTEX
8
OBJECT__45
10
60.273998
20
-11.410000
30
-954.690002
70
192
0
VERTEX
8
OBJECT__45
10
61.384998
20
-11.127000
30
-954.690002
70
192
0
VERTEX
8
OBJECT__45
10
60.273998
20
11.410000
30
-954.690002
70
192
0
VERTEX
8
OBJECT__45
10
69.725998
20
11.410000
30
-954.690002
70
192
0
VERTEX
8
OBJECT__45
10
68.614998
20
11.127000
30
-954.690002
70
192
0
VERTEX
8
OBJECT__45
10
69.725998
20
-11.410000
30
-954.690002
70
192
0
VERTEX
8
OBJECT__45
10
71.876999
20
-9.465000
30
-954.690002
70
192
0
VERTEX
8
OBJECT__45
10
73.733002
20
8.733000
30
-954.690002
70
192
0
VERTEX
8
OBJECT__45
10
74.464996
20
6.877000
30
-954.690002
70
192
0
VERTEX
8
OBJECT__45
10
77.349998
20
0.000000
30
-954.690002
70
192
0
VERTEX
8
OBJECT__45
10
76.699997
20
0.000000
30
-954.690002
70
192
0
VERTEX
8
OBJECT__45
10
73.733002
20
-8.733000
30
-954.690002
70
192
0
VERTEX
8
OBJECT__45
10
74.464996
20
-6.877000
30
-954.690002
70
192
0
VERTEX
8
OBJECT__45
10
53.299999
20
0.000000
30
-954.690002
70
192
0
VERTEX
8
OBJECT__45
10
56.266998
20
-8.733000
30
-954.690002
70
192
0
VERTEX
8
OBJECT__45
10
52.650002
20
0.000000
30
-954.690002
70
192
0
VERTEX
8
OBJECT__45
10
56.266998
20
8.733000
30
-954.690002
70
192
0
VERTEX
8
OBJECT__45
10
55.535000
20
6.877000
30
-954.690002
70
192
0
VERTEX
8
OBJECT__45
10
58.123001
20
9.465000
30
-954.690002
70
192
0
VERTEX
8
OBJECT__45
10
0
20
0
30
0
70
128
71
1
72
2
73
3
0
VERTEX
8
OBJECT__45
10
0
20
0
30
0
70
128
71
4
72
5
73
6
0
VERTEX
8
OBJECT__45
10
0
20
0
30
0
70
128
71
4
72
7
73
8
0
VERTEX
8
OBJECT__45
10
0
20
0
30
0
70
128
71
3
72
9
73
1
0
VERTEX
8
OBJECT__45
10
0
20
0
30
0
70
128
71
1
72
10
73
11
0
VERTEX
8
OBJECT__45
10
0
20
0
30
0
70
128
71
12
72
6
73
13
0
VERTEX
8
OBJECT__45
10
0
20
0
30
0
70
128
71
8
72
5
73
4
0
VERTEX
8
OBJECT__45
10
0
20
0
30
0
70
128
71
11
72
2
73
1
0
VERTEX
8
OBJECT__45
10
0
20
0
30
0
70
128
71
11
72
10
73
14
0
VERTEX
8
OBJECT__45
10
0
20
0
30
0
70
128
71
6
72
12
73
4
0
VERTEX
8
OBJECT__45
10
0
20
0
30
0
70
128
71
14
72
15
73
11
0
VERTEX
8
OBJECT__45
10
0
20
0
30
0
70
128
71
16
72
17
73
15
0
VERTEX
8
OBJECT__45
10
0
20
0
30
0
70
128
71
16
72
18
73
19
0
VERTEX
8
OBJECT__45
10
0
20
0
30
0
70
128
71
13
72
18
73
12
0
VERTEX
8
OBJECT__45
10
0
20
0
30
0
70
128
71
15
72
14
73
16
0
VERTEX
8
OBJECT__45
10
0
20
0
30
0
70
128
71
13
72
19
73
18
0
VERTEX
8
OBJECT__45
10
0
20
0
30
0
70
128
71
20
72
8
73
21
0
VERTEX
8
OBJECT__45
10
0
20
0
30
0
70
128
71
19
72
17
73
16
0
VERTEX
8
OBJECT__45
10
0
20
0
30
0
70
128
71
8
72
7
73
21
0
VERTEX
8
OBJECT__45
10
0
20
0
30
0
70
128
71
22
72
23
73
24
0
VERTEX
8
OBJECT__45
10
0
20
0
30
0
70
128
71
23
72
3
73
25
0
VERTEX
8
OBJECT__45
10
0
20
0
30
0
70
128
71
21
72
22
73
20
0
VERTEX
8
OBJECT__45
10
0
20
0
30
0
70
128
71
25
72
24
73
23
0
VERTEX
8
OBJECT__45
10
0
20
0
30
0
70
128
71
24
72
20
73
22
0
VERTEX
8
OBJECT__45
10
0
20
0
30
0
70
128
71
3
72
23
73
9
0
SEQEND
8
OBJECT__45
0
POLYLINE
8
OBJECT__46
66
1
70
64
71
24
72
24
62
253
0
VERTEX
8
OBJECT__46
10
65.000000
20
-12.350000
30
-954.690002
70
192
0
VERTEX
8
OBJECT__46
10
69.725998
20
-11.410000
30
-954.690002
70
192
0
VERTEX
8
OBJECT__46
10
69.725998
20
-11.410000
30
45.310001
70
192
0
VERTEX
8
OBJECT__46
10
73.733002
20
-8.733000
30
45.310001
70
192
0
VERTEX
8
OBJECT__46
10
73.733002
20
-8.733000
30
-954.690002
70
192
0
VERTEX
8
OBJECT__46
10
77.349998
20
0.000000
30
45.310001
70
192
0
VERTEX
8
OBJECT__46
10
77.349998
20
0.000000
30
-954.690002
70
192
0
VERTEX
8
OBJECT__46
10
52.650002
20
0.000000
30
-954.690002
70
192
0
VERTEX
8
OBJECT__46
10
56.266998
20
-8.733000
30
-954.690002
70
192
0
VERTEX
8
OBJECT__46
10
56.266998
20
-8.733000
30
45.310001
70
192
0
VERTEX
8
OBJECT__46
10
60.273998
20
-11.410000
30
45.310001
70
192
0
VERTEX
8
OBJECT__46
10
60.273998
20
-11.410000
30
-954.690002
70
192
0
VERTEX
8
OBJECT__46
10
65.000000
20
-12.350000
30
45.310001
70
192
0
VERTEX
8
OBJECT__46
10
65.000000
20
12.350000
30
-954.690002
70
192
0
VERTEX
8
OBJECT__46
10
60.273998
20
11.410000
30
-954.690002
70
192
0
VERTEX
8
OBJECT__46
10
60.273998
20
11.410000
30
45.310001
70
192
0
VERTEX
8
OBJECT__46
10
56.266998
20
8.733000
30
45.310001
70
192
0
VERTEX
8
OBJECT__46
10
56.266998
20
8.733000
30
-954.690002
70
192
0
VERTEX
8
OBJECT__46
10
52.650002
20
0.000000
30
45.310001
70
192
0
VERTEX
8
OBJECT__46
10
73.733002
20
8.733000
30
-954.690002
70
192
0
VERTEX
8
OBJECT__46
10
73.733002
20
8.733000
30
45.310001
70
192
0
VERTEX
8
OBJECT__46
10
69.725998
20
11.410000
30
45.310001
70
192
0
VERTEX
8
OBJECT__46
10
69.725998
20
11.410000
30
-954.690002
70
192
0
VERTEX
8
OBJECT__46
10
65.000000
20
12.350000
30
45.310001
70
192
0
VERTEX
8
OBJECT__46
10
0
20
0
30
0
70
128
71
1
72
2
73
3
0
VERTEX
8
OBJECT__46
10
0
20
0
30
0
70
128
71
4
72
3
73
2
0
VERTEX
8
OBJECT__46
10
0
20
0
30
0
70
128
71
2
72
5
73
4
0
VERTEX
8
OBJECT__46
10
0
20
0
30
0
70
128
71
6
72
4
73
5
0
VERTEX
8
OBJECT__46
10
0
20
0
30
0
70
128
71
5
72
7
73
6
0
VERTEX
8
OBJECT__46
10
0
20
0
30
0
70
128
71
8
72
9
73
10
0
VERTEX
8
OBJECT__46
10
0
20
0
30
0
70
128
71
11
72
10
73
9
0
VERTEX
8
OBJECT__46
10
0
20
0
30
0
70
128
71
9
72
12
73
11
0
VERTEX
8
OBJECT__46
10
0
20
0
30
0
70
128
71
13
72
11
73
12
0
VERTEX
8
OBJECT__46
10
0
20
0
30
0
70
128
71
12
72
1
73
13
0
VERTEX
8
OBJECT__46
10
0
20
0
30
0
70
128
71
14
72
15
73
16
0
VERTEX
8
OBJECT__46
10
0
20
0
30
0
70
128
71
17
72
16
73
15
0
VERTEX
8
OBJECT__46
10
0
20
0
30
0
70
128
71
15
72
18
73
17
0
VERTEX
8
OBJECT__46
10
0
20
0
30
0
70
128
71
19
72
17
73
18
0
VERTEX
8
OBJECT__46
10
0
20
0
30
0
70
128
71
18
72
8
73
19
0
VERTEX
8
OBJECT__46
10
0
20
0
30
0
70
128
71
7
72
20
73
21
0
VERTEX
8
OBJECT__46
10
0
20
0
30
0
70
128
71
22
72
21
73
20
0
VERTEX
8
OBJECT__46
10
0
20
0
30
0
70
128
71
20
72
23
73
22
0
VERTEX
8
OBJECT__46
10
0
20
0
30
0
70
128
71
24
72
22
73
23
0
VERTEX
8
OBJECT__46
10
0
20
0
30
0
70
128
71
23
72
14
73
24
0
VERTEX
8
OBJECT__46
10
0
20
0
30
0
70
128
71
21
72
6
73
7
0
VERTEX
8
OBJECT__46
10
0
20
0
30
0
70
128
71
16
72
24
73
14
0
VERTEX
8
OBJECT__46
10
0
20
0
30
0
70
128
71
10
72
19
73
8
0
VERTEX
8
OBJECT__46
10
0
20
0
30
0
70
128
71
3
72
13
73
1
0
SEQEND
8
OBJECT__46
0
POLYLINE
8
OBJECT__48
66
1
70
64
71
25
72
25
62
253
0
VERTEX
8
OBJECT__48
10
65.000000
20
12.350000
30
45.310001
70
192
0
VERTEX
8
OBJECT__48
10
60.273998
20
11.410000
30
45.310001
70
192
0
VERTEX
8
OBJECT__48
10
61.384998
20
11.127000
30
45.310001
70
192
0
VERTEX
8
OBJECT__48
10
56.266998
20
8.733000
30
45.310001
70
192
0
VERTEX
8
OBJECT__48
10
58.123001
20
9.465000
30
45.310001
70
192
0
VERTEX
8
OBJECT__48
10
65.000000
20
11.700000
30
45.310001
70
192
0
VERTEX
8
OBJECT__48
10
68.614998
20
11.127000
30
45.310001
70
192
0
VERTEX
8
OBJECT__48
10
65.000000
20
-12.350000
30
45.310001
70
192
0
VERTEX
8
OBJECT__48
10
65.000000
20
-11.700000
30
45.310001
70
192
0
VERTEX
8
OBJECT__48
10
61.384998
20
-11.127000
30
45.310001
70
192
0
VERTEX
8
OBJECT__48
10
69.725998
20
-11.410000
30
45.310001
70
192
0
VERTEX
8
OBJECT__48
10
68.614998
20
-11.127000
30
45.310001
70
192
0
VERTEX
8
OBJECT__48
10
73.733002
20
-8.733000
30
45.310001
70
192
0
VERTEX
8
OBJECT__48
10
71.876999
20
-9.465000
30
45.310001
70
192
0
VERTEX
8
OBJECT__48
10
55.535000
20
6.877000
30
45.310001
70
192
0
VERTEX
8
OBJECT__48
10
52.650002
20
0.000000
30
45.310001
70
192
0
VERTEX
8
OBJECT__48
10
53.299999
20
0.000000
30
45.310001
70
192
0
VERTEX
8
OBJECT__48
10
74.464996
20
6.877000
30
45.310001
70
192
0
VERTEX
8
OBJECT__48
10
73.733002
20
8.733000
30
45.310001
70
192
0
VERTEX
8
OBJECT__48
10
56.266998
20
-8.733000
30
45.310001
70
192
0
VERTEX
8
OBJECT__48
10
74.464996
20
-6.877000
30
45.310001
70
192
0
VERTEX
8
OBJECT__48
10
77.349998
20
0.000000
30
45.310001
70
192
0
VERTEX
8
OBJECT__48
10
76.699997
20
0.000000
30
45.310001
70
192
0
VERTEX
8
OBJECT__48
10
69.725998
20
11.410000
30
45.310001
70
192
0
VERTEX
8
OBJECT__48
10
60.273998
20
-11.410000
30
45.310001
70
192
0
VERTEX
8
OBJECT__48
10
0
20
0
30
0
70
128
71
1
72
2
73
3
0
VERTEX
8
OBJECT__48
10
0
20
0
30
0
70
128
71
2
72
4
73
5
0
VERTEX
8
OBJECT__48
10
0
20
0
30
0
70
128
71
1
72
6
73
7
0
VERTEX
8
OBJECT__48
10
0
20
0
30
0
70
128
71
5
72
3
73
2
0
VERTEX
8
OBJECT__48
10
0
20
0
30
0
70
128
71
8
72
9
73
10
0
VERTEX
8
OBJECT__48
10
0
20
0
30
0
70
128
71
8
72
11
73
12
0
VERTEX
8
OBJECT__48
10
0
20
0
30
0
70
128
71
3
72
6
73
1
0
VERTEX
8
OBJECT__48
10
0
20
0
30
0
70
128
71
12
72
9
73
8
0
VERTEX
8
OBJECT__48
10
0
20
0
30
0
70
128
71
11
72
13
73
14
0
VERTEX
8
OBJECT__48
10
0
20
0
30
0
70
128
71
4
72
15
73
5
0
VERTEX
8
OBJECT__48
10
0
20
0
30
0
70
128
71
16
72
17
73
15
0
VERTEX
8
OBJECT__48
10
0
20
0
30
0
70
128
71
14
72
12
73
11
0
VERTEX
8
OBJECT__48
10
0
20
0
30
0
70
128
71
7
72
18
73
19
0
VERTEX
8
OBJECT__48
10
0
20
0
30
0
70
128
71
15
72
4
73
16
0
VERTEX
8
OBJECT__48
10
0
20
0
30
0
70
128
71
17
72
16
73
20
0
VERTEX
8
OBJECT__48
10
0
20
0
30
0
70
128
71
13
72
21
73
14
0
VERTEX
8
OBJECT__48
10
0
20
0
30
0
70
128
71
22
72
23
73
21
0
VERTEX
8
OBJECT__48
10
0
20
0
30
0
70
128
71
22
72
19
73
18
0
VERTEX
8
OBJECT__48
10
0
20
0
30
0
70
128
71
7
72
24
73
1
0
VERTEX
8
OBJECT__48
10
0
20
0
30
0
70
128
71
20
72
10
73
17
0
VERTEX
8
OBJECT__48
10
0
20
0
30
0
70
128
71
21
72
13
73
22
0
VERTEX
8
OBJECT__48
10
0
20
0
30
0
70
128
71
19
72
24
73
7
0
VERTEX
8
OBJECT__48
10
0
20
0
30
0
70
128
71
10
72
25
73
8
0
VERTEX
8
OBJECT__48
10
0
20
0
30
0
70
128
71
20
72
25
73
10
0
VERTEX
8
OBJECT__48
10
0
20
0
30
0
70
128
71
18
72
23
73
22
0
SEQEND
8
OBJECT__48
0
POLYLINE
8
OBJECT__49
66
1
70
64
71
12
72
12
62
253
0
VERTEX
8
OBJECT__49
10
52.750000
20
0.000000
30
-954.690002
70
192
0
VERTEX
8
OBJECT__49
10
52.827999
20
0.000000
30
-957.684998
70
192
0
VERTEX
8
OBJECT__49
10
58.914001
20
-10.541000
30
-957.684998
70
192
0
VERTEX
8
OBJECT__49
10
65.000000
20
-12.250000
30
-954.690002
70
192
0
VERTEX
8
OBJECT__49
10
77.250000
20
0.000000
30
-954.690002
70
192
0
VERTEX
8
OBJECT__49
10
71.085999
20
-10.541000
30
-957.684998
70
192
0
VERTEX
8
OBJECT__49
10
65.000000
20
-10.541000
30
-957.684998
70
192
0
VERTEX
8
OBJECT__49
10
77.171997
20
0.000000
30
-957.684998
70
192
0
VERTEX
8
OBJECT__49
10
71.085999
20
10.541000
30
-957.684998
70
192
0
VERTEX
8
OBJECT__49
10
65.000000
20
12.250000
30
-954.690002
70
192
0
VERTEX
8
OBJECT__49
10
58.914001
20
10.541000
30
-957.684998
70
192
0
VERTEX
8
OBJECT__49
10
65.000000
20
10.541000
30
-957.684998
70
192
0
VERTEX
8
OBJECT__49
10
0
20
0
30
0
70
128
71
1
72
2
73
3
0
VERTEX
8
OBJECT__49
10
0
20
0
30
0
70
128
71
3
72
4
73
1
0
VERTEX
8
OBJECT__49
10
0
20
0
30
0
70
128
71
5
72
4
73
6
0
VERTEX
8
OBJECT__49
10
0
20
0
30
0
70
128
71
4
72
7
73
6
0
VERTEX
8
OBJECT__49
10
0
20
0
30
0
70
128
71
5
72
8
73
9
0
VERTEX
8
OBJECT__49
10
0
20
0
30
0
70
128
71
9
72
10
73
5
0
VERTEX
8
OBJECT__49
10
0
20
0
30
0
70
128
71
1
72
10
73
11
0
VERTEX
8
OBJECT__49
10
0
20
0
30
0
70
128
71
10
72
12
73
11
0
VERTEX
8
OBJECT__49
10
0
20
0
30
0
70
128
71
11
72
2
73
1
0
VERTEX
8
OBJECT__49
10
0
20
0
30
0
70
128
71
9
72
12
73
10
0
VERTEX
8
OBJECT__49
10
0
20
0
30
0
70
128
71
6
72
8
73
5
0
VERTEX
8
OBJECT__49
10
0
20
0
30
0
70
128
71
3
72
7
73
4
0
SEQEND
8
OBJECT__49
0
POLYLINE
8
OBJECT__50
66
1
70
64
71
9
72
8
62
253
0
VERTEX
8
OBJECT__50
10
65.000000
20
0.000000
30
-960.848022
70
192
0
VERTEX
8
OBJECT__50
10
71.085999
20
-10.541000
30
-957.684998
70
192
0
VERTEX
8
OBJECT__50
10
65.000000
20
-10.541000
30
-957.684998
70
192
0
VERTEX
8
OBJECT__50
10
58.914001
20
10.541000
30
-957.684998
70
192
0
VERTEX
8
OBJECT__50
10
65.000000
20
10.541000
30
-957.684998
70
192
0
VERTEX
8
OBJECT__50
10
52.827999
20
0.000000
30
-957.684998
70
192
0
VERTEX
8
OBJECT__50
10
71.085999
20
10.541000
30
-957.684998
70
192
0
VERTEX
8
OBJECT__50
10
77.171997
20
0.000000
30
-957.684998
70
192
0
VERTEX
8
OBJECT__50
10
58.914001
20
-10.541000
30
-957.684998
70
192
0
VERTEX
8
OBJECT__50
10
0
20
0
30
0
70
128
71
1
72
2
73
3
0
VERTEX
8
OBJECT__50
10
0
20
0
30
0
70
128
71
1
72
4
73
5
0
VERTEX
8
OBJECT__50
10
0
20
0
30
0
70
128
71
6
72
4
73
1
0
VERTEX
8
OBJECT__50
10
0
20
0
30
0
70
128
71
5
72
7
73
1
0
VERTEX
8
OBJECT__50
10
0
20
0
30
0
70
128
71
7
72
8
73
1
0
VERTEX
8
OBJECT__50
10
0
20
0
30
0
70
128
71
8
72
2
73
1
0
VERTEX
8
OBJECT__50
10
0
20
0
30
0
70
128
71
3
72
9
73
1
0
VERTEX
8
OBJECT__50
10
0
20
0
30
0
70
128
71
9
72
6
73
1
0
SEQEND
8
OBJECT__50
0
POLYLINE
8
OBJECT__52
66
1
70
64
71
10
72
10
62
253
0
VERTEX
8
OBJECT__52
10
52.160999
20
-17.250000
30
-450.518005
70
192
0
VERTEX
8
OBJECT__52
10
52.160999
20
-22.750000
30
-450.518005
70
192
0
VERTEX
8
OBJECT__52
10
65.000000
20
-22.750000
30
-441.190002
70
192
0
VERTEX
8
OBJECT__52
10
57.064999
20
-17.250000
30
-465.610992
70
192
0
VERTEX
8
OBJECT__52
10
57.064999
20
-22.750000
30
-465.610992
70
192
0
VERTEX
8
OBJECT__52
10
72.934998
20
-17.250000
30
-465.610992
70
192
0
VERTEX
8
OBJECT__52
10
72.934998
20
-22.750000
30
-465.610992
70
192
0
VERTEX
8
OBJECT__52
10
77.838997
20
-22.750000
30
-450.518005
70
192
0
VERTEX
8
OBJECT__52
10
77.838997
20
-17.250000
30
-450.518005
70
192
0
VERTEX
8
OBJECT__52
10
65.000000
20
-17.250000
30
-441.190002
70
192
0
VERTEX
8
OBJECT__52
10
0
20
0
30
0
70
128
71
1
72
2
73
3
0
VERTEX
8
OBJECT__52
10
0
20
0
30
0
70
128
71
4
72
5
73
2
0
VERTEX
8
OBJECT__52
10
0
20
0
30
0
70
128
71
6
72
7
73
5
0
VERTEX
8
OBJECT__52
10
0
20
0
30
0
70
128
71
8
72
7
73
6
0
VERTEX
8
OBJECT__52
10
0
20
0
30
0
70
128
71
3
72
8
73
9
0
VERTEX
8
OBJECT__52
10
0
20
0
30
0
70
128
71
9
72
10
73
3
0
VERTEX
8
OBJECT__52
10
0
20
0
30
0
70
128
71
6
72
9
73
8
0
VERTEX
8
OBJECT__52
10
0
20
0
30
0
70
128
71
5
72
4
73
6
0
VERTEX
8
OBJECT__52
10
0
20
0
30
0
70
128
71
2
72
1
73
4
0
VERTEX
8
OBJECT__52
10
0
20
0
30
0
70
128
71
3
72
10
73
1
0
SEQEND
8
OBJECT__52
0
POLYLINE
8
OBJECT__53
66
1
70
64
71
5
72
3
62
253
0
VERTEX
8
OBJECT__53
10
77.838997
20
-17.250000
30
-450.518005
70
192
0
VERTEX
8
OBJECT__53
10
57.064999
20
-17.250000
30
-465.610992
70
192
0
VERTEX
8
OBJECT__53
10
52.160999
20
-17.250000
30
-450.518005
70
192
0
VERTEX
8
OBJECT__53
10
65.000000
20
-17.250000
30
-441.190002
70
192
0
VERTEX
8
OBJECT__53
10
72.934998
20
-17.250000
30
-465.610992
70
192
0
VERTEX
8
OBJECT__53
10
0
20
0
30
0
70
128
71
1
72
2
73
3
0
VERTEX
8
OBJECT__53
10
0
20
0
30
0
70
128
71
3
72
4
73
1
0
VERTEX
8
OBJECT__53
10
0
20
0
30
0
70
128
71
1
72
5
73
2
0
SEQEND
8
OBJECT__53
0
POLYLINE
8
OBJECT__55
66
1
70
64
71
10
72
10
62
253
0
VERTEX
8
OBJECT__55
10
80.153000
20
53.400002
30
-436.545013
70
192
0
VERTEX
8
OBJECT__55
10
79.978996
20
53.400002
30
-437.529999
70
192
0
VERTEX
8
OBJECT__55
10
68.407997
20
65.150002
30
-435.489990
70
192
0
VERTEX
8
OBJECT__55
10
68.582001
20
41.650002
30
-434.505005
70
192
0
VERTEX
8
OBJECT__55
10
68.407997
20
41.650002
30
-435.489990
70
192
0
VERTEX
8
OBJECT__55
10
76.589996
20
45.091000
30
-436.933014
70
192
0
VERTEX
8
OBJECT__55
10
57.009998
20
53.400002
30
-432.464996
70
192
0
VERTEX
8
OBJECT__55
10
60.226002
20
45.091000
30
-434.046997
70
192
0
VERTEX
8
OBJECT__55
10
56.835999
20
53.400002
30
-433.449005
70
192
0
VERTEX
8
OBJECT__55
10
68.582001
20
65.150002
30
-434.505005
70
192
0
VERTEX
8
OBJECT__55
10
0
20
0
30
0
70
128
71
1
72
2
73
3
0
VERTEX
8
OBJECT__55
10
0
20
0
30
0
70
128
71
4
72
5
73
6
0
VERTEX
8
OBJECT__55
10
0
20
0
30
0
70
128
71
6
72
1
73
4
0
VERTEX
8
OBJECT__55
10
0
20
0
30
0
70
128
71
4
72
7
73
8
0
VERTEX
8
OBJECT__55
10
0
20
0
30
0
70
128
71
7
72
9
73
8
0
VERTEX
8
OBJECT__55
10
0
20
0
30
0
70
128
71
3
72
9
73
7
0
VERTEX
8
OBJECT__55
10
0
20
0
30
0
70
128
71
7
72
10
73
3
0
VERTEX
8
OBJECT__55
10
0
20
0
30
0
70
128
71
8
72
5
73
4
0
VERTEX
8
OBJECT__55
10
0
20
0
30
0
70
128
71
6
72
2
73
1
0
VERTEX
8
OBJECT__55
10
0
20
0
30
0
70
128
71
3
72
10
73
1
0
SEQEND
8
OBJECT__55
0
POLYLINE
8
OBJECT__56
66
1
70
64
71
13
72
13
62
253
0
VERTEX
8
OBJECT__56
10
76.589996
20
45.091000
30
-436.933014
70
192
0
VERTEX
8
OBJECT__56
10
73.675003
20
46.037998
30
-436.419006
70
192
0
VERTEX
8
OBJECT__56
10
76.931000
20
50.588001
30
-436.993011
70
192
0
VERTEX
8
OBJECT__56
10
68.407997
20
41.650002
30
-435.489990
70
192
0
VERTEX
8
OBJECT__56
10
68.407997
20
44.299999
30
-435.489990
70
192
0
VERTEX
8
OBJECT__56
10
60.226002
20
45.091000
30
-434.046997
70
192
0
VERTEX
8
OBJECT__56
10
63.139999
20
46.037998
30
-434.561005
70
192
0
VERTEX
8
OBJECT__56
10
79.978996
20
53.400002
30
-437.529999
70
192
0
VERTEX
8
OBJECT__56
10
56.835999
20
53.400002
30
-433.449005
70
192
0
VERTEX
8
OBJECT__56
10
68.407997
20
65.150002
30
-435.489990
70
192
0
VERTEX
8
OBJECT__56
10
76.931000
20
56.212002
30
-436.993011
70
192
0
VERTEX
8
OBJECT__56
10
59.884998
20
56.212002
30
-433.987000
70
192
0
VERTEX
8
OBJECT__56
10
68.407997
20
62.500000
30
-435.489990
70
192
0
VERTEX
8
OBJECT__56
10
0
20
0
30
0
70
128
71
1
72
2
73
3
0
VERTEX
8
OBJECT__56
10
0
20
0
30
0
70
128
71
4
72
5
73
2
0
VERTEX
8
OBJECT__56
10
0
20
0
30
0
70
128
71
4
72
6
73
7
0
VERTEX
8
OBJECT__56
10
0
20
0
30
0
70
128
71
3
72
8
73
1
0
VERTEX
8
OBJECT__56
10
0
20
0
30
0
70
128
71
7
72
5
73
4
0
VERTEX
8
OBJECT__56
10
0
20
0
30
0
70
128
71
2
72
1
73
4
0
VERTEX
8
OBJECT__56
10
0
20
0
30
0
70
128
71
7
72
6
73
9
0
VERTEX
8
OBJECT__56
10
0
20
0
30
0
70
128
71
10
72
8
73
11
0
VERTEX
8
OBJECT__56
10
0
20
0
30
0
70
128
71
9
72
12
73
7
0
VERTEX
8
OBJECT__56
10
0
20
0
30
0
70
128
71
3
72
11
73
8
0
VERTEX
8
OBJECT__56
10
0
20
0
30
0
70
128
71
11
72
13
73
10
0
VERTEX
8
OBJECT__56
10
0
20
0
30
0
70
128
71
13
72
12
73
10
0
VERTEX
8
OBJECT__56
10
0
20
0
30
0
70
128
71
12
72
9
73
10
0
SEQEND
8
OBJECT__56
0
POLYLINE
8
OBJECT__58
66
1
70
64
71
12
72
12
62
253
0
VERTEX
8
OBJECT__58
10
52.750000
20
0.000000
30
45.310001
70
192
0
VERTEX
8
OBJECT__58
10
52.827999
20
0.000000
30
48.306000
70
192
0
VERTEX
8
OBJECT__58
10
58.914001
20
10.541000
30
48.306000
70
192
0
VERTEX
8
OBJECT__58
10
65.000000
20
12.250000
30
45.310001
70
192
0
VERTEX
8
OBJECT__58
10
77.250000
20
0.000000
30
45.310001
70
192
0
VERTEX
8
OBJECT__58
10
71.085999
20
10.541000
30
48.306000
70
192
0
VERTEX
8
OBJECT__58
10
65.000000
20
10.541000
30
48.306000
70
192
0
VERTEX
8
OBJECT__58
10
77.171997
20
0.000000
30
48.306000
70
192
0
VERTEX
8
OBJECT__58
10
71.085999
20
-10.541000
30
48.306000
70
192
0
VERTEX
8
OBJECT__58
10
65.000000
20
-12.250000
30
45.310001
70
192
0
VERTEX
8
OBJECT__58
10
58.914001
20
-10.541000
30
48.306000
70
192
0
VERTEX
8
OBJECT__58
10
65.000000
20
-10.541000
30
48.306000
70
192
0
VERTEX
8
OBJECT__58
10
0
20
0
30
0
70
128
71
1
72
2
73
3
0
VERTEX
8
OBJECT__58
10
0
20
0
30
0
70
128
71
3
72
4
73
1
0
VERTEX
8
OBJECT__58
10
0
20
0
30
0
70
128
71
5
72
4
73
6
0
VERTEX
8
OBJECT__58
10
0
20
0
30
0
70
128
71
4
72
7
73
6
0
VERTEX
8
OBJECT__58
10
0
20
0
30
0
70
128
71
5
72
8
73
9
0
VERTEX
8
OBJECT__58
10
0
20
0
30
0
70
128
71
9
72
10
73
5
0
VERTEX
8
OBJECT__58
10
0
20
0
30
0
70
128
71
1
72
10
73
11
0
VERTEX
8
OBJECT__58
10
0
20
0
30
0
70
128
71
10
72
12
73
11
0
VERTEX
8
OBJECT__58
10
0
20
0
30
0
70
128
71
11
72
2
73
1
0
VERTEX
8
OBJECT__58
10
0
20
0
30
0
70
128
71
9
72
12
73
10
0
VERTEX
8
OBJECT__58
10
0
20
0
30
0
70
128
71
6
72
8
73
5
0
VERTEX
8
OBJECT__58
10
0
20
0
30
0
70
128
71
3
72
7
73
4
0
SEQEND
8
OBJECT__58
0
POLYLINE
8
OBJECT__59
66
1
70
64
71
9
72
8
62
253
0
VERTEX
8
OBJECT__59
10
65.000000
20
0.000000
30
51.469002
70
192
0
VERTEX
8
OBJECT__59
10
71.085999
20
10.541000
30
48.306000
70
192
0
VERTEX
8
OBJECT__59
10
65.000000
20
10.541000
30
48.306000
70
192
0
VERTEX
8
OBJECT__59
10
58.914001
20
-10.541000
30
48.306000
70
192
0
VERTEX
8
OBJECT__59
10
65.000000
20
-10.541000
30
48.306000
70
192
0
VERTEX
8
OBJECT__59
10
52.827999
20
0.000000
30
48.306000
70
192
0
VERTEX
8
OBJECT__59
10
71.085999
20
-10.541000
30
48.306000
70
192
0
VERTEX
8
OBJECT__59
10
77.171997
20
0.000000
30
48.306000
70
192
0
VERTEX
8
OBJECT__59
10
58.914001
20
10.541000
30
48.306000
70
192
0
VERTEX
8
OBJECT__59
10
0
20
0
30
0
70
128
71
1
72
2
73
3
0
VERTEX
8
OBJECT__59
10
0
20
0
30
0
70
128
71
1
72
4
73
5
0
VERTEX
8
OBJECT__59
10
0
20
0
30
0
70
128
71
6
72
4
73
1
0
VERTEX
8
OBJECT__59
10
0
20
0
30
0
70
128
71
5
72
7
73
1
0
VERTEX
8
OBJECT__59
10
0
20
0
30
0
70
128
71
7
72
8
73
1
0
VERTEX
8
OBJECT__59
10
0
20
0
30
0
70
128
71
8
72
2
73
1
0
VERTEX
8
OBJECT__59
10
0
20
0
30
0
70
128
71
3
72
9
73
1
0
VERTEX
8
OBJECT__59
10
0
20
0
30
0
70
128
71
9
72
6
73
1
0
SEQEND
8
OBJECT__59
0
POLYLINE
8
OBJECT__61
66
1
70
64
71
5
72
3
62
253
0
VERTEX
8
OBJECT__61
10
82.824997
20
16.650000
30
-452.184998
70
192
0
VERTEX
8
OBJECT__61
10
49.106998
20
16.650000
30
-446.239014
70
192
0
VERTEX
8
OBJECT__61
10
52.051998
20
16.650000
30
-467.194000
70
192
0
VERTEX
8
OBJECT__61
10
68.125999
20
16.650000
30
-436.963013
70
192
0
VERTEX
8
OBJECT__61
10
72.890999
20
16.650000
30
-470.868011
70
192
0
VERTEX
8
OBJECT__61
10
0
20
0
30
0
70
128
71
1
72
2
73
3
0
VERTEX
8
OBJECT__61
10
0
20
0
30
0
70
128
71
1
72
4
73
2
0
VERTEX
8
OBJECT__61
10
0
20
0
30
0
70
128
71
3
72
5
73
1
0
SEQEND
8
OBJECT__61
0
POLYLINE
8
OBJECT__62
66
1
70
64
71
16
72
16
62
253
0
VERTEX
8
OBJECT__62
10
68.125999
20
16.650000
30
-436.963013
70
192
0
VERTEX
8
OBJECT__62
10
68.125999
20
24.150000
30
-436.963013
70
192
0
VERTEX
8
OBJECT__62
10
53.090000
20
24.150000
30
-441.194000
70
192
0
VERTEX
8
OBJECT__62
10
49.106998
20
16.650000
30
-446.239014
70
192
0
VERTEX
8
OBJECT__62
10
52.051998
20
16.650000
30
-467.194000
70
192
0
VERTEX
8
OBJECT__62
10
47.021999
20
24.150000
30
-455.587006
70
192
0
VERTEX
8
OBJECT__62
10
50.682999
20
24.150000
30
-446.903015
70
192
0
VERTEX
8
OBJECT__62
10
72.890999
20
16.650000
30
-470.868011
70
192
0
VERTEX
8
OBJECT__62
10
54.493000
20
24.150000
30
-469.304993
70
192
0
VERTEX
8
OBJECT__62
10
69.875000
20
24.150000
30
-472.016998
70
192
0
VERTEX
8
OBJECT__62
10
53.048000
20
24.150000
30
-466.651001
70
192
0
VERTEX
8
OBJECT__62
10
72.139999
20
24.150000
30
-470.018005
70
192
0
VERTEX
8
OBJECT__62
10
81.586998
20
24.150000
30
-461.682007
70
192
0
VERTEX
8
OBJECT__62
10
82.824997
20
16.650000
30
-452.184998
70
192
0
VERTEX
8
OBJECT__62
10
80.807999
20
24.150000
30
-446.080994
70
192
0
VERTEX
8
OBJECT__62
10
81.116997
20
24.150000
30
-452.269989
70
192
0
VERTEX
8
OBJECT__62
10
0
20
0
30
0
70
128
71
1
72
2
73
3
0
VERTEX
8
OBJECT__62
10
0
20
0
30
0
70
128
71
3
72
4
73
1
0
VERTEX
8
OBJECT__62
10
0
20
0
30
0
70
128
71
5
72
4
73
6
0
VERTEX
8
OBJECT__62
10
0
20
0
30
0
70
128
71
4
72
7
73
6
0
VERTEX
8
OBJECT__62
10
0
20
0
30
0
70
128
71
8
72
5
73
9
0
VERTEX
8
OBJECT__62
10
0
20
0
30
0
70
128
71
9
72
10
73
8
0
VERTEX
8
OBJECT__62
10
0
20
0
30
0
70
128
71
5
72
11
73
9
0
VERTEX
8
OBJECT__62
10
0
20
0
30
0
70
128
71
8
72
12
73
13
0
VERTEX
8
OBJECT__62
10
0
20
0
30
0
70
128
71
13
72
14
73
8
0
VERTEX
8
OBJECT__62
10
0
20
0
30
0
70
128
71
1
72
14
73
15
0
VERTEX
8
OBJECT__62
10
0
20
0
30
0
70
128
71
14
72
16
73
15
0
VERTEX
8
OBJECT__62
10
0
20
0
30
0
70
128
71
15
72
2
73
1
0
VERTEX
8
OBJECT__62
10
0
20
0
30
0
70
128
71
13
72
16
73
14
0
VERTEX
8
OBJECT__62
10
0
20
0
30
0
70
128
71
10
72
12
73
8
0
VERTEX
8
OBJECT__62
10
0
20
0
30
0
70
128
71
6
72
11
73
5
0
VERTEX
8
OBJECT__62
10
0
20
0
30
0
70
128
71
3
72
7
73
4
0
SEQEND
8
OBJECT__62
0
POLYLINE
8
OBJECT__64
66
1
70
64
71
21
72
21
62
253
0
VERTEX
8
OBJECT__64
10
53.090000
20
24.150000
30
-441.194000
70
192
0
VERTEX
8
OBJECT__64
10
68.125999
20
24.150000
30
-436.963013
70
192
0
VERTEX
8
OBJECT__64
10
66.997002
20
24.341999
30
-443.364014
70
192
0
VERTEX
8
OBJECT__64
10
47.021999
20
24.150000
30
-455.587006
70
192
0
VERTEX
8
OBJECT__64
10
50.682999
20
24.150000
30
-446.903015
70
192
0
VERTEX
8
OBJECT__64
10
54.458000
20
24.341999
30
-453.023010
70
192
0
VERTEX
8
OBJECT__64
10
57.390999
20
24.341999
30
-446.066986
70
192
0
VERTEX
8
OBJECT__64
10
53.048000
20
24.150000
30
-466.651001
70
192
0
VERTEX
8
OBJECT__64
10
53.514000
20
24.341999
30
-455.263000
70
192
0
VERTEX
8
OBJECT__64
10
58.286999
20
24.341999
30
-464.027008
70
192
0
VERTEX
8
OBJECT__64
10
54.493000
20
24.150000
30
-469.304993
70
192
0
VERTEX
8
OBJECT__64
10
69.875000
20
24.150000
30
-472.016998
70
192
0
VERTEX
8
OBJECT__64
10
63.201000
20
24.341999
30
-464.893005
70
192
0
VERTEX
8
OBJECT__64
10
72.139999
20
24.150000
30
-470.018005
70
192
0
VERTEX
8
OBJECT__64
10
68.114998
20
24.341999
30
-465.760010
70
192
0
VERTEX
8
OBJECT__64
10
75.597000
20
24.341999
30
-459.157013
70
192
0
VERTEX
8
OBJECT__64
10
81.586998
20
24.150000
30
-461.682007
70
192
0
VERTEX
8
OBJECT__64
10
75.475998
20
24.341999
30
-456.729004
70
192
0
VERTEX
8
OBJECT__64
10
81.116997
20
24.150000
30
-452.269989
70
192
0
VERTEX
8
OBJECT__64
10
75.099998
20
24.341999
30
-449.190002
70
192
0
VERTEX
8
OBJECT__64
10
80.807999
20
24.150000
30
-446.080994
70
192
0
VERTEX
8
OBJECT__64
10
0
20
0
30
0
70
128
71
1
72
2
73
3
0
VERTEX
8
OBJECT__64
10
0
20
0
30
0
70
128
71
4
72
5
73
6
0
VERTEX
8
OBJECT__64
10
0
20
0
30
0
70
128
71
7
72
6
73
5
0
VERTEX
8
OBJECT__64
10
0
20
0
30
0
70
128
71
5
72
1
73
7
0
VERTEX
8
OBJECT__64
10
0
20
0
30
0
70
128
71
8
72
4
73
9
0
VERTEX
8
OBJECT__64
10
0
20
0
30
0
70
128
71
10
72
11
73
8
0
VERTEX
8
OBJECT__64
10
0
20
0
30
0
70
128
71
12
72
11
73
13
0
VERTEX
8
OBJECT__64
10
0
20
0
30
0
70
128
71
11
72
10
73
13
0
VERTEX
8
OBJECT__64
10
0
20
0
30
0
70
128
71
14
72
15
73
16
0
VERTEX
8
OBJECT__64
10
0
20
0
30
0
70
128
71
16
72
17
73
14
0
VERTEX
8
OBJECT__64
10
0
20
0
30
0
70
128
71
17
72
16
73
18
0
VERTEX
8
OBJECT__64
10
0
20
0
30
0
70
128
71
18
72
19
73
17
0
VERTEX
8
OBJECT__64
10
0
20
0
30
0
70
128
71
20
72
21
73
19
0
VERTEX
8
OBJECT__64
10
0
20
0
30
0
70
128
71
2
72
21
73
20
0
VERTEX
8
OBJECT__64
10
0
20
0
30
0
70
128
71
20
72
3
73
2
0
VERTEX
8
OBJECT__64
10
0
20
0
30
0
70
128
71
18
72
20
73
19
0
VERTEX
8
OBJECT__64
10
0
20
0
30
0
70
128
71
14
72
12
73
15
0
VERTEX
8
OBJECT__64
10
0
20
0
30
0
70
128
71
13
72
15
73
12
0
VERTEX
8
OBJECT__64
10
0
20
0
30
0
70
128
71
9
72
10
73
8
0
VERTEX
8
OBJECT__64
10
0
20
0
30
0
70
128
71
6
72
9
73
4
0
VERTEX
8
OBJECT__64
10
0
20
0
30
0
70
128
71
3
72
7
73
1
0
SEQEND
8
OBJECT__64
0
POLYLINE
8
OBJECT__65
66
1
70
64
71
22
72
22
62
253
0
VERTEX
8
OBJECT__65
10
56.020000
20
41.634998
30
-447.506012
70
192
0
VERTEX
8
OBJECT__65
10
54.458000
20
24.341999
30
-453.023010
70
192
0
VERTEX
8
OBJECT__65
10
57.390999
20
24.341999
30
-446.066986
70
192
0
VERTEX
8
OBJECT__65
10
63.249001
20
38.348000
30
-443.324005
70
192
0
VERTEX
8
OBJECT__65
10
66.997002
20
24.341999
30
-443.364014
70
192
0
VERTEX
8
OBJECT__65
10
66.997002
20
37.900002
30
-443.364014
70
192
0
VERTEX
8
OBJECT__65
10
63.201000
20
24.341999
30
-464.893005
70
192
0
VERTEX
8
OBJECT__65
10
58.286999
20
24.341999
30
-464.027008
70
192
0
VERTEX
8
OBJECT__65
10
59.127998
20
38.443001
30
-464.578003
70
192
0
VERTEX
8
OBJECT__65
10
53.514000
20
24.341999
30
-455.263000
70
192
0
VERTEX
8
OBJECT__65
10
54.389999
20
42.261002
30
-452.907990
70
192
0
VERTEX
8
OBJECT__65
10
53.544998
20
42.585999
30
-455.707001
70
192
0
VERTEX
8
OBJECT__65
10
75.597000
20
24.341999
30
-459.157013
70
192
0
VERTEX
8
OBJECT__65
10
68.114998
20
24.341999
30
-465.760010
70
192
0
VERTEX
8
OBJECT__65
10
68.695999
20
38.919998
30
-465.579987
70
192
0
VERTEX
8
OBJECT__65
10
75.889000
20
42.861000
30
-458.386993
70
192
0
VERTEX
8
OBJECT__65
10
75.723999
20
42.473999
30
-456.743988
70
192
0
VERTEX
8
OBJECT__65
10
75.475998
20
24.341999
30
-456.729004
70
192
0
VERTEX
8
OBJECT__65
10
63.110001
20
38.640999
30
-464.994995
70
192
0
VERTEX
8
OBJECT__65
10
63.145000
20
38.643002
30
-464.997986
70
192
0
VERTEX
8
OBJECT__65
10
74.931999
20
40.623001
30
-448.893005
70
192
0
VERTEX
8
OBJECT__65
10
75.099998
20
24.341999
30
-449.190002
70
192
0
VERTEX
8
OBJECT__65
10
0
20
0
30
0
70
128
71
1
72
2
73
3
0
VERTEX
8
OBJECT__65
10
0
20
0
30
0
70
128
71
3
72
4
73
1
0
VERTEX
8
OBJECT__65
10
0
20
0
30
0
70
128
71
5
72
6
73
4
0
VERTEX
8
OBJECT__65
10
0
20
0
30
0
70
128
71
4
72
3
73
5
0
VERTEX
8
OBJECT__65
10
0
20
0
30
0
70
128
71
7
72
8
73
9
0
VERTEX
8
OBJECT__65
10
0
20
0
30
0
70
128
71
10
72
2
73
11
0
VERTEX
8
OBJECT__65
10
0
20
0
30
0
70
128
71
10
72
12
73
9
0
VERTEX
8
OBJECT__65
10
0
20
0
30
0
70
128
71
9
72
8
73
10
0
VERTEX
8
OBJECT__65
10
0
20
0
30
0
70
128
71
11
72
12
73
10
0
VERTEX
8
OBJECT__65
10
0
20
0
30
0
70
128
71
13
72
14
73
15
0
VERTEX
8
OBJECT__65
10
0
20
0
30
0
70
128
71
13
72
16
73
17
0
VERTEX
8
OBJECT__65
10
0
20
0
30
0
70
128
71
17
72
18
73
13
0
VERTEX
8
OBJECT__65
10
0
20
0
30
0
70
128
71
7
72
19
73
20
0
VERTEX
8
OBJECT__65
10
0
20
0
30
0
70
128
71
20
72
14
73
7
0
VERTEX
8
OBJECT__65
10
0
20
0
30
0
70
128
71
20
72
15
73
14
0
VERTEX
8
OBJECT__65
10
0
20
0
30
0
70
128
71
18
72
17
73
21
0
VERTEX
8
OBJECT__65
10
0
20
0
30
0
70
128
71
22
72
21
73
6
0
VERTEX
8
OBJECT__65
10
0
20
0
30
0
70
128
71
6
72
5
73
22
0
VERTEX
8
OBJECT__65
10
0
20
0
30
0
70
128
71
21
72
22
73
18
0
VERTEX
8
OBJECT__65
10
0
20
0
30
0
70
128
71
15
72
16
73
13
0
VERTEX
8
OBJECT__65
10
0
20
0
30
0
70
128
71
9
72
19
73
7
0
VERTEX
8
OBJECT__65
10
0
20
0
30
0
70
128
71
1
72
11
73
2
0
SEQEND
8
OBJECT__65
0
POLYLINE
8
OBJECT__66
66
1
70
64
71
22
72
22
62
253
0
VERTEX
8
OBJECT__66
10
82.443001
20
48.528000
30
-440.502991
70
192
0
VERTEX
8
OBJECT__66
10
76.539001
20
48.528000
30
-473.987000
70
192
0
VERTEX
8
OBJECT__66
10
71.156998
20
65.836998
30
-473.037994
70
192
0
VERTEX
8
OBJECT__66
10
52.938999
20
65.836998
30
-469.825012
70
192
0
VERTEX
8
OBJECT__66
10
47.556999
20
48.528000
30
-468.876007
70
192
0
VERTEX
8
OBJECT__66
10
53.460999
20
48.528000
30
-435.393005
70
192
0
VERTEX
8
OBJECT__66
10
62.048000
20
37.900002
30
-471.431000
70
192
0
VERTEX
8
OBJECT__66
10
68.695999
20
38.919998
30
-465.579987
70
192
0
VERTEX
8
OBJECT__66
10
75.889000
20
42.861000
30
-458.386993
70
192
0
VERTEX
8
OBJECT__66
10
75.723999
20
42.473999
30
-456.743988
70
192
0
VERTEX
8
OBJECT__66
10
74.931999
20
40.623001
30
-448.893005
70
192
0
VERTEX
8
OBJECT__66
10
67.952003
20
37.900002
30
-437.947998
70
192
0
VERTEX
8
OBJECT__66
10
66.997002
20
37.900002
30
-443.364014
70
192
0
VERTEX
8
OBJECT__66
10
63.249001
20
38.348000
30
-443.324005
70
192
0
VERTEX
8
OBJECT__66
10
56.020000
20
41.634998
30
-447.506012
70
192
0
VERTEX
8
OBJECT__66
10
53.544998
20
42.585999
30
-455.707001
70
192
0
VERTEX
8
OBJECT__66
10
54.389999
20
42.261002
30
-452.907990
70
192
0
VERTEX
8
OBJECT__66
10
63.110001
20
38.640999
30
-464.994995
70
192
0
VERTEX
8
OBJECT__66
10
59.127998
20
38.443001
30
-464.578003
70
192
0
VERTEX
8
OBJECT__66
10
63.145000
20
38.643002
30
-464.997986
70
192
0
VERTEX
8
OBJECT__66
10
58.842999
20
65.836998
30
-436.342010
70
192
0
VERTEX
8
OBJECT__66
10
77.060997
20
65.836998
30
-439.553986
70
192
0
VERTEX
8
OBJECT__66
10
0
20
0
30
0
70
128
71
1
72
2
73
3
0
VERTEX
8
OBJECT__66
10
0
20
0
30
0
70
128
71
4
72
5
73
6
0
VERTEX
8
OBJECT__66
10
0
20
0
30
0
70
128
71
7
72
2
73
8
0
VERTEX
8
OBJECT__66
10
0
20
0
30
0
70
128
71
2
72
9
73
8
0
VERTEX
8
OBJECT__66
10
0
20
0
30
0
70
128
71
1
72
10
73
9
0
VERTEX
8
OBJECT__66
10
0
20
0
30
0
70
128
71
1
72
11
73
10
0
VERTEX
8
OBJECT__66
10
0
20
0
30
0
70
128
71
1
72
12
73
13
0
VERTEX
8
OBJECT__66
10
0
20
0
30
0
70
128
71
13
72
11
73
1
0
VERTEX
8
OBJECT__66
10
0
20
0
30
0
70
128
71
9
72
2
73
1
0
VERTEX
8
OBJECT__66
10
0
20
0
30
0
70
128
71
12
72
6
73
14
0
VERTEX
8
OBJECT__66
10
0
20
0
30
0
70
128
71
6
72
15
73
14
0
VERTEX
8
OBJECT__66
10
0
20
0
30
0
70
128
71
6
72
5
73
16
0
VERTEX
8
OBJECT__66
10
0
20
0
30
0
70
128
71
16
72
17
73
6
0
VERTEX
8
OBJECT__66
10
0
20
0
30
0
70
128
71
17
72
15
73
6
0
VERTEX
8
OBJECT__66
10
0
20
0
30
0
70
128
71
7
72
18
73
19
0
VERTEX
8
OBJECT__66
10
0
20
0
30
0
70
128
71
7
72
20
73
18
0
VERTEX
8
OBJECT__66
10
0
20
0
30
0
70
128
71
19
72
5
73
7
0
VERTEX
8
OBJECT__66
10
0
20
0
30
0
70
128
71
19
72
16
73
5
0
VERTEX
8
OBJECT__66
10
0
20
0
30
0
70
128
71
14
72
13
73
12
0
VERTEX
8
OBJECT__66
10
0
20
0
30
0
70
128
71
8
72
20
73
7
0
VERTEX
8
OBJECT__66
10
0
20
0
30
0
70
128
71
6
72
21
73
4
0
VERTEX
8
OBJECT__66
10
0
20
0
30
0
70
128
71
3
72
22
73
1
0
SEQEND
8
OBJECT__66
0
POLYLINE
8
OBJECT__67
66
1
70
64
71
10
72
8
62
253
0
VERTEX
8
OBJECT__67
10
53.460999
20
48.528000
30
-435.393005
70
192
0
VERTEX
8
OBJECT__67
10
55.632999
20
48.596001
30
-435.776001
70
192
0
VERTEX
8
OBJECT__67
10
58.842999
20
63.095001
30
-436.342010
70
192
0
VERTEX
8
OBJECT__67
10
67.952003
20
37.900002
30
-437.947998
70
192
0
VERTEX
8
OBJECT__67
10
67.952003
20
40.000000
30
-437.947998
70
192
0
VERTEX
8
OBJECT__67
10
82.443001
20
48.528000
30
-440.502991
70
192
0
VERTEX
8
OBJECT__67
10
80.271004
20
48.596001
30
-440.119995
70
192
0
VERTEX
8
OBJECT__67
10
77.060997
20
65.836998
30
-439.553986
70
192
0
VERTEX
8
OBJECT__67
10
77.060997
20
63.095001
30
-439.553986
70
192
0
VERTEX
8
OBJECT__67
10
58.842999
20
65.836998
30
-436.342010
70
192
0
VERTEX
8
OBJECT__67
10
0
20
0
30
0
70
128
71
1
72
2
73
3
0
VERTEX
8
OBJECT__67
10
0
20
0
30
0
70
128
71
4
72
5
73
2
0
VERTEX
8
OBJECT__67
10
0
20
0
30
0
70
128
71
4
72
6
73
7
0
VERTEX
8
OBJECT__67
10
0
20
0
30
0
70
128
71
6
72
8
73
9
0
VERTEX
8
OBJECT__67
10
0
20
0
30
0
70
128
71
2
72
1
73
4
0
VERTEX
8
OBJECT__67
10
0
20
0
30
0
70
128
71
9
72
7
73
6
0
VERTEX
8
OBJECT__67
10
0
20
0
30
0
70
128
71
7
72
5
73
4
0
VERTEX
8
OBJECT__67
10
0
20
0
30
0
70
128
71
3
72
10
73
1
0
SEQEND
8
OBJECT__67
0
POLYLINE
8
OBJECT__68
66
1
70
64
71
5
72
3
62
253
0
VERTEX
8
OBJECT__68
10
77.060997
20
65.836998
30
-439.553986
70
192
0
VERTEX
8
OBJECT__68
10
71.156998
20
65.836998
30
-473.037994
70
192
0
VERTEX
8
OBJECT__68
10
74.473999
20
61.984001
30
-454.229004
70
192
0
VERTEX
8
OBJECT__68
10
71.156998
20
60.430000
30
-473.037994
70
192
0
VERTEX
8
OBJECT__68
10
77.060997
20
63.095001
30
-439.553986
70
192
0
VERTEX
8
OBJECT__68
10
0
20
0
30
0
70
128
71
1
72
2
73
3
0
VERTEX
8
OBJECT__68
10
0
20
0
30
0
70
128
71
2
72
4
73
3
0
VERTEX
8
OBJECT__68
10
0
20
0
30
0
70
128
71
3
72
5
73
1
0
SEQEND
8
OBJECT__68
0
POLYLINE
8
OBJECT__69
66
1
70
64
71
5
72
3
62
253
0
VERTEX
8
OBJECT__69
10
58.842999
20
65.836998
30
-436.342010
70
192
0
VERTEX
8
OBJECT__69
10
58.842999
20
63.095001
30
-436.342010
70
192
0
VERTEX
8
OBJECT__69
10
56.255001
20
61.984001
30
-451.016998
70
192
0
VERTEX
8
OBJECT__69
10
52.938999
20
65.836998
30
-469.825012
70
192
0
VERTEX
8
OBJECT__69
10
52.938999
20
60.430000
30
-469.825012
70
192
0
VERTEX
8
OBJECT__69
10
0
20
0
30
0
70
128
71
1
72
2
73
3
0
VERTEX
8
OBJECT__69
10
0
20
0
30
0
70
128
71
3
72
4
73
1
0
VERTEX
8
OBJECT__69
10
0
20
0
30
0
70
128
71
3
72
5
73
4
0
SEQEND
8
OBJECT__69
0
POLYLINE
8
OBJECT__70
66
1
70
64
71
12
72
10
62
253
0
VERTEX
8
OBJECT__70
10
55.632999
20
48.596001
30
-435.776001
70
192
0
VERTEX
8
OBJECT__70
10
67.952003
20
40.000000
30
-437.947998
70
192
0
VERTEX
8
OBJECT__70
10
62.048000
20
41.782001
30
-471.431000
70
192
0
VERTEX
8
OBJECT__70
10
80.271004
20
48.596001
30
-440.119995
70
192
0
VERTEX
8
OBJECT__70
10
72.728996
20
49.235001
30
-473.315002
70
192
0
VERTEX
8
OBJECT__70
10
74.473999
20
61.984001
30
-454.229004
70
192
0
VERTEX
8
OBJECT__70
10
77.060997
20
63.095001
30
-439.553986
70
192
0
VERTEX
8
OBJECT__70
10
51.367001
20
49.235001
30
-469.548004
70
192
0
VERTEX
8
OBJECT__70
10
52.938999
20
60.430000
30
-469.825012
70
192
0
VERTEX
8
OBJECT__70
10
56.255001
20
61.984001
30
-451.016998
70
192
0
VERTEX
8
OBJECT__70
10
58.842999
20
63.095001
30
-436.342010
70
192
0
VERTEX
8
OBJECT__70
10
71.156998
20
60.430000
30
-473.037994
70
192
0
VERTEX
8
OBJECT__70
10
0
20
0
30
0
70
128
71
1
72
2
73
3
0
VERTEX
8
OBJECT__70
10
0
20
0
30
0
70
128
71
4
72
5
73
3
0
VERTEX
8
OBJECT__70
10
0
20
0
30
0
70
128
71
5
72
4
73
6
0
VERTEX
8
OBJECT__70
10
0
20
0
30
0
70
128
71
4
72
7
73
6
0
VERTEX
8
OBJECT__70
10
0
20
0
30
0
70
128
71
8
72
9
73
10
0
VERTEX
8
OBJECT__70
10
0
20
0
30
0
70
128
71
10
72
1
73
8
0
VERTEX
8
OBJECT__70
10
0
20
0
30
0
70
128
71
10
72
11
73
1
0
VERTEX
8
OBJECT__70
10
0
20
0
30
0
70
128
71
6
72
12
73
5
0
VERTEX
8
OBJECT__70
10
0
20
0
30
0
70
128
71
3
72
2
73
4
0
VERTEX
8
OBJECT__70
10
0
20
0
30
0
70
128
71
3
72
8
73
1
0
SEQEND
8
OBJECT__70
0
POLYLINE
8
OBJECT__71
66
1
70
64
71
10
72
8
62
253
0
VERTEX
8
OBJECT__71
10
76.539001
20
48.528000
30
-473.987000
70
192
0
VERTEX
8
OBJECT__71
10
72.728996
20
49.235001
30
-473.315002
70
192
0
VERTEX
8
OBJECT__71
10
71.156998
20
60.430000
30
-473.037994
70
192
0
VERTEX
8
OBJECT__71
10
62.048000
20
37.900002
30
-471.431000
70
192
0
VERTEX
8
OBJECT__71
10
62.048000
20
41.782001
30
-471.431000
70
192
0
VERTEX
8
OBJECT__71
10
47.556999
20
48.528000
30
-468.876007
70
192
0
VERTEX
8
OBJECT__71
10
51.367001
20
49.235001
30
-469.548004
70
192
0
VERTEX
8
OBJECT__71
10
52.938999
20
65.836998
30
-469.825012
70
192
0
VERTEX
8
OBJECT__71
10
52.938999
20
60.430000
30
-469.825012
70
192
0
VERTEX
8
OBJECT__71
10
71.156998
20
65.836998
30
-473.037994
70
192
0
VERTEX
8
OBJECT__71
10
0
20
0
30
0
70
128
71
1
72
2
73
3
0
VERTEX
8
OBJECT__71
10
0
20
0
30
0
70
128
71
4
72
5
73
2
0
VERTEX
8
OBJECT__71
10
0
20
0
30
0
70
128
71
4
72
6
73
7
0
VERTEX
8
OBJECT__71
10
0
20
0
30
0
70
128
71
6
72
8
73
9
0
VERTEX
8
OBJECT__71
10
0
20
0
30
0
70
128
71
2
72
1
73
4
0
VERTEX
8
OBJECT__71
10
0
20
0
30
0
70
128
71
9
72
7
73
6
0
VERTEX
8
OBJECT__71
10
0
20
0
30
0
70
128
71
7
72
5
73
4
0
VERTEX
8
OBJECT__71
10
0
20
0
30
0
70
128
71
3
72
10
73
1
0
SEQEND
8
OBJECT__71
0
POLYLINE
8
OBJECT__72
66
1
70
64
71
5
72
3
62
253
0
VERTEX
8
OBJECT__72
10
52.160999
20
-43.650002
30
-450.518005
70
192
0
VERTEX
8
OBJECT__72
10
72.934998
20
-43.650002
30
-465.610992
70
192
0
VERTEX
8
OBJECT__72
10
77.838997
20
-43.650002
30
-450.518005
70
192
0
VERTEX
8
OBJECT__72
10
65.000000
20
-43.650002
30
-441.190002
70
192
0
VERTEX
8
OBJECT__72
10
57.064999
20
-43.650002
30
-465.610992
70
192
0
VERTEX
8
OBJECT__72
10
0
20
0
30
0
70
128
71
1
72
2
73
3
0
VERTEX
8
OBJECT__72
10
0
20
0
30
0
70
128
71
3
72
4
73
1
0
VERTEX
8
OBJECT__72
10
0
20
0
30
0
70
128
71
1
72
5
73
2
0
SEQEND
8
OBJECT__72
0
POLYLINE
8
OBJECT__73
66
1
70
64
71
20
72
22
62
253
0
VERTEX
8
OBJECT__73
10
57.064999
20
-24.750000
30
-465.610992
70
192
0
VERTEX
8
OBJECT__73
10
57.064999
20
-43.650002
30
-465.610992
70
192
0
VERTEX
8
OBJECT__73
10
52.160999
20
-43.650002
30
-450.518005
70
192
0
VERTEX
8
OBJECT__73
10
72.934998
20
-24.750000
30
-465.610992
70
192
0
VERTEX
8
OBJECT__73
10
72.934998
20
-43.650002
30
-465.610992
70
192
0
VERTEX
8
OBJECT__73
10
77.838997
20
-43.650002
30
-450.518005
70
192
0
VERTEX
8
OBJECT__73
10
65.000000
20
-43.650002
30
-441.190002
70
192
0
VERTEX
8
OBJECT__73
10
67.960999
20
-40.139000
30
-441.519012
70
192
0
VERTEX
8
OBJECT__73
10
77.838997
20
-24.750000
30
-450.518005
70
192
0
VERTEX
8
OBJECT__73
10
68.319000
20
-35.217999
30
-441.604004
70
192
0
VERTEX
8
OBJECT__73
10
68.161003
20
-37.389000
30
-441.566010
70
192
0
VERTEX
8
OBJECT__73
10
65.000000
20
-24.750000
30
-441.190002
70
192
0
VERTEX
8
OBJECT__73
10
66.200996
20
-33.634998
30
-441.243011
70
192
0
VERTEX
8
OBJECT__73
10
65.000000
20
-33.450001
30
-441.190002
70
192
0
VERTEX
8
OBJECT__73
10
52.160999
20
-24.750000
30
-450.518005
70
192
0
VERTEX
8
OBJECT__73
10
61.113998
20
-36.502998
30
-441.760986
70
192
0
VERTEX
8
OBJECT__73
10
61.448002
20
-37.250000
30
-441.687988
70
192
0
VERTEX
8
OBJECT__73
10
63.118000
20
-40.979000
30
-441.321991
70
192
0
VERTEX
8
OBJECT__73
10
64.865997
20
-40.675999
30
-441.393005
70
192
0
VERTEX
8
OBJECT__73
10
64.991997
20
-40.653999
30
-441.398010
70
192
0
VERTEX
8
OBJECT__73
10
0
20
0
30
0
70
128
71
1
72
2
73
3
0
VERTEX
8
OBJECT__73
10
0
20
0
30
0
70
128
71
4
72
5
73
2
0
VERTEX
8
OBJECT__73
10
0
20
0
30
0
70
128
71
6
72
5
73
4
0
VERTEX
8
OBJECT__73
10
0
20
0
30
0
70
128
71
7
72
6
73
8
0
VERTEX
8
OBJECT__73
10
0
20
0
30
0
70
128
71
6
72
9
73
10
0
VERTEX
8
OBJECT__73
10
0
20
0
30
0
70
128
71
10
72
11
73
6
0
VERTEX
8
OBJECT__73
10
0
20
0
30
0
70
128
71
9
72
12
73
13
0
VERTEX
8
OBJECT__73
10
0
20
0
30
0
70
128
71
12
72
14
73
13
0
VERTEX
8
OBJECT__73
10
0
20
0
30
0
70
128
71
13
72
10
73
9
0
VERTEX
8
OBJECT__73
10
0
20
0
30
0
70
128
71
11
72
8
73
6
0
VERTEX
8
OBJECT__73
10
0
20
0
30
0
70
128
71
15
72
16
73
14
0
VERTEX
8
OBJECT__73
10
0
20
0
30
0
70
128
71
3
72
17
73
16
0
VERTEX
8
OBJECT__73
10
0
20
0
30
0
70
128
71
3
72
18
73
17
0
VERTEX
8
OBJECT__73
10
0
20
0
30
0
70
128
71
16
72
15
73
3
0
VERTEX
8
OBJECT__73
10
0
20
0
30
0
70
128
71
7
72
19
73
18
0
VERTEX
8
OBJECT__73
10
0
20
0
30
0
70
128
71
7
72
20
73
19
0
VERTEX
8
OBJECT__73
10
0
20
0
30
0
70
128
71
18
72
3
73
7
0
VERTEX
8
OBJECT__73
10
0
20
0
30
0
70
128
71
14
72
12
73
15
0
VERTEX
8
OBJECT__73
10
0
20
0
30
0
70
128
71
8
72
20
73
7
0
VERTEX
8
OBJECT__73
10
0
20
0
30
0
70
128
71
4
72
9
73
6
0
VERTEX
8
OBJECT__73
10
0
20
0
30
0
70
128
71
2
72
1
73
4
0
VERTEX
8
OBJECT__73
10
0
20
0
30
0
70
128
71
3
72
15
73
1
0
SEQEND
8
OBJECT__73
0
POLYLINE
8
OBJECT__75
66
1
70
64
71
14
72
14
62
253
0
VERTEX
8
OBJECT__75
10
61.000000
20
-37.450001
30
-432.690002
70
192
0
VERTEX
8
OBJECT__75
10
65.000000
20
-33.450001
30
-432.690002
70
192
0
VERTEX
8
OBJECT__75
10
65.000000
20
-33.450001
30
-441.190002
70
192
0
VERTEX
8
OBJECT__75
10
61.113998
20
-36.502998
30
-441.760986
70
192
0
VERTEX
8
OBJECT__75
10
61.448002
20
-37.250000
30
-441.687988
70
192
0
VERTEX
8
OBJECT__75
10
63.118000
20
-40.979000
30
-441.321991
70
192
0
VERTEX
8
OBJECT__75
10
65.000000
20
-41.450001
30
-432.690002
70
192
0
VERTEX
8
OBJECT__75
10
64.991997
20
-40.653999
30
-441.398010
70
192
0
VERTEX
8
OBJECT__75
10
67.960999
20
-40.139000
30
-441.519012
70
192
0
VERTEX
8
OBJECT__75
10
69.000000
20
-37.450001
30
-432.690002
70
192
0
VERTEX
8
OBJECT__75
10
64.865997
20
-40.675999
30
-441.393005
70
192
0
VERTEX
8
OBJECT__75
10
68.319000
20
-35.217999
30
-441.604004
70
192
0
VERTEX
8
OBJECT__75
10
66.200996
20
-33.634998
30
-441.243011
70
192
0
VERTEX
8
OBJECT__75
10
68.161003
20
-37.389000
30
-441.566010
70
192
0
VERTEX
8
OBJECT__75
10
0
20
0
30
0
70
128
71
1
72
2
73
3
0
VERTEX
8
OBJECT__75
10
0
20
0
30
0
70
128
71
3
72
4
73
1
0
VERTEX
8
OBJECT__75
10
0
20
0
30
0
70
128
71
1
72
5
73
6
0
VERTEX
8
OBJECT__75
10
0
20
0
30
0
70
128
71
6
72
7
73
1
0
VERTEX
8
OBJECT__75
10
0
20
0
30
0
70
128
71
7
72
8
73
9
0
VERTEX
8
OBJECT__75
10
0
20
0
30
0
70
128
71
9
72
10
73
7
0
VERTEX
8
OBJECT__75
10
0
20
0
30
0
70
128
71
7
72
11
73
8
0
VERTEX
8
OBJECT__75
10
0
20
0
30
0
70
128
71
10
72
12
73
13
0
VERTEX
8
OBJECT__75
10
0
20
0
30
0
70
128
71
10
72
14
73
12
0
VERTEX
8
OBJECT__75
10
0
20
0
30
0
70
128
71
13
72
2
73
10
0
VERTEX
8
OBJECT__75
10
0
20
0
30
0
70
128
71
13
72
3
73
2
0
VERTEX
8
OBJECT__75
10
0
20
0
30
0
70
128
71
9
72
14
73
10
0
VERTEX
8
OBJECT__75
10
0
20
0
30
0
70
128
71
6
72
11
73
7
0
VERTEX
8
OBJECT__75
10
0
20
0
30
0
70
128
71
4
72
5
73
1
0
SEQEND
8
OBJECT__75
0
POLYLINE
8
OBJECT__76
66
1
70
64
71
4
72
2
62
253
0
VERTEX
8
OBJECT__76
10
65.000000
20
-41.450001
30
-432.690002
70
192
0
VERTEX
8
OBJECT__76
10
69.000000
20
-37.450001
30
-432.690002
70
192
0
VERTEX
8
OBJECT__76
10
65.000000
20
-33.450001
30
-432.690002
70
192
0
VERTEX
8
OBJECT__76
10
61.000000
20
-37.450001
30
-432.690002
70
192
0
VERTEX
8
OBJECT__76
10
0
20
0
30
0
70
128
71
1
72
2
73
3
0
VERTEX
8
OBJECT__76
10
0
20
0
30
0
70
128
71
3
72
4
73
1
0
SEQEND
8
OBJECT__76
0
POLYLINE
8
OBJECT__77
66
1
70
64
71
10
72
10
62
253
0
VERTEX
8
OBJECT__77
10
47.881001
20
-24.750000
30
-449.127014
70
192
0
VERTEX
8
OBJECT__77
10
52.160999
20
-24.750000
30
-450.518005
70
192
0
VERTEX
8
OBJECT__77
10
65.000000
20
-24.750000
30
-441.190002
70
192
0
VERTEX
8
OBJECT__77
10
54.419998
20
-24.750000
30
-469.252014
70
192
0
VERTEX
8
OBJECT__77
10
57.064999
20
-24.750000
30
-465.610992
70
192
0
VERTEX
8
OBJECT__77
10
82.119003
20
-24.750000
30
-449.127014
70
192
0
VERTEX
8
OBJECT__77
10
77.838997
20
-24.750000
30
-450.518005
70
192
0
VERTEX
8
OBJECT__77
10
72.934998
20
-24.750000
30
-465.610992
70
192
0
VERTEX
8
OBJECT__77
10
65.000000
20
-24.750000
30
-436.690002
70
192
0
VERTEX
8
OBJECT__77
10
75.580002
20
-24.750000
30
-469.252014
70
192
0
VERTEX
8
OBJECT__77
10
0
20
0
30
0
70
128
71
1
72
2
73
3
0
VERTEX
8
OBJECT__77
10
0
20
0
30
0
70
128
71
1
72
4
73
5
0
VERTEX
8
OBJECT__77
10
0
20
0
30
0
70
128
71
6
72
7
73
8
0
VERTEX
8
OBJECT__77
10
0
20
0
30
0
70
128
71
6
72
9
73
3
0
VERTEX
8
OBJECT__77
10
0
20
0
30
0
70
128
71
5
72
2
73
1
0
VERTEX
8
OBJECT__77
10
0
20
0
30
0
70
128
71
10
72
8
73
5
0
VERTEX
8
OBJECT__77
10
0
20
0
30
0
70
128
71
3
72
7
73
6
0
VERTEX
8
OBJECT__77
10
0
20
0
30
0
70
128
71
5
72
4
73
10
0
VERTEX
8
OBJECT__77
10
0
20
0
30
0
70
128
71
3
72
9
73
1
0
VERTEX
8
OBJECT__77
10
0
20
0
30
0
70
128
71
8
72
10
73
6
0
SEQEND
8
OBJECT__77
0
POLYLINE
8
OBJECT__78
66
1
70
64
71
10
72
10
62
253
0
VERTEX
8
OBJECT__78
10
47.881001
20
-17.250000
30
-449.127014
70
192
0
VERTEX
8
OBJECT__78
10
47.881001
20
-24.750000
30
-449.127014
70
192
0
VERTEX
8
OBJECT__78
10
65.000000
20
-24.750000
30
-436.690002
70
192
0
VERTEX
8
OBJECT__78
10
54.419998
20
-17.250000
30
-469.252014
70
192
0
VERTEX
8
OBJECT__78
10
54.419998
20
-24.750000
30
-469.252014
70
192
0
VERTEX
8
OBJECT__78
10
75.580002
20
-17.250000
30
-469.252014
70
192
0
VERTEX
8
OBJECT__78
10
75.580002
20
-24.750000
30
-469.252014
70
192
0
VERTEX
8
OBJECT__78
10
82.119003
20
-24.750000
30
-449.127014
70
192
0
VERTEX
8
OBJECT__78
10
82.119003
20
-17.250000
30
-449.127014
70
192
0
VERTEX
8
OBJECT__78
10
65.000000
20
-17.250000
30
-436.690002
70
192
0
VERTEX
8
OBJECT__78
10
0
20
0
30
0
70
128
71
1
72
2
73
3
0
VERTEX
8
OBJECT__78
10
0
20
0
30
0
70
128
71
4
72
5
73
2
0
VERTEX
8
OBJECT__78
10
0
20
0
30
0
70
128
71
6
72
7
73
5
0
VERTEX
8
OBJECT__78
10
0
20
0
30
0
70
128
71
8
72
7
73
6
0
VERTEX
8
OBJECT__78
10
0
20
0
30
0
70
128
71
3
72
8
73
9
0
VERTEX
8
OBJECT__78
10
0
20
0
30
0
70
128
71
9
72
10
73
3
0
VERTEX
8
OBJECT__78
10
0
20
0
30
0
70
128
71
6
72
9
73
8
0
VERTEX
8
OBJECT__78
10
0
20
0
30
0
70
128
71
5
72
4
73
6
0
VERTEX
8
OBJECT__78
10
0
20
0
30
0
70
128
71
2
72
1
73
4
0
VERTEX
8
OBJECT__78
10
0
20
0
30
0
70
128
71
3
72
10
73
1
0
SEQEND
8
OBJECT__78
0
POLYLINE
8
OBJECT__79
66
1
70
64
71
10
72
10
62
253
0
VERTEX
8
OBJECT__79
10
75.580002
20
-17.250000
30
-469.252014
70
192
0
VERTEX
8
OBJECT__79
10
74.404999
20
-17.250000
30
-467.634003
70
192
0
VERTEX
8
OBJECT__79
10
80.217003
20
-17.250000
30
-449.744995
70
192
0
VERTEX
8
OBJECT__79
10
82.119003
20
-17.250000
30
-449.127014
70
192
0
VERTEX
8
OBJECT__79
10
54.419998
20
-17.250000
30
-469.252014
70
192
0
VERTEX
8
OBJECT__79
10
55.595001
20
-17.250000
30
-467.634003
70
192
0
VERTEX
8
OBJECT__79
10
47.881001
20
-17.250000
30
-449.127014
70
192
0
VERTEX
8
OBJECT__79
10
49.783001
20
-17.250000
30
-449.744995
70
192
0
VERTEX
8
OBJECT__79
10
65.000000
20
-17.250000
30
-436.690002
70
192
0
VERTEX
8
OBJECT__79
10
65.000000
20
-17.250000
30
-438.690002
70
192
0
VERTEX
8
OBJECT__79
10
0
20
0
30
0
70
128
71
1
72
2
73
3
0
VERTEX
8
OBJECT__79
10
0
20
0
30
0
70
128
71
3
72
4
73
1
0
VERTEX
8
OBJECT__79
10
0
20
0
30
0
70
128
71
5
72
6
73
2
0
VERTEX
8
OBJECT__79
10
0
20
0
30
0
70
128
71
7
72
8
73
6
0
VERTEX
8
OBJECT__79
10
0
20
0
30
0
70
128
71
9
72
10
73
8
0
VERTEX
8
OBJECT__79
10
0
20
0
30
0
70
128
71
2
72
1
73
5
0
VERTEX
8
OBJECT__79
10
0
20
0
30
0
70
128
71
8
72
7
73
9
0
VERTEX
8
OBJECT__79
10
0
20
0
30
0
70
128
71
6
72
5
73
7
0
VERTEX
8
OBJECT__79
10
0
20
0
30
0
70
128
71
3
72
10
73
4
0
VERTEX
8
OBJECT__79
10
0
20
0
30
0
70
128
71
10
72
9
73
4
0
SEQEND
8
OBJECT__79
0
POLYLINE
8
OBJECT__80
66
1
70
64
71
10
72
10
62
253
0
VERTEX
8
OBJECT__80
10
80.217003
20
-17.250000
30
-449.744995
70
192
0
VERTEX
8
OBJECT__80
10
80.217003
20
-22.750000
30
-449.744995
70
192
0
VERTEX
8
OBJECT__80
10
65.000000
20
-22.750000
30
-438.690002
70
192
0
VERTEX
8
OBJECT__80
10
74.404999
20
-17.250000
30
-467.634003
70
192
0
VERTEX
8
OBJECT__80
10
74.404999
20
-22.750000
30
-467.634003
70
192
0
VERTEX
8
OBJECT__80
10
55.595001
20
-17.250000
30
-467.634003
70
192
0
VERTEX
8
OBJECT__80
10
55.595001
20
-22.750000
30
-467.634003
70
192
0
VERTEX
8
OBJECT__80
10
49.783001
20
-22.750000
30
-449.744995
70
192
0
VERTEX
8
OBJECT__80
10
49.783001
20
-17.250000
30
-449.744995
70
192
0
VERTEX
8
OBJECT__80
10
65.000000
20
-17.250000
30
-438.690002
70
192
0
VERTEX
8
OBJECT__80
10
0
20
0
30
0
70
128
71
1
72
2
73
3
0
VERTEX
8
OBJECT__80
10
0
20
0
30
0
70
128
71
4
72
5
73
2
0
VERTEX
8
OBJECT__80
10
0
20
0
30
0
70
128
71
6
72
7
73
5
0
VERTEX
8
OBJECT__80
10
0
20
0
30
0
70
128
71
8
72
7
73
6
0
VERTEX
8
OBJECT__80
10
0
20
0
30
0
70
128
71
3
72
8
73
9
0
VERTEX
8
OBJECT__80
10
0
20
0
30
0
70
128
71
9
72
10
73
3
0
VERTEX
8
OBJECT__80
10
0
20
0
30
0
70
128
71
6
72
9
73
8
0
VERTEX
8
OBJECT__80
10
0
20
0
30
0
70
128
71
5
72
4
73
6
0
VERTEX
8
OBJECT__80
10
0
20
0
30
0
70
128
71
2
72
1
73
4
0
VERTEX
8
OBJECT__80
10
0
20
0
30
0
70
128
71
3
72
10
73
1
0
SEQEND
8
OBJECT__80
0
POLYLINE
8
OBJECT__81
66
1
70
64
71
10
72
10
62
253
0
VERTEX
8
OBJECT__81
10
65.109001
20
66.476997
30
-429.729004
70
192
0
VERTEX
8
OBJECT__81
10
65.473999
20
65.335999
30
-429.794006
70
192
0
VERTEX
8
OBJECT__81
10
79.292000
20
60.777000
30
-432.230011
70
192
0
VERTEX
8
OBJECT__81
10
55.751999
20
53.400002
30
-428.079987
70
192
0
VERTEX
8
OBJECT__81
10
56.933998
20
53.400002
30
-428.287994
70
192
0
VERTEX
8
OBJECT__81
10
80.248001
20
61.481998
30
-432.398987
70
192
0
VERTEX
8
OBJECT__81
10
79.292000
20
46.022999
30
-432.230011
70
192
0
VERTEX
8
OBJECT__81
10
65.109001
20
40.323002
30
-429.729004
70
192
0
VERTEX
8
OBJECT__81
10
65.473999
20
41.464001
30
-429.794006
70
192
0
VERTEX
8
OBJECT__81
10
80.248001
20
45.318001
30
-432.398987
70
192
0
VERTEX
8
OBJECT__81
10
0
20
0
30
0
70
128
71
1
72
2
73
3
0
VERTEX
8
OBJECT__81
10
0
20
0
30
0
70
128
71
1
72
4
73
5
0
VERTEX
8
OBJECT__81
10
0
20
0
30
0
70
128
71
6
72
3
73
7
0
VERTEX
8
OBJECT__81
10
0
20
0
30
0
70
128
71
5
72
2
73
1
0
VERTEX
8
OBJECT__81
10
0
20
0
30
0
70
128
71
8
72
9
73
5
0
VERTEX
8
OBJECT__81
10
0
20
0
30
0
70
128
71
10
72
7
73
9
0
VERTEX
8
OBJECT__81
10
0
20
0
30
0
70
128
71
3
72
6
73
1
0
VERTEX
8
OBJECT__81
10
0
20
0
30
0
70
128
71
9
72
8
73
10
0
VERTEX
8
OBJECT__81
10
0
20
0
30
0
70
128
71
5
72
4
73
8
0
VERTEX
8
OBJECT__81
10
0
20
0
30
0
70
128
71
7
72
10
73
6
0
SEQEND
8
OBJECT__81
0
POLYLINE
8
OBJECT__82
66
1
70
64
71
10
72
10
62
253
0
VERTEX
8
OBJECT__82
10
64.309998
20
40.323002
30
-434.260010
70
192
0
VERTEX
8
OBJECT__82
10
65.109001
20
40.323002
30
-429.729004
70
192
0
VERTEX
8
OBJECT__82
10
55.751999
20
53.400002
30
-428.079987
70
192
0
VERTEX
8
OBJECT__82
10
79.449997
20
45.318001
30
-436.928986
70
192
0
VERTEX
8
OBJECT__82
10
80.248001
20
45.318001
30
-432.398987
70
192
0
VERTEX
8
OBJECT__82
10
80.248001
20
61.481998
30
-432.398987
70
192
0
VERTEX
8
OBJECT__82
10
79.449997
20
61.481998
30
-436.928986
70
192
0
VERTEX
8
OBJECT__82
10
64.309998
20
66.476997
30
-434.260010
70
192
0
VERTEX
8
OBJECT__82
10
65.109001
20
66.476997
30
-429.729004
70
192
0
VERTEX
8
OBJECT__82
10
54.953999
20
53.400002
30
-432.609985
70
192
0
VERTEX
8
OBJECT__82
10
0
20
0
30
0
70
128
71
1
72
2
73
3
0
VERTEX
8
OBJECT__82
10
0
20
0
30
0
70
128
71
4
72
5
73
2
0
VERTEX
8
OBJECT__82
10
0
20
0
30
0
70
128
71
6
72
5
73
4
0
VERTEX
8
OBJECT__82
10
0
20
0
30
0
70
128
71
6
72
7
73
8
0
VERTEX
8
OBJECT__82
10
0
20
0
30
0
70
128
71
3
72
9
73
8
0
VERTEX
8
OBJECT__82
10
0
20
0
30
0
70
128
71
8
72
10
73
3
0
VERTEX
8
OBJECT__82
10
0
20
0
30
0
70
128
71
8
72
9
73
6
0
VERTEX
8
OBJECT__82
10
0
20
0
30
0
70
128
71
4
72
7
73
6
0
VERTEX
8
OBJECT__82
10
0
20
0
30
0
70
128
71
2
72
1
73
4
0
VERTEX
8
OBJECT__82
10
0
20
0
30
0
70
128
71
3
72
10
73
1
0
SEQEND
8
OBJECT__82
0
POLYLINE
8
OBJECT__84
66
1
70
64
71
10
72
10
62
253
0
VERTEX
8
OBJECT__84
10
79.449997
20
61.481998
30
-436.928986
70
192
0
VERTEX
8
OBJECT__84
10
79.449997
20
45.318001
30
-436.928986
70
192
0
VERTEX
8
OBJECT__84
10
77.259003
20
46.933998
30
-436.542999
70
192
0
VERTEX
8
OBJECT__84
10
64.309998
20
40.323002
30
-434.260010
70
192
0
VERTEX
8
OBJECT__84
10
65.147003
20
42.938000
30
-434.407013
70
192
0
VERTEX
8
OBJECT__84
10
54.953999
20
53.400002
30
-432.609985
70
192
0
VERTEX
8
OBJECT__84
10
64.309998
20
66.476997
30
-434.260010
70
192
0
VERTEX
8
OBJECT__84
10
65.147003
20
63.862000
30
-434.407013
70
192
0
VERTEX
8
OBJECT__84
10
77.259003
20
59.866001
30
-436.542999
70
192
0
VERTEX
8
OBJECT__84
10
57.661999
20
53.400002
30
-433.087006
70
192
0
VERTEX
8
OBJECT__84
10
0
20
0
30
0
70
128
71
1
72
2
73
3
0
VERTEX
8
OBJECT__84
10
0
20
0
30
0
70
128
71
4
72
5
73
3
0
VERTEX
8
OBJECT__84
10
0
20
0
30
0
70
128
71
6
72
7
73
8
0
VERTEX
8
OBJECT__84
10
0
20
0
30
0
70
128
71
7
72
1
73
9
0
VERTEX
8
OBJECT__84
10
0
20
0
30
0
70
128
71
3
72
2
73
4
0
VERTEX
8
OBJECT__84
10
0
20
0
30
0
70
128
71
6
72
10
73
5
0
VERTEX
8
OBJECT__84
10
0
20
0
30
0
70
128
71
9
72
8
73
7
0
VERTEX
8
OBJECT__84
10
0
20
0
30
0
70
128
71
5
72
4
73
6
0
VERTEX
8
OBJECT__84
10
0
20
0
30
0
70
128
71
3
72
9
73
1
0
VERTEX
8
OBJECT__84
10
0
20
0
30
0
70
128
71
8
72
10
73
6
0
SEQEND
8
OBJECT__84
0
POLYLINE
8
OBJECT__85
66
1
70
64
71
4
72
2
62
253
0
VERTEX
8
OBJECT__85
10
0.000000
20
10.500000
30
-878.215027
70
192
0
VERTEX
8
OBJECT__85
10
25.000000
20
10.500000
30
-878.215027
70
192
0
VERTEX
8
OBJECT__85
10
25.000000
20
10.500000
30
-926.215027
70
192
0
VERTEX
8
OBJECT__85
10
0.000000
20
10.500000
30
-926.215027
70
192
0
VERTEX
8
OBJECT__85
10
0
20
0
30
0
70
128
71
1
72
2
73
3
0
VERTEX
8
OBJECT__85
10
0
20
0
30
0
70
128
71
3
72
4
73
1
0
SEQEND
8
OBJECT__85
0
POLYLINE
8
OBJECT__86
66
1
70
64
71
4
72
2
62
253
0
VERTEX
8
OBJECT__86
10
0.000000
20
-10.500000
30
-878.215027
70
192
0
VERTEX
8
OBJECT__86
10
0.000000
20
10.500000
30
-878.215027
70
192
0
VERTEX
8
OBJECT__86
10
0.000000
20
10.500000
30
-926.215027
70
192
0
VERTEX
8
OBJECT__86
10
0.000000
20
-10.500000
30
-926.215027
70
192
0
VERTEX
8
OBJECT__86
10
0
20
0
30
0
70
128
71
1
72
2
73
3
0
VERTEX
8
OBJECT__86
10
0
20
0
30
0
70
128
71
3
72
4
73
1
0
SEQEND
8
OBJECT__86
0
POLYLINE
8
OBJECT__88
66
1
70
64
71
4
72
2
62
253
0
VERTEX
8
OBJECT__88
10
50.508999
20
-10.500000
30
-878.215027
70
192
0
VERTEX
8
OBJECT__88
10
0.000000
20
-10.500000
30
-878.215027
70
192
0
VERTEX
8
OBJECT__88
10
0.000000
20
-10.500000
30
-926.215027
70
192
0
VERTEX
8
OBJECT__88
10
50.508999
20
-10.500000
30
-926.215027
70
192
0
VERTEX
8
OBJECT__88
10
0
20
0
30
0
70
128
71
1
72
2
73
3
0
VERTEX
8
OBJECT__88
10
0
20
0
30
0
70
128
71
3
72
4
73
1
0
SEQEND
8
OBJECT__88
0
POLYLINE
8
OBJECT__89
66
1
70
64
71
4
72
2
62
253
0
VERTEX
8
OBJECT__89
10
50.508999
20
-10.500000
30
-878.215027
70
192
0
VERTEX
8
OBJECT__89
10
50.508999
20
-10.500000
30
-926.215027
70
192
0
VERTEX
8
OBJECT__89
10
55.442001
20
-12.202000
30
-926.215027
70
192
0
VERTEX
8
OBJECT__89
10
55.442001
20
-12.202000
30
-878.215027
70
192
0
VERTEX
8
OBJECT__89
10
0
20
0
30
0
70
128
71
1
72
2
73
3
0
VERTEX
8
OBJECT__89
10
0
20
0
30
0
70
128
71
3
72
4
73
1
0
SEQEND
8
OBJECT__89
0
POLYLINE
8
OBJECT__90
66
1
70
64
71
10
72
8
62
253
0
VERTEX
8
OBJECT__90
10
71.786003
20
13.936000
30
-878.215027
70
192
0
VERTEX
8
OBJECT__90
10
71.786003
20
13.936000
30
-926.215027
70
192
0
VERTEX
8
OBJECT__90
10
55.442001
20
12.202000
30
-926.215027
70
192
0
VERTEX
8
OBJECT__90
10
80.500000
20
0.000000
30
-878.215027
70
192
0
VERTEX
8
OBJECT__90
10
80.500000
20
0.000000
30
-926.215027
70
192
0
VERTEX
8
OBJECT__90
10
71.786003
20
-13.936000
30
-878.215027
70
192
0
VERTEX
8
OBJECT__90
10
71.786003
20
-13.936000
30
-926.215027
70
192
0
VERTEX
8
OBJECT__90
10
55.442001
20
-12.202000
30
-878.215027
70
192
0
VERTEX
8
OBJECT__90
10
55.442001
20
-12.202000
30
-926.215027
70
192
0
VERTEX
8
OBJECT__90
10
55.442001
20
12.202000
30
-878.215027
70
192
0
VERTEX
8
OBJECT__90
10
0
20
0
30
0
70
128
71
1
72
2
73
3
0
VERTEX
8
OBJECT__90
10
0
20
0
30
0
70
128
71
4
72
5
73
2
0
VERTEX
8
OBJECT__90
10
0
20
0
30
0
70
128
71
6
72
7
73
5
0
VERTEX
8
OBJECT__90
10
0
20
0
30
0
70
128
71
8
72
9
73
7
0
VERTEX
8
OBJECT__90
10
0
20
0
30
0
70
128
71
7
72
6
73
8
0
VERTEX
8
OBJECT__90
10
0
20
0
30
0
70
128
71
5
72
4
73
6
0
VERTEX
8
OBJECT__90
10
0
20
0
30
0
70
128
71
2
72
1
73
4
0
VERTEX
8
OBJECT__90
10
0
20
0
30
0
70
128
71
3
72
10
73
1
0
SEQEND
8
OBJECT__90
0
POLYLINE
8
OBJECT__91
66
1
70
64
71
4
72
2
62
253
0
VERTEX
8
OBJECT__91
10
55.442001
20
12.202000
30
-878.215027
70
192
0
VERTEX
8
OBJECT__91
10
55.442001
20
12.202000
30
-926.215027
70
192
0
VERTEX
8
OBJECT__91
10
50.508999
20
10.500000
30
-926.215027
70
192
0
VERTEX
8
OBJECT__91
10
50.508999
20
10.500000
30
-878.215027
70
192
0
VERTEX
8
OBJECT__91
10
0
20
0
30
0
70
128
71
1
72
2
73
3
0
VERTEX
8
OBJECT__91
10
0
20
0
30
0
70
128
71
3
72
4
73
1
0
SEQEND
8
OBJECT__91
0
POLYLINE
8
OBJECT__92
66
1
70
64
71
4
72
2
62
253
0
VERTEX
8
OBJECT__92
10
42.000000
20
10.500000
30
-878.215027
70
192
0
VERTEX
8
OBJECT__92
10
50.508999
20
10.500000
30
-878.215027
70
192
0
VERTEX
8
OBJECT__92
10
50.508999
20
10.500000
30
-926.215027
70
192
0
VERTEX
8
OBJECT__92
10
42.000000
20
10.500000
30
-926.215027
70
192
0
VERTEX
8
OBJECT__92
10
0
20
0
30
0
70
128
71
1
72
2
73
3
0
VERTEX
8
OBJECT__92
10
0
20
0
30
0
70
128
71
3
72
4
73
1
0
SEQEND
8
OBJECT__92
0
POLYLINE
8
OBJECT__93
66
1
70
64
71
14
72
12
62
253
0
VERTEX
8
OBJECT__93
10
71.786003
20
-13.936000
30
-878.215027
70
192
0
VERTEX
8
OBJECT__93
10
33.500000
20
-7.500000
30
-878.215027
70
192
0
VERTEX
8
OBJECT__93
10
50.508999
20
-10.500000
30
-878.215027
70
192
0
VERTEX
8
OBJECT__93
10
80.500000
20
0.000000
30
-878.215027
70
192
0
VERTEX
8
OBJECT__93
10
71.786003
20
13.936000
30
-878.215027
70
192
0
VERTEX
8
OBJECT__93
10
0.000000
20
-10.500000
30
-878.215027
70
192
0
VERTEX
8
OBJECT__93
10
42.000000
20
1.000000
30
-878.215027
70
192
0
VERTEX
8
OBJECT__93
10
50.508999
20
10.500000
30
-878.215027
70
192
0
VERTEX
8
OBJECT__93
10
55.442001
20
12.202000
30
-878.215027
70
192
0
VERTEX
8
OBJECT__93
10
0.000000
20
10.500000
30
-878.215027
70
192
0
VERTEX
8
OBJECT__93
10
25.000000
20
1.000000
30
-878.215027
70
192
0
VERTEX
8
OBJECT__93
10
55.442001
20
-12.202000
30
-878.215027
70
192
0
VERTEX
8
OBJECT__93
10
42.000000
20
10.500000
30
-878.215027
70
192
0
VERTEX
8
OBJECT__93
10
25.000000
20
10.500000
30
-878.215027
70
192
0
VERTEX
8
OBJECT__93
10
0
20
0
30
0
70
128
71
1
72
2
73
3
0
VERTEX
8
OBJECT__93
10
0
20
0
30
0
70
128
71
1
72
4
73
5
0
VERTEX
8
OBJECT__93
10
0
20
0
30
0
70
128
71
2
72
6
73
3
0
VERTEX
8
OBJECT__93
10
0
20
0
30
0
70
128
71
7
72
1
73
8
0
VERTEX
8
OBJECT__93
10
0
20
0
30
0
70
128
71
5
72
9
73
1
0
VERTEX
8
OBJECT__93
10
0
20
0
30
0
70
128
71
10
72
6
73
11
0
VERTEX
8
OBJECT__93
10
0
20
0
30
0
70
128
71
3
72
12
73
1
0
VERTEX
8
OBJECT__93
10
0
20
0
30
0
70
128
71
9
72
8
73
1
0
VERTEX
8
OBJECT__93
10
0
20
0
30
0
70
128
71
2
72
11
73
6
0
VERTEX
8
OBJECT__93
10
0
20
0
30
0
70
128
71
8
72
13
73
7
0
VERTEX
8
OBJECT__93
10
0
20
0
30
0
70
128
71
7
72
2
73
1
0
VERTEX
8
OBJECT__93
10
0
20
0
30
0
70
128
71
11
72
14
73
10
0
SEQEND
8
OBJECT__93
0
POLYLINE
8
OBJECT__94
66
1
70
64
71
14
72
12
62
253
0
VERTEX
8
OBJECT__94
10
71.786003
20
-13.936000
30
-926.215027
70
192
0
VERTEX
8
OBJECT__94
10
55.442001
20
12.202000
30
-926.215027
70
192
0
VERTEX
8
OBJECT__94
10
71.786003
20
13.936000
30
-926.215027
70
192
0
VERTEX
8
OBJECT__94
10
50.508999
20
10.500000
30
-926.215027
70
192
0
VERTEX
8
OBJECT__94
10
42.000000
20
1.000000
30
-926.215027
70
192
0
VERTEX
8
OBJECT__94
10
42.000000
20
10.500000
30
-926.215027
70
192
0
VERTEX
8
OBJECT__94
10
55.442001
20
-12.202000
30
-926.215027
70
192
0
VERTEX
8
OBJECT__94
10
50.508999
20
-10.500000
30
-926.215027
70
192
0
VERTEX
8
OBJECT__94
10
0.000000
20
-10.500000
30
-926.215027
70
192
0
VERTEX
8
OBJECT__94
10
25.000000
20
1.000000
30
-926.215027
70
192
0
VERTEX
8
OBJECT__94
10
33.500000
20
-7.500000
30
-926.215027
70
192
0
VERTEX
8
OBJECT__94
10
0.000000
20
10.500000
30
-926.215027
70
192
0
VERTEX
8
OBJECT__94
10
25.000000
20
10.500000
30
-926.215027
70
192
0
VERTEX
8
OBJECT__94
10
80.500000
20
0.000000
30
-926.215027
70
192
0
VERTEX
8
OBJECT__94
10
0
20
0
30
0
70
128
71
1
72
2
73
3
0
VERTEX
8
OBJECT__94
10
0
20
0
30
0
70
128
71
1
72
4
73
2
0
VERTEX
8
OBJECT__94
10
0
20
0
30
0
70
128
71
5
72
6
73
4
0
VERTEX
8
OBJECT__94
10
0
20
0
30
0
70
128
71
5
72
1
73
7
0
VERTEX
8
OBJECT__94
10
0
20
0
30
0
70
128
71
4
72
1
73
5
0
VERTEX
8
OBJECT__94
10
0
20
0
30
0
70
128
71
7
72
8
73
5
0
VERTEX
8
OBJECT__94
10
0
20
0
30
0
70
128
71
9
72
10
73
11
0
VERTEX
8
OBJECT__94
10
0
20
0
30
0
70
128
71
12
72
13
73
10
0
VERTEX
8
OBJECT__94
10
0
20
0
30
0
70
128
71
8
72
11
73
5
0
VERTEX
8
OBJECT__94
10
0
20
0
30
0
70
128
71
10
72
9
73
12
0
VERTEX
8
OBJECT__94
10
0
20
0
30
0
70
128
71
11
72
8
73
9
0
VERTEX
8
OBJECT__94
10
0
20
0
30
0
70
128
71
3
72
14
73
1
0
SEQEND
8
OBJECT__94
0
POLYLINE
8
OBJECT__95
66
1
70
64
71
4
72
2
62
253
0
VERTEX
8
OBJECT__95
10
42.000000
20
1.000000
30
-878.215027
70
192
0
VERTEX
8
OBJECT__95
10
42.000000
20
10.500000
30
-878.215027
70
192
0
VERTEX
8
OBJECT__95
10
42.000000
20
10.500000
30
-926.215027
70
192
0
VERTEX
8
OBJECT__95
10
42.000000
20
1.000000
30
-926.215027
70
192
0
VERTEX
8
OBJECT__95
10
0
20
0
30
0
70
128
71
1
72
2
73
3
0
VERTEX
8
OBJECT__95
10
0
20
0
30
0
70
128
71
3
72
4
73
1
0
SEQEND
8
OBJECT__95
0
POLYLINE
8
OBJECT__96
66
1
70
64
71
6
72
4
62
253
0
VERTEX
8
OBJECT__96
10
33.500000
20
-7.500000
30
-878.215027
70
192
0
VERTEX
8
OBJECT__96
10
33.500000
20
-7.500000
30
-926.215027
70
192
0
VERTEX
8
OBJECT__96
10
25.000000
20
1.000000
30
-926.215027
70
192
0
VERTEX
8
OBJECT__96
10
42.000000
20
1.000000
30
-878.215027
70
192
0
VERTEX
8
OBJECT__96
10
42.000000
20
1.000000
30
-926.215027
70
192
0
VERTEX
8
OBJECT__96
10
25.000000
20
1.000000
30
-878.215027
70
192
0
VERTEX
8
OBJECT__96
10
0
20
0
30
0
70
128
71
1
72
2
73
3
0
VERTEX
8
OBJECT__96
10
0
20
0
30
0
70
128
71
4
72
5
73
2
0
VERTEX
8
OBJECT__96
10
0
20
0
30
0
70
128
71
2
72
1
73
4
0
VERTEX
8
OBJECT__96
10
0
20
0
30
0
70
128
71
3
72
6
73
1
0
SEQEND
8
OBJECT__96
0
POLYLINE
8
OBJECT__97
66
1
70
64
71
4
72
2
62
253
0
VERTEX
8
OBJECT__97
10
25.000000
20
10.500000
30
-926.215027
70
192
0
VERTEX
8
OBJECT__97
10
25.000000
20
10.500000
30
-878.215027
70
192
0
VERTEX
8
OBJECT__97
10
25.000000
20
1.000000
30
-878.215027
70
192
0
VERTEX
8
OBJECT__97
10
25.000000
20
1.000000
30
-926.215027
70
192
0
VERTEX
8
OBJECT__97
10
0
20
0
30
0
70
128
71
1
72
2
73
3
0
VERTEX
8
OBJECT__97
10
0
20
0
30
0
70
128
71
3
72
4
73
1
0
SEQEND
8
OBJECT__97
0
POLYLINE
8
OBJECT__98
66
1
70
64
71
8
72
8
62
253
0
VERTEX
8
OBJECT__98
10
55.500000
20
-16.000000
30
-454.690002
70
192
0
VERTEX
8
OBJECT__98
10
55.500000
20
-26.000000
30
-454.690002
70
192
0
VERTEX
8
OBJECT__98
10
65.000000
20
-26.000000
30
-445.190002
70
192
0
VERTEX
8
OBJECT__98
10
65.000000
20
-16.000000
30
-464.190002
70
192
0
VERTEX
8
OBJECT__98
10
65.000000
20
-26.000000
30
-464.190002
70
192
0
VERTEX
8
OBJECT__98
10
74.500000
20
-16.000000
30
-454.690002
70
192
0
VERTEX
8
OBJECT__98
10
74.500000
20
-26.000000
30
-454.690002
70
192
0
VERTEX
8
OBJECT__98
10
65.000000
20
-16.000000
30
-445.190002
70
192
0
VERTEX
8
OBJECT__98
10
0
20
0
30
0
70
128
71
1
72
2
73
3
0
VERTEX
8
OBJECT__98
10
0
20
0
30
0
70
128
71
4
72
5
73
2
0
VERTEX
8
OBJECT__98
10
0
20
0
30
0
70
128
71
6
72
7
73
5
0
VERTEX
8
OBJECT__98
10
0
20
0
30
0
70
128
71
8
72
3
73
7
0
VERTEX
8
OBJECT__98
10
0
20
0
30
0
70
128
71
7
72
6
73
8
0
VERTEX
8
OBJECT__98
10
0
20
0
30
0
70
128
71
5
72
4
73
6
0
VERTEX
8
OBJECT__98
10
0
20
0
30
0
70
128
71
2
72
1
73
4
0
VERTEX
8
OBJECT__98
10
0
20
0
30
0
70
128
71
3
72
8
73
1
0
SEQEND
8
OBJECT__98
0
POLYLINE
8
OBJECT__99
66
1
70
64
71
9
72
9
62
253
0
VERTEX
8
OBJECT__99
10
54.419998
20
-16.000000
30
-469.252014
70
192
0
VERTEX
8
OBJECT__99
10
65.000000
20
-16.000000
30
-464.190002
70
192
0
VERTEX
8
OBJECT__99
10
55.500000
20
-16.000000
30
-454.690002
70
192
0
VERTEX
8
OBJECT__99
10
75.580002
20
-16.000000
30
-469.252014
70
192
0
VERTEX
8
OBJECT__99
10
82.119003
20
-16.000000
30
-449.127014
70
192
0
VERTEX
8
OBJECT__99
10
74.500000
20
-16.000000
30
-454.690002
70
192
0
VERTEX
8
OBJECT__99
10
65.000000
20
-16.000000
30
-436.690002
70
192
0
VERTEX
8
OBJECT__99
10
65.000000
20
-16.000000
30
-445.190002
70
192
0
VERTEX
8
OBJECT__99
10
47.881001
20
-16.000000
30
-449.127014
70
192
0
VERTEX
8
OBJECT__99
10
0
20
0
30
0
70
128
71
1
72
2
73
3
0
VERTEX
8
OBJECT__99
10
0
20
0
30
0
70
128
71
4
72
5
73
6
0
VERTEX
8
OBJECT__99
10
0
20
0
30
0
70
128
71
5
72
7
73
8
0
VERTEX
8
OBJECT__99
10
0
20
0
30
0
70
128
71
9
72
3
73
8
0
VERTEX
8
OBJECT__99
10
0
20
0
30
0
70
128
71
1
72
4
73
2
0
VERTEX
8
OBJECT__99
10
0
20
0
30
0
70
128
71
8
72
6
73
5
0
VERTEX
8
OBJECT__99
10
0
20
0
30
0
70
128
71
3
72
9
73
1
0
VERTEX
8
OBJECT__99
10
0
20
0
30
0
70
128
71
8
72
7
73
9
0
VERTEX
8
OBJECT__99
10
0
20
0
30
0
70
128
71
6
72
2
73
4
0
SEQEND
8
OBJECT__99
0
POLYLINE
8
OBJECT__101
66
1
70
64
71
10
72
10
62
253
0
VERTEX
8
OBJECT__101
10
47.881001
20
16.000000
30
-449.127014
70
192
0
VERTEX
8
OBJECT__101
10
47.881001
20
-16.000000
30
-449.127014
70
192
0
VERTEX
8
OBJECT__101
10
65.000000
20
-16.000000
30
-436.690002
70
192
0
VERTEX
8
OBJECT__101
10
54.419998
20
16.000000
30
-469.252014
70
192
0
VERTEX
8
OBJECT__101
10
54.419998
20
-16.000000
30
-469.252014
70
192
0
VERTEX
8
OBJECT__101
10
75.580002
20
16.000000
30
-469.252014
70
192
0
VERTEX
8
OBJECT__101
10
75.580002
20
-16.000000
30
-469.252014
70
192
0
VERTEX
8
OBJECT__101
10
82.119003
20
16.000000
30
-449.127014
70
192
0
VERTEX
8
OBJECT__101
10
82.119003
20
-16.000000
30
-449.127014
70
192
0
VERTEX
8
OBJECT__101
10
65.000000
20
16.000000
30
-436.690002
70
192
0
VERTEX
8
OBJECT__101
10
0
20
0
30
0
70
128
71
1
72
2
73
3
0
VERTEX
8
OBJECT__101
10
0
20
0
30
0
70
128
71
4
72
5
73
2
0
VERTEX
8
OBJECT__101
10
0
20
0
30
0
70
128
71
6
72
7
73
5
0
VERTEX
8
OBJECT__101
10
0
20
0
30
0
70
128
71
8
72
9
73
7
0
VERTEX
8
OBJECT__101
10
0
20
0
30
0
70
128
71
10
72
3
73
9
0
VERTEX
8
OBJECT__101
10
0
20
0
30
0
70
128
71
9
72
8
73
10
0
VERTEX
8
OBJECT__101
10
0
20
0
30
0
70
128
71
7
72
6
73
8
0
VERTEX
8
OBJECT__101
10
0
20
0
30
0
70
128
71
5
72
4
73
6
0
VERTEX
8
OBJECT__101
10
0
20
0
30
0
70
128
71
2
72
1
73
4
0
VERTEX
8
OBJECT__101
10
0
20
0
30
0
70
128
71
3
72
10
73
1
0
SEQEND
8
OBJECT__101
0
POLYLINE
8
OBJECT__102
66
1
70
64
71
9
72
9
62
253
0
VERTEX
8
OBJECT__102
10
54.419998
20
16.000000
30
-469.252014
70
192
0
VERTEX
8
OBJECT__102
10
47.881001
20
16.000000
30
-449.127014
70
192
0
VERTEX
8
OBJECT__102
10
52.000000
20
16.000000
30
-454.690002
70
192
0
VERTEX
8
OBJECT__102
10
75.580002
20
16.000000
30
-469.252014
70
192
0
VERTEX
8
OBJECT__102
10
65.000000
20
16.000000
30
-467.690002
70
192
0
VERTEX
8
OBJECT__102
10
78.000000
20
16.000000
30
-454.690002
70
192
0
VERTEX
8
OBJECT__102
10
65.000000
20
16.000000
30
-436.690002
70
192
0
VERTEX
8
OBJECT__102
10
65.000000
20
16.000000
30
-441.690002
70
192
0
VERTEX
8
OBJECT__102
10
82.119003
20
16.000000
30
-449.127014
70
192
0
VERTEX
8
OBJECT__102
10
0
20
0
30
0
70
128
71
1
72
2
73
3
0
VERTEX
8
OBJECT__102
10
0
20
0
30
0
70
128
71
4
72
5
73
6
0
VERTEX
8
OBJECT__102
10
0
20
0
30
0
70
128
71
3
72
5
73
1
0
VERTEX
8
OBJECT__102
10
0
20
0
30
0
70
128
71
2
72
7
73
8
0
VERTEX
8
OBJECT__102
10
0
20
0
30
0
70
128
71
6
72
9
73
4
0
VERTEX
8
OBJECT__102
10
0
20
0
30
0
70
128
71
8
72
3
73
2
0
VERTEX
8
OBJECT__102
10
0
20
0
30
0
70
128
71
5
72
4
73
1
0
VERTEX
8
OBJECT__102
10
0
20
0
30
0
70
128
71
6
72
8
73
9
0
VERTEX
8
OBJECT__102
10
0
20
0
30
0
70
128
71
8
72
7
73
9
0
SEQEND
8
OBJECT__102
0
POLYLINE
8
OBJECT__103
66
1
70
64
71
8
72
8
62
253
0
VERTEX
8
OBJECT__103
10
52.000000
20
17.000000
30
-454.690002
70
192
0
VERTEX
8
OBJECT__103
10
52.000000
20
16.000000
30
-454.690002
70
192
0
VERTEX
8
OBJECT__103
10
65.000000
20
16.000000
30
-441.690002
70
192
0
VERTEX
8
OBJECT__103
10
65.000000
20
17.000000
30
-467.690002
70
192
0
VERTEX
8
OBJECT__103
10
65.000000
20
16.000000
30
-467.690002
70
192
0
VERTEX
8
OBJECT__103
10
78.000000
20
17.000000
30
-454.690002
70
192
0
VERTEX
8
OBJECT__103
10
78.000000
20
16.000000
30
-454.690002
70
192
0
VERTEX
8
OBJECT__103
10
65.000000
20
17.000000
30
-441.690002
70
192
0
VERTEX
8
OBJECT__103
10
0
20
0
30
0
70
128
71
1
72
2
73
3
0
VERTEX
8
OBJECT__103
10
0
20
0
30
0
70
128
71
4
72
5
73
2
0
VERTEX
8
OBJECT__103
10
0
20
0
30
0
70
128
71
6
72
7
73
5
0
VERTEX
8
OBJECT__103
10
0
20
0
30
0
70
128
71
8
72
3
73
7
0
VERTEX
8
OBJECT__103
10
0
20
0
30
0
70
128
71
7
72
6
73
8
0
VERTEX
8
OBJECT__103
10
0
20
0
30
0
70
128
71
5
72
4
73
6
0
VERTEX
8
OBJECT__103
10
0
20
0
30
0
70
128
71
2
72
1
73
4
0
VERTEX
8
OBJECT__103
10
0
20
0
30
0
70
128
71
3
72
8
73
1
0
SEQEND
8
OBJECT__103
0
POLYLINE
8
OBJECT__104
66
1
70
64
71
4
72
2
62
253
0
VERTEX
8
OBJECT__104
10
0.000000
20
10.500000
30
21.785000
70
192
0
VERTEX
8
OBJECT__104
10
25.000000
20
10.500000
30
21.785000
70
192
0
VERTEX
8
OBJECT__104
10
25.000000
20
10.500000
30
-26.215000
70
192
0
VERTEX
8
OBJECT__104
10
0.000000
20
10.500000
30
-26.215000
70
192
0
VERTEX
8
OBJECT__104
10
0
20
0
30
0
70
128
71
1
72
2
73
3
0
VERTEX
8
OBJECT__104
10
0
20
0
30
0
70
128
71
3
72
4
73
1
0
SEQEND
8
OBJECT__104
0
POLYLINE
8
OBJECT__105
66
1
70
64
71
4
72
2
62
253
0
VERTEX
8
OBJECT__105
10
0.000000
20
-10.500000
30
21.785000
70
192
0
VERTEX
8
OBJECT__105
10
0.000000
20
10.500000
30
21.785000
70
192
0
VERTEX
8
OBJECT__105
10
0.000000
20
10.500000
30
-26.215000
70
192
0
VERTEX
8
OBJECT__105
10
0.000000
20
-10.500000
30
-26.215000
70
192
0
VERTEX
8
OBJECT__105
10
0
20
0
30
0
70
128
71
1
72
2
73
3
0
VERTEX
8
OBJECT__105
10
0
20
0
30
0
70
128
71
3
72
4
73
1
0
SEQEND
8
OBJECT__105
0
POLYLINE
8
OBJECT__107
66
1
70
64
71
4
72
2
62
253
0
VERTEX
8
OBJECT__107
10
50.508999
20
-10.500000
30
21.785000
70
192
0
VERTEX
8
OBJECT__107
10
0.000000
20
-10.500000
30
21.785000
70
192
0
VERTEX
8
OBJECT__107
10
0.000000
20
-10.500000
30
-26.215000
70
192
0
VERTEX
8
OBJECT__107
10
50.508999
20
-10.500000
30
-26.215000
70
192
0
VERTEX
8
OBJECT__107
10
0
20
0
30
0
70
128
71
1
72
2
73
3
0
VERTEX
8
OBJECT__107
10
0
20
0
30
0
70
128
71
3
72
4
73
1
0
SEQEND
8
OBJECT__107
0
POLYLINE
8
OBJECT__108
66
1
70
64
71
4
72
2
62
253
0
VERTEX
8
OBJECT__108
10
50.508999
20
-10.500000
30
21.785000
70
192
0
VERTEX
8
OBJECT__108
10
50.508999
20
-10.500000
30
-26.215000
70
192
0
VERTEX
8
OBJECT__108
10
55.442001
20
-12.202000
30
-26.215000
70
192
0
VERTEX
8
OBJECT__108
10
55.442001
20
-12.202000
30
21.785000
70
192
0
VERTEX
8
OBJECT__108
10
0
20
0
30
0
70
128
71
1
72
2
73
3
0
VERTEX
8
OBJECT__108
10
0
20
0
30
0
70
128
71
3
72
4
73
1
0
SEQEND
8
OBJECT__108
0
POLYLINE
8
OBJECT__109
66
1
70
64
71
10
72
8
62
253
0
VERTEX
8
OBJECT__109
10
71.786003
20
13.936000
30
21.785000
70
192
0
VERTEX
8
OBJECT__109
10
71.786003
20
13.936000
30
-26.215000
70
192
0
VERTEX
8
OBJECT__109
10
55.442001
20
12.202000
30
-26.215000
70
192
0
VERTEX
8
OBJECT__109
10
80.500000
20
0.000000
30
21.785000
70
192
0
VERTEX
8
OBJECT__109
10
80.500000
20
0.000000
30
-26.215000
70
192
0
VERTEX
8
OBJECT__109
10
71.786003
20
-13.936000
30
21.785000
70
192
0
VERTEX
8
OBJECT__109
10
71.786003
20
-13.936000
30
-26.215000
70
192
0
VERTEX
8
OBJECT__109
10
55.442001
20
-12.202000
30
21.785000
70
192
0
VERTEX
8
OBJECT__109
10
55.442001
20
-12.202000
30
-26.215000
70
192
0
VERTEX
8
OBJECT__109
10
55.442001
20
12.202000
30
21.785000
70
192
0
VERTEX
8
OBJECT__109
10
0
20
0
30
0
70
128
71
1
72
2
73
3
0
VERTEX
8
OBJECT__109
10
0
20
0
30
0
70
128
71
4
72
5
73
2
0
VERTEX
8
OBJECT__109
10
0
20
0
30
0
70
128
71
6
72
7
73
5
0
VERTEX
8
OBJECT__109
10
0
20
0
30
0
70
128
71
8
72
9
73
7
0
VERTEX
8
OBJECT__109
10
0
20
0
30
0
70
128
71
7
72
6
73
8
0
VERTEX
8
OBJECT__109
10
0
20
0
30
0
70
128
71
5
72
4
73
6
0
VERTEX
8
OBJECT__109
10
0
20
0
30
0
70
128
71
2
72
1
73
4
0
VERTEX
8
OBJECT__109
10
0
20
0
30
0
70
128
71
3
72
10
73
1
0
SEQEND
8
OBJECT__109
0
POLYLINE
8
OBJECT__110
66
1
70
64
71
4
72
2
62
253
0
VERTEX
8
OBJECT__110
10
55.442001
20
12.202000
30
21.785000
70
192
0
VERTEX
8
OBJECT__110
10
55.442001
20
12.202000
30
-26.215000
70
192
0
VERTEX
8
OBJECT__110
10
50.508999
20
10.500000
30
-26.215000
70
192
0
VERTEX
8
OBJECT__110
10
50.508999
20
10.500000
30
21.785000
70
192
0
VERTEX
8
OBJECT__110
10
0
20
0
30
0
70
128
71
1
72
2
73
3
0
VERTEX
8
OBJECT__110
10
0
20
0
30
0
70
128
71
3
72
4
73
1
0
SEQEND
8
OBJECT__110
0
POLYLINE
8
OBJECT__111
66
1
70
64
71
4
72
2
62
253
0
VERTEX
8
OBJECT__111
10
42.000000
20
10.500000
30
21.785000
70
192
0
VERTEX
8
OBJECT__111
10
50.508999
20
10.500000
30
21.785000
70
192
0
VERTEX
8
OBJECT__111
10
50.508999
20
10.500000
30
-26.215000
70
192
0
VERTEX
8
OBJECT__111
10
42.000000
20
10.500000
30
-26.215000
70
192
0
VERTEX
8
OBJECT__111
10
0
20
0
30
0
70
128
71
1
72
2
73
3
0
VERTEX
8
OBJECT__111
10
0
20
0
30
0
70
128
71
3
72
4
73
1
0
SEQEND
8
OBJECT__111
0
POLYLINE
8
OBJECT__112
66
1
70
64
71
14
72
12
62
253
0
VERTEX
8
OBJECT__112
10
71.786003
20
-13.936000
30
21.785000
70
192
0
VERTEX
8
OBJECT__112
10
33.500000
20
-7.500000
30
21.785000
70
192
0
VERTEX
8
OBJECT__112
10
50.508999
20
-10.500000
30
21.785000
70
192
0
VERTEX
8
OBJECT__112
10
80.500000
20
0.000000
30
21.785000
70
192
0
VERTEX
8
OBJECT__112
10
71.786003
20
13.936000
30
21.785000
70
192
0
VERTEX
8
OBJECT__112
10
0.000000
20
-10.500000
30
21.785000
70
192
0
VERTEX
8
OBJECT__112
10
42.000000
20
1.000000
30
21.785000
70
192
0
VERTEX
8
OBJECT__112
10
50.508999
20
10.500000
30
21.785000
70
192
0
VERTEX
8
OBJECT__112
10
55.442001
20
12.202000
30
21.785000
70
192
0
VERTEX
8
OBJECT__112
10
0.000000
20
10.500000
30
21.785000
70
192
0
VERTEX
8
OBJECT__112
10
25.000000
20
1.000000
30
21.785000
70
192
0
VERTEX
8
OBJECT__112
10
55.442001
20
-12.202000
30
21.785000
70
192
0
VERTEX
8
OBJECT__112
10
42.000000
20
10.500000
30
21.785000
70
192
0
VERTEX
8
OBJECT__112
10
25.000000
20
10.500000
30
21.785000
70
192
0
VERTEX
8
OBJECT__112
10
0
20
0
30
0
70
128
71
1
72
2
73
3
0
VERTEX
8
OBJECT__112
10
0
20
0
30
0
70
128
71
1
72
4
73
5
0
VERTEX
8
OBJECT__112
10
0
20
0
30
0
70
128
71
2
72
6
73
3
0
VERTEX
8
OBJECT__112
10
0
20
0
30
0
70
128
71
7
72
1
73
8
0
VERTEX
8
OBJECT__112
10
0
20
0
30
0
70
128
71
5
72
9
73
1
0
VERTEX
8
OBJECT__112
10
0
20
0
30
0
70
128
71
10
72
6
73
11
0
VERTEX
8
OBJECT__112
10
0
20
0
30
0
70
128
71
3
72
12
73
1
0
VERTEX
8
OBJECT__112
10
0
20
0
30
0
70
128
71
9
72
8
73
1
0
VERTEX
8
OBJECT__112
10
0
20
0
30
0
70
128
71
2
72
11
73
6
0
VERTEX
8
OBJECT__112
10
0
20
0
30
0
70
128
71
8
72
13
73
7
0
VERTEX
8
OBJECT__112
10
0
20
0
30
0
70
128
71
7
72
2
73
1
0
VERTEX
8
OBJECT__112
10
0
20
0
30
0
70
128
71
11
72
14
73
10
0
SEQEND
8
OBJECT__112
0
POLYLINE
8
OBJECT__113
66
1
70
64
71
14
72
12
62
253
0
VERTEX
8
OBJECT__113
10
71.786003
20
-13.936000
30
-26.215000
70
192
0
VERTEX
8
OBJECT__113
10
55.442001
20
12.202000
30
-26.215000
70
192
0
VERTEX
8
OBJECT__113
10
71.786003
20
13.936000
30
-26.215000
70
192
0
VERTEX
8
OBJECT__113
10
50.508999
20
10.500000
30
-26.215000
70
192
0
VERTEX
8
OBJECT__113
10
42.000000
20
1.000000
30
-26.215000
70
192
0
VERTEX
8
OBJECT__113
10
42.000000
20
10.500000
30
-26.215000
70
192
0
VERTEX
8
OBJECT__113
10
55.442001
20
-12.202000
30
-26.215000
70
192
0
VERTEX
8
OBJECT__113
10
50.508999
20
-10.500000
30
-26.215000
70
192
0
VERTEX
8
OBJECT__113
10
0.000000
20
-10.500000
30
-26.215000
70
192
0
VERTEX
8
OBJECT__113
10
25.000000
20
1.000000
30
-26.215000
70
192
0
VERTEX
8
OBJECT__113
10
33.500000
20
-7.500000
30
-26.215000
70
192
0
VERTEX
8
OBJECT__113
10
0.000000
20
10.500000
30
-26.215000
70
192
0
VERTEX
8
OBJECT__113
10
25.000000
20
10.500000
30
-26.215000
70
192
0
VERTEX
8
OBJECT__113
10
80.500000
20
0.000000
30
-26.215000
70
192
0
VERTEX
8
OBJECT__113
10
0
20
0
30
0
70
128
71
1
72
2
73
3
0
VERTEX
8
OBJECT__113
10
0
20
0
30
0
70
128
71
1
72
4
73
2
0
VERTEX
8
OBJECT__113
10
0
20
0
30
0
70
128
71
5
72
6
73
4
0
VERTEX
8
OBJECT__113
10
0
20
0
30
0
70
128
71
5
72
1
73
7
0
VERTEX
8
OBJECT__113
10
0
20
0
30
0
70
128
71
4
72
1
73
5
0
VERTEX
8
OBJECT__113
10
0
20
0
30
0
70
128
71
7
72
8
73
5
0
VERTEX
8
OBJECT__113
10
0
20
0
30
0
70
128
71
9
72
10
73
11
0
VERTEX
8
OBJECT__113
10
0
20
0
30
0
70
128
71
12
72
13
73
10
0
VERTEX
8
OBJECT__113
10
0
20
0
30
0
70
128
71
8
72
11
73
5
0
VERTEX
8
OBJECT__113
10
0
20
0
30
0
70
128
71
10
72
9
73
12
0
VERTEX
8
OBJECT__113
10
0
20
0
30
0
70
128
71
11
72
8
73
9
0
VERTEX
8
OBJECT__113
10
0
20
0
30
0
70
128
71
3
72
14
73
1
0
SEQEND
8
OBJECT__113
0
POLYLINE
8
OBJECT__114
66
1
70
64
71
4
72
2
62
253
0
VERTEX
8
OBJECT__114
10
42.000000
20
1.000000
30
21.785000
70
192
0
VERTEX
8
OBJECT__114
10
42.000000
20
10.500000
30
21.785000
70
192
0
VERTEX
8
OBJECT__114
10
42.000000
20
10.500000
30
-26.215000
70
192
0
VERTEX
8
OBJECT__114
10
42.000000
20
1.000000
30
-26.215000
70
192
0
VERTEX
8
OBJECT__114
10
0
20
0
30
0
70
128
71
1
72
2
73
3
0
VERTEX
8
OBJECT__114
10
0
20
0
30
0
70
128
71
3
72
4
73
1
0
SEQEND
8
OBJECT__114
0
POLYLINE
8
OBJECT__115
66
1
70
64
71
6
72
4
62
253
0
VERTEX
8
OBJECT__115
10
33.500000
20
-7.500000
30
21.785000
70
192
0
VERTEX
8
OBJECT__115
10
33.500000
20
-7.500000
30
-26.215000
70
192
0
VERTEX
8
OBJECT__115
10
25.000000
20
1.000000
30
-26.215000
70
192
0
VERTEX
8
OBJECT__115
10
42.000000
20
1.000000
30
21.785000
70
192
0
VERTEX
8
OBJECT__115
10
42.000000
20
1.000000
30
-26.215000
70
192
0
VERTEX
8
OBJECT__115
10
25.000000
20
1.000000
30
21.785000
70
192
0
VERTEX
8
OBJECT__115
10
0
20
0
30
0
70
128
71
1
72
2
73
3
0
VERTEX
8
OBJECT__115
10
0
20
0
30
0
70
128
71
4
72
5
73
2
0
VERTEX
8
OBJECT__115
10
0
20
0
30
0
70
128
71
2
72
1
73
4
0
VERTEX
8
OBJECT__115
10
0
20
0
30
0
70
128
71
3
72
6
73
1
0
SEQEND
8
OBJECT__115
0
POLYLINE
8
OBJECT__116
66
1
70
64
71
4
72
2
62
253
0
VERTEX
8
OBJECT__116
10
25.000000
20
10.500000
30
-26.215000
70
192
0
VERTEX
8
OBJECT__116
10
25.000000
20
10.500000
30
21.785000
70
192
0
VERTEX
8
OBJECT__116
10
25.000000
20
1.000000
30
21.785000
70
192
0
VERTEX
8
OBJECT__116
10
25.000000
20
1.000000
30
-26.215000
70
192
0
VERTEX
8
OBJECT__116
10
0
20
0
30
0
70
128
71
1
72
2
73
3
0
VERTEX
8
OBJECT__116
10
0
20
0
30
0
70
128
71
3
72
4
73
1
0
SEQEND
8
OBJECT__116
0
ENDSEC
0
EOF
