999
Converted by 3D Exploration 
999
XDimension Software, LLC
999
http://www.xdsoft.com/explorer/
0
SECTION
2
HEADER
9
$ACADVER
1
AC1008
9
$UCSORG
10
0.0
20
0.0
30
0.0
9
$UCSXDIR
10
1.0
20
0.0
30
0.0
9
$TILEMODE
70
1
9
$UCSYDIR
10
0.0
20
1.0
30
0.0
9
$EXTMIN
10
0.000000
20
-32.799999
30
-32.799999
9
$EXTMAX
10
117.728996
20
122.339996
30
263.500000
0
ENDSEC
0
SECTION
2
TABLES
0
TABLE
2
LTYPE
70
1
0
LTYPE
2
CONTINUOUS
70
64
3
Solid line
72
65
73
0
40
0.0
0
ENDTAB
0
TABLE
2
LAYER
70
96
0
LAYER
2
OBJECT__0
70
0
62
253
6
CONTINUOUS
0
LAYER
2
OBJECT__1
70
0
62
253
6
CONTINUOUS
0
LAYER
2
OBJECT__3
70
0
62
253
6
CONTINUOUS
0
LAYER
2
OBJECT__4
70
0
62
253
6
CONTINUOUS
0
LAYER
2
OBJECT__5
70
0
62
253
6
CONTINUOUS
0
LAYER
2
OBJECT__6
70
0
62
253
6
CONTINUOUS
0
LAYER
2
OBJECT__7
70
0
62
253
6
CONTINUOUS
0
LAYER
2
OBJECT__8
70
0
62
253
6
CONTINUOUS
0
LAYER
2
OBJECT__10
70
0
62
253
6
CONTINUOUS
0
LAYER
2
OBJECT__11
70
0
62
253
6
CONTINUOUS
0
LAYER
2
OBJECT__13
70
0
62
253
6
CONTINUOUS
0
LAYER
2
OBJECT__14
70
0
62
253
6
CONTINUOUS
0
LAYER
2
OBJECT__15
70
0
62
253
6
CONTINUOUS
0
LAYER
2
OBJECT__17
70
0
62
253
6
CONTINUOUS
0
LAYER
2
OBJECT__18
70
0
62
253
6
CONTINUOUS
0
LAYER
2
OBJECT__19
70
0
62
253
6
CONTINUOUS
0
LAYER
2
OBJECT__20
70
0
62
253
6
CONTINUOUS
0
LAYER
2
OBJECT__21
70
0
62
253
6
CONTINUOUS
0
LAYER
2
OBJECT__22
70
0
62
253
6
CONTINUOUS
0
LAYER
2
OBJECT__23
70
0
62
253
6
CONTINUOUS
0
LAYER
2
OBJECT__24
70
0
62
253
6
CONTINUOUS
0
LAYER
2
OBJECT__25
70
0
62
253
6
CONTINUOUS
0
LAYER
2
OBJECT__26
70
0
62
253
6
CONTINUOUS
0
LAYER
2
OBJECT__28
70
0
62
253
6
CONTINUOUS
0
LAYER
2
OBJECT__29
70
0
62
253
6
CONTINUOUS
0
LAYER
2
OBJECT__30
70
0
62
253
6
CONTINUOUS
0
LAYER
2
OBJECT__31
70
0
62
253
6
CONTINUOUS
0
LAYER
2
OBJECT__32
70
0
62
253
6
CONTINUOUS
0
LAYER
2
OBJECT__33
70
0
62
253
6
CONTINUOUS
0
LAYER
2
OBJECT__34
70
0
62
253
6
CONTINUOUS
0
LAYER
2
OBJECT__35
70
0
62
253
6
CONTINUOUS
0
LAYER
2
OBJECT__36
70
0
62
253
6
CONTINUOUS
0
LAYER
2
OBJECT__37
70
0
62
253
6
CONTINUOUS
0
LAYER
2
OBJECT__38
70
0
62
253
6
CONTINUOUS
0
LAYER
2
OBJECT__39
70
0
62
253
6
CONTINUOUS
0
LAYER
2
OBJECT__40
70
0
62
253
6
CONTINUOUS
0
LAYER
2
OBJECT__41
70
0
62
253
6
CONTINUOUS
0
LAYER
2
OBJECT__42
70
0
62
253
6
CONTINUOUS
0
LAYER
2
OBJECT__43
70
0
62
253
6
CONTINUOUS
0
LAYER
2
OBJECT__44
70
0
62
253
6
CONTINUOUS
0
LAYER
2
OBJECT__45
70
0
62
253
6
CONTINUOUS
0
LAYER
2
OBJECT__46
70
0
62
253
6
CONTINUOUS
0
LAYER
2
OBJECT__47
70
0
62
253
6
CONTINUOUS
0
LAYER
2
OBJECT__48
70
0
62
253
6
CONTINUOUS
0
LAYER
2
OBJECT__49
70
0
62
253
6
CONTINUOUS
0
LAYER
2
OBJECT__50
70
0
62
253
6
CONTINUOUS
0
LAYER
2
OBJECT__51
70
0
62
253
6
CONTINUOUS
0
LAYER
2
OBJECT__52
70
0
62
253
6
CONTINUOUS
0
LAYER
2
OBJECT__53
70
0
62
253
6
CONTINUOUS
0
LAYER
2
OBJECT__54
70
0
62
253
6
CONTINUOUS
0
LAYER
2
OBJECT__55
70
0
62
253
6
CONTINUOUS
0
LAYER
2
OBJECT__56
70
0
62
253
6
CONTINUOUS
0
LAYER
2
OBJECT__57
70
0
62
253
6
CONTINUOUS
0
LAYER
2
OBJECT__58
70
0
62
253
6
CONTINUOUS
0
LAYER
2
OBJECT__59
70
0
62
253
6
CONTINUOUS
0
LAYER
2
OBJECT__60
70
0
62
253
6
CONTINUOUS
0
LAYER
2
OBJECT__61
70
0
62
253
6
CONTINUOUS
0
LAYER
2
OBJECT__62
70
0
62
253
6
CONTINUOUS
0
LAYER
2
OBJECT__63
70
0
62
253
6
CONTINUOUS
0
LAYER
2
OBJECT__65
70
0
62
253
6
CONTINUOUS
0
LAYER
2
OBJECT__66
70
0
62
253
6
CONTINUOUS
0
LAYER
2
OBJECT__68
70
0
62
253
6
CONTINUOUS
0
LAYER
2
OBJECT__69
70
0
62
253
6
CONTINUOUS
0
LAYER
2
OBJECT__70
70
0
62
253
6
CONTINUOUS
0
LAYER
2
OBJECT__71
70
0
62
253
6
CONTINUOUS
0
LAYER
2
OBJECT__72
70
0
62
253
6
CONTINUOUS
0
LAYER
2
OBJECT__73
70
0
62
253
6
CONTINUOUS
0
LAYER
2
OBJECT__74
70
0
62
253
6
CONTINUOUS
0
LAYER
2
OBJECT__75
70
0
62
253
6
CONTINUOUS
0
LAYER
2
OBJECT__76
70
0
62
253
6
CONTINUOUS
0
LAYER
2
OBJECT__77
70
0
62
253
6
CONTINUOUS
0
LAYER
2
OBJECT__79
70
0
62
253
6
CONTINUOUS
0
LAYER
2
OBJECT__80
70
0
62
253
6
CONTINUOUS
0
LAYER
2
OBJECT__81
70
0
62
253
6
CONTINUOUS
0
LAYER
2
OBJECT__82
70
0
62
253
6
CONTINUOUS
0
LAYER
2
OBJECT__83
70
0
62
253
6
CONTINUOUS
0
LAYER
2
OBJECT__84
70
0
62
253
6
CONTINUOUS
0
LAYER
2
OBJECT__85
70
0
62
253
6
CONTINUOUS
0
LAYER
2
OBJECT__86
70
0
62
253
6
CONTINUOUS
0
LAYER
2
OBJECT__87
70
0
62
253
6
CONTINUOUS
0
LAYER
2
OBJECT__89
70
0
62
253
6
CONTINUOUS
0
LAYER
2
OBJECT__90
70
0
62
253
6
CONTINUOUS
0
LAYER
2
OBJECT__91
70
0
62
253
6
CONTINUOUS
0
LAYER
2
OBJECT__92
70
0
62
253
6
CONTINUOUS
0
LAYER
2
OBJECT__93
70
0
62
253
6
CONTINUOUS
0
LAYER
2
OBJECT__94
70
0
62
253
6
CONTINUOUS
0
LAYER
2
OBJECT__95
70
0
62
253
6
CONTINUOUS
0
ENDTAB
0
TABLE
2
STYLE
70
1
0
STYLE
2
STANDARD
70
0
40
0.0
41
1.0
50
0.0
71
0
42
0.2
3
txt
4
1
0
ENDTAB
0
TABLE
2
UCS
70
0
0
ENDTAB
0
ENDSEC
0
SECTION
2
ENTITIES
0
POLYLINE
8
OBJECT__0
66
1
70
64
71
35
72
46
62
253
0
VERTEX
8
OBJECT__0
10
32.588001
20
71.049004
30
5.400000
70
192
0
VERTEX
8
OBJECT__0
10
33.360001
20
70.553001
30
4.300000
70
192
0
VERTEX
8
OBJECT__0
10
31.729000
20
65.000000
30
4.300000
70
192
0
VERTEX
8
OBJECT__0
10
37.352001
20
75.177002
30
5.400000
70
192
0
VERTEX
8
OBJECT__0
10
37.733002
20
74.343002
30
4.300000
70
192
0
VERTEX
8
OBJECT__0
10
43.591999
20
76.073997
30
5.400000
70
192
0
VERTEX
8
OBJECT__0
10
43.462002
20
75.166000
30
4.300000
70
192
0
VERTEX
8
OBJECT__0
10
49.327000
20
73.456001
30
5.400000
70
192
0
VERTEX
8
OBJECT__0
10
48.726002
20
72.762001
30
4.300000
70
192
0
VERTEX
8
OBJECT__0
10
52.735001
20
68.152000
30
5.400000
70
192
0
VERTEX
8
OBJECT__0
10
51.855000
20
67.893997
30
4.300000
70
192
0
VERTEX
8
OBJECT__0
10
52.735001
20
61.848000
30
5.400000
70
192
0
VERTEX
8
OBJECT__0
10
51.855000
20
62.105999
30
4.300000
70
192
0
VERTEX
8
OBJECT__0
10
49.327000
20
56.543999
30
5.400000
70
192
0
VERTEX
8
OBJECT__0
10
48.726002
20
57.237999
30
4.300000
70
192
0
VERTEX
8
OBJECT__0
10
43.591999
20
53.925999
30
5.400000
70
192
0
VERTEX
8
OBJECT__0
10
43.462002
20
54.834000
30
4.300000
70
192
0
VERTEX
8
OBJECT__0
10
37.352001
20
54.823002
30
5.400000
70
192
0
VERTEX
8
OBJECT__0
10
37.733002
20
55.657001
30
4.300000
70
192
0
VERTEX
8
OBJECT__0
10
32.588001
20
58.951000
30
5.400000
70
192
0
VERTEX
8
OBJECT__0
10
33.360001
20
59.446999
30
4.300000
70
192
0
VERTEX
8
OBJECT__0
10
30.812000
20
65.000000
30
5.400000
70
192
0
VERTEX
8
OBJECT__0
10
31.729000
20
65.000000
30
6.500000
70
192
0
VERTEX
8
OBJECT__0
10
33.360001
20
70.553001
30
6.500000
70
192
0
VERTEX
8
OBJECT__0
10
35.273998
20
72.762001
30
6.500000
70
192
0
VERTEX
8
OBJECT__0
10
37.733002
20
74.343002
30
6.500000
70
192
0
VERTEX
8
OBJECT__0
10
43.462002
20
75.166000
30
6.500000
70
192
0
VERTEX
8
OBJECT__0
10
48.726002
20
72.762001
30
6.500000
70
192
0
VERTEX
8
OBJECT__0
10
51.855000
20
67.893997
30
6.500000
70
192
0
VERTEX
8
OBJECT__0
10
51.855000
20
62.105999
30
6.500000
70
192
0
VERTEX
8
OBJECT__0
10
48.726002
20
57.237999
30
6.500000
70
192
0
VERTEX
8
OBJECT__0
10
43.462002
20
54.834000
30
6.500000
70
192
0
VERTEX
8
OBJECT__0
10
40.537998
20
54.834000
30
6.500000
70
192
0
VERTEX
8
OBJECT__0
10
37.733002
20
55.657001
30
6.500000
70
192
0
VERTEX
8
OBJECT__0
10
33.360001
20
59.446999
30
6.500000
70
192
0
VERTEX
8
OBJECT__0
10
0
20
0
30
0
70
128
71
1
72
2
73
3
0
VERTEX
8
OBJECT__0
10
0
20
0
30
0
70
128
71
4
72
5
73
2
0
VERTEX
8
OBJECT__0
10
0
20
0
30
0
70
128
71
4
72
6
73
7
0
VERTEX
8
OBJECT__0
10
0
20
0
30
0
70
128
71
6
72
8
73
9
0
VERTEX
8
OBJECT__0
10
0
20
0
30
0
70
128
71
8
72
10
73
11
0
VERTEX
8
OBJECT__0
10
0
20
0
30
0
70
128
71
10
72
12
73
13
0
VERTEX
8
OBJECT__0
10
0
20
0
30
0
70
128
71
14
72
15
73
13
0
VERTEX
8
OBJECT__0
10
0
20
0
30
0
70
128
71
14
72
16
73
17
0
VERTEX
8
OBJECT__0
10
0
20
0
30
0
70
128
71
16
72
18
73
19
0
VERTEX
8
OBJECT__0
10
0
20
0
30
0
70
128
71
18
72
20
73
21
0
VERTEX
8
OBJECT__0
10
0
20
0
30
0
70
128
71
22
72
3
73
21
0
VERTEX
8
OBJECT__0
10
0
20
0
30
0
70
128
71
1
72
22
73
23
0
VERTEX
8
OBJECT__0
10
0
20
0
30
0
70
128
71
1
72
24
73
25
0
VERTEX
8
OBJECT__0
10
0
20
0
30
0
70
128
71
25
72
4
73
1
0
VERTEX
8
OBJECT__0
10
0
20
0
30
0
70
128
71
4
72
26
73
27
0
VERTEX
8
OBJECT__0
10
0
20
0
30
0
70
128
71
8
72
6
73
27
0
VERTEX
8
OBJECT__0
10
0
20
0
30
0
70
128
71
10
72
8
73
28
0
VERTEX
8
OBJECT__0
10
0
20
0
30
0
70
128
71
12
72
10
73
29
0
VERTEX
8
OBJECT__0
10
0
20
0
30
0
70
128
71
12
72
30
73
31
0
VERTEX
8
OBJECT__0
10
0
20
0
30
0
70
128
71
14
72
31
73
32
0
VERTEX
8
OBJECT__0
10
0
20
0
30
0
70
128
71
16
72
32
73
33
0
VERTEX
8
OBJECT__0
10
0
20
0
30
0
70
128
71
33
72
18
73
16
0
VERTEX
8
OBJECT__0
10
0
20
0
30
0
70
128
71
18
72
34
73
35
0
VERTEX
8
OBJECT__0
10
0
20
0
30
0
70
128
71
22
72
20
73
35
0
VERTEX
8
OBJECT__0
10
0
20
0
30
0
70
128
71
35
72
23
73
22
0
VERTEX
8
OBJECT__0
10
0
20
0
30
0
70
128
71
35
72
20
73
18
0
VERTEX
8
OBJECT__0
10
0
20
0
30
0
70
128
71
33
72
34
73
18
0
VERTEX
8
OBJECT__0
10
0
20
0
30
0
70
128
71
32
72
16
73
14
0
VERTEX
8
OBJECT__0
10
0
20
0
30
0
70
128
71
31
72
14
73
12
0
VERTEX
8
OBJECT__0
10
0
20
0
30
0
70
128
71
29
72
30
73
12
0
VERTEX
8
OBJECT__0
10
0
20
0
30
0
70
128
71
28
72
29
73
10
0
VERTEX
8
OBJECT__0
10
0
20
0
30
0
70
128
71
27
72
28
73
8
0
VERTEX
8
OBJECT__0
10
0
20
0
30
0
70
128
71
27
72
6
73
4
0
VERTEX
8
OBJECT__0
10
0
20
0
30
0
70
128
71
25
72
26
73
4
0
VERTEX
8
OBJECT__0
10
0
20
0
30
0
70
128
71
23
72
24
73
1
0
VERTEX
8
OBJECT__0
10
0
20
0
30
0
70
128
71
21
72
20
73
22
0
VERTEX
8
OBJECT__0
10
0
20
0
30
0
70
128
71
21
72
19
73
18
0
VERTEX
8
OBJECT__0
10
0
20
0
30
0
70
128
71
19
72
17
73
16
0
VERTEX
8
OBJECT__0
10
0
20
0
30
0
70
128
71
17
72
15
73
14
0
VERTEX
8
OBJECT__0
10
0
20
0
30
0
70
128
71
13
72
12
73
14
0
VERTEX
8
OBJECT__0
10
0
20
0
30
0
70
128
71
13
72
11
73
10
0
VERTEX
8
OBJECT__0
10
0
20
0
30
0
70
128
71
11
72
9
73
8
0
VERTEX
8
OBJECT__0
10
0
20
0
30
0
70
128
71
9
72
7
73
6
0
VERTEX
8
OBJECT__0
10
0
20
0
30
0
70
128
71
7
72
5
73
4
0
VERTEX
8
OBJECT__0
10
0
20
0
30
0
70
128
71
2
72
1
73
4
0
VERTEX
8
OBJECT__0
10
0
20
0
30
0
70
128
71
3
72
22
73
1
0
SEQEND
8
OBJECT__0
0
POLYLINE
8
OBJECT__1
66
1
70
64
71
23
72
23
62
253
0
VERTEX
8
OBJECT__1
10
37.765999
20
54.778999
30
6.500000
70
192
0
VERTEX
8
OBJECT__1
10
37.733002
20
55.657001
30
6.500000
70
192
0
VERTEX
8
OBJECT__1
10
40.537998
20
54.834000
30
6.500000
70
192
0
VERTEX
8
OBJECT__1
10
42.000000
20
53.936001
30
6.500000
70
192
0
VERTEX
8
OBJECT__1
10
34.176998
20
57.176998
30
6.500000
70
192
0
VERTEX
8
OBJECT__1
10
37.765999
20
75.221001
30
6.500000
70
192
0
VERTEX
8
OBJECT__1
10
37.733002
20
74.343002
30
6.500000
70
192
0
VERTEX
8
OBJECT__1
10
35.273998
20
72.762001
30
6.500000
70
192
0
VERTEX
8
OBJECT__1
10
49.823002
20
57.176998
30
6.500000
70
192
0
VERTEX
8
OBJECT__1
10
43.462002
20
54.834000
30
6.500000
70
192
0
VERTEX
8
OBJECT__1
10
33.360001
20
59.446999
30
6.500000
70
192
0
VERTEX
8
OBJECT__1
10
34.176998
20
72.822998
30
6.500000
70
192
0
VERTEX
8
OBJECT__1
10
42.000000
20
76.064003
30
6.500000
70
192
0
VERTEX
8
OBJECT__1
10
30.936001
20
65.000000
30
6.500000
70
192
0
VERTEX
8
OBJECT__1
10
33.360001
20
70.553001
30
6.500000
70
192
0
VERTEX
8
OBJECT__1
10
43.462002
20
75.166000
30
6.500000
70
192
0
VERTEX
8
OBJECT__1
10
49.823002
20
72.822998
30
6.500000
70
192
0
VERTEX
8
OBJECT__1
10
48.726002
20
72.762001
30
6.500000
70
192
0
VERTEX
8
OBJECT__1
10
53.063999
20
65.000000
30
6.500000
70
192
0
VERTEX
8
OBJECT__1
10
51.855000
20
67.893997
30
6.500000
70
192
0
VERTEX
8
OBJECT__1
10
51.855000
20
62.105999
30
6.500000
70
192
0
VERTEX
8
OBJECT__1
10
48.726002
20
57.237999
30
6.500000
70
192
0
VERTEX
8
OBJECT__1
10
31.729000
20
65.000000
30
6.500000
70
192
0
VERTEX
8
OBJECT__1
10
0
20
0
30
0
70
128
71
1
72
2
73
3
0
VERTEX
8
OBJECT__1
10
0
20
0
30
0
70
128
71
3
72
4
73
1
0
VERTEX
8
OBJECT__1
10
0
20
0
30
0
70
128
71
2
72
1
73
5
0
VERTEX
8
OBJECT__1
10
0
20
0
30
0
70
128
71
6
72
7
73
8
0
VERTEX
8
OBJECT__1
10
0
20
0
30
0
70
128
71
9
72
4
73
10
0
VERTEX
8
OBJECT__1
10
0
20
0
30
0
70
128
71
5
72
11
73
2
0
VERTEX
8
OBJECT__1
10
0
20
0
30
0
70
128
71
8
72
12
73
6
0
VERTEX
8
OBJECT__1
10
0
20
0
30
0
70
128
71
7
72
6
73
13
0
VERTEX
8
OBJECT__1
10
0
20
0
30
0
70
128
71
3
72
10
73
4
0
VERTEX
8
OBJECT__1
10
0
20
0
30
0
70
128
71
14
72
12
73
15
0
VERTEX
8
OBJECT__1
10
0
20
0
30
0
70
128
71
13
72
16
73
7
0
VERTEX
8
OBJECT__1
10
0
20
0
30
0
70
128
71
17
72
18
73
16
0
VERTEX
8
OBJECT__1
10
0
20
0
30
0
70
128
71
17
72
19
73
20
0
VERTEX
8
OBJECT__1
10
0
20
0
30
0
70
128
71
19
72
9
73
21
0
VERTEX
8
OBJECT__1
10
0
20
0
30
0
70
128
71
10
72
22
73
9
0
VERTEX
8
OBJECT__1
10
0
20
0
30
0
70
128
71
8
72
15
73
12
0
VERTEX
8
OBJECT__1
10
0
20
0
30
0
70
128
71
20
72
18
73
17
0
VERTEX
8
OBJECT__1
10
0
20
0
30
0
70
128
71
22
72
21
73
9
0
VERTEX
8
OBJECT__1
10
0
20
0
30
0
70
128
71
21
72
20
73
19
0
VERTEX
8
OBJECT__1
10
0
20
0
30
0
70
128
71
14
72
23
73
11
0
VERTEX
8
OBJECT__1
10
0
20
0
30
0
70
128
71
16
72
13
73
17
0
VERTEX
8
OBJECT__1
10
0
20
0
30
0
70
128
71
11
72
5
73
14
0
VERTEX
8
OBJECT__1
10
0
20
0
30
0
70
128
71
15
72
23
73
14
0
SEQEND
8
OBJECT__1
0
POLYLINE
8
OBJECT__3
66
1
70
64
71
18
72
18
62
253
0
VERTEX
8
OBJECT__3
10
53.849998
20
65.000000
30
21.500000
70
192
0
VERTEX
8
OBJECT__3
10
53.063999
20
65.000000
30
6.500000
70
192
0
VERTEX
8
OBJECT__3
10
49.823002
20
72.822998
30
6.500000
70
192
0
VERTEX
8
OBJECT__3
10
50.379002
20
73.378998
30
21.500000
70
192
0
VERTEX
8
OBJECT__3
10
42.000000
20
76.064003
30
6.500000
70
192
0
VERTEX
8
OBJECT__3
10
42.000000
20
76.849998
30
21.500000
70
192
0
VERTEX
8
OBJECT__3
10
37.765999
20
75.221001
30
6.500000
70
192
0
VERTEX
8
OBJECT__3
10
33.620998
20
73.378998
30
21.500000
70
192
0
VERTEX
8
OBJECT__3
10
30.150000
20
65.000000
30
21.500000
70
192
0
VERTEX
8
OBJECT__3
10
34.176998
20
72.822998
30
6.500000
70
192
0
VERTEX
8
OBJECT__3
10
33.620998
20
56.620998
30
21.500000
70
192
0
VERTEX
8
OBJECT__3
10
30.936001
20
65.000000
30
6.500000
70
192
0
VERTEX
8
OBJECT__3
10
42.000000
20
53.150002
30
21.500000
70
192
0
VERTEX
8
OBJECT__3
10
37.765999
20
54.778999
30
6.500000
70
192
0
VERTEX
8
OBJECT__3
10
34.176998
20
57.176998
30
6.500000
70
192
0
VERTEX
8
OBJECT__3
10
50.379002
20
56.620998
30
21.500000
70
192
0
VERTEX
8
OBJECT__3
10
42.000000
20
53.936001
30
6.500000
70
192
0
VERTEX
8
OBJECT__3
10
49.823002
20
57.176998
30
6.500000
70
192
0
VERTEX
8
OBJECT__3
10
0
20
0
30
0
70
128
71
1
72
2
73
3
0
VERTEX
8
OBJECT__3
10
0
20
0
30
0
70
128
71
4
72
3
73
5
0
VERTEX
8
OBJECT__3
10
0
20
0
30
0
70
128
71
6
72
5
73
7
0
VERTEX
8
OBJECT__3
10
0
20
0
30
0
70
128
71
7
72
8
73
6
0
VERTEX
8
OBJECT__3
10
0
20
0
30
0
70
128
71
9
72
8
73
10
0
VERTEX
8
OBJECT__3
10
0
20
0
30
0
70
128
71
11
72
9
73
12
0
VERTEX
8
OBJECT__3
10
0
20
0
30
0
70
128
71
13
72
11
73
14
0
VERTEX
8
OBJECT__3
10
0
20
0
30
0
70
128
71
11
72
15
73
14
0
VERTEX
8
OBJECT__3
10
0
20
0
30
0
70
128
71
16
72
13
73
17
0
VERTEX
8
OBJECT__3
10
0
20
0
30
0
70
128
71
16
72
18
73
2
0
VERTEX
8
OBJECT__3
10
0
20
0
30
0
70
128
71
2
72
1
73
16
0
VERTEX
8
OBJECT__3
10
0
20
0
30
0
70
128
71
17
72
18
73
16
0
VERTEX
8
OBJECT__3
10
0
20
0
30
0
70
128
71
14
72
17
73
13
0
VERTEX
8
OBJECT__3
10
0
20
0
30
0
70
128
71
12
72
15
73
11
0
VERTEX
8
OBJECT__3
10
0
20
0
30
0
70
128
71
10
72
12
73
9
0
VERTEX
8
OBJECT__3
10
0
20
0
30
0
70
128
71
7
72
10
73
8
0
VERTEX
8
OBJECT__3
10
0
20
0
30
0
70
128
71
5
72
6
73
4
0
VERTEX
8
OBJECT__3
10
0
20
0
30
0
70
128
71
3
72
4
73
1
0
SEQEND
8
OBJECT__3
0
POLYLINE
8
OBJECT__4
66
1
70
64
71
16
72
16
62
253
0
VERTEX
8
OBJECT__4
10
30.150000
20
65.000000
30
21.500000
70
192
0
VERTEX
8
OBJECT__4
10
30.450001
20
65.000000
30
21.799999
70
192
0
VERTEX
8
OBJECT__4
10
33.833000
20
73.167000
30
21.799999
70
192
0
VERTEX
8
OBJECT__4
10
42.000000
20
76.849998
30
21.500000
70
192
0
VERTEX
8
OBJECT__4
10
33.620998
20
73.378998
30
21.500000
70
192
0
VERTEX
8
OBJECT__4
10
42.000000
20
76.550003
30
21.799999
70
192
0
VERTEX
8
OBJECT__4
10
50.167000
20
73.167000
30
21.799999
70
192
0
VERTEX
8
OBJECT__4
10
50.379002
20
73.378998
30
21.500000
70
192
0
VERTEX
8
OBJECT__4
10
53.549999
20
65.000000
30
21.799999
70
192
0
VERTEX
8
OBJECT__4
10
53.849998
20
65.000000
30
21.500000
70
192
0
VERTEX
8
OBJECT__4
10
50.167000
20
56.833000
30
21.799999
70
192
0
VERTEX
8
OBJECT__4
10
42.000000
20
53.150002
30
21.500000
70
192
0
VERTEX
8
OBJECT__4
10
50.379002
20
56.620998
30
21.500000
70
192
0
VERTEX
8
OBJECT__4
10
42.000000
20
53.450001
30
21.799999
70
192
0
VERTEX
8
OBJECT__4
10
33.833000
20
56.833000
30
21.799999
70
192
0
VERTEX
8
OBJECT__4
10
33.620998
20
56.620998
30
21.500000
70
192
0
VERTEX
8
OBJECT__4
10
0
20
0
30
0
70
128
71
1
72
2
73
3
0
VERTEX
8
OBJECT__4
10
0
20
0
30
0
70
128
71
4
72
5
73
3
0
VERTEX
8
OBJECT__4
10
0
20
0
30
0
70
128
71
4
72
6
73
7
0
VERTEX
8
OBJECT__4
10
0
20
0
30
0
70
128
71
8
72
7
73
9
0
VERTEX
8
OBJECT__4
10
0
20
0
30
0
70
128
71
10
72
9
73
11
0
VERTEX
8
OBJECT__4
10
0
20
0
30
0
70
128
71
12
72
13
73
11
0
VERTEX
8
OBJECT__4
10
0
20
0
30
0
70
128
71
12
72
14
73
15
0
VERTEX
8
OBJECT__4
10
0
20
0
30
0
70
128
71
16
72
15
73
2
0
VERTEX
8
OBJECT__4
10
0
20
0
30
0
70
128
71
2
72
1
73
16
0
VERTEX
8
OBJECT__4
10
0
20
0
30
0
70
128
71
15
72
16
73
12
0
VERTEX
8
OBJECT__4
10
0
20
0
30
0
70
128
71
11
72
14
73
12
0
VERTEX
8
OBJECT__4
10
0
20
0
30
0
70
128
71
11
72
13
73
10
0
VERTEX
8
OBJECT__4
10
0
20
0
30
0
70
128
71
9
72
10
73
8
0
VERTEX
8
OBJECT__4
10
0
20
0
30
0
70
128
71
7
72
8
73
4
0
VERTEX
8
OBJECT__4
10
0
20
0
30
0
70
128
71
3
72
6
73
4
0
VERTEX
8
OBJECT__4
10
0
20
0
30
0
70
128
71
3
72
5
73
1
0
SEQEND
8
OBJECT__4
0
POLYLINE
8
OBJECT__5
66
1
70
64
71
26
72
26
62
253
0
VERTEX
8
OBJECT__5
10
30.450001
20
65.000000
30
21.799999
70
192
0
VERTEX
8
OBJECT__5
10
30.450001
20
65.000000
30
24.500000
70
192
0
VERTEX
8
OBJECT__5
10
32.284000
20
71.244003
30
24.500000
70
192
0
VERTEX
8
OBJECT__5
10
33.833000
20
73.167000
30
21.799999
70
192
0
VERTEX
8
OBJECT__5
10
42.000000
20
76.550003
30
21.799999
70
192
0
VERTEX
8
OBJECT__5
10
37.202000
20
75.505997
30
24.500000
70
192
0
VERTEX
8
OBJECT__5
10
34.119999
20
72.835999
30
24.500000
70
192
0
VERTEX
8
OBJECT__5
10
50.167000
20
73.167000
30
21.799999
70
192
0
VERTEX
8
OBJECT__5
10
43.644001
20
76.431999
30
24.500000
70
192
0
VERTEX
8
OBJECT__5
10
49.563000
20
73.728996
30
24.500000
70
192
0
VERTEX
8
OBJECT__5
10
42.049999
20
76.203003
30
24.500000
70
192
0
VERTEX
8
OBJECT__5
10
49.994999
20
73.056999
30
24.500000
70
192
0
VERTEX
8
OBJECT__5
10
53.082001
20
68.253998
30
24.500000
70
192
0
VERTEX
8
OBJECT__5
10
53.549999
20
65.000000
30
21.799999
70
192
0
VERTEX
8
OBJECT__5
10
50.167000
20
56.833000
30
21.799999
70
192
0
VERTEX
8
OBJECT__5
10
53.082001
20
61.745998
30
24.500000
70
192
0
VERTEX
8
OBJECT__5
10
53.082001
20
65.000000
30
24.500000
70
192
0
VERTEX
8
OBJECT__5
10
49.563000
20
56.271000
30
24.500000
70
192
0
VERTEX
8
OBJECT__5
10
43.644001
20
53.568001
30
24.500000
70
192
0
VERTEX
8
OBJECT__5
10
42.000000
20
53.450001
30
21.799999
70
192
0
VERTEX
8
OBJECT__5
10
49.994999
20
56.943001
30
24.500000
70
192
0
VERTEX
8
OBJECT__5
10
42.049999
20
53.797001
30
24.500000
70
192
0
VERTEX
8
OBJECT__5
10
37.202000
20
54.493999
30
24.500000
70
192
0
VERTEX
8
OBJECT__5
10
33.833000
20
56.833000
30
21.799999
70
192
0
VERTEX
8
OBJECT__5
10
32.284000
20
58.756001
30
24.500000
70
192
0
VERTEX
8
OBJECT__5
10
34.119999
20
57.164001
30
24.500000
70
192
0
VERTEX
8
OBJECT__5
10
0
20
0
30
0
70
128
71
1
72
2
73
3
0
VERTEX
8
OBJECT__5
10
0
20
0
30
0
70
128
71
3
72
4
73
1
0
VERTEX
8
OBJECT__5
10
0
20
0
30
0
70
128
71
5
72
4
73
6
0
VERTEX
8
OBJECT__5
10
0
20
0
30
0
70
128
71
4
72
7
73
6
0
VERTEX
8
OBJECT__5
10
0
20
0
30
0
70
128
71
8
72
5
73
9
0
VERTEX
8
OBJECT__5
10
0
20
0
30
0
70
128
71
9
72
10
73
8
0
VERTEX
8
OBJECT__5
10
0
20
0
30
0
70
128
71
5
72
11
73
9
0
VERTEX
8
OBJECT__5
10
0
20
0
30
0
70
128
71
8
72
12
73
13
0
VERTEX
8
OBJECT__5
10
0
20
0
30
0
70
128
71
13
72
14
73
8
0
VERTEX
8
OBJECT__5
10
0
20
0
30
0
70
128
71
15
72
14
73
16
0
VERTEX
8
OBJECT__5
10
0
20
0
30
0
70
128
71
14
72
17
73
16
0
VERTEX
8
OBJECT__5
10
0
20
0
30
0
70
128
71
15
72
18
73
19
0
VERTEX
8
OBJECT__5
10
0
20
0
30
0
70
128
71
19
72
20
73
15
0
VERTEX
8
OBJECT__5
10
0
20
0
30
0
70
128
71
15
72
21
73
18
0
VERTEX
8
OBJECT__5
10
0
20
0
30
0
70
128
71
20
72
22
73
23
0
VERTEX
8
OBJECT__5
10
0
20
0
30
0
70
128
71
23
72
24
73
20
0
VERTEX
8
OBJECT__5
10
0
20
0
30
0
70
128
71
1
72
24
73
25
0
VERTEX
8
OBJECT__5
10
0
20
0
30
0
70
128
71
24
72
26
73
25
0
VERTEX
8
OBJECT__5
10
0
20
0
30
0
70
128
71
25
72
2
73
1
0
VERTEX
8
OBJECT__5
10
0
20
0
30
0
70
128
71
23
72
26
73
24
0
VERTEX
8
OBJECT__5
10
0
20
0
30
0
70
128
71
19
72
22
73
20
0
VERTEX
8
OBJECT__5
10
0
20
0
30
0
70
128
71
16
72
21
73
15
0
VERTEX
8
OBJECT__5
10
0
20
0
30
0
70
128
71
13
72
17
73
14
0
VERTEX
8
OBJECT__5
10
0
20
0
30
0
70
128
71
10
72
12
73
8
0
VERTEX
8
OBJECT__5
10
0
20
0
30
0
70
128
71
6
72
11
73
5
0
VERTEX
8
OBJECT__5
10
0
20
0
30
0
70
128
71
3
72
7
73
4
0
SEQEND
8
OBJECT__5
0
POLYLINE
8
OBJECT__6
66
1
70
64
71
40
72
51
62
253
0
VERTEX
8
OBJECT__6
10
32.407001
20
71.165001
30
24.854000
70
192
0
VERTEX
8
OBJECT__6
10
30.597000
20
65.000000
30
24.854000
70
192
0
VERTEX
8
OBJECT__6
10
30.950001
20
65.000000
30
25.000000
70
192
0
VERTEX
8
OBJECT__6
10
32.703999
20
70.973999
30
25.000000
70
192
0
VERTEX
8
OBJECT__6
10
37.410000
20
75.051003
30
25.000000
70
192
0
VERTEX
8
OBJECT__6
10
43.623001
20
76.287003
30
24.854000
70
192
0
VERTEX
8
OBJECT__6
10
37.263000
20
75.373001
30
24.854000
70
192
0
VERTEX
8
OBJECT__6
10
49.467999
20
73.617996
30
24.854000
70
192
0
VERTEX
8
OBJECT__6
10
43.573002
20
75.936996
30
25.000000
70
192
0
VERTEX
8
OBJECT__6
10
52.941002
20
68.212997
30
24.854000
70
192
0
VERTEX
8
OBJECT__6
10
49.236000
20
73.350998
30
25.000000
70
192
0
VERTEX
8
OBJECT__6
10
52.941002
20
61.786999
30
24.854000
70
192
0
VERTEX
8
OBJECT__6
10
52.602001
20
68.112999
30
25.000000
70
192
0
VERTEX
8
OBJECT__6
10
49.467999
20
56.382000
30
24.854000
70
192
0
VERTEX
8
OBJECT__6
10
52.602001
20
61.887001
30
25.000000
70
192
0
VERTEX
8
OBJECT__6
10
43.623001
20
53.713001
30
24.854000
70
192
0
VERTEX
8
OBJECT__6
10
49.236000
20
56.648998
30
25.000000
70
192
0
VERTEX
8
OBJECT__6
10
43.573002
20
54.063000
30
25.000000
70
192
0
VERTEX
8
OBJECT__6
10
37.410000
20
54.949001
30
25.000000
70
192
0
VERTEX
8
OBJECT__6
10
37.263000
20
54.626999
30
24.854000
70
192
0
VERTEX
8
OBJECT__6
10
32.703999
20
59.026001
30
25.000000
70
192
0
VERTEX
8
OBJECT__6
10
32.407001
20
58.834999
30
24.854000
70
192
0
VERTEX
8
OBJECT__6
10
32.284000
20
71.244003
30
24.500000
70
192
0
VERTEX
8
OBJECT__6
10
30.450001
20
65.000000
30
24.500000
70
192
0
VERTEX
8
OBJECT__6
10
37.202000
20
75.505997
30
24.500000
70
192
0
VERTEX
8
OBJECT__6
10
34.119999
20
72.835999
30
24.500000
70
192
0
VERTEX
8
OBJECT__6
10
42.049999
20
76.203003
30
24.500000
70
192
0
VERTEX
8
OBJECT__6
10
43.644001
20
76.431999
30
24.500000
70
192
0
VERTEX
8
OBJECT__6
10
53.082001
20
68.253998
30
24.500000
70
192
0
VERTEX
8
OBJECT__6
10
49.994999
20
73.056999
30
24.500000
70
192
0
VERTEX
8
OBJECT__6
10
53.082001
20
65.000000
30
24.500000
70
192
0
VERTEX
8
OBJECT__6
10
53.082001
20
61.745998
30
24.500000
70
192
0
VERTEX
8
OBJECT__6
10
49.994999
20
56.943001
30
24.500000
70
192
0
VERTEX
8
OBJECT__6
10
49.563000
20
56.271000
30
24.500000
70
192
0
VERTEX
8
OBJECT__6
10
43.644001
20
53.568001
30
24.500000
70
192
0
VERTEX
8
OBJECT__6
10
37.202000
20
54.493999
30
24.500000
70
192
0
VERTEX
8
OBJECT__6
10
42.049999
20
53.797001
30
24.500000
70
192
0
VERTEX
8
OBJECT__6
10
34.119999
20
57.164001
30
24.500000
70
192
0
VERTEX
8
OBJECT__6
10
32.284000
20
58.756001
30
24.500000
70
192
0
VERTEX
8
OBJECT__6
10
49.563000
20
73.728996
30
24.500000
70
192
0
VERTEX
8
OBJECT__6
10
0
20
0
30
0
70
128
71
1
72
2
73
3
0
VERTEX
8
OBJECT__6
10
0
20
0
30
0
70
128
71
1
72
4
73
5
0
VERTEX
8
OBJECT__6
10
0
20
0
30
0
70
128
71
6
72
7
73
5
0
VERTEX
8
OBJECT__6
10
0
20
0
30
0
70
128
71
8
72
6
73
9
0
VERTEX
8
OBJECT__6
10
0
20
0
30
0
70
128
71
10
72
8
73
11
0
VERTEX
8
OBJECT__6
10
0
20
0
30
0
70
128
71
12
72
10
73
13
0
VERTEX
8
OBJECT__6
10
0
20
0
30
0
70
128
71
14
72
12
73
15
0
VERTEX
8
OBJECT__6
10
0
20
0
30
0
70
128
71
16
72
14
73
17
0
VERTEX
8
OBJECT__6
10
0
20
0
30
0
70
128
71
16
72
18
73
19
0
VERTEX
8
OBJECT__6
10
0
20
0
30
0
70
128
71
20
72
19
73
21
0
VERTEX
8
OBJECT__6
10
0
20
0
30
0
70
128
71
22
72
21
73
3
0
VERTEX
8
OBJECT__6
10
0
20
0
30
0
70
128
71
23
72
24
73
2
0
VERTEX
8
OBJECT__6
10
0
20
0
30
0
70
128
71
7
72
25
73
26
0
VERTEX
8
OBJECT__6
10
0
20
0
30
0
70
128
71
26
72
1
73
7
0
VERTEX
8
OBJECT__6
10
0
20
0
30
0
70
128
71
7
72
6
73
27
0
VERTEX
8
OBJECT__6
10
0
20
0
30
0
70
128
71
6
72
28
73
27
0
VERTEX
8
OBJECT__6
10
0
20
0
30
0
70
128
71
28
72
6
73
8
0
VERTEX
8
OBJECT__6
10
0
20
0
30
0
70
128
71
10
72
29
73
30
0
VERTEX
8
OBJECT__6
10
0
20
0
30
0
70
128
71
30
72
8
73
10
0
VERTEX
8
OBJECT__6
10
0
20
0
30
0
70
128
71
10
72
12
73
31
0
VERTEX
8
OBJECT__6
10
0
20
0
30
0
70
128
71
12
72
32
73
31
0
VERTEX
8
OBJECT__6
10
0
20
0
30
0
70
128
71
12
72
14
73
33
0
VERTEX
8
OBJECT__6
10
0
20
0
30
0
70
128
71
14
72
34
73
33
0
VERTEX
8
OBJECT__6
10
0
20
0
30
0
70
128
71
35
72
34
73
14
0
VERTEX
8
OBJECT__6
10
0
20
0
30
0
70
128
71
20
72
36
73
37
0
VERTEX
8
OBJECT__6
10
0
20
0
30
0
70
128
71
37
72
16
73
20
0
VERTEX
8
OBJECT__6
10
0
20
0
30
0
70
128
71
20
72
22
73
38
0
VERTEX
8
OBJECT__6
10
0
20
0
30
0
70
128
71
22
72
39
73
38
0
VERTEX
8
OBJECT__6
10
0
20
0
30
0
70
128
71
24
72
39
73
22
0
VERTEX
8
OBJECT__6
10
0
20
0
30
0
70
128
71
22
72
2
73
24
0
VERTEX
8
OBJECT__6
10
0
20
0
30
0
70
128
71
38
72
36
73
20
0
VERTEX
8
OBJECT__6
10
0
20
0
30
0
70
128
71
37
72
35
73
16
0
VERTEX
8
OBJECT__6
10
0
20
0
30
0
70
128
71
14
72
16
73
35
0
VERTEX
8
OBJECT__6
10
0
20
0
30
0
70
128
71
33
72
32
73
12
0
VERTEX
8
OBJECT__6
10
0
20
0
30
0
70
128
71
31
72
29
73
10
0
VERTEX
8
OBJECT__6
10
0
20
0
30
0
70
128
71
30
72
40
73
8
0
VERTEX
8
OBJECT__6
10
0
20
0
30
0
70
128
71
8
72
40
73
28
0
VERTEX
8
OBJECT__6
10
0
20
0
30
0
70
128
71
27
72
25
73
7
0
VERTEX
8
OBJECT__6
10
0
20
0
30
0
70
128
71
26
72
23
73
1
0
VERTEX
8
OBJECT__6
10
0
20
0
30
0
70
128
71
2
72
1
73
23
0
VERTEX
8
OBJECT__6
10
0
20
0
30
0
70
128
71
3
72
2
73
22
0
VERTEX
8
OBJECT__6
10
0
20
0
30
0
70
128
71
21
72
22
73
20
0
VERTEX
8
OBJECT__6
10
0
20
0
30
0
70
128
71
19
72
20
73
16
0
VERTEX
8
OBJECT__6
10
0
20
0
30
0
70
128
71
17
72
18
73
16
0
VERTEX
8
OBJECT__6
10
0
20
0
30
0
70
128
71
15
72
17
73
14
0
VERTEX
8
OBJECT__6
10
0
20
0
30
0
70
128
71
13
72
15
73
12
0
VERTEX
8
OBJECT__6
10
0
20
0
30
0
70
128
71
11
72
13
73
10
0
VERTEX
8
OBJECT__6
10
0
20
0
30
0
70
128
71
9
72
11
73
8
0
VERTEX
8
OBJECT__6
10
0
20
0
30
0
70
128
71
5
72
9
73
6
0
VERTEX
8
OBJECT__6
10
0
20
0
30
0
70
128
71
5
72
7
73
1
0
VERTEX
8
OBJECT__6
10
0
20
0
30
0
70
128
71
3
72
4
73
1
0
SEQEND
8
OBJECT__6
0
POLYLINE
8
OBJECT__7
66
1
70
64
71
87
72
91
62
253
0
VERTEX
8
OBJECT__7
10
102.325996
20
37.319000
30
249.630997
70
192
0
VERTEX
8
OBJECT__7
10
104.681999
20
35.860001
30
251.091003
70
192
0
VERTEX
8
OBJECT__7
10
104.711998
20
33.955002
30
250.483994
70
192
0
VERTEX
8
OBJECT__7
10
104.681000
20
37.210999
30
251.511002
70
192
0
VERTEX
8
OBJECT__7
10
104.794998
20
38.016998
30
251.832001
70
192
0
VERTEX
8
OBJECT__7
10
94.143997
20
35.798000
30
241.686996
70
192
0
VERTEX
8
OBJECT__7
10
103.681999
20
31.413000
30
248.723007
70
192
0
VERTEX
8
OBJECT__7
10
99.554001
20
23.726000
30
241.651001
70
192
0
VERTEX
8
OBJECT__7
10
103.741997
20
31.561001
30
248.824997
70
192
0
VERTEX
8
OBJECT__7
10
98.667999
20
23.364000
30
240.606995
70
192
0
VERTEX
8
OBJECT__7
10
80.848000
20
36.174000
30
226.671005
70
192
0
VERTEX
8
OBJECT__7
10
94.580002
20
20.323000
30
234.654999
70
192
0
VERTEX
8
OBJECT__7
10
91.878998
20
18.011999
30
230.057007
70
192
0
VERTEX
8
OBJECT__7
10
95.891998
20
21.730000
30
236.897003
70
192
0
VERTEX
8
OBJECT__7
10
97.439003
20
22.851000
30
239.113998
70
192
0
VERTEX
8
OBJECT__7
10
97.830002
20
23.014000
30
239.589996
70
192
0
VERTEX
8
OBJECT__7
10
70.642998
20
39.016998
30
212.792007
70
192
0
VERTEX
8
OBJECT__7
10
83.454002
20
14.969000
30
215.811996
70
192
0
VERTEX
8
OBJECT__7
10
87.612999
20
15.961000
30
222.837997
70
192
0
VERTEX
8
OBJECT__7
10
86.404999
20
15.381000
30
220.792999
70
192
0
VERTEX
8
OBJECT__7
10
74.941002
20
17.584000
30
201.503998
70
192
0
VERTEX
8
OBJECT__7
10
71.056999
20
21.023001
30
195.192001
70
192
0
VERTEX
8
OBJECT__7
10
77.821999
20
16.051001
30
206.326996
70
192
0
VERTEX
8
OBJECT__7
10
78.927002
20
15.839000
30
208.186996
70
192
0
VERTEX
8
OBJECT__7
10
62.830002
20
42.744999
30
199.695007
70
192
0
VERTEX
8
OBJECT__7
10
59.041000
20
37.431000
30
179.735001
70
192
0
VERTEX
8
OBJECT__7
10
54.686001
20
43.653000
30
174.410004
70
192
0
VERTEX
8
OBJECT__7
10
65.107002
20
27.389999
30
184.634003
70
192
0
VERTEX
8
OBJECT__7
10
60.313000
20
35.000000
30
179.751999
70
192
0
VERTEX
8
OBJECT__7
10
67.725998
20
23.813000
30
188.529007
70
192
0
VERTEX
8
OBJECT__7
10
67.584999
20
23.856001
30
188.039993
70
192
0
VERTEX
8
OBJECT__7
10
60.191002
20
35.234001
30
179.751007
70
192
0
VERTEX
8
OBJECT__7
10
60.146000
20
35.320000
30
179.750000
70
192
0
VERTEX
8
OBJECT__7
10
68.850998
20
23.083000
30
191.473999
70
192
0
VERTEX
8
OBJECT__7
10
69.680000
20
22.243000
30
192.955002
70
192
0
VERTEX
8
OBJECT__7
10
52.155998
20
49.505001
30
175.906006
70
192
0
VERTEX
8
OBJECT__7
10
51.926998
20
47.595001
30
171.035004
70
192
0
VERTEX
8
OBJECT__7
10
43.172001
20
61.331001
30
158.395004
70
192
0
VERTEX
8
OBJECT__7
10
42.868000
20
65.000000
30
158.473007
70
192
0
VERTEX
8
OBJECT__7
10
47.210999
20
65.000000
30
172.697006
70
192
0
VERTEX
8
OBJECT__7
10
49.048000
20
65.000000
30
177.526993
70
192
0
VERTEX
8
OBJECT__7
10
49.064999
20
51.455002
30
166.516998
70
192
0
VERTEX
8
OBJECT__7
10
43.817001
20
58.535999
30
158.229004
70
192
0
VERTEX
8
OBJECT__7
10
52.636002
20
65.000000
30
186.962006
70
192
0
VERTEX
8
OBJECT__7
10
58.294998
20
65.000000
30
199.270004
70
192
0
VERTEX
8
OBJECT__7
10
74.781998
20
64.300003
30
225.466003
70
192
0
VERTEX
8
OBJECT__7
10
74.779999
20
65.000000
30
225.468002
70
192
0
VERTEX
8
OBJECT__7
10
76.669998
20
65.000000
30
227.895004
70
192
0
VERTEX
8
OBJECT__7
10
74.641998
20
64.007004
30
225.278000
70
192
0
VERTEX
8
OBJECT__7
10
77.309998
20
65.000000
30
228.613007
70
192
0
VERTEX
8
OBJECT__7
10
72.624001
20
63.945000
30
222.576996
70
192
0
VERTEX
8
OBJECT__7
10
72.653999
20
64.000000
30
222.619003
70
192
0
VERTEX
8
OBJECT__7
10
74.389000
20
64.000000
30
224.945999
70
192
0
VERTEX
8
OBJECT__7
10
72.470001
20
62.084000
30
222.300995
70
192
0
VERTEX
8
OBJECT__7
10
72.439003
20
63.701000
30
222.319000
70
192
0
VERTEX
8
OBJECT__7
10
74.601997
20
64.000000
30
225.225998
70
192
0
VERTEX
8
OBJECT__7
10
72.361000
20
61.751999
30
222.132996
70
192
0
VERTEX
8
OBJECT__7
10
71.774002
20
61.674000
30
221.317001
70
192
0
VERTEX
8
OBJECT__7
10
72.302002
20
61.726002
30
222.050995
70
192
0
VERTEX
8
OBJECT__7
10
71.605003
20
61.873001
30
221.093002
70
192
0
VERTEX
8
OBJECT__7
10
71.525002
20
63.731998
30
221.054993
70
192
0
VERTEX
8
OBJECT__7
10
71.555000
20
63.701000
30
221.097000
70
192
0
VERTEX
8
OBJECT__7
10
71.588997
20
61.997002
30
221.076996
70
192
0
VERTEX
8
OBJECT__7
10
70.155998
20
64.250000
30
219.126999
70
192
0
VERTEX
8
OBJECT__7
10
71.228996
20
64.250000
30
220.651001
70
192
0
VERTEX
8
OBJECT__7
10
69.945999
20
64.525002
30
218.828003
70
192
0
VERTEX
8
OBJECT__7
10
59.418999
20
65.000000
30
201.451004
70
192
0
VERTEX
8
OBJECT__7
10
69.945999
20
64.550003
30
218.826996
70
192
0
VERTEX
8
OBJECT__7
10
59.581001
20
65.000000
30
201.766006
70
192
0
VERTEX
8
OBJECT__7
10
69.944000
20
65.000000
30
218.826996
70
192
0
VERTEX
8
OBJECT__7
10
90.174004
20
65.000000
30
243.054001
70
192
0
VERTEX
8
OBJECT__7
10
107.685997
20
56.680000
30
257.429993
70
192
0
VERTEX
8
OBJECT__7
10
108.175003
20
56.680000
30
257.777008
70
192
0
VERTEX
8
OBJECT__7
10
108.077003
20
55.647999
30
257.619995
70
192
0
VERTEX
8
OBJECT__7
10
106.209000
20
56.680000
30
256.365997
70
192
0
VERTEX
8
OBJECT__7
10
107.344002
20
50.049000
30
256.419006
70
192
0
VERTEX
8
OBJECT__7
10
105.061996
20
39.905998
30
252.584000
70
192
0
VERTEX
8
OBJECT__7
10
105.455002
20
57.481998
30
255.876007
70
192
0
VERTEX
8
OBJECT__7
10
90.767998
20
65.000000
30
243.589996
70
192
0
VERTEX
8
OBJECT__7
10
105.421997
20
58.081001
30
255.895004
70
192
0
VERTEX
8
OBJECT__7
10
105.412003
20
58.284000
30
255.901001
70
192
0
VERTEX
8
OBJECT__7
10
100.240997
20
65.000000
30
252.132004
70
192
0
VERTEX
8
OBJECT__7
10
105.855003
20
59.043999
30
256.276001
70
192
0
VERTEX
8
OBJECT__7
10
108.543999
20
65.000000
30
258.369995
70
192
0
VERTEX
8
OBJECT__7
10
106.079002
20
59.085999
30
256.441986
70
192
0
VERTEX
8
OBJECT__7
10
108.358002
20
59.085999
30
258.071991
70
192
0
VERTEX
8
OBJECT__7
10
106.564003
20
59.085999
30
256.794006
70
192
0
VERTEX
8
OBJECT__7
10
0
20
0
30
0
70
128
71
1
72
2
73
3
0
VERTEX
8
OBJECT__7
10
0
20
0
30
0
70
128
71
1
72
4
73
2
0
VERTEX
8
OBJECT__7
10
0
20
0
30
0
70
128
71
1
72
5
73
4
0
VERTEX
8
OBJECT__7
10
0
20
0
30
0
70
128
71
6
72
7
73
8
0
VERTEX
8
OBJECT__7
10
0
20
0
30
0
70
128
71
6
72
1
73
9
0
VERTEX
8
OBJECT__7
10
0
20
0
30
0
70
128
71
9
72
7
73
6
0
VERTEX
8
OBJECT__7
10
0
20
0
30
0
70
128
71
8
72
10
73
6
0
VERTEX
8
OBJECT__7
10
0
20
0
30
0
70
128
71
11
72
12
73
13
0
VERTEX
8
OBJECT__7
10
0
20
0
30
0
70
128
71
11
72
14
73
12
0
VERTEX
8
OBJECT__7
10
0
20
0
30
0
70
128
71
6
72
15
73
14
0
VERTEX
8
OBJECT__7
10
0
20
0
30
0
70
128
71
14
72
11
73
6
0
VERTEX
8
OBJECT__7
10
0
20
0
30
0
70
128
71
6
72
16
73
15
0
VERTEX
8
OBJECT__7
10
0
20
0
30
0
70
128
71
17
72
11
73
18
0
VERTEX
8
OBJECT__7
10
0
20
0
30
0
70
128
71
11
72
19
73
20
0
VERTEX
8
OBJECT__7
10
0
20
0
30
0
70
128
71
20
72
18
73
11
0
VERTEX
8
OBJECT__7
10
0
20
0
30
0
70
128
71
17
72
21
73
22
0
VERTEX
8
OBJECT__7
10
0
20
0
30
0
70
128
71
17
72
23
73
21
0
VERTEX
8
OBJECT__7
10
0
20
0
30
0
70
128
71
17
72
24
73
23
0
VERTEX
8
OBJECT__7
10
0
20
0
30
0
70
128
71
25
72
26
73
27
0
VERTEX
8
OBJECT__7
10
0
20
0
30
0
70
128
71
25
72
28
73
29
0
VERTEX
8
OBJECT__7
10
0
20
0
30
0
70
128
71
25
72
30
73
31
0
VERTEX
8
OBJECT__7
10
0
20
0
30
0
70
128
71
31
72
28
73
25
0
VERTEX
8
OBJECT__7
10
0
20
0
30
0
70
128
71
29
72
32
73
25
0
VERTEX
8
OBJECT__7
10
0
20
0
30
0
70
128
71
32
72
33
73
25
0
VERTEX
8
OBJECT__7
10
0
20
0
30
0
70
128
71
25
72
34
73
30
0
VERTEX
8
OBJECT__7
10
0
20
0
30
0
70
128
71
25
72
22
73
35
0
VERTEX
8
OBJECT__7
10
0
20
0
30
0
70
128
71
35
72
34
73
25
0
VERTEX
8
OBJECT__7
10
0
20
0
30
0
70
128
71
33
72
26
73
25
0
VERTEX
8
OBJECT__7
10
0
20
0
30
0
70
128
71
36
72
27
73
37
0
VERTEX
8
OBJECT__7
10
0
20
0
30
0
70
128
71
38
72
39
73
40
0
VERTEX
8
OBJECT__7
10
0
20
0
30
0
70
128
71
41
72
42
73
43
0
VERTEX
8
OBJECT__7
10
0
20
0
30
0
70
128
71
41
72
36
73
42
0
VERTEX
8
OBJECT__7
10
0
20
0
30
0
70
128
71
43
72
38
73
41
0
VERTEX
8
OBJECT__7
10
0
20
0
30
0
70
128
71
25
72
36
73
44
0
VERTEX
8
OBJECT__7
10
0
20
0
30
0
70
128
71
36
72
41
73
44
0
VERTEX
8
OBJECT__7
10
0
20
0
30
0
70
128
71
44
72
45
73
25
0
VERTEX
8
OBJECT__7
10
0
20
0
30
0
70
128
71
46
72
47
73
48
0
VERTEX
8
OBJECT__7
10
0
20
0
30
0
70
128
71
11
72
49
73
46
0
VERTEX
8
OBJECT__7
10
0
20
0
30
0
70
128
71
46
72
50
73
11
0
VERTEX
8
OBJECT__7
10
0
20
0
30
0
70
128
71
51
72
52
73
53
0
VERTEX
8
OBJECT__7
10
0
20
0
30
0
70
128
71
54
72
55
73
51
0
VERTEX
8
OBJECT__7
10
0
20
0
30
0
70
128
71
51
72
56
73
54
0
VERTEX
8
OBJECT__7
10
0
20
0
30
0
70
128
71
56
72
49
73
54
0
VERTEX
8
OBJECT__7
10
0
20
0
30
0
70
128
71
11
72
57
73
54
0
VERTEX
8
OBJECT__7
10
0
20
0
30
0
70
128
71
54
72
49
73
11
0
VERTEX
8
OBJECT__7
10
0
20
0
30
0
70
128
71
11
72
17
73
58
0
VERTEX
8
OBJECT__7
10
0
20
0
30
0
70
128
71
58
72
59
73
11
0
VERTEX
8
OBJECT__7
10
0
20
0
30
0
70
128
71
25
72
60
73
58
0
VERTEX
8
OBJECT__7
10
0
20
0
30
0
70
128
71
58
72
17
73
25
0
VERTEX
8
OBJECT__7
10
0
20
0
30
0
70
128
71
61
72
62
73
63
0
VERTEX
8
OBJECT__7
10
0
20
0
30
0
70
128
71
63
72
25
73
61
0
VERTEX
8
OBJECT__7
10
0
20
0
30
0
70
128
71
25
72
64
73
65
0
VERTEX
8
OBJECT__7
10
0
20
0
30
0
70
128
71
65
72
61
73
25
0
VERTEX
8
OBJECT__7
10
0
20
0
30
0
70
128
71
25
72
66
73
64
0
VERTEX
8
OBJECT__7
10
0
20
0
30
0
70
128
71
63
72
60
73
25
0
VERTEX
8
OBJECT__7
10
0
20
0
30
0
70
128
71
59
72
57
73
11
0
VERTEX
8
OBJECT__7
10
0
20
0
30
0
70
128
71
53
72
56
73
51
0
VERTEX
8
OBJECT__7
10
0
20
0
30
0
70
128
71
67
72
68
73
66
0
VERTEX
8
OBJECT__7
10
0
20
0
30
0
70
128
71
68
72
67
73
69
0
VERTEX
8
OBJECT__7
10
0
20
0
30
0
70
128
71
69
72
70
73
68
0
VERTEX
8
OBJECT__7
10
0
20
0
30
0
70
128
71
66
72
25
73
67
0
VERTEX
8
OBJECT__7
10
0
20
0
30
0
70
128
71
11
72
50
73
71
0
VERTEX
8
OBJECT__7
10
0
20
0
30
0
70
128
71
71
72
6
73
11
0
VERTEX
8
OBJECT__7
10
0
20
0
30
0
70
128
71
72
72
73
73
74
0
VERTEX
8
OBJECT__7
10
0
20
0
30
0
70
128
71
1
72
75
73
76
0
VERTEX
8
OBJECT__7
10
0
20
0
30
0
70
128
71
75
72
72
73
76
0
VERTEX
8
OBJECT__7
10
0
20
0
30
0
70
128
71
76
72
77
73
1
0
VERTEX
8
OBJECT__7
10
0
20
0
30
0
70
128
71
74
72
76
73
72
0
VERTEX
8
OBJECT__7
10
0
20
0
30
0
70
128
71
78
72
75
73
1
0
VERTEX
8
OBJECT__7
10
0
20
0
30
0
70
128
71
1
72
6
73
78
0
VERTEX
8
OBJECT__7
10
0
20
0
30
0
70
128
71
79
72
80
73
78
0
VERTEX
8
OBJECT__7
10
0
20
0
30
0
70
128
71
79
72
81
73
80
0
VERTEX
8
OBJECT__7
10
0
20
0
30
0
70
128
71
81
72
79
73
82
0
VERTEX
8
OBJECT__7
10
0
20
0
30
0
70
128
71
82
72
83
73
81
0
VERTEX
8
OBJECT__7
10
0
20
0
30
0
70
128
71
84
72
85
73
83
0
VERTEX
8
OBJECT__7
10
0
20
0
30
0
70
128
71
84
72
86
73
87
0
VERTEX
8
OBJECT__7
10
0
20
0
30
0
70
128
71
87
72
85
73
84
0
VERTEX
8
OBJECT__7
10
0
20
0
30
0
70
128
71
83
72
82
73
84
0
VERTEX
8
OBJECT__7
10
0
20
0
30
0
70
128
71
78
72
6
73
79
0
VERTEX
8
OBJECT__7
10
0
20
0
30
0
70
128
71
77
72
5
73
1
0
VERTEX
8
OBJECT__7
10
0
20
0
30
0
70
128
71
71
72
79
73
6
0
VERTEX
8
OBJECT__7
10
0
20
0
30
0
70
128
71
48
72
50
73
46
0
VERTEX
8
OBJECT__7
10
0
20
0
30
0
70
128
71
45
72
67
73
25
0
VERTEX
8
OBJECT__7
10
0
20
0
30
0
70
128
71
40
72
41
73
38
0
VERTEX
8
OBJECT__7
10
0
20
0
30
0
70
128
71
37
72
42
73
36
0
VERTEX
8
OBJECT__7
10
0
20
0
30
0
70
128
71
27
72
36
73
25
0
VERTEX
8
OBJECT__7
10
0
20
0
30
0
70
128
71
22
72
25
73
17
0
VERTEX
8
OBJECT__7
10
0
20
0
30
0
70
128
71
18
72
24
73
17
0
VERTEX
8
OBJECT__7
10
0
20
0
30
0
70
128
71
13
72
19
73
11
0
VERTEX
8
OBJECT__7
10
0
20
0
30
0
70
128
71
10
72
16
73
6
0
VERTEX
8
OBJECT__7
10
0
20
0
30
0
70
128
71
3
72
9
73
1
0
SEQEND
8
OBJECT__7
0
POLYLINE
8
OBJECT__8
66
1
70
64
71
89
72
93
62
253
0
VERTEX
8
OBJECT__8
10
80.848000
20
93.825996
30
226.671005
70
192
0
VERTEX
8
OBJECT__8
10
94.143997
20
94.202003
30
241.686996
70
192
0
VERTEX
8
OBJECT__8
10
90.174004
20
65.000000
30
243.054001
70
192
0
VERTEX
8
OBJECT__8
10
90.767998
20
65.000000
30
243.589996
70
192
0
VERTEX
8
OBJECT__8
10
69.945999
20
65.449997
30
218.826996
70
192
0
VERTEX
8
OBJECT__8
10
69.944000
20
65.000000
30
218.826996
70
192
0
VERTEX
8
OBJECT__8
10
59.581001
20
65.000000
30
201.766006
70
192
0
VERTEX
8
OBJECT__8
10
59.418999
20
65.000000
30
201.451004
70
192
0
VERTEX
8
OBJECT__8
10
62.830002
20
87.254997
30
199.695007
70
192
0
VERTEX
8
OBJECT__8
10
69.945999
20
65.474998
30
218.828003
70
192
0
VERTEX
8
OBJECT__8
10
71.525002
20
66.267998
30
221.054993
70
192
0
VERTEX
8
OBJECT__8
10
71.228996
20
65.750000
30
220.651001
70
192
0
VERTEX
8
OBJECT__8
10
71.589996
20
68.017998
30
221.076996
70
192
0
VERTEX
8
OBJECT__8
10
71.588997
20
68.002998
30
221.076996
70
192
0
VERTEX
8
OBJECT__8
10
71.605003
20
68.126999
30
221.093002
70
192
0
VERTEX
8
OBJECT__8
10
71.555000
20
66.299004
30
221.097000
70
192
0
VERTEX
8
OBJECT__8
10
70.155998
20
65.750000
30
219.126999
70
192
0
VERTEX
8
OBJECT__8
10
70.642998
20
90.983002
30
212.792007
70
192
0
VERTEX
8
OBJECT__8
10
71.774002
20
68.325996
30
221.317001
70
192
0
VERTEX
8
OBJECT__8
10
72.361000
20
68.248001
30
222.132996
70
192
0
VERTEX
8
OBJECT__8
10
72.302002
20
68.274002
30
222.050995
70
192
0
VERTEX
8
OBJECT__8
10
74.641998
20
65.992996
30
225.278000
70
192
0
VERTEX
8
OBJECT__8
10
72.470001
20
67.916000
30
222.300995
70
192
0
VERTEX
8
OBJECT__8
10
74.601997
20
66.000000
30
225.225998
70
192
0
VERTEX
8
OBJECT__8
10
72.624001
20
66.055000
30
222.576996
70
192
0
VERTEX
8
OBJECT__8
10
74.389000
20
66.000000
30
224.945999
70
192
0
VERTEX
8
OBJECT__8
10
72.653999
20
66.000000
30
222.619003
70
192
0
VERTEX
8
OBJECT__8
10
72.439003
20
66.299004
30
222.319000
70
192
0
VERTEX
8
OBJECT__8
10
77.309998
20
65.000000
30
228.613007
70
192
0
VERTEX
8
OBJECT__8
10
74.781998
20
65.699997
30
225.466003
70
192
0
VERTEX
8
OBJECT__8
10
76.669998
20
65.000000
30
227.895004
70
192
0
VERTEX
8
OBJECT__8
10
74.779999
20
65.000000
30
225.468002
70
192
0
VERTEX
8
OBJECT__8
10
58.294998
20
65.000000
30
199.270004
70
192
0
VERTEX
8
OBJECT__8
10
52.636002
20
65.000000
30
186.962006
70
192
0
VERTEX
8
OBJECT__8
10
52.155998
20
80.495003
30
175.906006
70
192
0
VERTEX
8
OBJECT__8
10
49.048000
20
65.000000
30
177.526993
70
192
0
VERTEX
8
OBJECT__8
10
43.172001
20
68.668999
30
158.395004
70
192
0
VERTEX
8
OBJECT__8
10
43.817001
20
71.463997
30
158.229004
70
192
0
VERTEX
8
OBJECT__8
10
49.064999
20
78.544998
30
166.516998
70
192
0
VERTEX
8
OBJECT__8
10
47.210999
20
65.000000
30
172.697006
70
192
0
VERTEX
8
OBJECT__8
10
42.868000
20
65.000000
30
158.473007
70
192
0
VERTEX
8
OBJECT__8
10
51.926998
20
82.404999
30
171.035004
70
192
0
VERTEX
8
OBJECT__8
10
68.850998
20
106.917000
30
191.473999
70
192
0
VERTEX
8
OBJECT__8
10
69.680000
20
107.757004
30
192.955002
70
192
0
VERTEX
8
OBJECT__8
10
65.107002
20
102.610001
30
184.634003
70
192
0
VERTEX
8
OBJECT__8
10
67.584999
20
106.143997
30
188.039993
70
192
0
VERTEX
8
OBJECT__8
10
60.191002
20
94.765999
30
179.751007
70
192
0
VERTEX
8
OBJECT__8
10
60.313000
20
95.000000
30
179.751999
70
192
0
VERTEX
8
OBJECT__8
10
60.146000
20
94.680000
30
179.750000
70
192
0
VERTEX
8
OBJECT__8
10
59.044998
20
92.577003
30
179.735001
70
192
0
VERTEX
8
OBJECT__8
10
67.725998
20
106.186996
30
188.529007
70
192
0
VERTEX
8
OBJECT__8
10
54.687000
20
86.349998
30
174.408997
70
192
0
VERTEX
8
OBJECT__8
10
71.056999
20
108.976997
30
195.192001
70
192
0
VERTEX
8
OBJECT__8
10
74.941002
20
112.416000
30
201.503998
70
192
0
VERTEX
8
OBJECT__8
10
77.821999
20
113.948997
30
206.326996
70
192
0
VERTEX
8
OBJECT__8
10
83.454002
20
115.030998
30
215.811996
70
192
0
VERTEX
8
OBJECT__8
10
86.404999
20
114.619003
30
220.792999
70
192
0
VERTEX
8
OBJECT__8
10
78.927002
20
114.161003
30
208.186996
70
192
0
VERTEX
8
OBJECT__8
10
95.891998
20
108.269997
30
236.897003
70
192
0
VERTEX
8
OBJECT__8
10
87.612999
20
114.039001
30
222.837997
70
192
0
VERTEX
8
OBJECT__8
10
91.878998
20
111.987999
30
230.057007
70
192
0
VERTEX
8
OBJECT__8
10
94.580002
20
109.677002
30
234.654999
70
192
0
VERTEX
8
OBJECT__8
10
97.439003
20
107.149002
30
239.113998
70
192
0
VERTEX
8
OBJECT__8
10
103.681999
20
98.586998
30
248.723007
70
192
0
VERTEX
8
OBJECT__8
10
103.741997
20
98.439003
30
248.824997
70
192
0
VERTEX
8
OBJECT__8
10
98.667999
20
106.636002
30
240.606995
70
192
0
VERTEX
8
OBJECT__8
10
99.554001
20
106.274002
30
241.651001
70
192
0
VERTEX
8
OBJECT__8
10
97.830002
20
106.986000
30
239.589996
70
192
0
VERTEX
8
OBJECT__8
10
102.325996
20
92.681000
30
249.630997
70
192
0
VERTEX
8
OBJECT__8
10
104.711998
20
96.044998
30
250.483994
70
192
0
VERTEX
8
OBJECT__8
10
104.681999
20
94.139999
30
251.091003
70
192
0
VERTEX
8
OBJECT__8
10
104.681000
20
92.789001
30
251.511002
70
192
0
VERTEX
8
OBJECT__8
10
108.543999
20
65.000000
30
258.369995
70
192
0
VERTEX
8
OBJECT__8
10
106.079002
20
70.914001
30
256.441986
70
192
0
VERTEX
8
OBJECT__8
10
106.564003
20
70.914001
30
256.794006
70
192
0
VERTEX
8
OBJECT__8
10
100.240997
20
65.000000
30
252.132004
70
192
0
VERTEX
8
OBJECT__8
10
105.855003
20
70.956001
30
256.276001
70
192
0
VERTEX
8
OBJECT__8
10
105.412003
20
71.716003
30
255.901001
70
192
0
VERTEX
8
OBJECT__8
10
105.455002
20
72.517998
30
255.876007
70
192
0
VERTEX
8
OBJECT__8
10
105.421997
20
71.918999
30
255.895004
70
192
0
VERTEX
8
OBJECT__8
10
105.463997
20
72.605003
30
255.876007
70
192
0
VERTEX
8
OBJECT__8
10
105.061996
20
90.094002
30
252.584000
70
192
0
VERTEX
8
OBJECT__8
10
107.344002
20
79.950996
30
256.419006
70
192
0
VERTEX
8
OBJECT__8
10
106.209000
20
73.320000
30
256.365997
70
192
0
VERTEX
8
OBJECT__8
10
107.685997
20
73.320000
30
257.429993
70
192
0
VERTEX
8
OBJECT__8
10
108.077003
20
74.351997
30
257.619995
70
192
0
VERTEX
8
OBJECT__8
10
108.175003
20
73.320000
30
257.777008
70
192
0
VERTEX
8
OBJECT__8
10
104.794998
20
91.983002
30
251.832001
70
192
0
VERTEX
8
OBJECT__8
10
108.358002
20
70.914001
30
258.071991
70
192
0
VERTEX
8
OBJECT__8
10
0
20
0
30
0
70
128
71
1
72
2
73
3
0
VERTEX
8
OBJECT__8
10
0
20
0
30
0
70
128
71
2
72
4
73
3
0
VERTEX
8
OBJECT__8
10
0
20
0
30
0
70
128
71
5
72
6
73
7
0
VERTEX
8
OBJECT__8
10
0
20
0
30
0
70
128
71
8
72
9
73
10
0
VERTEX
8
OBJECT__8
10
0
20
0
30
0
70
128
71
10
72
5
73
8
0
VERTEX
8
OBJECT__8
10
0
20
0
30
0
70
128
71
9
72
11
73
12
0
VERTEX
8
OBJECT__8
10
0
20
0
30
0
70
128
71
11
72
13
73
14
0
VERTEX
8
OBJECT__8
10
0
20
0
30
0
70
128
71
9
72
15
73
13
0
VERTEX
8
OBJECT__8
10
0
20
0
30
0
70
128
71
13
72
11
73
9
0
VERTEX
8
OBJECT__8
10
0
20
0
30
0
70
128
71
14
72
16
73
11
0
VERTEX
8
OBJECT__8
10
0
20
0
30
0
70
128
71
12
72
17
73
9
0
VERTEX
8
OBJECT__8
10
0
20
0
30
0
70
128
71
9
72
18
73
19
0
VERTEX
8
OBJECT__8
10
0
20
0
30
0
70
128
71
1
72
20
73
21
0
VERTEX
8
OBJECT__8
10
0
20
0
30
0
70
128
71
21
72
18
73
1
0
VERTEX
8
OBJECT__8
10
0
20
0
30
0
70
128
71
21
72
19
73
18
0
VERTEX
8
OBJECT__8
10
0
20
0
30
0
70
128
71
19
72
15
73
9
0
VERTEX
8
OBJECT__8
10
0
20
0
30
0
70
128
71
1
72
22
73
23
0
VERTEX
8
OBJECT__8
10
0
20
0
30
0
70
128
71
23
72
24
73
25
0
VERTEX
8
OBJECT__8
10
0
20
0
30
0
70
128
71
23
72
22
73
24
0
VERTEX
8
OBJECT__8
10
0
20
0
30
0
70
128
71
25
72
24
73
26
0
VERTEX
8
OBJECT__8
10
0
20
0
30
0
70
128
71
26
72
27
73
25
0
VERTEX
8
OBJECT__8
10
0
20
0
30
0
70
128
71
25
72
28
73
23
0
VERTEX
8
OBJECT__8
10
0
20
0
30
0
70
128
71
23
72
20
73
1
0
VERTEX
8
OBJECT__8
10
0
20
0
30
0
70
128
71
1
72
29
73
30
0
VERTEX
8
OBJECT__8
10
0
20
0
30
0
70
128
71
30
72
29
73
31
0
VERTEX
8
OBJECT__8
10
0
20
0
30
0
70
128
71
31
72
32
73
30
0
VERTEX
8
OBJECT__8
10
0
20
0
30
0
70
128
71
30
72
22
73
1
0
VERTEX
8
OBJECT__8
10
0
20
0
30
0
70
128
71
17
72
10
73
9
0
VERTEX
8
OBJECT__8
10
0
20
0
30
0
70
128
71
9
72
33
73
34
0
VERTEX
8
OBJECT__8
10
0
20
0
30
0
70
128
71
34
72
35
73
9
0
VERTEX
8
OBJECT__8
10
0
20
0
30
0
70
128
71
9
72
8
73
33
0
VERTEX
8
OBJECT__8
10
0
20
0
30
0
70
128
71
36
72
37
73
38
0
VERTEX
8
OBJECT__8
10
0
20
0
30
0
70
128
71
38
72
39
73
36
0
VERTEX
8
OBJECT__8
10
0
20
0
30
0
70
128
71
37
72
36
73
40
0
VERTEX
8
OBJECT__8
10
0
20
0
30
0
70
128
71
40
72
41
73
37
0
VERTEX
8
OBJECT__8
10
0
20
0
30
0
70
128
71
35
72
39
73
42
0
VERTEX
8
OBJECT__8
10
0
20
0
30
0
70
128
71
9
72
43
73
44
0
VERTEX
8
OBJECT__8
10
0
20
0
30
0
70
128
71
9
72
45
73
46
0
VERTEX
8
OBJECT__8
10
0
20
0
30
0
70
128
71
9
72
47
73
48
0
VERTEX
8
OBJECT__8
10
0
20
0
30
0
70
128
71
48
72
45
73
9
0
VERTEX
8
OBJECT__8
10
0
20
0
30
0
70
128
71
9
72
49
73
47
0
VERTEX
8
OBJECT__8
10
0
20
0
30
0
70
128
71
9
72
50
73
49
0
VERTEX
8
OBJECT__8
10
0
20
0
30
0
70
128
71
46
72
51
73
9
0
VERTEX
8
OBJECT__8
10
0
20
0
30
0
70
128
71
51
72
43
73
9
0
VERTEX
8
OBJECT__8
10
0
20
0
30
0
70
128
71
9
72
35
73
52
0
VERTEX
8
OBJECT__8
10
0
20
0
30
0
70
128
71
52
72
50
73
9
0
VERTEX
8
OBJECT__8
10
0
20
0
30
0
70
128
71
18
72
9
73
53
0
VERTEX
8
OBJECT__8
10
0
20
0
30
0
70
128
71
53
72
54
73
18
0
VERTEX
8
OBJECT__8
10
0
20
0
30
0
70
128
71
54
72
55
73
18
0
VERTEX
8
OBJECT__8
10
0
20
0
30
0
70
128
71
1
72
56
73
57
0
VERTEX
8
OBJECT__8
10
0
20
0
30
0
70
128
71
18
72
58
73
56
0
VERTEX
8
OBJECT__8
10
0
20
0
30
0
70
128
71
56
72
1
73
18
0
VERTEX
8
OBJECT__8
10
0
20
0
30
0
70
128
71
2
72
1
73
59
0
VERTEX
8
OBJECT__8
10
0
20
0
30
0
70
128
71
1
72
60
73
61
0
VERTEX
8
OBJECT__8
10
0
20
0
30
0
70
128
71
61
72
62
73
1
0
VERTEX
8
OBJECT__8
10
0
20
0
30
0
70
128
71
62
72
59
73
1
0
VERTEX
8
OBJECT__8
10
0
20
0
30
0
70
128
71
59
72
63
73
2
0
VERTEX
8
OBJECT__8
10
0
20
0
30
0
70
128
71
2
72
64
73
65
0
VERTEX
8
OBJECT__8
10
0
20
0
30
0
70
128
71
2
72
66
73
67
0
VERTEX
8
OBJECT__8
10
0
20
0
30
0
70
128
71
67
72
64
73
2
0
VERTEX
8
OBJECT__8
10
0
20
0
30
0
70
128
71
2
72
68
73
66
0
VERTEX
8
OBJECT__8
10
0
20
0
30
0
70
128
71
69
72
65
73
70
0
VERTEX
8
OBJECT__8
10
0
20
0
30
0
70
128
71
70
72
71
73
69
0
VERTEX
8
OBJECT__8
10
0
20
0
30
0
70
128
71
71
72
72
73
69
0
VERTEX
8
OBJECT__8
10
0
20
0
30
0
70
128
71
73
72
74
73
75
0
VERTEX
8
OBJECT__8
10
0
20
0
30
0
70
128
71
73
72
76
73
77
0
VERTEX
8
OBJECT__8
10
0
20
0
30
0
70
128
71
77
72
74
73
73
0
VERTEX
8
OBJECT__8
10
0
20
0
30
0
70
128
71
78
72
77
73
76
0
VERTEX
8
OBJECT__8
10
0
20
0
30
0
70
128
71
4
72
79
73
80
0
VERTEX
8
OBJECT__8
10
0
20
0
30
0
70
128
71
4
72
2
73
81
0
VERTEX
8
OBJECT__8
10
0
20
0
30
0
70
128
71
81
72
79
73
4
0
VERTEX
8
OBJECT__8
10
0
20
0
30
0
70
128
71
80
72
78
73
4
0
VERTEX
8
OBJECT__8
10
0
20
0
30
0
70
128
71
76
72
4
73
78
0
VERTEX
8
OBJECT__8
10
0
20
0
30
0
70
128
71
81
72
2
73
69
0
VERTEX
8
OBJECT__8
10
0
20
0
30
0
70
128
71
69
72
82
73
83
0
VERTEX
8
OBJECT__8
10
0
20
0
30
0
70
128
71
83
72
84
73
69
0
VERTEX
8
OBJECT__8
10
0
20
0
30
0
70
128
71
85
72
83
73
86
0
VERTEX
8
OBJECT__8
10
0
20
0
30
0
70
128
71
86
72
87
73
85
0
VERTEX
8
OBJECT__8
10
0
20
0
30
0
70
128
71
69
72
88
73
82
0
VERTEX
8
OBJECT__8
10
0
20
0
30
0
70
128
71
83
72
85
73
84
0
VERTEX
8
OBJECT__8
10
0
20
0
30
0
70
128
71
69
72
84
73
81
0
VERTEX
8
OBJECT__8
10
0
20
0
30
0
70
128
71
75
72
89
73
73
0
VERTEX
8
OBJECT__8
10
0
20
0
30
0
70
128
71
72
72
88
73
69
0
VERTEX
8
OBJECT__8
10
0
20
0
30
0
70
128
71
65
72
69
73
2
0
VERTEX
8
OBJECT__8
10
0
20
0
30
0
70
128
71
63
72
68
73
2
0
VERTEX
8
OBJECT__8
10
0
20
0
30
0
70
128
71
57
72
60
73
1
0
VERTEX
8
OBJECT__8
10
0
20
0
30
0
70
128
71
55
72
58
73
18
0
VERTEX
8
OBJECT__8
10
0
20
0
30
0
70
128
71
44
72
53
73
9
0
VERTEX
8
OBJECT__8
10
0
20
0
30
0
70
128
71
42
72
52
73
35
0
VERTEX
8
OBJECT__8
10
0
20
0
30
0
70
128
71
39
72
35
73
36
0
VERTEX
8
OBJECT__8
10
0
20
0
30
0
70
128
71
34
72
36
73
35
0
VERTEX
8
OBJECT__8
10
0
20
0
30
0
70
128
71
7
72
8
73
5
0
VERTEX
8
OBJECT__8
10
0
20
0
30
0
70
128
71
3
72
29
73
1
0
SEQEND
8
OBJECT__8
0
POLYLINE
8
OBJECT__10
66
1
70
64
71
16
72
16
62
253
0
VERTEX
8
OBJECT__10
10
52.948002
20
65.000000
30
4.300000
70
192
0
VERTEX
8
OBJECT__10
10
52.540001
20
65.000000
30
-3.500000
70
192
0
VERTEX
8
OBJECT__10
10
50.527000
20
71.195000
30
-3.500000
70
192
0
VERTEX
8
OBJECT__10
10
45.382999
20
75.412003
30
4.300000
70
192
0
VERTEX
8
OBJECT__10
10
33.143002
20
71.434998
30
4.300000
70
192
0
VERTEX
8
OBJECT__10
10
38.743000
20
75.024002
30
-3.500000
70
192
0
VERTEX
8
OBJECT__10
10
45.257000
20
75.024002
30
-3.500000
70
192
0
VERTEX
8
OBJECT__10
10
33.143002
20
58.564999
30
4.300000
70
192
0
VERTEX
8
OBJECT__10
10
31.052000
20
65.000000
30
4.300000
70
192
0
VERTEX
8
OBJECT__10
10
31.459999
20
65.000000
30
-3.500000
70
192
0
VERTEX
8
OBJECT__10
10
33.473000
20
71.195000
30
-3.500000
70
192
0
VERTEX
8
OBJECT__10
10
45.382999
20
54.588001
30
4.300000
70
192
0
VERTEX
8
OBJECT__10
10
38.743000
20
54.976002
30
-3.500000
70
192
0
VERTEX
8
OBJECT__10
10
33.473000
20
58.805000
30
-3.500000
70
192
0
VERTEX
8
OBJECT__10
10
50.527000
20
58.805000
30
-3.500000
70
192
0
VERTEX
8
OBJECT__10
10
45.257000
20
54.976002
30
-3.500000
70
192
0
VERTEX
8
OBJECT__10
10
0
20
0
30
0
70
128
71
1
72
2
73
3
0
VERTEX
8
OBJECT__10
10
0
20
0
30
0
70
128
71
3
72
4
73
1
0
VERTEX
8
OBJECT__10
10
0
20
0
30
0
70
128
71
5
72
4
73
6
0
VERTEX
8
OBJECT__10
10
0
20
0
30
0
70
128
71
4
72
7
73
6
0
VERTEX
8
OBJECT__10
10
0
20
0
30
0
70
128
71
8
72
9
73
10
0
VERTEX
8
OBJECT__10
10
0
20
0
30
0
70
128
71
9
72
5
73
11
0
VERTEX
8
OBJECT__10
10
0
20
0
30
0
70
128
71
11
72
10
73
9
0
VERTEX
8
OBJECT__10
10
0
20
0
30
0
70
128
71
12
72
8
73
13
0
VERTEX
8
OBJECT__10
10
0
20
0
30
0
70
128
71
8
72
14
73
13
0
VERTEX
8
OBJECT__10
10
0
20
0
30
0
70
128
71
1
72
12
73
15
0
VERTEX
8
OBJECT__10
10
0
20
0
30
0
70
128
71
12
72
16
73
15
0
VERTEX
8
OBJECT__10
10
0
20
0
30
0
70
128
71
15
72
2
73
1
0
VERTEX
8
OBJECT__10
10
0
20
0
30
0
70
128
71
13
72
16
73
12
0
VERTEX
8
OBJECT__10
10
0
20
0
30
0
70
128
71
10
72
14
73
8
0
VERTEX
8
OBJECT__10
10
0
20
0
30
0
70
128
71
6
72
11
73
5
0
VERTEX
8
OBJECT__10
10
0
20
0
30
0
70
128
71
3
72
7
73
4
0
SEQEND
8
OBJECT__10
0
POLYLINE
8
OBJECT__11
66
1
70
64
71
21
72
21
62
253
0
VERTEX
8
OBJECT__11
10
52.540001
20
65.000000
30
-3.500000
70
192
0
VERTEX
8
OBJECT__11
10
51.747002
20
65.000000
30
-3.500000
70
192
0
VERTEX
8
OBJECT__11
10
50.780998
20
69.228996
30
-3.500000
70
192
0
VERTEX
8
OBJECT__11
10
50.527000
20
71.195000
30
-3.500000
70
192
0
VERTEX
8
OBJECT__11
10
50.527000
20
58.805000
30
-3.500000
70
192
0
VERTEX
8
OBJECT__11
10
50.780998
20
60.771000
30
-3.500000
70
192
0
VERTEX
8
OBJECT__11
10
45.257000
20
75.024002
30
-3.500000
70
192
0
VERTEX
8
OBJECT__11
10
48.077000
20
72.620003
30
-3.500000
70
192
0
VERTEX
8
OBJECT__11
10
38.743000
20
75.024002
30
-3.500000
70
192
0
VERTEX
8
OBJECT__11
10
44.168999
20
74.501999
30
-3.500000
70
192
0
VERTEX
8
OBJECT__11
10
44.168999
20
55.498001
30
-3.500000
70
192
0
VERTEX
8
OBJECT__11
10
45.257000
20
54.976002
30
-3.500000
70
192
0
VERTEX
8
OBJECT__11
10
38.743000
20
54.976002
30
-3.500000
70
192
0
VERTEX
8
OBJECT__11
10
39.831001
20
55.498001
30
-3.500000
70
192
0
VERTEX
8
OBJECT__11
10
33.473000
20
58.805000
30
-3.500000
70
192
0
VERTEX
8
OBJECT__11
10
35.923000
20
57.380001
30
-3.500000
70
192
0
VERTEX
8
OBJECT__11
10
31.459999
20
65.000000
30
-3.500000
70
192
0
VERTEX
8
OBJECT__11
10
33.473000
20
71.195000
30
-3.500000
70
192
0
VERTEX
8
OBJECT__11
10
33.219002
20
69.228996
30
-3.500000
70
192
0
VERTEX
8
OBJECT__11
10
35.923000
20
72.620003
30
-3.500000
70
192
0
VERTEX
8
OBJECT__11
10
32.252998
20
65.000000
30
-3.500000
70
192
0
VERTEX
8
OBJECT__11
10
0
20
0
30
0
70
128
71
1
72
2
73
3
0
VERTEX
8
OBJECT__11
10
0
20
0
30
0
70
128
71
3
72
4
73
1
0
VERTEX
8
OBJECT__11
10
0
20
0
30
0
70
128
71
1
72
5
73
6
0
VERTEX
8
OBJECT__11
10
0
20
0
30
0
70
128
71
7
72
4
73
8
0
VERTEX
8
OBJECT__11
10
0
20
0
30
0
70
128
71
6
72
2
73
1
0
VERTEX
8
OBJECT__11
10
0
20
0
30
0
70
128
71
9
72
7
73
10
0
VERTEX
8
OBJECT__11
10
0
20
0
30
0
70
128
71
3
72
8
73
4
0
VERTEX
8
OBJECT__11
10
0
20
0
30
0
70
128
71
8
72
10
73
7
0
VERTEX
8
OBJECT__11
10
0
20
0
30
0
70
128
71
11
72
6
73
5
0
VERTEX
8
OBJECT__11
10
0
20
0
30
0
70
128
71
12
72
13
73
14
0
VERTEX
8
OBJECT__11
10
0
20
0
30
0
70
128
71
13
72
15
73
16
0
VERTEX
8
OBJECT__11
10
0
20
0
30
0
70
128
71
5
72
12
73
11
0
VERTEX
8
OBJECT__11
10
0
20
0
30
0
70
128
71
16
72
14
73
13
0
VERTEX
8
OBJECT__11
10
0
20
0
30
0
70
128
71
17
72
18
73
19
0
VERTEX
8
OBJECT__11
10
0
20
0
30
0
70
128
71
18
72
9
73
20
0
VERTEX
8
OBJECT__11
10
0
20
0
30
0
70
128
71
14
72
11
73
12
0
VERTEX
8
OBJECT__11
10
0
20
0
30
0
70
128
71
21
72
16
73
15
0
VERTEX
8
OBJECT__11
10
0
20
0
30
0
70
128
71
20
72
19
73
18
0
VERTEX
8
OBJECT__11
10
0
20
0
30
0
70
128
71
15
72
17
73
21
0
VERTEX
8
OBJECT__11
10
0
20
0
30
0
70
128
71
10
72
20
73
9
0
VERTEX
8
OBJECT__11
10
0
20
0
30
0
70
128
71
19
72
21
73
17
0
SEQEND
8
OBJECT__11
0
POLYLINE
8
OBJECT__13
66
1
70
64
71
25
72
32
62
253
0
VERTEX
8
OBJECT__13
10
31.336000
20
65.000000
30
-4.600000
70
192
0
VERTEX
8
OBJECT__13
10
35.351002
20
73.337997
30
-4.600000
70
192
0
VERTEX
8
OBJECT__13
10
35.923000
20
72.620003
30
-5.700000
70
192
0
VERTEX
8
OBJECT__13
10
44.373001
20
75.397003
30
-4.600000
70
192
0
VERTEX
8
OBJECT__13
10
44.168999
20
74.501999
30
-5.700000
70
192
0
VERTEX
8
OBJECT__13
10
51.608002
20
69.626999
30
-4.600000
70
192
0
VERTEX
8
OBJECT__13
10
50.780998
20
69.228996
30
-5.700000
70
192
0
VERTEX
8
OBJECT__13
10
51.608002
20
60.373001
30
-4.600000
70
192
0
VERTEX
8
OBJECT__13
10
50.780998
20
60.771000
30
-5.700000
70
192
0
VERTEX
8
OBJECT__13
10
44.373001
20
54.603001
30
-4.600000
70
192
0
VERTEX
8
OBJECT__13
10
44.168999
20
55.498001
30
-5.700000
70
192
0
VERTEX
8
OBJECT__13
10
35.351002
20
56.661999
30
-4.600000
70
192
0
VERTEX
8
OBJECT__13
10
35.923000
20
57.380001
30
-5.700000
70
192
0
VERTEX
8
OBJECT__13
10
32.252998
20
65.000000
30
-5.700000
70
192
0
VERTEX
8
OBJECT__13
10
33.219002
20
69.228996
30
-3.500000
70
192
0
VERTEX
8
OBJECT__13
10
32.252998
20
65.000000
30
-3.500000
70
192
0
VERTEX
8
OBJECT__13
10
35.923000
20
72.620003
30
-3.500000
70
192
0
VERTEX
8
OBJECT__13
10
44.168999
20
74.501999
30
-3.500000
70
192
0
VERTEX
8
OBJECT__13
10
48.077000
20
72.620003
30
-3.500000
70
192
0
VERTEX
8
OBJECT__13
10
50.780998
20
69.228996
30
-3.500000
70
192
0
VERTEX
8
OBJECT__13
10
51.747002
20
65.000000
30
-3.500000
70
192
0
VERTEX
8
OBJECT__13
10
50.780998
20
60.771000
30
-3.500000
70
192
0
VERTEX
8
OBJECT__13
10
44.168999
20
55.498001
30
-3.500000
70
192
0
VERTEX
8
OBJECT__13
10
39.831001
20
55.498001
30
-3.500000
70
192
0
VERTEX
8
OBJECT__13
10
35.923000
20
57.380001
30
-3.500000
70
192
0
VERTEX
8
OBJECT__13
10
0
20
0
30
0
70
128
71
1
72
2
73
3
0
VERTEX
8
OBJECT__13
10
0
20
0
30
0
70
128
71
2
72
4
73
5
0
VERTEX
8
OBJECT__13
10
0
20
0
30
0
70
128
71
4
72
6
73
7
0
VERTEX
8
OBJECT__13
10
0
20
0
30
0
70
128
71
8
72
9
73
7
0
VERTEX
8
OBJECT__13
10
0
20
0
30
0
70
128
71
8
72
10
73
11
0
VERTEX
8
OBJECT__13
10
0
20
0
30
0
70
128
71
10
72
12
73
13
0
VERTEX
8
OBJECT__13
10
0
20
0
30
0
70
128
71
1
72
14
73
13
0
VERTEX
8
OBJECT__13
10
0
20
0
30
0
70
128
71
2
72
1
73
15
0
VERTEX
8
OBJECT__13
10
0
20
0
30
0
70
128
71
1
72
16
73
15
0
VERTEX
8
OBJECT__13
10
0
20
0
30
0
70
128
71
4
72
2
73
17
0
VERTEX
8
OBJECT__13
10
0
20
0
30
0
70
128
71
4
72
18
73
19
0
VERTEX
8
OBJECT__13
10
0
20
0
30
0
70
128
71
19
72
6
73
4
0
VERTEX
8
OBJECT__13
10
0
20
0
30
0
70
128
71
6
72
20
73
21
0
VERTEX
8
OBJECT__13
10
0
20
0
30
0
70
128
71
21
72
8
73
6
0
VERTEX
8
OBJECT__13
10
0
20
0
30
0
70
128
71
8
72
22
73
23
0
VERTEX
8
OBJECT__13
10
0
20
0
30
0
70
128
71
12
72
10
73
24
0
VERTEX
8
OBJECT__13
10
0
20
0
30
0
70
128
71
10
72
23
73
24
0
VERTEX
8
OBJECT__13
10
0
20
0
30
0
70
128
71
1
72
12
73
25
0
VERTEX
8
OBJECT__13
10
0
20
0
30
0
70
128
71
25
72
16
73
1
0
VERTEX
8
OBJECT__13
10
0
20
0
30
0
70
128
71
24
72
25
73
12
0
VERTEX
8
OBJECT__13
10
0
20
0
30
0
70
128
71
23
72
10
73
8
0
VERTEX
8
OBJECT__13
10
0
20
0
30
0
70
128
71
21
72
22
73
8
0
VERTEX
8
OBJECT__13
10
0
20
0
30
0
70
128
71
19
72
20
73
6
0
VERTEX
8
OBJECT__13
10
0
20
0
30
0
70
128
71
17
72
18
73
4
0
VERTEX
8
OBJECT__13
10
0
20
0
30
0
70
128
71
15
72
17
73
2
0
VERTEX
8
OBJECT__13
10
0
20
0
30
0
70
128
71
13
72
12
73
1
0
VERTEX
8
OBJECT__13
10
0
20
0
30
0
70
128
71
13
72
11
73
10
0
VERTEX
8
OBJECT__13
10
0
20
0
30
0
70
128
71
11
72
9
73
8
0
VERTEX
8
OBJECT__13
10
0
20
0
30
0
70
128
71
7
72
6
73
8
0
VERTEX
8
OBJECT__13
10
0
20
0
30
0
70
128
71
7
72
5
73
4
0
VERTEX
8
OBJECT__13
10
0
20
0
30
0
70
128
71
5
72
3
73
2
0
VERTEX
8
OBJECT__13
10
0
20
0
30
0
70
128
71
3
72
14
73
1
0
SEQEND
8
OBJECT__13
0
POLYLINE
8
OBJECT__14
66
1
70
64
71
8
72
6
62
253
0
VERTEX
8
OBJECT__14
10
34.505001
20
72.495003
30
-338.714996
70
192
0
VERTEX
8
OBJECT__14
10
42.000000
20
75.599998
30
-338.714996
70
192
0
VERTEX
8
OBJECT__14
10
49.494999
20
72.495003
30
-338.714996
70
192
0
VERTEX
8
OBJECT__14
10
49.494999
20
57.505001
30
-338.714996
70
192
0
VERTEX
8
OBJECT__14
10
42.000000
20
54.400002
30
-338.714996
70
192
0
VERTEX
8
OBJECT__14
10
34.505001
20
57.505001
30
-338.714996
70
192
0
VERTEX
8
OBJECT__14
10
52.599998
20
65.000000
30
-338.714996
70
192
0
VERTEX
8
OBJECT__14
10
31.400000
20
65.000000
30
-338.714996
70
192
0
VERTEX
8
OBJECT__14
10
0
20
0
30
0
70
128
71
1
72
2
73
3
0
VERTEX
8
OBJECT__14
10
0
20
0
30
0
70
128
71
4
72
5
73
6
0
VERTEX
8
OBJECT__14
10
0
20
0
30
0
70
128
71
7
72
8
73
1
0
VERTEX
8
OBJECT__14
10
0
20
0
30
0
70
128
71
8
72
7
73
4
0
VERTEX
8
OBJECT__14
10
0
20
0
30
0
70
128
71
6
72
8
73
4
0
VERTEX
8
OBJECT__14
10
0
20
0
30
0
70
128
71
3
72
7
73
1
0
SEQEND
8
OBJECT__14
0
POLYLINE
8
OBJECT__15
66
1
70
64
71
20
72
20
62
253
0
VERTEX
8
OBJECT__15
10
33.868000
20
73.132004
30
-337.720001
70
192
0
VERTEX
8
OBJECT__15
10
34.505001
20
72.495003
30
-338.714996
70
192
0
VERTEX
8
OBJECT__15
10
31.400000
20
65.000000
30
-338.714996
70
192
0
VERTEX
8
OBJECT__15
10
38.768002
20
75.161003
30
-337.720001
70
192
0
VERTEX
8
OBJECT__15
10
42.000000
20
75.599998
30
-338.714996
70
192
0
VERTEX
8
OBJECT__15
10
42.000000
20
76.500000
30
-337.720001
70
192
0
VERTEX
8
OBJECT__15
10
50.132000
20
73.132004
30
-337.720001
70
192
0
VERTEX
8
OBJECT__15
10
49.494999
20
72.495003
30
-338.714996
70
192
0
VERTEX
8
OBJECT__15
10
52.599998
20
65.000000
30
-338.714996
70
192
0
VERTEX
8
OBJECT__15
10
50.789001
20
71.545998
30
-337.720001
70
192
0
VERTEX
8
OBJECT__15
10
53.500000
20
65.000000
30
-337.720001
70
192
0
VERTEX
8
OBJECT__15
10
50.789001
20
58.453999
30
-337.720001
70
192
0
VERTEX
8
OBJECT__15
10
49.494999
20
57.505001
30
-338.714996
70
192
0
VERTEX
8
OBJECT__15
10
42.000000
20
53.500000
30
-337.720001
70
192
0
VERTEX
8
OBJECT__15
10
42.000000
20
54.400002
30
-338.714996
70
192
0
VERTEX
8
OBJECT__15
10
34.505001
20
57.505001
30
-338.714996
70
192
0
VERTEX
8
OBJECT__15
10
38.768002
20
54.839001
30
-337.720001
70
192
0
VERTEX
8
OBJECT__15
10
30.500000
20
65.000000
30
-337.720001
70
192
0
VERTEX
8
OBJECT__15
10
33.868000
20
56.868000
30
-337.720001
70
192
0
VERTEX
8
OBJECT__15
10
50.132000
20
56.868000
30
-337.720001
70
192
0
VERTEX
8
OBJECT__15
10
0
20
0
30
0
70
128
71
1
72
2
73
3
0
VERTEX
8
OBJECT__15
10
0
20
0
30
0
70
128
71
2
72
1
73
4
0
VERTEX
8
OBJECT__15
10
0
20
0
30
0
70
128
71
4
72
5
73
2
0
VERTEX
8
OBJECT__15
10
0
20
0
30
0
70
128
71
6
72
7
73
8
0
VERTEX
8
OBJECT__15
10
0
20
0
30
0
70
128
71
9
72
8
73
10
0
VERTEX
8
OBJECT__15
10
0
20
0
30
0
70
128
71
8
72
7
73
10
0
VERTEX
8
OBJECT__15
10
0
20
0
30
0
70
128
71
9
72
11
73
12
0
VERTEX
8
OBJECT__15
10
0
20
0
30
0
70
128
71
12
72
13
73
9
0
VERTEX
8
OBJECT__15
10
0
20
0
30
0
70
128
71
14
72
15
73
13
0
VERTEX
8
OBJECT__15
10
0
20
0
30
0
70
128
71
16
72
15
73
17
0
VERTEX
8
OBJECT__15
10
0
20
0
30
0
70
128
71
15
72
14
73
17
0
VERTEX
8
OBJECT__15
10
0
20
0
30
0
70
128
71
18
72
3
73
16
0
VERTEX
8
OBJECT__15
10
0
20
0
30
0
70
128
71
16
72
19
73
18
0
VERTEX
8
OBJECT__15
10
0
20
0
30
0
70
128
71
17
72
19
73
16
0
VERTEX
8
OBJECT__15
10
0
20
0
30
0
70
128
71
13
72
20
73
14
0
VERTEX
8
OBJECT__15
10
0
20
0
30
0
70
128
71
12
72
20
73
13
0
VERTEX
8
OBJECT__15
10
0
20
0
30
0
70
128
71
10
72
11
73
9
0
VERTEX
8
OBJECT__15
10
0
20
0
30
0
70
128
71
8
72
5
73
6
0
VERTEX
8
OBJECT__15
10
0
20
0
30
0
70
128
71
4
72
6
73
5
0
VERTEX
8
OBJECT__15
10
0
20
0
30
0
70
128
71
3
72
18
73
1
0
SEQEND
8
OBJECT__15
0
POLYLINE
8
OBJECT__17
66
1
70
64
71
18
72
18
62
253
0
VERTEX
8
OBJECT__17
10
30.500000
20
65.000000
30
-326.214996
70
192
0
VERTEX
8
OBJECT__17
10
38.445999
20
75.936996
30
-326.214996
70
192
0
VERTEX
8
OBJECT__17
10
33.868000
20
73.132004
30
-337.720001
70
192
0
VERTEX
8
OBJECT__17
10
38.768002
20
75.161003
30
-337.720001
70
192
0
VERTEX
8
OBJECT__17
10
51.304001
20
71.760002
30
-326.214996
70
192
0
VERTEX
8
OBJECT__17
10
50.132000
20
73.132004
30
-337.720001
70
192
0
VERTEX
8
OBJECT__17
10
42.000000
20
76.500000
30
-337.720001
70
192
0
VERTEX
8
OBJECT__17
10
50.789001
20
71.545998
30
-337.720001
70
192
0
VERTEX
8
OBJECT__17
10
53.500000
20
65.000000
30
-326.214996
70
192
0
VERTEX
8
OBJECT__17
10
51.304001
20
58.240002
30
-326.214996
70
192
0
VERTEX
8
OBJECT__17
10
50.789001
20
58.453999
30
-337.720001
70
192
0
VERTEX
8
OBJECT__17
10
53.500000
20
65.000000
30
-337.720001
70
192
0
VERTEX
8
OBJECT__17
10
38.445999
20
54.063000
30
-326.214996
70
192
0
VERTEX
8
OBJECT__17
10
42.000000
20
53.500000
30
-337.720001
70
192
0
VERTEX
8
OBJECT__17
10
50.132000
20
56.868000
30
-337.720001
70
192
0
VERTEX
8
OBJECT__17
10
38.768002
20
54.839001
30
-337.720001
70
192
0
VERTEX
8
OBJECT__17
10
30.500000
20
65.000000
30
-337.720001
70
192
0
VERTEX
8
OBJECT__17
10
33.868000
20
56.868000
30
-337.720001
70
192
0
VERTEX
8
OBJECT__17
10
0
20
0
30
0
70
128
71
1
72
2
73
3
0
VERTEX
8
OBJECT__17
10
0
20
0
30
0
70
128
71
2
72
4
73
3
0
VERTEX
8
OBJECT__17
10
0
20
0
30
0
70
128
71
5
72
6
73
7
0
VERTEX
8
OBJECT__17
10
0
20
0
30
0
70
128
71
7
72
2
73
5
0
VERTEX
8
OBJECT__17
10
0
20
0
30
0
70
128
71
5
72
8
73
6
0
VERTEX
8
OBJECT__17
10
0
20
0
30
0
70
128
71
9
72
10
73
11
0
VERTEX
8
OBJECT__17
10
0
20
0
30
0
70
128
71
9
72
12
73
8
0
VERTEX
8
OBJECT__17
10
0
20
0
30
0
70
128
71
8
72
5
73
9
0
VERTEX
8
OBJECT__17
10
0
20
0
30
0
70
128
71
10
72
13
73
14
0
VERTEX
8
OBJECT__17
10
0
20
0
30
0
70
128
71
14
72
15
73
10
0
VERTEX
8
OBJECT__17
10
0
20
0
30
0
70
128
71
13
72
16
73
14
0
VERTEX
8
OBJECT__17
10
0
20
0
30
0
70
128
71
1
72
17
73
18
0
VERTEX
8
OBJECT__17
10
0
20
0
30
0
70
128
71
18
72
13
73
1
0
VERTEX
8
OBJECT__17
10
0
20
0
30
0
70
128
71
18
72
16
73
13
0
VERTEX
8
OBJECT__17
10
0
20
0
30
0
70
128
71
15
72
11
73
10
0
VERTEX
8
OBJECT__17
10
0
20
0
30
0
70
128
71
11
72
12
73
9
0
VERTEX
8
OBJECT__17
10
0
20
0
30
0
70
128
71
7
72
4
73
2
0
VERTEX
8
OBJECT__17
10
0
20
0
30
0
70
128
71
3
72
17
73
1
0
SEQEND
8
OBJECT__17
0
POLYLINE
8
OBJECT__18
66
1
70
64
71
10
72
10
62
253
0
VERTEX
8
OBJECT__18
10
51.304001
20
71.760002
30
-326.214996
70
192
0
VERTEX
8
OBJECT__18
10
42.000000
20
72.550003
30
-326.214996
70
192
0
VERTEX
8
OBJECT__18
10
49.549999
20
65.000000
30
-326.214996
70
192
0
VERTEX
8
OBJECT__18
10
51.304001
20
58.240002
30
-326.214996
70
192
0
VERTEX
8
OBJECT__18
10
53.500000
20
65.000000
30
-326.214996
70
192
0
VERTEX
8
OBJECT__18
10
38.445999
20
75.936996
30
-326.214996
70
192
0
VERTEX
8
OBJECT__18
10
30.500000
20
65.000000
30
-326.214996
70
192
0
VERTEX
8
OBJECT__18
10
34.450001
20
65.000000
30
-326.214996
70
192
0
VERTEX
8
OBJECT__18
10
38.445999
20
54.063000
30
-326.214996
70
192
0
VERTEX
8
OBJECT__18
10
42.000000
20
57.450001
30
-326.214996
70
192
0
VERTEX
8
OBJECT__18
10
0
20
0
30
0
70
128
71
1
72
2
73
3
0
VERTEX
8
OBJECT__18
10
0
20
0
30
0
70
128
71
4
72
5
73
3
0
VERTEX
8
OBJECT__18
10
0
20
0
30
0
70
128
71
1
72
6
73
2
0
VERTEX
8
OBJECT__18
10
0
20
0
30
0
70
128
71
6
72
7
73
8
0
VERTEX
8
OBJECT__18
10
0
20
0
30
0
70
128
71
9
72
10
73
8
0
VERTEX
8
OBJECT__18
10
0
20
0
30
0
70
128
71
3
72
10
73
4
0
VERTEX
8
OBJECT__18
10
0
20
0
30
0
70
128
71
8
72
2
73
6
0
VERTEX
8
OBJECT__18
10
0
20
0
30
0
70
128
71
10
72
9
73
4
0
VERTEX
8
OBJECT__18
10
0
20
0
30
0
70
128
71
8
72
7
73
9
0
VERTEX
8
OBJECT__18
10
0
20
0
30
0
70
128
71
3
72
5
73
1
0
SEQEND
8
OBJECT__18
0
POLYLINE
8
OBJECT__19
66
1
70
64
71
8
72
8
62
253
0
VERTEX
8
OBJECT__19
10
42.000000
20
72.550003
30
-10.300000
70
192
0
VERTEX
8
OBJECT__19
10
42.000000
20
72.550003
30
-326.214996
70
192
0
VERTEX
8
OBJECT__19
10
34.450001
20
65.000000
30
-326.214996
70
192
0
VERTEX
8
OBJECT__19
10
49.549999
20
65.000000
30
-10.300000
70
192
0
VERTEX
8
OBJECT__19
10
49.549999
20
65.000000
30
-326.214996
70
192
0
VERTEX
8
OBJECT__19
10
42.000000
20
57.450001
30
-10.300000
70
192
0
VERTEX
8
OBJECT__19
10
42.000000
20
57.450001
30
-326.214996
70
192
0
VERTEX
8
OBJECT__19
10
34.450001
20
65.000000
30
-10.300000
70
192
0
VERTEX
8
OBJECT__19
10
0
20
0
30
0
70
128
71
1
72
2
73
3
0
VERTEX
8
OBJECT__19
10
0
20
0
30
0
70
128
71
4
72
5
73
2
0
VERTEX
8
OBJECT__19
10
0
20
0
30
0
70
128
71
6
72
7
73
5
0
VERTEX
8
OBJECT__19
10
0
20
0
30
0
70
128
71
8
72
3
73
7
0
VERTEX
8
OBJECT__19
10
0
20
0
30
0
70
128
71
7
72
6
73
8
0
VERTEX
8
OBJECT__19
10
0
20
0
30
0
70
128
71
5
72
4
73
6
0
VERTEX
8
OBJECT__19
10
0
20
0
30
0
70
128
71
2
72
1
73
4
0
VERTEX
8
OBJECT__19
10
0
20
0
30
0
70
128
71
3
72
8
73
1
0
SEQEND
8
OBJECT__19
0
POLYLINE
8
OBJECT__20
66
1
70
64
71
11
72
11
62
253
0
VERTEX
8
OBJECT__20
10
42.000000
20
72.550003
30
-10.300000
70
192
0
VERTEX
8
OBJECT__20
10
44.002998
20
73.774002
30
-10.300000
70
192
0
VERTEX
8
OBJECT__20
10
50.108002
20
68.904999
30
-10.300000
70
192
0
VERTEX
8
OBJECT__20
10
36.389000
20
72.036003
30
-10.300000
70
192
0
VERTEX
8
OBJECT__20
10
50.108002
20
61.095001
30
-10.300000
70
192
0
VERTEX
8
OBJECT__20
10
49.549999
20
65.000000
30
-10.300000
70
192
0
VERTEX
8
OBJECT__20
10
42.000000
20
57.450001
30
-10.300000
70
192
0
VERTEX
8
OBJECT__20
10
36.389000
20
57.964001
30
-10.300000
70
192
0
VERTEX
8
OBJECT__20
10
33.000000
20
65.000000
30
-10.300000
70
192
0
VERTEX
8
OBJECT__20
10
34.450001
20
65.000000
30
-10.300000
70
192
0
VERTEX
8
OBJECT__20
10
44.002998
20
56.226002
30
-10.300000
70
192
0
VERTEX
8
OBJECT__20
10
0
20
0
30
0
70
128
71
1
72
2
73
3
0
VERTEX
8
OBJECT__20
10
0
20
0
30
0
70
128
71
4
72
2
73
1
0
VERTEX
8
OBJECT__20
10
0
20
0
30
0
70
128
71
3
72
5
73
6
0
VERTEX
8
OBJECT__20
10
0
20
0
30
0
70
128
71
3
72
6
73
1
0
VERTEX
8
OBJECT__20
10
0
20
0
30
0
70
128
71
7
72
6
73
5
0
VERTEX
8
OBJECT__20
10
0
20
0
30
0
70
128
71
8
72
9
73
10
0
VERTEX
8
OBJECT__20
10
0
20
0
30
0
70
128
71
5
72
11
73
7
0
VERTEX
8
OBJECT__20
10
0
20
0
30
0
70
128
71
10
72
7
73
8
0
VERTEX
8
OBJECT__20
10
0
20
0
30
0
70
128
71
7
72
11
73
8
0
VERTEX
8
OBJECT__20
10
0
20
0
30
0
70
128
71
1
72
10
73
4
0
VERTEX
8
OBJECT__20
10
0
20
0
30
0
70
128
71
10
72
9
73
4
0
SEQEND
8
OBJECT__20
0
POLYLINE
8
OBJECT__21
66
1
70
64
71
18
72
18
62
253
0
VERTEX
8
OBJECT__21
10
32.000000
20
65.000000
30
-9.300000
70
192
0
VERTEX
8
OBJECT__21
10
35.764999
20
72.818001
30
-9.300000
70
192
0
VERTEX
8
OBJECT__21
10
36.389000
20
72.036003
30
-10.300000
70
192
0
VERTEX
8
OBJECT__21
10
44.002998
20
73.774002
30
-10.300000
70
192
0
VERTEX
8
OBJECT__21
10
39.120998
20
73.584000
30
-9.300000
70
192
0
VERTEX
8
OBJECT__21
10
44.224998
20
74.749001
30
-9.300000
70
192
0
VERTEX
8
OBJECT__21
10
49.696999
20
70.385002
30
-9.300000
70
192
0
VERTEX
8
OBJECT__21
10
50.108002
20
68.904999
30
-10.300000
70
192
0
VERTEX
8
OBJECT__21
10
51.008999
20
69.338997
30
-9.300000
70
192
0
VERTEX
8
OBJECT__21
10
51.008999
20
60.660999
30
-9.300000
70
192
0
VERTEX
8
OBJECT__21
10
50.108002
20
61.095001
30
-10.300000
70
192
0
VERTEX
8
OBJECT__21
10
44.002998
20
56.226002
30
-10.300000
70
192
0
VERTEX
8
OBJECT__21
10
49.696999
20
59.615002
30
-9.300000
70
192
0
VERTEX
8
OBJECT__21
10
44.224998
20
55.250999
30
-9.300000
70
192
0
VERTEX
8
OBJECT__21
10
39.120998
20
56.416000
30
-9.300000
70
192
0
VERTEX
8
OBJECT__21
10
36.389000
20
57.964001
30
-10.300000
70
192
0
VERTEX
8
OBJECT__21
10
33.000000
20
65.000000
30
-10.300000
70
192
0
VERTEX
8
OBJECT__21
10
35.764999
20
57.181999
30
-9.300000
70
192
0
VERTEX
8
OBJECT__21
10
0
20
0
30
0
70
128
71
1
72
2
73
3
0
VERTEX
8
OBJECT__21
10
0
20
0
30
0
70
128
71
4
72
3
73
5
0
VERTEX
8
OBJECT__21
10
0
20
0
30
0
70
128
71
3
72
2
73
5
0
VERTEX
8
OBJECT__21
10
0
20
0
30
0
70
128
71
4
72
6
73
7
0
VERTEX
8
OBJECT__21
10
0
20
0
30
0
70
128
71
7
72
8
73
4
0
VERTEX
8
OBJECT__21
10
0
20
0
30
0
70
128
71
9
72
10
73
11
0
VERTEX
8
OBJECT__21
10
0
20
0
30
0
70
128
71
12
72
11
73
13
0
VERTEX
8
OBJECT__21
10
0
20
0
30
0
70
128
71
11
72
10
73
13
0
VERTEX
8
OBJECT__21
10
0
20
0
30
0
70
128
71
12
72
14
73
15
0
VERTEX
8
OBJECT__21
10
0
20
0
30
0
70
128
71
15
72
16
73
12
0
VERTEX
8
OBJECT__21
10
0
20
0
30
0
70
128
71
1
72
17
73
16
0
VERTEX
8
OBJECT__21
10
0
20
0
30
0
70
128
71
16
72
18
73
1
0
VERTEX
8
OBJECT__21
10
0
20
0
30
0
70
128
71
15
72
18
73
16
0
VERTEX
8
OBJECT__21
10
0
20
0
30
0
70
128
71
13
72
14
73
12
0
VERTEX
8
OBJECT__21
10
0
20
0
30
0
70
128
71
11
72
8
73
9
0
VERTEX
8
OBJECT__21
10
0
20
0
30
0
70
128
71
7
72
9
73
8
0
VERTEX
8
OBJECT__21
10
0
20
0
30
0
70
128
71
5
72
6
73
4
0
VERTEX
8
OBJECT__21
10
0
20
0
30
0
70
128
71
3
72
17
73
1
0
SEQEND
8
OBJECT__21
0
POLYLINE
8
OBJECT__22
66
1
70
64
71
21
72
21
62
253
0
VERTEX
8
OBJECT__22
10
39.500000
20
72.694000
30
-7.100000
70
192
0
VERTEX
8
OBJECT__22
10
39.120998
20
73.584000
30
-9.300000
70
192
0
VERTEX
8
OBJECT__22
10
35.764999
20
72.818001
30
-9.300000
70
192
0
VERTEX
8
OBJECT__22
10
32.000000
20
65.000000
30
-9.300000
70
192
0
VERTEX
8
OBJECT__22
10
32.000000
20
65.000000
30
-7.100000
70
192
0
VERTEX
8
OBJECT__22
10
33.910000
20
70.877998
30
-7.100000
70
192
0
VERTEX
8
OBJECT__22
10
44.224998
20
74.749001
30
-9.300000
70
192
0
VERTEX
8
OBJECT__22
10
45.090000
20
74.510002
30
-7.100000
70
192
0
VERTEX
8
OBJECT__22
10
48.544998
20
69.754997
30
-7.100000
70
192
0
VERTEX
8
OBJECT__22
10
48.544998
20
60.244999
30
-7.100000
70
192
0
VERTEX
8
OBJECT__22
10
49.696999
20
59.615002
30
-9.300000
70
192
0
VERTEX
8
OBJECT__22
10
51.008999
20
60.660999
30
-9.300000
70
192
0
VERTEX
8
OBJECT__22
10
51.008999
20
69.338997
30
-9.300000
70
192
0
VERTEX
8
OBJECT__22
10
52.000000
20
65.000000
30
-7.100000
70
192
0
VERTEX
8
OBJECT__22
10
49.696999
20
70.385002
30
-9.300000
70
192
0
VERTEX
8
OBJECT__22
10
39.500000
20
57.306000
30
-7.100000
70
192
0
VERTEX
8
OBJECT__22
10
39.120998
20
56.416000
30
-9.300000
70
192
0
VERTEX
8
OBJECT__22
10
44.224998
20
55.250999
30
-9.300000
70
192
0
VERTEX
8
OBJECT__22
10
45.090000
20
55.490002
30
-7.100000
70
192
0
VERTEX
8
OBJECT__22
10
35.764999
20
57.181999
30
-9.300000
70
192
0
VERTEX
8
OBJECT__22
10
33.910000
20
59.122002
30
-7.100000
70
192
0
VERTEX
8
OBJECT__22
10
0
20
0
30
0
70
128
71
1
72
2
73
3
0
VERTEX
8
OBJECT__22
10
0
20
0
30
0
70
128
71
4
72
5
73
6
0
VERTEX
8
OBJECT__22
10
0
20
0
30
0
70
128
71
6
72
3
73
4
0
VERTEX
8
OBJECT__22
10
0
20
0
30
0
70
128
71
7
72
8
73
9
0
VERTEX
8
OBJECT__22
10
0
20
0
30
0
70
128
71
1
72
8
73
7
0
VERTEX
8
OBJECT__22
10
0
20
0
30
0
70
128
71
7
72
2
73
1
0
VERTEX
8
OBJECT__22
10
0
20
0
30
0
70
128
71
10
72
11
73
12
0
VERTEX
8
OBJECT__22
10
0
20
0
30
0
70
128
71
13
72
9
73
14
0
VERTEX
8
OBJECT__22
10
0
20
0
30
0
70
128
71
14
72
12
73
13
0
VERTEX
8
OBJECT__22
10
0
20
0
30
0
70
128
71
13
72
15
73
9
0
VERTEX
8
OBJECT__22
10
0
20
0
30
0
70
128
71
16
72
17
73
18
0
VERTEX
8
OBJECT__22
10
0
20
0
30
0
70
128
71
11
72
10
73
19
0
VERTEX
8
OBJECT__22
10
0
20
0
30
0
70
128
71
19
72
18
73
11
0
VERTEX
8
OBJECT__22
10
0
20
0
30
0
70
128
71
4
72
20
73
21
0
VERTEX
8
OBJECT__22
10
0
20
0
30
0
70
128
71
16
72
21
73
20
0
VERTEX
8
OBJECT__22
10
0
20
0
30
0
70
128
71
20
72
17
73
16
0
VERTEX
8
OBJECT__22
10
0
20
0
30
0
70
128
71
21
72
5
73
4
0
VERTEX
8
OBJECT__22
10
0
20
0
30
0
70
128
71
18
72
19
73
16
0
VERTEX
8
OBJECT__22
10
0
20
0
30
0
70
128
71
12
72
14
73
10
0
VERTEX
8
OBJECT__22
10
0
20
0
30
0
70
128
71
9
72
15
73
7
0
VERTEX
8
OBJECT__22
10
0
20
0
30
0
70
128
71
3
72
6
73
1
0
SEQEND
8
OBJECT__22
0
POLYLINE
8
OBJECT__23
66
1
70
64
71
16
72
16
62
253
0
VERTEX
8
OBJECT__23
10
52.369999
20
65.000000
30
-6.729000
70
192
0
VERTEX
8
OBJECT__23
10
52.000000
20
65.000000
30
-7.100000
70
192
0
VERTEX
8
OBJECT__23
10
48.544998
20
69.754997
30
-7.100000
70
192
0
VERTEX
8
OBJECT__23
10
45.205002
20
74.862999
30
-6.729000
70
192
0
VERTEX
8
OBJECT__23
10
33.610001
20
71.095001
30
-6.729000
70
192
0
VERTEX
8
OBJECT__23
10
39.500000
20
72.694000
30
-7.100000
70
192
0
VERTEX
8
OBJECT__23
10
45.090000
20
74.510002
30
-7.100000
70
192
0
VERTEX
8
OBJECT__23
10
33.610001
20
58.904999
30
-6.729000
70
192
0
VERTEX
8
OBJECT__23
10
31.629999
20
65.000000
30
-6.729000
70
192
0
VERTEX
8
OBJECT__23
10
32.000000
20
65.000000
30
-7.100000
70
192
0
VERTEX
8
OBJECT__23
10
33.910000
20
70.877998
30
-7.100000
70
192
0
VERTEX
8
OBJECT__23
10
45.205002
20
55.137001
30
-6.729000
70
192
0
VERTEX
8
OBJECT__23
10
39.500000
20
57.306000
30
-7.100000
70
192
0
VERTEX
8
OBJECT__23
10
33.910000
20
59.122002
30
-7.100000
70
192
0
VERTEX
8
OBJECT__23
10
48.544998
20
60.244999
30
-7.100000
70
192
0
VERTEX
8
OBJECT__23
10
45.090000
20
55.490002
30
-7.100000
70
192
0
VERTEX
8
OBJECT__23
10
0
20
0
30
0
70
128
71
1
72
2
73
3
0
VERTEX
8
OBJECT__23
10
0
20
0
30
0
70
128
71
3
72
4
73
1
0
VERTEX
8
OBJECT__23
10
0
20
0
30
0
70
128
71
5
72
4
73
6
0
VERTEX
8
OBJECT__23
10
0
20
0
30
0
70
128
71
4
72
7
73
6
0
VERTEX
8
OBJECT__23
10
0
20
0
30
0
70
128
71
8
72
9
73
10
0
VERTEX
8
OBJECT__23
10
0
20
0
30
0
70
128
71
5
72
11
73
10
0
VERTEX
8
OBJECT__23
10
0
20
0
30
0
70
128
71
10
72
9
73
5
0
VERTEX
8
OBJECT__23
10
0
20
0
30
0
70
128
71
12
72
8
73
13
0
VERTEX
8
OBJECT__23
10
0
20
0
30
0
70
128
71
8
72
14
73
13
0
VERTEX
8
OBJECT__23
10
0
20
0
30
0
70
128
71
1
72
12
73
15
0
VERTEX
8
OBJECT__23
10
0
20
0
30
0
70
128
71
12
72
16
73
15
0
VERTEX
8
OBJECT__23
10
0
20
0
30
0
70
128
71
15
72
2
73
1
0
VERTEX
8
OBJECT__23
10
0
20
0
30
0
70
128
71
13
72
16
73
12
0
VERTEX
8
OBJECT__23
10
0
20
0
30
0
70
128
71
10
72
14
73
8
0
VERTEX
8
OBJECT__23
10
0
20
0
30
0
70
128
71
6
72
11
73
5
0
VERTEX
8
OBJECT__23
10
0
20
0
30
0
70
128
71
3
72
7
73
4
0
SEQEND
8
OBJECT__23
0
POLYLINE
8
OBJECT__24
66
1
70
64
71
12
72
12
62
253
0
VERTEX
8
OBJECT__24
10
52.424000
20
65.000000
30
-5.700000
70
192
0
VERTEX
8
OBJECT__24
10
52.369999
20
65.000000
30
-6.729000
70
192
0
VERTEX
8
OBJECT__24
10
45.205002
20
74.862999
30
-6.729000
70
192
0
VERTEX
8
OBJECT__24
10
33.567001
20
71.126999
30
-5.700000
70
192
0
VERTEX
8
OBJECT__24
10
45.221001
20
74.914001
30
-5.700000
70
192
0
VERTEX
8
OBJECT__24
10
33.567001
20
58.873001
30
-5.700000
70
192
0
VERTEX
8
OBJECT__24
10
31.576000
20
65.000000
30
-5.700000
70
192
0
VERTEX
8
OBJECT__24
10
31.629999
20
65.000000
30
-6.729000
70
192
0
VERTEX
8
OBJECT__24
10
33.610001
20
71.095001
30
-6.729000
70
192
0
VERTEX
8
OBJECT__24
10
45.221001
20
55.085999
30
-5.700000
70
192
0
VERTEX
8
OBJECT__24
10
33.610001
20
58.904999
30
-6.729000
70
192
0
VERTEX
8
OBJECT__24
10
45.205002
20
55.137001
30
-6.729000
70
192
0
VERTEX
8
OBJECT__24
10
0
20
0
30
0
70
128
71
1
72
2
73
3
0
VERTEX
8
OBJECT__24
10
0
20
0
30
0
70
128
71
4
72
5
73
3
0
VERTEX
8
OBJECT__24
10
0
20
0
30
0
70
128
71
6
72
7
73
8
0
VERTEX
8
OBJECT__24
10
0
20
0
30
0
70
128
71
4
72
9
73
8
0
VERTEX
8
OBJECT__24
10
0
20
0
30
0
70
128
71
8
72
7
73
4
0
VERTEX
8
OBJECT__24
10
0
20
0
30
0
70
128
71
10
72
6
73
11
0
VERTEX
8
OBJECT__24
10
0
20
0
30
0
70
128
71
10
72
12
73
2
0
VERTEX
8
OBJECT__24
10
0
20
0
30
0
70
128
71
2
72
1
73
10
0
VERTEX
8
OBJECT__24
10
0
20
0
30
0
70
128
71
11
72
12
73
10
0
VERTEX
8
OBJECT__24
10
0
20
0
30
0
70
128
71
8
72
11
73
6
0
VERTEX
8
OBJECT__24
10
0
20
0
30
0
70
128
71
3
72
9
73
4
0
VERTEX
8
OBJECT__24
10
0
20
0
30
0
70
128
71
3
72
5
73
1
0
SEQEND
8
OBJECT__24
0
POLYLINE
8
OBJECT__25
66
1
70
64
71
14
72
12
62
253
0
VERTEX
8
OBJECT__25
10
42.793999
20
76.463997
30
35.501999
70
192
0
VERTEX
8
OBJECT__25
10
42.830002
20
76.962997
30
35.001999
70
192
0
VERTEX
8
OBJECT__25
10
47.359001
20
74.870003
30
35.004002
70
192
0
VERTEX
8
OBJECT__25
10
50.189999
20
73.046997
30
35.505001
70
192
0
VERTEX
8
OBJECT__25
10
34.991001
20
74.124001
30
35.499001
70
192
0
VERTEX
8
OBJECT__25
10
35.987000
20
74.911003
30
35.000000
70
192
0
VERTEX
8
OBJECT__25
10
34.688000
20
74.521004
30
34.999001
70
192
0
VERTEX
8
OBJECT__25
10
30.759001
20
67.500000
30
35.498001
70
192
0
VERTEX
8
OBJECT__25
10
30.253000
20
67.500000
30
35.073002
70
192
0
VERTEX
8
OBJECT__25
10
50.547001
20
73.398003
30
35.005001
70
192
0
VERTEX
8
OBJECT__25
10
53.578999
20
65.805000
30
35.490002
70
192
0
VERTEX
8
OBJECT__25
10
53.452999
20
65.800003
30
35.506001
70
192
0
VERTEX
8
OBJECT__25
10
53.952999
20
65.820999
30
35.006001
70
192
0
VERTEX
8
OBJECT__25
10
30.247000
20
67.500000
30
34.998001
70
192
0
VERTEX
8
OBJECT__25
10
0
20
0
30
0
70
128
71
1
72
2
73
3
0
VERTEX
8
OBJECT__25
10
0
20
0
30
0
70
128
71
3
72
4
73
1
0
VERTEX
8
OBJECT__25
10
0
20
0
30
0
70
128
71
1
72
5
73
6
0
VERTEX
8
OBJECT__25
10
0
20
0
30
0
70
128
71
5
72
7
73
6
0
VERTEX
8
OBJECT__25
10
0
20
0
30
0
70
128
71
7
72
5
73
8
0
VERTEX
8
OBJECT__25
10
0
20
0
30
0
70
128
71
8
72
9
73
7
0
VERTEX
8
OBJECT__25
10
0
20
0
30
0
70
128
71
10
72
11
73
12
0
VERTEX
8
OBJECT__25
10
0
20
0
30
0
70
128
71
10
72
13
73
11
0
VERTEX
8
OBJECT__25
10
0
20
0
30
0
70
128
71
12
72
4
73
10
0
VERTEX
8
OBJECT__25
10
0
20
0
30
0
70
128
71
9
72
14
73
7
0
VERTEX
8
OBJECT__25
10
0
20
0
30
0
70
128
71
6
72
2
73
1
0
VERTEX
8
OBJECT__25
10
0
20
0
30
0
70
128
71
3
72
10
73
4
0
SEQEND
8
OBJECT__25
0
POLYLINE
8
OBJECT__26
66
1
70
64
71
23
72
21
62
253
0
VERTEX
8
OBJECT__26
10
35.868999
20
75.316002
30
25.500000
70
192
0
VERTEX
8
OBJECT__26
10
47.679001
20
75.556000
30
25.504000
70
192
0
VERTEX
8
OBJECT__26
10
42.830002
20
76.962997
30
35.001999
70
192
0
VERTEX
8
OBJECT__26
10
47.359001
20
74.870003
30
35.004002
70
192
0
VERTEX
8
OBJECT__26
10
29.987000
20
65.292999
30
31.997999
70
192
0
VERTEX
8
OBJECT__26
10
29.989000
20
65.292000
30
25.497999
70
192
0
VERTEX
8
OBJECT__26
10
30.027000
20
66.000000
30
28.497999
70
192
0
VERTEX
8
OBJECT__26
10
30.024000
20
66.000000
30
34.998001
70
192
0
VERTEX
8
OBJECT__26
10
29.986000
20
65.292999
30
34.998001
70
192
0
VERTEX
8
OBJECT__26
10
30.028000
20
66.011002
30
28.389999
70
192
0
VERTEX
8
OBJECT__26
10
30.174000
20
67.117996
30
28.011999
70
192
0
VERTEX
8
OBJECT__26
10
30.153999
20
67.000000
30
27.997999
70
192
0
VERTEX
8
OBJECT__26
10
30.080000
20
66.500000
30
27.997999
70
192
0
VERTEX
8
OBJECT__26
10
34.688000
20
74.521004
30
34.999001
70
192
0
VERTEX
8
OBJECT__26
10
30.247000
20
67.500000
30
34.998001
70
192
0
VERTEX
8
OBJECT__26
10
30.249001
20
67.500000
30
28.497999
70
192
0
VERTEX
8
OBJECT__26
10
35.987000
20
74.911003
30
35.000000
70
192
0
VERTEX
8
OBJECT__26
10
50.547001
20
73.398003
30
35.005001
70
192
0
VERTEX
8
OBJECT__26
10
53.957001
20
65.820999
30
25.705999
70
192
0
VERTEX
8
OBJECT__26
10
53.955002
20
65.820999
30
30.356001
70
192
0
VERTEX
8
OBJECT__26
10
53.959000
20
65.792000
30
25.541000
70
192
0
VERTEX
8
OBJECT__26
10
53.959999
20
65.778000
30
25.506001
70
192
0
VERTEX
8
OBJECT__26
10
53.952999
20
65.820999
30
35.006001
70
192
0
VERTEX
8
OBJECT__26
10
0
20
0
30
0
70
128
71
1
72
2
73
3
0
VERTEX
8
OBJECT__26
10
0
20
0
30
0
70
128
71
2
72
4
73
3
0
VERTEX
8
OBJECT__26
10
0
20
0
30
0
70
128
71
5
72
6
73
7
0
VERTEX
8
OBJECT__26
10
0
20
0
30
0
70
128
71
8
72
9
73
5
0
VERTEX
8
OBJECT__26
10
0
20
0
30
0
70
128
71
6
72
10
73
7
0
VERTEX
8
OBJECT__26
10
0
20
0
30
0
70
128
71
6
72
1
73
11
0
VERTEX
8
OBJECT__26
10
0
20
0
30
0
70
128
71
11
72
12
73
6
0
VERTEX
8
OBJECT__26
10
0
20
0
30
0
70
128
71
12
72
13
73
6
0
VERTEX
8
OBJECT__26
10
0
20
0
30
0
70
128
71
14
72
15
73
16
0
VERTEX
8
OBJECT__26
10
0
20
0
30
0
70
128
71
1
72
17
73
14
0
VERTEX
8
OBJECT__26
10
0
20
0
30
0
70
128
71
16
72
1
73
14
0
VERTEX
8
OBJECT__26
10
0
20
0
30
0
70
128
71
16
72
11
73
1
0
VERTEX
8
OBJECT__26
10
0
20
0
30
0
70
128
71
13
72
10
73
6
0
VERTEX
8
OBJECT__26
10
0
20
0
30
0
70
128
71
18
72
19
73
20
0
VERTEX
8
OBJECT__26
10
0
20
0
30
0
70
128
71
18
72
21
73
19
0
VERTEX
8
OBJECT__26
10
0
20
0
30
0
70
128
71
2
72
21
73
18
0
VERTEX
8
OBJECT__26
10
0
20
0
30
0
70
128
71
2
72
22
73
21
0
VERTEX
8
OBJECT__26
10
0
20
0
30
0
70
128
71
18
72
4
73
2
0
VERTEX
8
OBJECT__26
10
0
20
0
30
0
70
128
71
20
72
23
73
18
0
VERTEX
8
OBJECT__26
10
0
20
0
30
0
70
128
71
7
72
8
73
5
0
VERTEX
8
OBJECT__26
10
0
20
0
30
0
70
128
71
3
72
17
73
1
0
SEQEND
8
OBJECT__26
0
POLYLINE
8
OBJECT__28
66
1
70
64
71
14
72
12
62
253
0
VERTEX
8
OBJECT__28
10
53.957001
20
65.820999
30
25.705999
70
192
0
VERTEX
8
OBJECT__28
10
53.959000
20
65.792000
30
25.541000
70
192
0
VERTEX
8
OBJECT__28
10
53.659000
20
65.488998
30
25.639999
70
192
0
VERTEX
8
OBJECT__28
10
53.938999
20
65.625999
30
25.506001
70
192
0
VERTEX
8
OBJECT__28
10
53.910999
20
65.591003
30
25.506001
70
192
0
VERTEX
8
OBJECT__28
10
53.959999
20
65.778000
30
25.506001
70
192
0
VERTEX
8
OBJECT__28
10
53.664001
20
65.456001
30
25.582001
70
192
0
VERTEX
8
OBJECT__28
10
53.817001
20
65.472000
30
25.506001
70
192
0
VERTEX
8
OBJECT__28
10
53.671001
20
65.405998
30
25.537001
70
192
0
VERTEX
8
OBJECT__28
10
53.733002
20
65.363998
30
25.506001
70
192
0
VERTEX
8
OBJECT__28
10
53.678001
20
65.344002
30
25.511000
70
192
0
VERTEX
8
OBJECT__28
10
53.683998
20
65.302002
30
25.506001
70
192
0
VERTEX
8
OBJECT__28
10
53.681000
20
65.300003
30
25.506001
70
192
0
VERTEX
8
OBJECT__28
10
53.657001
20
65.500000
30
25.705999
70
192
0
VERTEX
8
OBJECT__28
10
0
20
0
30
0
70
128
71
1
72
2
73
3
0
VERTEX
8
OBJECT__28
10
0
20
0
30
0
70
128
71
3
72
4
73
5
0
VERTEX
8
OBJECT__28
10
0
20
0
30
0
70
128
71
2
72
6
73
4
0
VERTEX
8
OBJECT__28
10
0
20
0
30
0
70
128
71
4
72
3
73
2
0
VERTEX
8
OBJECT__28
10
0
20
0
30
0
70
128
71
7
72
5
73
8
0
VERTEX
8
OBJECT__28
10
0
20
0
30
0
70
128
71
9
72
8
73
10
0
VERTEX
8
OBJECT__28
10
0
20
0
30
0
70
128
71
11
72
10
73
12
0
VERTEX
8
OBJECT__28
10
0
20
0
30
0
70
128
71
12
72
13
73
11
0
VERTEX
8
OBJECT__28
10
0
20
0
30
0
70
128
71
10
72
11
73
9
0
VERTEX
8
OBJECT__28
10
0
20
0
30
0
70
128
71
8
72
9
73
7
0
VERTEX
8
OBJECT__28
10
0
20
0
30
0
70
128
71
5
72
7
73
3
0
VERTEX
8
OBJECT__28
10
0
20
0
30
0
70
128
71
3
72
14
73
1
0
SEQEND
8
OBJECT__28
0
POLYLINE
8
OBJECT__29
66
1
70
64
71
6
72
4
62
253
0
VERTEX
8
OBJECT__29
10
53.657001
20
65.500000
30
25.705999
70
192
0
VERTEX
8
OBJECT__29
10
53.655998
20
65.500000
30
30.356001
70
192
0
VERTEX
8
OBJECT__29
10
53.955002
20
65.820999
30
30.356001
70
192
0
VERTEX
8
OBJECT__29
10
53.653999
20
65.500000
30
35.006001
70
192
0
VERTEX
8
OBJECT__29
10
53.952999
20
65.820999
30
35.006001
70
192
0
VERTEX
8
OBJECT__29
10
53.957001
20
65.820999
30
25.705999
70
192
0
VERTEX
8
OBJECT__29
10
0
20
0
30
0
70
128
71
1
72
2
73
3
0
VERTEX
8
OBJECT__29
10
0
20
0
30
0
70
128
71
2
72
4
73
5
0
VERTEX
8
OBJECT__29
10
0
20
0
30
0
70
128
71
5
72
3
73
2
0
VERTEX
8
OBJECT__29
10
0
20
0
30
0
70
128
71
3
72
6
73
1
0
SEQEND
8
OBJECT__29
0
POLYLINE
8
OBJECT__30
66
1
70
64
71
26
72
24
62
253
0
VERTEX
8
OBJECT__30
10
54.507000
20
65.000000
30
25.507000
70
192
0
VERTEX
8
OBJECT__30
10
53.817001
20
65.472000
30
25.506001
70
192
0
VERTEX
8
OBJECT__30
10
53.910999
20
65.591003
30
25.506001
70
192
0
VERTEX
8
OBJECT__30
10
35.868999
20
75.316002
30
25.500000
70
192
0
VERTEX
8
OBJECT__30
10
30.400999
20
70.169998
30
25.497999
70
192
0
VERTEX
8
OBJECT__30
10
32.408001
20
73.725998
30
25.499001
70
192
0
VERTEX
8
OBJECT__30
10
29.688999
20
65.000000
30
25.497999
70
192
0
VERTEX
8
OBJECT__30
10
29.875000
20
68.203003
30
25.497999
70
192
0
VERTEX
8
OBJECT__30
10
29.989000
20
65.292000
30
25.497999
70
192
0
VERTEX
8
OBJECT__30
10
53.959999
20
65.778000
30
25.506001
70
192
0
VERTEX
8
OBJECT__30
10
47.679001
20
75.556000
30
25.504000
70
192
0
VERTEX
8
OBJECT__30
10
53.203999
20
70.748001
30
25.506001
70
192
0
VERTEX
8
OBJECT__30
10
53.733002
20
65.363998
30
25.506001
70
192
0
VERTEX
8
OBJECT__30
10
53.681000
20
65.300003
30
25.506001
70
192
0
VERTEX
8
OBJECT__30
10
53.683998
20
65.302002
30
25.506001
70
192
0
VERTEX
8
OBJECT__30
10
50.516998
20
74.560997
30
25.504999
70
192
0
VERTEX
8
OBJECT__30
10
53.938999
20
65.625999
30
25.506001
70
192
0
VERTEX
8
OBJECT__30
10
29.747999
20
65.005997
30
25.497999
70
192
0
VERTEX
8
OBJECT__30
10
43.334000
20
78.122002
30
25.502001
70
192
0
VERTEX
8
OBJECT__30
10
35.480999
20
76.417000
30
25.500000
70
192
0
VERTEX
8
OBJECT__30
10
39.265999
20
77.938004
30
25.500999
70
192
0
VERTEX
8
OBJECT__30
10
54.450001
20
66.237999
30
25.506001
70
192
0
VERTEX
8
OBJECT__30
10
29.591999
20
65.000000
30
25.497999
70
192
0
VERTEX
8
OBJECT__30
10
52.768002
20
65.000000
30
25.506001
70
192
0
VERTEX
8
OBJECT__30
10
52.768002
20
65.300003
30
25.506001
70
192
0
VERTEX
8
OBJECT__30
10
47.228001
20
76.953003
30
25.504000
70
192
0
VERTEX
8
OBJECT__30
10
0
20
0
30
0
70
128
71
1
72
2
73
3
0
VERTEX
8
OBJECT__30
10
0
20
0
30
0
70
128
71
4
72
5
73
6
0
VERTEX
8
OBJECT__30
10
0
20
0
30
0
70
128
71
7
72
8
73
9
0
VERTEX
8
OBJECT__30
10
0
20
0
30
0
70
128
71
10
72
11
73
12
0
VERTEX
8
OBJECT__30
10
0
20
0
30
0
70
128
71
1
72
13
73
2
0
VERTEX
8
OBJECT__30
10
0
20
0
30
0
70
128
71
1
72
14
73
15
0
VERTEX
8
OBJECT__30
10
0
20
0
30
0
70
128
71
4
72
8
73
5
0
VERTEX
8
OBJECT__30
10
0
20
0
30
0
70
128
71
8
72
4
73
9
0
VERTEX
8
OBJECT__30
10
0
20
0
30
0
70
128
71
11
72
16
73
12
0
VERTEX
8
OBJECT__30
10
0
20
0
30
0
70
128
71
1
72
17
73
10
0
VERTEX
8
OBJECT__30
10
0
20
0
30
0
70
128
71
15
72
13
73
1
0
VERTEX
8
OBJECT__30
10
0
20
0
30
0
70
128
71
3
72
17
73
1
0
VERTEX
8
OBJECT__30
10
0
20
0
30
0
70
128
71
9
72
18
73
7
0
VERTEX
8
OBJECT__30
10
0
20
0
30
0
70
128
71
11
72
4
73
19
0
VERTEX
8
OBJECT__30
10
0
20
0
30
0
70
128
71
4
72
20
73
21
0
VERTEX
8
OBJECT__30
10
0
20
0
30
0
70
128
71
12
72
22
73
10
0
VERTEX
8
OBJECT__30
10
0
20
0
30
0
70
128
71
7
72
23
73
8
0
VERTEX
8
OBJECT__30
10
0
20
0
30
0
70
128
71
21
72
19
73
4
0
VERTEX
8
OBJECT__30
10
0
20
0
30
0
70
128
71
10
72
22
73
1
0
VERTEX
8
OBJECT__30
10
0
20
0
30
0
70
128
71
24
72
25
73
14
0
VERTEX
8
OBJECT__30
10
0
20
0
30
0
70
128
71
19
72
26
73
11
0
VERTEX
8
OBJECT__30
10
0
20
0
30
0
70
128
71
14
72
1
73
24
0
VERTEX
8
OBJECT__30
10
0
20
0
30
0
70
128
71
11
72
26
73
16
0
VERTEX
8
OBJECT__30
10
0
20
0
30
0
70
128
71
6
72
20
73
4
0
SEQEND
8
OBJECT__30
0
POLYLINE
8
OBJECT__31
66
1
70
64
71
19
72
17
62
253
0
VERTEX
8
OBJECT__31
10
51.590000
20
75.609001
30
26.996000
70
192
0
VERTEX
8
OBJECT__31
10
50.516998
20
74.560997
30
25.504999
70
192
0
VERTEX
8
OBJECT__31
10
47.228001
20
76.953003
30
25.504000
70
192
0
VERTEX
8
OBJECT__31
10
43.334000
20
78.122002
30
25.502001
70
192
0
VERTEX
8
OBJECT__31
10
43.518002
20
79.610001
30
26.957001
70
192
0
VERTEX
8
OBJECT__31
10
45.756001
20
78.938004
30
26.965000
70
192
0
VERTEX
8
OBJECT__31
10
39.265999
20
77.938004
30
25.500999
70
192
0
VERTEX
8
OBJECT__31
10
35.480999
20
76.417000
30
25.500000
70
192
0
VERTEX
8
OBJECT__31
10
34.695999
20
77.695000
30
26.962000
70
192
0
VERTEX
8
OBJECT__31
10
37.903000
20
78.983002
30
26.955999
70
192
0
VERTEX
8
OBJECT__31
10
31.243999
20
74.672997
30
26.980000
70
192
0
VERTEX
8
OBJECT__31
10
31.231001
20
74.650002
30
26.981001
70
192
0
VERTEX
8
OBJECT__31
10
32.408001
20
73.725998
30
25.499001
70
192
0
VERTEX
8
OBJECT__31
10
30.400999
20
70.169998
30
25.497999
70
192
0
VERTEX
8
OBJECT__31
10
28.988001
20
70.678001
30
27.007000
70
192
0
VERTEX
8
OBJECT__31
10
28.398001
20
68.467003
30
27.023001
70
192
0
VERTEX
8
OBJECT__31
10
29.875000
20
68.203003
30
25.497999
70
192
0
VERTEX
8
OBJECT__31
10
38.948002
20
79.403000
30
26.954000
70
192
0
VERTEX
8
OBJECT__31
10
47.893002
20
78.296997
30
26.972000
70
192
0
VERTEX
8
OBJECT__31
10
0
20
0
30
0
70
128
71
1
72
2
73
3
0
VERTEX
8
OBJECT__31
10
0
20
0
30
0
70
128
71
4
72
5
73
6
0
VERTEX
8
OBJECT__31
10
0
20
0
30
0
70
128
71
6
72
3
73
4
0
VERTEX
8
OBJECT__31
10
0
20
0
30
0
70
128
71
5
72
4
73
7
0
VERTEX
8
OBJECT__31
10
0
20
0
30
0
70
128
71
8
72
9
73
10
0
VERTEX
8
OBJECT__31
10
0
20
0
30
0
70
128
71
10
72
7
73
8
0
VERTEX
8
OBJECT__31
10
0
20
0
30
0
70
128
71
11
72
9
73
8
0
VERTEX
8
OBJECT__31
10
0
20
0
30
0
70
128
71
12
72
13
73
14
0
VERTEX
8
OBJECT__31
10
0
20
0
30
0
70
128
71
14
72
15
73
12
0
VERTEX
8
OBJECT__31
10
0
20
0
30
0
70
128
71
16
72
15
73
14
0
VERTEX
8
OBJECT__31
10
0
20
0
30
0
70
128
71
14
72
17
73
16
0
VERTEX
8
OBJECT__31
10
0
20
0
30
0
70
128
71
12
72
11
73
13
0
VERTEX
8
OBJECT__31
10
0
20
0
30
0
70
128
71
8
72
13
73
11
0
VERTEX
8
OBJECT__31
10
0
20
0
30
0
70
128
71
10
72
18
73
7
0
VERTEX
8
OBJECT__31
10
0
20
0
30
0
70
128
71
7
72
18
73
5
0
VERTEX
8
OBJECT__31
10
0
20
0
30
0
70
128
71
6
72
19
73
3
0
VERTEX
8
OBJECT__31
10
0
20
0
30
0
70
128
71
3
72
19
73
1
0
SEQEND
8
OBJECT__31
0
POLYLINE
8
OBJECT__32
66
1
70
64
71
12
72
10
62
253
0
VERTEX
8
OBJECT__32
10
55.943001
20
66.375999
30
27.004999
70
192
0
VERTEX
8
OBJECT__32
10
54.450001
20
66.237999
30
25.506001
70
192
0
VERTEX
8
OBJECT__32
10
53.203999
20
70.748001
30
25.506001
70
192
0
VERTEX
8
OBJECT__32
10
55.745998
20
65.000000
30
26.160999
70
192
0
VERTEX
8
OBJECT__32
10
54.834000
20
65.000000
30
25.542999
70
192
0
VERTEX
8
OBJECT__32
10
55.921001
20
65.000000
30
26.509001
70
192
0
VERTEX
8
OBJECT__32
10
56.007000
20
65.000000
30
27.004999
70
192
0
VERTEX
8
OBJECT__32
10
50.516998
20
74.560997
30
25.504999
70
192
0
VERTEX
8
OBJECT__32
10
52.297001
20
74.605003
30
26.997000
70
192
0
VERTEX
8
OBJECT__32
10
51.590000
20
75.609001
30
26.996000
70
192
0
VERTEX
8
OBJECT__32
10
54.555000
20
71.397003
30
27.002001
70
192
0
VERTEX
8
OBJECT__32
10
54.507000
20
65.000000
30
25.507000
70
192
0
VERTEX
8
OBJECT__32
10
0
20
0
30
0
70
128
71
1
72
2
73
3
0
VERTEX
8
OBJECT__32
10
0
20
0
30
0
70
128
71
2
72
1
73
4
0
VERTEX
8
OBJECT__32
10
0
20
0
30
0
70
128
71
4
72
5
73
2
0
VERTEX
8
OBJECT__32
10
0
20
0
30
0
70
128
71
1
72
6
73
4
0
VERTEX
8
OBJECT__32
10
0
20
0
30
0
70
128
71
1
72
7
73
6
0
VERTEX
8
OBJECT__32
10
0
20
0
30
0
70
128
71
3
72
8
73
9
0
VERTEX
8
OBJECT__32
10
0
20
0
30
0
70
128
71
8
72
10
73
9
0
VERTEX
8
OBJECT__32
10
0
20
0
30
0
70
128
71
9
72
11
73
3
0
VERTEX
8
OBJECT__32
10
0
20
0
30
0
70
128
71
5
72
12
73
2
0
VERTEX
8
OBJECT__32
10
0
20
0
30
0
70
128
71
3
72
11
73
1
0
SEQEND
8
OBJECT__32
0
POLYLINE
8
OBJECT__33
66
1
70
64
71
61
72
69
62
253
0
VERTEX
8
OBJECT__33
10
44.306000
20
80.317001
30
65.200996
70
192
0
VERTEX
8
OBJECT__33
10
48.689999
20
79.112000
30
80.714996
70
192
0
VERTEX
8
OBJECT__33
10
48.948002
20
78.648003
30
69.777000
70
192
0
VERTEX
8
OBJECT__33
10
49.062000
20
78.444000
30
64.966003
70
192
0
VERTEX
8
OBJECT__33
10
41.778000
20
81.241997
30
104.633003
70
192
0
VERTEX
8
OBJECT__33
10
48.672001
20
80.362999
30
104.061996
70
192
0
VERTEX
8
OBJECT__33
10
38.867001
20
80.027000
30
65.470001
70
192
0
VERTEX
8
OBJECT__33
10
38.551998
20
79.794998
30
104.922997
70
192
0
VERTEX
8
OBJECT__33
10
34.115002
20
77.360001
30
65.690002
70
192
0
VERTEX
8
OBJECT__33
10
32.896999
20
74.628998
30
78.443001
70
192
0
VERTEX
8
OBJECT__33
10
35.390999
20
76.903000
30
99.453003
70
192
0
VERTEX
8
OBJECT__33
10
31.396000
20
73.261002
30
65.797997
70
192
0
VERTEX
8
OBJECT__33
10
32.696999
20
74.445999
30
76.753998
70
192
0
VERTEX
8
OBJECT__33
10
56.606998
20
93.513000
30
168.621994
70
192
0
VERTEX
8
OBJECT__33
10
61.164001
20
100.341003
30
174.065994
70
192
0
VERTEX
8
OBJECT__33
10
59.674999
20
92.556000
30
167.298996
70
192
0
VERTEX
8
OBJECT__33
10
62.702999
20
100.184998
30
172.998993
70
192
0
VERTEX
8
OBJECT__33
10
60.395000
20
100.418999
30
174.600006
70
192
0
VERTEX
8
OBJECT__33
10
55.754002
20
94.164001
30
172.460999
70
192
0
VERTEX
8
OBJECT__33
10
54.695999
20
92.583000
30
171.171005
70
192
0
VERTEX
8
OBJECT__33
10
59.294998
20
99.460999
30
176.779007
70
192
0
VERTEX
8
OBJECT__33
10
44.293999
20
79.910004
30
45.553001
70
192
0
VERTEX
8
OBJECT__33
10
49.514999
20
77.629997
30
45.782001
70
192
0
VERTEX
8
OBJECT__33
10
36.334999
20
77.363998
30
105.130997
70
192
0
VERTEX
8
OBJECT__33
10
37.821999
20
78.091003
30
114.074997
70
192
0
VERTEX
8
OBJECT__33
10
41.570999
20
79.925003
30
136.628006
70
192
0
VERTEX
8
OBJECT__33
10
46.497002
20
82.806999
30
143.651001
70
192
0
VERTEX
8
OBJECT__33
10
42.051998
20
80.160004
30
139.518005
70
192
0
VERTEX
8
OBJECT__33
10
43.235001
20
80.708000
30
144.429001
70
192
0
VERTEX
8
OBJECT__33
10
48.694000
20
84.117996
30
153.132996
70
192
0
VERTEX
8
OBJECT__33
10
45.854000
20
82.154999
30
154.354004
70
192
0
VERTEX
8
OBJECT__33
10
48.603001
20
84.471001
30
161.550995
70
192
0
VERTEX
8
OBJECT__33
10
52.148998
20
87.508003
30
161.910004
70
192
0
VERTEX
8
OBJECT__33
10
49.863998
20
86.011002
30
163.847000
70
192
0
VERTEX
8
OBJECT__33
10
52.248001
20
88.919998
30
168.184998
70
192
0
VERTEX
8
OBJECT__33
10
45.236000
20
81.634003
30
152.735992
70
192
0
VERTEX
8
OBJECT__33
10
45.831001
20
82.136002
30
154.294998
70
192
0
VERTEX
8
OBJECT__33
10
48.659000
20
81.264999
30
120.904999
70
192
0
VERTEX
8
OBJECT__33
10
48.660000
20
81.185997
30
119.430000
70
192
0
VERTEX
8
OBJECT__33
10
50.431000
20
82.358002
30
140.830994
70
192
0
VERTEX
8
OBJECT__33
10
50.605000
20
82.466003
30
142.787003
70
192
0
VERTEX
8
OBJECT__33
10
55.428001
20
86.901001
30
160.610992
70
192
0
VERTEX
8
OBJECT__33
10
53.770000
20
85.160004
30
156.190994
70
192
0
VERTEX
8
OBJECT__33
10
52.703999
20
84.040001
30
153.348007
70
192
0
VERTEX
8
OBJECT__33
10
59.213001
20
91.856003
30
166.746994
70
192
0
VERTEX
8
OBJECT__33
10
59.278999
20
91.955002
30
166.824997
70
192
0
VERTEX
8
OBJECT__33
10
52.446999
20
83.848000
30
152.056000
70
192
0
VERTEX
8
OBJECT__33
10
49.560001
20
77.585999
30
45.374001
70
192
0
VERTEX
8
OBJECT__33
10
47.893002
20
78.296997
30
26.972000
70
192
0
VERTEX
8
OBJECT__33
10
51.590000
20
75.609001
30
26.996000
70
192
0
VERTEX
8
OBJECT__33
10
45.756001
20
78.938004
30
26.965000
70
192
0
VERTEX
8
OBJECT__33
10
43.518002
20
79.610001
30
26.957001
70
192
0
VERTEX
8
OBJECT__33
10
38.948002
20
79.403000
30
26.954000
70
192
0
VERTEX
8
OBJECT__33
10
37.903000
20
78.983002
30
26.955999
70
192
0
VERTEX
8
OBJECT__33
10
34.695999
20
77.695000
30
26.962000
70
192
0
VERTEX
8
OBJECT__33
10
31.243999
20
74.672997
30
26.980000
70
192
0
VERTEX
8
OBJECT__33
10
31.231001
20
74.650002
30
26.981001
70
192
0
VERTEX
8
OBJECT__33
10
28.988001
20
70.678001
30
27.007000
70
192
0
VERTEX
8
OBJECT__33
10
30.438999
20
72.389000
30
57.737999
70
192
0
VERTEX
8
OBJECT__33
10
28.398001
20
68.467003
30
27.023001
70
192
0
VERTEX
8
OBJECT__33
10
64.222000
20
99.435997
30
172.731995
70
192
0
VERTEX
8
OBJECT__33
10
0
20
0
30
0
70
128
71
1
72
2
73
3
0
VERTEX
8
OBJECT__33
10
0
20
0
30
0
70
128
71
3
72
4
73
1
0
VERTEX
8
OBJECT__33
10
0
20
0
30
0
70
128
71
5
72
6
73
2
0
VERTEX
8
OBJECT__33
10
0
20
0
30
0
70
128
71
2
72
7
73
5
0
VERTEX
8
OBJECT__33
10
0
20
0
30
0
70
128
71
8
72
9
73
10
0
VERTEX
8
OBJECT__33
10
0
20
0
30
0
70
128
71
10
72
11
73
8
0
VERTEX
8
OBJECT__33
10
0
20
0
30
0
70
128
71
9
72
12
73
13
0
VERTEX
8
OBJECT__33
10
0
20
0
30
0
70
128
71
13
72
10
73
9
0
VERTEX
8
OBJECT__33
10
0
20
0
30
0
70
128
71
15
72
16
73
14
0
VERTEX
8
OBJECT__33
10
0
20
0
30
0
70
128
71
15
72
17
73
16
0
VERTEX
8
OBJECT__33
10
0
20
0
30
0
70
128
71
18
72
14
73
19
0
VERTEX
8
OBJECT__33
10
0
20
0
30
0
70
128
71
14
72
20
73
19
0
VERTEX
8
OBJECT__33
10
0
20
0
30
0
70
128
71
19
72
21
73
18
0
VERTEX
8
OBJECT__33
10
0
20
0
30
0
70
128
71
22
72
1
73
4
0
VERTEX
8
OBJECT__33
10
0
20
0
30
0
70
128
71
4
72
23
73
22
0
VERTEX
8
OBJECT__33
10
0
20
0
30
0
70
128
71
7
72
9
73
8
0
VERTEX
8
OBJECT__33
10
0
20
0
30
0
70
128
71
8
72
24
73
25
0
VERTEX
8
OBJECT__33
10
0
20
0
30
0
70
128
71
5
72
8
73
26
0
VERTEX
8
OBJECT__33
10
0
20
0
30
0
70
128
71
26
72
27
73
5
0
VERTEX
8
OBJECT__33
10
0
20
0
30
0
70
128
71
26
72
28
73
27
0
VERTEX
8
OBJECT__33
10
0
20
0
30
0
70
128
71
28
72
29
73
27
0
VERTEX
8
OBJECT__33
10
0
20
0
30
0
70
128
71
30
72
31
73
32
0
VERTEX
8
OBJECT__33
10
0
20
0
30
0
70
128
71
32
72
33
73
30
0
VERTEX
8
OBJECT__33
10
0
20
0
30
0
70
128
71
33
72
34
73
35
0
VERTEX
8
OBJECT__33
10
0
20
0
30
0
70
128
71
35
72
14
73
33
0
VERTEX
8
OBJECT__33
10
0
20
0
30
0
70
128
71
27
72
29
73
36
0
VERTEX
8
OBJECT__33
10
0
20
0
30
0
70
128
71
36
72
30
73
27
0
VERTEX
8
OBJECT__33
10
0
20
0
30
0
70
128
71
36
72
37
73
30
0
VERTEX
8
OBJECT__33
10
0
20
0
30
0
70
128
71
5
72
38
73
39
0
VERTEX
8
OBJECT__33
10
0
20
0
30
0
70
128
71
27
72
40
73
38
0
VERTEX
8
OBJECT__33
10
0
20
0
30
0
70
128
71
27
72
41
73
40
0
VERTEX
8
OBJECT__33
10
0
20
0
30
0
70
128
71
38
72
5
73
27
0
VERTEX
8
OBJECT__33
10
0
20
0
30
0
70
128
71
33
72
42
73
43
0
VERTEX
8
OBJECT__33
10
0
20
0
30
0
70
128
71
43
72
30
73
33
0
VERTEX
8
OBJECT__33
10
0
20
0
30
0
70
128
71
43
72
44
73
30
0
VERTEX
8
OBJECT__33
10
0
20
0
30
0
70
128
71
33
72
14
73
45
0
VERTEX
8
OBJECT__33
10
0
20
0
30
0
70
128
71
14
72
16
73
46
0
VERTEX
8
OBJECT__33
10
0
20
0
30
0
70
128
71
46
72
45
73
14
0
VERTEX
8
OBJECT__33
10
0
20
0
30
0
70
128
71
27
72
30
73
47
0
VERTEX
8
OBJECT__33
10
0
20
0
30
0
70
128
71
22
72
48
73
49
0
VERTEX
8
OBJECT__33
10
0
20
0
30
0
70
128
71
48
72
50
73
49
0
VERTEX
8
OBJECT__33
10
0
20
0
30
0
70
128
71
22
72
51
73
52
0
VERTEX
8
OBJECT__33
10
0
20
0
30
0
70
128
71
52
72
53
73
22
0
VERTEX
8
OBJECT__33
10
0
20
0
30
0
70
128
71
7
72
1
73
22
0
VERTEX
8
OBJECT__33
10
0
20
0
30
0
70
128
71
22
72
54
73
7
0
VERTEX
8
OBJECT__33
10
0
20
0
30
0
70
128
71
9
72
7
73
54
0
VERTEX
8
OBJECT__33
10
0
20
0
30
0
70
128
71
54
72
55
73
9
0
VERTEX
8
OBJECT__33
10
0
20
0
30
0
70
128
71
55
72
56
73
9
0
VERTEX
8
OBJECT__33
10
0
20
0
30
0
70
128
71
57
72
58
73
59
0
VERTEX
8
OBJECT__33
10
0
20
0
30
0
70
128
71
59
72
9
73
57
0
VERTEX
8
OBJECT__33
10
0
20
0
30
0
70
128
71
58
72
60
73
59
0
VERTEX
8
OBJECT__33
10
0
20
0
30
0
70
128
71
59
72
12
73
9
0
VERTEX
8
OBJECT__33
10
0
20
0
30
0
70
128
71
56
72
57
73
9
0
VERTEX
8
OBJECT__33
10
0
20
0
30
0
70
128
71
53
72
54
73
22
0
VERTEX
8
OBJECT__33
10
0
20
0
30
0
70
128
71
49
72
51
73
22
0
VERTEX
8
OBJECT__33
10
0
20
0
30
0
70
128
71
47
72
41
73
27
0
VERTEX
8
OBJECT__33
10
0
20
0
30
0
70
128
71
45
72
42
73
33
0
VERTEX
8
OBJECT__33
10
0
20
0
30
0
70
128
71
44
72
47
73
30
0
VERTEX
8
OBJECT__33
10
0
20
0
30
0
70
128
71
39
72
6
73
5
0
VERTEX
8
OBJECT__33
10
0
20
0
30
0
70
128
71
37
72
31
73
30
0
VERTEX
8
OBJECT__33
10
0
20
0
30
0
70
128
71
35
72
20
73
14
0
VERTEX
8
OBJECT__33
10
0
20
0
30
0
70
128
71
32
72
34
73
33
0
VERTEX
8
OBJECT__33
10
0
20
0
30
0
70
128
71
25
72
26
73
8
0
VERTEX
8
OBJECT__33
10
0
20
0
30
0
70
128
71
8
72
5
73
7
0
VERTEX
8
OBJECT__33
10
0
20
0
30
0
70
128
71
23
72
48
73
22
0
VERTEX
8
OBJECT__33
10
0
20
0
30
0
70
128
71
18
72
15
73
14
0
VERTEX
8
OBJECT__33
10
0
20
0
30
0
70
128
71
17
72
61
73
16
0
VERTEX
8
OBJECT__33
10
0
20
0
30
0
70
128
71
11
72
24
73
8
0
VERTEX
8
OBJECT__33
10
0
20
0
30
0
70
128
71
1
72
7
73
2
0
SEQEND
8
OBJECT__33
0
POLYLINE
8
OBJECT__34
66
1
70
64
71
6
72
4
62
253
0
VERTEX
8
OBJECT__34
10
28.398001
20
68.467003
30
27.023001
70
192
0
VERTEX
8
OBJECT__34
10
29.875000
20
68.203003
30
25.497999
70
192
0
VERTEX
8
OBJECT__34
10
29.591999
20
65.000000
30
25.497999
70
192
0
VERTEX
8
OBJECT__34
10
28.128000
20
65.000000
30
26.667999
70
192
0
VERTEX
8
OBJECT__34
10
28.091999
20
65.000000
30
26.976000
70
192
0
VERTEX
8
OBJECT__34
10
28.091999
20
65.000000
30
27.025000
70
192
0
VERTEX
8
OBJECT__34
10
0
20
0
30
0
70
128
71
1
72
2
73
3
0
VERTEX
8
OBJECT__34
10
0
20
0
30
0
70
128
71
3
72
4
73
1
0
VERTEX
8
OBJECT__34
10
0
20
0
30
0
70
128
71
4
72
5
73
1
0
VERTEX
8
OBJECT__34
10
0
20
0
30
0
70
128
71
5
72
6
73
1
0
SEQEND
8
OBJECT__34
0
POLYLINE
8
OBJECT__35
66
1
70
64
71
82
72
95
62
253
0
VERTEX
8
OBJECT__35
10
58.518002
20
77.523003
30
202.584000
70
192
0
VERTEX
8
OBJECT__35
10
77.858002
20
81.124001
30
231.423996
70
192
0
VERTEX
8
OBJECT__35
10
69.898003
20
94.102997
30
214.802994
70
192
0
VERTEX
8
OBJECT__35
10
81.000999
20
97.026001
30
229.610001
70
192
0
VERTEX
8
OBJECT__35
10
92.662003
20
81.016998
30
247.412994
70
192
0
VERTEX
8
OBJECT__35
10
61.491001
20
90.040001
30
200.867004
70
192
0
VERTEX
8
OBJECT__35
10
50.289001
20
82.654999
30
175.794998
70
192
0
VERTEX
8
OBJECT__35
10
47.456001
20
73.898003
30
177.431000
70
192
0
VERTEX
8
OBJECT__35
10
43.578999
20
78.328003
30
155.613007
70
192
0
VERTEX
8
OBJECT__35
10
39.117001
20
76.325996
30
137.953995
70
192
0
VERTEX
8
OBJECT__35
10
34.813999
20
65.000000
30
128.973999
70
192
0
VERTEX
8
OBJECT__35
10
36.011002
20
65.000000
30
137.664993
70
192
0
VERTEX
8
OBJECT__35
10
35.729000
20
75.179001
30
115.051003
70
192
0
VERTEX
8
OBJECT__35
10
33.570000
20
65.000000
30
116.383003
70
192
0
VERTEX
8
OBJECT__35
10
36.401001
20
65.000000
30
139.561005
70
192
0
VERTEX
8
OBJECT__35
10
40.965000
20
71.835999
30
157.123993
70
192
0
VERTEX
8
OBJECT__35
10
40.118999
20
65.000000
30
157.632996
70
192
0
VERTEX
8
OBJECT__35
10
40.327999
20
65.000000
30
158.649994
70
192
0
VERTEX
8
OBJECT__35
10
43.328999
20
65.000000
30
168.921997
70
192
0
VERTEX
8
OBJECT__35
10
50.784000
20
65.000000
30
189.001007
70
192
0
VERTEX
8
OBJECT__35
10
55.235001
20
65.000000
30
198.733002
70
192
0
VERTEX
8
OBJECT__35
10
46.674000
20
65.000000
30
177.931000
70
192
0
VERTEX
8
OBJECT__35
10
57.713001
20
65.000000
30
203.048996
70
192
0
VERTEX
8
OBJECT__35
10
65.907997
20
65.000000
30
217.326996
70
192
0
VERTEX
8
OBJECT__35
10
78.815002
20
65.000000
30
234.440994
70
192
0
VERTEX
8
OBJECT__35
10
76.928001
20
65.000000
30
231.938995
70
192
0
VERTEX
8
OBJECT__35
10
94.573997
20
65.000000
30
250.606995
70
192
0
VERTEX
8
OBJECT__35
10
109.973999
20
77.257004
30
261.696991
70
192
0
VERTEX
8
OBJECT__35
10
109.783997
20
78.345001
30
261.373993
70
192
0
VERTEX
8
OBJECT__35
10
110.681999
20
65.000000
30
262.852997
70
192
0
VERTEX
8
OBJECT__35
10
92.033997
20
65.000000
30
248.309006
70
192
0
VERTEX
8
OBJECT__35
10
91.702003
20
65.000000
30
247.960999
70
192
0
VERTEX
8
OBJECT__35
10
107.125000
20
91.469002
30
256.842987
70
192
0
VERTEX
8
OBJECT__35
10
106.397003
20
93.809998
30
255.587997
70
192
0
VERTEX
8
OBJECT__35
10
104.647003
20
94.362999
30
254.272995
70
192
0
VERTEX
8
OBJECT__35
10
109.723999
20
78.690002
30
261.272003
70
192
0
VERTEX
8
OBJECT__35
10
107.955002
20
88.795998
30
258.274994
70
192
0
VERTEX
8
OBJECT__35
10
95.586998
20
96.760002
30
245.722000
70
192
0
VERTEX
8
OBJECT__35
10
103.039001
20
102.612000
30
249.807007
70
192
0
VERTEX
8
OBJECT__35
10
100.602997
20
107.572998
30
245.619995
70
192
0
VERTEX
8
OBJECT__35
10
105.397003
20
97.029999
30
253.863007
70
192
0
VERTEX
8
OBJECT__35
10
104.737000
20
99.155998
30
252.723999
70
192
0
VERTEX
8
OBJECT__35
10
91.338997
20
117.341003
30
229.695007
70
192
0
VERTEX
8
OBJECT__35
10
89.637001
20
118.607002
30
226.770004
70
192
0
VERTEX
8
OBJECT__35
10
97.655998
20
111.404999
30
240.550995
70
192
0
VERTEX
8
OBJECT__35
10
95.434998
20
114.292999
30
236.731995
70
192
0
VERTEX
8
OBJECT__35
10
99.362999
20
109.184998
30
243.488007
70
192
0
VERTEX
8
OBJECT__35
10
84.503998
20
120.003998
30
217.979996
70
192
0
VERTEX
8
OBJECT__35
10
83.484001
20
120.281998
30
216.233994
70
192
0
VERTEX
8
OBJECT__35
10
88.693001
20
118.863998
30
225.153000
70
192
0
VERTEX
8
OBJECT__35
10
71.867996
20
115.908997
30
196.266006
70
192
0
VERTEX
8
OBJECT__35
10
71.263000
20
115.380997
30
195.225998
70
192
0
VERTEX
8
OBJECT__35
10
79.443001
20
119.633003
30
209.304001
70
192
0
VERTEX
8
OBJECT__35
10
77.594002
20
119.335999
30
206.132996
70
192
0
VERTEX
8
OBJECT__35
10
59.294998
20
99.460999
30
176.779007
70
192
0
VERTEX
8
OBJECT__35
10
55.754002
20
94.164001
30
172.460999
70
192
0
VERTEX
8
OBJECT__35
10
65.005997
20
108.262001
30
184.699997
70
192
0
VERTEX
8
OBJECT__35
10
59.830002
20
100.310997
30
177.449997
70
192
0
VERTEX
8
OBJECT__35
10
70.917000
20
115.079002
30
194.630997
70
192
0
VERTEX
8
OBJECT__35
10
65.028000
20
108.294998
30
184.729996
70
192
0
VERTEX
8
OBJECT__35
10
48.603001
20
84.471001
30
161.550995
70
192
0
VERTEX
8
OBJECT__35
10
45.854000
20
82.154999
30
154.354004
70
192
0
VERTEX
8
OBJECT__35
10
52.248001
20
88.919998
30
168.184998
70
192
0
VERTEX
8
OBJECT__35
10
49.863998
20
86.011002
30
163.847000
70
192
0
VERTEX
8
OBJECT__35
10
54.695999
20
92.583000
30
171.171005
70
192
0
VERTEX
8
OBJECT__35
10
45.236000
20
81.634003
30
152.735992
70
192
0
VERTEX
8
OBJECT__35
10
43.235001
20
80.708000
30
144.429001
70
192
0
VERTEX
8
OBJECT__35
10
42.051998
20
80.160004
30
139.518005
70
192
0
VERTEX
8
OBJECT__35
10
45.831001
20
82.136002
30
154.294998
70
192
0
VERTEX
8
OBJECT__35
10
41.570999
20
79.925003
30
136.628006
70
192
0
VERTEX
8
OBJECT__35
10
37.821999
20
78.091003
30
114.074997
70
192
0
VERTEX
8
OBJECT__35
10
32.394001
20
74.245003
30
78.559998
70
192
0
VERTEX
8
OBJECT__35
10
35.390999
20
76.903000
30
99.453003
70
192
0
VERTEX
8
OBJECT__35
10
36.334999
20
77.363998
30
105.130997
70
192
0
VERTEX
8
OBJECT__35
10
28.398001
20
68.467003
30
27.023001
70
192
0
VERTEX
8
OBJECT__35
10
29.320000
20
65.000000
30
62.855999
70
192
0
VERTEX
8
OBJECT__35
10
30.438999
20
72.389000
30
57.737999
70
192
0
VERTEX
8
OBJECT__35
10
31.396000
20
73.261002
30
65.797997
70
192
0
VERTEX
8
OBJECT__35
10
32.696999
20
74.445999
30
76.753998
70
192
0
VERTEX
8
OBJECT__35
10
31.468000
20
65.000000
30
95.101997
70
192
0
VERTEX
8
OBJECT__35
10
28.091999
20
65.000000
30
27.025000
70
192
0
VERTEX
8
OBJECT__35
10
32.896999
20
74.628998
30
78.443001
70
192
0
VERTEX
8
OBJECT__35
10
0
20
0
30
0
70
128
71
1
72
2
73
3
0
VERTEX
8
OBJECT__35
10
0
20
0
30
0
70
128
71
2
72
4
73
3
0
VERTEX
8
OBJECT__35
10
0
20
0
30
0
70
128
71
4
72
2
73
5
0
VERTEX
8
OBJECT__35
10
0
20
0
30
0
70
128
71
1
72
6
73
7
0
VERTEX
8
OBJECT__35
10
0
20
0
30
0
70
128
71
8
72
7
73
9
0
VERTEX
8
OBJECT__35
10
0
20
0
30
0
70
128
71
10
72
11
73
12
0
VERTEX
8
OBJECT__35
10
0
20
0
30
0
70
128
71
13
72
14
73
11
0
VERTEX
8
OBJECT__35
10
0
20
0
30
0
70
128
71
11
72
10
73
13
0
VERTEX
8
OBJECT__35
10
0
20
0
30
0
70
128
71
10
72
15
73
16
0
VERTEX
8
OBJECT__35
10
0
20
0
30
0
70
128
71
15
72
17
73
16
0
VERTEX
8
OBJECT__35
10
0
20
0
30
0
70
128
71
16
72
18
73
19
0
VERTEX
8
OBJECT__35
10
0
20
0
30
0
70
128
71
16
72
17
73
18
0
VERTEX
8
OBJECT__35
10
0
20
0
30
0
70
128
71
19
72
8
73
16
0
VERTEX
8
OBJECT__35
10
0
20
0
30
0
70
128
71
1
72
20
73
21
0
VERTEX
8
OBJECT__35
10
0
20
0
30
0
70
128
71
8
72
22
73
20
0
VERTEX
8
OBJECT__35
10
0
20
0
30
0
70
128
71
20
72
1
73
8
0
VERTEX
8
OBJECT__35
10
0
20
0
30
0
70
128
71
1
72
23
73
24
0
VERTEX
8
OBJECT__35
10
0
20
0
30
0
70
128
71
24
72
2
73
1
0
VERTEX
8
OBJECT__35
10
0
20
0
30
0
70
128
71
5
72
2
73
25
0
VERTEX
8
OBJECT__35
10
0
20
0
30
0
70
128
71
2
72
26
73
25
0
VERTEX
8
OBJECT__35
10
0
20
0
30
0
70
128
71
27
72
28
73
29
0
VERTEX
8
OBJECT__35
10
0
20
0
30
0
70
128
71
27
72
30
73
28
0
VERTEX
8
OBJECT__35
10
0
20
0
30
0
70
128
71
5
72
31
73
27
0
VERTEX
8
OBJECT__35
10
0
20
0
30
0
70
128
71
5
72
32
73
31
0
VERTEX
8
OBJECT__35
10
0
20
0
30
0
70
128
71
5
72
33
73
34
0
VERTEX
8
OBJECT__35
10
0
20
0
30
0
70
128
71
34
72
35
73
5
0
VERTEX
8
OBJECT__35
10
0
20
0
30
0
70
128
71
5
72
36
73
37
0
VERTEX
8
OBJECT__35
10
0
20
0
30
0
70
128
71
5
72
29
73
36
0
VERTEX
8
OBJECT__35
10
0
20
0
30
0
70
128
71
37
72
33
73
5
0
VERTEX
8
OBJECT__35
10
0
20
0
30
0
70
128
71
38
72
39
73
40
0
VERTEX
8
OBJECT__35
10
0
20
0
30
0
70
128
71
38
72
35
73
41
0
VERTEX
8
OBJECT__35
10
0
20
0
30
0
70
128
71
41
72
42
73
38
0
VERTEX
8
OBJECT__35
10
0
20
0
30
0
70
128
71
42
72
39
73
38
0
VERTEX
8
OBJECT__35
10
0
20
0
30
0
70
128
71
4
72
43
73
44
0
VERTEX
8
OBJECT__35
10
0
20
0
30
0
70
128
71
4
72
45
73
46
0
VERTEX
8
OBJECT__35
10
0
20
0
30
0
70
128
71
46
72
43
73
4
0
VERTEX
8
OBJECT__35
10
0
20
0
30
0
70
128
71
4
72
38
73
47
0
VERTEX
8
OBJECT__35
10
0
20
0
30
0
70
128
71
47
72
45
73
4
0
VERTEX
8
OBJECT__35
10
0
20
0
30
0
70
128
71
3
72
48
73
49
0
VERTEX
8
OBJECT__35
10
0
20
0
30
0
70
128
71
4
72
50
73
48
0
VERTEX
8
OBJECT__35
10
0
20
0
30
0
70
128
71
48
72
3
73
4
0
VERTEX
8
OBJECT__35
10
0
20
0
30
0
70
128
71
3
72
51
73
52
0
VERTEX
8
OBJECT__35
10
0
20
0
30
0
70
128
71
3
72
53
73
54
0
VERTEX
8
OBJECT__35
10
0
20
0
30
0
70
128
71
54
72
51
73
3
0
VERTEX
8
OBJECT__35
10
0
20
0
30
0
70
128
71
6
72
55
73
56
0
VERTEX
8
OBJECT__35
10
0
20
0
30
0
70
128
71
6
72
57
73
58
0
VERTEX
8
OBJECT__35
10
0
20
0
30
0
70
128
71
6
72
59
73
60
0
VERTEX
8
OBJECT__35
10
0
20
0
30
0
70
128
71
6
72
52
73
59
0
VERTEX
8
OBJECT__35
10
0
20
0
30
0
70
128
71
60
72
57
73
6
0
VERTEX
8
OBJECT__35
10
0
20
0
30
0
70
128
71
58
72
55
73
6
0
VERTEX
8
OBJECT__35
10
0
20
0
30
0
70
128
71
9
72
7
73
61
0
VERTEX
8
OBJECT__35
10
0
20
0
30
0
70
128
71
61
72
62
73
9
0
VERTEX
8
OBJECT__35
10
0
20
0
30
0
70
128
71
7
72
63
73
64
0
VERTEX
8
OBJECT__35
10
0
20
0
30
0
70
128
71
64
72
61
73
7
0
VERTEX
8
OBJECT__35
10
0
20
0
30
0
70
128
71
7
72
56
73
65
0
VERTEX
8
OBJECT__35
10
0
20
0
30
0
70
128
71
65
72
63
73
7
0
VERTEX
8
OBJECT__35
10
0
20
0
30
0
70
128
71
9
72
66
73
67
0
VERTEX
8
OBJECT__35
10
0
20
0
30
0
70
128
71
67
72
10
73
9
0
VERTEX
8
OBJECT__35
10
0
20
0
30
0
70
128
71
67
72
68
73
10
0
VERTEX
8
OBJECT__35
10
0
20
0
30
0
70
128
71
9
72
69
73
66
0
VERTEX
8
OBJECT__35
10
0
20
0
30
0
70
128
71
70
72
71
73
13
0
VERTEX
8
OBJECT__35
10
0
20
0
30
0
70
128
71
72
72
13
73
73
0
VERTEX
8
OBJECT__35
10
0
20
0
30
0
70
128
71
13
72
74
73
73
0
VERTEX
8
OBJECT__35
10
0
20
0
30
0
70
128
71
13
72
71
73
74
0
VERTEX
8
OBJECT__35
10
0
20
0
30
0
70
128
71
75
72
76
73
77
0
VERTEX
8
OBJECT__35
10
0
20
0
30
0
70
128
71
76
72
78
73
77
0
VERTEX
8
OBJECT__35
10
0
20
0
30
0
70
128
71
76
72
72
73
79
0
VERTEX
8
OBJECT__35
10
0
20
0
30
0
70
128
71
79
72
78
73
76
0
VERTEX
8
OBJECT__35
10
0
20
0
30
0
70
128
71
13
72
72
73
80
0
VERTEX
8
OBJECT__35
10
0
20
0
30
0
70
128
71
72
72
76
73
80
0
VERTEX
8
OBJECT__35
10
0
20
0
30
0
70
128
71
80
72
14
73
13
0
VERTEX
8
OBJECT__35
10
0
20
0
30
0
70
128
71
75
72
81
73
76
0
VERTEX
8
OBJECT__35
10
0
20
0
30
0
70
128
71
79
72
72
73
82
0
VERTEX
8
OBJECT__35
10
0
20
0
30
0
70
128
71
73
72
82
73
72
0
VERTEX
8
OBJECT__35
10
0
20
0
30
0
70
128
71
13
72
10
73
70
0
VERTEX
8
OBJECT__35
10
0
20
0
30
0
70
128
71
68
72
70
73
10
0
VERTEX
8
OBJECT__35
10
0
20
0
30
0
70
128
71
62
72
69
73
9
0
VERTEX
8
OBJECT__35
10
0
20
0
30
0
70
128
71
56
72
7
73
6
0
VERTEX
8
OBJECT__35
10
0
20
0
30
0
70
128
71
52
72
6
73
3
0
VERTEX
8
OBJECT__35
10
0
20
0
30
0
70
128
71
49
72
53
73
3
0
VERTEX
8
OBJECT__35
10
0
20
0
30
0
70
128
71
44
72
50
73
4
0
VERTEX
8
OBJECT__35
10
0
20
0
30
0
70
128
71
40
72
47
73
38
0
VERTEX
8
OBJECT__35
10
0
20
0
30
0
70
128
71
41
72
35
73
34
0
VERTEX
8
OBJECT__35
10
0
20
0
30
0
70
128
71
35
72
38
73
5
0
VERTEX
8
OBJECT__35
10
0
20
0
30
0
70
128
71
29
72
5
73
27
0
VERTEX
8
OBJECT__35
10
0
20
0
30
0
70
128
71
25
72
32
73
5
0
VERTEX
8
OBJECT__35
10
0
20
0
30
0
70
128
71
24
72
26
73
2
0
VERTEX
8
OBJECT__35
10
0
20
0
30
0
70
128
71
21
72
23
73
1
0
VERTEX
8
OBJECT__35
10
0
20
0
30
0
70
128
71
19
72
22
73
8
0
VERTEX
8
OBJECT__35
10
0
20
0
30
0
70
128
71
16
72
9
73
10
0
VERTEX
8
OBJECT__35
10
0
20
0
30
0
70
128
71
12
72
15
73
10
0
VERTEX
8
OBJECT__35
10
0
20
0
30
0
70
128
71
9
72
16
73
8
0
VERTEX
8
OBJECT__35
10
0
20
0
30
0
70
128
71
7
72
8
73
1
0
VERTEX
8
OBJECT__35
10
0
20
0
30
0
70
128
71
5
72
38
73
4
0
VERTEX
8
OBJECT__35
10
0
20
0
30
0
70
128
71
3
72
6
73
1
0
SEQEND
8
OBJECT__35
0
POLYLINE
8
OBJECT__36
66
1
70
64
71
16
72
15
62
253
0
VERTEX
8
OBJECT__36
10
70.571999
20
109.321999
30
181.649994
70
192
0
VERTEX
8
OBJECT__36
10
73.093002
20
116.706001
30
192.460999
70
192
0
VERTEX
8
OBJECT__36
10
74.762001
20
116.728996
30
191.464996
70
192
0
VERTEX
8
OBJECT__36
10
66.954002
20
109.764999
30
182.132996
70
192
0
VERTEX
8
OBJECT__36
10
76.228996
20
115.860001
30
191.074005
70
192
0
VERTEX
8
OBJECT__36
10
70.161003
20
108.681999
30
181.072006
70
192
0
VERTEX
8
OBJECT__36
10
62.702999
20
100.184998
30
172.998993
70
192
0
VERTEX
8
OBJECT__36
10
64.222000
20
99.435997
30
172.731995
70
192
0
VERTEX
8
OBJECT__36
10
61.165001
20
100.341003
30
174.065994
70
192
0
VERTEX
8
OBJECT__36
10
59.830002
20
100.310997
30
177.449997
70
192
0
VERTEX
8
OBJECT__36
10
60.395000
20
100.418999
30
174.600006
70
192
0
VERTEX
8
OBJECT__36
10
59.294998
20
99.460999
30
176.779007
70
192
0
VERTEX
8
OBJECT__36
10
72.258003
20
116.695000
30
192.959000
70
192
0
VERTEX
8
OBJECT__36
10
65.028000
20
108.294998
30
184.729996
70
192
0
VERTEX
8
OBJECT__36
10
70.917000
20
115.079002
30
194.630997
70
192
0
VERTEX
8
OBJECT__36
10
65.005997
20
108.262001
30
184.699997
70
192
0
VERTEX
8
OBJECT__36
10
0
20
0
30
0
70
128
71
1
72
2
73
3
0
VERTEX
8
OBJECT__36
10
0
20
0
30
0
70
128
71
2
72
1
73
4
0
VERTEX
8
OBJECT__36
10
0
20
0
30
0
70
128
71
3
72
5
73
1
0
VERTEX
8
OBJECT__36
10
0
20
0
30
0
70
128
71
4
72
6
73
7
0
VERTEX
8
OBJECT__36
10
0
20
0
30
0
70
128
71
6
72
8
73
7
0
VERTEX
8
OBJECT__36
10
0
20
0
30
0
70
128
71
4
72
9
73
10
0
VERTEX
8
OBJECT__36
10
0
20
0
30
0
70
128
71
9
72
11
73
10
0
VERTEX
8
OBJECT__36
10
0
20
0
30
0
70
128
71
11
72
12
73
10
0
VERTEX
8
OBJECT__36
10
0
20
0
30
0
70
128
71
13
72
4
73
14
0
VERTEX
8
OBJECT__36
10
0
20
0
30
0
70
128
71
14
72
15
73
13
0
VERTEX
8
OBJECT__36
10
0
20
0
30
0
70
128
71
4
72
16
73
14
0
VERTEX
8
OBJECT__36
10
0
20
0
30
0
70
128
71
13
72
2
73
4
0
VERTEX
8
OBJECT__36
10
0
20
0
30
0
70
128
71
10
72
16
73
4
0
VERTEX
8
OBJECT__36
10
0
20
0
30
0
70
128
71
7
72
9
73
4
0
VERTEX
8
OBJECT__36
10
0
20
0
30
0
70
128
71
1
72
6
73
4
0
SEQEND
8
OBJECT__36
0
POLYLINE
8
OBJECT__37
66
1
70
64
71
6
72
4
62
253
0
VERTEX
8
OBJECT__37
10
28.398001
20
61.533001
30
27.023001
70
192
0
VERTEX
8
OBJECT__37
10
29.875000
20
61.797001
30
25.497999
70
192
0
VERTEX
8
OBJECT__37
10
28.128000
20
65.000000
30
26.667999
70
192
0
VERTEX
8
OBJECT__37
10
29.591999
20
65.000000
30
25.497999
70
192
0
VERTEX
8
OBJECT__37
10
28.091999
20
65.000000
30
26.976000
70
192
0
VERTEX
8
OBJECT__37
10
28.091999
20
65.000000
30
27.025000
70
192
0
VERTEX
8
OBJECT__37
10
0
20
0
30
0
70
128
71
3
72
4
73
2
0
VERTEX
8
OBJECT__37
10
0
20
0
30
0
70
128
71
1
72
5
73
3
0
VERTEX
8
OBJECT__37
10
0
20
0
30
0
70
128
71
1
72
6
73
5
0
VERTEX
8
OBJECT__37
10
0
20
0
30
0
70
128
71
2
72
1
73
3
0
SEQEND
8
OBJECT__37
0
POLYLINE
8
OBJECT__38
66
1
70
64
71
12
72
10
62
253
0
VERTEX
8
OBJECT__38
10
55.943001
20
63.624001
30
27.004999
70
192
0
VERTEX
8
OBJECT__38
10
54.555000
20
58.603001
30
27.002001
70
192
0
VERTEX
8
OBJECT__38
10
53.203999
20
59.251999
30
25.506001
70
192
0
VERTEX
8
OBJECT__38
10
52.297001
20
55.395000
30
26.997000
70
192
0
VERTEX
8
OBJECT__38
10
50.516998
20
55.438999
30
25.504999
70
192
0
VERTEX
8
OBJECT__38
10
54.450001
20
63.762001
30
25.506001
70
192
0
VERTEX
8
OBJECT__38
10
54.834000
20
65.000000
30
25.542999
70
192
0
VERTEX
8
OBJECT__38
10
55.745998
20
65.000000
30
26.160999
70
192
0
VERTEX
8
OBJECT__38
10
54.507000
20
65.000000
30
25.507000
70
192
0
VERTEX
8
OBJECT__38
10
55.921001
20
65.000000
30
26.509001
70
192
0
VERTEX
8
OBJECT__38
10
56.007000
20
65.000000
30
27.004999
70
192
0
VERTEX
8
OBJECT__38
10
51.590000
20
54.390999
30
26.996000
70
192
0
VERTEX
8
OBJECT__38
10
0
20
0
30
0
70
128
71
1
72
2
73
3
0
VERTEX
8
OBJECT__38
10
0
20
0
30
0
70
128
71
3
72
2
73
4
0
VERTEX
8
OBJECT__38
10
0
20
0
30
0
70
128
71
4
72
5
73
3
0
VERTEX
8
OBJECT__38
10
0
20
0
30
0
70
128
71
6
72
7
73
8
0
VERTEX
8
OBJECT__38
10
0
20
0
30
0
70
128
71
6
72
9
73
7
0
VERTEX
8
OBJECT__38
10
0
20
0
30
0
70
128
71
8
72
1
73
6
0
VERTEX
8
OBJECT__38
10
0
20
0
30
0
70
128
71
8
72
10
73
1
0
VERTEX
8
OBJECT__38
10
0
20
0
30
0
70
128
71
10
72
11
73
1
0
VERTEX
8
OBJECT__38
10
0
20
0
30
0
70
128
71
4
72
12
73
5
0
VERTEX
8
OBJECT__38
10
0
20
0
30
0
70
128
71
3
72
6
73
1
0
SEQEND
8
OBJECT__38
0
POLYLINE
8
OBJECT__39
66
1
70
64
71
19
72
17
62
253
0
VERTEX
8
OBJECT__39
10
51.590000
20
54.390999
30
26.996000
70
192
0
VERTEX
8
OBJECT__39
10
47.893002
20
51.702999
30
26.972000
70
192
0
VERTEX
8
OBJECT__39
10
47.228001
20
53.047001
30
25.504000
70
192
0
VERTEX
8
OBJECT__39
10
43.334000
20
51.877998
30
25.502001
70
192
0
VERTEX
8
OBJECT__39
10
45.756001
20
51.062000
30
26.965000
70
192
0
VERTEX
8
OBJECT__39
10
43.518002
20
50.389999
30
26.957001
70
192
0
VERTEX
8
OBJECT__39
10
38.948002
20
50.597000
30
26.954000
70
192
0
VERTEX
8
OBJECT__39
10
39.265999
20
52.062000
30
25.500999
70
192
0
VERTEX
8
OBJECT__39
10
35.480999
20
53.583000
30
25.500000
70
192
0
VERTEX
8
OBJECT__39
10
37.903000
20
51.016998
30
26.955999
70
192
0
VERTEX
8
OBJECT__39
10
31.243999
20
55.327000
30
26.980000
70
192
0
VERTEX
8
OBJECT__39
10
32.408001
20
56.273998
30
25.499001
70
192
0
VERTEX
8
OBJECT__39
10
31.231001
20
55.349998
30
26.981001
70
192
0
VERTEX
8
OBJECT__39
10
28.988001
20
59.321999
30
27.007000
70
192
0
VERTEX
8
OBJECT__39
10
30.400999
20
59.830002
30
25.497999
70
192
0
VERTEX
8
OBJECT__39
10
28.398001
20
61.533001
30
27.023001
70
192
0
VERTEX
8
OBJECT__39
10
29.875000
20
61.797001
30
25.497999
70
192
0
VERTEX
8
OBJECT__39
10
34.695999
20
52.305000
30
26.962000
70
192
0
VERTEX
8
OBJECT__39
10
50.516998
20
55.438999
30
25.504999
70
192
0
VERTEX
8
OBJECT__39
10
0
20
0
30
0
70
128
71
1
72
2
73
3
0
VERTEX
8
OBJECT__39
10
0
20
0
30
0
70
128
71
4
72
3
73
5
0
VERTEX
8
OBJECT__39
10
0
20
0
30
0
70
128
71
3
72
2
73
5
0
VERTEX
8
OBJECT__39
10
0
20
0
30
0
70
128
71
6
72
7
73
8
0
VERTEX
8
OBJECT__39
10
0
20
0
30
0
70
128
71
9
72
8
73
10
0
VERTEX
8
OBJECT__39
10
0
20
0
30
0
70
128
71
8
72
7
73
10
0
VERTEX
8
OBJECT__39
10
0
20
0
30
0
70
128
71
11
72
12
73
9
0
VERTEX
8
OBJECT__39
10
0
20
0
30
0
70
128
71
13
72
14
73
15
0
VERTEX
8
OBJECT__39
10
0
20
0
30
0
70
128
71
12
72
11
73
13
0
VERTEX
8
OBJECT__39
10
0
20
0
30
0
70
128
71
16
72
17
73
15
0
VERTEX
8
OBJECT__39
10
0
20
0
30
0
70
128
71
15
72
14
73
16
0
VERTEX
8
OBJECT__39
10
0
20
0
30
0
70
128
71
15
72
12
73
13
0
VERTEX
8
OBJECT__39
10
0
20
0
30
0
70
128
71
9
72
18
73
11
0
VERTEX
8
OBJECT__39
10
0
20
0
30
0
70
128
71
10
72
18
73
9
0
VERTEX
8
OBJECT__39
10
0
20
0
30
0
70
128
71
8
72
4
73
6
0
VERTEX
8
OBJECT__39
10
0
20
0
30
0
70
128
71
5
72
6
73
4
0
VERTEX
8
OBJECT__39
10
0
20
0
30
0
70
128
71
3
72
19
73
1
0
SEQEND
8
OBJECT__39
0
POLYLINE
8
OBJECT__40
66
1
70
64
71
63
72
71
62
253
0
VERTEX
8
OBJECT__40
10
41.778000
20
48.757999
30
104.633003
70
192
0
VERTEX
8
OBJECT__40
10
38.867001
20
49.973000
30
65.470001
70
192
0
VERTEX
8
OBJECT__40
10
48.680000
20
50.970001
30
78.356003
70
192
0
VERTEX
8
OBJECT__40
10
44.306000
20
49.682999
30
65.200996
70
192
0
VERTEX
8
OBJECT__40
10
49.028000
20
51.548000
30
64.966003
70
192
0
VERTEX
8
OBJECT__40
10
48.903000
20
51.341000
30
69.776001
70
192
0
VERTEX
8
OBJECT__40
10
34.115002
20
52.639999
30
65.690002
70
192
0
VERTEX
8
OBJECT__40
10
32.300999
20
55.710999
30
74.436996
70
192
0
VERTEX
8
OBJECT__40
10
31.606001
20
56.236000
30
69.208000
70
192
0
VERTEX
8
OBJECT__40
10
32.832001
20
55.310001
30
78.429001
70
192
0
VERTEX
8
OBJECT__40
10
38.551998
20
50.205002
30
104.922997
70
192
0
VERTEX
8
OBJECT__40
10
36.382999
20
52.629002
30
105.128998
70
192
0
VERTEX
8
OBJECT__40
10
56.606998
20
36.487000
30
168.621994
70
192
0
VERTEX
8
OBJECT__40
10
59.653999
20
37.299000
30
167.151001
70
192
0
VERTEX
8
OBJECT__40
10
62.702999
20
29.815001
30
172.998993
70
192
0
VERTEX
8
OBJECT__40
10
61.165001
20
29.659000
30
174.065994
70
192
0
VERTEX
8
OBJECT__40
10
62.966000
20
32.493999
30
171.281998
70
192
0
VERTEX
8
OBJECT__40
10
64.222000
20
30.563999
30
172.731995
70
192
0
VERTEX
8
OBJECT__40
10
60.395000
20
29.580000
30
174.600998
70
192
0
VERTEX
8
OBJECT__40
10
59.294998
20
30.539000
30
176.779007
70
192
0
VERTEX
8
OBJECT__40
10
55.742001
20
35.926998
30
172.539993
70
192
0
VERTEX
8
OBJECT__40
10
44.293999
20
50.090000
30
45.553001
70
192
0
VERTEX
8
OBJECT__40
10
49.535000
20
52.389000
30
45.490002
70
192
0
VERTEX
8
OBJECT__40
10
49.548000
20
52.402000
30
45.372002
70
192
0
VERTEX
8
OBJECT__40
10
46.497002
20
47.193001
30
143.651001
70
192
0
VERTEX
8
OBJECT__40
10
41.672001
20
50.055000
30
136.638000
70
192
0
VERTEX
8
OBJECT__40
10
43.096001
20
49.472000
30
144.485001
70
192
0
VERTEX
8
OBJECT__40
10
37.563000
20
51.737000
30
114.008003
70
192
0
VERTEX
8
OBJECT__40
10
52.148998
20
42.492001
30
161.910004
70
192
0
VERTEX
8
OBJECT__40
10
49.737000
20
44.273998
30
163.880005
70
192
0
VERTEX
8
OBJECT__40
10
46.398998
20
47.548000
30
156.214005
70
192
0
VERTEX
8
OBJECT__40
10
48.694000
20
45.882000
30
153.132996
70
192
0
VERTEX
8
OBJECT__40
10
53.623001
20
39.141998
30
170.011002
70
192
0
VERTEX
8
OBJECT__40
10
54.695000
20
37.514999
30
171.289993
70
192
0
VERTEX
8
OBJECT__40
10
43.223999
20
49.419998
30
145.186996
70
192
0
VERTEX
8
OBJECT__40
10
45.848000
20
47.873001
30
154.300995
70
192
0
VERTEX
8
OBJECT__40
10
45.870998
20
47.859001
30
154.380997
70
192
0
VERTEX
8
OBJECT__40
10
49.854000
20
47.951000
30
136.906006
70
192
0
VERTEX
8
OBJECT__40
10
50.431999
20
47.582001
30
140.826996
70
192
0
VERTEX
8
OBJECT__40
10
48.629002
20
48.794998
30
119.792000
70
192
0
VERTEX
8
OBJECT__40
10
48.647999
20
49.620998
30
104.060997
70
192
0
VERTEX
8
OBJECT__40
10
48.629002
20
48.813999
30
119.433998
70
192
0
VERTEX
8
OBJECT__40
10
53.730999
20
44.841000
30
156.253998
70
192
0
VERTEX
8
OBJECT__40
10
52.508999
20
45.986000
30
151.975006
70
192
0
VERTEX
8
OBJECT__40
10
54.263000
20
44.341999
30
158.117996
70
192
0
VERTEX
8
OBJECT__40
10
57.518002
20
40.398998
30
164.485992
70
192
0
VERTEX
8
OBJECT__40
10
59.272999
20
37.852001
30
166.675003
70
192
0
VERTEX
8
OBJECT__40
10
55.473000
20
42.875999
30
160.485992
70
192
0
VERTEX
8
OBJECT__40
10
50.723999
20
47.395000
30
142.811005
70
192
0
VERTEX
8
OBJECT__40
10
51.610001
20
46.828999
30
148.828003
70
192
0
VERTEX
8
OBJECT__40
10
28.879999
20
60.174000
30
36.222000
70
192
0
VERTEX
8
OBJECT__40
10
28.398001
20
61.533001
30
27.023001
70
192
0
VERTEX
8
OBJECT__40
10
28.988001
20
59.321999
30
27.007000
70
192
0
VERTEX
8
OBJECT__40
10
31.323999
20
56.643002
30
65.799004
70
192
0
VERTEX
8
OBJECT__40
10
31.231001
20
55.349998
30
26.981001
70
192
0
VERTEX
8
OBJECT__40
10
31.243999
20
55.327000
30
26.980000
70
192
0
VERTEX
8
OBJECT__40
10
34.695999
20
52.305000
30
26.962000
70
192
0
VERTEX
8
OBJECT__40
10
37.903000
20
51.016998
30
26.955999
70
192
0
VERTEX
8
OBJECT__40
10
38.948002
20
50.597000
30
26.954000
70
192
0
VERTEX
8
OBJECT__40
10
43.518002
20
50.389999
30
26.957001
70
192
0
VERTEX
8
OBJECT__40
10
45.756001
20
51.062000
30
26.965000
70
192
0
VERTEX
8
OBJECT__40
10
47.893002
20
51.702999
30
26.972000
70
192
0
VERTEX
8
OBJECT__40
10
51.590000
20
54.390999
30
26.996000
70
192
0
VERTEX
8
OBJECT__40
10
0
20
0
30
0
70
128
71
1
72
2
73
3
0
VERTEX
8
OBJECT__40
10
0
20
0
30
0
70
128
71
4
72
5
73
6
0
VERTEX
8
OBJECT__40
10
0
20
0
30
0
70
128
71
3
72
2
73
4
0
VERTEX
8
OBJECT__40
10
0
20
0
30
0
70
128
71
6
72
3
73
4
0
VERTEX
8
OBJECT__40
10
0
20
0
30
0
70
128
71
7
72
8
73
9
0
VERTEX
8
OBJECT__40
10
0
20
0
30
0
70
128
71
7
72
10
73
8
0
VERTEX
8
OBJECT__40
10
0
20
0
30
0
70
128
71
11
72
12
73
10
0
VERTEX
8
OBJECT__40
10
0
20
0
30
0
70
128
71
10
72
7
73
11
0
VERTEX
8
OBJECT__40
10
0
20
0
30
0
70
128
71
13
72
14
73
15
0
VERTEX
8
OBJECT__40
10
0
20
0
30
0
70
128
71
15
72
16
73
13
0
VERTEX
8
OBJECT__40
10
0
20
0
30
0
70
128
71
15
72
14
73
17
0
VERTEX
8
OBJECT__40
10
0
20
0
30
0
70
128
71
17
72
18
73
15
0
VERTEX
8
OBJECT__40
10
0
20
0
30
0
70
128
71
19
72
20
73
21
0
VERTEX
8
OBJECT__40
10
0
20
0
30
0
70
128
71
21
72
13
73
19
0
VERTEX
8
OBJECT__40
10
0
20
0
30
0
70
128
71
13
72
16
73
19
0
VERTEX
8
OBJECT__40
10
0
20
0
30
0
70
128
71
22
72
23
73
5
0
VERTEX
8
OBJECT__40
10
0
20
0
30
0
70
128
71
22
72
24
73
23
0
VERTEX
8
OBJECT__40
10
0
20
0
30
0
70
128
71
2
72
1
73
11
0
VERTEX
8
OBJECT__40
10
0
20
0
30
0
70
128
71
1
72
25
73
26
0
VERTEX
8
OBJECT__40
10
0
20
0
30
0
70
128
71
25
72
27
73
26
0
VERTEX
8
OBJECT__40
10
0
20
0
30
0
70
128
71
11
72
26
73
28
0
VERTEX
8
OBJECT__40
10
0
20
0
30
0
70
128
71
28
72
12
73
11
0
VERTEX
8
OBJECT__40
10
0
20
0
30
0
70
128
71
29
72
30
73
31
0
VERTEX
8
OBJECT__40
10
0
20
0
30
0
70
128
71
31
72
32
73
29
0
VERTEX
8
OBJECT__40
10
0
20
0
30
0
70
128
71
29
72
13
73
33
0
VERTEX
8
OBJECT__40
10
0
20
0
30
0
70
128
71
13
72
34
73
33
0
VERTEX
8
OBJECT__40
10
0
20
0
30
0
70
128
71
35
72
25
73
32
0
VERTEX
8
OBJECT__40
10
0
20
0
30
0
70
128
71
32
72
36
73
35
0
VERTEX
8
OBJECT__40
10
0
20
0
30
0
70
128
71
32
72
37
73
36
0
VERTEX
8
OBJECT__40
10
0
20
0
30
0
70
128
71
25
72
38
73
39
0
VERTEX
8
OBJECT__40
10
0
20
0
30
0
70
128
71
25
72
1
73
40
0
VERTEX
8
OBJECT__40
10
0
20
0
30
0
70
128
71
40
72
38
73
25
0
VERTEX
8
OBJECT__40
10
0
20
0
30
0
70
128
71
1
72
41
73
42
0
VERTEX
8
OBJECT__40
10
0
20
0
30
0
70
128
71
42
72
40
73
1
0
VERTEX
8
OBJECT__40
10
0
20
0
30
0
70
128
71
29
72
32
73
43
0
VERTEX
8
OBJECT__40
10
0
20
0
30
0
70
128
71
32
72
44
73
43
0
VERTEX
8
OBJECT__40
10
0
20
0
30
0
70
128
71
43
72
45
73
29
0
VERTEX
8
OBJECT__40
10
0
20
0
30
0
70
128
71
13
72
46
73
47
0
VERTEX
8
OBJECT__40
10
0
20
0
30
0
70
128
71
29
72
48
73
46
0
VERTEX
8
OBJECT__40
10
0
20
0
30
0
70
128
71
46
72
13
73
29
0
VERTEX
8
OBJECT__40
10
0
20
0
30
0
70
128
71
25
72
49
73
50
0
VERTEX
8
OBJECT__40
10
0
20
0
30
0
70
128
71
50
72
32
73
25
0
VERTEX
8
OBJECT__40
10
0
20
0
30
0
70
128
71
51
72
52
73
53
0
VERTEX
8
OBJECT__40
10
0
20
0
30
0
70
128
71
7
72
54
73
51
0
VERTEX
8
OBJECT__40
10
0
20
0
30
0
70
128
71
51
72
55
73
7
0
VERTEX
8
OBJECT__40
10
0
20
0
30
0
70
128
71
2
72
56
73
57
0
VERTEX
8
OBJECT__40
10
0
20
0
30
0
70
128
71
7
72
55
73
56
0
VERTEX
8
OBJECT__40
10
0
20
0
30
0
70
128
71
56
72
2
73
7
0
VERTEX
8
OBJECT__40
10
0
20
0
30
0
70
128
71
57
72
58
73
2
0
VERTEX
8
OBJECT__40
10
0
20
0
30
0
70
128
71
2
72
58
73
22
0
VERTEX
8
OBJECT__40
10
0
20
0
30
0
70
128
71
22
72
59
73
60
0
VERTEX
8
OBJECT__40
10
0
20
0
30
0
70
128
71
22
72
58
73
59
0
VERTEX
8
OBJECT__40
10
0
20
0
30
0
70
128
71
60
72
61
73
22
0
VERTEX
8
OBJECT__40
10
0
20
0
30
0
70
128
71
22
72
61
73
62
0
VERTEX
8
OBJECT__40
10
0
20
0
30
0
70
128
71
62
72
24
73
22
0
VERTEX
8
OBJECT__40
10
0
20
0
30
0
70
128
71
62
72
63
73
24
0
VERTEX
8
OBJECT__40
10
0
20
0
30
0
70
128
71
22
72
4
73
2
0
VERTEX
8
OBJECT__40
10
0
20
0
30
0
70
128
71
53
72
55
73
51
0
VERTEX
8
OBJECT__40
10
0
20
0
30
0
70
128
71
50
72
44
73
32
0
VERTEX
8
OBJECT__40
10
0
20
0
30
0
70
128
71
47
72
14
73
13
0
VERTEX
8
OBJECT__40
10
0
20
0
30
0
70
128
71
45
72
48
73
29
0
VERTEX
8
OBJECT__40
10
0
20
0
30
0
70
128
71
39
72
49
73
25
0
VERTEX
8
OBJECT__40
10
0
20
0
30
0
70
128
71
35
72
27
73
25
0
VERTEX
8
OBJECT__40
10
0
20
0
30
0
70
128
71
33
72
30
73
29
0
VERTEX
8
OBJECT__40
10
0
20
0
30
0
70
128
71
31
72
37
73
32
0
VERTEX
8
OBJECT__40
10
0
20
0
30
0
70
128
71
26
72
11
73
1
0
VERTEX
8
OBJECT__40
10
0
20
0
30
0
70
128
71
11
72
7
73
2
0
VERTEX
8
OBJECT__40
10
0
20
0
30
0
70
128
71
5
72
4
73
22
0
VERTEX
8
OBJECT__40
10
0
20
0
30
0
70
128
71
21
72
34
73
13
0
VERTEX
8
OBJECT__40
10
0
20
0
30
0
70
128
71
9
72
54
73
7
0
VERTEX
8
OBJECT__40
10
0
20
0
30
0
70
128
71
3
72
41
73
1
0
SEQEND
8
OBJECT__40
0
POLYLINE
8
OBJECT__41
66
1
70
64
71
82
72
95
62
253
0
VERTEX
8
OBJECT__41
10
58.518002
20
52.477001
30
202.584000
70
192
0
VERTEX
8
OBJECT__41
10
61.491001
20
39.959999
30
200.867004
70
192
0
VERTEX
8
OBJECT__41
10
69.898003
20
35.896999
30
214.802994
70
192
0
VERTEX
8
OBJECT__41
10
77.858002
20
48.875999
30
231.423996
70
192
0
VERTEX
8
OBJECT__41
10
81.000999
20
32.973999
30
229.610001
70
192
0
VERTEX
8
OBJECT__41
10
95.586998
20
33.240002
30
245.722000
70
192
0
VERTEX
8
OBJECT__41
10
92.662003
20
48.983002
30
247.412994
70
192
0
VERTEX
8
OBJECT__41
10
47.456001
20
56.102001
30
177.431000
70
192
0
VERTEX
8
OBJECT__41
10
50.289001
20
47.345001
30
175.794998
70
192
0
VERTEX
8
OBJECT__41
10
40.965000
20
58.164001
30
157.123993
70
192
0
VERTEX
8
OBJECT__41
10
43.578999
20
51.672001
30
155.613007
70
192
0
VERTEX
8
OBJECT__41
10
91.702003
20
65.000000
30
247.960999
70
192
0
VERTEX
8
OBJECT__41
10
78.815002
20
65.000000
30
234.440994
70
192
0
VERTEX
8
OBJECT__41
10
65.907997
20
65.000000
30
217.326996
70
192
0
VERTEX
8
OBJECT__41
10
76.928001
20
65.000000
30
231.938995
70
192
0
VERTEX
8
OBJECT__41
10
50.784000
20
65.000000
30
189.001007
70
192
0
VERTEX
8
OBJECT__41
10
57.713001
20
65.000000
30
203.048996
70
192
0
VERTEX
8
OBJECT__41
10
55.235001
20
65.000000
30
198.733002
70
192
0
VERTEX
8
OBJECT__41
10
43.328999
20
65.000000
30
168.921997
70
192
0
VERTEX
8
OBJECT__41
10
40.327999
20
65.000000
30
158.649994
70
192
0
VERTEX
8
OBJECT__41
10
46.674000
20
65.000000
30
177.931000
70
192
0
VERTEX
8
OBJECT__41
10
39.117001
20
53.674000
30
137.953995
70
192
0
VERTEX
8
OBJECT__41
10
36.401001
20
65.000000
30
139.561005
70
192
0
VERTEX
8
OBJECT__41
10
35.729000
20
54.820999
30
115.051003
70
192
0
VERTEX
8
OBJECT__41
10
34.813999
20
65.000000
30
128.973999
70
192
0
VERTEX
8
OBJECT__41
10
36.011002
20
65.000000
30
137.664993
70
192
0
VERTEX
8
OBJECT__41
10
33.570000
20
65.000000
30
116.383003
70
192
0
VERTEX
8
OBJECT__41
10
31.468000
20
65.000000
30
95.101997
70
192
0
VERTEX
8
OBJECT__41
10
32.394001
20
55.755001
30
78.559998
70
192
0
VERTEX
8
OBJECT__41
10
29.320000
20
65.000000
30
62.855999
70
192
0
VERTEX
8
OBJECT__41
10
31.606001
20
56.236000
30
69.208000
70
192
0
VERTEX
8
OBJECT__41
10
32.300999
20
55.710999
30
74.436996
70
192
0
VERTEX
8
OBJECT__41
10
31.323999
20
56.643002
30
65.799004
70
192
0
VERTEX
8
OBJECT__41
10
28.398001
20
61.533001
30
27.023001
70
192
0
VERTEX
8
OBJECT__41
10
28.879999
20
60.174000
30
36.222000
70
192
0
VERTEX
8
OBJECT__41
10
28.091999
20
65.000000
30
27.025000
70
192
0
VERTEX
8
OBJECT__41
10
32.832001
20
55.310001
30
78.429001
70
192
0
VERTEX
8
OBJECT__41
10
36.382999
20
52.629002
30
105.128998
70
192
0
VERTEX
8
OBJECT__41
10
41.672001
20
50.055000
30
136.638000
70
192
0
VERTEX
8
OBJECT__41
10
43.223999
20
49.419998
30
145.186996
70
192
0
VERTEX
8
OBJECT__41
10
43.096001
20
49.472000
30
144.485001
70
192
0
VERTEX
8
OBJECT__41
10
53.623001
20
39.141998
30
170.011002
70
192
0
VERTEX
8
OBJECT__41
10
54.695000
20
37.514999
30
171.289993
70
192
0
VERTEX
8
OBJECT__41
10
49.737000
20
44.273998
30
163.880005
70
192
0
VERTEX
8
OBJECT__41
10
46.398998
20
47.548000
30
156.214005
70
192
0
VERTEX
8
OBJECT__41
10
45.848000
20
47.873001
30
154.300995
70
192
0
VERTEX
8
OBJECT__41
10
45.870998
20
47.859001
30
154.380997
70
192
0
VERTEX
8
OBJECT__41
10
65.005997
20
21.749001
30
184.712006
70
192
0
VERTEX
8
OBJECT__41
10
65.088997
20
21.620001
30
184.830002
70
192
0
VERTEX
8
OBJECT__41
10
70.917000
20
14.921000
30
194.630997
70
192
0
VERTEX
8
OBJECT__41
10
59.294998
20
30.539000
30
176.779007
70
192
0
VERTEX
8
OBJECT__41
10
59.939999
20
29.511999
30
177.587997
70
192
0
VERTEX
8
OBJECT__41
10
55.742001
20
35.926998
30
172.539993
70
192
0
VERTEX
8
OBJECT__41
10
77.614998
20
10.809000
30
206.167007
70
192
0
VERTEX
8
OBJECT__41
10
78.364998
20
10.398000
30
207.457993
70
192
0
VERTEX
8
OBJECT__41
10
71.263000
20
14.626000
30
195.227005
70
192
0
VERTEX
8
OBJECT__41
10
72.361000
20
13.691000
30
197.115005
70
192
0
VERTEX
8
OBJECT__41
10
84.516998
20
9.811000
30
218.001999
70
192
0
VERTEX
8
OBJECT__41
10
79.439003
20
10.294000
30
209.298996
70
192
0
VERTEX
8
OBJECT__41
10
84.498001
20
9.805000
30
217.970001
70
192
0
VERTEX
8
OBJECT__41
10
97.663002
20
18.570000
30
240.563004
70
192
0
VERTEX
8
OBJECT__41
10
99.364998
20
20.802999
30
243.490005
70
192
0
VERTEX
8
OBJECT__41
10
91.350998
20
12.593000
30
229.712997
70
192
0
VERTEX
8
OBJECT__41
10
95.638000
20
15.913000
30
237.080002
70
192
0
VERTEX
8
OBJECT__41
10
88.689003
20
11.179000
30
225.147995
70
192
0
VERTEX
8
OBJECT__41
10
90.138000
20
11.655000
30
227.630005
70
192
0
VERTEX
8
OBJECT__41
10
104.709999
20
30.775999
30
252.677994
70
192
0
VERTEX
8
OBJECT__41
10
105.397003
20
32.976002
30
253.863007
70
192
0
VERTEX
8
OBJECT__41
10
103.041000
20
27.384001
30
249.809998
70
192
0
VERTEX
8
OBJECT__41
10
100.602997
20
22.427000
30
245.619995
70
192
0
VERTEX
8
OBJECT__41
10
107.130997
20
38.523998
30
256.852997
70
192
0
VERTEX
8
OBJECT__41
10
107.914001
20
41.030998
30
258.204010
70
192
0
VERTEX
8
OBJECT__41
10
109.744003
20
51.296001
30
261.308014
70
192
0
VERTEX
8
OBJECT__41
10
104.647003
20
35.637001
30
254.272995
70
192
0
VERTEX
8
OBJECT__41
10
106.403000
20
36.194000
30
255.597000
70
192
0
VERTEX
8
OBJECT__41
10
94.573997
20
65.000000
30
250.606995
70
192
0
VERTEX
8
OBJECT__41
10
109.919998
20
52.282001
30
261.605988
70
192
0
VERTEX
8
OBJECT__41
10
109.809998
20
51.667999
30
261.420990
70
192
0
VERTEX
8
OBJECT__41
10
110.681999
20
65.000000
30
262.852997
70
192
0
VERTEX
8
OBJECT__41
10
92.033997
20
65.000000
30
248.309006
70
192
0
VERTEX
8
OBJECT__41
10
37.563000
20
51.737000
30
114.008003
70
192
0
VERTEX
8
OBJECT__41
10
40.118999
20
65.000000
30
157.632996
70
192
0
VERTEX
8
OBJECT__41
10
0
20
0
30
0
70
128
71
1
72
2
73
3
0
VERTEX
8
OBJECT__41
10
0
20
0
30
0
70
128
71
3
72
4
73
1
0
VERTEX
8
OBJECT__41
10
0
20
0
30
0
70
128
71
5
72
6
73
7
0
VERTEX
8
OBJECT__41
10
0
20
0
30
0
70
128
71
1
72
8
73
9
0
VERTEX
8
OBJECT__41
10
0
20
0
30
0
70
128
71
8
72
10
73
11
0
VERTEX
8
OBJECT__41
10
0
20
0
30
0
70
128
71
7
72
12
73
13
0
VERTEX
8
OBJECT__41
10
0
20
0
30
0
70
128
71
13
72
4
73
7
0
VERTEX
8
OBJECT__41
10
0
20
0
30
0
70
128
71
1
72
4
73
14
0
VERTEX
8
OBJECT__41
10
0
20
0
30
0
70
128
71
4
72
15
73
14
0
VERTEX
8
OBJECT__41
10
0
20
0
30
0
70
128
71
8
72
1
73
16
0
VERTEX
8
OBJECT__41
10
0
20
0
30
0
70
128
71
1
72
17
73
18
0
VERTEX
8
OBJECT__41
10
0
20
0
30
0
70
128
71
18
72
16
73
1
0
VERTEX
8
OBJECT__41
10
0
20
0
30
0
70
128
71
10
72
8
73
19
0
VERTEX
8
OBJECT__41
10
0
20
0
30
0
70
128
71
19
72
20
73
10
0
VERTEX
8
OBJECT__41
10
0
20
0
30
0
70
128
71
8
72
21
73
19
0
VERTEX
8
OBJECT__41
10
0
20
0
30
0
70
128
71
22
72
11
73
10
0
VERTEX
8
OBJECT__41
10
0
20
0
30
0
70
128
71
10
72
23
73
22
0
VERTEX
8
OBJECT__41
10
0
20
0
30
0
70
128
71
24
72
22
73
25
0
VERTEX
8
OBJECT__41
10
0
20
0
30
0
70
128
71
22
72
23
73
26
0
VERTEX
8
OBJECT__41
10
0
20
0
30
0
70
128
71
26
72
25
73
22
0
VERTEX
8
OBJECT__41
10
0
20
0
30
0
70
128
71
24
72
27
73
28
0
VERTEX
8
OBJECT__41
10
0
20
0
30
0
70
128
71
28
72
29
73
24
0
VERTEX
8
OBJECT__41
10
0
20
0
30
0
70
128
71
30
72
31
73
32
0
VERTEX
8
OBJECT__41
10
0
20
0
30
0
70
128
71
30
72
33
73
31
0
VERTEX
8
OBJECT__41
10
0
20
0
30
0
70
128
71
35
72
30
73
34
0
VERTEX
8
OBJECT__41
10
0
20
0
30
0
70
128
71
30
72
36
73
34
0
VERTEX
8
OBJECT__41
10
0
20
0
30
0
70
128
71
35
72
33
73
30
0
VERTEX
8
OBJECT__41
10
0
20
0
30
0
70
128
71
32
72
29
73
30
0
VERTEX
8
OBJECT__41
10
0
20
0
30
0
70
128
71
29
72
37
73
38
0
VERTEX
8
OBJECT__41
10
0
20
0
30
0
70
128
71
38
72
24
73
29
0
VERTEX
8
OBJECT__41
10
0
20
0
30
0
70
128
71
39
72
22
73
24
0
VERTEX
8
OBJECT__41
10
0
20
0
30
0
70
128
71
11
72
22
73
40
0
VERTEX
8
OBJECT__41
10
0
20
0
30
0
70
128
71
22
72
39
73
41
0
VERTEX
8
OBJECT__41
10
0
20
0
30
0
70
128
71
41
72
40
73
22
0
VERTEX
8
OBJECT__41
10
0
20
0
30
0
70
128
71
9
72
42
73
43
0
VERTEX
8
OBJECT__41
10
0
20
0
30
0
70
128
71
9
72
44
73
42
0
VERTEX
8
OBJECT__41
10
0
20
0
30
0
70
128
71
11
72
45
73
44
0
VERTEX
8
OBJECT__41
10
0
20
0
30
0
70
128
71
11
72
46
73
47
0
VERTEX
8
OBJECT__41
10
0
20
0
30
0
70
128
71
47
72
45
73
11
0
VERTEX
8
OBJECT__41
10
0
20
0
30
0
70
128
71
44
72
9
73
11
0
VERTEX
8
OBJECT__41
10
0
20
0
30
0
70
128
71
2
72
48
73
49
0
VERTEX
8
OBJECT__41
10
0
20
0
30
0
70
128
71
49
72
50
73
2
0
VERTEX
8
OBJECT__41
10
0
20
0
30
0
70
128
71
2
72
51
73
52
0
VERTEX
8
OBJECT__41
10
0
20
0
30
0
70
128
71
2
72
9
73
53
0
VERTEX
8
OBJECT__41
10
0
20
0
30
0
70
128
71
53
72
51
73
2
0
VERTEX
8
OBJECT__41
10
0
20
0
30
0
70
128
71
52
72
48
73
2
0
VERTEX
8
OBJECT__41
10
0
20
0
30
0
70
128
71
3
72
54
73
55
0
VERTEX
8
OBJECT__41
10
0
20
0
30
0
70
128
71
3
72
2
73
56
0
VERTEX
8
OBJECT__41
10
0
20
0
30
0
70
128
71
56
72
57
73
3
0
VERTEX
8
OBJECT__41
10
0
20
0
30
0
70
128
71
57
72
54
73
3
0
VERTEX
8
OBJECT__41
10
0
20
0
30
0
70
128
71
5
72
3
73
58
0
VERTEX
8
OBJECT__41
10
0
20
0
30
0
70
128
71
3
72
59
73
60
0
VERTEX
8
OBJECT__41
10
0
20
0
30
0
70
128
71
60
72
58
73
3
0
VERTEX
8
OBJECT__41
10
0
20
0
30
0
70
128
71
5
72
61
73
62
0
VERTEX
8
OBJECT__41
10
0
20
0
30
0
70
128
71
5
72
63
73
64
0
VERTEX
8
OBJECT__41
10
0
20
0
30
0
70
128
71
5
72
65
73
66
0
VERTEX
8
OBJECT__41
10
0
20
0
30
0
70
128
71
66
72
63
73
5
0
VERTEX
8
OBJECT__41
10
0
20
0
30
0
70
128
71
64
72
61
73
5
0
VERTEX
8
OBJECT__41
10
0
20
0
30
0
70
128
71
6
72
67
73
68
0
VERTEX
8
OBJECT__41
10
0
20
0
30
0
70
128
71
6
72
69
73
67
0
VERTEX
8
OBJECT__41
10
0
20
0
30
0
70
128
71
6
72
62
73
70
0
VERTEX
8
OBJECT__41
10
0
20
0
30
0
70
128
71
70
72
69
73
6
0
VERTEX
8
OBJECT__41
10
0
20
0
30
0
70
128
71
7
72
71
73
72
0
VERTEX
8
OBJECT__41
10
0
20
0
30
0
70
128
71
72
72
73
73
7
0
VERTEX
8
OBJECT__41
10
0
20
0
30
0
70
128
71
7
72
74
73
75
0
VERTEX
8
OBJECT__41
10
0
20
0
30
0
70
128
71
7
72
6
73
74
0
VERTEX
8
OBJECT__41
10
0
20
0
30
0
70
128
71
75
72
71
73
7
0
VERTEX
8
OBJECT__41
10
0
20
0
30
0
70
128
71
76
72
7
73
77
0
VERTEX
8
OBJECT__41
10
0
20
0
30
0
70
128
71
7
72
78
73
77
0
VERTEX
8
OBJECT__41
10
0
20
0
30
0
70
128
71
77
72
79
73
76
0
VERTEX
8
OBJECT__41
10
0
20
0
30
0
70
128
71
76
72
80
73
7
0
VERTEX
8
OBJECT__41
10
0
20
0
30
0
70
128
71
80
72
12
73
7
0
VERTEX
8
OBJECT__41
10
0
20
0
30
0
70
128
71
73
72
78
73
7
0
VERTEX
8
OBJECT__41
10
0
20
0
30
0
70
128
71
75
72
74
73
68
0
VERTEX
8
OBJECT__41
10
0
20
0
30
0
70
128
71
68
72
74
73
6
0
VERTEX
8
OBJECT__41
10
0
20
0
30
0
70
128
71
62
72
6
73
5
0
VERTEX
8
OBJECT__41
10
0
20
0
30
0
70
128
71
58
72
65
73
5
0
VERTEX
8
OBJECT__41
10
0
20
0
30
0
70
128
71
55
72
59
73
3
0
VERTEX
8
OBJECT__41
10
0
20
0
30
0
70
128
71
50
72
56
73
2
0
VERTEX
8
OBJECT__41
10
0
20
0
30
0
70
128
71
43
72
53
73
9
0
VERTEX
8
OBJECT__41
10
0
20
0
30
0
70
128
71
40
72
46
73
11
0
VERTEX
8
OBJECT__41
10
0
20
0
30
0
70
128
71
24
72
81
73
39
0
VERTEX
8
OBJECT__41
10
0
20
0
30
0
70
128
71
38
72
81
73
24
0
VERTEX
8
OBJECT__41
10
0
20
0
30
0
70
128
71
37
72
29
73
32
0
VERTEX
8
OBJECT__41
10
0
20
0
30
0
70
128
71
28
72
30
73
29
0
VERTEX
8
OBJECT__41
10
0
20
0
30
0
70
128
71
25
72
27
73
24
0
VERTEX
8
OBJECT__41
10
0
20
0
30
0
70
128
71
10
72
82
73
23
0
VERTEX
8
OBJECT__41
10
0
20
0
30
0
70
128
71
20
72
82
73
10
0
VERTEX
8
OBJECT__41
10
0
20
0
30
0
70
128
71
16
72
21
73
8
0
VERTEX
8
OBJECT__41
10
0
20
0
30
0
70
128
71
14
72
17
73
1
0
VERTEX
8
OBJECT__41
10
0
20
0
30
0
70
128
71
13
72
15
73
4
0
VERTEX
8
OBJECT__41
10
0
20
0
30
0
70
128
71
11
72
9
73
8
0
VERTEX
8
OBJECT__41
10
0
20
0
30
0
70
128
71
9
72
2
73
1
0
VERTEX
8
OBJECT__41
10
0
20
0
30
0
70
128
71
7
72
4
73
5
0
VERTEX
8
OBJECT__41
10
0
20
0
30
0
70
128
71
3
72
5
73
4
0
SEQEND
8
OBJECT__41
0
POLYLINE
8
OBJECT__42
66
1
70
64
71
59
72
64
62
253
0
VERTEX
8
OBJECT__42
10
94.299004
20
119.668999
30
228.850998
70
192
0
VERTEX
8
OBJECT__42
10
91.338997
20
117.341003
30
229.695007
70
192
0
VERTEX
8
OBJECT__42
10
95.434998
20
114.292999
30
236.731995
70
192
0
VERTEX
8
OBJECT__42
10
100.910004
20
113.526001
30
240.216003
70
192
0
VERTEX
8
OBJECT__42
10
113.365997
20
65.000000
30
263.500000
70
192
0
VERTEX
8
OBJECT__42
10
113.445999
20
79.289001
30
261.734009
70
192
0
VERTEX
8
OBJECT__42
10
109.973999
20
77.257004
30
261.696991
70
192
0
VERTEX
8
OBJECT__42
10
110.681999
20
65.000000
30
262.852997
70
192
0
VERTEX
8
OBJECT__42
10
109.723999
20
78.690002
30
261.272003
70
192
0
VERTEX
8
OBJECT__42
10
109.783997
20
78.345001
30
261.373993
70
192
0
VERTEX
8
OBJECT__42
10
87.151001
20
122.339996
30
216.612000
70
192
0
VERTEX
8
OBJECT__42
10
79.958000
20
121.421997
30
204.287994
70
192
0
VERTEX
8
OBJECT__42
10
79.443001
20
119.633003
30
209.304001
70
192
0
VERTEX
8
OBJECT__42
10
77.594002
20
119.335999
30
206.132996
70
192
0
VERTEX
8
OBJECT__42
10
83.484001
20
120.281998
30
216.233994
70
192
0
VERTEX
8
OBJECT__42
10
101.086998
20
115.035004
30
233.572006
70
192
0
VERTEX
8
OBJECT__42
10
99.500000
20
116.789001
30
230.845001
70
192
0
VERTEX
8
OBJECT__42
10
103.553001
20
112.308998
30
237.809006
70
192
0
VERTEX
8
OBJECT__42
10
84.503998
20
120.003998
30
217.979996
70
192
0
VERTEX
8
OBJECT__42
10
88.693001
20
118.863998
30
225.153000
70
192
0
VERTEX
8
OBJECT__42
10
89.637001
20
118.607002
30
226.770004
70
192
0
VERTEX
8
OBJECT__42
10
93.478996
20
120.353996
30
220.539001
70
192
0
VERTEX
8
OBJECT__42
10
91.125000
20
120.695000
30
216.518997
70
192
0
VERTEX
8
OBJECT__42
10
97.078003
20
118.223000
30
226.699005
70
192
0
VERTEX
8
OBJECT__42
10
87.403000
20
121.233002
30
210.164001
70
192
0
VERTEX
8
OBJECT__42
10
90.102997
20
120.842003
30
214.774994
70
192
0
VERTEX
8
OBJECT__42
10
73.093002
20
116.706001
30
192.460999
70
192
0
VERTEX
8
OBJECT__42
10
71.867996
20
115.908997
30
196.266006
70
192
0
VERTEX
8
OBJECT__42
10
71.263000
20
115.380997
30
195.225998
70
192
0
VERTEX
8
OBJECT__42
10
72.258003
20
116.695000
30
192.959000
70
192
0
VERTEX
8
OBJECT__42
10
70.917000
20
115.079002
30
194.630997
70
192
0
VERTEX
8
OBJECT__42
10
74.762001
20
116.728996
30
191.464996
70
192
0
VERTEX
8
OBJECT__42
10
80.755997
20
118.928001
30
198.804993
70
192
0
VERTEX
8
OBJECT__42
10
76.228996
20
115.860001
30
191.074005
70
192
0
VERTEX
8
OBJECT__42
10
82.235001
20
119.930000
30
201.330002
70
192
0
VERTEX
8
OBJECT__42
10
83.065002
20
120.139000
30
202.748993
70
192
0
VERTEX
8
OBJECT__42
10
106.527000
20
104.315002
30
249.863998
70
192
0
VERTEX
8
OBJECT__42
10
104.737000
20
99.155998
30
252.723999
70
192
0
VERTEX
8
OBJECT__42
10
105.397003
20
97.029999
30
253.863007
70
192
0
VERTEX
8
OBJECT__42
10
110.779999
20
92.661003
30
257.191010
70
192
0
VERTEX
8
OBJECT__42
10
106.397003
20
93.809998
30
255.587997
70
192
0
VERTEX
8
OBJECT__42
10
103.039001
20
102.612000
30
249.807007
70
192
0
VERTEX
8
OBJECT__42
10
114.247002
20
65.000000
30
263.016998
70
192
0
VERTEX
8
OBJECT__42
10
116.689003
20
69.917999
30
260.260986
70
192
0
VERTEX
8
OBJECT__42
10
116.008003
20
65.000000
30
262.049988
70
192
0
VERTEX
8
OBJECT__42
10
116.799004
20
65.000000
30
260.438995
70
192
0
VERTEX
8
OBJECT__42
10
107.955002
20
88.795998
30
258.274994
70
192
0
VERTEX
8
OBJECT__42
10
107.125000
20
91.469002
30
256.842987
70
192
0
VERTEX
8
OBJECT__42
10
114.753998
20
85.142998
30
257.028992
70
192
0
VERTEX
8
OBJECT__42
10
115.445000
20
82.088997
30
258.207001
70
192
0
VERTEX
8
OBJECT__42
10
115.764999
20
78.955002
30
258.735992
70
192
0
VERTEX
8
OBJECT__42
10
112.825996
20
93.662003
30
253.744003
70
192
0
VERTEX
8
OBJECT__42
10
109.389000
20
102.750000
30
247.837997
70
192
0
VERTEX
8
OBJECT__42
10
113.198997
20
92.012001
30
254.380005
70
192
0
VERTEX
8
OBJECT__42
10
99.362999
20
109.184998
30
243.488007
70
192
0
VERTEX
8
OBJECT__42
10
100.602997
20
107.572998
30
245.619995
70
192
0
VERTEX
8
OBJECT__42
10
97.655998
20
111.404999
30
240.550995
70
192
0
VERTEX
8
OBJECT__42
10
109.108002
20
103.495003
30
247.352997
70
192
0
VERTEX
8
OBJECT__42
10
104.825996
20
110.902000
30
239.996994
70
192
0
VERTEX
8
OBJECT__42
10
0
20
0
30
0
70
128
71
1
72
2
73
3
0
VERTEX
8
OBJECT__42
10
0
20
0
30
0
70
128
71
3
72
4
73
1
0
VERTEX
8
OBJECT__42
10
0
20
0
30
0
70
128
71
5
72
6
73
7
0
VERTEX
8
OBJECT__42
10
0
20
0
30
0
70
128
71
7
72
8
73
5
0
VERTEX
8
OBJECT__42
10
0
20
0
30
0
70
128
71
6
72
9
73
10
0
VERTEX
8
OBJECT__42
10
0
20
0
30
0
70
128
71
10
72
7
73
6
0
VERTEX
8
OBJECT__42
10
0
20
0
30
0
70
128
71
11
72
12
73
13
0
VERTEX
8
OBJECT__42
10
0
20
0
30
0
70
128
71
12
72
14
73
13
0
VERTEX
8
OBJECT__42
10
0
20
0
30
0
70
128
71
13
72
15
73
11
0
VERTEX
8
OBJECT__42
10
0
20
0
30
0
70
128
71
4
72
16
73
17
0
VERTEX
8
OBJECT__42
10
0
20
0
30
0
70
128
71
4
72
18
73
16
0
VERTEX
8
OBJECT__42
10
0
20
0
30
0
70
128
71
17
72
1
73
4
0
VERTEX
8
OBJECT__42
10
0
20
0
30
0
70
128
71
11
72
19
73
20
0
VERTEX
8
OBJECT__42
10
0
20
0
30
0
70
128
71
20
72
1
73
11
0
VERTEX
8
OBJECT__42
10
0
20
0
30
0
70
128
71
20
72
21
73
1
0
VERTEX
8
OBJECT__42
10
0
20
0
30
0
70
128
71
11
72
22
73
23
0
VERTEX
8
OBJECT__42
10
0
20
0
30
0
70
128
71
1
72
24
73
22
0
VERTEX
8
OBJECT__42
10
0
20
0
30
0
70
128
71
22
72
11
73
1
0
VERTEX
8
OBJECT__42
10
0
20
0
30
0
70
128
71
12
72
11
73
25
0
VERTEX
8
OBJECT__42
10
0
20
0
30
0
70
128
71
11
72
26
73
25
0
VERTEX
8
OBJECT__42
10
0
20
0
30
0
70
128
71
12
72
27
73
28
0
VERTEX
8
OBJECT__42
10
0
20
0
30
0
70
128
71
29
72
27
73
30
0
VERTEX
8
OBJECT__42
10
0
20
0
30
0
70
128
71
27
72
29
73
28
0
VERTEX
8
OBJECT__42
10
0
20
0
30
0
70
128
71
30
72
31
73
29
0
VERTEX
8
OBJECT__42
10
0
20
0
30
0
70
128
71
32
72
12
73
33
0
VERTEX
8
OBJECT__42
10
0
20
0
30
0
70
128
71
33
72
34
73
32
0
VERTEX
8
OBJECT__42
10
0
20
0
30
0
70
128
71
12
72
35
73
33
0
VERTEX
8
OBJECT__42
10
0
20
0
30
0
70
128
71
12
72
36
73
35
0
VERTEX
8
OBJECT__42
10
0
20
0
30
0
70
128
71
37
72
38
73
39
0
VERTEX
8
OBJECT__42
10
0
20
0
30
0
70
128
71
39
72
40
73
37
0
VERTEX
8
OBJECT__42
10
0
20
0
30
0
70
128
71
39
72
41
73
40
0
VERTEX
8
OBJECT__42
10
0
20
0
30
0
70
128
71
37
72
42
73
38
0
VERTEX
8
OBJECT__42
10
0
20
0
30
0
70
128
71
6
72
43
73
44
0
VERTEX
8
OBJECT__42
10
0
20
0
30
0
70
128
71
44
72
43
73
45
0
VERTEX
8
OBJECT__42
10
0
20
0
30
0
70
128
71
45
72
46
73
44
0
VERTEX
8
OBJECT__42
10
0
20
0
30
0
70
128
71
6
72
40
73
47
0
VERTEX
8
OBJECT__42
10
0
20
0
30
0
70
128
71
40
72
48
73
47
0
VERTEX
8
OBJECT__42
10
0
20
0
30
0
70
128
71
40
72
6
73
49
0
VERTEX
8
OBJECT__42
10
0
20
0
30
0
70
128
71
6
72
50
73
49
0
VERTEX
8
OBJECT__42
10
0
20
0
30
0
70
128
71
6
72
51
73
50
0
VERTEX
8
OBJECT__42
10
0
20
0
30
0
70
128
71
37
72
40
73
52
0
VERTEX
8
OBJECT__42
10
0
20
0
30
0
70
128
71
52
72
53
73
37
0
VERTEX
8
OBJECT__42
10
0
20
0
30
0
70
128
71
40
72
54
73
52
0
VERTEX
8
OBJECT__42
10
0
20
0
30
0
70
128
71
4
72
55
73
56
0
VERTEX
8
OBJECT__42
10
0
20
0
30
0
70
128
71
4
72
57
73
55
0
VERTEX
8
OBJECT__42
10
0
20
0
30
0
70
128
71
56
72
37
73
4
0
VERTEX
8
OBJECT__42
10
0
20
0
30
0
70
128
71
37
72
58
73
59
0
VERTEX
8
OBJECT__42
10
0
20
0
30
0
70
128
71
59
72
4
73
37
0
VERTEX
8
OBJECT__42
10
0
20
0
30
0
70
128
71
59
72
18
73
4
0
VERTEX
8
OBJECT__42
10
0
20
0
30
0
70
128
71
56
72
42
73
37
0
VERTEX
8
OBJECT__42
10
0
20
0
30
0
70
128
71
53
72
58
73
37
0
VERTEX
8
OBJECT__42
10
0
20
0
30
0
70
128
71
49
72
54
73
40
0
VERTEX
8
OBJECT__42
10
0
20
0
30
0
70
128
71
47
72
9
73
6
0
VERTEX
8
OBJECT__42
10
0
20
0
30
0
70
128
71
44
72
51
73
6
0
VERTEX
8
OBJECT__42
10
0
20
0
30
0
70
128
71
41
72
48
73
40
0
VERTEX
8
OBJECT__42
10
0
20
0
30
0
70
128
71
32
72
27
73
12
0
VERTEX
8
OBJECT__42
10
0
20
0
30
0
70
128
71
28
72
14
73
12
0
VERTEX
8
OBJECT__42
10
0
20
0
30
0
70
128
71
25
72
36
73
12
0
VERTEX
8
OBJECT__42
10
0
20
0
30
0
70
128
71
23
72
26
73
11
0
VERTEX
8
OBJECT__42
10
0
20
0
30
0
70
128
71
21
72
2
73
1
0
VERTEX
8
OBJECT__42
10
0
20
0
30
0
70
128
71
17
72
24
73
1
0
VERTEX
8
OBJECT__42
10
0
20
0
30
0
70
128
71
15
72
19
73
11
0
VERTEX
8
OBJECT__42
10
0
20
0
30
0
70
128
71
5
72
43
73
6
0
VERTEX
8
OBJECT__42
10
0
20
0
30
0
70
128
71
3
72
57
73
4
0
SEQEND
8
OBJECT__42
0
POLYLINE
8
OBJECT__43
66
1
70
64
71
60
72
65
62
253
0
VERTEX
8
OBJECT__43
10
94.299004
20
10.331000
30
228.850998
70
192
0
VERTEX
8
OBJECT__43
10
100.910004
20
16.474001
30
240.216003
70
192
0
VERTEX
8
OBJECT__43
10
95.638000
20
15.913000
30
237.080002
70
192
0
VERTEX
8
OBJECT__43
10
97.663002
20
18.570000
30
240.563004
70
192
0
VERTEX
8
OBJECT__43
10
113.445999
20
50.710999
30
261.734009
70
192
0
VERTEX
8
OBJECT__43
10
109.919998
20
52.282001
30
261.605988
70
192
0
VERTEX
8
OBJECT__43
10
109.809998
20
51.667999
30
261.420990
70
192
0
VERTEX
8
OBJECT__43
10
113.365997
20
65.000000
30
263.500000
70
192
0
VERTEX
8
OBJECT__43
10
110.681999
20
65.000000
30
262.852997
70
192
0
VERTEX
8
OBJECT__43
10
114.247002
20
65.000000
30
263.016998
70
192
0
VERTEX
8
OBJECT__43
10
87.151001
20
7.660000
30
216.612000
70
192
0
VERTEX
8
OBJECT__43
10
84.498001
20
9.805000
30
217.970001
70
192
0
VERTEX
8
OBJECT__43
10
79.439003
20
10.294000
30
209.298996
70
192
0
VERTEX
8
OBJECT__43
10
79.958000
20
8.578000
30
204.287994
70
192
0
VERTEX
8
OBJECT__43
10
84.516998
20
9.811000
30
218.001999
70
192
0
VERTEX
8
OBJECT__43
10
78.364998
20
10.398000
30
207.457993
70
192
0
VERTEX
8
OBJECT__43
10
99.622002
20
13.314000
30
231.052994
70
192
0
VERTEX
8
OBJECT__43
10
101.093002
20
14.944000
30
233.582001
70
192
0
VERTEX
8
OBJECT__43
10
97.075996
20
11.783000
30
226.695999
70
192
0
VERTEX
8
OBJECT__43
10
88.689003
20
11.179000
30
225.147995
70
192
0
VERTEX
8
OBJECT__43
10
90.138000
20
11.655000
30
227.630005
70
192
0
VERTEX
8
OBJECT__43
10
91.350998
20
12.593000
30
229.712997
70
192
0
VERTEX
8
OBJECT__43
10
93.587997
20
9.686000
30
220.725006
70
192
0
VERTEX
8
OBJECT__43
10
90.105003
20
9.066000
30
214.776993
70
192
0
VERTEX
8
OBJECT__43
10
91.125000
20
9.247000
30
216.518997
70
192
0
VERTEX
8
OBJECT__43
10
83.065002
20
9.883000
30
202.750000
70
192
0
VERTEX
8
OBJECT__43
10
88.245003
20
8.734000
30
211.602005
70
192
0
VERTEX
8
OBJECT__43
10
71.263000
20
14.626000
30
195.227005
70
192
0
VERTEX
8
OBJECT__43
10
70.917000
20
14.921000
30
194.630997
70
192
0
VERTEX
8
OBJECT__43
10
72.258003
20
13.305000
30
192.959000
70
192
0
VERTEX
8
OBJECT__43
10
73.093002
20
13.293000
30
192.460999
70
192
0
VERTEX
8
OBJECT__43
10
72.361000
20
13.691000
30
197.115005
70
192
0
VERTEX
8
OBJECT__43
10
77.614998
20
10.809000
30
206.167007
70
192
0
VERTEX
8
OBJECT__43
10
74.762001
20
13.271000
30
191.464996
70
192
0
VERTEX
8
OBJECT__43
10
76.228996
20
14.140000
30
191.074005
70
192
0
VERTEX
8
OBJECT__43
10
80.755997
20
11.074000
30
198.806000
70
192
0
VERTEX
8
OBJECT__43
10
82.247002
20
10.065000
30
201.350998
70
192
0
VERTEX
8
OBJECT__43
10
106.527000
20
25.684999
30
249.863998
70
192
0
VERTEX
8
OBJECT__43
10
110.779999
20
37.339001
30
257.191010
70
192
0
VERTEX
8
OBJECT__43
10
105.397003
20
32.976002
30
253.863007
70
192
0
VERTEX
8
OBJECT__43
10
107.130997
20
38.523998
30
256.852997
70
192
0
VERTEX
8
OBJECT__43
10
106.403000
20
36.194000
30
255.597000
70
192
0
VERTEX
8
OBJECT__43
10
104.709999
20
30.775999
30
252.677994
70
192
0
VERTEX
8
OBJECT__43
10
116.008003
20
65.000000
30
262.049988
70
192
0
VERTEX
8
OBJECT__43
10
116.570000
20
57.926998
30
260.069000
70
192
0
VERTEX
8
OBJECT__43
10
116.799004
20
65.000000
30
260.438995
70
192
0
VERTEX
8
OBJECT__43
10
115.746002
20
51.063000
30
258.701996
70
192
0
VERTEX
8
OBJECT__43
10
109.744003
20
51.296001
30
261.308014
70
192
0
VERTEX
8
OBJECT__43
10
107.914001
20
41.030998
30
258.204010
70
192
0
VERTEX
8
OBJECT__43
10
114.807999
20
44.811001
30
257.127991
70
192
0
VERTEX
8
OBJECT__43
10
113.172997
20
38.018002
30
254.335007
70
192
0
VERTEX
8
OBJECT__43
10
115.181999
20
46.363998
30
257.765991
70
192
0
VERTEX
8
OBJECT__43
10
109.392998
20
27.245001
30
247.843994
70
192
0
VERTEX
8
OBJECT__43
10
112.552002
20
35.439999
30
253.274994
70
192
0
VERTEX
8
OBJECT__43
10
109.108002
20
26.504999
30
247.352997
70
192
0
VERTEX
8
OBJECT__43
10
100.602997
20
22.427000
30
245.619995
70
192
0
VERTEX
8
OBJECT__43
10
99.364998
20
20.802999
30
243.490005
70
192
0
VERTEX
8
OBJECT__43
10
103.041000
20
27.384001
30
249.809998
70
192
0
VERTEX
8
OBJECT__43
10
104.765999
20
19.014999
30
239.895004
70
192
0
VERTEX
8
OBJECT__43
10
103.556999
20
17.674999
30
237.817001
70
192
0
VERTEX
8
OBJECT__43
10
0
20
0
30
0
70
128
71
1
72
2
73
3
0
VERTEX
8
OBJECT__43
10
0
20
0
30
0
70
128
71
2
72
4
73
3
0
VERTEX
8
OBJECT__43
10
0
20
0
30
0
70
128
71
5
72
6
73
7
0
VERTEX
8
OBJECT__43
10
0
20
0
30
0
70
128
71
8
72
9
73
6
0
VERTEX
8
OBJECT__43
10
0
20
0
30
0
70
128
71
5
72
10
73
8
0
VERTEX
8
OBJECT__43
10
0
20
0
30
0
70
128
71
6
72
5
73
8
0
VERTEX
8
OBJECT__43
10
0
20
0
30
0
70
128
71
11
72
12
73
13
0
VERTEX
8
OBJECT__43
10
0
20
0
30
0
70
128
71
13
72
14
73
11
0
VERTEX
8
OBJECT__43
10
0
20
0
30
0
70
128
71
11
72
15
73
12
0
VERTEX
8
OBJECT__43
10
0
20
0
30
0
70
128
71
13
72
16
73
14
0
VERTEX
8
OBJECT__43
10
0
20
0
30
0
70
128
71
2
72
1
73
17
0
VERTEX
8
OBJECT__43
10
0
20
0
30
0
70
128
71
17
72
18
73
2
0
VERTEX
8
OBJECT__43
10
0
20
0
30
0
70
128
71
1
72
19
73
17
0
VERTEX
8
OBJECT__43
10
0
20
0
30
0
70
128
71
11
72
1
73
20
0
VERTEX
8
OBJECT__43
10
0
20
0
30
0
70
128
71
1
72
21
73
20
0
VERTEX
8
OBJECT__43
10
0
20
0
30
0
70
128
71
1
72
22
73
21
0
VERTEX
8
OBJECT__43
10
0
20
0
30
0
70
128
71
1
72
11
73
23
0
VERTEX
8
OBJECT__43
10
0
20
0
30
0
70
128
71
11
72
24
73
25
0
VERTEX
8
OBJECT__43
10
0
20
0
30
0
70
128
71
25
72
23
73
11
0
VERTEX
8
OBJECT__43
10
0
20
0
30
0
70
128
71
14
72
26
73
27
0
VERTEX
8
OBJECT__43
10
0
20
0
30
0
70
128
71
27
72
11
73
14
0
VERTEX
8
OBJECT__43
10
0
20
0
30
0
70
128
71
28
72
29
73
30
0
VERTEX
8
OBJECT__43
10
0
20
0
30
0
70
128
71
31
72
32
73
28
0
VERTEX
8
OBJECT__43
10
0
20
0
30
0
70
128
71
30
72
31
73
28
0
VERTEX
8
OBJECT__43
10
0
20
0
30
0
70
128
71
14
72
33
73
32
0
VERTEX
8
OBJECT__43
10
0
20
0
30
0
70
128
71
32
72
31
73
14
0
VERTEX
8
OBJECT__43
10
0
20
0
30
0
70
128
71
34
72
35
73
36
0
VERTEX
8
OBJECT__43
10
0
20
0
30
0
70
128
71
14
72
31
73
34
0
VERTEX
8
OBJECT__43
10
0
20
0
30
0
70
128
71
36
72
14
73
34
0
VERTEX
8
OBJECT__43
10
0
20
0
30
0
70
128
71
36
72
37
73
14
0
VERTEX
8
OBJECT__43
10
0
20
0
30
0
70
128
71
38
72
39
73
40
0
VERTEX
8
OBJECT__43
10
0
20
0
30
0
70
128
71
39
72
41
73
42
0
VERTEX
8
OBJECT__43
10
0
20
0
30
0
70
128
71
42
72
40
73
39
0
VERTEX
8
OBJECT__43
10
0
20
0
30
0
70
128
71
40
72
43
73
38
0
VERTEX
8
OBJECT__43
10
0
20
0
30
0
70
128
71
44
72
5
73
45
0
VERTEX
8
OBJECT__43
10
0
20
0
30
0
70
128
71
45
72
46
73
44
0
VERTEX
8
OBJECT__43
10
0
20
0
30
0
70
128
71
5
72
47
73
45
0
VERTEX
8
OBJECT__43
10
0
20
0
30
0
70
128
71
5
72
48
73
49
0
VERTEX
8
OBJECT__43
10
0
20
0
30
0
70
128
71
49
72
39
73
5
0
VERTEX
8
OBJECT__43
10
0
20
0
30
0
70
128
71
5
72
39
73
50
0
VERTEX
8
OBJECT__43
10
0
20
0
30
0
70
128
71
39
72
51
73
50
0
VERTEX
8
OBJECT__43
10
0
20
0
30
0
70
128
71
50
72
52
73
5
0
VERTEX
8
OBJECT__43
10
0
20
0
30
0
70
128
71
38
72
53
73
54
0
VERTEX
8
OBJECT__43
10
0
20
0
30
0
70
128
71
38
72
55
73
53
0
VERTEX
8
OBJECT__43
10
0
20
0
30
0
70
128
71
54
72
39
73
38
0
VERTEX
8
OBJECT__43
10
0
20
0
30
0
70
128
71
2
72
38
73
56
0
VERTEX
8
OBJECT__43
10
0
20
0
30
0
70
128
71
56
72
57
73
2
0
VERTEX
8
OBJECT__43
10
0
20
0
30
0
70
128
71
38
72
58
73
56
0
VERTEX
8
OBJECT__43
10
0
20
0
30
0
70
128
71
38
72
2
73
59
0
VERTEX
8
OBJECT__43
10
0
20
0
30
0
70
128
71
2
72
60
73
59
0
VERTEX
8
OBJECT__43
10
0
20
0
30
0
70
128
71
59
72
55
73
38
0
VERTEX
8
OBJECT__43
10
0
20
0
30
0
70
128
71
57
72
4
73
2
0
VERTEX
8
OBJECT__43
10
0
20
0
30
0
70
128
71
54
72
51
73
39
0
VERTEX
8
OBJECT__43
10
0
20
0
30
0
70
128
71
52
72
47
73
5
0
VERTEX
8
OBJECT__43
10
0
20
0
30
0
70
128
71
49
72
41
73
39
0
VERTEX
8
OBJECT__43
10
0
20
0
30
0
70
128
71
44
72
10
73
5
0
VERTEX
8
OBJECT__43
10
0
20
0
30
0
70
128
71
43
72
58
73
38
0
VERTEX
8
OBJECT__43
10
0
20
0
30
0
70
128
71
37
72
26
73
14
0
VERTEX
8
OBJECT__43
10
0
20
0
30
0
70
128
71
27
72
24
73
11
0
VERTEX
8
OBJECT__43
10
0
20
0
30
0
70
128
71
23
72
19
73
1
0
VERTEX
8
OBJECT__43
10
0
20
0
30
0
70
128
71
20
72
15
73
11
0
VERTEX
8
OBJECT__43
10
0
20
0
30
0
70
128
71
18
72
60
73
2
0
VERTEX
8
OBJECT__43
10
0
20
0
30
0
70
128
71
16
72
33
73
14
0
VERTEX
8
OBJECT__43
10
0
20
0
30
0
70
128
71
7
72
48
73
5
0
VERTEX
8
OBJECT__43
10
0
20
0
30
0
70
128
71
3
72
22
73
1
0
SEQEND
8
OBJECT__43
0
POLYLINE
8
OBJECT__44
66
1
70
64
71
11
72
9
62
253
0
VERTEX
8
OBJECT__44
10
64.222000
20
99.435997
30
172.731995
70
192
0
VERTEX
8
OBJECT__44
10
70.161003
20
108.681999
30
181.072006
70
192
0
VERTEX
8
OBJECT__44
10
73.140999
20
101.889999
30
178.531006
70
192
0
VERTEX
8
OBJECT__44
10
76.067001
20
106.942001
30
183.626999
70
192
0
VERTEX
8
OBJECT__44
10
70.571999
20
109.321999
30
181.649994
70
192
0
VERTEX
8
OBJECT__44
10
76.228996
20
115.860001
30
191.074005
70
192
0
VERTEX
8
OBJECT__44
10
79.329002
20
111.067001
30
189.315994
70
192
0
VERTEX
8
OBJECT__44
10
77.097000
20
115.101997
30
190.992996
70
192
0
VERTEX
8
OBJECT__44
10
78.268997
20
114.012001
30
190.921005
70
192
0
VERTEX
8
OBJECT__44
10
80.244003
20
111.989998
30
190.901001
70
192
0
VERTEX
8
OBJECT__44
10
70.627998
20
96.106003
30
174.203003
70
192
0
VERTEX
8
OBJECT__44
10
0
20
0
30
0
70
128
71
1
72
2
73
3
0
VERTEX
8
OBJECT__44
10
0
20
0
30
0
70
128
71
4
72
3
73
2
0
VERTEX
8
OBJECT__44
10
0
20
0
30
0
70
128
71
2
72
5
73
4
0
VERTEX
8
OBJECT__44
10
0
20
0
30
0
70
128
71
5
72
6
73
7
0
VERTEX
8
OBJECT__44
10
0
20
0
30
0
70
128
71
7
72
8
73
9
0
VERTEX
8
OBJECT__44
10
0
20
0
30
0
70
128
71
7
72
6
73
8
0
VERTEX
8
OBJECT__44
10
0
20
0
30
0
70
128
71
9
72
10
73
7
0
VERTEX
8
OBJECT__44
10
0
20
0
30
0
70
128
71
7
72
4
73
5
0
VERTEX
8
OBJECT__44
10
0
20
0
30
0
70
128
71
3
72
11
73
1
0
SEQEND
8
OBJECT__44
0
POLYLINE
8
OBJECT__45
66
1
70
64
71
51
72
59
62
253
0
VERTEX
8
OBJECT__45
10
59.695999
20
75.280998
30
153.304993
70
192
0
VERTEX
8
OBJECT__45
10
57.109001
20
74.422997
30
138.089005
70
192
0
VERTEX
8
OBJECT__45
10
54.449001
20
79.008003
30
139.156998
70
192
0
VERTEX
8
OBJECT__45
10
64.550003
20
77.817001
30
164.559006
70
192
0
VERTEX
8
OBJECT__45
10
57.536999
20
80.579002
30
154.375000
70
192
0
VERTEX
8
OBJECT__45
10
52.208000
20
78.660004
30
118.542000
70
192
0
VERTEX
8
OBJECT__45
10
63.090000
20
84.823997
30
165.156006
70
192
0
VERTEX
8
OBJECT__45
10
67.842003
20
85.122002
30
169.179993
70
192
0
VERTEX
8
OBJECT__45
10
66.606003
20
78.741997
30
166.843994
70
192
0
VERTEX
8
OBJECT__45
10
67.375000
20
88.620003
30
169.585007
70
192
0
VERTEX
8
OBJECT__45
10
65.737999
20
65.000000
30
165.253006
70
192
0
VERTEX
8
OBJECT__45
10
65.452003
20
65.000000
30
164.934998
70
192
0
VERTEX
8
OBJECT__45
10
66.600998
20
78.655998
30
166.834000
70
192
0
VERTEX
8
OBJECT__45
10
63.830002
20
65.000000
30
162.186005
70
192
0
VERTEX
8
OBJECT__45
10
62.033001
20
65.000000
30
156.067993
70
192
0
VERTEX
8
OBJECT__45
10
64.950996
20
65.000000
30
164.087006
70
192
0
VERTEX
8
OBJECT__45
10
61.387001
20
65.000000
30
152.425003
70
192
0
VERTEX
8
OBJECT__45
10
59.976002
20
65.000000
30
144.479996
70
192
0
VERTEX
8
OBJECT__45
10
55.452000
20
74.214996
30
117.779999
70
192
0
VERTEX
8
OBJECT__45
10
59.398998
20
65.000000
30
137.220001
70
192
0
VERTEX
8
OBJECT__45
10
57.833000
20
65.000000
30
117.523003
70
192
0
VERTEX
8
OBJECT__45
10
54.555000
20
71.397003
30
27.002001
70
192
0
VERTEX
8
OBJECT__45
10
52.297001
20
74.605003
30
26.997000
70
192
0
VERTEX
8
OBJECT__45
10
53.334000
20
74.388000
30
69.621002
70
192
0
VERTEX
8
OBJECT__45
10
57.826000
20
65.000000
30
117.200996
70
192
0
VERTEX
8
OBJECT__45
10
55.943001
20
66.375999
30
27.004999
70
192
0
VERTEX
8
OBJECT__45
10
56.250000
20
65.000000
30
51.960999
70
192
0
VERTEX
8
OBJECT__45
10
56.007000
20
65.000000
30
27.004999
70
192
0
VERTEX
8
OBJECT__45
10
49.560001
20
77.585999
30
45.374001
70
192
0
VERTEX
8
OBJECT__45
10
49.514999
20
77.629997
30
45.782001
70
192
0
VERTEX
8
OBJECT__45
10
51.590000
20
75.609001
30
26.996000
70
192
0
VERTEX
8
OBJECT__45
10
49.062000
20
78.444000
30
64.966003
70
192
0
VERTEX
8
OBJECT__45
10
48.689999
20
79.112000
30
80.714996
70
192
0
VERTEX
8
OBJECT__45
10
48.672001
20
80.362999
30
104.061996
70
192
0
VERTEX
8
OBJECT__45
10
48.948002
20
78.648003
30
69.777000
70
192
0
VERTEX
8
OBJECT__45
10
48.660000
20
81.185997
30
119.430000
70
192
0
VERTEX
8
OBJECT__45
10
48.659000
20
81.264999
30
120.904999
70
192
0
VERTEX
8
OBJECT__45
10
52.446999
20
83.848000
30
152.056000
70
192
0
VERTEX
8
OBJECT__45
10
52.703999
20
84.040001
30
153.348007
70
192
0
VERTEX
8
OBJECT__45
10
50.605000
20
82.466003
30
142.787003
70
192
0
VERTEX
8
OBJECT__45
10
50.431000
20
82.358002
30
140.830994
70
192
0
VERTEX
8
OBJECT__45
10
53.770000
20
85.160004
30
156.190994
70
192
0
VERTEX
8
OBJECT__45
10
55.428001
20
86.901001
30
160.610992
70
192
0
VERTEX
8
OBJECT__45
10
59.213001
20
91.856003
30
166.746994
70
192
0
VERTEX
8
OBJECT__45
10
59.278999
20
91.955002
30
166.824997
70
192
0
VERTEX
8
OBJECT__45
10
59.674999
20
92.556000
30
167.298996
70
192
0
VERTEX
8
OBJECT__45
10
69.021004
20
91.206001
30
171.408005
70
192
0
VERTEX
8
OBJECT__45
10
68.712997
20
89.619003
30
170.826996
70
192
0
VERTEX
8
OBJECT__45
10
64.222000
20
99.435997
30
172.731995
70
192
0
VERTEX
8
OBJECT__45
10
70.543999
20
95.876999
30
174.056000
70
192
0
VERTEX
8
OBJECT__45
10
70.627998
20
96.106003
30
174.203003
70
192
0
VERTEX
8
OBJECT__45
10
0
20
0
30
0
70
128
71
1
72
2
73
3
0
VERTEX
8
OBJECT__45
10
0
20
0
30
0
70
128
71
4
72
1
73
5
0
VERTEX
8
OBJECT__45
10
0
20
0
30
0
70
128
71
6
72
3
73
2
0
VERTEX
8
OBJECT__45
10
0
20
0
30
0
70
128
71
7
72
8
73
9
0
VERTEX
8
OBJECT__45
10
0
20
0
30
0
70
128
71
7
72
10
73
8
0
VERTEX
8
OBJECT__45
10
0
20
0
30
0
70
128
71
9
72
4
73
7
0
VERTEX
8
OBJECT__45
10
0
20
0
30
0
70
128
71
11
72
12
73
4
0
VERTEX
8
OBJECT__45
10
0
20
0
30
0
70
128
71
4
72
13
73
11
0
VERTEX
8
OBJECT__45
10
0
20
0
30
0
70
128
71
4
72
14
73
15
0
VERTEX
8
OBJECT__45
10
0
20
0
30
0
70
128
71
15
72
1
73
4
0
VERTEX
8
OBJECT__45
10
0
20
0
30
0
70
128
71
4
72
16
73
14
0
VERTEX
8
OBJECT__45
10
0
20
0
30
0
70
128
71
1
72
17
73
18
0
VERTEX
8
OBJECT__45
10
0
20
0
30
0
70
128
71
18
72
2
73
1
0
VERTEX
8
OBJECT__45
10
0
20
0
30
0
70
128
71
19
72
2
73
20
0
VERTEX
8
OBJECT__45
10
0
20
0
30
0
70
128
71
20
72
21
73
19
0
VERTEX
8
OBJECT__45
10
0
20
0
30
0
70
128
71
22
72
23
73
24
0
VERTEX
8
OBJECT__45
10
0
20
0
30
0
70
128
71
22
72
19
73
25
0
VERTEX
8
OBJECT__45
10
0
20
0
30
0
70
128
71
26
72
25
73
27
0
VERTEX
8
OBJECT__45
10
0
20
0
30
0
70
128
71
27
72
28
73
26
0
VERTEX
8
OBJECT__45
10
0
20
0
30
0
70
128
71
25
72
26
73
22
0
VERTEX
8
OBJECT__45
10
0
20
0
30
0
70
128
71
24
72
29
73
30
0
VERTEX
8
OBJECT__45
10
0
20
0
30
0
70
128
71
23
72
31
73
29
0
VERTEX
8
OBJECT__45
10
0
20
0
30
0
70
128
71
29
72
24
73
23
0
VERTEX
8
OBJECT__45
10
0
20
0
30
0
70
128
71
30
72
32
73
24
0
VERTEX
8
OBJECT__45
10
0
20
0
30
0
70
128
71
19
72
24
73
33
0
VERTEX
8
OBJECT__45
10
0
20
0
30
0
70
128
71
33
72
34
73
19
0
VERTEX
8
OBJECT__45
10
0
20
0
30
0
70
128
71
24
72
35
73
33
0
VERTEX
8
OBJECT__45
10
0
20
0
30
0
70
128
71
34
72
36
73
6
0
VERTEX
8
OBJECT__45
10
0
20
0
30
0
70
128
71
3
72
6
73
37
0
VERTEX
8
OBJECT__45
10
0
20
0
30
0
70
128
71
6
72
36
73
37
0
VERTEX
8
OBJECT__45
10
0
20
0
30
0
70
128
71
5
72
38
73
39
0
VERTEX
8
OBJECT__45
10
0
20
0
30
0
70
128
71
5
72
3
73
40
0
VERTEX
8
OBJECT__45
10
0
20
0
30
0
70
128
71
3
72
41
73
40
0
VERTEX
8
OBJECT__45
10
0
20
0
30
0
70
128
71
40
72
38
73
5
0
VERTEX
8
OBJECT__45
10
0
20
0
30
0
70
128
71
5
72
42
73
43
0
VERTEX
8
OBJECT__45
10
0
20
0
30
0
70
128
71
43
72
7
73
5
0
VERTEX
8
OBJECT__45
10
0
20
0
30
0
70
128
71
43
72
44
73
7
0
VERTEX
8
OBJECT__45
10
0
20
0
30
0
70
128
71
10
72
7
73
45
0
VERTEX
8
OBJECT__45
10
0
20
0
30
0
70
128
71
46
72
47
73
48
0
VERTEX
8
OBJECT__45
10
0
20
0
30
0
70
128
71
48
72
10
73
46
0
VERTEX
8
OBJECT__45
10
0
20
0
30
0
70
128
71
49
72
50
73
47
0
VERTEX
8
OBJECT__45
10
0
20
0
30
0
70
128
71
49
72
51
73
50
0
VERTEX
8
OBJECT__45
10
0
20
0
30
0
70
128
71
47
72
46
73
49
0
VERTEX
8
OBJECT__45
10
0
20
0
30
0
70
128
71
45
72
46
73
10
0
VERTEX
8
OBJECT__45
10
0
20
0
30
0
70
128
71
44
72
45
73
7
0
VERTEX
8
OBJECT__45
10
0
20
0
30
0
70
128
71
39
72
42
73
5
0
VERTEX
8
OBJECT__45
10
0
20
0
30
0
70
128
71
37
72
41
73
3
0
VERTEX
8
OBJECT__45
10
0
20
0
30
0
70
128
71
34
72
6
73
19
0
VERTEX
8
OBJECT__45
10
0
20
0
30
0
70
128
71
32
72
35
73
24
0
VERTEX
8
OBJECT__45
10
0
20
0
30
0
70
128
71
24
72
19
73
22
0
VERTEX
8
OBJECT__45
10
0
20
0
30
0
70
128
71
21
72
25
73
19
0
VERTEX
8
OBJECT__45
10
0
20
0
30
0
70
128
71
18
72
20
73
2
0
VERTEX
8
OBJECT__45
10
0
20
0
30
0
70
128
71
15
72
17
73
1
0
VERTEX
8
OBJECT__45
10
0
20
0
30
0
70
128
71
12
72
16
73
4
0
VERTEX
8
OBJECT__45
10
0
20
0
30
0
70
128
71
9
72
13
73
4
0
VERTEX
8
OBJECT__45
10
0
20
0
30
0
70
128
71
8
72
10
73
48
0
VERTEX
8
OBJECT__45
10
0
20
0
30
0
70
128
71
2
72
19
73
6
0
VERTEX
8
OBJECT__45
10
0
20
0
30
0
70
128
71
5
72
7
73
4
0
VERTEX
8
OBJECT__45
10
0
20
0
30
0
70
128
71
3
72
5
73
1
0
SEQEND
8
OBJECT__45
0
POLYLINE
8
OBJECT__46
66
1
70
64
71
16
72
15
62
253
0
VERTEX
8
OBJECT__46
10
72.258003
20
13.305000
30
192.959000
70
192
0
VERTEX
8
OBJECT__46
10
70.917000
20
14.921000
30
194.630997
70
192
0
VERTEX
8
OBJECT__46
10
65.088997
20
21.620001
30
184.830002
70
192
0
VERTEX
8
OBJECT__46
10
66.954002
20
20.235001
30
182.132996
70
192
0
VERTEX
8
OBJECT__46
10
73.093002
20
13.293000
30
192.460999
70
192
0
VERTEX
8
OBJECT__46
10
59.939999
20
29.511999
30
177.587997
70
192
0
VERTEX
8
OBJECT__46
10
59.294998
20
30.539000
30
176.779007
70
192
0
VERTEX
8
OBJECT__46
10
60.395000
20
29.580000
30
174.600998
70
192
0
VERTEX
8
OBJECT__46
10
61.165001
20
29.659000
30
174.067001
70
192
0
VERTEX
8
OBJECT__46
10
65.005997
20
21.749001
30
184.712006
70
192
0
VERTEX
8
OBJECT__46
10
62.702999
20
29.815001
30
172.998993
70
192
0
VERTEX
8
OBJECT__46
10
70.161003
20
21.329000
30
181.084000
70
192
0
VERTEX
8
OBJECT__46
10
74.762001
20
13.271000
30
191.464996
70
192
0
VERTEX
8
OBJECT__46
10
70.636002
20
20.590000
30
181.751999
70
192
0
VERTEX
8
OBJECT__46
10
76.228996
20
14.140000
30
191.074005
70
192
0
VERTEX
8
OBJECT__46
10
64.222000
20
30.563999
30
172.731995
70
192
0
VERTEX
8
OBJECT__46
10
0
20
0
30
0
70
128
71
1
72
2
73
3
0
VERTEX
8
OBJECT__46
10
0
20
0
30
0
70
128
71
4
72
5
73
1
0
VERTEX
8
OBJECT__46
10
0
20
0
30
0
70
128
71
3
72
4
73
1
0
VERTEX
8
OBJECT__46
10
0
20
0
30
0
70
128
71
6
72
7
73
8
0
VERTEX
8
OBJECT__46
10
0
20
0
30
0
70
128
71
8
72
9
73
6
0
VERTEX
8
OBJECT__46
10
0
20
0
30
0
70
128
71
4
72
10
73
6
0
VERTEX
8
OBJECT__46
10
0
20
0
30
0
70
128
71
6
72
9
73
4
0
VERTEX
8
OBJECT__46
10
0
20
0
30
0
70
128
71
4
72
9
73
11
0
VERTEX
8
OBJECT__46
10
0
20
0
30
0
70
128
71
11
72
12
73
4
0
VERTEX
8
OBJECT__46
10
0
20
0
30
0
70
128
71
13
72
4
73
14
0
VERTEX
8
OBJECT__46
10
0
20
0
30
0
70
128
71
14
72
15
73
13
0
VERTEX
8
OBJECT__46
10
0
20
0
30
0
70
128
71
13
72
5
73
4
0
VERTEX
8
OBJECT__46
10
0
20
0
30
0
70
128
71
4
72
12
73
14
0
VERTEX
8
OBJECT__46
10
0
20
0
30
0
70
128
71
11
72
16
73
12
0
VERTEX
8
OBJECT__46
10
0
20
0
30
0
70
128
71
3
72
10
73
4
0
SEQEND
8
OBJECT__46
0
POLYLINE
8
OBJECT__47
66
1
70
64
71
81
72
90
62
253
0
VERTEX
8
OBJECT__47
10
82.537003
20
117.258003
30
198.313995
70
192
0
VERTEX
8
OBJECT__47
10
83.065002
20
120.139000
30
202.748993
70
192
0
VERTEX
8
OBJECT__47
10
87.403000
20
121.233002
30
210.164001
70
192
0
VERTEX
8
OBJECT__47
10
92.494003
20
119.141998
30
215.559006
70
192
0
VERTEX
8
OBJECT__47
10
80.755997
20
118.928001
30
198.804993
70
192
0
VERTEX
8
OBJECT__47
10
82.235001
20
119.930000
30
201.330002
70
192
0
VERTEX
8
OBJECT__47
10
90.102997
20
120.842003
30
214.774994
70
192
0
VERTEX
8
OBJECT__47
10
102.116997
20
113.696999
30
232.227005
70
192
0
VERTEX
8
OBJECT__47
10
97.078003
20
118.223000
30
226.699005
70
192
0
VERTEX
8
OBJECT__47
10
99.500000
20
116.789001
30
230.845001
70
192
0
VERTEX
8
OBJECT__47
10
93.478996
20
120.353996
30
220.539001
70
192
0
VERTEX
8
OBJECT__47
10
91.125000
20
120.695000
30
216.518997
70
192
0
VERTEX
8
OBJECT__47
10
110.105003
20
101.660004
30
246.061996
70
192
0
VERTEX
8
OBJECT__47
10
104.825996
20
110.902000
30
239.996994
70
192
0
VERTEX
8
OBJECT__47
10
109.108002
20
103.495003
30
247.352997
70
192
0
VERTEX
8
OBJECT__47
10
103.553001
20
112.308998
30
237.809006
70
192
0
VERTEX
8
OBJECT__47
10
101.086998
20
115.035004
30
233.572006
70
192
0
VERTEX
8
OBJECT__47
10
115.375000
20
84.661003
30
255.190994
70
192
0
VERTEX
8
OBJECT__47
10
113.198997
20
92.012001
30
254.380005
70
192
0
VERTEX
8
OBJECT__47
10
109.389000
20
102.750000
30
247.837997
70
192
0
VERTEX
8
OBJECT__47
10
112.825996
20
93.662003
30
253.744003
70
192
0
VERTEX
8
OBJECT__47
10
117.214996
20
65.000000
30
258.377014
70
192
0
VERTEX
8
OBJECT__47
10
115.764999
20
78.955002
30
258.735992
70
192
0
VERTEX
8
OBJECT__47
10
116.689003
20
69.917999
30
260.260986
70
192
0
VERTEX
8
OBJECT__47
10
114.753998
20
85.142998
30
257.028992
70
192
0
VERTEX
8
OBJECT__47
10
115.445000
20
82.088997
30
258.207001
70
192
0
VERTEX
8
OBJECT__47
10
115.375000
20
45.339001
30
255.190994
70
192
0
VERTEX
8
OBJECT__47
10
115.746002
20
51.063000
30
258.701996
70
192
0
VERTEX
8
OBJECT__47
10
115.181999
20
46.363998
30
257.765991
70
192
0
VERTEX
8
OBJECT__47
10
116.570000
20
57.926998
30
260.069000
70
192
0
VERTEX
8
OBJECT__47
10
116.799004
20
65.000000
30
260.438995
70
192
0
VERTEX
8
OBJECT__47
10
110.105003
20
28.340000
30
246.061996
70
192
0
VERTEX
8
OBJECT__47
10
113.172997
20
38.018002
30
254.335007
70
192
0
VERTEX
8
OBJECT__47
10
112.552002
20
35.439999
30
253.274994
70
192
0
VERTEX
8
OBJECT__47
10
114.807999
20
44.811001
30
257.127991
70
192
0
VERTEX
8
OBJECT__47
10
109.108002
20
26.504999
30
247.352997
70
192
0
VERTEX
8
OBJECT__47
10
104.765999
20
19.014999
30
239.895004
70
192
0
VERTEX
8
OBJECT__47
10
102.116997
20
16.302999
30
232.227005
70
192
0
VERTEX
8
OBJECT__47
10
109.392998
20
27.245001
30
247.843994
70
192
0
VERTEX
8
OBJECT__47
10
103.556999
20
17.674999
30
237.817001
70
192
0
VERTEX
8
OBJECT__47
10
92.494003
20
10.858000
30
215.559006
70
192
0
VERTEX
8
OBJECT__47
10
97.075996
20
11.783000
30
226.695999
70
192
0
VERTEX
8
OBJECT__47
10
93.587997
20
9.686000
30
220.725006
70
192
0
VERTEX
8
OBJECT__47
10
101.093002
20
14.944000
30
233.582001
70
192
0
VERTEX
8
OBJECT__47
10
99.622002
20
13.314000
30
231.052994
70
192
0
VERTEX
8
OBJECT__47
10
82.537003
20
12.742000
30
198.313995
70
192
0
VERTEX
8
OBJECT__47
10
83.065002
20
9.883000
30
202.750000
70
192
0
VERTEX
8
OBJECT__47
10
82.247002
20
10.065000
30
201.350998
70
192
0
VERTEX
8
OBJECT__47
10
88.245003
20
8.734000
30
211.602005
70
192
0
VERTEX
8
OBJECT__47
10
90.105003
20
9.066000
30
214.776993
70
192
0
VERTEX
8
OBJECT__47
10
91.125000
20
9.247000
30
216.518997
70
192
0
VERTEX
8
OBJECT__47
10
80.755997
20
11.074000
30
198.806000
70
192
0
VERTEX
8
OBJECT__47
10
77.097000
20
14.898000
30
190.992996
70
192
0
VERTEX
8
OBJECT__47
10
78.235001
20
16.024000
30
190.960007
70
192
0
VERTEX
8
OBJECT__47
10
76.228996
20
14.140000
30
191.074005
70
192
0
VERTEX
8
OBJECT__47
10
80.244003
20
18.010000
30
190.901001
70
192
0
VERTEX
8
OBJECT__47
10
84.335999
20
14.897000
30
197.988998
70
192
0
VERTEX
8
OBJECT__47
10
84.638000
20
14.840000
30
198.513000
70
192
0
VERTEX
8
OBJECT__47
10
95.127998
20
13.795000
30
216.681000
70
192
0
VERTEX
8
OBJECT__47
10
93.882004
20
13.090000
30
214.522995
70
192
0
VERTEX
8
OBJECT__47
10
104.938004
20
21.068001
30
233.673004
70
192
0
VERTEX
8
OBJECT__47
10
103.108002
20
18.311001
30
230.503998
70
192
0
VERTEX
8
OBJECT__47
10
112.500999
20
35.445000
30
246.772003
70
192
0
VERTEX
8
OBJECT__47
10
110.765999
20
29.851999
30
243.768997
70
192
0
VERTEX
8
OBJECT__47
10
116.609001
20
54.589001
30
253.888000
70
192
0
VERTEX
8
OBJECT__47
10
115.819000
20
46.150002
30
252.520996
70
192
0
VERTEX
8
OBJECT__47
10
117.583000
20
65.000000
30
255.576004
70
192
0
VERTEX
8
OBJECT__47
10
116.609001
20
75.411003
30
253.888000
70
192
0
VERTEX
8
OBJECT__47
10
115.819000
20
83.849998
30
252.520996
70
192
0
VERTEX
8
OBJECT__47
10
112.500999
20
94.555000
30
246.772003
70
192
0
VERTEX
8
OBJECT__47
10
110.765999
20
100.148003
30
243.768997
70
192
0
VERTEX
8
OBJECT__47
10
104.938004
20
108.931999
30
233.673004
70
192
0
VERTEX
8
OBJECT__47
10
103.108002
20
111.689003
30
230.503998
70
192
0
VERTEX
8
OBJECT__47
10
95.127998
20
116.205002
30
216.681000
70
192
0
VERTEX
8
OBJECT__47
10
93.882004
20
116.910004
30
214.522995
70
192
0
VERTEX
8
OBJECT__47
10
84.638000
20
115.160004
30
198.513000
70
192
0
VERTEX
8
OBJECT__47
10
78.268997
20
114.012001
30
190.921005
70
192
0
VERTEX
8
OBJECT__47
10
84.335999
20
115.102997
30
197.988998
70
192
0
VERTEX
8
OBJECT__47
10
77.097000
20
115.101997
30
190.992996
70
192
0
VERTEX
8
OBJECT__47
10
76.228996
20
115.860001
30
191.074005
70
192
0
VERTEX
8
OBJECT__47
10
80.244003
20
111.989998
30
190.901001
70
192
0
VERTEX
8
OBJECT__47
10
0
20
0
30
0
70
128
71
1
72
2
73
3
0
VERTEX
8
OBJECT__47
10
0
20
0
30
0
70
128
71
3
72
4
73
1
0
VERTEX
8
OBJECT__47
10
0
20
0
30
0
70
128
71
1
72
5
73
6
0
VERTEX
8
OBJECT__47
10
0
20
0
30
0
70
128
71
6
72
2
73
1
0
VERTEX
8
OBJECT__47
10
0
20
0
30
0
70
128
71
3
72
7
73
4
0
VERTEX
8
OBJECT__47
10
0
20
0
30
0
70
128
71
8
72
9
73
10
0
VERTEX
8
OBJECT__47
10
0
20
0
30
0
70
128
71
4
72
11
73
9
0
VERTEX
8
OBJECT__47
10
0
20
0
30
0
70
128
71
4
72
12
73
11
0
VERTEX
8
OBJECT__47
10
0
20
0
30
0
70
128
71
9
72
8
73
4
0
VERTEX
8
OBJECT__47
10
0
20
0
30
0
70
128
71
13
72
8
73
14
0
VERTEX
8
OBJECT__47
10
0
20
0
30
0
70
128
71
14
72
15
73
13
0
VERTEX
8
OBJECT__47
10
0
20
0
30
0
70
128
71
8
72
16
73
14
0
VERTEX
8
OBJECT__47
10
0
20
0
30
0
70
128
71
8
72
17
73
16
0
VERTEX
8
OBJECT__47
10
0
20
0
30
0
70
128
71
18
72
13
73
19
0
VERTEX
8
OBJECT__47
10
0
20
0
30
0
70
128
71
13
72
20
73
21
0
VERTEX
8
OBJECT__47
10
0
20
0
30
0
70
128
71
21
72
19
73
13
0
VERTEX
8
OBJECT__47
10
0
20
0
30
0
70
128
71
22
72
18
73
23
0
VERTEX
8
OBJECT__47
10
0
20
0
30
0
70
128
71
23
72
24
73
22
0
VERTEX
8
OBJECT__47
10
0
20
0
30
0
70
128
71
18
72
25
73
26
0
VERTEX
8
OBJECT__47
10
0
20
0
30
0
70
128
71
26
72
23
73
18
0
VERTEX
8
OBJECT__47
10
0
20
0
30
0
70
128
71
27
72
28
73
29
0
VERTEX
8
OBJECT__47
10
0
20
0
30
0
70
128
71
22
72
30
73
28
0
VERTEX
8
OBJECT__47
10
0
20
0
30
0
70
128
71
22
72
31
73
30
0
VERTEX
8
OBJECT__47
10
0
20
0
30
0
70
128
71
28
72
27
73
22
0
VERTEX
8
OBJECT__47
10
0
20
0
30
0
70
128
71
32
72
33
73
34
0
VERTEX
8
OBJECT__47
10
0
20
0
30
0
70
128
71
27
72
35
73
33
0
VERTEX
8
OBJECT__47
10
0
20
0
30
0
70
128
71
33
72
32
73
27
0
VERTEX
8
OBJECT__47
10
0
20
0
30
0
70
128
71
32
72
36
73
37
0
VERTEX
8
OBJECT__47
10
0
20
0
30
0
70
128
71
37
72
38
73
32
0
VERTEX
8
OBJECT__47
10
0
20
0
30
0
70
128
71
32
72
39
73
36
0
VERTEX
8
OBJECT__47
10
0
20
0
30
0
70
128
71
37
72
40
73
38
0
VERTEX
8
OBJECT__47
10
0
20
0
30
0
70
128
71
41
72
38
73
42
0
VERTEX
8
OBJECT__47
10
0
20
0
30
0
70
128
71
42
72
43
73
41
0
VERTEX
8
OBJECT__47
10
0
20
0
30
0
70
128
71
38
72
44
73
45
0
VERTEX
8
OBJECT__47
10
0
20
0
30
0
70
128
71
45
72
42
73
38
0
VERTEX
8
OBJECT__47
10
0
20
0
30
0
70
128
71
46
72
47
73
48
0
VERTEX
8
OBJECT__47
10
0
20
0
30
0
70
128
71
46
72
41
73
49
0
VERTEX
8
OBJECT__47
10
0
20
0
30
0
70
128
71
41
72
50
73
49
0
VERTEX
8
OBJECT__47
10
0
20
0
30
0
70
128
71
41
72
51
73
50
0
VERTEX
8
OBJECT__47
10
0
20
0
30
0
70
128
71
49
72
47
73
46
0
VERTEX
8
OBJECT__47
10
0
20
0
30
0
70
128
71
52
72
53
73
54
0
VERTEX
8
OBJECT__47
10
0
20
0
30
0
70
128
71
52
72
55
73
53
0
VERTEX
8
OBJECT__47
10
0
20
0
30
0
70
128
71
54
72
56
73
57
0
VERTEX
8
OBJECT__47
10
0
20
0
30
0
70
128
71
41
72
46
73
58
0
VERTEX
8
OBJECT__47
10
0
20
0
30
0
70
128
71
46
72
57
73
58
0
VERTEX
8
OBJECT__47
10
0
20
0
30
0
70
128
71
38
72
41
73
59
0
VERTEX
8
OBJECT__47
10
0
20
0
30
0
70
128
71
41
72
60
73
59
0
VERTEX
8
OBJECT__47
10
0
20
0
30
0
70
128
71
32
72
38
73
61
0
VERTEX
8
OBJECT__47
10
0
20
0
30
0
70
128
71
38
72
62
73
61
0
VERTEX
8
OBJECT__47
10
0
20
0
30
0
70
128
71
27
72
32
73
63
0
VERTEX
8
OBJECT__47
10
0
20
0
30
0
70
128
71
32
72
64
73
63
0
VERTEX
8
OBJECT__47
10
0
20
0
30
0
70
128
71
22
72
27
73
65
0
VERTEX
8
OBJECT__47
10
0
20
0
30
0
70
128
71
27
72
66
73
65
0
VERTEX
8
OBJECT__47
10
0
20
0
30
0
70
128
71
22
72
67
73
68
0
VERTEX
8
OBJECT__47
10
0
20
0
30
0
70
128
71
68
72
18
73
22
0
VERTEX
8
OBJECT__47
10
0
20
0
30
0
70
128
71
18
72
69
73
70
0
VERTEX
8
OBJECT__47
10
0
20
0
30
0
70
128
71
70
72
13
73
18
0
VERTEX
8
OBJECT__47
10
0
20
0
30
0
70
128
71
13
72
71
73
72
0
VERTEX
8
OBJECT__47
10
0
20
0
30
0
70
128
71
72
72
8
73
13
0
VERTEX
8
OBJECT__47
10
0
20
0
30
0
70
128
71
8
72
73
73
74
0
VERTEX
8
OBJECT__47
10
0
20
0
30
0
70
128
71
74
72
4
73
8
0
VERTEX
8
OBJECT__47
10
0
20
0
30
0
70
128
71
4
72
75
73
76
0
VERTEX
8
OBJECT__47
10
0
20
0
30
0
70
128
71
76
72
1
73
4
0
VERTEX
8
OBJECT__47
10
0
20
0
30
0
70
128
71
77
72
1
73
78
0
VERTEX
8
OBJECT__47
10
0
20
0
30
0
70
128
71
79
72
5
73
1
0
VERTEX
8
OBJECT__47
10
0
20
0
30
0
70
128
71
1
72
77
73
79
0
VERTEX
8
OBJECT__47
10
0
20
0
30
0
70
128
71
79
72
80
73
5
0
VERTEX
8
OBJECT__47
10
0
20
0
30
0
70
128
71
78
72
81
73
77
0
VERTEX
8
OBJECT__47
10
0
20
0
30
0
70
128
71
76
72
78
73
1
0
VERTEX
8
OBJECT__47
10
0
20
0
30
0
70
128
71
74
72
75
73
4
0
VERTEX
8
OBJECT__47
10
0
20
0
30
0
70
128
71
72
72
73
73
8
0
VERTEX
8
OBJECT__47
10
0
20
0
30
0
70
128
71
70
72
71
73
13
0
VERTEX
8
OBJECT__47
10
0
20
0
30
0
70
128
71
68
72
69
73
18
0
VERTEX
8
OBJECT__47
10
0
20
0
30
0
70
128
71
65
72
67
73
22
0
VERTEX
8
OBJECT__47
10
0
20
0
30
0
70
128
71
63
72
66
73
27
0
VERTEX
8
OBJECT__47
10
0
20
0
30
0
70
128
71
61
72
64
73
32
0
VERTEX
8
OBJECT__47
10
0
20
0
30
0
70
128
71
59
72
62
73
38
0
VERTEX
8
OBJECT__47
10
0
20
0
30
0
70
128
71
58
72
60
73
41
0
VERTEX
8
OBJECT__47
10
0
20
0
30
0
70
128
71
57
72
46
73
54
0
VERTEX
8
OBJECT__47
10
0
20
0
30
0
70
128
71
54
72
46
73
52
0
VERTEX
8
OBJECT__47
10
0
20
0
30
0
70
128
71
48
72
52
73
46
0
VERTEX
8
OBJECT__47
10
0
20
0
30
0
70
128
71
43
72
51
73
41
0
VERTEX
8
OBJECT__47
10
0
20
0
30
0
70
128
71
40
72
44
73
38
0
VERTEX
8
OBJECT__47
10
0
20
0
30
0
70
128
71
34
72
39
73
32
0
VERTEX
8
OBJECT__47
10
0
20
0
30
0
70
128
71
29
72
35
73
27
0
VERTEX
8
OBJECT__47
10
0
20
0
30
0
70
128
71
24
72
31
73
22
0
VERTEX
8
OBJECT__47
10
0
20
0
30
0
70
128
71
19
72
25
73
18
0
VERTEX
8
OBJECT__47
10
0
20
0
30
0
70
128
71
15
72
20
73
13
0
VERTEX
8
OBJECT__47
10
0
20
0
30
0
70
128
71
10
72
17
73
8
0
VERTEX
8
OBJECT__47
10
0
20
0
30
0
70
128
71
7
72
12
73
4
0
SEQEND
8
OBJECT__47
0
POLYLINE
8
OBJECT__48
66
1
70
64
71
20
72
21
62
253
0
VERTEX
8
OBJECT__48
10
73.140999
20
101.889999
30
178.531006
70
192
0
VERTEX
8
OBJECT__48
10
76.067001
20
106.942001
30
183.626999
70
192
0
VERTEX
8
OBJECT__48
10
76.176003
20
106.693001
30
183.776993
70
192
0
VERTEX
8
OBJECT__48
10
75.992996
20
106.561996
30
183.992004
70
192
0
VERTEX
8
OBJECT__48
10
74.467003
20
103.926003
30
181.332993
70
192
0
VERTEX
8
OBJECT__48
10
73.266998
20
101.670998
30
178.710999
70
192
0
VERTEX
8
OBJECT__48
10
79.329002
20
111.067001
30
189.315994
70
192
0
VERTEX
8
OBJECT__48
10
79.420998
20
110.792000
30
189.431000
70
192
0
VERTEX
8
OBJECT__48
10
79.227997
20
110.649002
30
189.630005
70
192
0
VERTEX
8
OBJECT__48
10
80.244003
20
111.989998
30
190.901001
70
192
0
VERTEX
8
OBJECT__48
10
80.330002
20
111.709999
30
191.007004
70
192
0
VERTEX
8
OBJECT__48
10
80.134003
20
111.563004
30
191.201004
70
192
0
VERTEX
8
OBJECT__48
10
70.566002
20
95.598999
30
174.479996
70
192
0
VERTEX
8
OBJECT__48
10
70.637001
20
95.713997
30
174.257996
70
192
0
VERTEX
8
OBJECT__48
10
73.094002
20
101.556999
30
178.942993
70
192
0
VERTEX
8
OBJECT__48
10
70.523003
20
95.596001
30
174.509003
70
192
0
VERTEX
8
OBJECT__48
10
70.617996
20
95.822998
30
174.098007
70
192
0
VERTEX
8
OBJECT__48
10
70.543999
20
95.876999
30
174.056000
70
192
0
VERTEX
8
OBJECT__48
10
70.627998
20
96.106003
30
174.203003
70
192
0
VERTEX
8
OBJECT__48
10
70.667999
20
95.763000
30
174.162003
70
192
0
VERTEX
8
OBJECT__48
10
0
20
0
30
0
70
128
71
1
72
2
73
3
0
VERTEX
8
OBJECT__48
10
0
20
0
30
0
70
128
71
3
72
4
73
5
0
VERTEX
8
OBJECT__48
10
0
20
0
30
0
70
128
71
5
72
6
73
3
0
VERTEX
8
OBJECT__48
10
0
20
0
30
0
70
128
71
2
72
7
73
8
0
VERTEX
8
OBJECT__48
10
0
20
0
30
0
70
128
71
8
72
9
73
4
0
VERTEX
8
OBJECT__48
10
0
20
0
30
0
70
128
71
7
72
10
73
11
0
VERTEX
8
OBJECT__48
10
0
20
0
30
0
70
128
71
11
72
12
73
9
0
VERTEX
8
OBJECT__48
10
0
20
0
30
0
70
128
71
6
72
13
73
14
0
VERTEX
8
OBJECT__48
10
0
20
0
30
0
70
128
71
13
72
6
73
15
0
VERTEX
8
OBJECT__48
10
0
20
0
30
0
70
128
71
15
72
16
73
13
0
VERTEX
8
OBJECT__48
10
0
20
0
30
0
70
128
71
17
72
18
73
19
0
VERTEX
8
OBJECT__48
10
0
20
0
30
0
70
128
71
1
72
6
73
14
0
VERTEX
8
OBJECT__48
10
0
20
0
30
0
70
128
71
14
72
20
73
1
0
VERTEX
8
OBJECT__48
10
0
20
0
30
0
70
128
71
20
72
17
73
1
0
VERTEX
8
OBJECT__48
10
0
20
0
30
0
70
128
71
19
72
1
73
17
0
VERTEX
8
OBJECT__48
10
0
20
0
30
0
70
128
71
9
72
8
73
11
0
VERTEX
8
OBJECT__48
10
0
20
0
30
0
70
128
71
11
72
8
73
7
0
VERTEX
8
OBJECT__48
10
0
20
0
30
0
70
128
71
4
72
3
73
8
0
VERTEX
8
OBJECT__48
10
0
20
0
30
0
70
128
71
8
72
3
73
2
0
VERTEX
8
OBJECT__48
10
0
20
0
30
0
70
128
71
5
72
15
73
6
0
VERTEX
8
OBJECT__48
10
0
20
0
30
0
70
128
71
3
72
6
73
1
0
SEQEND
8
OBJECT__48
0
POLYLINE
8
OBJECT__49
66
1
70
64
71
46
72
46
62
253
0
VERTEX
8
OBJECT__49
10
95.127998
20
13.795000
30
216.681000
70
192
0
VERTEX
8
OBJECT__49
10
84.693001
20
15.030000
30
198.563995
70
192
0
VERTEX
8
OBJECT__49
10
87.663002
20
14.784000
30
204.242004
70
192
0
VERTEX
8
OBJECT__49
10
84.484001
20
15.187000
30
198.735001
70
192
0
VERTEX
8
OBJECT__49
10
104.938004
20
21.068001
30
233.673004
70
192
0
VERTEX
8
OBJECT__49
10
101.886002
20
18.860001
30
228.876999
70
192
0
VERTEX
8
OBJECT__49
10
94.939003
20
13.863000
30
216.843994
70
192
0
VERTEX
8
OBJECT__49
10
104.797997
20
20.954000
30
233.919006
70
192
0
VERTEX
8
OBJECT__49
10
112.435997
20
35.293999
30
247.149994
70
192
0
VERTEX
8
OBJECT__49
10
113.017998
20
37.021999
30
248.156998
70
192
0
VERTEX
8
OBJECT__49
10
116.598000
20
54.522999
30
254.358002
70
192
0
VERTEX
8
OBJECT__49
10
112.500999
20
35.445000
30
246.772003
70
192
0
VERTEX
8
OBJECT__49
10
116.609001
20
54.589001
30
253.888000
70
192
0
VERTEX
8
OBJECT__49
10
117.135002
20
65.000000
30
255.287994
70
192
0
VERTEX
8
OBJECT__49
10
116.598000
20
75.476997
30
254.358002
70
192
0
VERTEX
8
OBJECT__49
10
112.500999
20
94.555000
30
246.772003
70
192
0
VERTEX
8
OBJECT__49
10
116.609001
20
75.411003
30
253.888000
70
192
0
VERTEX
8
OBJECT__49
10
112.435997
20
94.706001
30
247.149994
70
192
0
VERTEX
8
OBJECT__49
10
104.938004
20
108.931999
30
233.673004
70
192
0
VERTEX
8
OBJECT__49
10
95.127998
20
116.205002
30
216.681000
70
192
0
VERTEX
8
OBJECT__49
10
104.797997
20
109.045998
30
233.919006
70
192
0
VERTEX
8
OBJECT__49
10
101.886002
20
111.139999
30
228.876999
70
192
0
VERTEX
8
OBJECT__49
10
94.939003
20
116.137001
30
216.843994
70
192
0
VERTEX
8
OBJECT__49
10
87.663002
20
115.216003
30
204.242004
70
192
0
VERTEX
8
OBJECT__49
10
84.693001
20
114.970001
30
198.563995
70
192
0
VERTEX
8
OBJECT__49
10
84.484001
20
114.813004
30
198.735001
70
192
0
VERTEX
8
OBJECT__49
10
80.134003
20
111.563004
30
191.201004
70
192
0
VERTEX
8
OBJECT__49
10
80.330002
20
111.709999
30
191.007004
70
192
0
VERTEX
8
OBJECT__49
10
80.244003
20
111.989998
30
190.901001
70
192
0
VERTEX
8
OBJECT__49
10
84.335999
20
115.102997
30
197.988998
70
192
0
VERTEX
8
OBJECT__49
10
84.638000
20
115.160004
30
198.513000
70
192
0
VERTEX
8
OBJECT__49
10
93.882004
20
116.910004
30
214.522995
70
192
0
VERTEX
8
OBJECT__49
10
93.882004
20
13.090000
30
214.522995
70
192
0
VERTEX
8
OBJECT__49
10
80.330002
20
18.290001
30
191.007004
70
192
0
VERTEX
8
OBJECT__49
10
84.335999
20
14.897000
30
197.988998
70
192
0
VERTEX
8
OBJECT__49
10
84.638000
20
14.840000
30
198.513000
70
192
0
VERTEX
8
OBJECT__49
10
80.244003
20
18.010000
30
190.901001
70
192
0
VERTEX
8
OBJECT__49
10
80.134003
20
18.437000
30
191.201004
70
192
0
VERTEX
8
OBJECT__49
10
103.108002
20
18.311001
30
230.503998
70
192
0
VERTEX
8
OBJECT__49
10
110.765999
20
29.851999
30
243.768997
70
192
0
VERTEX
8
OBJECT__49
10
115.819000
20
46.150002
30
252.520996
70
192
0
VERTEX
8
OBJECT__49
10
117.583000
20
65.000000
30
255.576004
70
192
0
VERTEX
8
OBJECT__49
10
115.819000
20
83.849998
30
252.520996
70
192
0
VERTEX
8
OBJECT__49
10
110.765999
20
100.148003
30
243.768997
70
192
0
VERTEX
8
OBJECT__49
10
103.108002
20
111.689003
30
230.503998
70
192
0
VERTEX
8
OBJECT__49
10
113.017998
20
92.977997
30
248.156998
70
192
0
VERTEX
8
OBJECT__49
10
0
20
0
30
0
70
128
71
1
72
2
73
3
0
VERTEX
8
OBJECT__49
10
0
20
0
30
0
70
128
71
2
72
4
73
3
0
VERTEX
8
OBJECT__49
10
0
20
0
30
0
70
128
71
5
72
1
73
6
0
VERTEX
8
OBJECT__49
10
0
20
0
30
0
70
128
71
1
72
7
73
6
0
VERTEX
8
OBJECT__49
10
0
20
0
30
0
70
128
71
5
72
8
73
9
0
VERTEX
8
OBJECT__49
10
0
20
0
30
0
70
128
71
9
72
10
73
11
0
VERTEX
8
OBJECT__49
10
0
20
0
30
0
70
128
71
11
72
12
73
9
0
VERTEX
8
OBJECT__49
10
0
20
0
30
0
70
128
71
13
72
11
73
14
0
VERTEX
8
OBJECT__49
10
0
20
0
30
0
70
128
71
14
72
15
73
13
0
VERTEX
8
OBJECT__49
10
0
20
0
30
0
70
128
71
16
72
17
73
15
0
VERTEX
8
OBJECT__49
10
0
20
0
30
0
70
128
71
15
72
18
73
16
0
VERTEX
8
OBJECT__49
10
0
20
0
30
0
70
128
71
19
72
16
73
18
0
VERTEX
8
OBJECT__49
10
0
20
0
30
0
70
128
71
20
72
19
73
21
0
VERTEX
8
OBJECT__49
10
0
20
0
30
0
70
128
71
21
72
22
73
20
0
VERTEX
8
OBJECT__49
10
0
20
0
30
0
70
128
71
20
72
23
73
24
0
VERTEX
8
OBJECT__49
10
0
20
0
30
0
70
128
71
24
72
25
73
20
0
VERTEX
8
OBJECT__49
10
0
20
0
30
0
70
128
71
25
72
26
73
27
0
VERTEX
8
OBJECT__49
10
0
20
0
30
0
70
128
71
28
72
29
73
30
0
VERTEX
8
OBJECT__49
10
0
20
0
30
0
70
128
71
30
72
25
73
28
0
VERTEX
8
OBJECT__49
10
0
20
0
30
0
70
128
71
25
72
31
73
32
0
VERTEX
8
OBJECT__49
10
0
20
0
30
0
70
128
71
2
72
1
73
33
0
VERTEX
8
OBJECT__49
10
0
20
0
30
0
70
128
71
34
72
2
73
35
0
VERTEX
8
OBJECT__49
10
0
20
0
30
0
70
128
71
2
72
36
73
35
0
VERTEX
8
OBJECT__49
10
0
20
0
30
0
70
128
71
35
72
37
73
34
0
VERTEX
8
OBJECT__49
10
0
20
0
30
0
70
128
71
34
72
38
73
4
0
VERTEX
8
OBJECT__49
10
0
20
0
30
0
70
128
71
4
72
2
73
34
0
VERTEX
8
OBJECT__49
10
0
20
0
30
0
70
128
71
33
72
36
73
2
0
VERTEX
8
OBJECT__49
10
0
20
0
30
0
70
128
71
1
72
5
73
39
0
VERTEX
8
OBJECT__49
10
0
20
0
30
0
70
128
71
5
72
12
73
40
0
VERTEX
8
OBJECT__49
10
0
20
0
30
0
70
128
71
12
72
13
73
41
0
VERTEX
8
OBJECT__49
10
0
20
0
30
0
70
128
71
13
72
17
73
42
0
VERTEX
8
OBJECT__49
10
0
20
0
30
0
70
128
71
17
72
16
73
43
0
VERTEX
8
OBJECT__49
10
0
20
0
30
0
70
128
71
16
72
19
73
44
0
VERTEX
8
OBJECT__49
10
0
20
0
30
0
70
128
71
19
72
20
73
45
0
VERTEX
8
OBJECT__49
10
0
20
0
30
0
70
128
71
32
72
20
73
25
0
VERTEX
8
OBJECT__49
10
0
20
0
30
0
70
128
71
30
72
31
73
25
0
VERTEX
8
OBJECT__49
10
0
20
0
30
0
70
128
71
27
72
28
73
25
0
VERTEX
8
OBJECT__49
10
0
20
0
30
0
70
128
71
24
72
26
73
25
0
VERTEX
8
OBJECT__49
10
0
20
0
30
0
70
128
71
22
72
23
73
20
0
VERTEX
8
OBJECT__49
10
0
20
0
30
0
70
128
71
18
72
21
73
19
0
VERTEX
8
OBJECT__49
10
0
20
0
30
0
70
128
71
15
72
46
73
18
0
VERTEX
8
OBJECT__49
10
0
20
0
30
0
70
128
71
15
72
17
73
13
0
VERTEX
8
OBJECT__49
10
0
20
0
30
0
70
128
71
11
72
13
73
12
0
VERTEX
8
OBJECT__49
10
0
20
0
30
0
70
128
71
9
72
12
73
5
0
VERTEX
8
OBJECT__49
10
0
20
0
30
0
70
128
71
6
72
8
73
5
0
VERTEX
8
OBJECT__49
10
0
20
0
30
0
70
128
71
3
72
7
73
1
0
SEQEND
8
OBJECT__49
0
POLYLINE
8
OBJECT__50
66
1
70
64
71
11
72
9
62
253
0
VERTEX
8
OBJECT__50
10
79.329002
20
18.933001
30
189.315994
70
192
0
VERTEX
8
OBJECT__50
10
78.235001
20
16.024000
30
190.960007
70
192
0
VERTEX
8
OBJECT__50
10
77.097000
20
14.898000
30
190.992996
70
192
0
VERTEX
8
OBJECT__50
10
80.244003
20
18.010000
30
190.901001
70
192
0
VERTEX
8
OBJECT__50
10
70.636002
20
20.590000
30
181.751999
70
192
0
VERTEX
8
OBJECT__50
10
76.067001
20
23.058001
30
183.626999
70
192
0
VERTEX
8
OBJECT__50
10
76.228996
20
14.140000
30
191.074005
70
192
0
VERTEX
8
OBJECT__50
10
70.161003
20
21.329000
30
181.084000
70
192
0
VERTEX
8
OBJECT__50
10
64.222000
20
30.563999
30
172.731995
70
192
0
VERTEX
8
OBJECT__50
10
70.627998
20
33.894001
30
174.203003
70
192
0
VERTEX
8
OBJECT__50
10
73.140999
20
28.110001
30
178.531006
70
192
0
VERTEX
8
OBJECT__50
10
0
20
0
30
0
70
128
71
1
72
2
73
3
0
VERTEX
8
OBJECT__50
10
0
20
0
30
0
70
128
71
1
72
4
73
2
0
VERTEX
8
OBJECT__50
10
0
20
0
30
0
70
128
71
5
72
6
73
1
0
VERTEX
8
OBJECT__50
10
0
20
0
30
0
70
128
71
1
72
7
73
5
0
VERTEX
8
OBJECT__50
10
0
20
0
30
0
70
128
71
6
72
5
73
8
0
VERTEX
8
OBJECT__50
10
0
20
0
30
0
70
128
71
9
72
10
73
11
0
VERTEX
8
OBJECT__50
10
0
20
0
30
0
70
128
71
11
72
8
73
9
0
VERTEX
8
OBJECT__50
10
0
20
0
30
0
70
128
71
8
72
11
73
6
0
VERTEX
8
OBJECT__50
10
0
20
0
30
0
70
128
71
3
72
7
73
1
0
SEQEND
8
OBJECT__50
0
POLYLINE
8
OBJECT__51
66
1
70
64
71
54
72
62
62
253
0
VERTEX
8
OBJECT__51
10
59.695999
20
54.719002
30
153.304993
70
192
0
VERTEX
8
OBJECT__51
10
57.536999
20
49.421001
30
154.375000
70
192
0
VERTEX
8
OBJECT__51
10
54.449001
20
50.992001
30
139.156998
70
192
0
VERTEX
8
OBJECT__51
10
64.550003
20
52.182999
30
164.559006
70
192
0
VERTEX
8
OBJECT__51
10
63.090000
20
45.175999
30
165.156006
70
192
0
VERTEX
8
OBJECT__51
10
52.208000
20
51.340000
30
118.542000
70
192
0
VERTEX
8
OBJECT__51
10
55.452000
20
55.785000
30
117.779999
70
192
0
VERTEX
8
OBJECT__51
10
57.109001
20
55.577000
30
138.089005
70
192
0
VERTEX
8
OBJECT__51
10
55.473000
20
42.875999
30
160.485992
70
192
0
VERTEX
8
OBJECT__51
10
57.518002
20
40.398998
30
164.485992
70
192
0
VERTEX
8
OBJECT__51
10
54.263000
20
44.341999
30
158.117996
70
192
0
VERTEX
8
OBJECT__51
10
59.272999
20
37.852001
30
166.675003
70
192
0
VERTEX
8
OBJECT__51
10
51.610001
20
46.828999
30
148.828003
70
192
0
VERTEX
8
OBJECT__51
10
52.508999
20
45.986000
30
151.975006
70
192
0
VERTEX
8
OBJECT__51
10
50.723999
20
47.395000
30
142.811005
70
192
0
VERTEX
8
OBJECT__51
10
53.730999
20
44.841000
30
156.253998
70
192
0
VERTEX
8
OBJECT__51
10
49.854000
20
47.951000
30
136.906006
70
192
0
VERTEX
8
OBJECT__51
10
48.629002
20
48.794998
30
119.792000
70
192
0
VERTEX
8
OBJECT__51
10
50.431999
20
47.582001
30
140.826996
70
192
0
VERTEX
8
OBJECT__51
10
48.647999
20
49.620998
30
104.060997
70
192
0
VERTEX
8
OBJECT__51
10
48.680000
20
50.970001
30
78.356003
70
192
0
VERTEX
8
OBJECT__51
10
53.334000
20
55.612000
30
69.621002
70
192
0
VERTEX
8
OBJECT__51
10
48.903000
20
51.341000
30
69.776001
70
192
0
VERTEX
8
OBJECT__51
10
52.297001
20
55.395000
30
26.997000
70
192
0
VERTEX
8
OBJECT__51
10
49.548000
20
52.402000
30
45.372002
70
192
0
VERTEX
8
OBJECT__51
10
49.028000
20
51.548000
30
64.966003
70
192
0
VERTEX
8
OBJECT__51
10
49.535000
20
52.389000
30
45.490002
70
192
0
VERTEX
8
OBJECT__51
10
55.943001
20
63.624001
30
27.004999
70
192
0
VERTEX
8
OBJECT__51
10
56.007000
20
65.000000
30
27.004999
70
192
0
VERTEX
8
OBJECT__51
10
56.250000
20
65.000000
30
51.960999
70
192
0
VERTEX
8
OBJECT__51
10
54.555000
20
58.603001
30
27.002001
70
192
0
VERTEX
8
OBJECT__51
10
57.826000
20
65.000000
30
117.200996
70
192
0
VERTEX
8
OBJECT__51
10
57.833000
20
65.000000
30
117.523003
70
192
0
VERTEX
8
OBJECT__51
10
59.398998
20
65.000000
30
137.220001
70
192
0
VERTEX
8
OBJECT__51
10
59.976002
20
65.000000
30
144.479996
70
192
0
VERTEX
8
OBJECT__51
10
62.033001
20
65.000000
30
156.067993
70
192
0
VERTEX
8
OBJECT__51
10
61.387001
20
65.000000
30
152.425003
70
192
0
VERTEX
8
OBJECT__51
10
63.830002
20
65.000000
30
162.186005
70
192
0
VERTEX
8
OBJECT__51
10
65.737999
20
65.000000
30
165.253006
70
192
0
VERTEX
8
OBJECT__51
10
66.600998
20
51.344002
30
166.834000
70
192
0
VERTEX
8
OBJECT__51
10
64.950996
20
65.000000
30
164.087006
70
192
0
VERTEX
8
OBJECT__51
10
65.452003
20
65.000000
30
164.934998
70
192
0
VERTEX
8
OBJECT__51
10
66.606003
20
51.257999
30
166.843994
70
192
0
VERTEX
8
OBJECT__51
10
67.842003
20
44.877998
30
169.179993
70
192
0
VERTEX
8
OBJECT__51
10
70.543999
20
34.123001
30
174.056000
70
192
0
VERTEX
8
OBJECT__51
10
64.222000
20
30.563999
30
172.731995
70
192
0
VERTEX
8
OBJECT__51
10
62.966000
20
32.493999
30
171.281998
70
192
0
VERTEX
8
OBJECT__51
10
69.021004
20
38.793999
30
171.408005
70
192
0
VERTEX
8
OBJECT__51
10
59.653999
20
37.299000
30
167.151001
70
192
0
VERTEX
8
OBJECT__51
10
67.375000
20
41.380001
30
169.585007
70
192
0
VERTEX
8
OBJECT__51
10
68.712997
20
40.381001
30
170.826996
70
192
0
VERTEX
8
OBJECT__51
10
70.627998
20
33.894001
30
174.203003
70
192
0
VERTEX
8
OBJECT__51
10
51.590000
20
54.390999
30
26.996000
70
192
0
VERTEX
8
OBJECT__51
10
48.629002
20
48.813999
30
119.433998
70
192
0
VERTEX
8
OBJECT__51
10
0
20
0
30
0
70
128
71
1
72
2
73
3
0
VERTEX
8
OBJECT__51
10
0
20
0
30
0
70
128
71
4
72
5
73
2
0
VERTEX
8
OBJECT__51
10
0
20
0
30
0
70
128
71
6
72
7
73
8
0
VERTEX
8
OBJECT__51
10
0
20
0
30
0
70
128
71
2
72
5
73
9
0
VERTEX
8
OBJECT__51
10
0
20
0
30
0
70
128
71
5
72
10
73
9
0
VERTEX
8
OBJECT__51
10
0
20
0
30
0
70
128
71
9
72
11
73
2
0
VERTEX
8
OBJECT__51
10
0
20
0
30
0
70
128
71
5
72
12
73
10
0
VERTEX
8
OBJECT__51
10
0
20
0
30
0
70
128
71
3
72
2
73
13
0
VERTEX
8
OBJECT__51
10
0
20
0
30
0
70
128
71
2
72
14
73
13
0
VERTEX
8
OBJECT__51
10
0
20
0
30
0
70
128
71
13
72
15
73
3
0
VERTEX
8
OBJECT__51
10
0
20
0
30
0
70
128
71
2
72
16
73
14
0
VERTEX
8
OBJECT__51
10
0
20
0
30
0
70
128
71
6
72
3
73
17
0
VERTEX
8
OBJECT__51
10
0
20
0
30
0
70
128
71
17
72
18
73
6
0
VERTEX
8
OBJECT__51
10
0
20
0
30
0
70
128
71
3
72
19
73
17
0
VERTEX
8
OBJECT__51
10
0
20
0
30
0
70
128
71
7
72
20
73
21
0
VERTEX
8
OBJECT__51
10
0
20
0
30
0
70
128
71
7
72
6
73
20
0
VERTEX
8
OBJECT__51
10
0
20
0
30
0
70
128
71
21
72
22
73
7
0
VERTEX
8
OBJECT__51
10
0
20
0
30
0
70
128
71
21
72
23
73
22
0
VERTEX
8
OBJECT__51
10
0
20
0
30
0
70
128
71
24
72
22
73
25
0
VERTEX
8
OBJECT__51
10
0
20
0
30
0
70
128
71
22
72
26
73
27
0
VERTEX
8
OBJECT__51
10
0
20
0
30
0
70
128
71
27
72
25
73
22
0
VERTEX
8
OBJECT__51
10
0
20
0
30
0
70
128
71
22
72
23
73
26
0
VERTEX
8
OBJECT__51
10
0
20
0
30
0
70
128
71
28
72
29
73
30
0
VERTEX
8
OBJECT__51
10
0
20
0
30
0
70
128
71
31
72
28
73
32
0
VERTEX
8
OBJECT__51
10
0
20
0
30
0
70
128
71
32
72
7
73
31
0
VERTEX
8
OBJECT__51
10
0
20
0
30
0
70
128
71
31
72
7
73
22
0
VERTEX
8
OBJECT__51
10
0
20
0
30
0
70
128
71
22
72
24
73
31
0
VERTEX
8
OBJECT__51
10
0
20
0
30
0
70
128
71
7
72
33
73
34
0
VERTEX
8
OBJECT__51
10
0
20
0
30
0
70
128
71
7
72
32
73
33
0
VERTEX
8
OBJECT__51
10
0
20
0
30
0
70
128
71
1
72
8
73
35
0
VERTEX
8
OBJECT__51
10
0
20
0
30
0
70
128
71
8
72
34
73
35
0
VERTEX
8
OBJECT__51
10
0
20
0
30
0
70
128
71
4
72
1
73
36
0
VERTEX
8
OBJECT__51
10
0
20
0
30
0
70
128
71
1
72
37
73
36
0
VERTEX
8
OBJECT__51
10
0
20
0
30
0
70
128
71
36
72
38
73
4
0
VERTEX
8
OBJECT__51
10
0
20
0
30
0
70
128
71
39
72
40
73
4
0
VERTEX
8
OBJECT__51
10
0
20
0
30
0
70
128
71
4
72
41
73
42
0
VERTEX
8
OBJECT__51
10
0
20
0
30
0
70
128
71
5
72
4
73
43
0
VERTEX
8
OBJECT__51
10
0
20
0
30
0
70
128
71
43
72
44
73
5
0
VERTEX
8
OBJECT__51
10
0
20
0
30
0
70
128
71
4
72
40
73
43
0
VERTEX
8
OBJECT__51
10
0
20
0
30
0
70
128
71
45
72
46
73
47
0
VERTEX
8
OBJECT__51
10
0
20
0
30
0
70
128
71
47
72
48
73
45
0
VERTEX
8
OBJECT__51
10
0
20
0
30
0
70
128
71
47
72
49
73
48
0
VERTEX
8
OBJECT__51
10
0
20
0
30
0
70
128
71
49
72
50
73
51
0
VERTEX
8
OBJECT__51
10
0
20
0
30
0
70
128
71
50
72
49
73
12
0
VERTEX
8
OBJECT__51
10
0
20
0
30
0
70
128
71
12
72
5
73
50
0
VERTEX
8
OBJECT__51
10
0
20
0
30
0
70
128
71
51
72
48
73
49
0
VERTEX
8
OBJECT__51
10
0
20
0
30
0
70
128
71
45
72
52
73
46
0
VERTEX
8
OBJECT__51
10
0
20
0
30
0
70
128
71
51
72
50
73
44
0
VERTEX
8
OBJECT__51
10
0
20
0
30
0
70
128
71
44
72
50
73
5
0
VERTEX
8
OBJECT__51
10
0
20
0
30
0
70
128
71
4
72
42
73
39
0
VERTEX
8
OBJECT__51
10
0
20
0
30
0
70
128
71
38
72
41
73
4
0
VERTEX
8
OBJECT__51
10
0
20
0
30
0
70
128
71
35
72
37
73
1
0
VERTEX
8
OBJECT__51
10
0
20
0
30
0
70
128
71
34
72
8
73
7
0
VERTEX
8
OBJECT__51
10
0
20
0
30
0
70
128
71
30
72
32
73
28
0
VERTEX
8
OBJECT__51
10
0
20
0
30
0
70
128
71
25
72
53
73
24
0
VERTEX
8
OBJECT__51
10
0
20
0
30
0
70
128
71
6
72
54
73
20
0
VERTEX
8
OBJECT__51
10
0
20
0
30
0
70
128
71
18
72
54
73
6
0
VERTEX
8
OBJECT__51
10
0
20
0
30
0
70
128
71
15
72
19
73
3
0
VERTEX
8
OBJECT__51
10
0
20
0
30
0
70
128
71
11
72
16
73
2
0
VERTEX
8
OBJECT__51
10
0
20
0
30
0
70
128
71
8
72
3
73
6
0
VERTEX
8
OBJECT__51
10
0
20
0
30
0
70
128
71
2
72
1
73
4
0
VERTEX
8
OBJECT__51
10
0
20
0
30
0
70
128
71
3
72
8
73
1
0
SEQEND
8
OBJECT__51
0
POLYLINE
8
OBJECT__52
66
1
70
64
71
20
72
21
62
253
0
VERTEX
8
OBJECT__52
10
76.176003
20
23.306999
30
183.776993
70
192
0
VERTEX
8
OBJECT__52
10
73.266998
20
28.329000
30
178.710999
70
192
0
VERTEX
8
OBJECT__52
10
74.467003
20
26.073999
30
181.332993
70
192
0
VERTEX
8
OBJECT__52
10
73.094002
20
28.443001
30
178.942993
70
192
0
VERTEX
8
OBJECT__52
10
73.140999
20
28.110001
30
178.531006
70
192
0
VERTEX
8
OBJECT__52
10
79.420998
20
19.208000
30
189.431000
70
192
0
VERTEX
8
OBJECT__52
10
75.992996
20
23.438000
30
183.992004
70
192
0
VERTEX
8
OBJECT__52
10
76.067001
20
23.058001
30
183.626999
70
192
0
VERTEX
8
OBJECT__52
10
80.330002
20
18.290001
30
191.007004
70
192
0
VERTEX
8
OBJECT__52
10
79.227997
20
19.351000
30
189.630005
70
192
0
VERTEX
8
OBJECT__52
10
80.134003
20
18.437000
30
191.201004
70
192
0
VERTEX
8
OBJECT__52
10
79.329002
20
18.933001
30
189.315994
70
192
0
VERTEX
8
OBJECT__52
10
70.667999
20
34.237000
30
174.162003
70
192
0
VERTEX
8
OBJECT__52
10
70.637001
20
34.285999
30
174.257996
70
192
0
VERTEX
8
OBJECT__52
10
70.617996
20
34.176998
30
174.098007
70
192
0
VERTEX
8
OBJECT__52
10
70.627998
20
33.894001
30
174.203003
70
192
0
VERTEX
8
OBJECT__52
10
70.543999
20
34.123001
30
174.056000
70
192
0
VERTEX
8
OBJECT__52
10
70.566002
20
34.401001
30
174.479996
70
192
0
VERTEX
8
OBJECT__52
10
70.523003
20
34.403999
30
174.509003
70
192
0
VERTEX
8
OBJECT__52
10
80.244003
20
18.010000
30
190.901001
70
192
0
VERTEX
8
OBJECT__52
10
0
20
0
30
0
70
128
71
1
72
2
73
3
0
VERTEX
8
OBJECT__52
10
0
20
0
30
0
70
128
71
2
72
4
73
3
0
VERTEX
8
OBJECT__52
10
0
20
0
30
0
70
128
71
5
72
2
73
1
0
VERTEX
8
OBJECT__52
10
0
20
0
30
0
70
128
71
6
72
1
73
7
0
VERTEX
8
OBJECT__52
10
0
20
0
30
0
70
128
71
8
72
1
73
6
0
VERTEX
8
OBJECT__52
10
0
20
0
30
0
70
128
71
9
72
6
73
10
0
VERTEX
8
OBJECT__52
10
0
20
0
30
0
70
128
71
10
72
11
73
9
0
VERTEX
8
OBJECT__52
10
0
20
0
30
0
70
128
71
12
72
6
73
9
0
VERTEX
8
OBJECT__52
10
0
20
0
30
0
70
128
71
5
72
13
73
14
0
VERTEX
8
OBJECT__52
10
0
20
0
30
0
70
128
71
5
72
15
73
13
0
VERTEX
8
OBJECT__52
10
0
20
0
30
0
70
128
71
15
72
5
73
16
0
VERTEX
8
OBJECT__52
10
0
20
0
30
0
70
128
71
16
72
17
73
15
0
VERTEX
8
OBJECT__52
10
0
20
0
30
0
70
128
71
18
72
19
73
4
0
VERTEX
8
OBJECT__52
10
0
20
0
30
0
70
128
71
14
72
18
73
2
0
VERTEX
8
OBJECT__52
10
0
20
0
30
0
70
128
71
4
72
2
73
18
0
VERTEX
8
OBJECT__52
10
0
20
0
30
0
70
128
71
14
72
2
73
5
0
VERTEX
8
OBJECT__52
10
0
20
0
30
0
70
128
71
9
72
20
73
12
0
VERTEX
8
OBJECT__52
10
0
20
0
30
0
70
128
71
6
72
12
73
8
0
VERTEX
8
OBJECT__52
10
0
20
0
30
0
70
128
71
7
72
10
73
6
0
VERTEX
8
OBJECT__52
10
0
20
0
30
0
70
128
71
1
72
8
73
5
0
VERTEX
8
OBJECT__52
10
0
20
0
30
0
70
128
71
3
72
7
73
1
0
SEQEND
8
OBJECT__52
0
POLYLINE
8
OBJECT__53
66
1
70
64
71
19
72
19
62
253
0
VERTEX
8
OBJECT__53
10
69.167000
20
91.051003
30
171.630997
70
192
0
VERTEX
8
OBJECT__53
10
69.005997
20
90.970001
30
171.882004
70
192
0
VERTEX
8
OBJECT__53
10
66.732002
20
79.507004
30
167.645996
70
192
0
VERTEX
8
OBJECT__53
10
66.709999
20
78.668999
30
167.091995
70
192
0
VERTEX
8
OBJECT__53
10
67.842003
20
85.122002
30
169.179993
70
192
0
VERTEX
8
OBJECT__53
10
68.712997
20
89.619003
30
170.826996
70
192
0
VERTEX
8
OBJECT__53
10
66.606003
20
78.741997
30
166.843994
70
192
0
VERTEX
8
OBJECT__53
10
65.817001
20
65.000000
30
165.503006
70
192
0
VERTEX
8
OBJECT__53
10
66.557999
20
78.632004
30
167.322998
70
192
0
VERTEX
8
OBJECT__53
10
65.737999
20
65.000000
30
165.253006
70
192
0
VERTEX
8
OBJECT__53
10
66.600998
20
78.655998
30
166.834000
70
192
0
VERTEX
8
OBJECT__53
10
69.021004
20
91.206001
30
171.408005
70
192
0
VERTEX
8
OBJECT__53
10
70.637001
20
95.713997
30
174.257996
70
192
0
VERTEX
8
OBJECT__53
10
70.617996
20
95.822998
30
174.098007
70
192
0
VERTEX
8
OBJECT__53
10
70.667999
20
95.763000
30
174.162003
70
192
0
VERTEX
8
OBJECT__53
10
70.543999
20
95.876999
30
174.056000
70
192
0
VERTEX
8
OBJECT__53
10
70.566002
20
95.598999
30
174.479996
70
192
0
VERTEX
8
OBJECT__53
10
70.523003
20
95.596001
30
174.509003
70
192
0
VERTEX
8
OBJECT__53
10
65.670998
20
65.000000
30
165.720001
70
192
0
VERTEX
8
OBJECT__53
10
0
20
0
30
0
70
128
71
1
72
2
73
3
0
VERTEX
8
OBJECT__53
10
0
20
0
30
0
70
128
71
3
72
4
73
1
0
VERTEX
8
OBJECT__53
10
0
20
0
30
0
70
128
71
1
72
5
73
6
0
VERTEX
8
OBJECT__53
10
0
20
0
30
0
70
128
71
4
72
7
73
5
0
VERTEX
8
OBJECT__53
10
0
20
0
30
0
70
128
71
5
72
1
73
4
0
VERTEX
8
OBJECT__53
10
0
20
0
30
0
70
128
71
8
72
4
73
9
0
VERTEX
8
OBJECT__53
10
0
20
0
30
0
70
128
71
8
72
10
73
11
0
VERTEX
8
OBJECT__53
10
0
20
0
30
0
70
128
71
11
72
4
73
8
0
VERTEX
8
OBJECT__53
10
0
20
0
30
0
70
128
71
12
72
14
73
15
0
VERTEX
8
OBJECT__53
10
0
20
0
30
0
70
128
71
12
72
16
73
14
0
VERTEX
8
OBJECT__53
10
0
20
0
30
0
70
128
71
15
72
13
73
12
0
VERTEX
8
OBJECT__53
10
0
20
0
30
0
70
128
71
2
72
1
73
17
0
VERTEX
8
OBJECT__53
10
0
20
0
30
0
70
128
71
1
72
13
73
17
0
VERTEX
8
OBJECT__53
10
0
20
0
30
0
70
128
71
17
72
18
73
2
0
VERTEX
8
OBJECT__53
10
0
20
0
30
0
70
128
71
13
72
1
73
12
0
VERTEX
8
OBJECT__53
10
0
20
0
30
0
70
128
71
11
72
7
73
4
0
VERTEX
8
OBJECT__53
10
0
20
0
30
0
70
128
71
9
72
19
73
8
0
VERTEX
8
OBJECT__53
10
0
20
0
30
0
70
128
71
6
72
12
73
1
0
VERTEX
8
OBJECT__53
10
0
20
0
30
0
70
128
71
3
72
9
73
4
0
SEQEND
8
OBJECT__53
0
POLYLINE
8
OBJECT__54
66
1
70
64
71
19
72
19
62
253
0
VERTEX
8
OBJECT__54
10
66.709999
20
51.331001
30
167.091995
70
192
0
VERTEX
8
OBJECT__54
10
69.167000
20
38.949001
30
171.630997
70
192
0
VERTEX
8
OBJECT__54
10
67.842003
20
44.877998
30
169.179993
70
192
0
VERTEX
8
OBJECT__54
10
69.021004
20
38.793999
30
171.408005
70
192
0
VERTEX
8
OBJECT__54
10
68.712997
20
40.381001
30
170.826996
70
192
0
VERTEX
8
OBJECT__54
10
66.732002
20
50.493000
30
167.645996
70
192
0
VERTEX
8
OBJECT__54
10
66.557999
20
51.368000
30
167.322998
70
192
0
VERTEX
8
OBJECT__54
10
65.817001
20
65.000000
30
165.503006
70
192
0
VERTEX
8
OBJECT__54
10
66.600998
20
51.344002
30
166.834000
70
192
0
VERTEX
8
OBJECT__54
10
66.606003
20
51.257999
30
166.843994
70
192
0
VERTEX
8
OBJECT__54
10
65.670998
20
65.000000
30
165.720001
70
192
0
VERTEX
8
OBJECT__54
10
69.005997
20
39.029999
30
171.882004
70
192
0
VERTEX
8
OBJECT__54
10
70.523003
20
34.403999
30
174.509003
70
192
0
VERTEX
8
OBJECT__54
10
70.566002
20
34.401001
30
174.479996
70
192
0
VERTEX
8
OBJECT__54
10
70.637001
20
34.285999
30
174.257996
70
192
0
VERTEX
8
OBJECT__54
10
70.667999
20
34.237000
30
174.162003
70
192
0
VERTEX
8
OBJECT__54
10
70.617996
20
34.176998
30
174.098007
70
192
0
VERTEX
8
OBJECT__54
10
70.543999
20
34.123001
30
174.056000
70
192
0
VERTEX
8
OBJECT__54
10
65.737999
20
65.000000
30
165.253006
70
192
0
VERTEX
8
OBJECT__54
10
0
20
0
30
0
70
128
71
1
72
2
73
3
0
VERTEX
8
OBJECT__54
10
0
20
0
30
0
70
128
71
2
72
4
73
5
0
VERTEX
8
OBJECT__54
10
0
20
0
30
0
70
128
71
5
72
3
73
2
0
VERTEX
8
OBJECT__54
10
0
20
0
30
0
70
128
71
2
72
1
73
6
0
VERTEX
8
OBJECT__54
10
0
20
0
30
0
70
128
71
1
72
7
73
6
0
VERTEX
8
OBJECT__54
10
0
20
0
30
0
70
128
71
8
72
1
73
9
0
VERTEX
8
OBJECT__54
10
0
20
0
30
0
70
128
71
1
72
10
73
9
0
VERTEX
8
OBJECT__54
10
0
20
0
30
0
70
128
71
8
72
11
73
7
0
VERTEX
8
OBJECT__54
10
0
20
0
30
0
70
128
71
12
72
13
73
14
0
VERTEX
8
OBJECT__54
10
0
20
0
30
0
70
128
71
14
72
2
73
12
0
VERTEX
8
OBJECT__54
10
0
20
0
30
0
70
128
71
4
72
15
73
16
0
VERTEX
8
OBJECT__54
10
0
20
0
30
0
70
128
71
16
72
17
73
4
0
VERTEX
8
OBJECT__54
10
0
20
0
30
0
70
128
71
4
72
2
73
15
0
VERTEX
8
OBJECT__54
10
0
20
0
30
0
70
128
71
17
72
18
73
4
0
VERTEX
8
OBJECT__54
10
0
20
0
30
0
70
128
71
14
72
15
73
2
0
VERTEX
8
OBJECT__54
10
0
20
0
30
0
70
128
71
7
72
1
73
8
0
VERTEX
8
OBJECT__54
10
0
20
0
30
0
70
128
71
9
72
19
73
8
0
VERTEX
8
OBJECT__54
10
0
20
0
30
0
70
128
71
6
72
12
73
2
0
VERTEX
8
OBJECT__54
10
0
20
0
30
0
70
128
71
3
72
10
73
1
0
SEQEND
8
OBJECT__54
0
POLYLINE
8
OBJECT__55
66
1
70
64
71
62
72
62
62
253
0
VERTEX
8
OBJECT__55
10
64.275002
20
65.000000
30
166.526001
70
192
0
VERTEX
8
OBJECT__55
10
65.800003
20
50.652000
30
169.167007
70
192
0
VERTEX
8
OBJECT__55
10
66.557999
20
51.368000
30
167.322998
70
192
0
VERTEX
8
OBJECT__55
10
66.732002
20
50.493000
30
167.645996
70
192
0
VERTEX
8
OBJECT__55
10
65.670998
20
65.000000
30
165.720001
70
192
0
VERTEX
8
OBJECT__55
10
66.557999
20
78.632004
30
167.322998
70
192
0
VERTEX
8
OBJECT__55
10
65.800003
20
79.348000
30
169.167007
70
192
0
VERTEX
8
OBJECT__55
10
66.732002
20
79.507004
30
167.645996
70
192
0
VERTEX
8
OBJECT__55
10
74.467003
20
103.926003
30
181.332993
70
192
0
VERTEX
8
OBJECT__55
10
73.237000
20
103.864998
30
182.048004
70
192
0
VERTEX
8
OBJECT__55
10
72.820000
20
103.383003
30
181.326004
70
192
0
VERTEX
8
OBJECT__55
10
70.523003
20
95.596001
30
174.509003
70
192
0
VERTEX
8
OBJECT__55
10
73.094002
20
101.556999
30
178.942993
70
192
0
VERTEX
8
OBJECT__55
10
66.508003
20
86.008003
30
170.393005
70
192
0
VERTEX
8
OBJECT__55
10
69.005997
20
90.970001
30
171.882004
70
192
0
VERTEX
8
OBJECT__55
10
86.482002
20
115.039001
30
204.988998
70
192
0
VERTEX
8
OBJECT__55
10
82.120003
20
114.122002
30
197.434006
70
192
0
VERTEX
8
OBJECT__55
10
84.484001
20
114.813004
30
198.735001
70
192
0
VERTEX
8
OBJECT__55
10
80.134003
20
111.563004
30
191.201004
70
192
0
VERTEX
8
OBJECT__55
10
79.227997
20
110.649002
30
189.630005
70
192
0
VERTEX
8
OBJECT__55
10
75.992996
20
106.561996
30
183.992004
70
192
0
VERTEX
8
OBJECT__55
10
100.706001
20
111.228996
30
229.626007
70
192
0
VERTEX
8
OBJECT__55
10
92.800003
20
116.366997
30
215.932007
70
192
0
VERTEX
8
OBJECT__55
10
94.939003
20
116.137001
30
216.843994
70
192
0
VERTEX
8
OBJECT__55
10
87.663002
20
115.216003
30
204.242004
70
192
0
VERTEX
8
OBJECT__55
10
111.583000
20
92.708000
30
248.466003
70
192
0
VERTEX
8
OBJECT__55
10
110.992996
20
95.359001
30
247.442993
70
192
0
VERTEX
8
OBJECT__55
10
112.435997
20
94.706001
30
247.149994
70
192
0
VERTEX
8
OBJECT__55
10
103.013000
20
109.730003
30
233.621002
70
192
0
VERTEX
8
OBJECT__55
10
104.797997
20
109.045998
30
233.919006
70
192
0
VERTEX
8
OBJECT__55
10
101.886002
20
111.139999
30
228.876999
70
192
0
VERTEX
8
OBJECT__55
10
112.855003
20
92.768997
30
247.876007
70
192
0
VERTEX
8
OBJECT__55
10
116.598000
20
75.476997
30
254.358002
70
192
0
VERTEX
8
OBJECT__55
10
115.361000
20
75.738998
30
255.009003
70
192
0
VERTEX
8
OBJECT__55
10
115.361000
20
65.000000
30
255.009003
70
192
0
VERTEX
8
OBJECT__55
10
116.598000
20
65.000000
30
254.358002
70
192
0
VERTEX
8
OBJECT__55
10
112.855003
20
37.230999
30
247.876007
70
192
0
VERTEX
8
OBJECT__55
10
111.583000
20
37.292000
30
248.466003
70
192
0
VERTEX
8
OBJECT__55
10
115.361000
20
54.261002
30
255.009003
70
192
0
VERTEX
8
OBJECT__55
10
116.598000
20
54.522999
30
254.358002
70
192
0
VERTEX
8
OBJECT__55
10
101.886002
20
18.860001
30
228.876999
70
192
0
VERTEX
8
OBJECT__55
10
100.706001
20
18.771000
30
229.626007
70
192
0
VERTEX
8
OBJECT__55
10
103.013000
20
20.270000
30
233.621002
70
192
0
VERTEX
8
OBJECT__55
10
110.992996
20
34.640999
30
247.442993
70
192
0
VERTEX
8
OBJECT__55
10
112.435997
20
35.293999
30
247.149994
70
192
0
VERTEX
8
OBJECT__55
10
104.797997
20
20.954000
30
233.919006
70
192
0
VERTEX
8
OBJECT__55
10
87.663002
20
14.784000
30
204.242004
70
192
0
VERTEX
8
OBJECT__55
10
86.482002
20
14.961000
30
204.988998
70
192
0
VERTEX
8
OBJECT__55
10
92.800003
20
13.633000
30
215.932007
70
192
0
VERTEX
8
OBJECT__55
10
94.939003
20
13.863000
30
216.843994
70
192
0
VERTEX
8
OBJECT__55
10
73.237000
20
26.135000
30
182.048004
70
192
0
VERTEX
8
OBJECT__55
10
82.120003
20
15.878000
30
197.434006
70
192
0
VERTEX
8
OBJECT__55
10
79.227997
20
19.351000
30
189.630005
70
192
0
VERTEX
8
OBJECT__55
10
75.992996
20
23.438000
30
183.992004
70
192
0
VERTEX
8
OBJECT__55
10
84.484001
20
15.187000
30
198.735001
70
192
0
VERTEX
8
OBJECT__55
10
80.134003
20
18.437000
30
191.201004
70
192
0
VERTEX
8
OBJECT__55
10
66.508003
20
43.992001
30
170.393005
70
192
0
VERTEX
8
OBJECT__55
10
72.820000
20
26.617001
30
181.326004
70
192
0
VERTEX
8
OBJECT__55
10
70.523003
20
34.403999
30
174.509003
70
192
0
VERTEX
8
OBJECT__55
10
74.467003
20
26.073999
30
181.332993
70
192
0
VERTEX
8
OBJECT__55
10
73.094002
20
28.443001
30
178.942993
70
192
0
VERTEX
8
OBJECT__55
10
69.005997
20
39.029999
30
171.882004
70
192
0
VERTEX
8
OBJECT__55
10
0
20
0
30
0
70
128
71
1
72
2
73
3
0
VERTEX
8
OBJECT__55
10
0
20
0
30
0
70
128
71
2
72
4
73
3
0
VERTEX
8
OBJECT__55
10
0
20
0
30
0
70
128
71
1
72
5
73
6
0
VERTEX
8
OBJECT__55
10
0
20
0
30
0
70
128
71
6
72
7
73
1
0
VERTEX
8
OBJECT__55
10
0
20
0
30
0
70
128
71
6
72
8
73
7
0
VERTEX
8
OBJECT__55
10
0
20
0
30
0
70
128
71
9
72
10
73
11
0
VERTEX
8
OBJECT__55
10
0
20
0
30
0
70
128
71
11
72
12
73
13
0
VERTEX
8
OBJECT__55
10
0
20
0
30
0
70
128
71
14
72
15
73
12
0
VERTEX
8
OBJECT__55
10
0
20
0
30
0
70
128
71
12
72
11
73
14
0
VERTEX
8
OBJECT__55
10
0
20
0
30
0
70
128
71
8
72
15
73
14
0
VERTEX
8
OBJECT__55
10
0
20
0
30
0
70
128
71
14
72
7
73
8
0
VERTEX
8
OBJECT__55
10
0
20
0
30
0
70
128
71
16
72
17
73
18
0
VERTEX
8
OBJECT__55
10
0
20
0
30
0
70
128
71
17
72
19
73
18
0
VERTEX
8
OBJECT__55
10
0
20
0
30
0
70
128
71
17
72
20
73
19
0
VERTEX
8
OBJECT__55
10
0
20
0
30
0
70
128
71
10
72
21
73
20
0
VERTEX
8
OBJECT__55
10
0
20
0
30
0
70
128
71
10
72
9
73
21
0
VERTEX
8
OBJECT__55
10
0
20
0
30
0
70
128
71
20
72
17
73
10
0
VERTEX
8
OBJECT__55
10
0
20
0
30
0
70
128
71
22
72
23
73
24
0
VERTEX
8
OBJECT__55
10
0
20
0
30
0
70
128
71
25
72
24
73
23
0
VERTEX
8
OBJECT__55
10
0
20
0
30
0
70
128
71
23
72
16
73
25
0
VERTEX
8
OBJECT__55
10
0
20
0
30
0
70
128
71
26
72
27
73
28
0
VERTEX
8
OBJECT__55
10
0
20
0
30
0
70
128
71
27
72
29
73
30
0
VERTEX
8
OBJECT__55
10
0
20
0
30
0
70
128
71
31
72
30
73
29
0
VERTEX
8
OBJECT__55
10
0
20
0
30
0
70
128
71
29
72
22
73
31
0
VERTEX
8
OBJECT__55
10
0
20
0
30
0
70
128
71
30
72
28
73
27
0
VERTEX
8
OBJECT__55
10
0
20
0
30
0
70
128
71
32
72
33
73
34
0
VERTEX
8
OBJECT__55
10
0
20
0
30
0
70
128
71
35
72
34
73
33
0
VERTEX
8
OBJECT__55
10
0
20
0
30
0
70
128
71
33
72
36
73
35
0
VERTEX
8
OBJECT__55
10
0
20
0
30
0
70
128
71
37
72
38
73
39
0
VERTEX
8
OBJECT__55
10
0
20
0
30
0
70
128
71
35
72
36
73
40
0
VERTEX
8
OBJECT__55
10
0
20
0
30
0
70
128
71
40
72
39
73
35
0
VERTEX
8
OBJECT__55
10
0
20
0
30
0
70
128
71
41
72
42
73
43
0
VERTEX
8
OBJECT__55
10
0
20
0
30
0
70
128
71
44
72
45
73
46
0
VERTEX
8
OBJECT__55
10
0
20
0
30
0
70
128
71
46
72
43
73
44
0
VERTEX
8
OBJECT__55
10
0
20
0
30
0
70
128
71
38
72
37
73
45
0
VERTEX
8
OBJECT__55
10
0
20
0
30
0
70
128
71
45
72
44
73
38
0
VERTEX
8
OBJECT__55
10
0
20
0
30
0
70
128
71
47
72
48
73
49
0
VERTEX
8
OBJECT__55
10
0
20
0
30
0
70
128
71
42
72
41
73
50
0
VERTEX
8
OBJECT__55
10
0
20
0
30
0
70
128
71
50
72
49
73
42
0
VERTEX
8
OBJECT__55
10
0
20
0
30
0
70
128
71
51
72
52
73
53
0
VERTEX
8
OBJECT__55
10
0
20
0
30
0
70
128
71
53
72
54
73
51
0
VERTEX
8
OBJECT__55
10
0
20
0
30
0
70
128
71
48
72
47
73
55
0
VERTEX
8
OBJECT__55
10
0
20
0
30
0
70
128
71
55
72
52
73
48
0
VERTEX
8
OBJECT__55
10
0
20
0
30
0
70
128
71
55
72
56
73
52
0
VERTEX
8
OBJECT__55
10
0
20
0
30
0
70
128
71
56
72
53
73
52
0
VERTEX
8
OBJECT__55
10
0
20
0
30
0
70
128
71
4
72
2
73
57
0
VERTEX
8
OBJECT__55
10
0
20
0
30
0
70
128
71
57
72
58
73
59
0
VERTEX
8
OBJECT__55
10
0
20
0
30
0
70
128
71
60
72
61
73
58
0
VERTEX
8
OBJECT__55
10
0
20
0
30
0
70
128
71
58
72
51
73
60
0
VERTEX
8
OBJECT__55
10
0
20
0
30
0
70
128
71
61
72
59
73
58
0
VERTEX
8
OBJECT__55
10
0
20
0
30
0
70
128
71
59
72
62
73
57
0
VERTEX
8
OBJECT__55
10
0
20
0
30
0
70
128
71
57
72
62
73
4
0
VERTEX
8
OBJECT__55
10
0
20
0
30
0
70
128
71
54
72
60
73
51
0
VERTEX
8
OBJECT__55
10
0
20
0
30
0
70
128
71
49
72
50
73
47
0
VERTEX
8
OBJECT__55
10
0
20
0
30
0
70
128
71
43
72
46
73
41
0
VERTEX
8
OBJECT__55
10
0
20
0
30
0
70
128
71
39
72
40
73
37
0
VERTEX
8
OBJECT__55
10
0
20
0
30
0
70
128
71
34
72
26
73
32
0
VERTEX
8
OBJECT__55
10
0
20
0
30
0
70
128
71
28
72
32
73
26
0
VERTEX
8
OBJECT__55
10
0
20
0
30
0
70
128
71
24
72
31
73
22
0
VERTEX
8
OBJECT__55
10
0
20
0
30
0
70
128
71
18
72
25
73
16
0
VERTEX
8
OBJECT__55
10
0
20
0
30
0
70
128
71
11
72
13
73
9
0
VERTEX
8
OBJECT__55
10
0
20
0
30
0
70
128
71
3
72
5
73
1
0
SEQEND
8
OBJECT__55
0
POLYLINE
8
OBJECT__56
66
1
70
64
71
56
72
71
62
253
0
VERTEX
8
OBJECT__56
10
64.135002
20
65.000000
30
166.707993
70
192
0
VERTEX
8
OBJECT__56
10
64.275002
20
65.000000
30
166.526001
70
192
0
VERTEX
8
OBJECT__56
10
65.800003
20
79.348000
30
169.167007
70
192
0
VERTEX
8
OBJECT__56
10
66.363998
20
85.972000
30
170.567993
70
192
0
VERTEX
8
OBJECT__56
10
72.820000
20
103.383003
30
181.326004
70
192
0
VERTEX
8
OBJECT__56
10
72.666000
20
103.318001
30
181.483002
70
192
0
VERTEX
8
OBJECT__56
10
81.949997
20
114.039001
30
197.563004
70
192
0
VERTEX
8
OBJECT__56
10
73.237000
20
103.864998
30
182.048004
70
192
0
VERTEX
8
OBJECT__56
10
92.611000
20
116.279999
30
216.029999
70
192
0
VERTEX
8
OBJECT__56
10
86.482002
20
115.039001
30
204.988998
70
192
0
VERTEX
8
OBJECT__56
10
82.120003
20
114.122002
30
197.434006
70
192
0
VERTEX
8
OBJECT__56
10
92.800003
20
116.366997
30
215.932007
70
192
0
VERTEX
8
OBJECT__56
10
100.706001
20
111.228996
30
229.626007
70
192
0
VERTEX
8
OBJECT__56
10
102.806999
20
109.653999
30
233.688995
70
192
0
VERTEX
8
OBJECT__56
10
110.992996
20
95.359001
30
247.442993
70
192
0
VERTEX
8
OBJECT__56
10
110.774002
20
95.306999
30
247.488007
70
192
0
VERTEX
8
OBJECT__56
10
115.134003
20
75.720001
30
255.039993
70
192
0
VERTEX
8
OBJECT__56
10
111.583000
20
92.708000
30
248.466003
70
192
0
VERTEX
8
OBJECT__56
10
115.134003
20
54.279999
30
255.039993
70
192
0
VERTEX
8
OBJECT__56
10
115.361000
20
65.000000
30
255.009003
70
192
0
VERTEX
8
OBJECT__56
10
115.361000
20
75.738998
30
255.009003
70
192
0
VERTEX
8
OBJECT__56
10
115.361000
20
54.261002
30
255.009003
70
192
0
VERTEX
8
OBJECT__56
10
111.583000
20
37.292000
30
248.466003
70
192
0
VERTEX
8
OBJECT__56
10
110.774002
20
34.693001
30
247.488007
70
192
0
VERTEX
8
OBJECT__56
10
110.992996
20
34.640999
30
247.442993
70
192
0
VERTEX
8
OBJECT__56
10
103.013000
20
20.270000
30
233.621002
70
192
0
VERTEX
8
OBJECT__56
10
102.806999
20
20.346001
30
233.688995
70
192
0
VERTEX
8
OBJECT__56
10
92.611000
20
13.720000
30
216.029999
70
192
0
VERTEX
8
OBJECT__56
10
100.706001
20
18.771000
30
229.626007
70
192
0
VERTEX
8
OBJECT__56
10
92.800003
20
13.633000
30
215.932007
70
192
0
VERTEX
8
OBJECT__56
10
86.482002
20
14.961000
30
204.988998
70
192
0
VERTEX
8
OBJECT__56
10
81.949997
20
15.961000
30
197.563004
70
192
0
VERTEX
8
OBJECT__56
10
82.120003
20
15.878000
30
197.434006
70
192
0
VERTEX
8
OBJECT__56
10
73.237000
20
26.135000
30
182.048004
70
192
0
VERTEX
8
OBJECT__56
10
72.666000
20
26.681999
30
181.483002
70
192
0
VERTEX
8
OBJECT__56
10
72.820000
20
26.617001
30
181.326004
70
192
0
VERTEX
8
OBJECT__56
10
66.508003
20
43.992001
30
170.393005
70
192
0
VERTEX
8
OBJECT__56
10
66.363998
20
44.028000
30
170.567993
70
192
0
VERTEX
8
OBJECT__56
10
65.800003
20
50.652000
30
169.167007
70
192
0
VERTEX
8
OBJECT__56
10
66.385002
20
85.886002
30
170.779999
70
192
0
VERTEX
8
OBJECT__56
10
72.660004
20
103.160004
30
181.649002
70
192
0
VERTEX
8
OBJECT__56
10
81.905998
20
113.836998
30
197.664001
70
192
0
VERTEX
8
OBJECT__56
10
92.524002
20
116.069000
30
216.054001
70
192
0
VERTEX
8
OBJECT__56
10
102.678001
20
109.470001
30
233.641006
70
192
0
VERTEX
8
OBJECT__56
10
110.612000
20
95.182999
30
247.382996
70
192
0
VERTEX
8
OBJECT__56
10
114.954002
20
75.676003
30
254.904999
70
192
0
VERTEX
8
OBJECT__56
10
114.954002
20
54.324001
30
254.904999
70
192
0
VERTEX
8
OBJECT__56
10
110.612000
20
34.817001
30
247.382996
70
192
0
VERTEX
8
OBJECT__56
10
102.678001
20
20.530001
30
233.641006
70
192
0
VERTEX
8
OBJECT__56
10
92.524002
20
13.931000
30
216.054001
70
192
0
VERTEX
8
OBJECT__56
10
81.905998
20
16.163000
30
197.664001
70
192
0
VERTEX
8
OBJECT__56
10
72.660004
20
26.840000
30
181.649002
70
192
0
VERTEX
8
OBJECT__56
10
66.385002
20
44.113998
30
170.779999
70
192
0
VERTEX
8
OBJECT__56
10
64.165001
20
65.000000
30
166.936005
70
192
0
VERTEX
8
OBJECT__56
10
103.013000
20
109.730003
30
233.621002
70
192
0
VERTEX
8
OBJECT__56
10
66.508003
20
86.008003
30
170.393005
70
192
0
VERTEX
8
OBJECT__56
10
0
20
0
30
0
70
128
71
1
72
2
73
3
0
VERTEX
8
OBJECT__56
10
0
20
0
30
0
70
128
71
3
72
4
73
1
0
VERTEX
8
OBJECT__56
10
0
20
0
30
0
70
128
71
5
72
6
73
4
0
VERTEX
8
OBJECT__56
10
0
20
0
30
0
70
128
71
7
72
6
73
8
0
VERTEX
8
OBJECT__56
10
0
20
0
30
0
70
128
71
6
72
5
73
8
0
VERTEX
8
OBJECT__56
10
0
20
0
30
0
70
128
71
9
72
7
73
10
0
VERTEX
8
OBJECT__56
10
0
20
0
30
0
70
128
71
7
72
11
73
10
0
VERTEX
8
OBJECT__56
10
0
20
0
30
0
70
128
71
9
72
12
73
13
0
VERTEX
8
OBJECT__56
10
0
20
0
30
0
70
128
71
13
72
14
73
9
0
VERTEX
8
OBJECT__56
10
0
20
0
30
0
70
128
71
15
72
16
73
14
0
VERTEX
8
OBJECT__56
10
0
20
0
30
0
70
128
71
17
72
16
73
18
0
VERTEX
8
OBJECT__56
10
0
20
0
30
0
70
128
71
16
72
15
73
18
0
VERTEX
8
OBJECT__56
10
0
20
0
30
0
70
128
71
19
72
17
73
20
0
VERTEX
8
OBJECT__56
10
0
20
0
30
0
70
128
71
17
72
21
73
20
0
VERTEX
8
OBJECT__56
10
0
20
0
30
0
70
128
71
19
72
22
73
23
0
VERTEX
8
OBJECT__56
10
0
20
0
30
0
70
128
71
23
72
24
73
19
0
VERTEX
8
OBJECT__56
10
0
20
0
30
0
70
128
71
25
72
26
73
27
0
VERTEX
8
OBJECT__56
10
0
20
0
30
0
70
128
71
28
72
27
73
29
0
VERTEX
8
OBJECT__56
10
0
20
0
30
0
70
128
71
27
72
26
73
29
0
VERTEX
8
OBJECT__56
10
0
20
0
30
0
70
128
71
28
72
30
73
31
0
VERTEX
8
OBJECT__56
10
0
20
0
30
0
70
128
71
31
72
32
73
28
0
VERTEX
8
OBJECT__56
10
0
20
0
30
0
70
128
71
32
72
33
73
34
0
VERTEX
8
OBJECT__56
10
0
20
0
30
0
70
128
71
34
72
35
73
32
0
VERTEX
8
OBJECT__56
10
0
20
0
30
0
70
128
71
36
72
37
73
38
0
VERTEX
8
OBJECT__56
10
0
20
0
30
0
70
128
71
1
72
38
73
39
0
VERTEX
8
OBJECT__56
10
0
20
0
30
0
70
128
71
38
72
37
73
39
0
VERTEX
8
OBJECT__56
10
0
20
0
30
0
70
128
71
1
72
4
73
40
0
VERTEX
8
OBJECT__56
10
0
20
0
30
0
70
128
71
4
72
6
73
41
0
VERTEX
8
OBJECT__56
10
0
20
0
30
0
70
128
71
7
72
42
73
41
0
VERTEX
8
OBJECT__56
10
0
20
0
30
0
70
128
71
9
72
43
73
42
0
VERTEX
8
OBJECT__56
10
0
20
0
30
0
70
128
71
14
72
44
73
43
0
VERTEX
8
OBJECT__56
10
0
20
0
30
0
70
128
71
16
72
45
73
44
0
VERTEX
8
OBJECT__56
10
0
20
0
30
0
70
128
71
16
72
17
73
46
0
VERTEX
8
OBJECT__56
10
0
20
0
30
0
70
128
71
17
72
19
73
47
0
VERTEX
8
OBJECT__56
10
0
20
0
30
0
70
128
71
24
72
48
73
47
0
VERTEX
8
OBJECT__56
10
0
20
0
30
0
70
128
71
27
72
49
73
48
0
VERTEX
8
OBJECT__56
10
0
20
0
30
0
70
128
71
28
72
50
73
49
0
VERTEX
8
OBJECT__56
10
0
20
0
30
0
70
128
71
32
72
51
73
50
0
VERTEX
8
OBJECT__56
10
0
20
0
30
0
70
128
71
35
72
52
73
51
0
VERTEX
8
OBJECT__56
10
0
20
0
30
0
70
128
71
38
72
53
73
52
0
VERTEX
8
OBJECT__56
10
0
20
0
30
0
70
128
71
38
72
1
73
54
0
VERTEX
8
OBJECT__56
10
0
20
0
30
0
70
128
71
54
72
53
73
38
0
VERTEX
8
OBJECT__56
10
0
20
0
30
0
70
128
71
52
72
35
73
38
0
VERTEX
8
OBJECT__56
10
0
20
0
30
0
70
128
71
51
72
32
73
35
0
VERTEX
8
OBJECT__56
10
0
20
0
30
0
70
128
71
50
72
28
73
32
0
VERTEX
8
OBJECT__56
10
0
20
0
30
0
70
128
71
49
72
27
73
28
0
VERTEX
8
OBJECT__56
10
0
20
0
30
0
70
128
71
48
72
24
73
27
0
VERTEX
8
OBJECT__56
10
0
20
0
30
0
70
128
71
47
72
19
73
24
0
VERTEX
8
OBJECT__56
10
0
20
0
30
0
70
128
71
47
72
46
73
17
0
VERTEX
8
OBJECT__56
10
0
20
0
30
0
70
128
71
46
72
45
73
16
0
VERTEX
8
OBJECT__56
10
0
20
0
30
0
70
128
71
44
72
14
73
16
0
VERTEX
8
OBJECT__56
10
0
20
0
30
0
70
128
71
43
72
9
73
14
0
VERTEX
8
OBJECT__56
10
0
20
0
30
0
70
128
71
42
72
7
73
9
0
VERTEX
8
OBJECT__56
10
0
20
0
30
0
70
128
71
41
72
6
73
7
0
VERTEX
8
OBJECT__56
10
0
20
0
30
0
70
128
71
41
72
40
73
4
0
VERTEX
8
OBJECT__56
10
0
20
0
30
0
70
128
71
40
72
54
73
1
0
VERTEX
8
OBJECT__56
10
0
20
0
30
0
70
128
71
39
72
2
73
1
0
VERTEX
8
OBJECT__56
10
0
20
0
30
0
70
128
71
38
72
35
73
36
0
VERTEX
8
OBJECT__56
10
0
20
0
30
0
70
128
71
34
72
36
73
35
0
VERTEX
8
OBJECT__56
10
0
20
0
30
0
70
128
71
31
72
33
73
32
0
VERTEX
8
OBJECT__56
10
0
20
0
30
0
70
128
71
29
72
30
73
28
0
VERTEX
8
OBJECT__56
10
0
20
0
30
0
70
128
71
27
72
24
73
25
0
VERTEX
8
OBJECT__56
10
0
20
0
30
0
70
128
71
23
72
25
73
24
0
VERTEX
8
OBJECT__56
10
0
20
0
30
0
70
128
71
20
72
22
73
19
0
VERTEX
8
OBJECT__56
10
0
20
0
30
0
70
128
71
18
72
21
73
17
0
VERTEX
8
OBJECT__56
10
0
20
0
30
0
70
128
71
14
72
55
73
15
0
VERTEX
8
OBJECT__56
10
0
20
0
30
0
70
128
71
13
72
55
73
14
0
VERTEX
8
OBJECT__56
10
0
20
0
30
0
70
128
71
10
72
12
73
9
0
VERTEX
8
OBJECT__56
10
0
20
0
30
0
70
128
71
8
72
11
73
7
0
VERTEX
8
OBJECT__56
10
0
20
0
30
0
70
128
71
4
72
56
73
5
0
VERTEX
8
OBJECT__56
10
0
20
0
30
0
70
128
71
3
72
56
73
4
0
SEQEND
8
OBJECT__56
0
POLYLINE
8
OBJECT__57
66
1
70
64
71
30
72
30
62
253
0
VERTEX
8
OBJECT__57
10
102.678001
20
20.530001
30
233.641006
70
192
0
VERTEX
8
OBJECT__57
10
102.565002
20
20.919001
30
233.445999
70
192
0
VERTEX
8
OBJECT__57
10
110.430000
20
35.082001
30
247.067993
70
192
0
VERTEX
8
OBJECT__57
10
92.524002
20
13.931000
30
216.054001
70
192
0
VERTEX
8
OBJECT__57
10
92.500999
20
14.379000
30
216.014008
70
192
0
VERTEX
8
OBJECT__57
10
66.385002
20
85.886002
30
170.779999
70
192
0
VERTEX
8
OBJECT__57
10
72.660004
20
103.160004
30
181.649002
70
192
0
VERTEX
8
OBJECT__57
10
72.810997
20
102.825996
30
181.910004
70
192
0
VERTEX
8
OBJECT__57
10
81.905998
20
113.836998
30
197.664001
70
192
0
VERTEX
8
OBJECT__57
10
81.975998
20
113.408997
30
197.783997
70
192
0
VERTEX
8
OBJECT__57
10
81.905998
20
16.163000
30
197.664001
70
192
0
VERTEX
8
OBJECT__57
10
81.975998
20
16.591000
30
197.783997
70
192
0
VERTEX
8
OBJECT__57
10
92.524002
20
116.069000
30
216.054001
70
192
0
VERTEX
8
OBJECT__57
10
92.500999
20
115.621002
30
216.014008
70
192
0
VERTEX
8
OBJECT__57
10
110.612000
20
95.182999
30
247.382996
70
192
0
VERTEX
8
OBJECT__57
10
114.954002
20
75.676003
30
254.904999
70
192
0
VERTEX
8
OBJECT__57
10
114.734001
20
75.583000
30
254.522995
70
192
0
VERTEX
8
OBJECT__57
10
114.954002
20
54.324001
30
254.904999
70
192
0
VERTEX
8
OBJECT__57
10
114.734001
20
54.417000
30
254.522995
70
192
0
VERTEX
8
OBJECT__57
10
72.660004
20
26.840000
30
181.649002
70
192
0
VERTEX
8
OBJECT__57
10
72.810997
20
27.174000
30
181.910004
70
192
0
VERTEX
8
OBJECT__57
10
66.385002
20
44.113998
30
170.779999
70
192
0
VERTEX
8
OBJECT__57
10
66.591003
20
44.297001
30
171.136002
70
192
0
VERTEX
8
OBJECT__57
10
64.165001
20
65.000000
30
166.936005
70
192
0
VERTEX
8
OBJECT__57
10
64.389999
20
65.000000
30
167.324997
70
192
0
VERTEX
8
OBJECT__57
10
66.591003
20
85.703003
30
171.136002
70
192
0
VERTEX
8
OBJECT__57
10
102.678001
20
109.470001
30
233.641006
70
192
0
VERTEX
8
OBJECT__57
10
102.565002
20
109.081001
30
233.445999
70
192
0
VERTEX
8
OBJECT__57
10
110.430000
20
94.917999
30
247.067993
70
192
0
VERTEX
8
OBJECT__57
10
110.612000
20
34.817001
30
247.382996
70
192
0
VERTEX
8
OBJECT__57
10
0
20
0
30
0
70
128
71
1
72
2
73
3
0
VERTEX
8
OBJECT__57
10
0
20
0
30
0
70
128
71
4
72
5
73
2
0
VERTEX
8
OBJECT__57
10
0
20
0
30
0
70
128
71
6
72
7
73
8
0
VERTEX
8
OBJECT__57
10
0
20
0
30
0
70
128
71
7
72
9
73
10
0
VERTEX
8
OBJECT__57
10
0
20
0
30
0
70
128
71
2
72
1
73
4
0
VERTEX
8
OBJECT__57
10
0
20
0
30
0
70
128
71
11
72
12
73
5
0
VERTEX
8
OBJECT__57
10
0
20
0
30
0
70
128
71
10
72
8
73
7
0
VERTEX
8
OBJECT__57
10
0
20
0
30
0
70
128
71
9
72
13
73
14
0
VERTEX
8
OBJECT__57
10
0
20
0
30
0
70
128
71
15
72
16
73
17
0
VERTEX
8
OBJECT__57
10
0
20
0
30
0
70
128
71
18
72
19
73
17
0
VERTEX
8
OBJECT__57
10
0
20
0
30
0
70
128
71
5
72
4
73
11
0
VERTEX
8
OBJECT__57
10
0
20
0
30
0
70
128
71
20
72
21
73
12
0
VERTEX
8
OBJECT__57
10
0
20
0
30
0
70
128
71
22
72
23
73
21
0
VERTEX
8
OBJECT__57
10
0
20
0
30
0
70
128
71
24
72
25
73
23
0
VERTEX
8
OBJECT__57
10
0
20
0
30
0
70
128
71
24
72
6
73
26
0
VERTEX
8
OBJECT__57
10
0
20
0
30
0
70
128
71
14
72
10
73
9
0
VERTEX
8
OBJECT__57
10
0
20
0
30
0
70
128
71
13
72
27
73
28
0
VERTEX
8
OBJECT__57
10
0
20
0
30
0
70
128
71
27
72
15
73
29
0
VERTEX
8
OBJECT__57
10
0
20
0
30
0
70
128
71
17
72
16
73
18
0
VERTEX
8
OBJECT__57
10
0
20
0
30
0
70
128
71
30
72
3
73
19
0
VERTEX
8
OBJECT__57
10
0
20
0
30
0
70
128
71
12
72
11
73
20
0
VERTEX
8
OBJECT__57
10
0
20
0
30
0
70
128
71
23
72
22
73
24
0
VERTEX
8
OBJECT__57
10
0
20
0
30
0
70
128
71
8
72
26
73
6
0
VERTEX
8
OBJECT__57
10
0
20
0
30
0
70
128
71
29
72
28
73
27
0
VERTEX
8
OBJECT__57
10
0
20
0
30
0
70
128
71
19
72
18
73
30
0
VERTEX
8
OBJECT__57
10
0
20
0
30
0
70
128
71
21
72
20
73
22
0
VERTEX
8
OBJECT__57
10
0
20
0
30
0
70
128
71
28
72
14
73
13
0
VERTEX
8
OBJECT__57
10
0
20
0
30
0
70
128
71
3
72
30
73
1
0
VERTEX
8
OBJECT__57
10
0
20
0
30
0
70
128
71
17
72
29
73
15
0
VERTEX
8
OBJECT__57
10
0
20
0
30
0
70
128
71
26
72
25
73
24
0
SEQEND
8
OBJECT__57
0
POLYLINE
8
OBJECT__58
66
1
70
64
71
45
72
60
62
253
0
VERTEX
8
OBJECT__58
10
66.591003
20
85.703003
30
171.136002
70
192
0
VERTEX
8
OBJECT__58
10
66.611000
20
85.616997
30
171.348007
70
192
0
VERTEX
8
OBJECT__58
10
64.419998
20
65.000000
30
167.552994
70
192
0
VERTEX
8
OBJECT__58
10
72.810997
20
102.825996
30
181.910004
70
192
0
VERTEX
8
OBJECT__58
10
72.806000
20
102.667999
30
182.076996
70
192
0
VERTEX
8
OBJECT__58
10
81.975998
20
113.408997
30
197.783997
70
192
0
VERTEX
8
OBJECT__58
10
81.932999
20
113.207001
30
197.884995
70
192
0
VERTEX
8
OBJECT__58
10
92.500999
20
115.621002
30
216.014008
70
192
0
VERTEX
8
OBJECT__58
10
92.413002
20
115.410004
30
216.037994
70
192
0
VERTEX
8
OBJECT__58
10
102.565002
20
109.081001
30
233.445999
70
192
0
VERTEX
8
OBJECT__58
10
102.435997
20
108.897003
30
233.397995
70
192
0
VERTEX
8
OBJECT__58
10
110.430000
20
94.917999
30
247.067993
70
192
0
VERTEX
8
OBJECT__58
10
110.267998
20
94.793999
30
246.962997
70
192
0
VERTEX
8
OBJECT__58
10
114.734001
20
75.583000
30
254.522995
70
192
0
VERTEX
8
OBJECT__58
10
114.554001
20
75.539001
30
254.388000
70
192
0
VERTEX
8
OBJECT__58
10
114.734001
20
54.417000
30
254.522995
70
192
0
VERTEX
8
OBJECT__58
10
114.554001
20
54.460999
30
254.388000
70
192
0
VERTEX
8
OBJECT__58
10
110.430000
20
35.082001
30
247.067993
70
192
0
VERTEX
8
OBJECT__58
10
110.267998
20
35.206001
30
246.962997
70
192
0
VERTEX
8
OBJECT__58
10
102.565002
20
20.919001
30
233.445999
70
192
0
VERTEX
8
OBJECT__58
10
102.435997
20
21.103001
30
233.397995
70
192
0
VERTEX
8
OBJECT__58
10
92.500999
20
14.379000
30
216.014008
70
192
0
VERTEX
8
OBJECT__58
10
92.413002
20
14.590000
30
216.037994
70
192
0
VERTEX
8
OBJECT__58
10
81.975998
20
16.591000
30
197.783997
70
192
0
VERTEX
8
OBJECT__58
10
81.932999
20
16.792999
30
197.884995
70
192
0
VERTEX
8
OBJECT__58
10
72.810997
20
27.174000
30
181.910004
70
192
0
VERTEX
8
OBJECT__58
10
72.806000
20
27.332001
30
182.076996
70
192
0
VERTEX
8
OBJECT__58
10
66.591003
20
44.297001
30
171.136002
70
192
0
VERTEX
8
OBJECT__58
10
66.611000
20
44.382999
30
171.348007
70
192
0
VERTEX
8
OBJECT__58
10
64.389999
20
65.000000
30
167.324997
70
192
0
VERTEX
8
OBJECT__58
10
66.468002
20
85.581001
30
171.524002
70
192
0
VERTEX
8
OBJECT__58
10
72.652000
20
102.602997
30
182.233994
70
192
0
VERTEX
8
OBJECT__58
10
81.762001
20
113.123001
30
198.014999
70
192
0
VERTEX
8
OBJECT__58
10
92.224998
20
115.322998
30
216.136002
70
192
0
VERTEX
8
OBJECT__58
10
102.231003
20
108.820999
30
233.466003
70
192
0
VERTEX
8
OBJECT__58
10
110.049004
20
94.741997
30
247.007996
70
192
0
VERTEX
8
OBJECT__58
10
114.328003
20
75.519997
30
254.419006
70
192
0
VERTEX
8
OBJECT__58
10
114.328003
20
54.480000
30
254.419006
70
192
0
VERTEX
8
OBJECT__58
10
110.049004
20
35.257999
30
247.007996
70
192
0
VERTEX
8
OBJECT__58
10
102.231003
20
21.179001
30
233.466003
70
192
0
VERTEX
8
OBJECT__58
10
92.224998
20
14.677000
30
216.136002
70
192
0
VERTEX
8
OBJECT__58
10
81.762001
20
16.877001
30
198.014999
70
192
0
VERTEX
8
OBJECT__58
10
72.652000
20
27.396999
30
182.233994
70
192
0
VERTEX
8
OBJECT__58
10
66.468002
20
44.418999
30
171.524002
70
192
0
VERTEX
8
OBJECT__58
10
64.280998
20
65.000000
30
167.735001
70
192
0
VERTEX
8
OBJECT__58
10
0
20
0
30
0
70
128
71
1
72
2
73
3
0
VERTEX
8
OBJECT__58
10
0
20
0
30
0
70
128
71
4
72
5
73
2
0
VERTEX
8
OBJECT__58
10
0
20
0
30
0
70
128
71
6
72
7
73
5
0
VERTEX
8
OBJECT__58
10
0
20
0
30
0
70
128
71
8
72
9
73
7
0
VERTEX
8
OBJECT__58
10
0
20
0
30
0
70
128
71
10
72
11
73
9
0
VERTEX
8
OBJECT__58
10
0
20
0
30
0
70
128
71
12
72
13
73
11
0
VERTEX
8
OBJECT__58
10
0
20
0
30
0
70
128
71
12
72
14
73
15
0
VERTEX
8
OBJECT__58
10
0
20
0
30
0
70
128
71
14
72
16
73
17
0
VERTEX
8
OBJECT__58
10
0
20
0
30
0
70
128
71
18
72
19
73
17
0
VERTEX
8
OBJECT__58
10
0
20
0
30
0
70
128
71
20
72
21
73
19
0
VERTEX
8
OBJECT__58
10
0
20
0
30
0
70
128
71
22
72
23
73
21
0
VERTEX
8
OBJECT__58
10
0
20
0
30
0
70
128
71
22
72
24
73
25
0
VERTEX
8
OBJECT__58
10
0
20
0
30
0
70
128
71
24
72
26
73
27
0
VERTEX
8
OBJECT__58
10
0
20
0
30
0
70
128
71
26
72
28
73
29
0
VERTEX
8
OBJECT__58
10
0
20
0
30
0
70
128
71
28
72
30
73
3
0
VERTEX
8
OBJECT__58
10
0
20
0
30
0
70
128
71
3
72
2
73
31
0
VERTEX
8
OBJECT__58
10
0
20
0
30
0
70
128
71
5
72
32
73
31
0
VERTEX
8
OBJECT__58
10
0
20
0
30
0
70
128
71
7
72
33
73
32
0
VERTEX
8
OBJECT__58
10
0
20
0
30
0
70
128
71
7
72
9
73
34
0
VERTEX
8
OBJECT__58
10
0
20
0
30
0
70
128
71
11
72
35
73
34
0
VERTEX
8
OBJECT__58
10
0
20
0
30
0
70
128
71
11
72
13
73
36
0
VERTEX
8
OBJECT__58
10
0
20
0
30
0
70
128
71
15
72
37
73
36
0
VERTEX
8
OBJECT__58
10
0
20
0
30
0
70
128
71
17
72
38
73
37
0
VERTEX
8
OBJECT__58
10
0
20
0
30
0
70
128
71
17
72
19
73
39
0
VERTEX
8
OBJECT__58
10
0
20
0
30
0
70
128
71
21
72
40
73
39
0
VERTEX
8
OBJECT__58
10
0
20
0
30
0
70
128
71
21
72
23
73
41
0
VERTEX
8
OBJECT__58
10
0
20
0
30
0
70
128
71
23
72
25
73
42
0
VERTEX
8
OBJECT__58
10
0
20
0
30
0
70
128
71
25
72
27
73
43
0
VERTEX
8
OBJECT__58
10
0
20
0
30
0
70
128
71
27
72
29
73
44
0
VERTEX
8
OBJECT__58
10
0
20
0
30
0
70
128
71
29
72
3
73
45
0
VERTEX
8
OBJECT__58
10
0
20
0
30
0
70
128
71
45
72
44
73
29
0
VERTEX
8
OBJECT__58
10
0
20
0
30
0
70
128
71
44
72
43
73
27
0
VERTEX
8
OBJECT__58
10
0
20
0
30
0
70
128
71
43
72
42
73
25
0
VERTEX
8
OBJECT__58
10
0
20
0
30
0
70
128
71
42
72
41
73
23
0
VERTEX
8
OBJECT__58
10
0
20
0
30
0
70
128
71
41
72
40
73
21
0
VERTEX
8
OBJECT__58
10
0
20
0
30
0
70
128
71
39
72
19
73
21
0
VERTEX
8
OBJECT__58
10
0
20
0
30
0
70
128
71
39
72
38
73
17
0
VERTEX
8
OBJECT__58
10
0
20
0
30
0
70
128
71
37
72
15
73
17
0
VERTEX
8
OBJECT__58
10
0
20
0
30
0
70
128
71
36
72
13
73
15
0
VERTEX
8
OBJECT__58
10
0
20
0
30
0
70
128
71
36
72
35
73
11
0
VERTEX
8
OBJECT__58
10
0
20
0
30
0
70
128
71
34
72
9
73
11
0
VERTEX
8
OBJECT__58
10
0
20
0
30
0
70
128
71
34
72
33
73
7
0
VERTEX
8
OBJECT__58
10
0
20
0
30
0
70
128
71
32
72
5
73
7
0
VERTEX
8
OBJECT__58
10
0
20
0
30
0
70
128
71
31
72
2
73
5
0
VERTEX
8
OBJECT__58
10
0
20
0
30
0
70
128
71
31
72
45
73
3
0
VERTEX
8
OBJECT__58
10
0
20
0
30
0
70
128
71
3
72
29
73
28
0
VERTEX
8
OBJECT__58
10
0
20
0
30
0
70
128
71
29
72
27
73
26
0
VERTEX
8
OBJECT__58
10
0
20
0
30
0
70
128
71
27
72
25
73
24
0
VERTEX
8
OBJECT__58
10
0
20
0
30
0
70
128
71
25
72
23
73
22
0
VERTEX
8
OBJECT__58
10
0
20
0
30
0
70
128
71
21
72
20
73
22
0
VERTEX
8
OBJECT__58
10
0
20
0
30
0
70
128
71
19
72
18
73
20
0
VERTEX
8
OBJECT__58
10
0
20
0
30
0
70
128
71
17
72
16
73
18
0
VERTEX
8
OBJECT__58
10
0
20
0
30
0
70
128
71
17
72
15
73
14
0
VERTEX
8
OBJECT__58
10
0
20
0
30
0
70
128
71
15
72
13
73
12
0
VERTEX
8
OBJECT__58
10
0
20
0
30
0
70
128
71
11
72
10
73
12
0
VERTEX
8
OBJECT__58
10
0
20
0
30
0
70
128
71
9
72
8
73
10
0
VERTEX
8
OBJECT__58
10
0
20
0
30
0
70
128
71
7
72
6
73
8
0
VERTEX
8
OBJECT__58
10
0
20
0
30
0
70
128
71
5
72
4
73
6
0
VERTEX
8
OBJECT__58
10
0
20
0
30
0
70
128
71
2
72
1
73
4
0
VERTEX
8
OBJECT__58
10
0
20
0
30
0
70
128
71
3
72
30
73
1
0
SEQEND
8
OBJECT__58
0
POLYLINE
8
OBJECT__59
66
1
70
64
71
23
72
21
62
253
0
VERTEX
8
OBJECT__59
10
53.959999
20
64.222000
30
25.506001
70
192
0
VERTEX
8
OBJECT__59
10
54.450001
20
63.762001
30
25.506001
70
192
0
VERTEX
8
OBJECT__59
10
53.203999
20
59.251999
30
25.506001
70
192
0
VERTEX
8
OBJECT__59
10
29.688999
20
65.000000
30
25.497999
70
192
0
VERTEX
8
OBJECT__59
10
29.747999
20
64.994003
30
25.497999
70
192
0
VERTEX
8
OBJECT__59
10
29.989000
20
64.708000
30
25.497999
70
192
0
VERTEX
8
OBJECT__59
10
35.868999
20
54.683998
30
25.500000
70
192
0
VERTEX
8
OBJECT__59
10
35.480999
20
53.583000
30
25.500000
70
192
0
VERTEX
8
OBJECT__59
10
32.408001
20
56.273998
30
25.499001
70
192
0
VERTEX
8
OBJECT__59
10
54.507000
20
65.000000
30
25.507000
70
192
0
VERTEX
8
OBJECT__59
10
53.938999
20
64.374001
30
25.506001
70
192
0
VERTEX
8
OBJECT__59
10
53.683998
20
64.697998
30
25.506001
70
192
0
VERTEX
8
OBJECT__59
10
47.679001
20
54.444000
30
25.504000
70
192
0
VERTEX
8
OBJECT__59
10
29.875000
20
61.797001
30
25.497999
70
192
0
VERTEX
8
OBJECT__59
10
30.400999
20
59.830002
30
25.497999
70
192
0
VERTEX
8
OBJECT__59
10
50.516998
20
55.438999
30
25.504999
70
192
0
VERTEX
8
OBJECT__59
10
47.228001
20
53.047001
30
25.504000
70
192
0
VERTEX
8
OBJECT__59
10
43.334000
20
51.877998
30
25.502001
70
192
0
VERTEX
8
OBJECT__59
10
39.265999
20
52.062000
30
25.500999
70
192
0
VERTEX
8
OBJECT__59
10
29.591999
20
65.000000
30
25.497999
70
192
0
VERTEX
8
OBJECT__59
10
52.768002
20
65.000000
30
25.506001
70
192
0
VERTEX
8
OBJECT__59
10
53.681000
20
64.699997
30
25.506001
70
192
0
VERTEX
8
OBJECT__59
10
52.768002
20
64.699997
30
25.506001
70
192
0
VERTEX
8
OBJECT__59
10
0
20
0
30
0
70
128
71
1
72
2
73
3
0
VERTEX
8
OBJECT__59
10
0
20
0
30
0
70
128
71
4
72
5
73
6
0
VERTEX
8
OBJECT__59
10
0
20
0
30
0
70
128
71
7
72
8
73
9
0
VERTEX
8
OBJECT__59
10
0
20
0
30
0
70
128
71
10
72
11
73
12
0
VERTEX
8
OBJECT__59
10
0
20
0
30
0
70
128
71
10
72
2
73
1
0
VERTEX
8
OBJECT__59
10
0
20
0
30
0
70
128
71
3
72
13
73
1
0
VERTEX
8
OBJECT__59
10
0
20
0
30
0
70
128
71
6
72
14
73
4
0
VERTEX
8
OBJECT__59
10
0
20
0
30
0
70
128
71
9
72
15
73
7
0
VERTEX
8
OBJECT__59
10
0
20
0
30
0
70
128
71
1
72
11
73
10
0
VERTEX
8
OBJECT__59
10
0
20
0
30
0
70
128
71
16
72
17
73
13
0
VERTEX
8
OBJECT__59
10
0
20
0
30
0
70
128
71
7
72
18
73
19
0
VERTEX
8
OBJECT__59
10
0
20
0
30
0
70
128
71
13
72
17
73
18
0
VERTEX
8
OBJECT__59
10
0
20
0
30
0
70
128
71
14
72
20
73
4
0
VERTEX
8
OBJECT__59
10
0
20
0
30
0
70
128
71
15
72
14
73
7
0
VERTEX
8
OBJECT__59
10
0
20
0
30
0
70
128
71
21
72
10
73
22
0
VERTEX
8
OBJECT__59
10
0
20
0
30
0
70
128
71
3
72
16
73
13
0
VERTEX
8
OBJECT__59
10
0
20
0
30
0
70
128
71
18
72
7
73
13
0
VERTEX
8
OBJECT__59
10
0
20
0
30
0
70
128
71
12
72
22
73
10
0
VERTEX
8
OBJECT__59
10
0
20
0
30
0
70
128
71
6
72
7
73
14
0
VERTEX
8
OBJECT__59
10
0
20
0
30
0
70
128
71
19
72
8
73
7
0
VERTEX
8
OBJECT__59
10
0
20
0
30
0
70
128
71
22
72
23
73
21
0
SEQEND
8
OBJECT__59
0
POLYLINE
8
OBJECT__60
66
1
70
64
71
20
72
18
62
253
0
VERTEX
8
OBJECT__60
10
47.679001
20
54.444000
30
25.504000
70
192
0
VERTEX
8
OBJECT__60
10
35.868999
20
54.683998
30
25.500000
70
192
0
VERTEX
8
OBJECT__60
10
35.865002
20
54.682999
30
35.000000
70
192
0
VERTEX
8
OBJECT__60
10
47.675999
20
54.444000
30
35.004002
70
192
0
VERTEX
8
OBJECT__60
10
53.952999
20
64.179001
30
35.006001
70
192
0
VERTEX
8
OBJECT__60
10
53.956001
20
64.179001
30
28.705999
70
192
0
VERTEX
8
OBJECT__60
10
53.957001
20
64.179001
30
25.705999
70
192
0
VERTEX
8
OBJECT__60
10
53.957001
20
64.181000
30
25.665001
70
192
0
VERTEX
8
OBJECT__60
10
30.249001
20
62.500000
30
28.497999
70
192
0
VERTEX
8
OBJECT__60
10
30.174000
20
62.882000
30
28.011999
70
192
0
VERTEX
8
OBJECT__60
10
29.989000
20
64.708000
30
25.497999
70
192
0
VERTEX
8
OBJECT__60
10
30.153999
20
63.000000
30
27.997999
70
192
0
VERTEX
8
OBJECT__60
10
30.080000
20
63.500000
30
27.997999
70
192
0
VERTEX
8
OBJECT__60
10
30.028000
20
63.988998
30
28.389999
70
192
0
VERTEX
8
OBJECT__60
10
29.987000
20
64.708000
30
30.219999
70
192
0
VERTEX
8
OBJECT__60
10
30.027000
20
64.000000
30
28.497999
70
192
0
VERTEX
8
OBJECT__60
10
30.024000
20
64.000000
30
34.998001
70
192
0
VERTEX
8
OBJECT__60
10
29.986000
20
64.707001
30
34.998001
70
192
0
VERTEX
8
OBJECT__60
10
30.247000
20
62.500000
30
34.998001
70
192
0
VERTEX
8
OBJECT__60
10
53.959999
20
64.222000
30
25.506001
70
192
0
VERTEX
8
OBJECT__60
10
0
20
0
30
0
70
128
71
1
72
2
73
3
0
VERTEX
8
OBJECT__60
10
0
20
0
30
0
70
128
71
4
72
5
73
6
0
VERTEX
8
OBJECT__60
10
0
20
0
30
0
70
128
71
6
72
1
73
4
0
VERTEX
8
OBJECT__60
10
0
20
0
30
0
70
128
71
6
72
7
73
1
0
VERTEX
8
OBJECT__60
10
0
20
0
30
0
70
128
71
7
72
8
73
1
0
VERTEX
8
OBJECT__60
10
0
20
0
30
0
70
128
71
3
72
2
73
9
0
VERTEX
8
OBJECT__60
10
0
20
0
30
0
70
128
71
2
72
10
73
9
0
VERTEX
8
OBJECT__60
10
0
20
0
30
0
70
128
71
11
72
12
73
10
0
VERTEX
8
OBJECT__60
10
0
20
0
30
0
70
128
71
11
72
13
73
12
0
VERTEX
8
OBJECT__60
10
0
20
0
30
0
70
128
71
11
72
14
73
13
0
VERTEX
8
OBJECT__60
10
0
20
0
30
0
70
128
71
10
72
2
73
11
0
VERTEX
8
OBJECT__60
10
0
20
0
30
0
70
128
71
11
72
15
73
16
0
VERTEX
8
OBJECT__60
10
0
20
0
30
0
70
128
71
17
72
16
73
15
0
VERTEX
8
OBJECT__60
10
0
20
0
30
0
70
128
71
15
72
18
73
17
0
VERTEX
8
OBJECT__60
10
0
20
0
30
0
70
128
71
16
72
14
73
11
0
VERTEX
8
OBJECT__60
10
0
20
0
30
0
70
128
71
9
72
19
73
3
0
VERTEX
8
OBJECT__60
10
0
20
0
30
0
70
128
71
8
72
20
73
1
0
VERTEX
8
OBJECT__60
10
0
20
0
30
0
70
128
71
3
72
4
73
1
0
SEQEND
8
OBJECT__60
0
POLYLINE
8
OBJECT__61
66
1
70
64
71
7
72
5
62
253
0
VERTEX
8
OBJECT__61
10
29.686001
20
65.000000
30
34.998001
70
192
0
VERTEX
8
OBJECT__61
10
29.986000
20
64.707001
30
34.998001
70
192
0
VERTEX
8
OBJECT__61
10
29.987000
20
64.708000
30
30.219999
70
192
0
VERTEX
8
OBJECT__61
10
29.989000
20
64.708000
30
25.497999
70
192
0
VERTEX
8
OBJECT__61
10
29.747999
20
64.994003
30
25.497999
70
192
0
VERTEX
8
OBJECT__61
10
29.688000
20
65.000000
30
30.219000
70
192
0
VERTEX
8
OBJECT__61
10
29.688999
20
65.000000
30
25.497999
70
192
0
VERTEX
8
OBJECT__61
10
0
20
0
30
0
70
128
71
1
72
2
73
3
0
VERTEX
8
OBJECT__61
10
0
20
0
30
0
70
128
71
3
72
4
73
5
0
VERTEX
8
OBJECT__61
10
0
20
0
30
0
70
128
71
5
72
6
73
3
0
VERTEX
8
OBJECT__61
10
0
20
0
30
0
70
128
71
5
72
7
73
6
0
VERTEX
8
OBJECT__61
10
0
20
0
30
0
70
128
71
3
72
6
73
1
0
SEQEND
8
OBJECT__61
0
POLYLINE
8
OBJECT__62
66
1
70
64
71
11
72
11
62
253
0
VERTEX
8
OBJECT__62
10
38.368999
20
76.175003
30
25.000000
70
192
0
VERTEX
8
OBJECT__62
10
51.506001
20
71.905998
30
25.000000
70
192
0
VERTEX
8
OBJECT__62
10
46.549999
20
72.880997
30
25.000000
70
192
0
VERTEX
8
OBJECT__62
10
51.506001
20
58.094002
30
25.000000
70
192
0
VERTEX
8
OBJECT__62
10
46.549999
20
57.118999
30
25.000000
70
192
0
VERTEX
8
OBJECT__62
10
51.099998
20
65.000000
30
25.000000
70
192
0
VERTEX
8
OBJECT__62
10
38.368999
20
53.825001
30
25.000000
70
192
0
VERTEX
8
OBJECT__62
10
37.450001
20
57.118999
30
25.000000
70
192
0
VERTEX
8
OBJECT__62
10
37.450001
20
72.880997
30
25.000000
70
192
0
VERTEX
8
OBJECT__62
10
30.250000
20
65.000000
30
25.000000
70
192
0
VERTEX
8
OBJECT__62
10
32.900002
20
65.000000
30
25.000000
70
192
0
VERTEX
8
OBJECT__62
10
0
20
0
30
0
70
128
71
1
72
2
73
3
0
VERTEX
8
OBJECT__62
10
0
20
0
30
0
70
128
71
4
72
5
73
6
0
VERTEX
8
OBJECT__62
10
0
20
0
30
0
70
128
71
7
72
8
73
5
0
VERTEX
8
OBJECT__62
10
0
20
0
30
0
70
128
71
3
72
9
73
1
0
VERTEX
8
OBJECT__62
10
0
20
0
30
0
70
128
71
5
72
4
73
7
0
VERTEX
8
OBJECT__62
10
0
20
0
30
0
70
128
71
10
72
11
73
8
0
VERTEX
8
OBJECT__62
10
0
20
0
30
0
70
128
71
2
72
6
73
3
0
VERTEX
8
OBJECT__62
10
0
20
0
30
0
70
128
71
8
72
7
73
10
0
VERTEX
8
OBJECT__62
10
0
20
0
30
0
70
128
71
6
72
2
73
4
0
VERTEX
8
OBJECT__62
10
0
20
0
30
0
70
128
71
9
72
11
73
1
0
VERTEX
8
OBJECT__62
10
0
20
0
30
0
70
128
71
11
72
10
73
1
0
SEQEND
8
OBJECT__62
0
POLYLINE
8
OBJECT__63
66
1
70
64
71
26
72
26
62
253
0
VERTEX
8
OBJECT__63
10
38.368999
20
53.825001
30
25.000000
70
192
0
VERTEX
8
OBJECT__63
10
51.506001
20
58.094002
30
25.000000
70
192
0
VERTEX
8
OBJECT__63
10
41.250000
20
53.273998
30
27.500000
70
192
0
VERTEX
8
OBJECT__63
10
42.750000
20
53.273998
30
27.500000
70
192
0
VERTEX
8
OBJECT__63
10
42.750000
20
53.273998
30
33.500000
70
192
0
VERTEX
8
OBJECT__63
10
51.506001
20
58.094002
30
27.500000
70
192
0
VERTEX
8
OBJECT__63
10
41.250000
20
53.273998
30
33.500000
70
192
0
VERTEX
8
OBJECT__63
10
30.250000
20
65.000000
30
33.500000
70
192
0
VERTEX
8
OBJECT__63
10
30.250000
20
65.000000
30
25.000000
70
192
0
VERTEX
8
OBJECT__63
10
30.274000
20
64.250000
30
27.500000
70
192
0
VERTEX
8
OBJECT__63
10
38.368999
20
53.825001
30
27.500000
70
192
0
VERTEX
8
OBJECT__63
10
38.368999
20
76.175003
30
25.000000
70
192
0
VERTEX
8
OBJECT__63
10
30.274000
20
65.750000
30
27.500000
70
192
0
VERTEX
8
OBJECT__63
10
30.274000
20
65.750000
30
33.500000
70
192
0
VERTEX
8
OBJECT__63
10
51.506001
20
71.905998
30
25.000000
70
192
0
VERTEX
8
OBJECT__63
10
42.750000
20
76.725998
30
27.500000
70
192
0
VERTEX
8
OBJECT__63
10
41.250000
20
76.725998
30
27.500000
70
192
0
VERTEX
8
OBJECT__63
10
41.250000
20
76.725998
30
33.500000
70
192
0
VERTEX
8
OBJECT__63
10
38.368999
20
76.175003
30
27.500000
70
192
0
VERTEX
8
OBJECT__63
10
42.750000
20
76.725998
30
33.500000
70
192
0
VERTEX
8
OBJECT__63
10
53.646999
20
63.450001
30
27.500000
70
192
0
VERTEX
8
OBJECT__63
10
53.646999
20
66.550003
30
27.500000
70
192
0
VERTEX
8
OBJECT__63
10
53.646999
20
66.550003
30
33.500000
70
192
0
VERTEX
8
OBJECT__63
10
51.506001
20
71.905998
30
27.500000
70
192
0
VERTEX
8
OBJECT__63
10
53.646999
20
63.450001
30
33.500000
70
192
0
VERTEX
8
OBJECT__63
10
30.274000
20
64.250000
30
33.500000
70
192
0
VERTEX
8
OBJECT__63
10
0
20
0
30
0
70
128
71
1
72
2
73
3
0
VERTEX
8
OBJECT__63
10
0
20
0
30
0
70
128
71
3
72
4
73
5
0
VERTEX
8
OBJECT__63
10
0
20
0
30
0
70
128
71
2
72
6
73
4
0
VERTEX
8
OBJECT__63
10
0
20
0
30
0
70
128
71
4
72
3
73
2
0
VERTEX
8
OBJECT__63
10
0
20
0
30
0
70
128
71
5
72
7
73
3
0
VERTEX
8
OBJECT__63
10
0
20
0
30
0
70
128
71
8
72
9
73
10
0
VERTEX
8
OBJECT__63
10
0
20
0
30
0
70
128
71
1
72
11
73
10
0
VERTEX
8
OBJECT__63
10
0
20
0
30
0
70
128
71
10
72
9
73
1
0
VERTEX
8
OBJECT__63
10
0
20
0
30
0
70
128
71
12
72
9
73
13
0
VERTEX
8
OBJECT__63
10
0
20
0
30
0
70
128
71
8
72
14
73
13
0
VERTEX
8
OBJECT__63
10
0
20
0
30
0
70
128
71
13
72
9
73
8
0
VERTEX
8
OBJECT__63
10
0
20
0
30
0
70
128
71
15
72
12
73
16
0
VERTEX
8
OBJECT__63
10
0
20
0
30
0
70
128
71
16
72
17
73
18
0
VERTEX
8
OBJECT__63
10
0
20
0
30
0
70
128
71
12
72
19
73
17
0
VERTEX
8
OBJECT__63
10
0
20
0
30
0
70
128
71
17
72
16
73
12
0
VERTEX
8
OBJECT__63
10
0
20
0
30
0
70
128
71
18
72
20
73
16
0
VERTEX
8
OBJECT__63
10
0
20
0
30
0
70
128
71
2
72
15
73
21
0
VERTEX
8
OBJECT__63
10
0
20
0
30
0
70
128
71
21
72
22
73
23
0
VERTEX
8
OBJECT__63
10
0
20
0
30
0
70
128
71
15
72
24
73
22
0
VERTEX
8
OBJECT__63
10
0
20
0
30
0
70
128
71
22
72
21
73
15
0
VERTEX
8
OBJECT__63
10
0
20
0
30
0
70
128
71
23
72
25
73
21
0
VERTEX
8
OBJECT__63
10
0
20
0
30
0
70
128
71
21
72
6
73
2
0
VERTEX
8
OBJECT__63
10
0
20
0
30
0
70
128
71
16
72
24
73
15
0
VERTEX
8
OBJECT__63
10
0
20
0
30
0
70
128
71
13
72
19
73
12
0
VERTEX
8
OBJECT__63
10
0
20
0
30
0
70
128
71
10
72
26
73
8
0
VERTEX
8
OBJECT__63
10
0
20
0
30
0
70
128
71
3
72
11
73
1
0
SEQEND
8
OBJECT__63
0
POLYLINE
8
OBJECT__65
66
1
70
64
71
37
72
37
62
253
0
VERTEX
8
OBJECT__65
10
115.932999
20
65.000000
30
255.000000
70
192
0
VERTEX
8
OBJECT__65
10
117.728996
20
65.000000
30
253.964005
70
192
0
VERTEX
8
OBJECT__65
10
115.532997
20
85.662003
30
250.160004
70
192
0
VERTEX
8
OBJECT__65
10
111.901001
20
92.464996
30
248.016006
70
192
0
VERTEX
8
OBJECT__65
10
101.084999
20
111.209000
30
229.281998
70
192
0
VERTEX
8
OBJECT__65
10
109.323997
20
102.751999
30
239.406998
70
192
0
VERTEX
8
OBJECT__65
10
113.280998
20
91.861000
30
246.259995
70
192
0
VERTEX
8
OBJECT__65
10
86.917999
20
115.282997
30
204.744995
70
192
0
VERTEX
8
OBJECT__65
10
100.178001
20
113.314003
30
223.563995
70
192
0
VERTEX
8
OBJECT__65
10
102.660004
20
110.446999
30
227.863998
70
192
0
VERTEX
8
OBJECT__65
10
89.674004
20
115.522003
30
205.371002
70
192
0
VERTEX
8
OBJECT__65
10
88.769997
20
114.934998
30
203.806000
70
192
0
VERTEX
8
OBJECT__65
10
79.628998
20
108.994003
30
187.972000
70
192
0
VERTEX
8
OBJECT__65
10
73.900002
20
103.391998
30
182.195999
70
192
0
VERTEX
8
OBJECT__65
10
66.162003
20
79.311996
30
168.794006
70
192
0
VERTEX
8
OBJECT__65
10
71.779999
20
94.859001
30
174.376999
70
192
0
VERTEX
8
OBJECT__65
10
76.063004
20
102.573997
30
181.796997
70
192
0
VERTEX
8
OBJECT__65
10
67.484001
20
75.561996
30
166.936996
70
192
0
VERTEX
8
OBJECT__65
10
67.484001
20
54.438000
30
166.936996
70
192
0
VERTEX
8
OBJECT__65
10
65.133003
20
65.000000
30
167.011993
70
192
0
VERTEX
8
OBJECT__65
10
68.259003
20
79.043999
30
168.279007
70
192
0
VERTEX
8
OBJECT__65
10
66.162003
20
50.688000
30
168.794006
70
192
0
VERTEX
8
OBJECT__65
10
68.259003
20
50.956001
30
168.279007
70
192
0
VERTEX
8
OBJECT__65
10
71.779999
20
35.140999
30
174.376999
70
192
0
VERTEX
8
OBJECT__65
10
73.900002
20
26.608000
30
182.195999
70
192
0
VERTEX
8
OBJECT__65
10
86.917999
20
14.717000
30
204.744995
70
192
0
VERTEX
8
OBJECT__65
10
79.628998
20
21.006001
30
187.972000
70
192
0
VERTEX
8
OBJECT__65
10
76.063004
20
27.426001
30
181.796997
70
192
0
VERTEX
8
OBJECT__65
10
89.674004
20
14.478000
30
205.371002
70
192
0
VERTEX
8
OBJECT__65
10
100.178001
20
16.686001
30
223.563995
70
192
0
VERTEX
8
OBJECT__65
10
101.084999
20
18.791000
30
229.281998
70
192
0
VERTEX
8
OBJECT__65
10
88.769997
20
15.065000
30
203.806000
70
192
0
VERTEX
8
OBJECT__65
10
102.660004
20
19.552999
30
227.863998
70
192
0
VERTEX
8
OBJECT__65
10
109.323997
20
27.247999
30
239.406998
70
192
0
VERTEX
8
OBJECT__65
10
111.901001
20
37.535000
30
248.016006
70
192
0
VERTEX
8
OBJECT__65
10
115.532997
20
44.338001
30
250.160004
70
192
0
VERTEX
8
OBJECT__65
10
113.280998
20
38.139000
30
246.259995
70
192
0
VERTEX
8
OBJECT__65
10
0
20
0
30
0
70
128
71
1
72
2
73
3
0
VERTEX
8
OBJECT__65
10
0
20
0
30
0
70
128
71
3
72
4
73
1
0
VERTEX
8
OBJECT__65
10
0
20
0
30
0
70
128
71
5
72
4
73
6
0
VERTEX
8
OBJECT__65
10
0
20
0
30
0
70
128
71
4
72
7
73
6
0
VERTEX
8
OBJECT__65
10
0
20
0
30
0
70
128
71
8
72
5
73
9
0
VERTEX
8
OBJECT__65
10
0
20
0
30
0
70
128
71
5
72
10
73
9
0
VERTEX
8
OBJECT__65
10
0
20
0
30
0
70
128
71
9
72
11
73
8
0
VERTEX
8
OBJECT__65
10
0
20
0
30
0
70
128
71
8
72
12
73
13
0
VERTEX
8
OBJECT__65
10
0
20
0
30
0
70
128
71
13
72
14
73
8
0
VERTEX
8
OBJECT__65
10
0
20
0
30
0
70
128
71
15
72
14
73
16
0
VERTEX
8
OBJECT__65
10
0
20
0
30
0
70
128
71
14
72
17
73
16
0
VERTEX
8
OBJECT__65
10
0
20
0
30
0
70
128
71
18
72
19
73
20
0
VERTEX
8
OBJECT__65
10
0
20
0
30
0
70
128
71
15
72
21
73
18
0
VERTEX
8
OBJECT__65
10
0
20
0
30
0
70
128
71
22
72
20
73
19
0
VERTEX
8
OBJECT__65
10
0
20
0
30
0
70
128
71
19
72
23
73
22
0
VERTEX
8
OBJECT__65
10
0
20
0
30
0
70
128
71
22
72
23
73
24
0
VERTEX
8
OBJECT__65
10
0
20
0
30
0
70
128
71
24
72
25
73
22
0
VERTEX
8
OBJECT__65
10
0
20
0
30
0
70
128
71
26
72
25
73
27
0
VERTEX
8
OBJECT__65
10
0
20
0
30
0
70
128
71
25
72
28
73
27
0
VERTEX
8
OBJECT__65
10
0
20
0
30
0
70
128
71
26
72
29
73
30
0
VERTEX
8
OBJECT__65
10
0
20
0
30
0
70
128
71
30
72
31
73
26
0
VERTEX
8
OBJECT__65
10
0
20
0
30
0
70
128
71
26
72
32
73
29
0
VERTEX
8
OBJECT__65
10
0
20
0
30
0
70
128
71
31
72
33
73
34
0
VERTEX
8
OBJECT__65
10
0
20
0
30
0
70
128
71
34
72
35
73
31
0
VERTEX
8
OBJECT__65
10
0
20
0
30
0
70
128
71
1
72
35
73
36
0
VERTEX
8
OBJECT__65
10
0
20
0
30
0
70
128
71
35
72
37
73
36
0
VERTEX
8
OBJECT__65
10
0
20
0
30
0
70
128
71
36
72
2
73
1
0
VERTEX
8
OBJECT__65
10
0
20
0
30
0
70
128
71
34
72
37
73
35
0
VERTEX
8
OBJECT__65
10
0
20
0
30
0
70
128
71
30
72
33
73
31
0
VERTEX
8
OBJECT__65
10
0
20
0
30
0
70
128
71
27
72
32
73
26
0
VERTEX
8
OBJECT__65
10
0
20
0
30
0
70
128
71
24
72
28
73
25
0
VERTEX
8
OBJECT__65
10
0
20
0
30
0
70
128
71
20
72
15
73
18
0
VERTEX
8
OBJECT__65
10
0
20
0
30
0
70
128
71
16
72
21
73
15
0
VERTEX
8
OBJECT__65
10
0
20
0
30
0
70
128
71
13
72
17
73
14
0
VERTEX
8
OBJECT__65
10
0
20
0
30
0
70
128
71
11
72
12
73
8
0
VERTEX
8
OBJECT__65
10
0
20
0
30
0
70
128
71
6
72
10
73
5
0
VERTEX
8
OBJECT__65
10
0
20
0
30
0
70
128
71
3
72
7
73
4
0
SEQEND
8
OBJECT__65
0
POLYLINE
8
OBJECT__66
66
1
70
64
71
62
72
78
62
253
0
VERTEX
8
OBJECT__66
10
117.728996
20
65.000000
30
253.964005
70
192
0
VERTEX
8
OBJECT__66
10
115.658997
20
65.000000
30
227.188004
70
192
0
VERTEX
8
OBJECT__66
10
114.510002
20
75.809998
30
225.197998
70
192
0
VERTEX
8
OBJECT__66
10
113.280998
20
91.861000
30
246.259995
70
192
0
VERTEX
8
OBJECT__66
10
111.262001
20
84.750000
30
219.572998
70
192
0
VERTEX
8
OBJECT__66
10
109.323997
20
102.751999
30
239.406998
70
192
0
VERTEX
8
OBJECT__66
10
102.660004
20
110.446999
30
227.863998
70
192
0
VERTEX
8
OBJECT__66
10
106.476997
20
90.276001
30
211.283997
70
192
0
VERTEX
8
OBJECT__66
10
100.178001
20
113.314003
30
223.563995
70
192
0
VERTEX
8
OBJECT__66
10
89.674004
20
115.522003
30
205.371002
70
192
0
VERTEX
8
OBJECT__66
10
88.769997
20
114.934998
30
203.806000
70
192
0
VERTEX
8
OBJECT__66
10
100.981003
20
91.431000
30
201.766006
70
192
0
VERTEX
8
OBJECT__66
10
95.725998
20
88.015999
30
192.664001
70
192
0
VERTEX
8
OBJECT__66
10
79.628998
20
108.994003
30
187.972000
70
192
0
VERTEX
8
OBJECT__66
10
76.063004
20
102.573997
30
181.796997
70
192
0
VERTEX
8
OBJECT__66
10
91.620003
20
80.621002
30
185.550995
70
192
0
VERTEX
8
OBJECT__66
10
71.779999
20
94.859001
30
174.376999
70
192
0
VERTEX
8
OBJECT__66
10
68.259003
20
79.043999
30
168.279007
70
192
0
VERTEX
8
OBJECT__66
10
89.372002
20
70.526001
30
181.658997
70
192
0
VERTEX
8
OBJECT__66
10
67.484001
20
75.561996
30
166.936996
70
192
0
VERTEX
8
OBJECT__66
10
68.212997
20
65.032997
30
166.608002
70
192
0
VERTEX
8
OBJECT__66
10
68.212997
20
65.000000
30
166.608002
70
192
0
VERTEX
8
OBJECT__66
10
80.837997
20
67.396004
30
174.365005
70
192
0
VERTEX
8
OBJECT__66
10
76.795998
20
67.399002
30
171.574005
70
192
0
VERTEX
8
OBJECT__66
10
81.572998
20
67.285004
30
174.906006
70
192
0
VERTEX
8
OBJECT__66
10
70.772003
20
67.405998
30
167.983002
70
192
0
VERTEX
8
OBJECT__66
10
82.442001
20
66.040001
30
175.550995
70
192
0
VERTEX
8
OBJECT__66
10
82.042000
20
66.612000
30
175.253998
70
192
0
VERTEX
8
OBJECT__66
10
83.167000
20
65.000000
30
176.089996
70
192
0
VERTEX
8
OBJECT__66
10
82.875999
20
65.417000
30
175.873993
70
192
0
VERTEX
8
OBJECT__66
10
81.628998
20
67.204002
30
174.947998
70
192
0
VERTEX
8
OBJECT__66
10
89.372002
20
59.473999
30
181.658997
70
192
0
VERTEX
8
OBJECT__66
10
83.167000
20
64.983002
30
176.089996
70
192
0
VERTEX
8
OBJECT__66
10
67.484001
20
54.438000
30
166.936996
70
192
0
VERTEX
8
OBJECT__66
10
75.872002
20
62.599998
30
171.028000
70
192
0
VERTEX
8
OBJECT__66
10
80.837997
20
62.604000
30
174.365005
70
192
0
VERTEX
8
OBJECT__66
10
70.772003
20
62.594002
30
167.983002
70
192
0
VERTEX
8
OBJECT__66
10
74.885002
20
62.598999
30
170.363998
70
192
0
VERTEX
8
OBJECT__66
10
69.963997
20
62.705002
30
167.544998
70
192
0
VERTEX
8
OBJECT__66
10
69.398003
20
63.446999
30
167.242004
70
192
0
VERTEX
8
OBJECT__66
10
69.905998
20
62.780998
30
167.514008
70
192
0
VERTEX
8
OBJECT__66
10
68.848000
20
64.167000
30
166.947998
70
192
0
VERTEX
8
OBJECT__66
10
68.401001
20
64.752998
30
166.709000
70
192
0
VERTEX
8
OBJECT__66
10
68.259003
20
50.956001
30
168.279007
70
192
0
VERTEX
8
OBJECT__66
10
91.620003
20
49.379002
30
185.550995
70
192
0
VERTEX
8
OBJECT__66
10
71.779999
20
35.140999
30
174.376999
70
192
0
VERTEX
8
OBJECT__66
10
76.063004
20
27.426001
30
181.796997
70
192
0
VERTEX
8
OBJECT__66
10
95.725998
20
41.984001
30
192.664001
70
192
0
VERTEX
8
OBJECT__66
10
79.628998
20
21.006001
30
187.972000
70
192
0
VERTEX
8
OBJECT__66
10
88.769997
20
15.065000
30
203.806000
70
192
0
VERTEX
8
OBJECT__66
10
100.981003
20
38.569000
30
201.766006
70
192
0
VERTEX
8
OBJECT__66
10
89.674004
20
14.478000
30
205.371002
70
192
0
VERTEX
8
OBJECT__66
10
100.178001
20
16.686001
30
223.563995
70
192
0
VERTEX
8
OBJECT__66
10
102.660004
20
19.552999
30
227.863998
70
192
0
VERTEX
8
OBJECT__66
10
106.476997
20
39.723999
30
211.283997
70
192
0
VERTEX
8
OBJECT__66
10
111.262001
20
45.250000
30
219.572998
70
192
0
VERTEX
8
OBJECT__66
10
109.323997
20
27.247999
30
239.406998
70
192
0
VERTEX
8
OBJECT__66
10
113.280998
20
38.139000
30
246.259995
70
192
0
VERTEX
8
OBJECT__66
10
114.510002
20
54.189999
30
225.197998
70
192
0
VERTEX
8
OBJECT__66
10
115.532997
20
44.338001
30
250.160004
70
192
0
VERTEX
8
OBJECT__66
10
115.532997
20
85.662003
30
250.160004
70
192
0
VERTEX
8
OBJECT__66
10
105.710999
20
65.000000
30
202.242996
70
192
0
VERTEX
8
OBJECT__66
10
0
20
0
30
0
70
128
71
1
72
2
73
3
0
VERTEX
8
OBJECT__66
10
0
20
0
30
0
70
128
71
4
72
3
73
5
0
VERTEX
8
OBJECT__66
10
0
20
0
30
0
70
128
71
5
72
6
73
4
0
VERTEX
8
OBJECT__66
10
0
20
0
30
0
70
128
71
7
72
6
73
5
0
VERTEX
8
OBJECT__66
10
0
20
0
30
0
70
128
71
8
72
9
73
7
0
VERTEX
8
OBJECT__66
10
0
20
0
30
0
70
128
71
10
72
9
73
8
0
VERTEX
8
OBJECT__66
10
0
20
0
30
0
70
128
71
11
72
12
73
13
0
VERTEX
8
OBJECT__66
10
0
20
0
30
0
70
128
71
13
72
14
73
11
0
VERTEX
8
OBJECT__66
10
0
20
0
30
0
70
128
71
15
72
13
73
16
0
VERTEX
8
OBJECT__66
10
0
20
0
30
0
70
128
71
16
72
17
73
15
0
VERTEX
8
OBJECT__66
10
0
20
0
30
0
70
128
71
18
72
17
73
16
0
VERTEX
8
OBJECT__66
10
0
20
0
30
0
70
128
71
19
72
20
73
18
0
VERTEX
8
OBJECT__66
10
0
20
0
30
0
70
128
71
20
72
21
73
22
0
VERTEX
8
OBJECT__66
10
0
20
0
30
0
70
128
71
20
72
23
73
24
0
VERTEX
8
OBJECT__66
10
0
20
0
30
0
70
128
71
19
72
25
73
23
0
VERTEX
8
OBJECT__66
10
0
20
0
30
0
70
128
71
23
72
20
73
19
0
VERTEX
8
OBJECT__66
10
0
20
0
30
0
70
128
71
24
72
26
73
20
0
VERTEX
8
OBJECT__66
10
0
20
0
30
0
70
128
71
19
72
27
73
28
0
VERTEX
8
OBJECT__66
10
0
20
0
30
0
70
128
71
19
72
29
73
30
0
VERTEX
8
OBJECT__66
10
0
20
0
30
0
70
128
71
30
72
27
73
19
0
VERTEX
8
OBJECT__66
10
0
20
0
30
0
70
128
71
28
72
31
73
19
0
VERTEX
8
OBJECT__66
10
0
20
0
30
0
70
128
71
32
72
33
73
29
0
VERTEX
8
OBJECT__66
10
0
20
0
30
0
70
128
71
29
72
19
73
32
0
VERTEX
8
OBJECT__66
10
0
20
0
30
0
70
128
71
31
72
25
73
19
0
VERTEX
8
OBJECT__66
10
0
20
0
30
0
70
128
71
26
72
21
73
20
0
VERTEX
8
OBJECT__66
10
0
20
0
30
0
70
128
71
34
72
35
73
36
0
VERTEX
8
OBJECT__66
10
0
20
0
30
0
70
128
71
34
72
37
73
38
0
VERTEX
8
OBJECT__66
10
0
20
0
30
0
70
128
71
38
72
35
73
34
0
VERTEX
8
OBJECT__66
10
0
20
0
30
0
70
128
71
34
72
39
73
37
0
VERTEX
8
OBJECT__66
10
0
20
0
30
0
70
128
71
36
72
32
73
34
0
VERTEX
8
OBJECT__66
10
0
20
0
30
0
70
128
71
34
72
40
73
41
0
VERTEX
8
OBJECT__66
10
0
20
0
30
0
70
128
71
34
72
42
73
40
0
VERTEX
8
OBJECT__66
10
0
20
0
30
0
70
128
71
34
72
43
73
42
0
VERTEX
8
OBJECT__66
10
0
20
0
30
0
70
128
71
34
72
22
73
43
0
VERTEX
8
OBJECT__66
10
0
20
0
30
0
70
128
71
41
72
39
73
34
0
VERTEX
8
OBJECT__66
10
0
20
0
30
0
70
128
71
36
72
33
73
32
0
VERTEX
8
OBJECT__66
10
0
20
0
30
0
70
128
71
44
72
32
73
45
0
VERTEX
8
OBJECT__66
10
0
20
0
30
0
70
128
71
45
72
46
73
44
0
VERTEX
8
OBJECT__66
10
0
20
0
30
0
70
128
71
47
72
46
73
45
0
VERTEX
8
OBJECT__66
10
0
20
0
30
0
70
128
71
48
72
49
73
47
0
VERTEX
8
OBJECT__66
10
0
20
0
30
0
70
128
71
50
72
49
73
48
0
VERTEX
8
OBJECT__66
10
0
20
0
30
0
70
128
71
51
72
52
73
50
0
VERTEX
8
OBJECT__66
10
0
20
0
30
0
70
128
71
53
72
52
73
51
0
VERTEX
8
OBJECT__66
10
0
20
0
30
0
70
128
71
54
72
55
73
56
0
VERTEX
8
OBJECT__66
10
0
20
0
30
0
70
128
71
56
72
57
73
54
0
VERTEX
8
OBJECT__66
10
0
20
0
30
0
70
128
71
58
72
57
73
56
0
VERTEX
8
OBJECT__66
10
0
20
0
30
0
70
128
71
59
72
60
73
58
0
VERTEX
8
OBJECT__66
10
0
20
0
30
0
70
128
71
60
72
59
73
2
0
VERTEX
8
OBJECT__66
10
0
20
0
30
0
70
128
71
2
72
1
73
60
0
VERTEX
8
OBJECT__66
10
0
20
0
30
0
70
128
71
56
72
59
73
58
0
VERTEX
8
OBJECT__66
10
0
20
0
30
0
70
128
71
54
72
53
73
55
0
VERTEX
8
OBJECT__66
10
0
20
0
30
0
70
128
71
51
72
55
73
53
0
VERTEX
8
OBJECT__66
10
0
20
0
30
0
70
128
71
48
72
51
73
50
0
VERTEX
8
OBJECT__66
10
0
20
0
30
0
70
128
71
45
72
48
73
47
0
VERTEX
8
OBJECT__66
10
0
20
0
30
0
70
128
71
44
72
34
73
32
0
VERTEX
8
OBJECT__66
10
0
20
0
30
0
70
128
71
22
72
34
73
20
0
VERTEX
8
OBJECT__66
10
0
20
0
30
0
70
128
71
16
72
19
73
18
0
VERTEX
8
OBJECT__66
10
0
20
0
30
0
70
128
71
15
72
14
73
13
0
VERTEX
8
OBJECT__66
10
0
20
0
30
0
70
128
71
11
72
10
73
12
0
VERTEX
8
OBJECT__66
10
0
20
0
30
0
70
128
71
8
72
12
73
10
0
VERTEX
8
OBJECT__66
10
0
20
0
30
0
70
128
71
5
72
8
73
7
0
VERTEX
8
OBJECT__66
10
0
20
0
30
0
70
128
71
4
72
61
73
3
0
VERTEX
8
OBJECT__66
10
0
20
0
30
0
70
128
71
3
72
61
73
1
0
VERTEX
8
OBJECT__66
10
0
20
0
30
0
70
128
71
2
72
59
73
62
0
VERTEX
8
OBJECT__66
10
0
20
0
30
0
70
128
71
59
72
56
73
62
0
VERTEX
8
OBJECT__66
10
0
20
0
30
0
70
128
71
56
72
55
73
62
0
VERTEX
8
OBJECT__66
10
0
20
0
30
0
70
128
71
55
72
51
73
62
0
VERTEX
8
OBJECT__66
10
0
20
0
30
0
70
128
71
51
72
48
73
62
0
VERTEX
8
OBJECT__66
10
0
20
0
30
0
70
128
71
48
72
45
73
62
0
VERTEX
8
OBJECT__66
10
0
20
0
30
0
70
128
71
45
72
32
73
62
0
VERTEX
8
OBJECT__66
10
0
20
0
30
0
70
128
71
32
72
19
73
62
0
VERTEX
8
OBJECT__66
10
0
20
0
30
0
70
128
71
19
72
16
73
62
0
VERTEX
8
OBJECT__66
10
0
20
0
30
0
70
128
71
16
72
13
73
62
0
VERTEX
8
OBJECT__66
10
0
20
0
30
0
70
128
71
13
72
12
73
62
0
VERTEX
8
OBJECT__66
10
0
20
0
30
0
70
128
71
12
72
8
73
62
0
VERTEX
8
OBJECT__66
10
0
20
0
30
0
70
128
71
8
72
5
73
62
0
VERTEX
8
OBJECT__66
10
0
20
0
30
0
70
128
71
5
72
3
73
62
0
VERTEX
8
OBJECT__66
10
0
20
0
30
0
70
128
71
3
72
2
73
62
0
SEQEND
8
OBJECT__66
0
POLYLINE
8
OBJECT__68
66
1
70
64
71
6
72
4
62
253
0
VERTEX
8
OBJECT__68
10
81.045998
20
67.250000
30
174.080002
70
192
0
VERTEX
8
OBJECT__68
10
76.102997
20
67.250000
30
170.703995
70
192
0
VERTEX
8
OBJECT__68
10
76.795998
20
67.399002
30
171.574005
70
192
0
VERTEX
8
OBJECT__68
10
70.772003
20
67.405998
30
167.983002
70
192
0
VERTEX
8
OBJECT__68
10
70.945000
20
67.250000
30
167.664001
70
192
0
VERTEX
8
OBJECT__68
10
80.837997
20
67.396004
30
174.365005
70
192
0
VERTEX
8
OBJECT__68
10
0
20
0
30
0
70
128
71
1
72
2
73
3
0
VERTEX
8
OBJECT__68
10
0
20
0
30
0
70
128
71
4
72
3
73
2
0
VERTEX
8
OBJECT__68
10
0
20
0
30
0
70
128
71
2
72
5
73
4
0
VERTEX
8
OBJECT__68
10
0
20
0
30
0
70
128
71
3
72
6
73
1
0
SEQEND
8
OBJECT__68
0
POLYLINE
8
OBJECT__69
66
1
70
64
71
13
72
11
62
253
0
VERTEX
8
OBJECT__69
10
81.795998
20
67.120003
30
174.748001
70
192
0
VERTEX
8
OBJECT__69
10
81.628998
20
67.204002
30
174.947998
70
192
0
VERTEX
8
OBJECT__69
10
82.042000
20
66.612000
30
175.253998
70
192
0
VERTEX
8
OBJECT__69
10
82.789001
20
66.317001
30
175.612000
70
192
0
VERTEX
8
OBJECT__69
10
82.367996
20
66.790001
30
175.248993
70
192
0
VERTEX
8
OBJECT__69
10
82.442001
20
66.040001
30
175.550995
70
192
0
VERTEX
8
OBJECT__69
10
82.875999
20
65.417000
30
175.873993
70
192
0
VERTEX
8
OBJECT__69
10
83.169998
20
65.000000
30
175.938004
70
192
0
VERTEX
8
OBJECT__69
10
83.092003
20
65.619003
30
175.871994
70
192
0
VERTEX
8
OBJECT__69
10
83.167000
20
65.000000
30
176.089996
70
192
0
VERTEX
8
OBJECT__69
10
81.045998
20
67.250000
30
174.080002
70
192
0
VERTEX
8
OBJECT__69
10
80.837997
20
67.396004
30
174.365005
70
192
0
VERTEX
8
OBJECT__69
10
81.572998
20
67.285004
30
174.906006
70
192
0
VERTEX
8
OBJECT__69
10
0
20
0
30
0
70
128
71
1
72
2
73
3
0
VERTEX
8
OBJECT__69
10
0
20
0
30
0
70
128
71
4
72
5
73
3
0
VERTEX
8
OBJECT__69
10
0
20
0
30
0
70
128
71
4
72
6
73
7
0
VERTEX
8
OBJECT__69
10
0
20
0
30
0
70
128
71
8
72
9
73
7
0
VERTEX
8
OBJECT__69
10
0
20
0
30
0
70
128
71
7
72
10
73
8
0
VERTEX
8
OBJECT__69
10
0
20
0
30
0
70
128
71
11
72
12
73
13
0
VERTEX
8
OBJECT__69
10
0
20
0
30
0
70
128
71
13
72
1
73
11
0
VERTEX
8
OBJECT__69
10
0
20
0
30
0
70
128
71
13
72
2
73
1
0
VERTEX
8
OBJECT__69
10
0
20
0
30
0
70
128
71
7
72
9
73
4
0
VERTEX
8
OBJECT__69
10
0
20
0
30
0
70
128
71
3
72
6
73
4
0
VERTEX
8
OBJECT__69
10
0
20
0
30
0
70
128
71
3
72
5
73
1
0
SEQEND
8
OBJECT__69
0
POLYLINE
8
OBJECT__70
66
1
70
64
71
9
72
7
62
253
0
VERTEX
8
OBJECT__70
10
76.102997
20
67.250000
30
170.703995
70
192
0
VERTEX
8
OBJECT__70
10
80.202003
20
67.250000
30
171.520996
70
192
0
VERTEX
8
OBJECT__70
10
79.760002
20
67.250000
30
170.181000
70
192
0
VERTEX
8
OBJECT__70
10
73.587997
20
67.250000
30
167.192001
70
192
0
VERTEX
8
OBJECT__70
10
73.125000
20
67.250000
30
167.113998
70
192
0
VERTEX
8
OBJECT__70
10
77.580002
20
67.250000
30
168.356003
70
192
0
VERTEX
8
OBJECT__70
10
76.849998
20
67.250000
30
167.744995
70
192
0
VERTEX
8
OBJECT__70
10
81.045998
20
67.250000
30
174.080002
70
192
0
VERTEX
8
OBJECT__70
10
70.945000
20
67.250000
30
167.664001
70
192
0
VERTEX
8
OBJECT__70
10
0
20
0
30
0
70
128
71
1
72
2
73
3
0
VERTEX
8
OBJECT__70
10
0
20
0
30
0
70
128
71
1
72
4
73
5
0
VERTEX
8
OBJECT__70
10
0
20
0
30
0
70
128
71
1
72
6
73
7
0
VERTEX
8
OBJECT__70
10
0
20
0
30
0
70
128
71
1
72
8
73
2
0
VERTEX
8
OBJECT__70
10
0
20
0
30
0
70
128
71
7
72
4
73
1
0
VERTEX
8
OBJECT__70
10
0
20
0
30
0
70
128
71
5
72
9
73
1
0
VERTEX
8
OBJECT__70
10
0
20
0
30
0
70
128
71
3
72
6
73
1
0
SEQEND
8
OBJECT__70
0
POLYLINE
8
OBJECT__71
66
1
70
64
71
7
72
5
62
253
0
VERTEX
8
OBJECT__71
10
70.945000
20
62.750000
30
167.664001
70
192
0
VERTEX
8
OBJECT__71
10
76.085999
20
62.750000
30
170.692993
70
192
0
VERTEX
8
OBJECT__71
10
74.885002
20
62.598999
30
170.363998
70
192
0
VERTEX
8
OBJECT__71
10
75.872002
20
62.599998
30
171.028000
70
192
0
VERTEX
8
OBJECT__71
10
81.045998
20
62.750000
30
174.080002
70
192
0
VERTEX
8
OBJECT__71
10
80.837997
20
62.604000
30
174.365005
70
192
0
VERTEX
8
OBJECT__71
10
70.772003
20
62.594002
30
167.983002
70
192
0
VERTEX
8
OBJECT__71
10
0
20
0
30
0
70
128
71
1
72
2
73
3
0
VERTEX
8
OBJECT__71
10
0
20
0
30
0
70
128
71
2
72
4
73
3
0
VERTEX
8
OBJECT__71
10
0
20
0
30
0
70
128
71
2
72
5
73
6
0
VERTEX
8
OBJECT__71
10
0
20
0
30
0
70
128
71
6
72
4
73
2
0
VERTEX
8
OBJECT__71
10
0
20
0
30
0
70
128
71
3
72
7
73
1
0
SEQEND
8
OBJECT__71
0
POLYLINE
8
OBJECT__72
66
1
70
64
71
13
72
11
62
253
0
VERTEX
8
OBJECT__72
10
70.945000
20
62.750000
30
167.664001
70
192
0
VERTEX
8
OBJECT__72
10
70.772003
20
62.594002
30
167.983002
70
192
0
VERTEX
8
OBJECT__72
10
69.963997
20
62.705002
30
167.544998
70
192
0
VERTEX
8
OBJECT__72
10
70.027000
20
62.879002
30
167.270996
70
192
0
VERTEX
8
OBJECT__72
10
69.905998
20
62.780998
30
167.514008
70
192
0
VERTEX
8
OBJECT__72
10
69.398003
20
63.446999
30
167.242004
70
192
0
VERTEX
8
OBJECT__72
10
68.677002
20
63.900002
30
166.671997
70
192
0
VERTEX
8
OBJECT__72
10
69.260002
20
63.259998
30
166.932999
70
192
0
VERTEX
8
OBJECT__72
10
68.401001
20
64.752998
30
166.709000
70
192
0
VERTEX
8
OBJECT__72
10
68.406998
20
64.616997
30
166.548996
70
192
0
VERTEX
8
OBJECT__72
10
68.372002
20
65.000000
30
166.533005
70
192
0
VERTEX
8
OBJECT__72
10
68.212997
20
65.000000
30
166.608002
70
192
0
VERTEX
8
OBJECT__72
10
68.848000
20
64.167000
30
166.947998
70
192
0
VERTEX
8
OBJECT__72
10
0
20
0
30
0
70
128
71
1
72
2
73
3
0
VERTEX
8
OBJECT__72
10
0
20
0
30
0
70
128
71
3
72
4
73
1
0
VERTEX
8
OBJECT__72
10
0
20
0
30
0
70
128
71
4
72
5
73
6
0
VERTEX
8
OBJECT__72
10
0
20
0
30
0
70
128
71
7
72
8
73
6
0
VERTEX
8
OBJECT__72
10
0
20
0
30
0
70
128
71
9
72
10
73
7
0
VERTEX
8
OBJECT__72
10
0
20
0
30
0
70
128
71
11
72
10
73
9
0
VERTEX
8
OBJECT__72
10
0
20
0
30
0
70
128
71
9
72
12
73
11
0
VERTEX
8
OBJECT__72
10
0
20
0
30
0
70
128
71
7
72
13
73
9
0
VERTEX
8
OBJECT__72
10
0
20
0
30
0
70
128
71
6
72
13
73
7
0
VERTEX
8
OBJECT__72
10
0
20
0
30
0
70
128
71
6
72
8
73
4
0
VERTEX
8
OBJECT__72
10
0
20
0
30
0
70
128
71
3
72
5
73
4
0
SEQEND
8
OBJECT__72
0
POLYLINE
8
OBJECT__73
66
1
70
64
71
22
72
20
62
253
0
VERTEX
8
OBJECT__73
10
78.038002
20
65.000000
30
165.820999
70
192
0
VERTEX
8
OBJECT__73
10
77.621002
20
62.750000
30
168.380997
70
192
0
VERTEX
8
OBJECT__73
10
75.038002
20
62.750000
30
167.177002
70
192
0
VERTEX
8
OBJECT__73
10
73.514000
20
65.000000
30
164.938995
70
192
0
VERTEX
8
OBJECT__73
10
78.782997
20
65.000000
30
166.470001
70
192
0
VERTEX
8
OBJECT__73
10
81.666000
20
65.000000
30
168.981003
70
192
0
VERTEX
8
OBJECT__73
10
80.367996
20
62.750000
30
171.500000
70
192
0
VERTEX
8
OBJECT__73
10
78.459999
20
62.750000
30
168.772003
70
192
0
VERTEX
8
OBJECT__73
10
82.235001
20
65.000000
30
170.651993
70
192
0
VERTEX
8
OBJECT__73
10
73.098999
20
65.000000
30
164.858002
70
192
0
VERTEX
8
OBJECT__73
10
69.260002
20
63.259998
30
166.932999
70
192
0
VERTEX
8
OBJECT__73
10
68.677002
20
63.900002
30
166.671997
70
192
0
VERTEX
8
OBJECT__73
10
70.027000
20
62.879002
30
167.270996
70
192
0
VERTEX
8
OBJECT__73
10
73.637001
20
62.750000
30
167.343994
70
192
0
VERTEX
8
OBJECT__73
10
70.945000
20
62.750000
30
167.664001
70
192
0
VERTEX
8
OBJECT__73
10
68.406998
20
64.616997
30
166.548996
70
192
0
VERTEX
8
OBJECT__73
10
83.279999
20
65.000000
30
173.716003
70
192
0
VERTEX
8
OBJECT__73
10
83.169998
20
65.000000
30
175.938004
70
192
0
VERTEX
8
OBJECT__73
10
81.916000
20
62.929001
30
174.852997
70
192
0
VERTEX
8
OBJECT__73
10
81.045998
20
62.750000
30
174.080002
70
192
0
VERTEX
8
OBJECT__73
10
80.625999
20
62.750000
30
171.869003
70
192
0
VERTEX
8
OBJECT__73
10
68.372002
20
65.000000
30
166.533005
70
192
0
VERTEX
8
OBJECT__73
10
0
20
0
30
0
70
128
71
1
72
2
73
3
0
VERTEX
8
OBJECT__73
10
0
20
0
30
0
70
128
71
3
72
4
73
1
0
VERTEX
8
OBJECT__73
10
0
20
0
30
0
70
128
71
1
72
5
73
2
0
VERTEX
8
OBJECT__73
10
0
20
0
30
0
70
128
71
6
72
7
73
8
0
VERTEX
8
OBJECT__73
10
0
20
0
30
0
70
128
71
8
72
5
73
6
0
VERTEX
8
OBJECT__73
10
0
20
0
30
0
70
128
71
6
72
9
73
7
0
VERTEX
8
OBJECT__73
10
0
20
0
30
0
70
128
71
10
72
11
73
12
0
VERTEX
8
OBJECT__73
10
0
20
0
30
0
70
128
71
10
72
13
73
11
0
VERTEX
8
OBJECT__73
10
0
20
0
30
0
70
128
71
14
72
15
73
10
0
VERTEX
8
OBJECT__73
10
0
20
0
30
0
70
128
71
10
72
4
73
14
0
VERTEX
8
OBJECT__73
10
0
20
0
30
0
70
128
71
15
72
13
73
10
0
VERTEX
8
OBJECT__73
10
0
20
0
30
0
70
128
71
12
72
16
73
10
0
VERTEX
8
OBJECT__73
10
0
20
0
30
0
70
128
71
17
72
18
73
19
0
VERTEX
8
OBJECT__73
10
0
20
0
30
0
70
128
71
17
72
20
73
21
0
VERTEX
8
OBJECT__73
10
0
20
0
30
0
70
128
71
21
72
9
73
17
0
VERTEX
8
OBJECT__73
10
0
20
0
30
0
70
128
71
19
72
20
73
17
0
VERTEX
8
OBJECT__73
10
0
20
0
30
0
70
128
71
21
72
7
73
9
0
VERTEX
8
OBJECT__73
10
0
20
0
30
0
70
128
71
16
72
22
73
10
0
VERTEX
8
OBJECT__73
10
0
20
0
30
0
70
128
71
8
72
2
73
5
0
VERTEX
8
OBJECT__73
10
0
20
0
30
0
70
128
71
3
72
14
73
4
0
SEQEND
8
OBJECT__73
0
POLYLINE
8
OBJECT__74
66
1
70
64
71
22
72
20
62
253
0
VERTEX
8
OBJECT__74
10
76.849998
20
67.250000
30
167.744995
70
192
0
VERTEX
8
OBJECT__74
10
77.580002
20
67.250000
30
168.356003
70
192
0
VERTEX
8
OBJECT__74
10
78.782997
20
65.000000
30
166.470001
70
192
0
VERTEX
8
OBJECT__74
10
73.514000
20
65.000000
30
164.938995
70
192
0
VERTEX
8
OBJECT__74
10
73.587997
20
67.250000
30
167.192001
70
192
0
VERTEX
8
OBJECT__74
10
78.038002
20
65.000000
30
165.820999
70
192
0
VERTEX
8
OBJECT__74
10
73.125000
20
67.250000
30
167.113998
70
192
0
VERTEX
8
OBJECT__74
10
73.098999
20
65.000000
30
164.858002
70
192
0
VERTEX
8
OBJECT__74
10
69.889000
20
67.074997
30
167.210999
70
192
0
VERTEX
8
OBJECT__74
10
70.945000
20
67.250000
30
167.664001
70
192
0
VERTEX
8
OBJECT__74
10
68.372002
20
65.000000
30
166.533005
70
192
0
VERTEX
8
OBJECT__74
10
82.235001
20
65.000000
30
170.651993
70
192
0
VERTEX
8
OBJECT__74
10
81.666000
20
65.000000
30
168.981003
70
192
0
VERTEX
8
OBJECT__74
10
79.760002
20
67.250000
30
170.181000
70
192
0
VERTEX
8
OBJECT__74
10
83.279999
20
65.000000
30
173.716003
70
192
0
VERTEX
8
OBJECT__74
10
82.789001
20
66.317001
30
175.612000
70
192
0
VERTEX
8
OBJECT__74
10
83.092003
20
65.619003
30
175.871994
70
192
0
VERTEX
8
OBJECT__74
10
82.367996
20
66.790001
30
175.248993
70
192
0
VERTEX
8
OBJECT__74
10
81.795998
20
67.120003
30
174.748001
70
192
0
VERTEX
8
OBJECT__74
10
80.202003
20
67.250000
30
171.520996
70
192
0
VERTEX
8
OBJECT__74
10
81.045998
20
67.250000
30
174.080002
70
192
0
VERTEX
8
OBJECT__74
10
83.169998
20
65.000000
30
175.938004
70
192
0
VERTEX
8
OBJECT__74
10
0
20
0
30
0
70
128
71
1
72
2
73
3
0
VERTEX
8
OBJECT__74
10
0
20
0
30
0
70
128
71
4
72
5
73
1
0
VERTEX
8
OBJECT__74
10
0
20
0
30
0
70
128
71
1
72
6
73
4
0
VERTEX
8
OBJECT__74
10
0
20
0
30
0
70
128
71
7
72
5
73
4
0
VERTEX
8
OBJECT__74
10
0
20
0
30
0
70
128
71
8
72
9
73
10
0
VERTEX
8
OBJECT__74
10
0
20
0
30
0
70
128
71
8
72
11
73
9
0
VERTEX
8
OBJECT__74
10
0
20
0
30
0
70
128
71
10
72
7
73
8
0
VERTEX
8
OBJECT__74
10
0
20
0
30
0
70
128
71
12
72
13
73
14
0
VERTEX
8
OBJECT__74
10
0
20
0
30
0
70
128
71
3
72
2
73
14
0
VERTEX
8
OBJECT__74
10
0
20
0
30
0
70
128
71
14
72
13
73
3
0
VERTEX
8
OBJECT__74
10
0
20
0
30
0
70
128
71
15
72
16
73
17
0
VERTEX
8
OBJECT__74
10
0
20
0
30
0
70
128
71
15
72
18
73
16
0
VERTEX
8
OBJECT__74
10
0
20
0
30
0
70
128
71
19
72
18
73
15
0
VERTEX
8
OBJECT__74
10
0
20
0
30
0
70
128
71
12
72
20
73
21
0
VERTEX
8
OBJECT__74
10
0
20
0
30
0
70
128
71
21
72
19
73
12
0
VERTEX
8
OBJECT__74
10
0
20
0
30
0
70
128
71
15
72
12
73
19
0
VERTEX
8
OBJECT__74
10
0
20
0
30
0
70
128
71
17
72
22
73
15
0
VERTEX
8
OBJECT__74
10
0
20
0
30
0
70
128
71
14
72
20
73
12
0
VERTEX
8
OBJECT__74
10
0
20
0
30
0
70
128
71
4
72
8
73
7
0
VERTEX
8
OBJECT__74
10
0
20
0
30
0
70
128
71
3
72
6
73
1
0
SEQEND
8
OBJECT__74
0
POLYLINE
8
OBJECT__75
66
1
70
64
71
9
72
7
62
253
0
VERTEX
8
OBJECT__75
10
76.085999
20
62.750000
30
170.692993
70
192
0
VERTEX
8
OBJECT__75
10
73.637001
20
62.750000
30
167.343994
70
192
0
VERTEX
8
OBJECT__75
10
75.038002
20
62.750000
30
167.177002
70
192
0
VERTEX
8
OBJECT__75
10
80.367996
20
62.750000
30
171.500000
70
192
0
VERTEX
8
OBJECT__75
10
80.625999
20
62.750000
30
171.869003
70
192
0
VERTEX
8
OBJECT__75
10
77.621002
20
62.750000
30
168.380997
70
192
0
VERTEX
8
OBJECT__75
10
78.459999
20
62.750000
30
168.772003
70
192
0
VERTEX
8
OBJECT__75
10
70.945000
20
62.750000
30
167.664001
70
192
0
VERTEX
8
OBJECT__75
10
81.045998
20
62.750000
30
174.080002
70
192
0
VERTEX
8
OBJECT__75
10
0
20
0
30
0
70
128
71
1
72
2
73
3
0
VERTEX
8
OBJECT__75
10
0
20
0
30
0
70
128
71
1
72
4
73
5
0
VERTEX
8
OBJECT__75
10
0
20
0
30
0
70
128
71
1
72
6
73
7
0
VERTEX
8
OBJECT__75
10
0
20
0
30
0
70
128
71
1
72
8
73
2
0
VERTEX
8
OBJECT__75
10
0
20
0
30
0
70
128
71
7
72
4
73
1
0
VERTEX
8
OBJECT__75
10
0
20
0
30
0
70
128
71
5
72
9
73
1
0
VERTEX
8
OBJECT__75
10
0
20
0
30
0
70
128
71
3
72
6
73
1
0
SEQEND
8
OBJECT__75
0
POLYLINE
8
OBJECT__76
66
1
70
64
71
16
72
16
62
253
0
VERTEX
8
OBJECT__76
10
25.679001
20
26.200001
30
13.016000
70
192
0
VERTEX
8
OBJECT__76
10
25.679001
20
23.200001
30
13.016000
70
192
0
VERTEX
8
OBJECT__76
10
42.000000
20
23.200001
30
20.875999
70
192
0
VERTEX
8
OBJECT__76
10
21.646999
20
26.200001
30
-4.645000
70
192
0
VERTEX
8
OBJECT__76
10
21.646999
20
23.200001
30
-4.645000
70
192
0
VERTEX
8
OBJECT__76
10
21.124001
20
23.200001
30
0.000000
70
192
0
VERTEX
8
OBJECT__76
10
21.124001
20
26.200001
30
0.000000
70
192
0
VERTEX
8
OBJECT__76
10
32.942001
20
26.200001
30
-18.809000
70
192
0
VERTEX
8
OBJECT__76
10
32.942001
20
23.200001
30
-18.809000
70
192
0
VERTEX
8
OBJECT__76
10
51.057999
20
26.200001
30
-18.809000
70
192
0
VERTEX
8
OBJECT__76
10
51.057999
20
23.200001
30
-18.809000
70
192
0
VERTEX
8
OBJECT__76
10
62.353001
20
26.200001
30
-4.645000
70
192
0
VERTEX
8
OBJECT__76
10
62.353001
20
23.200001
30
-4.645000
70
192
0
VERTEX
8
OBJECT__76
10
58.320999
20
26.200001
30
13.016000
70
192
0
VERTEX
8
OBJECT__76
10
58.320999
20
23.200001
30
13.016000
70
192
0
VERTEX
8
OBJECT__76
10
42.000000
20
26.200001
30
20.875999
70
192
0
VERTEX
8
OBJECT__76
10
0
20
0
30
0
70
128
71
1
72
2
73
3
0
VERTEX
8
OBJECT__76
10
0
20
0
30
0
70
128
71
4
72
5
73
6
0
VERTEX
8
OBJECT__76
10
0
20
0
30
0
70
128
71
2
72
1
73
7
0
VERTEX
8
OBJECT__76
10
0
20
0
30
0
70
128
71
7
72
6
73
2
0
VERTEX
8
OBJECT__76
10
0
20
0
30
0
70
128
71
8
72
9
73
5
0
VERTEX
8
OBJECT__76
10
0
20
0
30
0
70
128
71
10
72
11
73
9
0
VERTEX
8
OBJECT__76
10
0
20
0
30
0
70
128
71
12
72
13
73
11
0
VERTEX
8
OBJECT__76
10
0
20
0
30
0
70
128
71
14
72
15
73
13
0
VERTEX
8
OBJECT__76
10
0
20
0
30
0
70
128
71
3
72
15
73
14
0
VERTEX
8
OBJECT__76
10
0
20
0
30
0
70
128
71
14
72
16
73
3
0
VERTEX
8
OBJECT__76
10
0
20
0
30
0
70
128
71
13
72
12
73
14
0
VERTEX
8
OBJECT__76
10
0
20
0
30
0
70
128
71
11
72
10
73
12
0
VERTEX
8
OBJECT__76
10
0
20
0
30
0
70
128
71
9
72
8
73
10
0
VERTEX
8
OBJECT__76
10
0
20
0
30
0
70
128
71
5
72
4
73
8
0
VERTEX
8
OBJECT__76
10
0
20
0
30
0
70
128
71
6
72
7
73
4
0
VERTEX
8
OBJECT__76
10
0
20
0
30
0
70
128
71
3
72
16
73
1
0
SEQEND
8
OBJECT__76
0
POLYLINE
8
OBJECT__77
66
1
70
64
71
18
72
18
62
253
0
VERTEX
8
OBJECT__77
10
20.954000
20
23.200001
30
6.838000
70
192
0
VERTEX
8
OBJECT__77
10
28.993000
20
23.200001
30
17.903000
70
192
0
VERTEX
8
OBJECT__77
10
25.679001
20
23.200001
30
13.016000
70
192
0
VERTEX
8
OBJECT__77
10
42.000000
20
23.200001
30
20.875999
70
192
0
VERTEX
8
OBJECT__77
10
42.000000
20
23.200001
30
22.129000
70
192
0
VERTEX
8
OBJECT__77
10
55.007000
20
23.200001
30
17.903000
70
192
0
VERTEX
8
OBJECT__77
10
63.046001
20
23.200001
30
6.838000
70
192
0
VERTEX
8
OBJECT__77
10
63.046001
20
23.200001
30
-6.838000
70
192
0
VERTEX
8
OBJECT__77
10
62.353001
20
23.200001
30
-4.645000
70
192
0
VERTEX
8
OBJECT__77
10
58.320999
20
23.200001
30
13.016000
70
192
0
VERTEX
8
OBJECT__77
10
55.007000
20
23.200001
30
-17.903000
70
192
0
VERTEX
8
OBJECT__77
10
42.000000
20
23.200001
30
-22.129000
70
192
0
VERTEX
8
OBJECT__77
10
32.942001
20
23.200001
30
-18.809000
70
192
0
VERTEX
8
OBJECT__77
10
51.057999
20
23.200001
30
-18.809000
70
192
0
VERTEX
8
OBJECT__77
10
28.993000
20
23.200001
30
-17.903000
70
192
0
VERTEX
8
OBJECT__77
10
21.646999
20
23.200001
30
-4.645000
70
192
0
VERTEX
8
OBJECT__77
10
20.954000
20
23.200001
30
-6.838000
70
192
0
VERTEX
8
OBJECT__77
10
21.124001
20
23.200001
30
0.000000
70
192
0
VERTEX
8
OBJECT__77
10
0
20
0
30
0
70
128
71
1
72
2
73
3
0
VERTEX
8
OBJECT__77
10
0
20
0
30
0
70
128
71
4
72
3
73
2
0
VERTEX
8
OBJECT__77
10
0
20
0
30
0
70
128
71
2
72
5
73
4
0
VERTEX
8
OBJECT__77
10
0
20
0
30
0
70
128
71
4
72
5
73
6
0
VERTEX
8
OBJECT__77
10
0
20
0
30
0
70
128
71
7
72
8
73
9
0
VERTEX
8
OBJECT__77
10
0
20
0
30
0
70
128
71
6
72
10
73
4
0
VERTEX
8
OBJECT__77
10
0
20
0
30
0
70
128
71
9
72
10
73
7
0
VERTEX
8
OBJECT__77
10
0
20
0
30
0
70
128
71
10
72
6
73
7
0
VERTEX
8
OBJECT__77
10
0
20
0
30
0
70
128
71
9
72
8
73
11
0
VERTEX
8
OBJECT__77
10
0
20
0
30
0
70
128
71
12
72
13
73
14
0
VERTEX
8
OBJECT__77
10
0
20
0
30
0
70
128
71
11
72
14
73
9
0
VERTEX
8
OBJECT__77
10
0
20
0
30
0
70
128
71
12
72
15
73
13
0
VERTEX
8
OBJECT__77
10
0
20
0
30
0
70
128
71
16
72
13
73
15
0
VERTEX
8
OBJECT__77
10
0
20
0
30
0
70
128
71
17
72
1
73
18
0
VERTEX
8
OBJECT__77
10
0
20
0
30
0
70
128
71
14
72
11
73
12
0
VERTEX
8
OBJECT__77
10
0
20
0
30
0
70
128
71
18
72
16
73
17
0
VERTEX
8
OBJECT__77
10
0
20
0
30
0
70
128
71
15
72
17
73
16
0
VERTEX
8
OBJECT__77
10
0
20
0
30
0
70
128
71
3
72
18
73
1
0
SEQEND
8
OBJECT__77
0
POLYLINE
8
OBJECT__79
66
1
70
64
71
58
72
66
62
253
0
VERTEX
8
OBJECT__79
10
42.000000
20
23.200001
30
-22.129000
70
192
0
VERTEX
8
OBJECT__79
10
55.007000
20
23.200001
30
-17.903000
70
192
0
VERTEX
8
OBJECT__79
10
53.012001
20
-3.916000
30
-15.157000
70
192
0
VERTEX
8
OBJECT__79
10
63.046001
20
23.200001
30
-6.838000
70
192
0
VERTEX
8
OBJECT__79
10
59.818001
20
-3.916000
30
-5.790000
70
192
0
VERTEX
8
OBJECT__79
10
63.046001
20
23.200001
30
6.838000
70
192
0
VERTEX
8
OBJECT__79
10
59.818001
20
-3.916000
30
5.790000
70
192
0
VERTEX
8
OBJECT__79
10
55.007000
20
23.200001
30
17.903000
70
192
0
VERTEX
8
OBJECT__79
10
53.012001
20
-3.916000
30
15.157000
70
192
0
VERTEX
8
OBJECT__79
10
42.000000
20
23.200001
30
22.129000
70
192
0
VERTEX
8
OBJECT__79
10
42.000000
20
-3.916000
30
18.735001
70
192
0
VERTEX
8
OBJECT__79
10
42.000000
20
-3.916000
30
-18.735001
70
192
0
VERTEX
8
OBJECT__79
10
48.965000
20
-30.361000
30
-9.586000
70
192
0
VERTEX
8
OBJECT__79
10
53.269001
20
-30.361000
30
-3.662000
70
192
0
VERTEX
8
OBJECT__79
10
50.027000
20
-30.361000
30
-8.123000
70
192
0
VERTEX
8
OBJECT__79
10
53.269001
20
-30.361000
30
3.662000
70
192
0
VERTEX
8
OBJECT__79
10
53.269001
20
-30.361000
30
0.000000
70
192
0
VERTEX
8
OBJECT__79
10
50.027000
20
-30.361000
30
8.123000
70
192
0
VERTEX
8
OBJECT__79
10
48.965000
20
-30.361000
30
9.586000
70
192
0
VERTEX
8
OBJECT__79
10
42.000000
20
-30.361000
30
11.849000
70
192
0
VERTEX
8
OBJECT__79
10
28.993000
20
23.200001
30
-17.903000
70
192
0
VERTEX
8
OBJECT__79
10
31.812000
20
21.200001
30
-19.500000
70
192
0
VERTEX
8
OBJECT__79
10
32.027000
20
0.789000
30
-16.853001
70
192
0
VERTEX
8
OBJECT__79
10
32.296001
20
-3.892000
30
-15.881000
70
192
0
VERTEX
8
OBJECT__79
10
20.954000
20
23.200001
30
-6.838000
70
192
0
VERTEX
8
OBJECT__79
10
29.068001
20
21.200001
30
-17.799000
70
192
0
VERTEX
8
OBJECT__79
10
21.076000
20
21.200001
30
-6.799000
70
192
0
VERTEX
8
OBJECT__79
10
21.076000
20
21.200001
30
6.799000
70
192
0
VERTEX
8
OBJECT__79
10
28.993000
20
23.200001
30
17.903000
70
192
0
VERTEX
8
OBJECT__79
10
20.954000
20
23.200001
30
6.838000
70
192
0
VERTEX
8
OBJECT__79
10
31.850000
20
9.850000
30
18.278000
70
192
0
VERTEX
8
OBJECT__79
10
31.812000
20
21.200001
30
19.500000
70
192
0
VERTEX
8
OBJECT__79
10
29.068001
20
21.200001
30
17.799000
70
192
0
VERTEX
8
OBJECT__79
10
32.994999
20
-15.626000
30
13.393000
70
192
0
VERTEX
8
OBJECT__79
10
32.736000
20
-16.951000
30
12.776000
70
192
0
VERTEX
8
OBJECT__79
10
32.977001
20
-14.369000
30
13.756000
70
192
0
VERTEX
8
OBJECT__79
10
32.487000
20
-3.854000
30
15.719000
70
192
0
VERTEX
8
OBJECT__79
10
30.731001
20
-30.361000
30
3.662000
70
192
0
VERTEX
8
OBJECT__79
10
33.973000
20
-30.361000
30
8.123000
70
192
0
VERTEX
8
OBJECT__79
10
29.462000
20
-24.278999
30
5.674000
70
192
0
VERTEX
8
OBJECT__79
10
30.700001
20
-21.910000
30
8.330000
70
192
0
VERTEX
8
OBJECT__79
10
35.035000
20
-30.361000
30
9.586000
70
192
0
VERTEX
8
OBJECT__79
10
32.403999
20
-18.650000
30
11.985000
70
192
0
VERTEX
8
OBJECT__79
10
30.731001
20
-30.361000
30
0.000000
70
192
0
VERTEX
8
OBJECT__79
10
28.886000
20
-25.098000
30
-0.029000
70
192
0
VERTEX
8
OBJECT__79
10
28.698000
20
-25.365000
30
-1.886000
70
192
0
VERTEX
8
OBJECT__79
10
29.313000
20
-24.490999
30
4.198000
70
192
0
VERTEX
8
OBJECT__79
10
30.731001
20
-30.361000
30
-3.662000
70
192
0
VERTEX
8
OBJECT__79
10
30.656000
20
-22.257999
30
-8.604000
70
192
0
VERTEX
8
OBJECT__79
10
35.035000
20
-30.361000
30
-9.586000
70
192
0
VERTEX
8
OBJECT__79
10
33.973000
20
-30.361000
30
-8.123000
70
192
0
VERTEX
8
OBJECT__79
10
29.455000
20
-24.254000
30
-5.676000
70
192
0
VERTEX
8
OBJECT__79
10
29.158001
20
-24.690001
30
-4.190000
70
192
0
VERTEX
8
OBJECT__79
10
31.052999
20
-21.599001
30
-9.571000
70
192
0
VERTEX
8
OBJECT__79
10
32.551998
20
-17.933001
30
-12.343000
70
192
0
VERTEX
8
OBJECT__79
10
42.000000
20
-30.361000
30
-11.849000
70
192
0
VERTEX
8
OBJECT__79
10
32.681000
20
-16.606001
30
-12.850000
70
192
0
VERTEX
8
OBJECT__79
10
32.896999
20
-14.371000
30
-13.703000
70
192
0
VERTEX
8
OBJECT__79
10
0
20
0
30
0
70
128
71
1
72
2
73
3
0
VERTEX
8
OBJECT__79
10
0
20
0
30
0
70
128
71
2
72
4
73
5
0
VERTEX
8
OBJECT__79
10
0
20
0
30
0
70
128
71
4
72
6
73
7
0
VERTEX
8
OBJECT__79
10
0
20
0
30
0
70
128
71
8
72
9
73
7
0
VERTEX
8
OBJECT__79
10
0
20
0
30
0
70
128
71
10
72
11
73
9
0
VERTEX
8
OBJECT__79
10
0
20
0
30
0
70
128
71
12
72
3
73
13
0
VERTEX
8
OBJECT__79
10
0
20
0
30
0
70
128
71
5
72
14
73
15
0
VERTEX
8
OBJECT__79
10
0
20
0
30
0
70
128
71
15
72
3
73
5
0
VERTEX
8
OBJECT__79
10
0
20
0
30
0
70
128
71
7
72
16
73
17
0
VERTEX
8
OBJECT__79
10
0
20
0
30
0
70
128
71
17
72
5
73
7
0
VERTEX
8
OBJECT__79
10
0
20
0
30
0
70
128
71
7
72
9
73
18
0
VERTEX
8
OBJECT__79
10
0
20
0
30
0
70
128
71
9
72
19
73
18
0
VERTEX
8
OBJECT__79
10
0
20
0
30
0
70
128
71
9
72
11
73
20
0
VERTEX
8
OBJECT__79
10
0
20
0
30
0
70
128
71
21
72
1
73
22
0
VERTEX
8
OBJECT__79
10
0
20
0
30
0
70
128
71
1
72
12
73
23
0
VERTEX
8
OBJECT__79
10
0
20
0
30
0
70
128
71
12
72
24
73
23
0
VERTEX
8
OBJECT__79
10
0
20
0
30
0
70
128
71
23
72
22
73
1
0
VERTEX
8
OBJECT__79
10
0
20
0
30
0
70
128
71
25
72
21
73
26
0
VERTEX
8
OBJECT__79
10
0
20
0
30
0
70
128
71
25
72
27
73
28
0
VERTEX
8
OBJECT__79
10
0
20
0
30
0
70
128
71
29
72
30
73
28
0
VERTEX
8
OBJECT__79
10
0
20
0
30
0
70
128
71
11
72
10
73
31
0
VERTEX
8
OBJECT__79
10
0
20
0
30
0
70
128
71
10
72
32
73
31
0
VERTEX
8
OBJECT__79
10
0
20
0
30
0
70
128
71
29
72
33
73
32
0
VERTEX
8
OBJECT__79
10
0
20
0
30
0
70
128
71
32
72
10
73
29
0
VERTEX
8
OBJECT__79
10
0
20
0
30
0
70
128
71
20
72
34
73
35
0
VERTEX
8
OBJECT__79
10
0
20
0
30
0
70
128
71
11
72
36
73
34
0
VERTEX
8
OBJECT__79
10
0
20
0
30
0
70
128
71
11
72
37
73
36
0
VERTEX
8
OBJECT__79
10
0
20
0
30
0
70
128
71
34
72
20
73
11
0
VERTEX
8
OBJECT__79
10
0
20
0
30
0
70
128
71
38
72
39
73
40
0
VERTEX
8
OBJECT__79
10
0
20
0
30
0
70
128
71
41
72
40
73
39
0
VERTEX
8
OBJECT__79
10
0
20
0
30
0
70
128
71
42
72
43
73
41
0
VERTEX
8
OBJECT__79
10
0
20
0
30
0
70
128
71
39
72
42
73
41
0
VERTEX
8
OBJECT__79
10
0
20
0
30
0
70
128
71
42
72
35
73
43
0
VERTEX
8
OBJECT__79
10
0
20
0
30
0
70
128
71
44
72
45
73
46
0
VERTEX
8
OBJECT__79
10
0
20
0
30
0
70
128
71
45
72
44
73
38
0
VERTEX
8
OBJECT__79
10
0
20
0
30
0
70
128
71
38
72
47
73
45
0
VERTEX
8
OBJECT__79
10
0
20
0
30
0
70
128
71
46
72
48
73
44
0
VERTEX
8
OBJECT__79
10
0
20
0
30
0
70
128
71
49
72
50
73
51
0
VERTEX
8
OBJECT__79
10
0
20
0
30
0
70
128
71
51
72
52
73
49
0
VERTEX
8
OBJECT__79
10
0
20
0
30
0
70
128
71
51
72
48
73
53
0
VERTEX
8
OBJECT__79
10
0
20
0
30
0
70
128
71
53
72
52
73
51
0
VERTEX
8
OBJECT__79
10
0
20
0
30
0
70
128
71
49
72
54
73
50
0
VERTEX
8
OBJECT__79
10
0
20
0
30
0
70
128
71
54
72
55
73
50
0
VERTEX
8
OBJECT__79
10
0
20
0
30
0
70
128
71
56
72
50
73
57
0
VERTEX
8
OBJECT__79
10
0
20
0
30
0
70
128
71
57
72
12
73
56
0
VERTEX
8
OBJECT__79
10
0
20
0
30
0
70
128
71
57
72
58
73
12
0
VERTEX
8
OBJECT__79
10
0
20
0
30
0
70
128
71
58
72
24
73
12
0
VERTEX
8
OBJECT__79
10
0
20
0
30
0
70
128
71
55
72
57
73
50
0
VERTEX
8
OBJECT__79
10
0
20
0
30
0
70
128
71
46
72
53
73
48
0
VERTEX
8
OBJECT__79
10
0
20
0
30
0
70
128
71
40
72
47
73
38
0
VERTEX
8
OBJECT__79
10
0
20
0
30
0
70
128
71
35
72
42
73
20
0
VERTEX
8
OBJECT__79
10
0
20
0
30
0
70
128
71
31
72
37
73
11
0
VERTEX
8
OBJECT__79
10
0
20
0
30
0
70
128
71
28
72
33
73
29
0
VERTEX
8
OBJECT__79
10
0
20
0
30
0
70
128
71
28
72
30
73
25
0
VERTEX
8
OBJECT__79
10
0
20
0
30
0
70
128
71
26
72
27
73
25
0
VERTEX
8
OBJECT__79
10
0
20
0
30
0
70
128
71
22
72
26
73
21
0
VERTEX
8
OBJECT__79
10
0
20
0
30
0
70
128
71
20
72
19
73
9
0
VERTEX
8
OBJECT__79
10
0
20
0
30
0
70
128
71
18
72
16
73
7
0
VERTEX
8
OBJECT__79
10
0
20
0
30
0
70
128
71
17
72
14
73
5
0
VERTEX
8
OBJECT__79
10
0
20
0
30
0
70
128
71
15
72
13
73
3
0
VERTEX
8
OBJECT__79
10
0
20
0
30
0
70
128
71
13
72
56
73
12
0
VERTEX
8
OBJECT__79
10
0
20
0
30
0
70
128
71
9
72
8
73
10
0
VERTEX
8
OBJECT__79
10
0
20
0
30
0
70
128
71
7
72
6
73
8
0
VERTEX
8
OBJECT__79
10
0
20
0
30
0
70
128
71
7
72
5
73
4
0
VERTEX
8
OBJECT__79
10
0
20
0
30
0
70
128
71
5
72
3
73
2
0
VERTEX
8
OBJECT__79
10
0
20
0
30
0
70
128
71
3
72
12
73
1
0
SEQEND
8
OBJECT__79
0
POLYLINE
8
OBJECT__80
66
1
70
64
71
17
72
16
62
253
0
VERTEX
8
OBJECT__80
10
42.000000
20
-32.799999
30
0.000000
70
192
0
VERTEX
8
OBJECT__80
10
42.000000
20
-30.361000
30
11.849000
70
192
0
VERTEX
8
OBJECT__80
10
35.035000
20
-30.361000
30
9.586000
70
192
0
VERTEX
8
OBJECT__80
10
33.973000
20
-30.361000
30
8.123000
70
192
0
VERTEX
8
OBJECT__80
10
30.731001
20
-30.361000
30
3.662000
70
192
0
VERTEX
8
OBJECT__80
10
30.731001
20
-30.361000
30
0.000000
70
192
0
VERTEX
8
OBJECT__80
10
30.731001
20
-30.361000
30
-3.662000
70
192
0
VERTEX
8
OBJECT__80
10
33.973000
20
-30.361000
30
-8.123000
70
192
0
VERTEX
8
OBJECT__80
10
35.035000
20
-30.361000
30
-9.586000
70
192
0
VERTEX
8
OBJECT__80
10
42.000000
20
-30.361000
30
-11.849000
70
192
0
VERTEX
8
OBJECT__80
10
48.965000
20
-30.361000
30
-9.586000
70
192
0
VERTEX
8
OBJECT__80
10
50.027000
20
-30.361000
30
-8.123000
70
192
0
VERTEX
8
OBJECT__80
10
53.269001
20
-30.361000
30
-3.662000
70
192
0
VERTEX
8
OBJECT__80
10
53.269001
20
-30.361000
30
0.000000
70
192
0
VERTEX
8
OBJECT__80
10
53.269001
20
-30.361000
30
3.662000
70
192
0
VERTEX
8
OBJECT__80
10
50.027000
20
-30.361000
30
8.123000
70
192
0
VERTEX
8
OBJECT__80
10
48.965000
20
-30.361000
30
9.586000
70
192
0
VERTEX
8
OBJECT__80
10
0
20
0
30
0
70
128
71
1
72
2
73
3
0
VERTEX
8
OBJECT__80
10
0
20
0
30
0
70
128
71
1
72
4
73
5
0
VERTEX
8
OBJECT__80
10
0
20
0
30
0
70
128
71
1
72
6
73
7
0
VERTEX
8
OBJECT__80
10
0
20
0
30
0
70
128
71
1
72
8
73
9
0
VERTEX
8
OBJECT__80
10
0
20
0
30
0
70
128
71
1
72
10
73
11
0
VERTEX
8
OBJECT__80
10
0
20
0
30
0
70
128
71
1
72
12
73
13
0
VERTEX
8
OBJECT__80
10
0
20
0
30
0
70
128
71
1
72
14
73
15
0
VERTEX
8
OBJECT__80
10
0
20
0
30
0
70
128
71
1
72
16
73
17
0
VERTEX
8
OBJECT__80
10
0
20
0
30
0
70
128
71
17
72
2
73
1
0
VERTEX
8
OBJECT__80
10
0
20
0
30
0
70
128
71
15
72
16
73
1
0
VERTEX
8
OBJECT__80
10
0
20
0
30
0
70
128
71
13
72
14
73
1
0
VERTEX
8
OBJECT__80
10
0
20
0
30
0
70
128
71
11
72
12
73
1
0
VERTEX
8
OBJECT__80
10
0
20
0
30
0
70
128
71
9
72
10
73
1
0
VERTEX
8
OBJECT__80
10
0
20
0
30
0
70
128
71
7
72
8
73
1
0
VERTEX
8
OBJECT__80
10
0
20
0
30
0
70
128
71
5
72
6
73
1
0
VERTEX
8
OBJECT__80
10
0
20
0
30
0
70
128
71
3
72
4
73
1
0
SEQEND
8
OBJECT__80
0
POLYLINE
8
OBJECT__81
66
1
70
64
71
7
72
5
62
253
0
VERTEX
8
OBJECT__81
10
0.000000
20
-13.323000
30
13.756000
70
192
0
VERTEX
8
OBJECT__81
10
32.487000
20
-3.854000
30
15.719000
70
192
0
VERTEX
8
OBJECT__81
10
31.850000
20
9.850000
30
18.278000
70
192
0
VERTEX
8
OBJECT__81
10
16.471001
20
-14.274000
30
13.756000
70
192
0
VERTEX
8
OBJECT__81
10
32.977001
20
-14.369000
30
13.756000
70
192
0
VERTEX
8
OBJECT__81
10
0.000000
20
21.200001
30
19.500000
70
192
0
VERTEX
8
OBJECT__81
10
31.812000
20
21.200001
30
19.500000
70
192
0
VERTEX
8
OBJECT__81
10
0
20
0
30
0
70
128
71
1
72
2
73
3
0
VERTEX
8
OBJECT__81
10
0
20
0
30
0
70
128
71
2
72
1
73
4
0
VERTEX
8
OBJECT__81
10
0
20
0
30
0
70
128
71
4
72
5
73
2
0
VERTEX
8
OBJECT__81
10
0
20
0
30
0
70
128
71
3
72
6
73
1
0
VERTEX
8
OBJECT__81
10
0
20
0
30
0
70
128
71
3
72
7
73
6
0
SEQEND
8
OBJECT__81
0
POLYLINE
8
OBJECT__82
66
1
70
64
71
7
72
5
62
253
0
VERTEX
8
OBJECT__82
10
32.296001
20
-3.892000
30
-15.881000
70
192
0
VERTEX
8
OBJECT__82
10
32.896999
20
-14.371000
30
-13.703000
70
192
0
VERTEX
8
OBJECT__82
10
16.431000
20
-14.273000
30
-13.703000
70
192
0
VERTEX
8
OBJECT__82
10
0.000000
20
-13.323000
30
-13.703000
70
192
0
VERTEX
8
OBJECT__82
10
32.027000
20
0.789000
30
-16.853001
70
192
0
VERTEX
8
OBJECT__82
10
0.000000
20
21.200001
30
-19.500000
70
192
0
VERTEX
8
OBJECT__82
10
31.812000
20
21.200001
30
-19.500000
70
192
0
VERTEX
8
OBJECT__82
10
0
20
0
30
0
70
128
71
1
72
2
73
3
0
VERTEX
8
OBJECT__82
10
0
20
0
30
0
70
128
71
4
72
5
73
1
0
VERTEX
8
OBJECT__82
10
0
20
0
30
0
70
128
71
6
72
7
73
5
0
VERTEX
8
OBJECT__82
10
0
20
0
30
0
70
128
71
5
72
4
73
6
0
VERTEX
8
OBJECT__82
10
0
20
0
30
0
70
128
71
3
72
4
73
1
0
SEQEND
8
OBJECT__82
0
POLYLINE
8
OBJECT__83
66
1
70
64
71
25
72
23
62
253
0
VERTEX
8
OBJECT__83
10
16.431000
20
-14.273000
30
-13.703000
70
192
0
VERTEX
8
OBJECT__83
10
32.681000
20
-16.606001
30
-12.850000
70
192
0
VERTEX
8
OBJECT__83
10
32.551998
20
-17.933001
30
-12.343000
70
192
0
VERTEX
8
OBJECT__83
10
31.052999
20
-21.599001
30
-9.571000
70
192
0
VERTEX
8
OBJECT__83
10
32.896999
20
-14.371000
30
-13.703000
70
192
0
VERTEX
8
OBJECT__83
10
0.000000
20
-20.406000
30
-7.899000
70
192
0
VERTEX
8
OBJECT__83
10
0.000000
20
-13.323000
30
-13.703000
70
192
0
VERTEX
8
OBJECT__83
10
30.656000
20
-22.257999
30
-8.604000
70
192
0
VERTEX
8
OBJECT__83
10
0.000000
20
-22.688999
30
-6.028000
70
192
0
VERTEX
8
OBJECT__83
10
29.158001
20
-24.690001
30
-4.190000
70
192
0
VERTEX
8
OBJECT__83
10
28.698000
20
-25.365000
30
-1.886000
70
192
0
VERTEX
8
OBJECT__83
10
29.455000
20
-24.254000
30
-5.676000
70
192
0
VERTEX
8
OBJECT__83
10
0.000000
20
-22.688999
30
0.026000
70
192
0
VERTEX
8
OBJECT__83
10
0.000000
20
-22.688999
30
6.081000
70
192
0
VERTEX
8
OBJECT__83
10
28.886000
20
-25.098000
30
-0.029000
70
192
0
VERTEX
8
OBJECT__83
10
29.313000
20
-24.490999
30
4.198000
70
192
0
VERTEX
8
OBJECT__83
10
29.462000
20
-24.278999
30
5.674000
70
192
0
VERTEX
8
OBJECT__83
10
0.000000
20
-20.406000
30
7.952000
70
192
0
VERTEX
8
OBJECT__83
10
30.700001
20
-21.910000
30
8.330000
70
192
0
VERTEX
8
OBJECT__83
10
16.471001
20
-14.274000
30
13.756000
70
192
0
VERTEX
8
OBJECT__83
10
32.736000
20
-16.951000
30
12.776000
70
192
0
VERTEX
8
OBJECT__83
10
32.994999
20
-15.626000
30
13.393000
70
192
0
VERTEX
8
OBJECT__83
10
32.403999
20
-18.650000
30
11.985000
70
192
0
VERTEX
8
OBJECT__83
10
32.977001
20
-14.369000
30
13.756000
70
192
0
VERTEX
8
OBJECT__83
10
0.000000
20
-13.323000
30
13.756000
70
192
0
VERTEX
8
OBJECT__83
10
0
20
0
30
0
70
128
71
1
72
2
73
3
0
VERTEX
8
OBJECT__83
10
0
20
0
30
0
70
128
71
3
72
4
73
1
0
VERTEX
8
OBJECT__83
10
0
20
0
30
0
70
128
71
1
72
5
73
2
0
VERTEX
8
OBJECT__83
10
0
20
0
30
0
70
128
71
6
72
7
73
1
0
VERTEX
8
OBJECT__83
10
0
20
0
30
0
70
128
71
1
72
8
73
6
0
VERTEX
8
OBJECT__83
10
0
20
0
30
0
70
128
71
9
72
10
73
11
0
VERTEX
8
OBJECT__83
10
0
20
0
30
0
70
128
71
9
72
12
73
10
0
VERTEX
8
OBJECT__83
10
0
20
0
30
0
70
128
71
11
72
13
73
9
0
VERTEX
8
OBJECT__83
10
0
20
0
30
0
70
128
71
6
72
8
73
12
0
VERTEX
8
OBJECT__83
10
0
20
0
30
0
70
128
71
9
72
6
73
12
0
VERTEX
8
OBJECT__83
10
0
20
0
30
0
70
128
71
14
72
13
73
15
0
VERTEX
8
OBJECT__83
10
0
20
0
30
0
70
128
71
15
72
16
73
14
0
VERTEX
8
OBJECT__83
10
0
20
0
30
0
70
128
71
17
72
18
73
14
0
VERTEX
8
OBJECT__83
10
0
20
0
30
0
70
128
71
16
72
17
73
14
0
VERTEX
8
OBJECT__83
10
0
20
0
30
0
70
128
71
18
72
19
73
20
0
VERTEX
8
OBJECT__83
10
0
20
0
30
0
70
128
71
20
72
21
73
22
0
VERTEX
8
OBJECT__83
10
0
20
0
30
0
70
128
71
20
72
19
73
23
0
VERTEX
8
OBJECT__83
10
0
20
0
30
0
70
128
71
23
72
21
73
20
0
VERTEX
8
OBJECT__83
10
0
20
0
30
0
70
128
71
22
72
24
73
20
0
VERTEX
8
OBJECT__83
10
0
20
0
30
0
70
128
71
20
72
25
73
18
0
VERTEX
8
OBJECT__83
10
0
20
0
30
0
70
128
71
17
72
19
73
18
0
VERTEX
8
OBJECT__83
10
0
20
0
30
0
70
128
71
11
72
15
73
13
0
VERTEX
8
OBJECT__83
10
0
20
0
30
0
70
128
71
4
72
8
73
1
0
SEQEND
8
OBJECT__83
0
POLYLINE
8
OBJECT__84
66
1
70
64
71
9
72
7
62
253
0
VERTEX
8
OBJECT__84
10
0.000000
20
-22.688999
30
0.026000
70
192
0
VERTEX
8
OBJECT__84
10
0.000000
20
21.200001
30
-19.500000
70
192
0
VERTEX
8
OBJECT__84
10
0.000000
20
-13.323000
30
-13.703000
70
192
0
VERTEX
8
OBJECT__84
10
0.000000
20
-22.688999
30
6.081000
70
192
0
VERTEX
8
OBJECT__84
10
0.000000
20
-20.406000
30
-7.899000
70
192
0
VERTEX
8
OBJECT__84
10
0.000000
20
-20.406000
30
7.952000
70
192
0
VERTEX
8
OBJECT__84
10
0.000000
20
-13.323000
30
13.756000
70
192
0
VERTEX
8
OBJECT__84
10
0.000000
20
-22.688999
30
-6.028000
70
192
0
VERTEX
8
OBJECT__84
10
0.000000
20
21.200001
30
19.500000
70
192
0
VERTEX
8
OBJECT__84
10
0
20
0
30
0
70
128
71
1
72
2
73
3
0
VERTEX
8
OBJECT__84
10
0
20
0
30
0
70
128
71
2
72
1
73
4
0
VERTEX
8
OBJECT__84
10
0
20
0
30
0
70
128
71
3
72
5
73
1
0
VERTEX
8
OBJECT__84
10
0
20
0
30
0
70
128
71
2
72
6
73
7
0
VERTEX
8
OBJECT__84
10
0
20
0
30
0
70
128
71
5
72
8
73
1
0
VERTEX
8
OBJECT__84
10
0
20
0
30
0
70
128
71
4
72
6
73
2
0
VERTEX
8
OBJECT__84
10
0
20
0
30
0
70
128
71
7
72
9
73
2
0
SEQEND
8
OBJECT__84
0
POLYLINE
8
OBJECT__85
66
1
70
64
71
8
72
6
62
253
0
VERTEX
8
OBJECT__85
10
0.000000
20
21.200001
30
19.500000
70
192
0
VERTEX
8
OBJECT__85
10
21.076000
20
21.200001
30
6.799000
70
192
0
VERTEX
8
OBJECT__85
10
21.076000
20
21.200001
30
-6.799000
70
192
0
VERTEX
8
OBJECT__85
10
31.812000
20
21.200001
30
19.500000
70
192
0
VERTEX
8
OBJECT__85
10
29.068001
20
21.200001
30
17.799000
70
192
0
VERTEX
8
OBJECT__85
10
0.000000
20
21.200001
30
-19.500000
70
192
0
VERTEX
8
OBJECT__85
10
29.068001
20
21.200001
30
-17.799000
70
192
0
VERTEX
8
OBJECT__85
10
31.812000
20
21.200001
30
-19.500000
70
192
0
VERTEX
8
OBJECT__85
10
0
20
0
30
0
70
128
71
1
72
2
73
3
0
VERTEX
8
OBJECT__85
10
0
20
0
30
0
70
128
71
1
72
4
73
5
0
VERTEX
8
OBJECT__85
10
0
20
0
30
0
70
128
71
6
72
3
73
7
0
VERTEX
8
OBJECT__85
10
0
20
0
30
0
70
128
71
5
72
2
73
1
0
VERTEX
8
OBJECT__85
10
0
20
0
30
0
70
128
71
3
72
6
73
1
0
VERTEX
8
OBJECT__85
10
0
20
0
30
0
70
128
71
7
72
8
73
6
0
SEQEND
8
OBJECT__85
0
POLYLINE
8
OBJECT__86
66
1
70
64
71
10
72
8
62
253
0
VERTEX
8
OBJECT__86
10
55.040001
20
23.500000
30
17.948000
70
192
0
VERTEX
8
OBJECT__86
10
55.040001
20
23.500000
30
-17.948000
70
192
0
VERTEX
8
OBJECT__86
10
63.098999
20
23.500000
30
-6.856000
70
192
0
VERTEX
8
OBJECT__86
10
28.959999
20
23.500000
30
-17.948000
70
192
0
VERTEX
8
OBJECT__86
10
28.959999
20
23.500000
30
17.948000
70
192
0
VERTEX
8
OBJECT__86
10
20.900999
20
23.500000
30
6.856000
70
192
0
VERTEX
8
OBJECT__86
10
42.000000
20
23.500000
30
22.184999
70
192
0
VERTEX
8
OBJECT__86
10
42.000000
20
23.500000
30
-22.184999
70
192
0
VERTEX
8
OBJECT__86
10
63.098999
20
23.500000
30
6.856000
70
192
0
VERTEX
8
OBJECT__86
10
20.900999
20
23.500000
30
-6.856000
70
192
0
VERTEX
8
OBJECT__86
10
0
20
0
30
0
70
128
71
1
72
2
73
3
0
VERTEX
8
OBJECT__86
10
0
20
0
30
0
70
128
71
4
72
5
73
6
0
VERTEX
8
OBJECT__86
10
0
20
0
30
0
70
128
71
4
72
1
73
7
0
VERTEX
8
OBJECT__86
10
0
20
0
30
0
70
128
71
1
72
8
73
2
0
VERTEX
8
OBJECT__86
10
0
20
0
30
0
70
128
71
7
72
5
73
4
0
VERTEX
8
OBJECT__86
10
0
20
0
30
0
70
128
71
1
72
4
73
8
0
VERTEX
8
OBJECT__86
10
0
20
0
30
0
70
128
71
3
72
9
73
1
0
VERTEX
8
OBJECT__86
10
0
20
0
30
0
70
128
71
6
72
10
73
4
0
SEQEND
8
OBJECT__86
0
POLYLINE
8
OBJECT__87
66
1
70
64
71
77
72
86
62
253
0
VERTEX
8
OBJECT__87
10
21.458000
20
54.436001
30
-6.674000
70
192
0
VERTEX
8
OBJECT__87
10
21.458000
20
54.436001
30
6.674000
70
192
0
VERTEX
8
OBJECT__87
10
26.333000
20
84.950996
30
5.090000
70
192
0
VERTEX
8
OBJECT__87
10
29.305000
20
54.436001
30
-17.474001
70
192
0
VERTEX
8
OBJECT__87
10
26.468000
20
84.950996
30
-5.276000
70
192
0
VERTEX
8
OBJECT__87
10
26.333000
20
84.950996
30
-5.090000
70
192
0
VERTEX
8
OBJECT__87
10
54.695000
20
54.436001
30
-17.474001
70
192
0
VERTEX
8
OBJECT__87
10
51.682999
20
84.950996
30
-13.327000
70
192
0
VERTEX
8
OBJECT__87
10
57.532001
20
84.950996
30
-5.276000
70
192
0
VERTEX
8
OBJECT__87
10
62.542000
20
54.436001
30
-6.674000
70
192
0
VERTEX
8
OBJECT__87
10
62.542000
20
54.436001
30
6.674000
70
192
0
VERTEX
8
OBJECT__87
10
57.667000
20
84.950996
30
-5.090000
70
192
0
VERTEX
8
OBJECT__87
10
28.959999
20
23.500000
30
17.948000
70
192
0
VERTEX
8
OBJECT__87
10
29.305000
20
54.436001
30
17.474001
70
192
0
VERTEX
8
OBJECT__87
10
20.900999
20
23.500000
30
6.856000
70
192
0
VERTEX
8
OBJECT__87
10
20.900999
20
23.500000
30
-6.856000
70
192
0
VERTEX
8
OBJECT__87
10
42.000000
20
23.500000
30
-22.184999
70
192
0
VERTEX
8
OBJECT__87
10
28.959999
20
23.500000
30
-17.948000
70
192
0
VERTEX
8
OBJECT__87
10
55.040001
20
23.500000
30
-17.948000
70
192
0
VERTEX
8
OBJECT__87
10
42.000000
20
54.436001
30
-21.599001
70
192
0
VERTEX
8
OBJECT__87
10
63.098999
20
23.500000
30
-6.856000
70
192
0
VERTEX
8
OBJECT__87
10
63.098999
20
23.500000
30
6.856000
70
192
0
VERTEX
8
OBJECT__87
10
55.040001
20
23.500000
30
17.948000
70
192
0
VERTEX
8
OBJECT__87
10
51.682999
20
84.950996
30
13.327000
70
192
0
VERTEX
8
OBJECT__87
10
51.250000
20
84.950996
30
13.631000
70
192
0
VERTEX
8
OBJECT__87
10
51.250000
20
76.305000
30
15.903000
70
192
0
VERTEX
8
OBJECT__87
10
52.938999
20
71.551003
30
15.894000
70
192
0
VERTEX
8
OBJECT__87
10
51.250000
20
73.775002
30
16.469000
70
192
0
VERTEX
8
OBJECT__87
10
54.724998
20
64.195999
30
16.021999
70
192
0
VERTEX
8
OBJECT__87
10
54.196999
20
61.814999
30
16.799999
70
192
0
VERTEX
8
OBJECT__87
10
57.667000
20
84.950996
30
5.090000
70
192
0
VERTEX
8
OBJECT__87
10
54.312000
20
68.315002
30
15.559000
70
192
0
VERTEX
8
OBJECT__87
10
57.532001
20
84.950996
30
5.276000
70
192
0
VERTEX
8
OBJECT__87
10
53.464001
20
70.310997
30
15.766000
70
192
0
VERTEX
8
OBJECT__87
10
54.695000
20
54.436001
30
17.474001
70
192
0
VERTEX
8
OBJECT__87
10
53.870998
20
60.348000
30
17.280001
70
192
0
VERTEX
8
OBJECT__87
10
53.658001
20
60.000000
30
17.451000
70
192
0
VERTEX
8
OBJECT__87
10
51.518002
20
56.516998
30
19.160999
70
192
0
VERTEX
8
OBJECT__87
10
42.000000
20
23.500000
30
22.184999
70
192
0
VERTEX
8
OBJECT__87
10
42.070999
20
52.250000
30
21.790001
70
192
0
VERTEX
8
OBJECT__87
10
42.001999
20
52.262001
30
21.783001
70
192
0
VERTEX
8
OBJECT__87
10
45.682999
20
52.793999
30
21.431000
70
192
0
VERTEX
8
OBJECT__87
10
49.078999
20
54.437000
30
20.389000
70
192
0
VERTEX
8
OBJECT__87
10
48.874001
20
54.262001
30
20.492001
70
192
0
VERTEX
8
OBJECT__87
10
37.835999
20
52.949001
30
21.329000
70
192
0
VERTEX
8
OBJECT__87
10
35.240002
20
54.438999
30
20.400000
70
192
0
VERTEX
8
OBJECT__87
10
30.937000
20
58.661999
30
18.041000
70
192
0
VERTEX
8
OBJECT__87
10
30.400999
20
60.012001
30
17.480000
70
192
0
VERTEX
8
OBJECT__87
10
33.696999
20
55.324001
30
19.848000
70
192
0
VERTEX
8
OBJECT__87
10
26.468000
20
84.950996
30
5.276000
70
192
0
VERTEX
8
OBJECT__87
10
30.013000
20
69.344002
30
15.599000
70
192
0
VERTEX
8
OBJECT__87
10
30.528000
20
70.178001
30
15.763000
70
192
0
VERTEX
8
OBJECT__87
10
32.317001
20
84.950996
30
13.327000
70
192
0
VERTEX
8
OBJECT__87
10
29.256001
20
65.384003
30
15.789000
70
192
0
VERTEX
8
OBJECT__87
10
29.778000
20
61.578999
30
16.827999
70
192
0
VERTEX
8
OBJECT__87
10
29.604000
20
62.014999
30
16.646999
70
192
0
VERTEX
8
OBJECT__87
10
32.750000
20
76.305000
30
15.903000
70
192
0
VERTEX
8
OBJECT__87
10
32.750000
20
73.775002
30
16.469000
70
192
0
VERTEX
8
OBJECT__87
10
40.172001
20
54.558998
30
-21.510000
70
192
0
VERTEX
8
OBJECT__87
10
41.935001
20
54.827999
30
-21.357000
70
192
0
VERTEX
8
OBJECT__87
10
41.981998
20
54.835999
30
-21.353001
70
192
0
VERTEX
8
OBJECT__87
10
31.476000
20
63.733002
30
-17.622000
70
192
0
VERTEX
8
OBJECT__87
10
33.397999
20
59.912998
30
-19.051001
70
192
0
VERTEX
8
OBJECT__87
10
32.317001
20
84.950996
30
-13.327000
70
192
0
VERTEX
8
OBJECT__87
10
31.677000
20
67.405998
30
-17.112000
70
192
0
VERTEX
8
OBJECT__87
10
32.750000
20
84.950996
30
-13.631000
70
192
0
VERTEX
8
OBJECT__87
10
32.750000
20
76.305000
30
-15.903000
70
192
0
VERTEX
8
OBJECT__87
10
32.750000
20
70.177002
30
-17.204000
70
192
0
VERTEX
8
OBJECT__87
10
34.712002
20
57.303001
30
-20.028000
70
192
0
VERTEX
8
OBJECT__87
10
52.599998
20
65.029999
30
-17.362000
70
192
0
VERTEX
8
OBJECT__87
10
51.250000
20
76.305000
30
-15.903000
70
192
0
VERTEX
8
OBJECT__87
10
51.250000
20
70.177002
30
-17.204000
70
192
0
VERTEX
8
OBJECT__87
10
50.792999
20
59.080002
30
-19.197001
70
192
0
VERTEX
8
OBJECT__87
10
50.978001
20
59.689999
30
-19.009001
70
192
0
VERTEX
8
OBJECT__87
10
46.865002
20
55.583000
30
-20.931000
70
192
0
VERTEX
8
OBJECT__87
10
51.250000
20
84.950996
30
-13.631000
70
192
0
VERTEX
8
OBJECT__87
10
32.750000
20
84.950996
30
13.631000
70
192
0
VERTEX
8
OBJECT__87
10
0
20
0
30
0
70
128
71
1
72
2
73
3
0
VERTEX
8
OBJECT__87
10
0
20
0
30
0
70
128
71
4
72
1
73
5
0
VERTEX
8
OBJECT__87
10
0
20
0
30
0
70
128
71
1
72
6
73
5
0
VERTEX
8
OBJECT__87
10
0
20
0
30
0
70
128
71
7
72
8
73
9
0
VERTEX
8
OBJECT__87
10
0
20
0
30
0
70
128
71
9
72
10
73
7
0
VERTEX
8
OBJECT__87
10
0
20
0
30
0
70
128
71
11
72
10
73
12
0
VERTEX
8
OBJECT__87
10
0
20
0
30
0
70
128
71
13
72
14
73
2
0
VERTEX
8
OBJECT__87
10
0
20
0
30
0
70
128
71
15
72
2
73
1
0
VERTEX
8
OBJECT__87
10
0
20
0
30
0
70
128
71
16
72
1
73
4
0
VERTEX
8
OBJECT__87
10
0
20
0
30
0
70
128
71
17
72
18
73
4
0
VERTEX
8
OBJECT__87
10
0
20
0
30
0
70
128
71
19
72
17
73
20
0
VERTEX
8
OBJECT__87
10
0
20
0
30
0
70
128
71
21
72
19
73
7
0
VERTEX
8
OBJECT__87
10
0
20
0
30
0
70
128
71
22
72
21
73
10
0
VERTEX
8
OBJECT__87
10
0
20
0
30
0
70
128
71
23
72
22
73
11
0
VERTEX
8
OBJECT__87
10
0
20
0
30
0
70
128
71
24
72
25
73
26
0
VERTEX
8
OBJECT__87
10
0
20
0
30
0
70
128
71
26
72
27
73
24
0
VERTEX
8
OBJECT__87
10
0
20
0
30
0
70
128
71
26
72
28
73
27
0
VERTEX
8
OBJECT__87
10
0
20
0
30
0
70
128
71
11
72
29
73
30
0
VERTEX
8
OBJECT__87
10
0
20
0
30
0
70
128
71
11
72
31
73
32
0
VERTEX
8
OBJECT__87
10
0
20
0
30
0
70
128
71
33
72
24
73
34
0
VERTEX
8
OBJECT__87
10
0
20
0
30
0
70
128
71
32
72
31
73
33
0
VERTEX
8
OBJECT__87
10
0
20
0
30
0
70
128
71
34
72
32
73
33
0
VERTEX
8
OBJECT__87
10
0
20
0
30
0
70
128
71
32
72
29
73
11
0
VERTEX
8
OBJECT__87
10
0
20
0
30
0
70
128
71
35
72
36
73
37
0
VERTEX
8
OBJECT__87
10
0
20
0
30
0
70
128
71
37
72
38
73
35
0
VERTEX
8
OBJECT__87
10
0
20
0
30
0
70
128
71
35
72
30
73
36
0
VERTEX
8
OBJECT__87
10
0
20
0
30
0
70
128
71
39
72
40
73
41
0
VERTEX
8
OBJECT__87
10
0
20
0
30
0
70
128
71
39
72
23
73
42
0
VERTEX
8
OBJECT__87
10
0
20
0
30
0
70
128
71
23
72
35
73
43
0
VERTEX
8
OBJECT__87
10
0
20
0
30
0
70
128
71
43
72
44
73
23
0
VERTEX
8
OBJECT__87
10
0
20
0
30
0
70
128
71
44
72
42
73
23
0
VERTEX
8
OBJECT__87
10
0
20
0
30
0
70
128
71
42
72
40
73
39
0
VERTEX
8
OBJECT__87
10
0
20
0
30
0
70
128
71
13
72
45
73
46
0
VERTEX
8
OBJECT__87
10
0
20
0
30
0
70
128
71
13
72
39
73
41
0
VERTEX
8
OBJECT__87
10
0
20
0
30
0
70
128
71
41
72
45
73
13
0
VERTEX
8
OBJECT__87
10
0
20
0
30
0
70
128
71
14
72
47
73
48
0
VERTEX
8
OBJECT__87
10
0
20
0
30
0
70
128
71
14
72
49
73
47
0
VERTEX
8
OBJECT__87
10
0
20
0
30
0
70
128
71
14
72
46
73
49
0
VERTEX
8
OBJECT__87
10
0
20
0
30
0
70
128
71
50
72
51
73
52
0
VERTEX
8
OBJECT__87
10
0
20
0
30
0
70
128
71
52
72
53
73
50
0
VERTEX
8
OBJECT__87
10
0
20
0
30
0
70
128
71
2
72
54
73
51
0
VERTEX
8
OBJECT__87
10
0
20
0
30
0
70
128
71
2
72
14
73
55
0
VERTEX
8
OBJECT__87
10
0
20
0
30
0
70
128
71
55
72
56
73
2
0
VERTEX
8
OBJECT__87
10
0
20
0
30
0
70
128
71
56
72
54
73
2
0
VERTEX
8
OBJECT__87
10
0
20
0
30
0
70
128
71
51
72
3
73
2
0
VERTEX
8
OBJECT__87
10
0
20
0
30
0
70
128
71
53
72
52
73
57
0
VERTEX
8
OBJECT__87
10
0
20
0
30
0
70
128
71
52
72
58
73
57
0
VERTEX
8
OBJECT__87
10
0
20
0
30
0
70
128
71
20
72
4
73
59
0
VERTEX
8
OBJECT__87
10
0
20
0
30
0
70
128
71
59
72
60
73
20
0
VERTEX
8
OBJECT__87
10
0
20
0
30
0
70
128
71
60
72
61
73
20
0
VERTEX
8
OBJECT__87
10
0
20
0
30
0
70
128
71
4
72
62
73
63
0
VERTEX
8
OBJECT__87
10
0
20
0
30
0
70
128
71
4
72
64
73
65
0
VERTEX
8
OBJECT__87
10
0
20
0
30
0
70
128
71
64
72
66
73
67
0
VERTEX
8
OBJECT__87
10
0
20
0
30
0
70
128
71
67
72
65
73
64
0
VERTEX
8
OBJECT__87
10
0
20
0
30
0
70
128
71
67
72
68
73
65
0
VERTEX
8
OBJECT__87
10
0
20
0
30
0
70
128
71
65
72
62
73
4
0
VERTEX
8
OBJECT__87
10
0
20
0
30
0
70
128
71
63
72
69
73
4
0
VERTEX
8
OBJECT__87
10
0
20
0
30
0
70
128
71
69
72
59
73
4
0
VERTEX
8
OBJECT__87
10
0
20
0
30
0
70
128
71
8
72
70
73
71
0
VERTEX
8
OBJECT__87
10
0
20
0
30
0
70
128
71
70
72
72
73
71
0
VERTEX
8
OBJECT__87
10
0
20
0
30
0
70
128
71
8
72
7
73
70
0
VERTEX
8
OBJECT__87
10
0
20
0
30
0
70
128
71
7
72
73
73
74
0
VERTEX
8
OBJECT__87
10
0
20
0
30
0
70
128
71
7
72
75
73
73
0
VERTEX
8
OBJECT__87
10
0
20
0
30
0
70
128
71
20
72
61
73
75
0
VERTEX
8
OBJECT__87
10
0
20
0
30
0
70
128
71
75
72
7
73
20
0
VERTEX
8
OBJECT__87
10
0
20
0
30
0
70
128
71
74
72
70
73
7
0
VERTEX
8
OBJECT__87
10
0
20
0
30
0
70
128
71
71
72
76
73
8
0
VERTEX
8
OBJECT__87
10
0
20
0
30
0
70
128
71
57
72
77
73
53
0
VERTEX
8
OBJECT__87
10
0
20
0
30
0
70
128
71
50
72
3
73
51
0
VERTEX
8
OBJECT__87
10
0
20
0
30
0
70
128
71
48
72
55
73
14
0
VERTEX
8
OBJECT__87
10
0
20
0
30
0
70
128
71
46
72
14
73
13
0
VERTEX
8
OBJECT__87
10
0
20
0
30
0
70
128
71
38
72
43
73
35
0
VERTEX
8
OBJECT__87
10
0
20
0
30
0
70
128
71
30
72
35
73
11
0
VERTEX
8
OBJECT__87
10
0
20
0
30
0
70
128
71
27
72
34
73
24
0
VERTEX
8
OBJECT__87
10
0
20
0
30
0
70
128
71
11
72
35
73
23
0
VERTEX
8
OBJECT__87
10
0
20
0
30
0
70
128
71
10
72
11
73
22
0
VERTEX
8
OBJECT__87
10
0
20
0
30
0
70
128
71
7
72
10
73
21
0
VERTEX
8
OBJECT__87
10
0
20
0
30
0
70
128
71
20
72
7
73
19
0
VERTEX
8
OBJECT__87
10
0
20
0
30
0
70
128
71
4
72
20
73
17
0
VERTEX
8
OBJECT__87
10
0
20
0
30
0
70
128
71
4
72
18
73
16
0
VERTEX
8
OBJECT__87
10
0
20
0
30
0
70
128
71
1
72
16
73
15
0
VERTEX
8
OBJECT__87
10
0
20
0
30
0
70
128
71
2
72
15
73
13
0
VERTEX
8
OBJECT__87
10
0
20
0
30
0
70
128
71
12
72
31
73
11
0
VERTEX
8
OBJECT__87
10
0
20
0
30
0
70
128
71
9
72
12
73
10
0
VERTEX
8
OBJECT__87
10
0
20
0
30
0
70
128
71
5
72
64
73
4
0
VERTEX
8
OBJECT__87
10
0
20
0
30
0
70
128
71
3
72
6
73
1
0
SEQEND
8
OBJECT__87
0
POLYLINE
8
OBJECT__89
66
1
70
64
71
11
72
9
62
253
0
VERTEX
8
OBJECT__89
10
51.250000
20
86.731003
30
-3.788000
70
192
0
VERTEX
8
OBJECT__89
10
57.532001
20
84.950996
30
-5.276000
70
192
0
VERTEX
8
OBJECT__89
10
51.682999
20
84.950996
30
-13.327000
70
192
0
VERTEX
8
OBJECT__89
10
51.250000
20
87.416000
30
0.000000
70
192
0
VERTEX
8
OBJECT__89
10
51.250000
20
86.731003
30
3.788000
70
192
0
VERTEX
8
OBJECT__89
10
57.532001
20
84.950996
30
5.276000
70
192
0
VERTEX
8
OBJECT__89
10
57.667000
20
84.950996
30
-5.090000
70
192
0
VERTEX
8
OBJECT__89
10
57.667000
20
84.950996
30
5.090000
70
192
0
VERTEX
8
OBJECT__89
10
51.250000
20
84.950996
30
13.631000
70
192
0
VERTEX
8
OBJECT__89
10
51.682999
20
84.950996
30
13.327000
70
192
0
VERTEX
8
OBJECT__89
10
51.250000
20
84.950996
30
-13.631000
70
192
0
VERTEX
8
OBJECT__89
10
0
20
0
30
0
70
128
71
1
72
2
73
3
0
VERTEX
8
OBJECT__89
10
0
20
0
30
0
70
128
71
4
72
5
73
6
0
VERTEX
8
OBJECT__89
10
0
20
0
30
0
70
128
71
7
72
1
73
4
0
VERTEX
8
OBJECT__89
10
0
20
0
30
0
70
128
71
4
72
8
73
7
0
VERTEX
8
OBJECT__89
10
0
20
0
30
0
70
128
71
7
72
2
73
1
0
VERTEX
8
OBJECT__89
10
0
20
0
30
0
70
128
71
5
72
9
73
10
0
VERTEX
8
OBJECT__89
10
0
20
0
30
0
70
128
71
10
72
6
73
5
0
VERTEX
8
OBJECT__89
10
0
20
0
30
0
70
128
71
6
72
8
73
4
0
VERTEX
8
OBJECT__89
10
0
20
0
30
0
70
128
71
3
72
11
73
1
0
SEQEND
8
OBJECT__89
0
POLYLINE
8
OBJECT__90
66
1
70
64
71
11
72
9
62
253
0
VERTEX
8
OBJECT__90
10
32.750000
20
86.731003
30
3.788000
70
192
0
VERTEX
8
OBJECT__90
10
26.468000
20
84.950996
30
5.276000
70
192
0
VERTEX
8
OBJECT__90
10
32.317001
20
84.950996
30
13.327000
70
192
0
VERTEX
8
OBJECT__90
10
26.333000
20
84.950996
30
-5.090000
70
192
0
VERTEX
8
OBJECT__90
10
26.333000
20
84.950996
30
5.090000
70
192
0
VERTEX
8
OBJECT__90
10
32.750000
20
87.416000
30
0.000000
70
192
0
VERTEX
8
OBJECT__90
10
32.750000
20
86.731003
30
-3.788000
70
192
0
VERTEX
8
OBJECT__90
10
26.468000
20
84.950996
30
-5.276000
70
192
0
VERTEX
8
OBJECT__90
10
32.750000
20
84.950996
30
-13.631000
70
192
0
VERTEX
8
OBJECT__90
10
32.317001
20
84.950996
30
-13.327000
70
192
0
VERTEX
8
OBJECT__90
10
32.750000
20
84.950996
30
13.631000
70
192
0
VERTEX
8
OBJECT__90
10
0
20
0
30
0
70
128
71
1
72
2
73
3
0
VERTEX
8
OBJECT__90
10
0
20
0
30
0
70
128
71
4
72
5
73
6
0
VERTEX
8
OBJECT__90
10
0
20
0
30
0
70
128
71
7
72
8
73
4
0
VERTEX
8
OBJECT__90
10
0
20
0
30
0
70
128
71
6
72
5
73
2
0
VERTEX
8
OBJECT__90
10
0
20
0
30
0
70
128
71
2
72
1
73
6
0
VERTEX
8
OBJECT__90
10
0
20
0
30
0
70
128
71
7
72
9
73
10
0
VERTEX
8
OBJECT__90
10
0
20
0
30
0
70
128
71
10
72
8
73
7
0
VERTEX
8
OBJECT__90
10
0
20
0
30
0
70
128
71
6
72
7
73
4
0
VERTEX
8
OBJECT__90
10
0
20
0
30
0
70
128
71
3
72
11
73
1
0
SEQEND
8
OBJECT__90
0
POLYLINE
8
OBJECT__91
66
1
70
64
71
11
72
9
62
253
0
VERTEX
8
OBJECT__91
10
51.250000
20
73.775002
30
2.840000
70
192
0
VERTEX
8
OBJECT__91
10
51.250000
20
86.731003
30
3.788000
70
192
0
VERTEX
8
OBJECT__91
10
51.250000
20
87.416000
30
0.000000
70
192
0
VERTEX
8
OBJECT__91
10
51.250000
20
76.305000
30
15.903000
70
192
0
VERTEX
8
OBJECT__91
10
51.250000
20
84.950996
30
13.631000
70
192
0
VERTEX
8
OBJECT__91
10
51.250000
20
86.731003
30
-3.788000
70
192
0
VERTEX
8
OBJECT__91
10
51.250000
20
73.775002
30
16.469000
70
192
0
VERTEX
8
OBJECT__91
10
51.250000
20
76.305000
30
-15.903000
70
192
0
VERTEX
8
OBJECT__91
10
51.250000
20
70.177002
30
2.840000
70
192
0
VERTEX
8
OBJECT__91
10
51.250000
20
84.950996
30
-13.631000
70
192
0
VERTEX
8
OBJECT__91
10
51.250000
20
70.177002
30
-17.204000
70
192
0
VERTEX
8
OBJECT__91
10
0
20
0
30
0
70
128
71
1
72
2
73
3
0
VERTEX
8
OBJECT__91
10
0
20
0
30
0
70
128
71
1
72
4
73
5
0
VERTEX
8
OBJECT__91
10
0
20
0
30
0
70
128
71
3
72
6
73
1
0
VERTEX
8
OBJECT__91
10
0
20
0
30
0
70
128
71
1
72
7
73
4
0
VERTEX
8
OBJECT__91
10
0
20
0
30
0
70
128
71
8
72
9
73
1
0
VERTEX
8
OBJECT__91
10
0
20
0
30
0
70
128
71
5
72
2
73
1
0
VERTEX
8
OBJECT__91
10
0
20
0
30
0
70
128
71
1
72
10
73
8
0
VERTEX
8
OBJECT__91
10
0
20
0
30
0
70
128
71
8
72
11
73
9
0
VERTEX
8
OBJECT__91
10
0
20
0
30
0
70
128
71
6
72
10
73
1
0
SEQEND
8
OBJECT__91
0
POLYLINE
8
OBJECT__92
66
1
70
64
71
11
72
9
62
253
0
VERTEX
8
OBJECT__92
10
32.750000
20
73.775002
30
2.840000
70
192
0
VERTEX
8
OBJECT__92
10
32.750000
20
86.731003
30
3.788000
70
192
0
VERTEX
8
OBJECT__92
10
32.750000
20
84.950996
30
13.631000
70
192
0
VERTEX
8
OBJECT__92
10
32.750000
20
76.305000
30
15.903000
70
192
0
VERTEX
8
OBJECT__92
10
32.750000
20
86.731003
30
-3.788000
70
192
0
VERTEX
8
OBJECT__92
10
32.750000
20
87.416000
30
0.000000
70
192
0
VERTEX
8
OBJECT__92
10
32.750000
20
76.305000
30
-15.903000
70
192
0
VERTEX
8
OBJECT__92
10
32.750000
20
84.950996
30
-13.631000
70
192
0
VERTEX
8
OBJECT__92
10
32.750000
20
70.177002
30
2.840000
70
192
0
VERTEX
8
OBJECT__92
10
32.750000
20
70.177002
30
-17.204000
70
192
0
VERTEX
8
OBJECT__92
10
32.750000
20
73.775002
30
16.469000
70
192
0
VERTEX
8
OBJECT__92
10
0
20
0
30
0
70
128
71
1
72
2
73
3
0
VERTEX
8
OBJECT__92
10
0
20
0
30
0
70
128
71
3
72
4
73
1
0
VERTEX
8
OBJECT__92
10
0
20
0
30
0
70
128
71
1
72
5
73
6
0
VERTEX
8
OBJECT__92
10
0
20
0
30
0
70
128
71
7
72
8
73
1
0
VERTEX
8
OBJECT__92
10
0
20
0
30
0
70
128
71
6
72
2
73
1
0
VERTEX
8
OBJECT__92
10
0
20
0
30
0
70
128
71
9
72
10
73
7
0
VERTEX
8
OBJECT__92
10
0
20
0
30
0
70
128
71
1
72
8
73
5
0
VERTEX
8
OBJECT__92
10
0
20
0
30
0
70
128
71
4
72
11
73
1
0
VERTEX
8
OBJECT__92
10
0
20
0
30
0
70
128
71
1
72
9
73
7
0
SEQEND
8
OBJECT__92
0
POLYLINE
8
OBJECT__93
66
1
70
64
71
30
72
28
62
253
0
VERTEX
8
OBJECT__93
10
30.285999
20
59.966000
30
2.840000
70
192
0
VERTEX
8
OBJECT__93
10
29.604000
20
62.014999
30
16.646999
70
192
0
VERTEX
8
OBJECT__93
10
29.778000
20
61.578999
30
16.827999
70
192
0
VERTEX
8
OBJECT__93
10
29.256001
20
65.384003
30
15.789000
70
192
0
VERTEX
8
OBJECT__93
10
32.750000
20
73.775002
30
2.840000
70
192
0
VERTEX
8
OBJECT__93
10
30.013000
20
69.344002
30
15.599000
70
192
0
VERTEX
8
OBJECT__93
10
32.750000
20
73.775002
30
16.469000
70
192
0
VERTEX
8
OBJECT__93
10
30.528000
20
70.178001
30
15.763000
70
192
0
VERTEX
8
OBJECT__93
10
42.000000
20
52.250000
30
2.840000
70
192
0
VERTEX
8
OBJECT__93
10
35.240002
20
54.438999
30
20.400000
70
192
0
VERTEX
8
OBJECT__93
10
37.835999
20
52.949001
30
21.329000
70
192
0
VERTEX
8
OBJECT__93
10
42.000999
20
52.262001
30
21.783001
70
192
0
VERTEX
8
OBJECT__93
10
30.937000
20
58.661999
30
18.041000
70
192
0
VERTEX
8
OBJECT__93
10
33.696999
20
55.324001
30
19.848000
70
192
0
VERTEX
8
OBJECT__93
10
30.400999
20
60.012001
30
17.480000
70
192
0
VERTEX
8
OBJECT__93
10
51.518002
20
56.516998
30
19.160999
70
192
0
VERTEX
8
OBJECT__93
10
53.658001
20
60.000000
30
17.451000
70
192
0
VERTEX
8
OBJECT__93
10
49.078999
20
54.437000
30
20.389000
70
192
0
VERTEX
8
OBJECT__93
10
42.070999
20
52.250000
30
21.790001
70
192
0
VERTEX
8
OBJECT__93
10
45.682999
20
52.793999
30
21.431000
70
192
0
VERTEX
8
OBJECT__93
10
48.874001
20
54.262001
30
20.492001
70
192
0
VERTEX
8
OBJECT__93
10
51.250000
20
73.775002
30
2.840000
70
192
0
VERTEX
8
OBJECT__93
10
54.312000
20
68.315002
30
15.559000
70
192
0
VERTEX
8
OBJECT__93
10
53.464001
20
70.310997
30
15.766000
70
192
0
VERTEX
8
OBJECT__93
10
52.938999
20
71.551003
30
15.894000
70
192
0
VERTEX
8
OBJECT__93
10
53.714001
20
59.966000
30
2.840000
70
192
0
VERTEX
8
OBJECT__93
10
54.724998
20
64.195999
30
16.021999
70
192
0
VERTEX
8
OBJECT__93
10
53.870998
20
60.348000
30
17.280001
70
192
0
VERTEX
8
OBJECT__93
10
54.196999
20
61.814999
30
16.799999
70
192
0
VERTEX
8
OBJECT__93
10
51.250000
20
73.775002
30
16.469000
70
192
0
VERTEX
8
OBJECT__93
10
0
20
0
30
0
70
128
71
1
72
2
73
3
0
VERTEX
8
OBJECT__93
10
0
20
0
30
0
70
128
71
1
72
4
73
2
0
VERTEX
8
OBJECT__93
10
0
20
0
30
0
70
128
71
1
72
5
73
6
0
VERTEX
8
OBJECT__93
10
0
20
0
30
0
70
128
71
6
72
4
73
1
0
VERTEX
8
OBJECT__93
10
0
20
0
30
0
70
128
71
5
72
7
73
8
0
VERTEX
8
OBJECT__93
10
0
20
0
30
0
70
128
71
8
72
6
73
5
0
VERTEX
8
OBJECT__93
10
0
20
0
30
0
70
128
71
9
72
10
73
11
0
VERTEX
8
OBJECT__93
10
0
20
0
30
0
70
128
71
11
72
12
73
9
0
VERTEX
8
OBJECT__93
10
0
20
0
30
0
70
128
71
9
72
13
73
14
0
VERTEX
8
OBJECT__93
10
0
20
0
30
0
70
128
71
9
72
1
73
15
0
VERTEX
8
OBJECT__93
10
0
20
0
30
0
70
128
71
15
72
13
73
9
0
VERTEX
8
OBJECT__93
10
0
20
0
30
0
70
128
71
14
72
10
73
9
0
VERTEX
8
OBJECT__93
10
0
20
0
30
0
70
128
71
9
72
16
73
17
0
VERTEX
8
OBJECT__93
10
0
20
0
30
0
70
128
71
9
72
18
73
16
0
VERTEX
8
OBJECT__93
10
0
20
0
30
0
70
128
71
9
72
12
73
19
0
VERTEX
8
OBJECT__93
10
0
20
0
30
0
70
128
71
19
72
20
73
9
0
VERTEX
8
OBJECT__93
10
0
20
0
30
0
70
128
71
20
72
21
73
9
0
VERTEX
8
OBJECT__93
10
0
20
0
30
0
70
128
71
21
72
18
73
9
0
VERTEX
8
OBJECT__93
10
0
20
0
30
0
70
128
71
22
72
23
73
24
0
VERTEX
8
OBJECT__93
10
0
20
0
30
0
70
128
71
24
72
25
73
22
0
VERTEX
8
OBJECT__93
10
0
20
0
30
0
70
128
71
26
72
27
73
23
0
VERTEX
8
OBJECT__93
10
0
20
0
30
0
70
128
71
23
72
22
73
26
0
VERTEX
8
OBJECT__93
10
0
20
0
30
0
70
128
71
26
72
28
73
29
0
VERTEX
8
OBJECT__93
10
0
20
0
30
0
70
128
71
26
72
17
73
28
0
VERTEX
8
OBJECT__93
10
0
20
0
30
0
70
128
71
29
72
27
73
26
0
VERTEX
8
OBJECT__93
10
0
20
0
30
0
70
128
71
25
72
30
73
22
0
VERTEX
8
OBJECT__93
10
0
20
0
30
0
70
128
71
17
72
26
73
9
0
VERTEX
8
OBJECT__93
10
0
20
0
30
0
70
128
71
3
72
15
73
1
0
SEQEND
8
OBJECT__93
0
POLYLINE
8
OBJECT__94
66
1
70
64
71
18
72
16
62
253
0
VERTEX
8
OBJECT__94
10
51.250000
20
70.177002
30
2.840000
70
192
0
VERTEX
8
OBJECT__94
10
51.250000
20
70.177002
30
-17.204000
70
192
0
VERTEX
8
OBJECT__94
10
52.599998
20
65.029999
30
-17.362000
70
192
0
VERTEX
8
OBJECT__94
10
51.144001
20
59.639000
30
2.840000
70
192
0
VERTEX
8
OBJECT__94
10
42.000000
20
54.400002
30
2.840000
70
192
0
VERTEX
8
OBJECT__94
10
50.792999
20
59.080002
30
-19.197001
70
192
0
VERTEX
8
OBJECT__94
10
46.865002
20
55.583000
30
-20.931000
70
192
0
VERTEX
8
OBJECT__94
10
50.978001
20
59.689999
30
-19.009001
70
192
0
VERTEX
8
OBJECT__94
10
41.981998
20
54.835999
30
-21.353001
70
192
0
VERTEX
8
OBJECT__94
10
34.712002
20
57.303001
30
-20.028000
70
192
0
VERTEX
8
OBJECT__94
10
33.397999
20
59.912998
30
-19.051001
70
192
0
VERTEX
8
OBJECT__94
10
41.935001
20
54.827999
30
-21.357000
70
192
0
VERTEX
8
OBJECT__94
10
40.172001
20
54.558998
30
-21.510000
70
192
0
VERTEX
8
OBJECT__94
10
32.855999
20
59.639000
30
2.840000
70
192
0
VERTEX
8
OBJECT__94
10
31.476000
20
63.733002
30
-17.622000
70
192
0
VERTEX
8
OBJECT__94
10
31.677000
20
67.405998
30
-17.112000
70
192
0
VERTEX
8
OBJECT__94
10
32.750000
20
70.177002
30
2.840000
70
192
0
VERTEX
8
OBJECT__94
10
32.750000
20
70.177002
30
-17.204000
70
192
0
VERTEX
8
OBJECT__94
10
0
20
0
30
0
70
128
71
1
72
2
73
3
0
VERTEX
8
OBJECT__94
10
0
20
0
30
0
70
128
71
3
72
4
73
1
0
VERTEX
8
OBJECT__94
10
0
20
0
30
0
70
128
71
5
72
6
73
7
0
VERTEX
8
OBJECT__94
10
0
20
0
30
0
70
128
71
5
72
4
73
8
0
VERTEX
8
OBJECT__94
10
0
20
0
30
0
70
128
71
8
72
6
73
5
0
VERTEX
8
OBJECT__94
10
0
20
0
30
0
70
128
71
7
72
9
73
5
0
VERTEX
8
OBJECT__94
10
0
20
0
30
0
70
128
71
5
72
10
73
11
0
VERTEX
8
OBJECT__94
10
0
20
0
30
0
70
128
71
5
72
12
73
13
0
VERTEX
8
OBJECT__94
10
0
20
0
30
0
70
128
71
13
72
10
73
5
0
VERTEX
8
OBJECT__94
10
0
20
0
30
0
70
128
71
14
72
15
73
16
0
VERTEX
8
OBJECT__94
10
0
20
0
30
0
70
128
71
16
72
17
73
14
0
VERTEX
8
OBJECT__94
10
0
20
0
30
0
70
128
71
14
72
11
73
15
0
VERTEX
8
OBJECT__94
10
0
20
0
30
0
70
128
71
16
72
18
73
17
0
VERTEX
8
OBJECT__94
10
0
20
0
30
0
70
128
71
11
72
14
73
5
0
VERTEX
8
OBJECT__94
10
0
20
0
30
0
70
128
71
9
72
12
73
5
0
VERTEX
8
OBJECT__94
10
0
20
0
30
0
70
128
71
3
72
8
73
4
0
SEQEND
8
OBJECT__94
0
POLYLINE
8
OBJECT__95
66
1
70
64
71
10
72
8
62
253
0
VERTEX
8
OBJECT__95
10
42.000000
20
52.250000
30
2.840000
70
192
0
VERTEX
8
OBJECT__95
10
42.000000
20
54.400002
30
2.840000
70
192
0
VERTEX
8
OBJECT__95
10
32.855999
20
59.639000
30
2.840000
70
192
0
VERTEX
8
OBJECT__95
10
53.714001
20
59.966000
30
2.840000
70
192
0
VERTEX
8
OBJECT__95
10
51.144001
20
59.639000
30
2.840000
70
192
0
VERTEX
8
OBJECT__95
10
51.250000
20
73.775002
30
2.840000
70
192
0
VERTEX
8
OBJECT__95
10
51.250000
20
70.177002
30
2.840000
70
192
0
VERTEX
8
OBJECT__95
10
30.285999
20
59.966000
30
2.840000
70
192
0
VERTEX
8
OBJECT__95
10
32.750000
20
70.177002
30
2.840000
70
192
0
VERTEX
8
OBJECT__95
10
32.750000
20
73.775002
30
2.840000
70
192
0
VERTEX
8
OBJECT__95
10
0
20
0
30
0
70
128
71
1
72
2
73
3
0
VERTEX
8
OBJECT__95
10
0
20
0
30
0
70
128
71
1
72
4
73
5
0
VERTEX
8
OBJECT__95
10
0
20
0
30
0
70
128
71
5
72
2
73
1
0
VERTEX
8
OBJECT__95
10
0
20
0
30
0
70
128
71
4
72
6
73
7
0
VERTEX
8
OBJECT__95
10
0
20
0
30
0
70
128
71
8
72
3
73
9
0
VERTEX
8
OBJECT__95
10
0
20
0
30
0
70
128
71
7
72
5
73
4
0
VERTEX
8
OBJECT__95
10
0
20
0
30
0
70
128
71
3
72
8
73
1
0
VERTEX
8
OBJECT__95
10
0
20
0
30
0
70
128
71
9
72
10
73
8
0
SEQEND
8
OBJECT__95
0
ENDSEC
0
EOF
