999
Converted by 3D Exploration 
999
XDimension Software, LLC
999
http://www.xdsoft.com/explorer/
0
SECTION
2
HEADER
9
$ACADVER
1
AC1008
9
$UCSORG
10
0.0
20
0.0
30
0.0
9
$UCSXDIR
10
1.0
20
0.0
30
0.0
9
$TILEMODE
70
1
9
$UCSYDIR
10
0.0
20
1.0
30
0.0
9
$EXTMIN
10
0.000000
20
-163.572998
30
-163.572998
9
$EXTMAX
10
226.675003
20
163.572998
30
35.000000
0
ENDSEC
0
SECTION
2
TABLES
0
TABLE
2
LTYPE
70
1
0
LTYPE
2
CONTINUOUS
70
64
3
Solid line
72
65
73
0
40
0.0
0
ENDTAB
0
TABLE
2
LAYER
70
47
0
LAYER
2
OBJECT__0
70
0
62
253
6
CONTINUOUS
0
LAYER
2
OBJECT__2
70
0
62
253
6
CONTINUOUS
0
LAYER
2
OBJECT__3
70
0
62
253
6
CONTINUOUS
0
LAYER
2
OBJECT__5
70
0
62
253
6
CONTINUOUS
0
LAYER
2
OBJECT__6
70
0
62
253
6
CONTINUOUS
0
LAYER
2
OBJECT__7
70
0
62
253
6
CONTINUOUS
0
LAYER
2
OBJECT__9
70
0
62
253
6
CONTINUOUS
0
LAYER
2
OBJECT__10
70
0
62
253
6
CONTINUOUS
0
LAYER
2
OBJECT__11
70
0
62
253
6
CONTINUOUS
0
LAYER
2
OBJECT__12
70
0
62
253
6
CONTINUOUS
0
LAYER
2
OBJECT__13
70
0
62
253
6
CONTINUOUS
0
LAYER
2
OBJECT__14
70
0
62
253
6
CONTINUOUS
0
LAYER
2
OBJECT__15
70
0
62
253
6
CONTINUOUS
0
LAYER
2
OBJECT__16
70
0
62
253
6
CONTINUOUS
0
LAYER
2
OBJECT__17
70
0
62
253
6
CONTINUOUS
0
LAYER
2
OBJECT__19
70
0
62
253
6
CONTINUOUS
0
LAYER
2
OBJECT__20
70
0
62
253
6
CONTINUOUS
0
LAYER
2
OBJECT__22
70
0
62
253
6
CONTINUOUS
0
LAYER
2
OBJECT__23
70
0
62
253
6
CONTINUOUS
0
LAYER
2
OBJECT__24
70
0
62
253
6
CONTINUOUS
0
LAYER
2
OBJECT__25
70
0
62
253
6
CONTINUOUS
0
LAYER
2
OBJECT__26
70
0
62
253
6
CONTINUOUS
0
LAYER
2
OBJECT__27
70
0
62
253
6
CONTINUOUS
0
LAYER
2
OBJECT__28
70
0
62
253
6
CONTINUOUS
0
LAYER
2
OBJECT__30
70
0
62
253
6
CONTINUOUS
0
LAYER
2
OBJECT__31
70
0
62
253
6
CONTINUOUS
0
LAYER
2
OBJECT__33
70
0
62
253
6
CONTINUOUS
0
LAYER
2
OBJECT__34
70
0
62
253
6
CONTINUOUS
0
LAYER
2
OBJECT__35
70
0
62
253
6
CONTINUOUS
0
LAYER
2
OBJECT__36
70
0
62
253
6
CONTINUOUS
0
LAYER
2
OBJECT__37
70
0
62
253
6
CONTINUOUS
0
LAYER
2
OBJECT__39
70
0
62
253
6
CONTINUOUS
0
LAYER
2
OBJECT__40
70
0
62
253
6
CONTINUOUS
0
LAYER
2
OBJECT__42
70
0
62
253
6
CONTINUOUS
0
LAYER
2
OBJECT__43
70
0
62
253
6
CONTINUOUS
0
LAYER
2
OBJECT__44
70
0
62
253
6
CONTINUOUS
0
LAYER
2
OBJECT__45
70
0
62
253
6
CONTINUOUS
0
LAYER
2
OBJECT__46
70
0
62
253
6
CONTINUOUS
0
ENDTAB
0
TABLE
2
STYLE
70
1
0
STYLE
2
STANDARD
70
0
40
0.0
41
1.0
50
0.0
71
0
42
0.2
3
txt
4
1
0
ENDTAB
0
TABLE
2
UCS
70
0
0
ENDTAB
0
ENDSEC
0
SECTION
2
ENTITIES
0
POLYLINE
8
OBJECT__0
66
1
70
64
71
29
72
29
62
253
0
VERTEX
8
OBJECT__0
10
0.000000
20
29.149000
30
6.196000
70
192
0
VERTEX
8
OBJECT__0
10
0.000000
20
27.000000
30
0.000000
70
192
0
VERTEX
8
OBJECT__0
10
0.000000
20
24.326000
30
11.715000
70
192
0
VERTEX
8
OBJECT__0
10
0.000000
20
3.115000
30
29.636999
70
192
0
VERTEX
8
OBJECT__0
10
0.000000
20
6.008000
30
26.323000
70
192
0
VERTEX
8
OBJECT__0
10
0.000000
20
-6.008000
30
26.323000
70
192
0
VERTEX
8
OBJECT__0
10
0.000000
20
14.900000
30
25.808001
70
192
0
VERTEX
8
OBJECT__0
10
0.000000
20
16.834000
30
21.108999
70
192
0
VERTEX
8
OBJECT__0
10
0.000000
20
24.108999
30
17.516001
70
192
0
VERTEX
8
OBJECT__0
10
0.000000
20
29.149000
30
-6.196000
70
192
0
VERTEX
8
OBJECT__0
10
0.000000
20
24.108999
30
-17.516001
70
192
0
VERTEX
8
OBJECT__0
10
0.000000
20
24.326000
30
-11.715000
70
192
0
VERTEX
8
OBJECT__0
10
0.000000
20
14.900000
30
-25.808001
70
192
0
VERTEX
8
OBJECT__0
10
0.000000
20
16.834000
30
-21.108999
70
192
0
VERTEX
8
OBJECT__0
10
0.000000
20
3.115000
30
-29.636999
70
192
0
VERTEX
8
OBJECT__0
10
0.000000
20
6.008000
30
-26.323000
70
192
0
VERTEX
8
OBJECT__0
10
0.000000
20
-9.209000
30
-28.341000
70
192
0
VERTEX
8
OBJECT__0
10
0.000000
20
-6.008000
30
-26.323000
70
192
0
VERTEX
8
OBJECT__0
10
0.000000
20
-19.940001
30
-22.146000
70
192
0
VERTEX
8
OBJECT__0
10
0.000000
20
-16.834000
30
-21.108999
70
192
0
VERTEX
8
OBJECT__0
10
0.000000
20
-27.224001
30
-12.121000
70
192
0
VERTEX
8
OBJECT__0
10
0.000000
20
-24.326000
30
-11.715000
70
192
0
VERTEX
8
OBJECT__0
10
0.000000
20
-29.799999
30
0.000000
70
192
0
VERTEX
8
OBJECT__0
10
0.000000
20
-27.000000
30
0.000000
70
192
0
VERTEX
8
OBJECT__0
10
0.000000
20
-19.940001
30
22.146000
70
192
0
VERTEX
8
OBJECT__0
10
0.000000
20
-16.834000
30
21.108999
70
192
0
VERTEX
8
OBJECT__0
10
0.000000
20
-24.326000
30
11.715000
70
192
0
VERTEX
8
OBJECT__0
10
0.000000
20
-9.209000
30
28.341000
70
192
0
VERTEX
8
OBJECT__0
10
0.000000
20
-27.224001
30
12.121000
70
192
0
VERTEX
8
OBJECT__0
10
0
20
0
30
0
70
128
71
1
72
2
73
3
0
VERTEX
8
OBJECT__0
10
0
20
0
30
0
70
128
71
4
72
5
73
6
0
VERTEX
8
OBJECT__0
10
0
20
0
30
0
70
128
71
7
72
8
73
5
0
VERTEX
8
OBJECT__0
10
0
20
0
30
0
70
128
71
9
72
3
73
8
0
VERTEX
8
OBJECT__0
10
0
20
0
30
0
70
128
71
1
72
10
73
2
0
VERTEX
8
OBJECT__0
10
0
20
0
30
0
70
128
71
5
72
4
73
7
0
VERTEX
8
OBJECT__0
10
0
20
0
30
0
70
128
71
3
72
9
73
1
0
VERTEX
8
OBJECT__0
10
0
20
0
30
0
70
128
71
10
72
11
73
12
0
VERTEX
8
OBJECT__0
10
0
20
0
30
0
70
128
71
11
72
13
73
14
0
VERTEX
8
OBJECT__0
10
0
20
0
30
0
70
128
71
8
72
7
73
9
0
VERTEX
8
OBJECT__0
10
0
20
0
30
0
70
128
71
14
72
12
73
11
0
VERTEX
8
OBJECT__0
10
0
20
0
30
0
70
128
71
13
72
15
73
16
0
VERTEX
8
OBJECT__0
10
0
20
0
30
0
70
128
71
15
72
17
73
18
0
VERTEX
8
OBJECT__0
10
0
20
0
30
0
70
128
71
12
72
2
73
10
0
VERTEX
8
OBJECT__0
10
0
20
0
30
0
70
128
71
18
72
16
73
15
0
VERTEX
8
OBJECT__0
10
0
20
0
30
0
70
128
71
16
72
14
73
13
0
VERTEX
8
OBJECT__0
10
0
20
0
30
0
70
128
71
17
72
19
73
20
0
VERTEX
8
OBJECT__0
10
0
20
0
30
0
70
128
71
19
72
21
73
22
0
VERTEX
8
OBJECT__0
10
0
20
0
30
0
70
128
71
21
72
23
73
24
0
VERTEX
8
OBJECT__0
10
0
20
0
30
0
70
128
71
25
72
26
73
27
0
VERTEX
8
OBJECT__0
10
0
20
0
30
0
70
128
71
28
72
6
73
26
0
VERTEX
8
OBJECT__0
10
0
20
0
30
0
70
128
71
20
72
18
73
17
0
VERTEX
8
OBJECT__0
10
0
20
0
30
0
70
128
71
24
72
22
73
21
0
VERTEX
8
OBJECT__0
10
0
20
0
30
0
70
128
71
26
72
25
73
28
0
VERTEX
8
OBJECT__0
10
0
20
0
30
0
70
128
71
22
72
20
73
19
0
VERTEX
8
OBJECT__0
10
0
20
0
30
0
70
128
71
29
72
27
73
24
0
VERTEX
8
OBJECT__0
10
0
20
0
30
0
70
128
71
6
72
28
73
4
0
VERTEX
8
OBJECT__0
10
0
20
0
30
0
70
128
71
27
72
29
73
25
0
VERTEX
8
OBJECT__0
10
0
20
0
30
0
70
128
71
24
72
23
73
29
0
SEQEND
8
OBJECT__0
0
POLYLINE
8
OBJECT__2
66
1
70
64
71
36
72
36
62
253
0
VERTEX
8
OBJECT__2
10
12.500000
20
26.200001
30
0.000000
70
192
0
VERTEX
8
OBJECT__2
10
15.100000
20
26.200001
30
0.000000
70
192
0
VERTEX
8
OBJECT__2
10
15.100000
20
24.205999
30
-10.026000
70
192
0
VERTEX
8
OBJECT__2
10
12.500000
20
22.690001
30
-13.100000
70
192
0
VERTEX
8
OBJECT__2
10
15.100000
20
22.318001
30
-12.851000
70
192
0
VERTEX
8
OBJECT__2
10
15.100000
20
18.525999
30
-18.525999
70
192
0
VERTEX
8
OBJECT__2
10
12.500000
20
13.100000
30
-22.690001
70
192
0
VERTEX
8
OBJECT__2
10
12.500000
20
0.000000
30
-26.200001
70
192
0
VERTEX
8
OBJECT__2
10
15.100000
20
10.026000
30
-24.205999
70
192
0
VERTEX
8
OBJECT__2
10
15.100000
20
12.851000
30
-22.318001
70
192
0
VERTEX
8
OBJECT__2
10
15.100000
20
0.000000
30
-26.200001
70
192
0
VERTEX
8
OBJECT__2
10
15.100000
20
-10.026000
30
-24.205999
70
192
0
VERTEX
8
OBJECT__2
10
12.500000
20
-13.100000
30
-22.690001
70
192
0
VERTEX
8
OBJECT__2
10
15.100000
20
-12.851000
30
-22.318001
70
192
0
VERTEX
8
OBJECT__2
10
15.100000
20
-18.525999
30
-18.525999
70
192
0
VERTEX
8
OBJECT__2
10
12.500000
20
-22.690001
30
-13.100000
70
192
0
VERTEX
8
OBJECT__2
10
12.500000
20
-26.200001
30
0.000000
70
192
0
VERTEX
8
OBJECT__2
10
15.100000
20
-24.205999
30
-10.026000
70
192
0
VERTEX
8
OBJECT__2
10
15.100000
20
-22.318001
30
-12.851000
70
192
0
VERTEX
8
OBJECT__2
10
15.100000
20
-26.200001
30
0.000000
70
192
0
VERTEX
8
OBJECT__2
10
15.100000
20
-24.205999
30
10.026000
70
192
0
VERTEX
8
OBJECT__2
10
12.500000
20
-22.690001
30
13.100000
70
192
0
VERTEX
8
OBJECT__2
10
15.100000
20
-22.318001
30
12.851000
70
192
0
VERTEX
8
OBJECT__2
10
15.100000
20
-18.525999
30
18.525999
70
192
0
VERTEX
8
OBJECT__2
10
12.500000
20
-13.100000
30
22.690001
70
192
0
VERTEX
8
OBJECT__2
10
12.500000
20
0.000000
30
26.200001
70
192
0
VERTEX
8
OBJECT__2
10
15.100000
20
-10.026000
30
24.205999
70
192
0
VERTEX
8
OBJECT__2
10
15.100000
20
-12.851000
30
22.318001
70
192
0
VERTEX
8
OBJECT__2
10
15.100000
20
0.000000
30
26.200001
70
192
0
VERTEX
8
OBJECT__2
10
15.100000
20
10.026000
30
24.205999
70
192
0
VERTEX
8
OBJECT__2
10
12.500000
20
13.100000
30
22.690001
70
192
0
VERTEX
8
OBJECT__2
10
15.100000
20
12.851000
30
22.318001
70
192
0
VERTEX
8
OBJECT__2
10
15.100000
20
18.525999
30
18.525999
70
192
0
VERTEX
8
OBJECT__2
10
12.500000
20
22.690001
30
13.100000
70
192
0
VERTEX
8
OBJECT__2
10
15.100000
20
24.205999
30
10.026000
70
192
0
VERTEX
8
OBJECT__2
10
15.100000
20
22.318001
30
12.851000
70
192
0
VERTEX
8
OBJECT__2
10
0
20
0
30
0
70
128
71
1
72
2
73
3
0
VERTEX
8
OBJECT__2
10
0
20
0
30
0
70
128
71
3
72
4
73
1
0
VERTEX
8
OBJECT__2
10
0
20
0
30
0
70
128
71
4
72
5
73
6
0
VERTEX
8
OBJECT__2
10
0
20
0
30
0
70
128
71
6
72
7
73
4
0
VERTEX
8
OBJECT__2
10
0
20
0
30
0
70
128
71
8
72
7
73
9
0
VERTEX
8
OBJECT__2
10
0
20
0
30
0
70
128
71
7
72
10
73
9
0
VERTEX
8
OBJECT__2
10
0
20
0
30
0
70
128
71
8
72
11
73
12
0
VERTEX
8
OBJECT__2
10
0
20
0
30
0
70
128
71
12
72
13
73
8
0
VERTEX
8
OBJECT__2
10
0
20
0
30
0
70
128
71
13
72
14
73
15
0
VERTEX
8
OBJECT__2
10
0
20
0
30
0
70
128
71
15
72
16
73
13
0
VERTEX
8
OBJECT__2
10
0
20
0
30
0
70
128
71
17
72
16
73
18
0
VERTEX
8
OBJECT__2
10
0
20
0
30
0
70
128
71
16
72
19
73
18
0
VERTEX
8
OBJECT__2
10
0
20
0
30
0
70
128
71
17
72
20
73
21
0
VERTEX
8
OBJECT__2
10
0
20
0
30
0
70
128
71
21
72
22
73
17
0
VERTEX
8
OBJECT__2
10
0
20
0
30
0
70
128
71
22
72
23
73
24
0
VERTEX
8
OBJECT__2
10
0
20
0
30
0
70
128
71
24
72
25
73
22
0
VERTEX
8
OBJECT__2
10
0
20
0
30
0
70
128
71
26
72
25
73
27
0
VERTEX
8
OBJECT__2
10
0
20
0
30
0
70
128
71
25
72
28
73
27
0
VERTEX
8
OBJECT__2
10
0
20
0
30
0
70
128
71
26
72
29
73
30
0
VERTEX
8
OBJECT__2
10
0
20
0
30
0
70
128
71
30
72
31
73
26
0
VERTEX
8
OBJECT__2
10
0
20
0
30
0
70
128
71
31
72
32
73
33
0
VERTEX
8
OBJECT__2
10
0
20
0
30
0
70
128
71
33
72
34
73
31
0
VERTEX
8
OBJECT__2
10
0
20
0
30
0
70
128
71
1
72
34
73
35
0
VERTEX
8
OBJECT__2
10
0
20
0
30
0
70
128
71
34
72
36
73
35
0
VERTEX
8
OBJECT__2
10
0
20
0
30
0
70
128
71
35
72
2
73
1
0
VERTEX
8
OBJECT__2
10
0
20
0
30
0
70
128
71
33
72
36
73
34
0
VERTEX
8
OBJECT__2
10
0
20
0
30
0
70
128
71
30
72
32
73
31
0
VERTEX
8
OBJECT__2
10
0
20
0
30
0
70
128
71
27
72
29
73
26
0
VERTEX
8
OBJECT__2
10
0
20
0
30
0
70
128
71
24
72
28
73
25
0
VERTEX
8
OBJECT__2
10
0
20
0
30
0
70
128
71
21
72
23
73
22
0
VERTEX
8
OBJECT__2
10
0
20
0
30
0
70
128
71
18
72
20
73
17
0
VERTEX
8
OBJECT__2
10
0
20
0
30
0
70
128
71
15
72
19
73
16
0
VERTEX
8
OBJECT__2
10
0
20
0
30
0
70
128
71
12
72
14
73
13
0
VERTEX
8
OBJECT__2
10
0
20
0
30
0
70
128
71
9
72
11
73
8
0
VERTEX
8
OBJECT__2
10
0
20
0
30
0
70
128
71
6
72
10
73
7
0
VERTEX
8
OBJECT__2
10
0
20
0
30
0
70
128
71
3
72
5
73
4
0
SEQEND
8
OBJECT__2
0
POLYLINE
8
OBJECT__3
66
1
70
64
71
40
72
40
62
253
0
VERTEX
8
OBJECT__3
10
15.100000
20
24.205999
30
-10.026000
70
192
0
VERTEX
8
OBJECT__3
10
15.100000
20
26.200001
30
0.000000
70
192
0
VERTEX
8
OBJECT__3
10
15.400000
20
25.900000
30
0.000000
70
192
0
VERTEX
8
OBJECT__3
10
15.400000
20
18.313999
30
-18.313999
70
192
0
VERTEX
8
OBJECT__3
10
15.100000
20
18.525999
30
-18.525999
70
192
0
VERTEX
8
OBJECT__3
10
15.100000
20
22.318001
30
-12.851000
70
192
0
VERTEX
8
OBJECT__3
10
15.400000
20
23.927999
30
-9.912000
70
192
0
VERTEX
8
OBJECT__3
10
15.400000
20
9.912000
30
-23.927999
70
192
0
VERTEX
8
OBJECT__3
10
15.100000
20
12.851000
30
-22.318001
70
192
0
VERTEX
8
OBJECT__3
10
15.100000
20
10.026000
30
-24.205999
70
192
0
VERTEX
8
OBJECT__3
10
15.400000
20
0.000000
30
-25.900000
70
192
0
VERTEX
8
OBJECT__3
10
15.100000
20
-10.026000
30
-24.205999
70
192
0
VERTEX
8
OBJECT__3
10
15.100000
20
0.000000
30
-26.200001
70
192
0
VERTEX
8
OBJECT__3
10
15.400000
20
-18.313999
30
-18.313999
70
192
0
VERTEX
8
OBJECT__3
10
15.100000
20
-18.525999
30
-18.525999
70
192
0
VERTEX
8
OBJECT__3
10
15.100000
20
-12.851000
30
-22.318001
70
192
0
VERTEX
8
OBJECT__3
10
15.400000
20
-9.912000
30
-23.927999
70
192
0
VERTEX
8
OBJECT__3
10
15.400000
20
-23.927999
30
-9.912000
70
192
0
VERTEX
8
OBJECT__3
10
15.100000
20
-22.318001
30
-12.851000
70
192
0
VERTEX
8
OBJECT__3
10
15.100000
20
-24.205999
30
-10.026000
70
192
0
VERTEX
8
OBJECT__3
10
15.100000
20
-26.200001
30
0.000000
70
192
0
VERTEX
8
OBJECT__3
10
15.100000
20
-24.205999
30
10.026000
70
192
0
VERTEX
8
OBJECT__3
10
15.400000
20
-25.900000
30
0.000000
70
192
0
VERTEX
8
OBJECT__3
10
15.400000
20
-18.313999
30
18.313999
70
192
0
VERTEX
8
OBJECT__3
10
15.100000
20
-18.525999
30
18.525999
70
192
0
VERTEX
8
OBJECT__3
10
15.100000
20
-22.318001
30
12.851000
70
192
0
VERTEX
8
OBJECT__3
10
15.400000
20
-23.927999
30
9.912000
70
192
0
VERTEX
8
OBJECT__3
10
15.400000
20
-9.912000
30
23.927999
70
192
0
VERTEX
8
OBJECT__3
10
15.100000
20
-12.851000
30
22.318001
70
192
0
VERTEX
8
OBJECT__3
10
15.100000
20
-10.026000
30
24.205999
70
192
0
VERTEX
8
OBJECT__3
10
15.100000
20
0.000000
30
26.200001
70
192
0
VERTEX
8
OBJECT__3
10
15.400000
20
0.000000
30
25.900000
70
192
0
VERTEX
8
OBJECT__3
10
15.400000
20
9.912000
30
23.927999
70
192
0
VERTEX
8
OBJECT__3
10
15.400000
20
18.313999
30
18.313999
70
192
0
VERTEX
8
OBJECT__3
10
15.100000
20
18.525999
30
18.525999
70
192
0
VERTEX
8
OBJECT__3
10
15.100000
20
12.851000
30
22.318001
70
192
0
VERTEX
8
OBJECT__3
10
15.400000
20
23.927999
30
9.912000
70
192
0
VERTEX
8
OBJECT__3
10
15.100000
20
22.318001
30
12.851000
70
192
0
VERTEX
8
OBJECT__3
10
15.100000
20
24.205999
30
10.026000
70
192
0
VERTEX
8
OBJECT__3
10
15.100000
20
10.026000
30
24.205999
70
192
0
VERTEX
8
OBJECT__3
10
0
20
0
30
0
70
128
71
1
72
2
73
3
0
VERTEX
8
OBJECT__3
10
0
20
0
30
0
70
128
71
4
72
5
73
6
0
VERTEX
8
OBJECT__3
10
0
20
0
30
0
70
128
71
6
72
7
73
4
0
VERTEX
8
OBJECT__3
10
0
20
0
30
0
70
128
71
4
72
8
73
9
0
VERTEX
8
OBJECT__3
10
0
20
0
30
0
70
128
71
8
72
10
73
9
0
VERTEX
8
OBJECT__3
10
0
20
0
30
0
70
128
71
10
72
8
73
11
0
VERTEX
8
OBJECT__3
10
0
20
0
30
0
70
128
71
12
72
13
73
11
0
VERTEX
8
OBJECT__3
10
0
20
0
30
0
70
128
71
14
72
15
73
16
0
VERTEX
8
OBJECT__3
10
0
20
0
30
0
70
128
71
16
72
17
73
14
0
VERTEX
8
OBJECT__3
10
0
20
0
30
0
70
128
71
14
72
18
73
19
0
VERTEX
8
OBJECT__3
10
0
20
0
30
0
70
128
71
18
72
20
73
19
0
VERTEX
8
OBJECT__3
10
0
20
0
30
0
70
128
71
21
72
20
73
18
0
VERTEX
8
OBJECT__3
10
0
20
0
30
0
70
128
71
22
72
21
73
23
0
VERTEX
8
OBJECT__3
10
0
20
0
30
0
70
128
71
24
72
25
73
26
0
VERTEX
8
OBJECT__3
10
0
20
0
30
0
70
128
71
26
72
27
73
24
0
VERTEX
8
OBJECT__3
10
0
20
0
30
0
70
128
71
24
72
28
73
29
0
VERTEX
8
OBJECT__3
10
0
20
0
30
0
70
128
71
28
72
30
73
29
0
VERTEX
8
OBJECT__3
10
0
20
0
30
0
70
128
71
31
72
30
73
28
0
VERTEX
8
OBJECT__3
10
0
20
0
30
0
70
128
71
31
72
32
73
33
0
VERTEX
8
OBJECT__3
10
0
20
0
30
0
70
128
71
34
72
35
73
36
0
VERTEX
8
OBJECT__3
10
0
20
0
30
0
70
128
71
36
72
33
73
34
0
VERTEX
8
OBJECT__3
10
0
20
0
30
0
70
128
71
34
72
37
73
38
0
VERTEX
8
OBJECT__3
10
0
20
0
30
0
70
128
71
37
72
39
73
38
0
VERTEX
8
OBJECT__3
10
0
20
0
30
0
70
128
71
39
72
37
73
3
0
VERTEX
8
OBJECT__3
10
0
20
0
30
0
70
128
71
3
72
2
73
39
0
VERTEX
8
OBJECT__3
10
0
20
0
30
0
70
128
71
38
72
35
73
34
0
VERTEX
8
OBJECT__3
10
0
20
0
30
0
70
128
71
36
72
40
73
33
0
VERTEX
8
OBJECT__3
10
0
20
0
30
0
70
128
71
33
72
40
73
31
0
VERTEX
8
OBJECT__3
10
0
20
0
30
0
70
128
71
28
72
32
73
31
0
VERTEX
8
OBJECT__3
10
0
20
0
30
0
70
128
71
29
72
25
73
24
0
VERTEX
8
OBJECT__3
10
0
20
0
30
0
70
128
71
26
72
22
73
27
0
VERTEX
8
OBJECT__3
10
0
20
0
30
0
70
128
71
23
72
27
73
22
0
VERTEX
8
OBJECT__3
10
0
20
0
30
0
70
128
71
18
72
23
73
21
0
VERTEX
8
OBJECT__3
10
0
20
0
30
0
70
128
71
19
72
15
73
14
0
VERTEX
8
OBJECT__3
10
0
20
0
30
0
70
128
71
16
72
12
73
17
0
VERTEX
8
OBJECT__3
10
0
20
0
30
0
70
128
71
11
72
17
73
12
0
VERTEX
8
OBJECT__3
10
0
20
0
30
0
70
128
71
11
72
13
73
10
0
VERTEX
8
OBJECT__3
10
0
20
0
30
0
70
128
71
9
72
5
73
4
0
VERTEX
8
OBJECT__3
10
0
20
0
30
0
70
128
71
6
72
1
73
7
0
VERTEX
8
OBJECT__3
10
0
20
0
30
0
70
128
71
3
72
7
73
1
0
SEQEND
8
OBJECT__3
0
POLYLINE
8
OBJECT__5
66
1
70
64
71
26
72
26
62
253
0
VERTEX
8
OBJECT__5
10
15.400000
20
0.000000
30
-25.900000
70
192
0
VERTEX
8
OBJECT__5
10
15.400000
20
9.912000
30
-23.927999
70
192
0
VERTEX
8
OBJECT__5
10
15.400000
20
6.000000
30
-5.268000
70
192
0
VERTEX
8
OBJECT__5
10
15.400000
20
0.000000
30
25.900000
70
192
0
VERTEX
8
OBJECT__5
10
15.400000
20
-6.000000
30
5.268000
70
192
0
VERTEX
8
OBJECT__5
10
15.400000
20
6.000000
30
5.268000
70
192
0
VERTEX
8
OBJECT__5
10
15.400000
20
-18.313999
30
-18.313999
70
192
0
VERTEX
8
OBJECT__5
10
15.400000
20
-9.912000
30
-23.927999
70
192
0
VERTEX
8
OBJECT__5
10
15.400000
20
-6.000000
30
-5.268000
70
192
0
VERTEX
8
OBJECT__5
10
15.400000
20
9.912000
30
23.927999
70
192
0
VERTEX
8
OBJECT__5
10
15.400000
20
-18.313999
30
18.313999
70
192
0
VERTEX
8
OBJECT__5
10
15.400000
20
-9.725000
30
3.725000
70
192
0
VERTEX
8
OBJECT__5
10
15.400000
20
-23.927999
30
9.912000
70
192
0
VERTEX
8
OBJECT__5
10
15.400000
20
-25.900000
30
0.000000
70
192
0
VERTEX
8
OBJECT__5
10
15.400000
20
-11.268000
30
0.000000
70
192
0
VERTEX
8
OBJECT__5
10
15.400000
20
-23.927999
30
-9.912000
70
192
0
VERTEX
8
OBJECT__5
10
15.400000
20
-9.725000
30
-3.725000
70
192
0
VERTEX
8
OBJECT__5
10
15.400000
20
18.313999
30
-18.313999
70
192
0
VERTEX
8
OBJECT__5
10
15.400000
20
9.725000
30
-3.725000
70
192
0
VERTEX
8
OBJECT__5
10
15.400000
20
23.927999
30
-9.912000
70
192
0
VERTEX
8
OBJECT__5
10
15.400000
20
25.900000
30
0.000000
70
192
0
VERTEX
8
OBJECT__5
10
15.400000
20
11.268000
30
0.000000
70
192
0
VERTEX
8
OBJECT__5
10
15.400000
20
23.927999
30
9.912000
70
192
0
VERTEX
8
OBJECT__5
10
15.400000
20
9.725000
30
3.725000
70
192
0
VERTEX
8
OBJECT__5
10
15.400000
20
18.313999
30
18.313999
70
192
0
VERTEX
8
OBJECT__5
10
15.400000
20
-9.912000
30
23.927999
70
192
0
VERTEX
8
OBJECT__5
10
0
20
0
30
0
70
128
71
1
72
2
73
3
0
VERTEX
8
OBJECT__5
10
0
20
0
30
0
70
128
71
4
72
5
73
6
0
VERTEX
8
OBJECT__5
10
0
20
0
30
0
70
128
71
7
72
8
73
9
0
VERTEX
8
OBJECT__5
10
0
20
0
30
0
70
128
71
9
72
8
73
1
0
VERTEX
8
OBJECT__5
10
0
20
0
30
0
70
128
71
6
72
10
73
4
0
VERTEX
8
OBJECT__5
10
0
20
0
30
0
70
128
71
11
72
12
73
5
0
VERTEX
8
OBJECT__5
10
0
20
0
30
0
70
128
71
13
72
14
73
15
0
VERTEX
8
OBJECT__5
10
0
20
0
30
0
70
128
71
16
72
17
73
15
0
VERTEX
8
OBJECT__5
10
0
20
0
30
0
70
128
71
3
72
9
73
1
0
VERTEX
8
OBJECT__5
10
0
20
0
30
0
70
128
71
18
72
19
73
3
0
VERTEX
8
OBJECT__5
10
0
20
0
30
0
70
128
71
20
72
21
73
22
0
VERTEX
8
OBJECT__5
10
0
20
0
30
0
70
128
71
23
72
24
73
22
0
VERTEX
8
OBJECT__5
10
0
20
0
30
0
70
128
71
25
72
10
73
6
0
VERTEX
8
OBJECT__5
10
0
20
0
30
0
70
128
71
5
72
26
73
11
0
VERTEX
8
OBJECT__5
10
0
20
0
30
0
70
128
71
12
72
11
73
13
0
VERTEX
8
OBJECT__5
10
0
20
0
30
0
70
128
71
15
72
14
73
16
0
VERTEX
8
OBJECT__5
10
0
20
0
30
0
70
128
71
3
72
2
73
18
0
VERTEX
8
OBJECT__5
10
0
20
0
30
0
70
128
71
19
72
18
73
20
0
VERTEX
8
OBJECT__5
10
0
20
0
30
0
70
128
71
22
72
21
73
23
0
VERTEX
8
OBJECT__5
10
0
20
0
30
0
70
128
71
4
72
26
73
5
0
VERTEX
8
OBJECT__5
10
0
20
0
30
0
70
128
71
16
72
7
73
17
0
VERTEX
8
OBJECT__5
10
0
20
0
30
0
70
128
71
22
72
19
73
20
0
VERTEX
8
OBJECT__5
10
0
20
0
30
0
70
128
71
6
72
24
73
25
0
VERTEX
8
OBJECT__5
10
0
20
0
30
0
70
128
71
9
72
17
73
7
0
VERTEX
8
OBJECT__5
10
0
20
0
30
0
70
128
71
15
72
12
73
13
0
VERTEX
8
OBJECT__5
10
0
20
0
30
0
70
128
71
23
72
25
73
24
0
SEQEND
8
OBJECT__5
0
POLYLINE
8
OBJECT__6
66
1
70
64
71
4
72
2
62
253
0
VERTEX
8
OBJECT__6
10
15.400000
20
14.500000
30
-6.500000
70
192
0
VERTEX
8
OBJECT__6
10
187.815002
20
14.500000
30
-6.500000
70
192
0
VERTEX
8
OBJECT__6
10
187.815002
20
-14.500000
30
-6.500000
70
192
0
VERTEX
8
OBJECT__6
10
15.400000
20
-14.500000
30
-6.500000
70
192
0
VERTEX
8
OBJECT__6
10
0
20
0
30
0
70
128
71
1
72
2
73
3
0
VERTEX
8
OBJECT__6
10
0
20
0
30
0
70
128
71
3
72
4
73
1
0
SEQEND
8
OBJECT__6
0
POLYLINE
8
OBJECT__7
66
1
70
64
71
8
72
6
62
253
0
VERTEX
8
OBJECT__7
10
212.300995
20
-14.500000
30
-29.624001
70
192
0
VERTEX
8
OBJECT__7
10
208.216995
20
-14.500000
30
-18.233999
70
192
0
VERTEX
8
OBJECT__7
10
208.216995
20
14.500000
30
-18.233999
70
192
0
VERTEX
8
OBJECT__7
10
199.419998
20
-14.500000
30
-9.926000
70
192
0
VERTEX
8
OBJECT__7
10
199.419998
20
14.500000
30
-9.926000
70
192
0
VERTEX
8
OBJECT__7
10
187.815002
20
-14.500000
30
-6.500000
70
192
0
VERTEX
8
OBJECT__7
10
187.815002
20
14.500000
30
-6.500000
70
192
0
VERTEX
8
OBJECT__7
10
212.300995
20
14.500000
30
-29.624001
70
192
0
VERTEX
8
OBJECT__7
10
0
20
0
30
0
70
128
71
1
72
2
73
3
0
VERTEX
8
OBJECT__7
10
0
20
0
30
0
70
128
71
4
72
5
73
3
0
VERTEX
8
OBJECT__7
10
0
20
0
30
0
70
128
71
6
72
7
73
5
0
VERTEX
8
OBJECT__7
10
0
20
0
30
0
70
128
71
5
72
4
73
6
0
VERTEX
8
OBJECT__7
10
0
20
0
30
0
70
128
71
3
72
2
73
4
0
VERTEX
8
OBJECT__7
10
0
20
0
30
0
70
128
71
3
72
8
73
1
0
SEQEND
8
OBJECT__7
0
POLYLINE
8
OBJECT__9
66
1
70
64
71
4
72
2
62
253
0
VERTEX
8
OBJECT__9
10
212.828003
20
-14.500000
30
-35.645000
70
192
0
VERTEX
8
OBJECT__9
10
212.300995
20
-14.500000
30
-29.624001
70
192
0
VERTEX
8
OBJECT__9
10
212.300995
20
14.500000
30
-29.624001
70
192
0
VERTEX
8
OBJECT__9
10
212.828003
20
14.500000
30
-35.645000
70
192
0
VERTEX
8
OBJECT__9
10
0
20
0
30
0
70
128
71
1
72
2
73
3
0
VERTEX
8
OBJECT__9
10
0
20
0
30
0
70
128
71
3
72
4
73
1
0
SEQEND
8
OBJECT__9
0
POLYLINE
8
OBJECT__10
66
1
70
64
71
4
72
2
62
253
0
VERTEX
8
OBJECT__10
10
226.675003
20
14.500000
30
-34.432999
70
192
0
VERTEX
8
OBJECT__10
10
226.675003
20
-14.500000
30
-34.432999
70
192
0
VERTEX
8
OBJECT__10
10
212.828003
20
-14.500000
30
-35.645000
70
192
0
VERTEX
8
OBJECT__10
10
212.828003
20
14.500000
30
-35.645000
70
192
0
VERTEX
8
OBJECT__10
10
0
20
0
30
0
70
128
71
1
72
2
73
3
0
VERTEX
8
OBJECT__10
10
0
20
0
30
0
70
128
71
3
72
4
73
1
0
SEQEND
8
OBJECT__10
0
POLYLINE
8
OBJECT__11
66
1
70
64
71
4
72
2
62
253
0
VERTEX
8
OBJECT__11
10
226.675003
20
14.500000
30
-34.432999
70
192
0
VERTEX
8
OBJECT__11
10
226.169006
20
14.500000
30
-28.645000
70
192
0
VERTEX
8
OBJECT__11
10
226.169006
20
-14.500000
30
-28.645000
70
192
0
VERTEX
8
OBJECT__11
10
226.675003
20
-14.500000
30
-34.432999
70
192
0
VERTEX
8
OBJECT__11
10
0
20
0
30
0
70
128
71
1
72
2
73
3
0
VERTEX
8
OBJECT__11
10
0
20
0
30
0
70
128
71
3
72
4
73
1
0
SEQEND
8
OBJECT__11
0
POLYLINE
8
OBJECT__12
66
1
70
64
71
13
72
11
62
253
0
VERTEX
8
OBJECT__12
10
213.826004
20
-14.500000
30
-3.615000
70
192
0
VERTEX
8
OBJECT__12
10
201.768997
20
-14.500000
30
3.882000
70
192
0
VERTEX
8
OBJECT__12
10
199.419998
20
-14.500000
30
-9.926000
70
192
0
VERTEX
8
OBJECT__12
10
187.815002
20
-14.500000
30
6.500000
70
192
0
VERTEX
8
OBJECT__12
10
187.815002
20
-14.500000
30
-6.500000
70
192
0
VERTEX
8
OBJECT__12
10
15.400000
20
-14.500000
30
-6.500000
70
192
0
VERTEX
8
OBJECT__12
10
212.828003
20
-14.500000
30
-35.645000
70
192
0
VERTEX
8
OBJECT__12
10
226.675003
20
-14.500000
30
-34.432999
70
192
0
VERTEX
8
OBJECT__12
10
226.169006
20
-14.500000
30
-28.645000
70
192
0
VERTEX
8
OBJECT__12
10
222.345001
20
-14.500000
30
-14.972000
70
192
0
VERTEX
8
OBJECT__12
10
208.216995
20
-14.500000
30
-18.233999
70
192
0
VERTEX
8
OBJECT__12
10
212.300995
20
-14.500000
30
-29.624001
70
192
0
VERTEX
8
OBJECT__12
10
15.400000
20
-14.500000
30
6.500000
70
192
0
VERTEX
8
OBJECT__12
10
0
20
0
30
0
70
128
71
1
72
2
73
3
0
VERTEX
8
OBJECT__12
10
0
20
0
30
0
70
128
71
2
72
4
73
5
0
VERTEX
8
OBJECT__12
10
0
20
0
30
0
70
128
71
6
72
5
73
4
0
VERTEX
8
OBJECT__12
10
0
20
0
30
0
70
128
71
7
72
8
73
9
0
VERTEX
8
OBJECT__12
10
0
20
0
30
0
70
128
71
10
72
11
73
12
0
VERTEX
8
OBJECT__12
10
0
20
0
30
0
70
128
71
11
72
10
73
1
0
VERTEX
8
OBJECT__12
10
0
20
0
30
0
70
128
71
4
72
13
73
6
0
VERTEX
8
OBJECT__12
10
0
20
0
30
0
70
128
71
12
72
9
73
10
0
VERTEX
8
OBJECT__12
10
0
20
0
30
0
70
128
71
5
72
3
73
2
0
VERTEX
8
OBJECT__12
10
0
20
0
30
0
70
128
71
3
72
11
73
1
0
VERTEX
8
OBJECT__12
10
0
20
0
30
0
70
128
71
9
72
12
73
7
0
SEQEND
8
OBJECT__12
0
POLYLINE
8
OBJECT__13
66
1
70
64
71
13
72
11
62
253
0
VERTEX
8
OBJECT__13
10
15.400000
20
14.500000
30
6.500000
70
192
0
VERTEX
8
OBJECT__13
10
187.815002
20
14.500000
30
6.500000
70
192
0
VERTEX
8
OBJECT__13
10
187.815002
20
14.500000
30
-6.500000
70
192
0
VERTEX
8
OBJECT__13
10
201.768997
20
14.500000
30
3.882000
70
192
0
VERTEX
8
OBJECT__13
10
199.419998
20
14.500000
30
-9.926000
70
192
0
VERTEX
8
OBJECT__13
10
213.826004
20
14.500000
30
-3.615000
70
192
0
VERTEX
8
OBJECT__13
10
208.216995
20
14.500000
30
-18.233999
70
192
0
VERTEX
8
OBJECT__13
10
222.345001
20
14.500000
30
-14.972000
70
192
0
VERTEX
8
OBJECT__13
10
226.169006
20
14.500000
30
-28.645000
70
192
0
VERTEX
8
OBJECT__13
10
212.300995
20
14.500000
30
-29.624001
70
192
0
VERTEX
8
OBJECT__13
10
212.828003
20
14.500000
30
-35.645000
70
192
0
VERTEX
8
OBJECT__13
10
226.675003
20
14.500000
30
-34.432999
70
192
0
VERTEX
8
OBJECT__13
10
15.400000
20
14.500000
30
-6.500000
70
192
0
VERTEX
8
OBJECT__13
10
0
20
0
30
0
70
128
71
1
72
2
73
3
0
VERTEX
8
OBJECT__13
10
0
20
0
30
0
70
128
71
4
72
5
73
3
0
VERTEX
8
OBJECT__13
10
0
20
0
30
0
70
128
71
6
72
7
73
5
0
VERTEX
8
OBJECT__13
10
0
20
0
30
0
70
128
71
3
72
2
73
4
0
VERTEX
8
OBJECT__13
10
0
20
0
30
0
70
128
71
5
72
4
73
6
0
VERTEX
8
OBJECT__13
10
0
20
0
30
0
70
128
71
8
72
9
73
10
0
VERTEX
8
OBJECT__13
10
0
20
0
30
0
70
128
71
11
72
10
73
9
0
VERTEX
8
OBJECT__13
10
0
20
0
30
0
70
128
71
6
72
8
73
7
0
VERTEX
8
OBJECT__13
10
0
20
0
30
0
70
128
71
9
72
12
73
11
0
VERTEX
8
OBJECT__13
10
0
20
0
30
0
70
128
71
10
72
7
73
8
0
VERTEX
8
OBJECT__13
10
0
20
0
30
0
70
128
71
3
72
13
73
1
0
SEQEND
8
OBJECT__13
0
POLYLINE
8
OBJECT__14
66
1
70
64
71
10
72
8
62
253
0
VERTEX
8
OBJECT__14
10
201.768997
20
14.500000
30
3.882000
70
192
0
VERTEX
8
OBJECT__14
10
187.815002
20
14.500000
30
6.500000
70
192
0
VERTEX
8
OBJECT__14
10
187.815002
20
-14.500000
30
6.500000
70
192
0
VERTEX
8
OBJECT__14
10
213.826004
20
-14.500000
30
-3.615000
70
192
0
VERTEX
8
OBJECT__14
10
213.826004
20
14.500000
30
-3.615000
70
192
0
VERTEX
8
OBJECT__14
10
222.345001
20
-14.500000
30
-14.972000
70
192
0
VERTEX
8
OBJECT__14
10
222.345001
20
14.500000
30
-14.972000
70
192
0
VERTEX
8
OBJECT__14
10
226.169006
20
-14.500000
30
-28.645000
70
192
0
VERTEX
8
OBJECT__14
10
226.169006
20
14.500000
30
-28.645000
70
192
0
VERTEX
8
OBJECT__14
10
201.768997
20
-14.500000
30
3.882000
70
192
0
VERTEX
8
OBJECT__14
10
0
20
0
30
0
70
128
71
1
72
2
73
3
0
VERTEX
8
OBJECT__14
10
0
20
0
30
0
70
128
71
4
72
5
73
1
0
VERTEX
8
OBJECT__14
10
0
20
0
30
0
70
128
71
6
72
7
73
5
0
VERTEX
8
OBJECT__14
10
0
20
0
30
0
70
128
71
8
72
9
73
7
0
VERTEX
8
OBJECT__14
10
0
20
0
30
0
70
128
71
7
72
6
73
8
0
VERTEX
8
OBJECT__14
10
0
20
0
30
0
70
128
71
5
72
4
73
6
0
VERTEX
8
OBJECT__14
10
0
20
0
30
0
70
128
71
1
72
10
73
4
0
VERTEX
8
OBJECT__14
10
0
20
0
30
0
70
128
71
3
72
10
73
1
0
SEQEND
8
OBJECT__14
0
POLYLINE
8
OBJECT__15
66
1
70
64
71
4
72
2
62
253
0
VERTEX
8
OBJECT__15
10
187.815002
20
-14.500000
30
6.500000
70
192
0
VERTEX
8
OBJECT__15
10
187.815002
20
14.500000
30
6.500000
70
192
0
VERTEX
8
OBJECT__15
10
15.400000
20
14.500000
30
6.500000
70
192
0
VERTEX
8
OBJECT__15
10
15.400000
20
-14.500000
30
6.500000
70
192
0
VERTEX
8
OBJECT__15
10
0
20
0
30
0
70
128
71
1
72
2
73
3
0
VERTEX
8
OBJECT__15
10
0
20
0
30
0
70
128
71
3
72
4
73
1
0
SEQEND
8
OBJECT__15
0
POLYLINE
8
OBJECT__16
66
1
70
64
71
22
72
22
62
253
0
VERTEX
8
OBJECT__16
10
15.300000
20
100.000000
30
26.200001
70
192
0
VERTEX
8
OBJECT__16
10
15.300000
20
95.905998
30
12.601000
70
192
0
VERTEX
8
OBJECT__16
10
15.300000
20
104.094002
30
12.601000
70
192
0
VERTEX
8
OBJECT__16
10
15.300000
20
100.000000
30
-26.200001
70
192
0
VERTEX
8
OBJECT__16
10
15.300000
20
104.094002
30
-12.601000
70
192
0
VERTEX
8
OBJECT__16
10
15.300000
20
95.905998
30
-12.601000
70
192
0
VERTEX
8
OBJECT__16
10
15.300000
20
113.099998
30
22.690001
70
192
0
VERTEX
8
OBJECT__16
10
15.300000
20
110.719002
30
7.788000
70
192
0
VERTEX
8
OBJECT__16
10
15.300000
20
86.900002
30
-22.690001
70
192
0
VERTEX
8
OBJECT__16
10
15.300000
20
89.280998
30
-7.788000
70
192
0
VERTEX
8
OBJECT__16
10
15.300000
20
86.900002
30
22.690001
70
192
0
VERTEX
8
OBJECT__16
10
15.300000
20
77.309998
30
13.100000
70
192
0
VERTEX
8
OBJECT__16
10
15.300000
20
89.280998
30
7.788000
70
192
0
VERTEX
8
OBJECT__16
10
15.300000
20
73.800003
30
0.000000
70
192
0
VERTEX
8
OBJECT__16
10
15.300000
20
86.750000
30
0.000000
70
192
0
VERTEX
8
OBJECT__16
10
15.300000
20
77.309998
30
-13.100000
70
192
0
VERTEX
8
OBJECT__16
10
15.300000
20
113.099998
30
-22.690001
70
192
0
VERTEX
8
OBJECT__16
10
15.300000
20
122.690002
30
-13.100000
70
192
0
VERTEX
8
OBJECT__16
10
15.300000
20
110.719002
30
-7.788000
70
192
0
VERTEX
8
OBJECT__16
10
15.300000
20
122.690002
30
13.100000
70
192
0
VERTEX
8
OBJECT__16
10
15.300000
20
113.250000
30
0.000000
70
192
0
VERTEX
8
OBJECT__16
10
15.300000
20
126.199997
30
0.000000
70
192
0
VERTEX
8
OBJECT__16
10
0
20
0
30
0
70
128
71
1
72
2
73
3
0
VERTEX
8
OBJECT__16
10
0
20
0
30
0
70
128
71
4
72
5
73
6
0
VERTEX
8
OBJECT__16
10
0
20
0
30
0
70
128
71
7
72
3
73
8
0
VERTEX
8
OBJECT__16
10
0
20
0
30
0
70
128
71
3
72
7
73
1
0
VERTEX
8
OBJECT__16
10
0
20
0
30
0
70
128
71
9
72
6
73
10
0
VERTEX
8
OBJECT__16
10
0
20
0
30
0
70
128
71
6
72
9
73
4
0
VERTEX
8
OBJECT__16
10
0
20
0
30
0
70
128
71
1
72
11
73
2
0
VERTEX
8
OBJECT__16
10
0
20
0
30
0
70
128
71
11
72
12
73
13
0
VERTEX
8
OBJECT__16
10
0
20
0
30
0
70
128
71
12
72
14
73
15
0
VERTEX
8
OBJECT__16
10
0
20
0
30
0
70
128
71
16
72
10
73
15
0
VERTEX
8
OBJECT__16
10
0
20
0
30
0
70
128
71
4
72
17
73
5
0
VERTEX
8
OBJECT__16
10
0
20
0
30
0
70
128
71
17
72
18
73
19
0
VERTEX
8
OBJECT__16
10
0
20
0
30
0
70
128
71
20
72
8
73
21
0
VERTEX
8
OBJECT__16
10
0
20
0
30
0
70
128
71
13
72
2
73
11
0
VERTEX
8
OBJECT__16
10
0
20
0
30
0
70
128
71
15
72
14
73
16
0
VERTEX
8
OBJECT__16
10
0
20
0
30
0
70
128
71
19
72
5
73
17
0
VERTEX
8
OBJECT__16
10
0
20
0
30
0
70
128
71
8
72
20
73
7
0
VERTEX
8
OBJECT__16
10
0
20
0
30
0
70
128
71
10
72
16
73
9
0
VERTEX
8
OBJECT__16
10
0
20
0
30
0
70
128
71
15
72
13
73
12
0
VERTEX
8
OBJECT__16
10
0
20
0
30
0
70
128
71
18
72
22
73
21
0
VERTEX
8
OBJECT__16
10
0
20
0
30
0
70
128
71
21
72
19
73
18
0
VERTEX
8
OBJECT__16
10
0
20
0
30
0
70
128
71
21
72
22
73
20
0
SEQEND
8
OBJECT__16
0
POLYLINE
8
OBJECT__17
66
1
70
64
71
24
72
24
62
253
0
VERTEX
8
OBJECT__17
10
15.300000
20
77.309998
30
13.100000
70
192
0
VERTEX
8
OBJECT__17
10
14.300000
20
77.309998
30
13.100000
70
192
0
VERTEX
8
OBJECT__17
10
14.300000
20
73.800003
30
0.000000
70
192
0
VERTEX
8
OBJECT__17
10
15.300000
20
86.900002
30
22.690001
70
192
0
VERTEX
8
OBJECT__17
10
14.300000
20
86.900002
30
22.690001
70
192
0
VERTEX
8
OBJECT__17
10
15.300000
20
100.000000
30
26.200001
70
192
0
VERTEX
8
OBJECT__17
10
14.300000
20
100.000000
30
26.200001
70
192
0
VERTEX
8
OBJECT__17
10
15.300000
20
113.099998
30
22.690001
70
192
0
VERTEX
8
OBJECT__17
10
14.300000
20
113.099998
30
22.690001
70
192
0
VERTEX
8
OBJECT__17
10
15.300000
20
122.690002
30
13.100000
70
192
0
VERTEX
8
OBJECT__17
10
14.300000
20
122.690002
30
13.100000
70
192
0
VERTEX
8
OBJECT__17
10
15.300000
20
126.199997
30
0.000000
70
192
0
VERTEX
8
OBJECT__17
10
14.300000
20
126.199997
30
0.000000
70
192
0
VERTEX
8
OBJECT__17
10
14.300000
20
122.690002
30
-13.100000
70
192
0
VERTEX
8
OBJECT__17
10
14.300000
20
113.099998
30
-22.690001
70
192
0
VERTEX
8
OBJECT__17
10
15.300000
20
122.690002
30
-13.100000
70
192
0
VERTEX
8
OBJECT__17
10
14.300000
20
100.000000
30
-26.200001
70
192
0
VERTEX
8
OBJECT__17
10
15.300000
20
113.099998
30
-22.690001
70
192
0
VERTEX
8
OBJECT__17
10
14.300000
20
86.900002
30
-22.690001
70
192
0
VERTEX
8
OBJECT__17
10
15.300000
20
100.000000
30
-26.200001
70
192
0
VERTEX
8
OBJECT__17
10
14.300000
20
77.309998
30
-13.100000
70
192
0
VERTEX
8
OBJECT__17
10
15.300000
20
86.900002
30
-22.690001
70
192
0
VERTEX
8
OBJECT__17
10
15.300000
20
77.309998
30
-13.100000
70
192
0
VERTEX
8
OBJECT__17
10
15.300000
20
73.800003
30
0.000000
70
192
0
VERTEX
8
OBJECT__17
10
0
20
0
30
0
70
128
71
1
72
2
73
3
0
VERTEX
8
OBJECT__17
10
0
20
0
30
0
70
128
71
4
72
5
73
2
0
VERTEX
8
OBJECT__17
10
0
20
0
30
0
70
128
71
6
72
7
73
5
0
VERTEX
8
OBJECT__17
10
0
20
0
30
0
70
128
71
8
72
9
73
7
0
VERTEX
8
OBJECT__17
10
0
20
0
30
0
70
128
71
10
72
11
73
9
0
VERTEX
8
OBJECT__17
10
0
20
0
30
0
70
128
71
12
72
13
73
11
0
VERTEX
8
OBJECT__17
10
0
20
0
30
0
70
128
71
14
72
13
73
12
0
VERTEX
8
OBJECT__17
10
0
20
0
30
0
70
128
71
15
72
14
73
16
0
VERTEX
8
OBJECT__17
10
0
20
0
30
0
70
128
71
17
72
15
73
18
0
VERTEX
8
OBJECT__17
10
0
20
0
30
0
70
128
71
19
72
17
73
20
0
VERTEX
8
OBJECT__17
10
0
20
0
30
0
70
128
71
21
72
19
73
22
0
VERTEX
8
OBJECT__17
10
0
20
0
30
0
70
128
71
3
72
21
73
23
0
VERTEX
8
OBJECT__17
10
0
20
0
30
0
70
128
71
23
72
24
73
3
0
VERTEX
8
OBJECT__17
10
0
20
0
30
0
70
128
71
22
72
23
73
21
0
VERTEX
8
OBJECT__17
10
0
20
0
30
0
70
128
71
20
72
22
73
19
0
VERTEX
8
OBJECT__17
10
0
20
0
30
0
70
128
71
18
72
20
73
17
0
VERTEX
8
OBJECT__17
10
0
20
0
30
0
70
128
71
16
72
18
73
15
0
VERTEX
8
OBJECT__17
10
0
20
0
30
0
70
128
71
12
72
16
73
14
0
VERTEX
8
OBJECT__17
10
0
20
0
30
0
70
128
71
11
72
10
73
12
0
VERTEX
8
OBJECT__17
10
0
20
0
30
0
70
128
71
9
72
8
73
10
0
VERTEX
8
OBJECT__17
10
0
20
0
30
0
70
128
71
7
72
6
73
8
0
VERTEX
8
OBJECT__17
10
0
20
0
30
0
70
128
71
5
72
4
73
6
0
VERTEX
8
OBJECT__17
10
0
20
0
30
0
70
128
71
2
72
1
73
4
0
VERTEX
8
OBJECT__17
10
0
20
0
30
0
70
128
71
3
72
24
73
1
0
SEQEND
8
OBJECT__17
0
POLYLINE
8
OBJECT__19
66
1
70
64
71
10
72
8
62
253
0
VERTEX
8
OBJECT__19
10
42.164001
20
89.414001
30
-14.570000
70
192
0
VERTEX
8
OBJECT__19
10
42.164001
20
89.414001
30
14.570000
70
192
0
VERTEX
8
OBJECT__19
10
42.164001
20
82.871002
30
5.565000
70
192
0
VERTEX
8
OBJECT__19
10
42.164001
20
110.585999
30
14.570000
70
192
0
VERTEX
8
OBJECT__19
10
42.164001
20
100.000000
30
18.010000
70
192
0
VERTEX
8
OBJECT__19
10
42.164001
20
117.128998
30
-5.565000
70
192
0
VERTEX
8
OBJECT__19
10
42.164001
20
117.128998
30
5.565000
70
192
0
VERTEX
8
OBJECT__19
10
42.164001
20
100.000000
30
-18.010000
70
192
0
VERTEX
8
OBJECT__19
10
42.164001
20
110.585999
30
-14.570000
70
192
0
VERTEX
8
OBJECT__19
10
42.164001
20
82.871002
30
-5.565000
70
192
0
VERTEX
8
OBJECT__19
10
0
20
0
30
0
70
128
71
1
72
2
73
3
0
VERTEX
8
OBJECT__19
10
0
20
0
30
0
70
128
71
1
72
4
73
5
0
VERTEX
8
OBJECT__19
10
0
20
0
30
0
70
128
71
1
72
6
73
7
0
VERTEX
8
OBJECT__19
10
0
20
0
30
0
70
128
71
6
72
1
73
8
0
VERTEX
8
OBJECT__19
10
0
20
0
30
0
70
128
71
5
72
2
73
1
0
VERTEX
8
OBJECT__19
10
0
20
0
30
0
70
128
71
8
72
9
73
6
0
VERTEX
8
OBJECT__19
10
0
20
0
30
0
70
128
71
7
72
4
73
1
0
VERTEX
8
OBJECT__19
10
0
20
0
30
0
70
128
71
3
72
10
73
1
0
SEQEND
8
OBJECT__19
0
POLYLINE
8
OBJECT__20
66
1
70
64
71
28
72
30
62
253
0
VERTEX
8
OBJECT__20
10
42.164001
20
89.414001
30
-14.570000
70
192
0
VERTEX
8
OBJECT__20
10
15.650000
20
89.414001
30
-14.570000
70
192
0
VERTEX
8
OBJECT__20
10
15.650000
20
100.000000
30
-18.010000
70
192
0
VERTEX
8
OBJECT__20
10
42.164001
20
82.871002
30
-5.565000
70
192
0
VERTEX
8
OBJECT__20
10
15.650000
20
82.871002
30
-5.565000
70
192
0
VERTEX
8
OBJECT__20
10
42.164001
20
82.871002
30
5.565000
70
192
0
VERTEX
8
OBJECT__20
10
15.650000
20
82.871002
30
5.565000
70
192
0
VERTEX
8
OBJECT__20
10
15.650000
20
89.414001
30
14.570000
70
192
0
VERTEX
8
OBJECT__20
10
42.164001
20
100.000000
30
18.010000
70
192
0
VERTEX
8
OBJECT__20
10
15.650000
20
100.000000
30
18.010000
70
192
0
VERTEX
8
OBJECT__20
10
15.650000
20
110.585999
30
14.570000
70
192
0
VERTEX
8
OBJECT__20
10
42.164001
20
100.000000
30
-18.010000
70
192
0
VERTEX
8
OBJECT__20
10
15.650000
20
110.585999
30
-14.570000
70
192
0
VERTEX
8
OBJECT__20
10
33.160000
20
117.128998
30
5.565000
70
192
0
VERTEX
8
OBJECT__20
10
33.160000
20
117.128998
30
-5.565000
70
192
0
VERTEX
8
OBJECT__20
10
15.650000
20
117.128998
30
-5.565000
70
192
0
VERTEX
8
OBJECT__20
10
42.164001
20
117.128998
30
-5.565000
70
192
0
VERTEX
8
OBJECT__20
10
42.164001
20
110.585999
30
-14.570000
70
192
0
VERTEX
8
OBJECT__20
10
38.562000
20
116.303001
30
-7.654000
70
192
0
VERTEX
8
OBJECT__20
10
33.160000
20
116.303001
30
-7.654000
70
192
0
VERTEX
8
OBJECT__20
10
38.562000
20
117.128998
30
-5.565000
70
192
0
VERTEX
8
OBJECT__20
10
38.562000
20
117.128998
30
5.565000
70
192
0
VERTEX
8
OBJECT__20
10
42.164001
20
117.128998
30
5.565000
70
192
0
VERTEX
8
OBJECT__20
10
15.650000
20
117.128998
30
5.565000
70
192
0
VERTEX
8
OBJECT__20
10
33.160000
20
116.303001
30
7.654000
70
192
0
VERTEX
8
OBJECT__20
10
42.164001
20
110.585999
30
14.570000
70
192
0
VERTEX
8
OBJECT__20
10
38.562000
20
116.303001
30
7.654000
70
192
0
VERTEX
8
OBJECT__20
10
42.164001
20
89.414001
30
14.570000
70
192
0
VERTEX
8
OBJECT__20
10
0
20
0
30
0
70
128
71
1
72
2
73
3
0
VERTEX
8
OBJECT__20
10
0
20
0
30
0
70
128
71
4
72
5
73
2
0
VERTEX
8
OBJECT__20
10
0
20
0
30
0
70
128
71
6
72
7
73
5
0
VERTEX
8
OBJECT__20
10
0
20
0
30
0
70
128
71
8
72
7
73
6
0
VERTEX
8
OBJECT__20
10
0
20
0
30
0
70
128
71
9
72
10
73
8
0
VERTEX
8
OBJECT__20
10
0
20
0
30
0
70
128
71
11
72
10
73
9
0
VERTEX
8
OBJECT__20
10
0
20
0
30
0
70
128
71
12
72
3
73
13
0
VERTEX
8
OBJECT__20
10
0
20
0
30
0
70
128
71
14
72
15
73
16
0
VERTEX
8
OBJECT__20
10
0
20
0
30
0
70
128
71
17
72
18
73
19
0
VERTEX
8
OBJECT__20
10
0
20
0
30
0
70
128
71
18
72
13
73
20
0
VERTEX
8
OBJECT__20
10
0
20
0
30
0
70
128
71
20
72
19
73
18
0
VERTEX
8
OBJECT__20
10
0
20
0
30
0
70
128
71
16
72
15
73
20
0
VERTEX
8
OBJECT__20
10
0
20
0
30
0
70
128
71
20
72
13
73
16
0
VERTEX
8
OBJECT__20
10
0
20
0
30
0
70
128
71
21
72
22
73
23
0
VERTEX
8
OBJECT__20
10
0
20
0
30
0
70
128
71
24
72
11
73
25
0
VERTEX
8
OBJECT__20
10
0
20
0
30
0
70
128
71
26
72
27
73
25
0
VERTEX
8
OBJECT__20
10
0
20
0
30
0
70
128
71
23
72
22
73
27
0
VERTEX
8
OBJECT__20
10
0
20
0
30
0
70
128
71
27
72
26
73
23
0
VERTEX
8
OBJECT__20
10
0
20
0
30
0
70
128
71
25
72
11
73
26
0
VERTEX
8
OBJECT__20
10
0
20
0
30
0
70
128
71
25
72
14
73
24
0
VERTEX
8
OBJECT__20
10
0
20
0
30
0
70
128
71
23
72
17
73
21
0
VERTEX
8
OBJECT__20
10
0
20
0
30
0
70
128
71
19
72
21
73
17
0
VERTEX
8
OBJECT__20
10
0
20
0
30
0
70
128
71
16
72
24
73
14
0
VERTEX
8
OBJECT__20
10
0
20
0
30
0
70
128
71
13
72
18
73
12
0
VERTEX
8
OBJECT__20
10
0
20
0
30
0
70
128
71
9
72
26
73
11
0
VERTEX
8
OBJECT__20
10
0
20
0
30
0
70
128
71
8
72
28
73
9
0
VERTEX
8
OBJECT__20
10
0
20
0
30
0
70
128
71
6
72
28
73
8
0
VERTEX
8
OBJECT__20
10
0
20
0
30
0
70
128
71
5
72
4
73
6
0
VERTEX
8
OBJECT__20
10
0
20
0
30
0
70
128
71
2
72
1
73
4
0
VERTEX
8
OBJECT__20
10
0
20
0
30
0
70
128
71
3
72
12
73
1
0
SEQEND
8
OBJECT__20
0
POLYLINE
8
OBJECT__22
66
1
70
64
71
6
72
4
62
253
0
VERTEX
8
OBJECT__22
10
33.160000
20
163.572998
30
7.654000
70
192
0
VERTEX
8
OBJECT__22
10
33.160000
20
163.572998
30
-7.654000
70
192
0
VERTEX
8
OBJECT__22
10
33.160000
20
117.128998
30
-5.565000
70
192
0
VERTEX
8
OBJECT__22
10
33.160000
20
116.303001
30
-7.654000
70
192
0
VERTEX
8
OBJECT__22
10
33.160000
20
117.128998
30
5.565000
70
192
0
VERTEX
8
OBJECT__22
10
33.160000
20
116.303001
30
7.654000
70
192
0
VERTEX
8
OBJECT__22
10
0
20
0
30
0
70
128
71
1
72
2
73
3
0
VERTEX
8
OBJECT__22
10
0
20
0
30
0
70
128
71
2
72
4
73
3
0
VERTEX
8
OBJECT__22
10
0
20
0
30
0
70
128
71
3
72
5
73
1
0
VERTEX
8
OBJECT__22
10
0
20
0
30
0
70
128
71
5
72
6
73
1
0
SEQEND
8
OBJECT__22
0
POLYLINE
8
OBJECT__23
66
1
70
64
71
4
72
2
62
253
0
VERTEX
8
OBJECT__23
10
33.160000
20
163.572998
30
7.654000
70
192
0
VERTEX
8
OBJECT__23
10
38.562000
20
163.572998
30
7.654000
70
192
0
VERTEX
8
OBJECT__23
10
38.562000
20
163.572998
30
-7.654000
70
192
0
VERTEX
8
OBJECT__23
10
33.160000
20
163.572998
30
-7.654000
70
192
0
VERTEX
8
OBJECT__23
10
0
20
0
30
0
70
128
71
1
72
2
73
3
0
VERTEX
8
OBJECT__23
10
0
20
0
30
0
70
128
71
3
72
4
73
1
0
SEQEND
8
OBJECT__23
0
POLYLINE
8
OBJECT__24
66
1
70
64
71
4
72
2
62
253
0
VERTEX
8
OBJECT__24
10
33.160000
20
163.572998
30
7.654000
70
192
0
VERTEX
8
OBJECT__24
10
33.160000
20
116.303001
30
7.654000
70
192
0
VERTEX
8
OBJECT__24
10
38.562000
20
116.303001
30
7.654000
70
192
0
VERTEX
8
OBJECT__24
10
38.562000
20
163.572998
30
7.654000
70
192
0
VERTEX
8
OBJECT__24
10
0
20
0
30
0
70
128
71
1
72
2
73
3
0
VERTEX
8
OBJECT__24
10
0
20
0
30
0
70
128
71
3
72
4
73
1
0
SEQEND
8
OBJECT__24
0
POLYLINE
8
OBJECT__25
66
1
70
64
71
6
72
4
62
253
0
VERTEX
8
OBJECT__25
10
38.562000
20
163.572998
30
7.654000
70
192
0
VERTEX
8
OBJECT__25
10
38.562000
20
117.128998
30
5.565000
70
192
0
VERTEX
8
OBJECT__25
10
38.562000
20
117.128998
30
-5.565000
70
192
0
VERTEX
8
OBJECT__25
10
38.562000
20
116.303001
30
7.654000
70
192
0
VERTEX
8
OBJECT__25
10
38.562000
20
163.572998
30
-7.654000
70
192
0
VERTEX
8
OBJECT__25
10
38.562000
20
116.303001
30
-7.654000
70
192
0
VERTEX
8
OBJECT__25
10
0
20
0
30
0
70
128
71
1
72
2
73
3
0
VERTEX
8
OBJECT__25
10
0
20
0
30
0
70
128
71
1
72
4
73
2
0
VERTEX
8
OBJECT__25
10
0
20
0
30
0
70
128
71
3
72
5
73
1
0
VERTEX
8
OBJECT__25
10
0
20
0
30
0
70
128
71
3
72
6
73
5
0
SEQEND
8
OBJECT__25
0
POLYLINE
8
OBJECT__26
66
1
70
64
71
4
72
2
62
253
0
VERTEX
8
OBJECT__26
10
33.160000
20
163.572998
30
-7.654000
70
192
0
VERTEX
8
OBJECT__26
10
38.562000
20
163.572998
30
-7.654000
70
192
0
VERTEX
8
OBJECT__26
10
38.562000
20
116.303001
30
-7.654000
70
192
0
VERTEX
8
OBJECT__26
10
33.160000
20
116.303001
30
-7.654000
70
192
0
VERTEX
8
OBJECT__26
10
0
20
0
30
0
70
128
71
1
72
2
73
3
0
VERTEX
8
OBJECT__26
10
0
20
0
30
0
70
128
71
3
72
4
73
1
0
SEQEND
8
OBJECT__26
0
POLYLINE
8
OBJECT__27
66
1
70
64
71
22
72
22
62
253
0
VERTEX
8
OBJECT__27
10
15.300000
20
-100.000000
30
26.200001
70
192
0
VERTEX
8
OBJECT__27
10
15.300000
20
-104.094002
30
12.601000
70
192
0
VERTEX
8
OBJECT__27
10
15.300000
20
-95.905998
30
12.601000
70
192
0
VERTEX
8
OBJECT__27
10
15.300000
20
-100.000000
30
-26.200001
70
192
0
VERTEX
8
OBJECT__27
10
15.300000
20
-95.905998
30
-12.601000
70
192
0
VERTEX
8
OBJECT__27
10
15.300000
20
-104.094002
30
-12.601000
70
192
0
VERTEX
8
OBJECT__27
10
15.300000
20
-86.900002
30
22.690001
70
192
0
VERTEX
8
OBJECT__27
10
15.300000
20
-89.280998
30
7.788000
70
192
0
VERTEX
8
OBJECT__27
10
15.300000
20
-113.099998
30
-22.690001
70
192
0
VERTEX
8
OBJECT__27
10
15.300000
20
-110.719002
30
-7.788000
70
192
0
VERTEX
8
OBJECT__27
10
15.300000
20
-113.099998
30
22.690001
70
192
0
VERTEX
8
OBJECT__27
10
15.300000
20
-122.690002
30
13.100000
70
192
0
VERTEX
8
OBJECT__27
10
15.300000
20
-110.719002
30
7.788000
70
192
0
VERTEX
8
OBJECT__27
10
15.300000
20
-126.199997
30
0.000000
70
192
0
VERTEX
8
OBJECT__27
10
15.300000
20
-113.250000
30
0.000000
70
192
0
VERTEX
8
OBJECT__27
10
15.300000
20
-122.690002
30
-13.100000
70
192
0
VERTEX
8
OBJECT__27
10
15.300000
20
-86.900002
30
-22.690001
70
192
0
VERTEX
8
OBJECT__27
10
15.300000
20
-77.309998
30
-13.100000
70
192
0
VERTEX
8
OBJECT__27
10
15.300000
20
-89.280998
30
-7.788000
70
192
0
VERTEX
8
OBJECT__27
10
15.300000
20
-77.309998
30
13.100000
70
192
0
VERTEX
8
OBJECT__27
10
15.300000
20
-86.750000
30
0.000000
70
192
0
VERTEX
8
OBJECT__27
10
15.300000
20
-73.800003
30
0.000000
70
192
0
VERTEX
8
OBJECT__27
10
0
20
0
30
0
70
128
71
1
72
2
73
3
0
VERTEX
8
OBJECT__27
10
0
20
0
30
0
70
128
71
4
72
5
73
6
0
VERTEX
8
OBJECT__27
10
0
20
0
30
0
70
128
71
7
72
3
73
8
0
VERTEX
8
OBJECT__27
10
0
20
0
30
0
70
128
71
3
72
7
73
1
0
VERTEX
8
OBJECT__27
10
0
20
0
30
0
70
128
71
9
72
6
73
10
0
VERTEX
8
OBJECT__27
10
0
20
0
30
0
70
128
71
6
72
9
73
4
0
VERTEX
8
OBJECT__27
10
0
20
0
30
0
70
128
71
1
72
11
73
2
0
VERTEX
8
OBJECT__27
10
0
20
0
30
0
70
128
71
11
72
12
73
13
0
VERTEX
8
OBJECT__27
10
0
20
0
30
0
70
128
71
12
72
14
73
15
0
VERTEX
8
OBJECT__27
10
0
20
0
30
0
70
128
71
16
72
10
73
15
0
VERTEX
8
OBJECT__27
10
0
20
0
30
0
70
128
71
4
72
17
73
5
0
VERTEX
8
OBJECT__27
10
0
20
0
30
0
70
128
71
17
72
18
73
19
0
VERTEX
8
OBJECT__27
10
0
20
0
30
0
70
128
71
20
72
8
73
21
0
VERTEX
8
OBJECT__27
10
0
20
0
30
0
70
128
71
13
72
2
73
11
0
VERTEX
8
OBJECT__27
10
0
20
0
30
0
70
128
71
15
72
14
73
16
0
VERTEX
8
OBJECT__27
10
0
20
0
30
0
70
128
71
19
72
5
73
17
0
VERTEX
8
OBJECT__27
10
0
20
0
30
0
70
128
71
8
72
20
73
7
0
VERTEX
8
OBJECT__27
10
0
20
0
30
0
70
128
71
10
72
16
73
9
0
VERTEX
8
OBJECT__27
10
0
20
0
30
0
70
128
71
15
72
13
73
12
0
VERTEX
8
OBJECT__27
10
0
20
0
30
0
70
128
71
18
72
22
73
21
0
VERTEX
8
OBJECT__27
10
0
20
0
30
0
70
128
71
21
72
19
73
18
0
VERTEX
8
OBJECT__27
10
0
20
0
30
0
70
128
71
21
72
22
73
20
0
SEQEND
8
OBJECT__27
0
POLYLINE
8
OBJECT__28
66
1
70
64
71
24
72
24
62
253
0
VERTEX
8
OBJECT__28
10
15.300000
20
-126.199997
30
0.000000
70
192
0
VERTEX
8
OBJECT__28
10
15.300000
20
-122.690002
30
13.100000
70
192
0
VERTEX
8
OBJECT__28
10
14.300000
20
-122.690002
30
13.100000
70
192
0
VERTEX
8
OBJECT__28
10
14.300000
20
-113.099998
30
22.690001
70
192
0
VERTEX
8
OBJECT__28
10
14.300000
20
-100.000000
30
26.200001
70
192
0
VERTEX
8
OBJECT__28
10
15.300000
20
-113.099998
30
22.690001
70
192
0
VERTEX
8
OBJECT__28
10
14.300000
20
-86.900002
30
22.690001
70
192
0
VERTEX
8
OBJECT__28
10
15.300000
20
-100.000000
30
26.200001
70
192
0
VERTEX
8
OBJECT__28
10
14.300000
20
-77.309998
30
13.100000
70
192
0
VERTEX
8
OBJECT__28
10
15.300000
20
-86.900002
30
22.690001
70
192
0
VERTEX
8
OBJECT__28
10
15.300000
20
-77.309998
30
13.100000
70
192
0
VERTEX
8
OBJECT__28
10
15.300000
20
-73.800003
30
0.000000
70
192
0
VERTEX
8
OBJECT__28
10
14.300000
20
-73.800003
30
0.000000
70
192
0
VERTEX
8
OBJECT__28
10
15.300000
20
-77.309998
30
-13.100000
70
192
0
VERTEX
8
OBJECT__28
10
15.300000
20
-86.900002
30
-22.690001
70
192
0
VERTEX
8
OBJECT__28
10
14.300000
20
-86.900002
30
-22.690001
70
192
0
VERTEX
8
OBJECT__28
10
14.300000
20
-77.309998
30
-13.100000
70
192
0
VERTEX
8
OBJECT__28
10
15.300000
20
-100.000000
30
-26.200001
70
192
0
VERTEX
8
OBJECT__28
10
14.300000
20
-100.000000
30
-26.200001
70
192
0
VERTEX
8
OBJECT__28
10
15.300000
20
-113.099998
30
-22.690001
70
192
0
VERTEX
8
OBJECT__28
10
14.300000
20
-113.099998
30
-22.690001
70
192
0
VERTEX
8
OBJECT__28
10
15.300000
20
-122.690002
30
-13.100000
70
192
0
VERTEX
8
OBJECT__28
10
14.300000
20
-122.690002
30
-13.100000
70
192
0
VERTEX
8
OBJECT__28
10
14.300000
20
-126.199997
30
0.000000
70
192
0
VERTEX
8
OBJECT__28
10
0
20
0
30
0
70
128
71
1
72
2
73
3
0
VERTEX
8
OBJECT__28
10
0
20
0
30
0
70
128
71
4
72
3
73
2
0
VERTEX
8
OBJECT__28
10
0
20
0
30
0
70
128
71
5
72
4
73
6
0
VERTEX
8
OBJECT__28
10
0
20
0
30
0
70
128
71
7
72
5
73
8
0
VERTEX
8
OBJECT__28
10
0
20
0
30
0
70
128
71
9
72
7
73
10
0
VERTEX
8
OBJECT__28
10
0
20
0
30
0
70
128
71
11
72
12
73
13
0
VERTEX
8
OBJECT__28
10
0
20
0
30
0
70
128
71
13
72
12
73
14
0
VERTEX
8
OBJECT__28
10
0
20
0
30
0
70
128
71
15
72
16
73
17
0
VERTEX
8
OBJECT__28
10
0
20
0
30
0
70
128
71
18
72
19
73
16
0
VERTEX
8
OBJECT__28
10
0
20
0
30
0
70
128
71
20
72
21
73
19
0
VERTEX
8
OBJECT__28
10
0
20
0
30
0
70
128
71
22
72
23
73
21
0
VERTEX
8
OBJECT__28
10
0
20
0
30
0
70
128
71
23
72
22
73
1
0
VERTEX
8
OBJECT__28
10
0
20
0
30
0
70
128
71
1
72
24
73
23
0
VERTEX
8
OBJECT__28
10
0
20
0
30
0
70
128
71
21
72
20
73
22
0
VERTEX
8
OBJECT__28
10
0
20
0
30
0
70
128
71
19
72
18
73
20
0
VERTEX
8
OBJECT__28
10
0
20
0
30
0
70
128
71
16
72
15
73
18
0
VERTEX
8
OBJECT__28
10
0
20
0
30
0
70
128
71
17
72
14
73
15
0
VERTEX
8
OBJECT__28
10
0
20
0
30
0
70
128
71
14
72
17
73
13
0
VERTEX
8
OBJECT__28
10
0
20
0
30
0
70
128
71
13
72
9
73
11
0
VERTEX
8
OBJECT__28
10
0
20
0
30
0
70
128
71
10
72
11
73
9
0
VERTEX
8
OBJECT__28
10
0
20
0
30
0
70
128
71
8
72
10
73
7
0
VERTEX
8
OBJECT__28
10
0
20
0
30
0
70
128
71
6
72
8
73
5
0
VERTEX
8
OBJECT__28
10
0
20
0
30
0
70
128
71
2
72
6
73
4
0
VERTEX
8
OBJECT__28
10
0
20
0
30
0
70
128
71
3
72
24
73
1
0
SEQEND
8
OBJECT__28
0
POLYLINE
8
OBJECT__30
66
1
70
64
71
4
72
2
62
253
0
VERTEX
8
OBJECT__30
10
0.000000
20
135.000000
30
35.000000
70
192
0
VERTEX
8
OBJECT__30
10
15.000000
20
134.738007
30
34.737999
70
192
0
VERTEX
8
OBJECT__30
10
15.000000
20
134.738007
30
-34.737999
70
192
0
VERTEX
8
OBJECT__30
10
0.000000
20
135.000000
30
-35.000000
70
192
0
VERTEX
8
OBJECT__30
10
0
20
0
30
0
70
128
71
1
72
2
73
3
0
VERTEX
8
OBJECT__30
10
0
20
0
30
0
70
128
71
3
72
4
73
1
0
SEQEND
8
OBJECT__30
0
POLYLINE
8
OBJECT__31
66
1
70
64
71
4
72
2
62
253
0
VERTEX
8
OBJECT__31
10
15.000000
20
-134.738007
30
-34.737999
70
192
0
VERTEX
8
OBJECT__31
10
15.000000
20
134.738007
30
-34.737999
70
192
0
VERTEX
8
OBJECT__31
10
15.000000
20
134.738007
30
34.737999
70
192
0
VERTEX
8
OBJECT__31
10
15.000000
20
-134.738007
30
34.737999
70
192
0
VERTEX
8
OBJECT__31
10
0
20
0
30
0
70
128
71
1
72
2
73
3
0
VERTEX
8
OBJECT__31
10
0
20
0
30
0
70
128
71
3
72
4
73
1
0
SEQEND
8
OBJECT__31
0
POLYLINE
8
OBJECT__33
66
1
70
64
71
4
72
2
62
253
0
VERTEX
8
OBJECT__33
10
0.000000
20
-135.000000
30
-35.000000
70
192
0
VERTEX
8
OBJECT__33
10
15.000000
20
-134.738007
30
-34.737999
70
192
0
VERTEX
8
OBJECT__33
10
15.000000
20
-134.738007
30
34.737999
70
192
0
VERTEX
8
OBJECT__33
10
0.000000
20
-135.000000
30
35.000000
70
192
0
VERTEX
8
OBJECT__33
10
0
20
0
30
0
70
128
71
1
72
2
73
3
0
VERTEX
8
OBJECT__33
10
0
20
0
30
0
70
128
71
3
72
4
73
1
0
SEQEND
8
OBJECT__33
0
POLYLINE
8
OBJECT__34
66
1
70
64
71
4
72
2
62
253
0
VERTEX
8
OBJECT__34
10
0.000000
20
135.000000
30
35.000000
70
192
0
VERTEX
8
OBJECT__34
10
0.000000
20
135.000000
30
-35.000000
70
192
0
VERTEX
8
OBJECT__34
10
0.000000
20
-135.000000
30
-35.000000
70
192
0
VERTEX
8
OBJECT__34
10
0.000000
20
-135.000000
30
35.000000
70
192
0
VERTEX
8
OBJECT__34
10
0
20
0
30
0
70
128
71
1
72
2
73
3
0
VERTEX
8
OBJECT__34
10
0
20
0
30
0
70
128
71
3
72
4
73
1
0
SEQEND
8
OBJECT__34
0
POLYLINE
8
OBJECT__35
66
1
70
64
71
4
72
2
62
253
0
VERTEX
8
OBJECT__35
10
0.000000
20
-135.000000
30
35.000000
70
192
0
VERTEX
8
OBJECT__35
10
15.000000
20
-134.738007
30
34.737999
70
192
0
VERTEX
8
OBJECT__35
10
15.000000
20
134.738007
30
34.737999
70
192
0
VERTEX
8
OBJECT__35
10
0.000000
20
135.000000
30
35.000000
70
192
0
VERTEX
8
OBJECT__35
10
0
20
0
30
0
70
128
71
1
72
2
73
3
0
VERTEX
8
OBJECT__35
10
0
20
0
30
0
70
128
71
3
72
4
73
1
0
SEQEND
8
OBJECT__35
0
POLYLINE
8
OBJECT__36
66
1
70
64
71
4
72
2
62
253
0
VERTEX
8
OBJECT__36
10
0.000000
20
135.000000
30
-35.000000
70
192
0
VERTEX
8
OBJECT__36
10
15.000000
20
134.738007
30
-34.737999
70
192
0
VERTEX
8
OBJECT__36
10
15.000000
20
-134.738007
30
-34.737999
70
192
0
VERTEX
8
OBJECT__36
10
0.000000
20
-135.000000
30
-35.000000
70
192
0
VERTEX
8
OBJECT__36
10
0
20
0
30
0
70
128
71
1
72
2
73
3
0
VERTEX
8
OBJECT__36
10
0
20
0
30
0
70
128
71
3
72
4
73
1
0
SEQEND
8
OBJECT__36
0
POLYLINE
8
OBJECT__37
66
1
70
64
71
18
72
18
62
253
0
VERTEX
8
OBJECT__37
10
0.000000
20
-11.084000
30
8.053000
70
192
0
VERTEX
8
OBJECT__37
10
0.000000
20
-4.234000
30
13.029000
70
192
0
VERTEX
8
OBJECT__37
10
0.000000
20
-6.000000
30
5.000000
70
192
0
VERTEX
8
OBJECT__37
10
0.000000
20
6.000000
30
5.000000
70
192
0
VERTEX
8
OBJECT__37
10
0.000000
20
4.234000
30
13.029000
70
192
0
VERTEX
8
OBJECT__37
10
0.000000
20
11.084000
30
8.053000
70
192
0
VERTEX
8
OBJECT__37
10
0.000000
20
10.330000
30
2.500000
70
192
0
VERTEX
8
OBJECT__37
10
0.000000
20
-13.700000
30
0.000000
70
192
0
VERTEX
8
OBJECT__37
10
0.000000
20
-10.330000
30
2.500000
70
192
0
VERTEX
8
OBJECT__37
10
0.000000
20
13.700000
30
0.000000
70
192
0
VERTEX
8
OBJECT__37
10
0.000000
20
11.084000
30
-8.053000
70
192
0
VERTEX
8
OBJECT__37
10
0.000000
20
10.330000
30
-2.500000
70
192
0
VERTEX
8
OBJECT__37
10
0.000000
20
-6.000000
30
-5.000000
70
192
0
VERTEX
8
OBJECT__37
10
0.000000
20
6.000000
30
-5.000000
70
192
0
VERTEX
8
OBJECT__37
10
0.000000
20
4.234000
30
-13.029000
70
192
0
VERTEX
8
OBJECT__37
10
0.000000
20
-11.084000
30
-8.053000
70
192
0
VERTEX
8
OBJECT__37
10
0.000000
20
-10.330000
30
-2.500000
70
192
0
VERTEX
8
OBJECT__37
10
0.000000
20
-4.234000
30
-13.029000
70
192
0
VERTEX
8
OBJECT__37
10
0
20
0
30
0
70
128
71
1
72
2
73
3
0
VERTEX
8
OBJECT__37
10
0
20
0
30
0
70
128
71
4
72
3
73
2
0
VERTEX
8
OBJECT__37
10
0
20
0
30
0
70
128
71
2
72
5
73
4
0
VERTEX
8
OBJECT__37
10
0
20
0
30
0
70
128
71
6
72
7
73
4
0
VERTEX
8
OBJECT__37
10
0
20
0
30
0
70
128
71
8
72
1
73
9
0
VERTEX
8
OBJECT__37
10
0
20
0
30
0
70
128
71
4
72
5
73
6
0
VERTEX
8
OBJECT__37
10
0
20
0
30
0
70
128
71
10
72
11
73
12
0
VERTEX
8
OBJECT__37
10
0
20
0
30
0
70
128
71
13
72
14
73
15
0
VERTEX
8
OBJECT__37
10
0
20
0
30
0
70
128
71
16
72
17
73
13
0
VERTEX
8
OBJECT__37
10
0
20
0
30
0
70
128
71
3
72
9
73
1
0
VERTEX
8
OBJECT__37
10
0
20
0
30
0
70
128
71
12
72
7
73
10
0
VERTEX
8
OBJECT__37
10
0
20
0
30
0
70
128
71
11
72
15
73
14
0
VERTEX
8
OBJECT__37
10
0
20
0
30
0
70
128
71
13
72
18
73
16
0
VERTEX
8
OBJECT__37
10
0
20
0
30
0
70
128
71
7
72
6
73
10
0
VERTEX
8
OBJECT__37
10
0
20
0
30
0
70
128
71
15
72
18
73
13
0
VERTEX
8
OBJECT__37
10
0
20
0
30
0
70
128
71
14
72
12
73
11
0
VERTEX
8
OBJECT__37
10
0
20
0
30
0
70
128
71
9
72
17
73
8
0
VERTEX
8
OBJECT__37
10
0
20
0
30
0
70
128
71
17
72
16
73
8
0
SEQEND
8
OBJECT__37
0
POLYLINE
8
OBJECT__39
66
1
70
64
71
10
72
8
62
253
0
VERTEX
8
OBJECT__39
10
42.164001
20
-89.414001
30
-14.570000
70
192
0
VERTEX
8
OBJECT__39
10
42.164001
20
-82.871002
30
5.565000
70
192
0
VERTEX
8
OBJECT__39
10
42.164001
20
-89.414001
30
14.570000
70
192
0
VERTEX
8
OBJECT__39
10
42.164001
20
-100.000000
30
18.010000
70
192
0
VERTEX
8
OBJECT__39
10
42.164001
20
-117.128998
30
-5.565000
70
192
0
VERTEX
8
OBJECT__39
10
42.164001
20
-110.585999
30
-14.570000
70
192
0
VERTEX
8
OBJECT__39
10
42.164001
20
-110.585999
30
14.570000
70
192
0
VERTEX
8
OBJECT__39
10
42.164001
20
-82.871002
30
-5.565000
70
192
0
VERTEX
8
OBJECT__39
10
42.164001
20
-117.128998
30
5.565000
70
192
0
VERTEX
8
OBJECT__39
10
42.164001
20
-100.000000
30
-18.010000
70
192
0
VERTEX
8
OBJECT__39
10
0
20
0
30
0
70
128
71
1
72
2
73
3
0
VERTEX
8
OBJECT__39
10
0
20
0
30
0
70
128
71
4
72
5
73
6
0
VERTEX
8
OBJECT__39
10
0
20
0
30
0
70
128
71
5
72
4
73
7
0
VERTEX
8
OBJECT__39
10
0
20
0
30
0
70
128
71
1
72
8
73
2
0
VERTEX
8
OBJECT__39
10
0
20
0
30
0
70
128
71
7
72
9
73
5
0
VERTEX
8
OBJECT__39
10
0
20
0
30
0
70
128
71
4
72
10
73
1
0
VERTEX
8
OBJECT__39
10
0
20
0
30
0
70
128
71
3
72
4
73
1
0
VERTEX
8
OBJECT__39
10
0
20
0
30
0
70
128
71
6
72
10
73
4
0
SEQEND
8
OBJECT__39
0
POLYLINE
8
OBJECT__40
66
1
70
64
71
28
72
30
62
253
0
VERTEX
8
OBJECT__40
10
42.164001
20
-89.414001
30
14.570000
70
192
0
VERTEX
8
OBJECT__40
10
15.650000
20
-89.414001
30
14.570000
70
192
0
VERTEX
8
OBJECT__40
10
15.650000
20
-100.000000
30
18.010000
70
192
0
VERTEX
8
OBJECT__40
10
42.164001
20
-82.871002
30
5.565000
70
192
0
VERTEX
8
OBJECT__40
10
15.650000
20
-82.871002
30
5.565000
70
192
0
VERTEX
8
OBJECT__40
10
42.164001
20
-82.871002
30
-5.565000
70
192
0
VERTEX
8
OBJECT__40
10
15.650000
20
-82.871002
30
-5.565000
70
192
0
VERTEX
8
OBJECT__40
10
42.164001
20
-89.414001
30
-14.570000
70
192
0
VERTEX
8
OBJECT__40
10
15.650000
20
-89.414001
30
-14.570000
70
192
0
VERTEX
8
OBJECT__40
10
42.164001
20
-100.000000
30
-18.010000
70
192
0
VERTEX
8
OBJECT__40
10
15.650000
20
-100.000000
30
-18.010000
70
192
0
VERTEX
8
OBJECT__40
10
42.164001
20
-110.585999
30
-14.570000
70
192
0
VERTEX
8
OBJECT__40
10
15.650000
20
-110.585999
30
-14.570000
70
192
0
VERTEX
8
OBJECT__40
10
42.164001
20
-100.000000
30
18.010000
70
192
0
VERTEX
8
OBJECT__40
10
15.650000
20
-110.585999
30
14.570000
70
192
0
VERTEX
8
OBJECT__40
10
15.650000
20
-117.128998
30
-5.565000
70
192
0
VERTEX
8
OBJECT__40
10
33.160000
20
-117.128998
30
-5.565000
70
192
0
VERTEX
8
OBJECT__40
10
33.160000
20
-117.128998
30
5.565000
70
192
0
VERTEX
8
OBJECT__40
10
42.164001
20
-117.128998
30
5.565000
70
192
0
VERTEX
8
OBJECT__40
10
42.164001
20
-110.585999
30
14.570000
70
192
0
VERTEX
8
OBJECT__40
10
38.562000
20
-116.303001
30
7.654000
70
192
0
VERTEX
8
OBJECT__40
10
33.160000
20
-116.303001
30
7.654000
70
192
0
VERTEX
8
OBJECT__40
10
15.650000
20
-117.128998
30
5.565000
70
192
0
VERTEX
8
OBJECT__40
10
38.562000
20
-117.128998
30
5.565000
70
192
0
VERTEX
8
OBJECT__40
10
38.562000
20
-117.128998
30
-5.565000
70
192
0
VERTEX
8
OBJECT__40
10
33.160000
20
-116.303001
30
-7.654000
70
192
0
VERTEX
8
OBJECT__40
10
38.562000
20
-116.303001
30
-7.654000
70
192
0
VERTEX
8
OBJECT__40
10
42.164001
20
-117.128998
30
-5.565000
70
192
0
VERTEX
8
OBJECT__40
10
0
20
0
30
0
70
128
71
1
72
2
73
3
0
VERTEX
8
OBJECT__40
10
0
20
0
30
0
70
128
71
4
72
5
73
2
0
VERTEX
8
OBJECT__40
10
0
20
0
30
0
70
128
71
6
72
7
73
5
0
VERTEX
8
OBJECT__40
10
0
20
0
30
0
70
128
71
8
72
9
73
7
0
VERTEX
8
OBJECT__40
10
0
20
0
30
0
70
128
71
10
72
11
73
9
0
VERTEX
8
OBJECT__40
10
0
20
0
30
0
70
128
71
12
72
13
73
11
0
VERTEX
8
OBJECT__40
10
0
20
0
30
0
70
128
71
14
72
3
73
15
0
VERTEX
8
OBJECT__40
10
0
20
0
30
0
70
128
71
16
72
17
73
18
0
VERTEX
8
OBJECT__40
10
0
20
0
30
0
70
128
71
19
72
20
73
21
0
VERTEX
8
OBJECT__40
10
0
20
0
30
0
70
128
71
20
72
15
73
22
0
VERTEX
8
OBJECT__40
10
0
20
0
30
0
70
128
71
22
72
21
73
20
0
VERTEX
8
OBJECT__40
10
0
20
0
30
0
70
128
71
23
72
18
73
22
0
VERTEX
8
OBJECT__40
10
0
20
0
30
0
70
128
71
22
72
15
73
23
0
VERTEX
8
OBJECT__40
10
0
20
0
30
0
70
128
71
19
72
24
73
25
0
VERTEX
8
OBJECT__40
10
0
20
0
30
0
70
128
71
16
72
13
73
26
0
VERTEX
8
OBJECT__40
10
0
20
0
30
0
70
128
71
12
72
27
73
26
0
VERTEX
8
OBJECT__40
10
0
20
0
30
0
70
128
71
28
72
25
73
27
0
VERTEX
8
OBJECT__40
10
0
20
0
30
0
70
128
71
27
72
12
73
28
0
VERTEX
8
OBJECT__40
10
0
20
0
30
0
70
128
71
26
72
13
73
12
0
VERTEX
8
OBJECT__40
10
0
20
0
30
0
70
128
71
26
72
17
73
16
0
VERTEX
8
OBJECT__40
10
0
20
0
30
0
70
128
71
25
72
28
73
19
0
VERTEX
8
OBJECT__40
10
0
20
0
30
0
70
128
71
21
72
24
73
19
0
VERTEX
8
OBJECT__40
10
0
20
0
30
0
70
128
71
18
72
23
73
16
0
VERTEX
8
OBJECT__40
10
0
20
0
30
0
70
128
71
15
72
20
73
14
0
VERTEX
8
OBJECT__40
10
0
20
0
30
0
70
128
71
11
72
10
73
12
0
VERTEX
8
OBJECT__40
10
0
20
0
30
0
70
128
71
9
72
8
73
10
0
VERTEX
8
OBJECT__40
10
0
20
0
30
0
70
128
71
7
72
6
73
8
0
VERTEX
8
OBJECT__40
10
0
20
0
30
0
70
128
71
5
72
4
73
6
0
VERTEX
8
OBJECT__40
10
0
20
0
30
0
70
128
71
2
72
1
73
4
0
VERTEX
8
OBJECT__40
10
0
20
0
30
0
70
128
71
3
72
14
73
1
0
SEQEND
8
OBJECT__40
0
POLYLINE
8
OBJECT__42
66
1
70
64
71
6
72
4
62
253
0
VERTEX
8
OBJECT__42
10
33.160000
20
-163.572998
30
-7.654000
70
192
0
VERTEX
8
OBJECT__42
10
33.160000
20
-163.572998
30
7.654000
70
192
0
VERTEX
8
OBJECT__42
10
33.160000
20
-117.128998
30
5.565000
70
192
0
VERTEX
8
OBJECT__42
10
33.160000
20
-117.128998
30
-5.565000
70
192
0
VERTEX
8
OBJECT__42
10
33.160000
20
-116.303001
30
7.654000
70
192
0
VERTEX
8
OBJECT__42
10
33.160000
20
-116.303001
30
-7.654000
70
192
0
VERTEX
8
OBJECT__42
10
0
20
0
30
0
70
128
71
1
72
2
73
3
0
VERTEX
8
OBJECT__42
10
0
20
0
30
0
70
128
71
3
72
4
73
1
0
VERTEX
8
OBJECT__42
10
0
20
0
30
0
70
128
71
2
72
5
73
3
0
VERTEX
8
OBJECT__42
10
0
20
0
30
0
70
128
71
4
72
6
73
1
0
SEQEND
8
OBJECT__42
0
POLYLINE
8
OBJECT__43
66
1
70
64
71
4
72
2
62
253
0
VERTEX
8
OBJECT__43
10
33.160000
20
-163.572998
30
7.654000
70
192
0
VERTEX
8
OBJECT__43
10
33.160000
20
-163.572998
30
-7.654000
70
192
0
VERTEX
8
OBJECT__43
10
38.562000
20
-163.572998
30
-7.654000
70
192
0
VERTEX
8
OBJECT__43
10
38.562000
20
-163.572998
30
7.654000
70
192
0
VERTEX
8
OBJECT__43
10
0
20
0
30
0
70
128
71
1
72
2
73
3
0
VERTEX
8
OBJECT__43
10
0
20
0
30
0
70
128
71
3
72
4
73
1
0
SEQEND
8
OBJECT__43
0
POLYLINE
8
OBJECT__44
66
1
70
64
71
4
72
2
62
253
0
VERTEX
8
OBJECT__44
10
38.562000
20
-163.572998
30
-7.654000
70
192
0
VERTEX
8
OBJECT__44
10
33.160000
20
-163.572998
30
-7.654000
70
192
0
VERTEX
8
OBJECT__44
10
33.160000
20
-116.303001
30
-7.654000
70
192
0
VERTEX
8
OBJECT__44
10
38.562000
20
-116.303001
30
-7.654000
70
192
0
VERTEX
8
OBJECT__44
10
0
20
0
30
0
70
128
71
1
72
2
73
3
0
VERTEX
8
OBJECT__44
10
0
20
0
30
0
70
128
71
3
72
4
73
1
0
SEQEND
8
OBJECT__44
0
POLYLINE
8
OBJECT__45
66
1
70
64
71
6
72
4
62
253
0
VERTEX
8
OBJECT__45
10
38.562000
20
-163.572998
30
-7.654000
70
192
0
VERTEX
8
OBJECT__45
10
38.562000
20
-117.128998
30
-5.565000
70
192
0
VERTEX
8
OBJECT__45
10
38.562000
20
-117.128998
30
5.565000
70
192
0
VERTEX
8
OBJECT__45
10
38.562000
20
-116.303001
30
-7.654000
70
192
0
VERTEX
8
OBJECT__45
10
38.562000
20
-163.572998
30
7.654000
70
192
0
VERTEX
8
OBJECT__45
10
38.562000
20
-116.303001
30
7.654000
70
192
0
VERTEX
8
OBJECT__45
10
0
20
0
30
0
70
128
71
1
72
2
73
3
0
VERTEX
8
OBJECT__45
10
0
20
0
30
0
70
128
71
1
72
4
73
2
0
VERTEX
8
OBJECT__45
10
0
20
0
30
0
70
128
71
3
72
5
73
1
0
VERTEX
8
OBJECT__45
10
0
20
0
30
0
70
128
71
3
72
6
73
5
0
SEQEND
8
OBJECT__45
0
POLYLINE
8
OBJECT__46
66
1
70
64
71
4
72
2
62
253
0
VERTEX
8
OBJECT__46
10
38.562000
20
-163.572998
30
7.654000
70
192
0
VERTEX
8
OBJECT__46
10
38.562000
20
-116.303001
30
7.654000
70
192
0
VERTEX
8
OBJECT__46
10
33.160000
20
-116.303001
30
7.654000
70
192
0
VERTEX
8
OBJECT__46
10
33.160000
20
-163.572998
30
7.654000
70
192
0
VERTEX
8
OBJECT__46
10
0
20
0
30
0
70
128
71
1
72
2
73
3
0
VERTEX
8
OBJECT__46
10
0
20
0
30
0
70
128
71
3
72
4
73
1
0
SEQEND
8
OBJECT__46
0
ENDSEC
0
EOF
