999
Converted by 3D Exploration 
999
XDimension Software, LLC
999
http://www.xdsoft.com/explorer/
0
SECTION
2
HEADER
9
$ACADVER
1
AC1008
9
$UCSORG
10
0.0
20
0.0
30
0.0
9
$UCSXDIR
10
1.0
20
0.0
30
0.0
9
$TILEMODE
70
1
9
$UCSYDIR
10
0.0
20
1.0
30
0.0
9
$EXTMIN
10
0.000000
20
-30.496000
30
-30.496000
9
$EXTMAX
10
66.499001
20
53.210999
30
18.500000
0
ENDSEC
0
SECTION
2
TABLES
0
TABLE
2
LTYPE
70
1
0
LTYPE
2
CONTINUOUS
70
64
3
Solid line
72
65
73
0
40
0.0
0
ENDTAB
0
TABLE
2
LAYER
70
49
0
LAYER
2
OBJECT__0
70
0
62
253
6
CONTINUOUS
0
LAYER
2
OBJECT__2
70
0
62
253
6
CONTINUOUS
0
LAYER
2
OBJECT__3
70
0
62
253
6
CONTINUOUS
0
LAYER
2
OBJECT__5
70
0
62
253
6
CONTINUOUS
0
LAYER
2
OBJECT__6
70
0
62
253
6
CONTINUOUS
0
LAYER
2
OBJECT__7
70
0
62
253
6
CONTINUOUS
0
LAYER
2
OBJECT__8
70
0
62
253
6
CONTINUOUS
0
LAYER
2
OBJECT__9
70
0
62
253
6
CONTINUOUS
0
LAYER
2
OBJECT__10
70
0
62
253
6
CONTINUOUS
0
LAYER
2
OBJECT__11
70
0
62
253
6
CONTINUOUS
0
LAYER
2
OBJECT__12
70
0
62
253
6
CONTINUOUS
0
LAYER
2
OBJECT__13
70
0
62
253
6
CONTINUOUS
0
LAYER
2
OBJECT__14
70
0
62
253
6
CONTINUOUS
0
LAYER
2
OBJECT__16
70
0
62
253
6
CONTINUOUS
0
LAYER
2
OBJECT__18
70
0
62
253
6
CONTINUOUS
0
LAYER
2
OBJECT__19
70
0
62
253
6
CONTINUOUS
0
LAYER
2
OBJECT__21
70
0
62
253
6
CONTINUOUS
0
LAYER
2
OBJECT__22
70
0
62
253
6
CONTINUOUS
0
LAYER
2
OBJECT__23
70
0
62
253
6
CONTINUOUS
0
LAYER
2
OBJECT__24
70
0
62
253
6
CONTINUOUS
0
LAYER
2
OBJECT__25
70
0
62
253
6
CONTINUOUS
0
LAYER
2
OBJECT__26
70
0
62
253
6
CONTINUOUS
0
LAYER
2
OBJECT__27
70
0
62
253
6
CONTINUOUS
0
LAYER
2
OBJECT__28
70
0
62
253
6
CONTINUOUS
0
LAYER
2
OBJECT__29
70
0
62
253
6
CONTINUOUS
0
LAYER
2
OBJECT__30
70
0
62
253
6
CONTINUOUS
0
LAYER
2
OBJECT__31
70
0
62
253
6
CONTINUOUS
0
LAYER
2
OBJECT__33
70
0
62
253
6
CONTINUOUS
0
LAYER
2
OBJECT__34
70
0
62
253
6
CONTINUOUS
0
LAYER
2
OBJECT__35
70
0
62
253
6
CONTINUOUS
0
LAYER
2
OBJECT__36
70
0
62
253
6
CONTINUOUS
0
LAYER
2
OBJECT__37
70
0
62
253
6
CONTINUOUS
0
LAYER
2
OBJECT__38
70
0
62
253
6
CONTINUOUS
0
LAYER
2
OBJECT__39
70
0
62
253
6
CONTINUOUS
0
LAYER
2
OBJECT__40
70
0
62
253
6
CONTINUOUS
0
LAYER
2
OBJECT__41
70
0
62
253
6
CONTINUOUS
0
LAYER
2
OBJECT__42
70
0
62
253
6
CONTINUOUS
0
LAYER
2
OBJECT__43
70
0
62
253
6
CONTINUOUS
0
LAYER
2
OBJECT__44
70
0
62
253
6
CONTINUOUS
0
LAYER
2
OBJECT__45
70
0
62
253
6
CONTINUOUS
0
LAYER
2
OBJECT__46
70
0
62
253
6
CONTINUOUS
0
LAYER
2
OBJECT__47
70
0
62
253
6
CONTINUOUS
0
LAYER
2
OBJECT__48
70
0
62
253
6
CONTINUOUS
0
ENDTAB
0
TABLE
2
STYLE
70
1
0
STYLE
2
STANDARD
70
0
40
0.0
41
1.0
50
0.0
71
0
42
0.2
3
txt
4
1
0
ENDTAB
0
TABLE
2
UCS
70
0
0
ENDTAB
0
ENDSEC
0
SECTION
2
ENTITIES
0
POLYLINE
8
OBJECT__0
66
1
70
64
71
4
72
2
62
253
0
VERTEX
8
OBJECT__0
10
37.138000
20
-5.000000
30
12.176000
70
192
0
VERTEX
8
OBJECT__0
10
39.074001
20
-5.000000
30
13.659000
70
192
0
VERTEX
8
OBJECT__0
10
57.162998
20
-5.000000
30
13.501000
70
192
0
VERTEX
8
OBJECT__0
10
59.073002
20
-5.000000
30
11.984000
70
192
0
VERTEX
8
OBJECT__0
10
0
20
0
30
0
70
128
71
1
72
2
73
3
0
VERTEX
8
OBJECT__0
10
0
20
0
30
0
70
128
71
3
72
4
73
1
0
SEQEND
8
OBJECT__0
0
POLYLINE
8
OBJECT__2
66
1
70
64
71
104
72
117
62
253
0
VERTEX
8
OBJECT__2
10
38.556999
20
-30.257000
30
-9.336000
70
192
0
VERTEX
8
OBJECT__2
10
38.556999
20
-30.392000
30
0.058000
70
192
0
VERTEX
8
OBJECT__2
10
33.860001
20
-30.246000
30
0.058000
70
192
0
VERTEX
8
OBJECT__2
10
47.952999
20
-30.367001
30
9.452000
70
192
0
VERTEX
8
OBJECT__2
10
38.556999
20
-30.254000
30
9.452000
70
192
0
VERTEX
8
OBJECT__2
10
33.860001
20
-30.091999
30
9.451000
70
192
0
VERTEX
8
OBJECT__2
10
57.348999
20
-30.256001
30
9.452000
70
192
0
VERTEX
8
OBJECT__2
10
57.348999
20
-30.393999
30
0.058000
70
192
0
VERTEX
8
OBJECT__2
10
62.046001
20
-30.250000
30
0.058000
70
192
0
VERTEX
8
OBJECT__2
10
47.952999
20
-30.370001
30
-9.337000
70
192
0
VERTEX
8
OBJECT__2
10
57.348999
20
-30.259001
30
-9.336000
70
192
0
VERTEX
8
OBJECT__2
10
62.046001
20
-30.100000
30
-9.336000
70
192
0
VERTEX
8
OBJECT__2
10
60.674000
20
-30.000000
30
-13.477000
70
192
0
VERTEX
8
OBJECT__2
10
62.046001
20
-30.000000
30
-12.006000
70
192
0
VERTEX
8
OBJECT__2
10
59.867001
20
-30.000000
30
-14.142000
70
192
0
VERTEX
8
OBJECT__2
10
57.348999
20
-30.000000
30
-15.943000
70
192
0
VERTEX
8
OBJECT__2
10
57.637001
20
-30.000000
30
-15.792000
70
192
0
VERTEX
8
OBJECT__2
10
58.825001
20
-30.000000
30
-15.002000
70
192
0
VERTEX
8
OBJECT__2
10
62.320999
20
-30.000000
30
-11.712000
70
192
0
VERTEX
8
OBJECT__2
10
63.181000
20
-30.000000
30
-10.573000
70
192
0
VERTEX
8
OBJECT__2
10
66.190002
20
-30.000000
30
-3.206000
70
192
0
VERTEX
8
OBJECT__2
10
66.316002
20
-30.000000
30
-2.606000
70
192
0
VERTEX
8
OBJECT__2
10
66.499001
20
-30.000000
30
-0.199000
70
192
0
VERTEX
8
OBJECT__2
10
64.419998
20
-30.000000
30
-8.522000
70
192
0
VERTEX
8
OBJECT__2
10
63.991001
20
-30.000000
30
-9.232000
70
192
0
VERTEX
8
OBJECT__2
10
65.389999
20
-30.000000
30
-6.311000
70
192
0
VERTEX
8
OBJECT__2
10
65.824997
20
-30.000000
30
-4.952000
70
192
0
VERTEX
8
OBJECT__2
10
63.929001
20
-30.000000
30
-9.335000
70
192
0
VERTEX
8
OBJECT__2
10
62.046001
20
-30.096001
30
9.451000
70
192
0
VERTEX
8
OBJECT__2
10
64.012001
20
-30.000000
30
9.245000
70
192
0
VERTEX
8
OBJECT__2
10
63.930000
20
-30.000000
30
9.406000
70
192
0
VERTEX
8
OBJECT__2
10
65.012001
20
-30.000000
30
7.268000
70
192
0
VERTEX
8
OBJECT__2
10
66.197998
20
-30.000000
30
3.210000
70
192
0
VERTEX
8
OBJECT__2
10
66.146004
20
-30.000000
30
3.603000
70
192
0
VERTEX
8
OBJECT__2
10
65.522003
20
-30.000000
30
5.935000
70
192
0
VERTEX
8
OBJECT__2
10
66.491997
20
-30.000000
30
0.058000
70
192
0
VERTEX
8
OBJECT__2
10
66.459000
20
-30.000000
30
1.227000
70
192
0
VERTEX
8
OBJECT__2
10
63.900002
20
-30.000000
30
9.450000
70
192
0
VERTEX
8
OBJECT__2
10
62.570000
20
-30.000000
30
11.400000
70
192
0
VERTEX
8
OBJECT__2
10
59.889999
20
-30.000000
30
14.170000
70
192
0
VERTEX
8
OBJECT__2
10
57.974998
20
-30.000000
30
15.580000
70
192
0
VERTEX
8
OBJECT__2
10
61.647999
20
-30.000000
30
12.490000
70
192
0
VERTEX
8
OBJECT__2
10
59.918999
20
-30.000000
30
14.149000
70
192
0
VERTEX
8
OBJECT__2
10
62.046001
20
-30.000000
30
12.019000
70
192
0
VERTEX
8
OBJECT__2
10
50.855000
20
-30.000000
30
18.278000
70
192
0
VERTEX
8
OBJECT__2
10
48.467999
20
-30.000000
30
18.493999
70
192
0
VERTEX
8
OBJECT__2
10
54.323002
20
-30.000000
30
17.370001
70
192
0
VERTEX
8
OBJECT__2
10
52.255001
20
-30.000000
30
18.004000
70
192
0
VERTEX
8
OBJECT__2
10
48.000999
20
-30.000000
30
18.475000
70
192
0
VERTEX
8
OBJECT__2
10
56.743999
20
-30.000000
30
16.302999
70
192
0
VERTEX
8
OBJECT__2
10
54.563000
20
-30.000000
30
17.297001
70
192
0
VERTEX
8
OBJECT__2
10
57.348999
20
-30.000000
30
15.948000
70
192
0
VERTEX
8
OBJECT__2
10
47.952999
20
-30.496000
30
0.058000
70
192
0
VERTEX
8
OBJECT__2
10
38.811001
20
-30.000000
30
16.056000
70
192
0
VERTEX
8
OBJECT__2
10
38.556999
20
-30.000000
30
15.889000
70
192
0
VERTEX
8
OBJECT__2
10
41.683998
20
-30.000000
30
17.355000
70
192
0
VERTEX
8
OBJECT__2
10
40.076000
20
-30.000000
30
16.716999
70
192
0
VERTEX
8
OBJECT__2
10
44.644001
20
-30.000000
30
18.193001
70
192
0
VERTEX
8
OBJECT__2
10
42.320000
20
-30.000000
30
17.606001
70
192
0
VERTEX
8
OBJECT__2
10
47.952999
20
-30.000000
30
18.473000
70
192
0
VERTEX
8
OBJECT__2
10
46.056000
20
-30.000000
30
18.398001
70
192
0
VERTEX
8
OBJECT__2
10
34.014000
20
-30.000000
30
12.110000
70
192
0
VERTEX
8
OBJECT__2
10
33.860001
20
-30.000000
30
11.906000
70
192
0
VERTEX
8
OBJECT__2
10
36.132999
20
-30.000000
30
14.144000
70
192
0
VERTEX
8
OBJECT__2
10
34.988998
20
-30.000000
30
13.152000
70
192
0
VERTEX
8
OBJECT__2
10
36.812000
20
-30.000000
30
14.734000
70
192
0
VERTEX
8
OBJECT__2
10
32.566002
20
-30.000000
30
10.200000
70
192
0
VERTEX
8
OBJECT__2
10
29.819000
20
-30.000000
30
3.205000
70
192
0
VERTEX
8
OBJECT__2
10
29.624001
20
-30.000000
30
2.142000
70
192
0
VERTEX
8
OBJECT__2
10
29.514000
20
-30.000000
30
0.719000
70
192
0
VERTEX
8
OBJECT__2
10
30.794001
20
-30.000000
30
6.798000
70
192
0
VERTEX
8
OBJECT__2
10
30.059999
20
-30.000000
30
4.516000
70
192
0
VERTEX
8
OBJECT__2
10
32.013000
20
-30.000000
30
9.231000
70
192
0
VERTEX
8
OBJECT__2
10
31.368999
20
-30.000000
30
8.104000
70
192
0
VERTEX
8
OBJECT__2
10
32.138000
20
-30.000000
30
9.450000
70
192
0
VERTEX
8
OBJECT__2
10
33.860001
20
-30.096001
30
-9.335000
70
192
0
VERTEX
8
OBJECT__2
10
31.170000
20
-30.000000
30
-7.681000
70
192
0
VERTEX
8
OBJECT__2
10
30.318001
20
-30.000000
30
-5.440000
70
192
0
VERTEX
8
OBJECT__2
10
29.816999
20
-30.000000
30
-3.207000
70
192
0
VERTEX
8
OBJECT__2
10
29.951000
20
-30.000000
30
-4.061000
70
192
0
VERTEX
8
OBJECT__2
10
32.006001
20
-30.000000
30
-9.235000
70
192
0
VERTEX
8
OBJECT__2
10
29.531000
20
-30.000000
30
0.058000
70
192
0
VERTEX
8
OBJECT__2
10
29.576000
20
-30.000000
30
-1.677000
70
192
0
VERTEX
8
OBJECT__2
10
32.058998
20
-30.000000
30
-9.335000
70
192
0
VERTEX
8
OBJECT__2
10
32.313000
20
-30.000000
30
-9.806000
70
192
0
VERTEX
8
OBJECT__2
10
33.116001
20
-30.000000
30
-10.986000
70
192
0
VERTEX
8
OBJECT__2
10
36.124001
20
-30.000000
30
-14.155000
70
192
0
VERTEX
8
OBJECT__2
10
36.443001
20
-30.000000
30
-14.446000
70
192
0
VERTEX
8
OBJECT__2
10
37.591000
20
-30.000000
30
-15.294000
70
192
0
VERTEX
8
OBJECT__2
10
33.860001
20
-30.000000
30
-11.869000
70
192
0
VERTEX
8
OBJECT__2
10
34.660999
20
-30.000000
30
-12.818000
70
192
0
VERTEX
8
OBJECT__2
10
43.240002
20
-30.000000
30
-17.877001
70
192
0
VERTEX
8
OBJECT__2
10
45.591000
20
-30.000000
30
-18.343000
70
192
0
VERTEX
8
OBJECT__2
10
41.678001
20
-30.000000
30
-17.372000
70
192
0
VERTEX
8
OBJECT__2
10
41.875999
20
-30.000000
30
-17.457001
70
192
0
VERTEX
8
OBJECT__2
10
38.556999
20
-30.000000
30
-15.864000
70
192
0
VERTEX
8
OBJECT__2
10
39.655998
20
-30.000000
30
-16.511000
70
192
0
VERTEX
8
OBJECT__2
10
55.499001
20
-30.000000
30
-16.912001
70
192
0
VERTEX
8
OBJECT__2
10
54.313999
20
-30.000000
30
-17.348000
70
192
0
VERTEX
8
OBJECT__2
10
47.952999
20
-30.000000
30
-18.497000
70
192
0
VERTEX
8
OBJECT__2
10
48.000000
20
-30.000000
30
-18.500000
70
192
0
VERTEX
8
OBJECT__2
10
49.488998
20
-30.000000
30
-18.440001
70
192
0
VERTEX
8
OBJECT__2
10
51.866001
20
-30.000000
30
-18.091000
70
192
0
VERTEX
8
OBJECT__2
10
53.249001
20
-30.000000
30
-17.740000
70
192
0
VERTEX
8
OBJECT__2
10
0
20
0
30
0
70
128
71
1
72
2
73
3
0
VERTEX
8
OBJECT__2
10
0
20
0
30
0
70
128
71
4
72
5
73
2
0
VERTEX
8
OBJECT__2
10
0
20
0
30
0
70
128
71
5
72
6
73
3
0
VERTEX
8
OBJECT__2
10
0
20
0
30
0
70
128
71
7
72
8
73
9
0
VERTEX
8
OBJECT__2
10
0
20
0
30
0
70
128
71
10
72
11
73
8
0
VERTEX
8
OBJECT__2
10
0
20
0
30
0
70
128
71
11
72
12
73
9
0
VERTEX
8
OBJECT__2
10
0
20
0
30
0
70
128
71
11
72
13
73
14
0
VERTEX
8
OBJECT__2
10
0
20
0
30
0
70
128
71
11
72
15
73
13
0
VERTEX
8
OBJECT__2
10
0
20
0
30
0
70
128
71
11
72
16
73
17
0
VERTEX
8
OBJECT__2
10
0
20
0
30
0
70
128
71
17
72
18
73
11
0
VERTEX
8
OBJECT__2
10
0
20
0
30
0
70
128
71
18
72
15
73
11
0
VERTEX
8
OBJECT__2
10
0
20
0
30
0
70
128
71
12
72
14
73
19
0
VERTEX
8
OBJECT__2
10
0
20
0
30
0
70
128
71
19
72
20
73
12
0
VERTEX
8
OBJECT__2
10
0
20
0
30
0
70
128
71
9
72
21
73
22
0
VERTEX
8
OBJECT__2
10
0
20
0
30
0
70
128
71
22
72
23
73
9
0
VERTEX
8
OBJECT__2
10
0
20
0
30
0
70
128
71
9
72
12
73
24
0
VERTEX
8
OBJECT__2
10
0
20
0
30
0
70
128
71
12
72
25
73
24
0
VERTEX
8
OBJECT__2
10
0
20
0
30
0
70
128
71
24
72
26
73
9
0
VERTEX
8
OBJECT__2
10
0
20
0
30
0
70
128
71
26
72
27
73
9
0
VERTEX
8
OBJECT__2
10
0
20
0
30
0
70
128
71
12
72
28
73
25
0
VERTEX
8
OBJECT__2
10
0
20
0
30
0
70
128
71
27
72
21
73
9
0
VERTEX
8
OBJECT__2
10
0
20
0
30
0
70
128
71
29
72
30
73
31
0
VERTEX
8
OBJECT__2
10
0
20
0
30
0
70
128
71
29
72
9
73
32
0
VERTEX
8
OBJECT__2
10
0
20
0
30
0
70
128
71
9
72
33
73
34
0
VERTEX
8
OBJECT__2
10
0
20
0
30
0
70
128
71
34
72
35
73
9
0
VERTEX
8
OBJECT__2
10
0
20
0
30
0
70
128
71
35
72
32
73
9
0
VERTEX
8
OBJECT__2
10
0
20
0
30
0
70
128
71
32
72
30
73
29
0
VERTEX
8
OBJECT__2
10
0
20
0
30
0
70
128
71
9
72
36
73
37
0
VERTEX
8
OBJECT__2
10
0
20
0
30
0
70
128
71
37
72
33
73
9
0
VERTEX
8
OBJECT__2
10
0
20
0
30
0
70
128
71
29
72
38
73
39
0
VERTEX
8
OBJECT__2
10
0
20
0
30
0
70
128
71
7
72
40
73
41
0
VERTEX
8
OBJECT__2
10
0
20
0
30
0
70
128
71
7
72
42
73
43
0
VERTEX
8
OBJECT__2
10
0
20
0
30
0
70
128
71
7
72
29
73
44
0
VERTEX
8
OBJECT__2
10
0
20
0
30
0
70
128
71
44
72
42
73
7
0
VERTEX
8
OBJECT__2
10
0
20
0
30
0
70
128
71
43
72
40
73
7
0
VERTEX
8
OBJECT__2
10
0
20
0
30
0
70
128
71
4
72
45
73
46
0
VERTEX
8
OBJECT__2
10
0
20
0
30
0
70
128
71
4
72
47
73
48
0
VERTEX
8
OBJECT__2
10
0
20
0
30
0
70
128
71
48
72
45
73
4
0
VERTEX
8
OBJECT__2
10
0
20
0
30
0
70
128
71
46
72
49
73
4
0
VERTEX
8
OBJECT__2
10
0
20
0
30
0
70
128
71
4
72
50
73
51
0
VERTEX
8
OBJECT__2
10
0
20
0
30
0
70
128
71
4
72
7
73
52
0
VERTEX
8
OBJECT__2
10
0
20
0
30
0
70
128
71
52
72
50
73
4
0
VERTEX
8
OBJECT__2
10
0
20
0
30
0
70
128
71
51
72
47
73
4
0
VERTEX
8
OBJECT__2
10
0
20
0
30
0
70
128
71
4
72
53
73
8
0
VERTEX
8
OBJECT__2
10
0
20
0
30
0
70
128
71
8
72
7
73
4
0
VERTEX
8
OBJECT__2
10
0
20
0
30
0
70
128
71
4
72
54
73
55
0
VERTEX
8
OBJECT__2
10
0
20
0
30
0
70
128
71
4
72
56
73
57
0
VERTEX
8
OBJECT__2
10
0
20
0
30
0
70
128
71
57
72
54
73
4
0
VERTEX
8
OBJECT__2
10
0
20
0
30
0
70
128
71
4
72
58
73
59
0
VERTEX
8
OBJECT__2
10
0
20
0
30
0
70
128
71
4
72
60
73
61
0
VERTEX
8
OBJECT__2
10
0
20
0
30
0
70
128
71
61
72
58
73
4
0
VERTEX
8
OBJECT__2
10
0
20
0
30
0
70
128
71
59
72
56
73
4
0
VERTEX
8
OBJECT__2
10
0
20
0
30
0
70
128
71
5
72
62
73
63
0
VERTEX
8
OBJECT__2
10
0
20
0
30
0
70
128
71
5
72
64
73
65
0
VERTEX
8
OBJECT__2
10
0
20
0
30
0
70
128
71
65
72
62
73
5
0
VERTEX
8
OBJECT__2
10
0
20
0
30
0
70
128
71
5
72
55
73
66
0
VERTEX
8
OBJECT__2
10
0
20
0
30
0
70
128
71
66
72
64
73
5
0
VERTEX
8
OBJECT__2
10
0
20
0
30
0
70
128
71
6
72
63
73
67
0
VERTEX
8
OBJECT__2
10
0
20
0
30
0
70
128
71
3
72
68
73
69
0
VERTEX
8
OBJECT__2
10
0
20
0
30
0
70
128
71
69
72
70
73
3
0
VERTEX
8
OBJECT__2
10
0
20
0
30
0
70
128
71
3
72
71
73
72
0
VERTEX
8
OBJECT__2
10
0
20
0
30
0
70
128
71
6
72
73
73
74
0
VERTEX
8
OBJECT__2
10
0
20
0
30
0
70
128
71
74
72
3
73
6
0
VERTEX
8
OBJECT__2
10
0
20
0
30
0
70
128
71
74
72
71
73
3
0
VERTEX
8
OBJECT__2
10
0
20
0
30
0
70
128
71
6
72
75
73
73
0
VERTEX
8
OBJECT__2
10
0
20
0
30
0
70
128
71
72
72
68
73
3
0
VERTEX
8
OBJECT__2
10
0
20
0
30
0
70
128
71
76
72
3
73
77
0
VERTEX
8
OBJECT__2
10
0
20
0
30
0
70
128
71
3
72
78
73
77
0
VERTEX
8
OBJECT__2
10
0
20
0
30
0
70
128
71
3
72
79
73
80
0
VERTEX
8
OBJECT__2
10
0
20
0
30
0
70
128
71
80
72
78
73
3
0
VERTEX
8
OBJECT__2
10
0
20
0
30
0
70
128
71
77
72
81
73
76
0
VERTEX
8
OBJECT__2
10
0
20
0
30
0
70
128
71
3
72
82
73
83
0
VERTEX
8
OBJECT__2
10
0
20
0
30
0
70
128
71
83
72
79
73
3
0
VERTEX
8
OBJECT__2
10
0
20
0
30
0
70
128
71
76
72
84
73
85
0
VERTEX
8
OBJECT__2
10
0
20
0
30
0
70
128
71
85
72
86
73
76
0
VERTEX
8
OBJECT__2
10
0
20
0
30
0
70
128
71
1
72
87
73
88
0
VERTEX
8
OBJECT__2
10
0
20
0
30
0
70
128
71
88
72
89
73
1
0
VERTEX
8
OBJECT__2
10
0
20
0
30
0
70
128
71
1
72
76
73
90
0
VERTEX
8
OBJECT__2
10
0
20
0
30
0
70
128
71
90
72
91
73
1
0
VERTEX
8
OBJECT__2
10
0
20
0
30
0
70
128
71
91
72
87
73
1
0
VERTEX
8
OBJECT__2
10
0
20
0
30
0
70
128
71
10
72
92
73
93
0
VERTEX
8
OBJECT__2
10
0
20
0
30
0
70
128
71
10
72
94
73
95
0
VERTEX
8
OBJECT__2
10
0
20
0
30
0
70
128
71
95
72
92
73
10
0
VERTEX
8
OBJECT__2
10
0
20
0
30
0
70
128
71
10
72
1
73
96
0
VERTEX
8
OBJECT__2
10
0
20
0
30
0
70
128
71
96
72
97
73
10
0
VERTEX
8
OBJECT__2
10
0
20
0
30
0
70
128
71
97
72
94
73
10
0
VERTEX
8
OBJECT__2
10
0
20
0
30
0
70
128
71
10
72
53
73
2
0
VERTEX
8
OBJECT__2
10
0
20
0
30
0
70
128
71
2
72
1
73
10
0
VERTEX
8
OBJECT__2
10
0
20
0
30
0
70
128
71
10
72
98
73
16
0
VERTEX
8
OBJECT__2
10
0
20
0
30
0
70
128
71
10
72
99
73
98
0
VERTEX
8
OBJECT__2
10
0
20
0
30
0
70
128
71
10
72
100
73
101
0
VERTEX
8
OBJECT__2
10
0
20
0
30
0
70
128
71
101
72
102
73
10
0
VERTEX
8
OBJECT__2
10
0
20
0
30
0
70
128
71
102
72
103
73
10
0
VERTEX
8
OBJECT__2
10
0
20
0
30
0
70
128
71
103
72
104
73
10
0
VERTEX
8
OBJECT__2
10
0
20
0
30
0
70
128
71
104
72
99
73
10
0
VERTEX
8
OBJECT__2
10
0
20
0
30
0
70
128
71
16
72
11
73
10
0
VERTEX
8
OBJECT__2
10
0
20
0
30
0
70
128
71
93
72
100
73
10
0
VERTEX
8
OBJECT__2
10
0
20
0
30
0
70
128
71
89
72
96
73
1
0
VERTEX
8
OBJECT__2
10
0
20
0
30
0
70
128
71
86
72
90
73
76
0
VERTEX
8
OBJECT__2
10
0
20
0
30
0
70
128
71
81
72
84
73
76
0
VERTEX
8
OBJECT__2
10
0
20
0
30
0
70
128
71
70
72
82
73
3
0
VERTEX
8
OBJECT__2
10
0
20
0
30
0
70
128
71
67
72
75
73
6
0
VERTEX
8
OBJECT__2
10
0
20
0
30
0
70
128
71
63
72
6
73
5
0
VERTEX
8
OBJECT__2
10
0
20
0
30
0
70
128
71
55
72
5
73
4
0
VERTEX
8
OBJECT__2
10
0
20
0
30
0
70
128
71
49
72
60
73
4
0
VERTEX
8
OBJECT__2
10
0
20
0
30
0
70
128
71
41
72
52
73
7
0
VERTEX
8
OBJECT__2
10
0
20
0
30
0
70
128
71
39
72
44
73
29
0
VERTEX
8
OBJECT__2
10
0
20
0
30
0
70
128
71
31
72
38
73
29
0
VERTEX
8
OBJECT__2
10
0
20
0
30
0
70
128
71
23
72
36
73
9
0
VERTEX
8
OBJECT__2
10
0
20
0
30
0
70
128
71
20
72
28
73
12
0
VERTEX
8
OBJECT__2
10
0
20
0
30
0
70
128
71
14
72
12
73
11
0
VERTEX
8
OBJECT__2
10
0
20
0
30
0
70
128
71
9
72
8
73
11
0
VERTEX
8
OBJECT__2
10
0
20
0
30
0
70
128
71
8
72
53
73
10
0
VERTEX
8
OBJECT__2
10
0
20
0
30
0
70
128
71
9
72
29
73
7
0
VERTEX
8
OBJECT__2
10
0
20
0
30
0
70
128
71
3
72
2
73
5
0
VERTEX
8
OBJECT__2
10
0
20
0
30
0
70
128
71
2
72
53
73
4
0
VERTEX
8
OBJECT__2
10
0
20
0
30
0
70
128
71
3
72
76
73
1
0
SEQEND
8
OBJECT__2
0
POLYLINE
8
OBJECT__3
66
1
70
64
71
125
72
125
62
253
0
VERTEX
8
OBJECT__3
10
41.673000
20
16.000000
30
-17.384001
70
192
0
VERTEX
8
OBJECT__3
10
43.240002
20
-30.000000
30
-17.877001
70
192
0
VERTEX
8
OBJECT__3
10
41.875999
20
-30.000000
30
-17.457001
70
192
0
VERTEX
8
OBJECT__3
10
47.952999
20
-30.000000
30
-18.497000
70
192
0
VERTEX
8
OBJECT__3
10
45.591000
20
-30.000000
30
-18.343000
70
192
0
VERTEX
8
OBJECT__3
10
48.000000
20
16.000000
30
-18.500000
70
192
0
VERTEX
8
OBJECT__3
10
48.000000
20
-30.000000
30
-18.500000
70
192
0
VERTEX
8
OBJECT__3
10
39.655998
20
-30.000000
30
-16.511000
70
192
0
VERTEX
8
OBJECT__3
10
36.768002
20
-27.000000
30
-14.700000
70
192
0
VERTEX
8
OBJECT__3
10
41.678001
20
-30.000000
30
-17.372000
70
192
0
VERTEX
8
OBJECT__3
10
36.108002
20
-27.000000
30
-14.172000
70
192
0
VERTEX
8
OBJECT__3
10
36.443001
20
-30.000000
30
-14.446000
70
192
0
VERTEX
8
OBJECT__3
10
37.591000
20
-30.000000
30
-15.294000
70
192
0
VERTEX
8
OBJECT__3
10
38.556999
20
-30.000000
30
-15.864000
70
192
0
VERTEX
8
OBJECT__3
10
36.124001
20
-30.000000
30
-14.155000
70
192
0
VERTEX
8
OBJECT__3
10
34.977001
20
-27.475000
30
-13.140000
70
192
0
VERTEX
8
OBJECT__3
10
35.353001
20
-27.000000
30
-13.502000
70
192
0
VERTEX
8
OBJECT__3
10
34.660999
20
-30.000000
30
-12.818000
70
192
0
VERTEX
8
OBJECT__3
10
33.860001
20
-30.000000
30
-11.869000
70
192
0
VERTEX
8
OBJECT__3
10
33.800999
20
-28.000000
30
-11.859000
70
192
0
VERTEX
8
OBJECT__3
10
32.057999
20
-28.000000
30
-9.198000
70
192
0
VERTEX
8
OBJECT__3
10
33.116001
20
-30.000000
30
-10.986000
70
192
0
VERTEX
8
OBJECT__3
10
32.313000
20
-30.000000
30
-9.806000
70
192
0
VERTEX
8
OBJECT__3
10
32.058998
20
-30.000000
30
-9.335000
70
192
0
VERTEX
8
OBJECT__3
10
32.006001
20
-30.000000
30
-9.235000
70
192
0
VERTEX
8
OBJECT__3
10
34.332001
20
-27.893999
30
-12.468000
70
192
0
VERTEX
8
OBJECT__3
10
29.872999
20
-28.000000
30
-3.202000
70
192
0
VERTEX
8
OBJECT__3
10
29.995001
20
-28.000000
30
-4.253000
70
192
0
VERTEX
8
OBJECT__3
10
29.951000
20
-30.000000
30
-4.061000
70
192
0
VERTEX
8
OBJECT__3
10
31.455000
20
-28.000000
30
-8.277000
70
192
0
VERTEX
8
OBJECT__3
10
31.170000
20
-30.000000
30
-7.681000
70
192
0
VERTEX
8
OBJECT__3
10
30.318001
20
-30.000000
30
-5.440000
70
192
0
VERTEX
8
OBJECT__3
10
29.500000
20
-28.000000
30
0.000000
70
192
0
VERTEX
8
OBJECT__3
10
29.514000
20
-30.000000
30
0.719000
70
192
0
VERTEX
8
OBJECT__3
10
29.624001
20
-30.000000
30
2.142000
70
192
0
VERTEX
8
OBJECT__3
10
29.531000
20
-30.000000
30
0.058000
70
192
0
VERTEX
8
OBJECT__3
10
29.576000
20
-30.000000
30
-1.677000
70
192
0
VERTEX
8
OBJECT__3
10
29.816999
20
-30.000000
30
-3.207000
70
192
0
VERTEX
8
OBJECT__3
10
29.872999
20
-28.000000
30
3.202000
70
192
0
VERTEX
8
OBJECT__3
10
29.995001
20
-28.000000
30
4.253000
70
192
0
VERTEX
8
OBJECT__3
10
30.059999
20
-30.000000
30
4.516000
70
192
0
VERTEX
8
OBJECT__3
10
30.794001
20
-30.000000
30
6.798000
70
192
0
VERTEX
8
OBJECT__3
10
31.455000
20
-28.000000
30
8.277000
70
192
0
VERTEX
8
OBJECT__3
10
32.013000
20
-30.000000
30
9.231000
70
192
0
VERTEX
8
OBJECT__3
10
32.057999
20
-28.000000
30
9.198000
70
192
0
VERTEX
8
OBJECT__3
10
31.368999
20
-30.000000
30
8.104000
70
192
0
VERTEX
8
OBJECT__3
10
29.819000
20
-30.000000
30
3.205000
70
192
0
VERTEX
8
OBJECT__3
10
33.800999
20
-28.000000
30
11.859000
70
192
0
VERTEX
8
OBJECT__3
10
32.566002
20
-30.000000
30
10.200000
70
192
0
VERTEX
8
OBJECT__3
10
32.138000
20
-30.000000
30
9.450000
70
192
0
VERTEX
8
OBJECT__3
10
34.014000
20
-30.000000
30
12.110000
70
192
0
VERTEX
8
OBJECT__3
10
34.988998
20
-30.000000
30
13.152000
70
192
0
VERTEX
8
OBJECT__3
10
34.428001
20
-27.854000
30
12.572000
70
192
0
VERTEX
8
OBJECT__3
10
33.860001
20
-30.000000
30
11.906000
70
192
0
VERTEX
8
OBJECT__3
10
35.046001
20
-27.407000
30
13.207000
70
192
0
VERTEX
8
OBJECT__3
10
36.132999
20
-30.000000
30
14.144000
70
192
0
VERTEX
8
OBJECT__3
10
36.108002
20
-27.000000
30
14.172000
70
192
0
VERTEX
8
OBJECT__3
10
35.353001
20
-27.000000
30
13.502000
70
192
0
VERTEX
8
OBJECT__3
10
35.116001
20
-27.330000
30
13.276000
70
192
0
VERTEX
8
OBJECT__3
10
36.812000
20
-30.000000
30
14.734000
70
192
0
VERTEX
8
OBJECT__3
10
36.768002
20
-27.000000
30
14.700000
70
192
0
VERTEX
8
OBJECT__3
10
38.556999
20
-30.000000
30
15.889000
70
192
0
VERTEX
8
OBJECT__3
10
41.673000
20
16.000000
30
17.384001
70
192
0
VERTEX
8
OBJECT__3
10
36.768002
20
16.000000
30
14.700000
70
192
0
VERTEX
8
OBJECT__3
10
40.076000
20
-30.000000
30
16.716999
70
192
0
VERTEX
8
OBJECT__3
10
38.811001
20
-30.000000
30
16.056000
70
192
0
VERTEX
8
OBJECT__3
10
41.683998
20
-30.000000
30
17.355000
70
192
0
VERTEX
8
OBJECT__3
10
48.000000
20
16.000000
30
18.500000
70
192
0
VERTEX
8
OBJECT__3
10
44.644001
20
-30.000000
30
18.193001
70
192
0
VERTEX
8
OBJECT__3
10
46.056000
20
-30.000000
30
18.398001
70
192
0
VERTEX
8
OBJECT__3
10
47.952999
20
-30.000000
30
18.473000
70
192
0
VERTEX
8
OBJECT__3
10
42.320000
20
-30.000000
30
17.606001
70
192
0
VERTEX
8
OBJECT__3
10
54.327000
20
16.000000
30
17.384001
70
192
0
VERTEX
8
OBJECT__3
10
50.855000
20
-30.000000
30
18.278000
70
192
0
VERTEX
8
OBJECT__3
10
48.467999
20
-30.000000
30
18.493999
70
192
0
VERTEX
8
OBJECT__3
10
48.000999
20
-30.000000
30
18.475000
70
192
0
VERTEX
8
OBJECT__3
10
52.255001
20
-30.000000
30
18.004000
70
192
0
VERTEX
8
OBJECT__3
10
56.743999
20
-30.000000
30
16.302999
70
192
0
VERTEX
8
OBJECT__3
10
57.348999
20
-30.000000
30
15.948000
70
192
0
VERTEX
8
OBJECT__3
10
54.563000
20
-30.000000
30
17.297001
70
192
0
VERTEX
8
OBJECT__3
10
54.323002
20
-30.000000
30
17.370001
70
192
0
VERTEX
8
OBJECT__3
10
59.891998
20
16.000000
30
14.172000
70
192
0
VERTEX
8
OBJECT__3
10
57.974998
20
-30.000000
30
15.580000
70
192
0
VERTEX
8
OBJECT__3
10
64.021004
20
16.000000
30
9.250000
70
192
0
VERTEX
8
OBJECT__3
10
63.900002
20
-30.000000
30
9.450000
70
192
0
VERTEX
8
OBJECT__3
10
63.930000
20
-30.000000
30
9.406000
70
192
0
VERTEX
8
OBJECT__3
10
62.570000
20
-30.000000
30
11.400000
70
192
0
VERTEX
8
OBJECT__3
10
59.918999
20
-30.000000
30
14.149000
70
192
0
VERTEX
8
OBJECT__3
10
61.647999
20
-30.000000
30
12.490000
70
192
0
VERTEX
8
OBJECT__3
10
62.046001
20
-30.000000
30
12.019000
70
192
0
VERTEX
8
OBJECT__3
10
59.889999
20
-30.000000
30
14.170000
70
192
0
VERTEX
8
OBJECT__3
10
65.012001
20
-30.000000
30
7.268000
70
192
0
VERTEX
8
OBJECT__3
10
65.522003
20
-30.000000
30
5.935000
70
192
0
VERTEX
8
OBJECT__3
10
66.219002
20
16.000000
30
3.212000
70
192
0
VERTEX
8
OBJECT__3
10
64.012001
20
-30.000000
30
9.245000
70
192
0
VERTEX
8
OBJECT__3
10
66.146004
20
-30.000000
30
3.603000
70
192
0
VERTEX
8
OBJECT__3
10
66.219002
20
16.000000
30
-3.212000
70
192
0
VERTEX
8
OBJECT__3
10
66.491997
20
-30.000000
30
0.058000
70
192
0
VERTEX
8
OBJECT__3
10
66.499001
20
-30.000000
30
-0.199000
70
192
0
VERTEX
8
OBJECT__3
10
66.197998
20
-30.000000
30
3.210000
70
192
0
VERTEX
8
OBJECT__3
10
66.459000
20
-30.000000
30
1.227000
70
192
0
VERTEX
8
OBJECT__3
10
66.316002
20
-30.000000
30
-2.606000
70
192
0
VERTEX
8
OBJECT__3
10
64.021004
20
16.000000
30
-9.250000
70
192
0
VERTEX
8
OBJECT__3
10
65.389999
20
-30.000000
30
-6.311000
70
192
0
VERTEX
8
OBJECT__3
10
65.824997
20
-30.000000
30
-4.952000
70
192
0
VERTEX
8
OBJECT__3
10
64.419998
20
-30.000000
30
-8.522000
70
192
0
VERTEX
8
OBJECT__3
10
66.190002
20
-30.000000
30
-3.206000
70
192
0
VERTEX
8
OBJECT__3
10
59.891998
20
16.000000
30
-14.172000
70
192
0
VERTEX
8
OBJECT__3
10
62.046001
20
-30.000000
30
-12.006000
70
192
0
VERTEX
8
OBJECT__3
10
60.674000
20
-30.000000
30
-13.477000
70
192
0
VERTEX
8
OBJECT__3
10
62.320999
20
-30.000000
30
-11.712000
70
192
0
VERTEX
8
OBJECT__3
10
63.181000
20
-30.000000
30
-10.573000
70
192
0
VERTEX
8
OBJECT__3
10
63.991001
20
-30.000000
30
-9.232000
70
192
0
VERTEX
8
OBJECT__3
10
63.929001
20
-30.000000
30
-9.335000
70
192
0
VERTEX
8
OBJECT__3
10
54.327000
20
16.000000
30
-17.384001
70
192
0
VERTEX
8
OBJECT__3
10
57.348999
20
-30.000000
30
-15.943000
70
192
0
VERTEX
8
OBJECT__3
10
55.499001
20
-30.000000
30
-16.912001
70
192
0
VERTEX
8
OBJECT__3
10
57.637001
20
-30.000000
30
-15.792000
70
192
0
VERTEX
8
OBJECT__3
10
59.867001
20
-30.000000
30
-14.142000
70
192
0
VERTEX
8
OBJECT__3
10
58.825001
20
-30.000000
30
-15.002000
70
192
0
VERTEX
8
OBJECT__3
10
51.866001
20
-30.000000
30
-18.091000
70
192
0
VERTEX
8
OBJECT__3
10
49.488998
20
-30.000000
30
-18.440001
70
192
0
VERTEX
8
OBJECT__3
10
53.249001
20
-30.000000
30
-17.740000
70
192
0
VERTEX
8
OBJECT__3
10
54.313999
20
-30.000000
30
-17.348000
70
192
0
VERTEX
8
OBJECT__3
10
36.768002
20
16.000000
30
-14.700000
70
192
0
VERTEX
8
OBJECT__3
10
0
20
0
30
0
70
128
71
1
72
2
73
3
0
VERTEX
8
OBJECT__3
10
0
20
0
30
0
70
128
71
1
72
4
73
5
0
VERTEX
8
OBJECT__3
10
0
20
0
30
0
70
128
71
6
72
7
73
4
0
VERTEX
8
OBJECT__3
10
0
20
0
30
0
70
128
71
4
72
1
73
6
0
VERTEX
8
OBJECT__3
10
0
20
0
30
0
70
128
71
5
72
2
73
1
0
VERTEX
8
OBJECT__3
10
0
20
0
30
0
70
128
71
1
72
8
73
9
0
VERTEX
8
OBJECT__3
10
0
20
0
30
0
70
128
71
1
72
10
73
8
0
VERTEX
8
OBJECT__3
10
0
20
0
30
0
70
128
71
11
72
9
73
12
0
VERTEX
8
OBJECT__3
10
0
20
0
30
0
70
128
71
9
72
13
73
12
0
VERTEX
8
OBJECT__3
10
0
20
0
30
0
70
128
71
9
72
8
73
14
0
VERTEX
8
OBJECT__3
10
0
20
0
30
0
70
128
71
14
72
13
73
9
0
VERTEX
8
OBJECT__3
10
0
20
0
30
0
70
128
71
12
72
15
73
11
0
VERTEX
8
OBJECT__3
10
0
20
0
30
0
70
128
71
15
72
16
73
17
0
VERTEX
8
OBJECT__3
10
0
20
0
30
0
70
128
71
16
72
15
73
18
0
VERTEX
8
OBJECT__3
10
0
20
0
30
0
70
128
71
18
72
19
73
20
0
VERTEX
8
OBJECT__3
10
0
20
0
30
0
70
128
71
21
72
20
73
22
0
VERTEX
8
OBJECT__3
10
0
20
0
30
0
70
128
71
22
72
23
73
21
0
VERTEX
8
OBJECT__3
10
0
20
0
30
0
70
128
71
23
72
24
73
21
0
VERTEX
8
OBJECT__3
10
0
20
0
30
0
70
128
71
20
72
19
73
22
0
VERTEX
8
OBJECT__3
10
0
20
0
30
0
70
128
71
24
72
25
73
21
0
VERTEX
8
OBJECT__3
10
0
20
0
30
0
70
128
71
20
72
26
73
18
0
VERTEX
8
OBJECT__3
10
0
20
0
30
0
70
128
71
18
72
26
73
16
0
VERTEX
8
OBJECT__3
10
0
20
0
30
0
70
128
71
27
72
28
73
29
0
VERTEX
8
OBJECT__3
10
0
20
0
30
0
70
128
71
30
72
31
73
32
0
VERTEX
8
OBJECT__3
10
0
20
0
30
0
70
128
71
32
72
28
73
30
0
VERTEX
8
OBJECT__3
10
0
20
0
30
0
70
128
71
25
72
31
73
30
0
VERTEX
8
OBJECT__3
10
0
20
0
30
0
70
128
71
30
72
21
73
25
0
VERTEX
8
OBJECT__3
10
0
20
0
30
0
70
128
71
32
72
29
73
28
0
VERTEX
8
OBJECT__3
10
0
20
0
30
0
70
128
71
33
72
34
73
35
0
VERTEX
8
OBJECT__3
10
0
20
0
30
0
70
128
71
33
72
36
73
34
0
VERTEX
8
OBJECT__3
10
0
20
0
30
0
70
128
71
33
72
27
73
37
0
VERTEX
8
OBJECT__3
10
0
20
0
30
0
70
128
71
37
72
36
73
33
0
VERTEX
8
OBJECT__3
10
0
20
0
30
0
70
128
71
27
72
38
73
37
0
VERTEX
8
OBJECT__3
10
0
20
0
30
0
70
128
71
35
72
39
73
33
0
VERTEX
8
OBJECT__3
10
0
20
0
30
0
70
128
71
40
72
41
73
42
0
VERTEX
8
OBJECT__3
10
0
20
0
30
0
70
128
71
42
72
43
73
40
0
VERTEX
8
OBJECT__3
10
0
20
0
30
0
70
128
71
44
72
45
73
43
0
VERTEX
8
OBJECT__3
10
0
20
0
30
0
70
128
71
43
72
46
73
44
0
VERTEX
8
OBJECT__3
10
0
20
0
30
0
70
128
71
47
72
41
73
40
0
VERTEX
8
OBJECT__3
10
0
20
0
30
0
70
128
71
40
72
39
73
47
0
VERTEX
8
OBJECT__3
10
0
20
0
30
0
70
128
71
48
72
45
73
49
0
VERTEX
8
OBJECT__3
10
0
20
0
30
0
70
128
71
45
72
44
73
50
0
VERTEX
8
OBJECT__3
10
0
20
0
30
0
70
128
71
50
72
49
73
45
0
VERTEX
8
OBJECT__3
10
0
20
0
30
0
70
128
71
51
72
52
73
53
0
VERTEX
8
OBJECT__3
10
0
20
0
30
0
70
128
71
48
72
54
73
51
0
VERTEX
8
OBJECT__3
10
0
20
0
30
0
70
128
71
53
72
48
73
51
0
VERTEX
8
OBJECT__3
10
0
20
0
30
0
70
128
71
55
72
53
73
52
0
VERTEX
8
OBJECT__3
10
0
20
0
30
0
70
128
71
56
72
57
73
58
0
VERTEX
8
OBJECT__3
10
0
20
0
30
0
70
128
71
58
72
59
73
56
0
VERTEX
8
OBJECT__3
10
0
20
0
30
0
70
128
71
59
72
55
73
56
0
VERTEX
8
OBJECT__3
10
0
20
0
30
0
70
128
71
52
72
56
73
55
0
VERTEX
8
OBJECT__3
10
0
20
0
30
0
70
128
71
56
72
60
73
61
0
VERTEX
8
OBJECT__3
10
0
20
0
30
0
70
128
71
61
72
57
73
56
0
VERTEX
8
OBJECT__3
10
0
20
0
30
0
70
128
71
60
72
62
73
61
0
VERTEX
8
OBJECT__3
10
0
20
0
30
0
70
128
71
63
72
64
73
61
0
VERTEX
8
OBJECT__3
10
0
20
0
30
0
70
128
71
61
72
65
73
63
0
VERTEX
8
OBJECT__3
10
0
20
0
30
0
70
128
71
61
72
66
73
65
0
VERTEX
8
OBJECT__3
10
0
20
0
30
0
70
128
71
65
72
67
73
63
0
VERTEX
8
OBJECT__3
10
0
20
0
30
0
70
128
71
68
72
63
73
69
0
VERTEX
8
OBJECT__3
10
0
20
0
30
0
70
128
71
69
72
70
73
68
0
VERTEX
8
OBJECT__3
10
0
20
0
30
0
70
128
71
70
72
71
73
68
0
VERTEX
8
OBJECT__3
10
0
20
0
30
0
70
128
71
63
72
72
73
69
0
VERTEX
8
OBJECT__3
10
0
20
0
30
0
70
128
71
63
72
67
73
72
0
VERTEX
8
OBJECT__3
10
0
20
0
30
0
70
128
71
73
72
68
73
74
0
VERTEX
8
OBJECT__3
10
0
20
0
30
0
70
128
71
68
72
75
73
74
0
VERTEX
8
OBJECT__3
10
0
20
0
30
0
70
128
71
68
72
76
73
75
0
VERTEX
8
OBJECT__3
10
0
20
0
30
0
70
128
71
74
72
77
73
73
0
VERTEX
8
OBJECT__3
10
0
20
0
30
0
70
128
71
73
72
78
73
79
0
VERTEX
8
OBJECT__3
10
0
20
0
30
0
70
128
71
73
72
80
73
78
0
VERTEX
8
OBJECT__3
10
0
20
0
30
0
70
128
71
73
72
81
73
80
0
VERTEX
8
OBJECT__3
10
0
20
0
30
0
70
128
71
79
72
82
73
73
0
VERTEX
8
OBJECT__3
10
0
20
0
30
0
70
128
71
79
72
83
73
82
0
VERTEX
8
OBJECT__3
10
0
20
0
30
0
70
128
71
84
72
85
73
86
0
VERTEX
8
OBJECT__3
10
0
20
0
30
0
70
128
71
84
72
87
73
85
0
VERTEX
8
OBJECT__3
10
0
20
0
30
0
70
128
71
84
72
88
73
89
0
VERTEX
8
OBJECT__3
10
0
20
0
30
0
70
128
71
89
72
90
73
84
0
VERTEX
8
OBJECT__3
10
0
20
0
30
0
70
128
71
82
72
91
73
88
0
VERTEX
8
OBJECT__3
10
0
20
0
30
0
70
128
71
88
72
84
73
82
0
VERTEX
8
OBJECT__3
10
0
20
0
30
0
70
128
71
90
72
87
73
84
0
VERTEX
8
OBJECT__3
10
0
20
0
30
0
70
128
71
84
72
92
73
93
0
VERTEX
8
OBJECT__3
10
0
20
0
30
0
70
128
71
93
72
94
73
84
0
VERTEX
8
OBJECT__3
10
0
20
0
30
0
70
128
71
84
72
95
73
92
0
VERTEX
8
OBJECT__3
10
0
20
0
30
0
70
128
71
93
72
96
73
94
0
VERTEX
8
OBJECT__3
10
0
20
0
30
0
70
128
71
97
72
94
73
98
0
VERTEX
8
OBJECT__3
10
0
20
0
30
0
70
128
71
98
72
99
73
97
0
VERTEX
8
OBJECT__3
10
0
20
0
30
0
70
128
71
94
72
100
73
101
0
VERTEX
8
OBJECT__3
10
0
20
0
30
0
70
128
71
101
72
98
73
94
0
VERTEX
8
OBJECT__3
10
0
20
0
30
0
70
128
71
99
72
102
73
97
0
VERTEX
8
OBJECT__3
10
0
20
0
30
0
70
128
71
103
72
97
73
104
0
VERTEX
8
OBJECT__3
10
0
20
0
30
0
70
128
71
97
72
105
73
104
0
VERTEX
8
OBJECT__3
10
0
20
0
30
0
70
128
71
104
72
106
73
103
0
VERTEX
8
OBJECT__3
10
0
20
0
30
0
70
128
71
97
72
107
73
105
0
VERTEX
8
OBJECT__3
10
0
20
0
30
0
70
128
71
108
72
109
73
110
0
VERTEX
8
OBJECT__3
10
0
20
0
30
0
70
128
71
103
72
111
73
109
0
VERTEX
8
OBJECT__3
10
0
20
0
30
0
70
128
71
109
72
108
73
103
0
VERTEX
8
OBJECT__3
10
0
20
0
30
0
70
128
71
103
72
112
73
111
0
VERTEX
8
OBJECT__3
10
0
20
0
30
0
70
128
71
103
72
113
73
114
0
VERTEX
8
OBJECT__3
10
0
20
0
30
0
70
128
71
114
72
112
73
103
0
VERTEX
8
OBJECT__3
10
0
20
0
30
0
70
128
71
115
72
108
73
116
0
VERTEX
8
OBJECT__3
10
0
20
0
30
0
70
128
71
116
72
117
73
115
0
VERTEX
8
OBJECT__3
10
0
20
0
30
0
70
128
71
108
72
118
73
116
0
VERTEX
8
OBJECT__3
10
0
20
0
30
0
70
128
71
108
72
119
73
120
0
VERTEX
8
OBJECT__3
10
0
20
0
30
0
70
128
71
120
72
118
73
108
0
VERTEX
8
OBJECT__3
10
0
20
0
30
0
70
128
71
6
72
115
73
121
0
VERTEX
8
OBJECT__3
10
0
20
0
30
0
70
128
71
121
72
122
73
6
0
VERTEX
8
OBJECT__3
10
0
20
0
30
0
70
128
71
115
72
123
73
121
0
VERTEX
8
OBJECT__3
10
0
20
0
30
0
70
128
71
115
72
124
73
123
0
VERTEX
8
OBJECT__3
10
0
20
0
30
0
70
128
71
122
72
7
73
6
0
VERTEX
8
OBJECT__3
10
0
20
0
30
0
70
128
71
117
72
124
73
115
0
VERTEX
8
OBJECT__3
10
0
20
0
30
0
70
128
71
110
72
119
73
108
0
VERTEX
8
OBJECT__3
10
0
20
0
30
0
70
128
71
106
72
113
73
103
0
VERTEX
8
OBJECT__3
10
0
20
0
30
0
70
128
71
102
72
107
73
97
0
VERTEX
8
OBJECT__3
10
0
20
0
30
0
70
128
71
96
72
100
73
94
0
VERTEX
8
OBJECT__3
10
0
20
0
30
0
70
128
71
86
72
95
73
84
0
VERTEX
8
OBJECT__3
10
0
20
0
30
0
70
128
71
83
72
91
73
82
0
VERTEX
8
OBJECT__3
10
0
20
0
30
0
70
128
71
77
72
81
73
73
0
VERTEX
8
OBJECT__3
10
0
20
0
30
0
70
128
71
71
72
76
73
68
0
VERTEX
8
OBJECT__3
10
0
20
0
30
0
70
128
71
62
72
66
73
61
0
VERTEX
8
OBJECT__3
10
0
20
0
30
0
70
128
71
49
72
54
73
48
0
VERTEX
8
OBJECT__3
10
0
20
0
30
0
70
128
71
42
72
46
73
43
0
VERTEX
8
OBJECT__3
10
0
20
0
30
0
70
128
71
35
72
47
73
39
0
VERTEX
8
OBJECT__3
10
0
20
0
30
0
70
128
71
29
72
38
73
27
0
VERTEX
8
OBJECT__3
10
0
20
0
30
0
70
128
71
17
72
11
73
15
0
VERTEX
8
OBJECT__3
10
0
20
0
30
0
70
128
71
9
72
125
73
1
0
VERTEX
8
OBJECT__3
10
0
20
0
30
0
70
128
71
3
72
10
73
1
0
SEQEND
8
OBJECT__3
0
POLYLINE
8
OBJECT__5
66
1
70
64
71
25
72
28
62
253
0
VERTEX
8
OBJECT__5
10
33.033001
20
-27.000000
30
12.500000
70
192
0
VERTEX
8
OBJECT__5
10
30.561001
20
-27.000000
30
8.725000
70
192
0
VERTEX
8
OBJECT__5
10
31.193001
20
-27.292999
30
8.408000
70
192
0
VERTEX
8
OBJECT__5
10
29.021999
20
-27.000000
30
4.482000
70
192
0
VERTEX
8
OBJECT__5
10
29.709999
20
-27.292999
30
4.320000
70
192
0
VERTEX
8
OBJECT__5
10
28.500000
20
-27.000000
30
0.000000
70
192
0
VERTEX
8
OBJECT__5
10
29.207001
20
-27.292999
30
0.000000
70
192
0
VERTEX
8
OBJECT__5
10
29.021999
20
-27.000000
30
-4.482000
70
192
0
VERTEX
8
OBJECT__5
10
29.709999
20
-27.292999
30
-4.320000
70
192
0
VERTEX
8
OBJECT__5
10
30.561001
20
-27.000000
30
-8.725000
70
192
0
VERTEX
8
OBJECT__5
10
31.193001
20
-27.292999
30
-8.408000
70
192
0
VERTEX
8
OBJECT__5
10
33.033001
20
-27.000000
30
-12.500000
70
192
0
VERTEX
8
OBJECT__5
10
33.576000
20
-27.292999
30
-12.047000
70
192
0
VERTEX
8
OBJECT__5
10
33.576000
20
-27.292999
30
12.047000
70
192
0
VERTEX
8
OBJECT__5
10
32.057999
20
-28.000000
30
9.198000
70
192
0
VERTEX
8
OBJECT__5
10
31.455000
20
-28.000000
30
8.277000
70
192
0
VERTEX
8
OBJECT__5
10
29.995001
20
-28.000000
30
4.253000
70
192
0
VERTEX
8
OBJECT__5
10
29.500000
20
-28.000000
30
0.000000
70
192
0
VERTEX
8
OBJECT__5
10
29.872999
20
-28.000000
30
3.202000
70
192
0
VERTEX
8
OBJECT__5
10
29.872999
20
-28.000000
30
-3.202000
70
192
0
VERTEX
8
OBJECT__5
10
29.995001
20
-28.000000
30
-4.253000
70
192
0
VERTEX
8
OBJECT__5
10
31.455000
20
-28.000000
30
-8.277000
70
192
0
VERTEX
8
OBJECT__5
10
33.800999
20
-28.000000
30
-11.859000
70
192
0
VERTEX
8
OBJECT__5
10
32.057999
20
-28.000000
30
-9.198000
70
192
0
VERTEX
8
OBJECT__5
10
33.800999
20
-28.000000
30
11.859000
70
192
0
VERTEX
8
OBJECT__5
10
0
20
0
30
0
70
128
71
1
72
2
73
3
0
VERTEX
8
OBJECT__5
10
0
20
0
30
0
70
128
71
2
72
4
73
5
0
VERTEX
8
OBJECT__5
10
0
20
0
30
0
70
128
71
4
72
6
73
7
0
VERTEX
8
OBJECT__5
10
0
20
0
30
0
70
128
71
6
72
8
73
9
0
VERTEX
8
OBJECT__5
10
0
20
0
30
0
70
128
71
8
72
10
73
11
0
VERTEX
8
OBJECT__5
10
0
20
0
30
0
70
128
71
10
72
12
73
13
0
VERTEX
8
OBJECT__5
10
0
20
0
30
0
70
128
71
14
72
3
73
15
0
VERTEX
8
OBJECT__5
10
0
20
0
30
0
70
128
71
3
72
16
73
15
0
VERTEX
8
OBJECT__5
10
0
20
0
30
0
70
128
71
5
72
17
73
16
0
VERTEX
8
OBJECT__5
10
0
20
0
30
0
70
128
71
7
72
18
73
19
0
VERTEX
8
OBJECT__5
10
0
20
0
30
0
70
128
71
19
72
5
73
7
0
VERTEX
8
OBJECT__5
10
0
20
0
30
0
70
128
71
7
72
9
73
20
0
VERTEX
8
OBJECT__5
10
0
20
0
30
0
70
128
71
9
72
21
73
20
0
VERTEX
8
OBJECT__5
10
0
20
0
30
0
70
128
71
11
72
22
73
21
0
VERTEX
8
OBJECT__5
10
0
20
0
30
0
70
128
71
13
72
23
73
24
0
VERTEX
8
OBJECT__5
10
0
20
0
30
0
70
128
71
24
72
11
73
13
0
VERTEX
8
OBJECT__5
10
0
20
0
30
0
70
128
71
24
72
22
73
11
0
VERTEX
8
OBJECT__5
10
0
20
0
30
0
70
128
71
21
72
9
73
11
0
VERTEX
8
OBJECT__5
10
0
20
0
30
0
70
128
71
20
72
18
73
7
0
VERTEX
8
OBJECT__5
10
0
20
0
30
0
70
128
71
19
72
17
73
5
0
VERTEX
8
OBJECT__5
10
0
20
0
30
0
70
128
71
16
72
3
73
5
0
VERTEX
8
OBJECT__5
10
0
20
0
30
0
70
128
71
15
72
25
73
14
0
VERTEX
8
OBJECT__5
10
0
20
0
30
0
70
128
71
13
72
11
73
10
0
VERTEX
8
OBJECT__5
10
0
20
0
30
0
70
128
71
11
72
9
73
8
0
VERTEX
8
OBJECT__5
10
0
20
0
30
0
70
128
71
9
72
7
73
6
0
VERTEX
8
OBJECT__5
10
0
20
0
30
0
70
128
71
7
72
5
73
4
0
VERTEX
8
OBJECT__5
10
0
20
0
30
0
70
128
71
5
72
3
73
2
0
VERTEX
8
OBJECT__5
10
0
20
0
30
0
70
128
71
3
72
14
73
1
0
SEQEND
8
OBJECT__5
0
POLYLINE
8
OBJECT__6
66
1
70
64
71
14
72
13
62
253
0
VERTEX
8
OBJECT__6
10
33.800999
20
-28.000000
30
11.859000
70
192
0
VERTEX
8
OBJECT__6
10
34.428001
20
-27.854000
30
12.572000
70
192
0
VERTEX
8
OBJECT__6
10
34.157001
20
-27.268999
30
12.585000
70
192
0
VERTEX
8
OBJECT__6
10
35.046001
20
-27.407000
30
13.207000
70
192
0
VERTEX
8
OBJECT__6
10
35.116001
20
-27.330000
30
13.276000
70
192
0
VERTEX
8
OBJECT__6
10
34.877998
20
-27.000000
30
13.189000
70
192
0
VERTEX
8
OBJECT__6
10
34.747002
20
-27.000000
30
13.103000
70
192
0
VERTEX
8
OBJECT__6
10
34.737999
20
-27.000000
30
13.096000
70
192
0
VERTEX
8
OBJECT__6
10
33.576000
20
-27.292999
30
12.047000
70
192
0
VERTEX
8
OBJECT__6
10
33.271000
20
-27.000000
30
12.573000
70
192
0
VERTEX
8
OBJECT__6
10
33.042999
20
-27.000000
30
12.503000
70
192
0
VERTEX
8
OBJECT__6
10
33.888000
20
-27.000000
30
12.793000
70
192
0
VERTEX
8
OBJECT__6
10
33.033001
20
-27.000000
30
12.500000
70
192
0
VERTEX
8
OBJECT__6
10
35.353001
20
-27.000000
30
13.502000
70
192
0
VERTEX
8
OBJECT__6
10
0
20
0
30
0
70
128
71
1
72
2
73
3
0
VERTEX
8
OBJECT__6
10
0
20
0
30
0
70
128
71
4
72
5
73
6
0
VERTEX
8
OBJECT__6
10
0
20
0
30
0
70
128
71
2
72
4
73
7
0
VERTEX
8
OBJECT__6
10
0
20
0
30
0
70
128
71
3
72
7
73
8
0
VERTEX
8
OBJECT__6
10
0
20
0
30
0
70
128
71
9
72
10
73
11
0
VERTEX
8
OBJECT__6
10
0
20
0
30
0
70
128
71
9
72
3
73
12
0
VERTEX
8
OBJECT__6
10
0
20
0
30
0
70
128
71
12
72
10
73
9
0
VERTEX
8
OBJECT__6
10
0
20
0
30
0
70
128
71
11
72
13
73
9
0
VERTEX
8
OBJECT__6
10
0
20
0
30
0
70
128
71
8
72
12
73
3
0
VERTEX
8
OBJECT__6
10
0
20
0
30
0
70
128
71
7
72
3
73
2
0
VERTEX
8
OBJECT__6
10
0
20
0
30
0
70
128
71
6
72
7
73
4
0
VERTEX
8
OBJECT__6
10
0
20
0
30
0
70
128
71
6
72
5
73
14
0
VERTEX
8
OBJECT__6
10
0
20
0
30
0
70
128
71
3
72
9
73
1
0
SEQEND
8
OBJECT__6
0
POLYLINE
8
OBJECT__7
66
1
70
64
71
14
72
14
62
253
0
VERTEX
8
OBJECT__7
10
34.332001
20
-27.893999
30
-12.468000
70
192
0
VERTEX
8
OBJECT__7
10
34.067001
20
-27.287001
30
-12.504000
70
192
0
VERTEX
8
OBJECT__7
10
34.682999
20
-27.046000
30
-13.045000
70
192
0
VERTEX
8
OBJECT__7
10
33.800999
20
-28.000000
30
-11.859000
70
192
0
VERTEX
8
OBJECT__7
10
33.576000
20
-27.292999
30
-12.047000
70
192
0
VERTEX
8
OBJECT__7
10
33.042999
20
-27.000000
30
-12.503000
70
192
0
VERTEX
8
OBJECT__7
10
33.756001
20
-27.000000
30
-12.741000
70
192
0
VERTEX
8
OBJECT__7
10
33.033001
20
-27.000000
30
-12.500000
70
192
0
VERTEX
8
OBJECT__7
10
34.499001
20
-27.000000
30
-12.989000
70
192
0
VERTEX
8
OBJECT__7
10
34.977001
20
-27.475000
30
-13.140000
70
192
0
VERTEX
8
OBJECT__7
10
34.750000
20
-27.000000
30
-13.103000
70
192
0
VERTEX
8
OBJECT__7
10
34.761002
20
-27.000000
30
-13.108000
70
192
0
VERTEX
8
OBJECT__7
10
35.353001
20
-27.000000
30
-13.502000
70
192
0
VERTEX
8
OBJECT__7
10
34.639000
20
-27.000000
30
-13.053000
70
192
0
VERTEX
8
OBJECT__7
10
0
20
0
30
0
70
128
71
1
72
2
73
3
0
VERTEX
8
OBJECT__7
10
0
20
0
30
0
70
128
71
4
72
5
73
2
0
VERTEX
8
OBJECT__7
10
0
20
0
30
0
70
128
71
5
72
6
73
7
0
VERTEX
8
OBJECT__7
10
0
20
0
30
0
70
128
71
5
72
8
73
6
0
VERTEX
8
OBJECT__7
10
0
20
0
30
0
70
128
71
3
72
2
73
9
0
VERTEX
8
OBJECT__7
10
0
20
0
30
0
70
128
71
2
72
7
73
9
0
VERTEX
8
OBJECT__7
10
0
20
0
30
0
70
128
71
10
72
3
73
11
0
VERTEX
8
OBJECT__7
10
0
20
0
30
0
70
128
71
11
72
12
73
10
0
VERTEX
8
OBJECT__7
10
0
20
0
30
0
70
128
71
12
72
13
73
10
0
VERTEX
8
OBJECT__7
10
0
20
0
30
0
70
128
71
11
72
3
73
14
0
VERTEX
8
OBJECT__7
10
0
20
0
30
0
70
128
71
9
72
14
73
3
0
VERTEX
8
OBJECT__7
10
0
20
0
30
0
70
128
71
7
72
2
73
5
0
VERTEX
8
OBJECT__7
10
0
20
0
30
0
70
128
71
2
72
1
73
4
0
VERTEX
8
OBJECT__7
10
0
20
0
30
0
70
128
71
3
72
10
73
1
0
SEQEND
8
OBJECT__7
0
POLYLINE
8
OBJECT__8
66
1
70
64
71
27
72
25
62
253
0
VERTEX
8
OBJECT__8
10
0.000000
20
-27.000000
30
14.700000
70
192
0
VERTEX
8
OBJECT__8
10
33.888000
20
-27.000000
30
12.793000
70
192
0
VERTEX
8
OBJECT__8
10
34.737999
20
-27.000000
30
13.096000
70
192
0
VERTEX
8
OBJECT__8
10
33.033001
20
-27.000000
30
12.500000
70
192
0
VERTEX
8
OBJECT__8
10
33.042999
20
-27.000000
30
12.503000
70
192
0
VERTEX
8
OBJECT__8
10
0.000000
20
-27.000000
30
-14.700000
70
192
0
VERTEX
8
OBJECT__8
10
34.639000
20
-27.000000
30
-13.053000
70
192
0
VERTEX
8
OBJECT__8
10
34.499001
20
-27.000000
30
-12.989000
70
192
0
VERTEX
8
OBJECT__8
10
34.747002
20
-27.000000
30
13.103000
70
192
0
VERTEX
8
OBJECT__8
10
34.877998
20
-27.000000
30
13.189000
70
192
0
VERTEX
8
OBJECT__8
10
28.500000
20
-27.000000
30
0.000000
70
192
0
VERTEX
8
OBJECT__8
10
33.033001
20
-27.000000
30
-12.500000
70
192
0
VERTEX
8
OBJECT__8
10
30.561001
20
-27.000000
30
-8.725000
70
192
0
VERTEX
8
OBJECT__8
10
33.756001
20
-27.000000
30
-12.741000
70
192
0
VERTEX
8
OBJECT__8
10
33.042999
20
-27.000000
30
-12.503000
70
192
0
VERTEX
8
OBJECT__8
10
34.750000
20
-27.000000
30
-13.103000
70
192
0
VERTEX
8
OBJECT__8
10
35.353001
20
-27.000000
30
-13.502000
70
192
0
VERTEX
8
OBJECT__8
10
34.761002
20
-27.000000
30
-13.108000
70
192
0
VERTEX
8
OBJECT__8
10
36.108002
20
-27.000000
30
14.172000
70
192
0
VERTEX
8
OBJECT__8
10
35.353001
20
-27.000000
30
13.502000
70
192
0
VERTEX
8
OBJECT__8
10
29.021999
20
-27.000000
30
4.482000
70
192
0
VERTEX
8
OBJECT__8
10
29.021999
20
-27.000000
30
-4.482000
70
192
0
VERTEX
8
OBJECT__8
10
36.108002
20
-27.000000
30
-14.172000
70
192
0
VERTEX
8
OBJECT__8
10
33.271000
20
-27.000000
30
12.573000
70
192
0
VERTEX
8
OBJECT__8
10
30.561001
20
-27.000000
30
8.725000
70
192
0
VERTEX
8
OBJECT__8
10
36.768002
20
-27.000000
30
-14.700000
70
192
0
VERTEX
8
OBJECT__8
10
36.768002
20
-27.000000
30
14.700000
70
192
0
VERTEX
8
OBJECT__8
10
0
20
0
30
0
70
128
71
1
72
2
73
3
0
VERTEX
8
OBJECT__8
10
0
20
0
30
0
70
128
71
1
72
4
73
5
0
VERTEX
8
OBJECT__8
10
0
20
0
30
0
70
128
71
6
72
7
73
8
0
VERTEX
8
OBJECT__8
10
0
20
0
30
0
70
128
71
1
72
9
73
10
0
VERTEX
8
OBJECT__8
10
0
20
0
30
0
70
128
71
5
72
2
73
1
0
VERTEX
8
OBJECT__8
10
0
20
0
30
0
70
128
71
1
72
6
73
11
0
VERTEX
8
OBJECT__8
10
0
20
0
30
0
70
128
71
6
72
12
73
13
0
VERTEX
8
OBJECT__8
10
0
20
0
30
0
70
128
71
6
72
14
73
15
0
VERTEX
8
OBJECT__8
10
0
20
0
30
0
70
128
71
6
72
16
73
7
0
VERTEX
8
OBJECT__8
10
0
20
0
30
0
70
128
71
6
72
17
73
18
0
VERTEX
8
OBJECT__8
10
0
20
0
30
0
70
128
71
10
72
19
73
1
0
VERTEX
8
OBJECT__8
10
0
20
0
30
0
70
128
71
10
72
20
73
19
0
VERTEX
8
OBJECT__8
10
0
20
0
30
0
70
128
71
3
72
9
73
1
0
VERTEX
8
OBJECT__8
10
0
20
0
30
0
70
128
71
11
72
21
73
1
0
VERTEX
8
OBJECT__8
10
0
20
0
30
0
70
128
71
13
72
22
73
6
0
VERTEX
8
OBJECT__8
10
0
20
0
30
0
70
128
71
8
72
14
73
6
0
VERTEX
8
OBJECT__8
10
0
20
0
30
0
70
128
71
6
72
23
73
17
0
VERTEX
8
OBJECT__8
10
0
20
0
30
0
70
128
71
22
72
11
73
6
0
VERTEX
8
OBJECT__8
10
0
20
0
30
0
70
128
71
18
72
16
73
6
0
VERTEX
8
OBJECT__8
10
0
20
0
30
0
70
128
71
5
72
24
73
2
0
VERTEX
8
OBJECT__8
10
0
20
0
30
0
70
128
71
21
72
25
73
1
0
VERTEX
8
OBJECT__8
10
0
20
0
30
0
70
128
71
6
72
26
73
23
0
VERTEX
8
OBJECT__8
10
0
20
0
30
0
70
128
71
15
72
12
73
6
0
VERTEX
8
OBJECT__8
10
0
20
0
30
0
70
128
71
25
72
4
73
1
0
VERTEX
8
OBJECT__8
10
0
20
0
30
0
70
128
71
19
72
27
73
1
0
SEQEND
8
OBJECT__8
0
POLYLINE
8
OBJECT__9
66
1
70
64
71
4
72
2
62
253
0
VERTEX
8
OBJECT__9
10
0.000000
20
-27.000000
30
-14.700000
70
192
0
VERTEX
8
OBJECT__9
10
0.000000
20
-27.000000
30
14.700000
70
192
0
VERTEX
8
OBJECT__9
10
0.000000
20
16.000000
30
14.700000
70
192
0
VERTEX
8
OBJECT__9
10
0.000000
20
16.000000
30
-14.700000
70
192
0
VERTEX
8
OBJECT__9
10
0
20
0
30
0
70
128
71
1
72
2
73
3
0
VERTEX
8
OBJECT__9
10
0
20
0
30
0
70
128
71
3
72
4
73
1
0
SEQEND
8
OBJECT__9
0
POLYLINE
8
OBJECT__10
66
1
70
64
71
4
72
2
62
253
0
VERTEX
8
OBJECT__10
10
36.768002
20
-27.000000
30
14.700000
70
192
0
VERTEX
8
OBJECT__10
10
36.768002
20
16.000000
30
14.700000
70
192
0
VERTEX
8
OBJECT__10
10
0.000000
20
16.000000
30
14.700000
70
192
0
VERTEX
8
OBJECT__10
10
0.000000
20
-27.000000
30
14.700000
70
192
0
VERTEX
8
OBJECT__10
10
0
20
0
30
0
70
128
71
1
72
2
73
3
0
VERTEX
8
OBJECT__10
10
0
20
0
30
0
70
128
71
3
72
4
73
1
0
SEQEND
8
OBJECT__10
0
POLYLINE
8
OBJECT__11
66
1
70
64
71
4
72
2
62
253
0
VERTEX
8
OBJECT__11
10
36.768002
20
16.000000
30
-14.700000
70
192
0
VERTEX
8
OBJECT__11
10
36.768002
20
-27.000000
30
-14.700000
70
192
0
VERTEX
8
OBJECT__11
10
0.000000
20
-27.000000
30
-14.700000
70
192
0
VERTEX
8
OBJECT__11
10
0.000000
20
16.000000
30
-14.700000
70
192
0
VERTEX
8
OBJECT__11
10
0
20
0
30
0
70
128
71
1
72
2
73
3
0
VERTEX
8
OBJECT__11
10
0
20
0
30
0
70
128
71
3
72
4
73
1
0
SEQEND
8
OBJECT__11
0
POLYLINE
8
OBJECT__12
66
1
70
64
71
34
72
34
62
253
0
VERTEX
8
OBJECT__12
10
66.219002
20
16.000000
30
-3.212000
70
192
0
VERTEX
8
OBJECT__12
10
64.021004
20
16.000000
30
-9.250000
70
192
0
VERTEX
8
OBJECT__12
10
62.938999
20
16.000000
30
-8.625000
70
192
0
VERTEX
8
OBJECT__12
10
59.891998
20
16.000000
30
-14.172000
70
192
0
VERTEX
8
OBJECT__12
10
59.088001
20
16.000000
30
-13.214000
70
192
0
VERTEX
8
OBJECT__12
10
0.000000
20
16.000000
30
-14.700000
70
192
0
VERTEX
8
OBJECT__12
10
0.000000
20
16.000000
30
14.700000
70
192
0
VERTEX
8
OBJECT__12
10
31.011999
20
16.000000
30
2.995000
70
192
0
VERTEX
8
OBJECT__12
10
54.327000
20
16.000000
30
17.384001
70
192
0
VERTEX
8
OBJECT__12
10
59.891998
20
16.000000
30
14.172000
70
192
0
VERTEX
8
OBJECT__12
10
59.088001
20
16.000000
30
13.214000
70
192
0
VERTEX
8
OBJECT__12
10
64.021004
20
16.000000
30
9.250000
70
192
0
VERTEX
8
OBJECT__12
10
62.938999
20
16.000000
30
8.625000
70
192
0
VERTEX
8
OBJECT__12
10
66.219002
20
16.000000
30
3.212000
70
192
0
VERTEX
8
OBJECT__12
10
64.987999
20
16.000000
30
2.995000
70
192
0
VERTEX
8
OBJECT__12
10
64.987999
20
16.000000
30
-2.995000
70
192
0
VERTEX
8
OBJECT__12
10
54.327000
20
16.000000
30
-17.384001
70
192
0
VERTEX
8
OBJECT__12
10
53.900002
20
16.000000
30
-16.209999
70
192
0
VERTEX
8
OBJECT__12
10
48.000000
20
16.000000
30
-18.500000
70
192
0
VERTEX
8
OBJECT__12
10
48.000000
20
16.000000
30
-17.250000
70
192
0
VERTEX
8
OBJECT__12
10
41.673000
20
16.000000
30
-17.384001
70
192
0
VERTEX
8
OBJECT__12
10
42.099998
20
16.000000
30
-16.209999
70
192
0
VERTEX
8
OBJECT__12
10
31.011999
20
16.000000
30
-2.995000
70
192
0
VERTEX
8
OBJECT__12
10
33.061001
20
16.000000
30
-8.625000
70
192
0
VERTEX
8
OBJECT__12
10
33.061001
20
16.000000
30
8.625000
70
192
0
VERTEX
8
OBJECT__12
10
36.768002
20
16.000000
30
-14.700000
70
192
0
VERTEX
8
OBJECT__12
10
42.099998
20
16.000000
30
16.209999
70
192
0
VERTEX
8
OBJECT__12
10
36.911999
20
16.000000
30
13.214000
70
192
0
VERTEX
8
OBJECT__12
10
36.768002
20
16.000000
30
14.700000
70
192
0
VERTEX
8
OBJECT__12
10
41.673000
20
16.000000
30
17.384001
70
192
0
VERTEX
8
OBJECT__12
10
48.000000
20
16.000000
30
18.500000
70
192
0
VERTEX
8
OBJECT__12
10
48.000000
20
16.000000
30
17.250000
70
192
0
VERTEX
8
OBJECT__12
10
53.900002
20
16.000000
30
16.209999
70
192
0
VERTEX
8
OBJECT__12
10
36.911999
20
16.000000
30
-13.214000
70
192
0
VERTEX
8
OBJECT__12
10
0
20
0
30
0
70
128
71
1
72
2
73
3
0
VERTEX
8
OBJECT__12
10
0
20
0
30
0
70
128
71
2
72
4
73
5
0
VERTEX
8
OBJECT__12
10
0
20
0
30
0
70
128
71
6
72
7
73
8
0
VERTEX
8
OBJECT__12
10
0
20
0
30
0
70
128
71
9
72
10
73
11
0
VERTEX
8
OBJECT__12
10
0
20
0
30
0
70
128
71
10
72
12
73
13
0
VERTEX
8
OBJECT__12
10
0
20
0
30
0
70
128
71
12
72
14
73
15
0
VERTEX
8
OBJECT__12
10
0
20
0
30
0
70
128
71
14
72
1
73
16
0
VERTEX
8
OBJECT__12
10
0
20
0
30
0
70
128
71
5
72
3
73
2
0
VERTEX
8
OBJECT__12
10
0
20
0
30
0
70
128
71
4
72
17
73
18
0
VERTEX
8
OBJECT__12
10
0
20
0
30
0
70
128
71
17
72
19
73
20
0
VERTEX
8
OBJECT__12
10
0
20
0
30
0
70
128
71
19
72
21
73
22
0
VERTEX
8
OBJECT__12
10
0
20
0
30
0
70
128
71
6
72
23
73
24
0
VERTEX
8
OBJECT__12
10
0
20
0
30
0
70
128
71
7
72
25
73
8
0
VERTEX
8
OBJECT__12
10
0
20
0
30
0
70
128
71
13
72
11
73
10
0
VERTEX
8
OBJECT__12
10
0
20
0
30
0
70
128
71
16
72
15
73
14
0
VERTEX
8
OBJECT__12
10
0
20
0
30
0
70
128
71
18
72
5
73
4
0
VERTEX
8
OBJECT__12
10
0
20
0
30
0
70
128
71
22
72
20
73
19
0
VERTEX
8
OBJECT__12
10
0
20
0
30
0
70
128
71
22
72
21
73
26
0
VERTEX
8
OBJECT__12
10
0
20
0
30
0
70
128
71
27
72
28
73
29
0
VERTEX
8
OBJECT__12
10
0
20
0
30
0
70
128
71
30
72
31
73
32
0
VERTEX
8
OBJECT__12
10
0
20
0
30
0
70
128
71
8
72
23
73
6
0
VERTEX
8
OBJECT__12
10
0
20
0
30
0
70
128
71
7
72
29
73
28
0
VERTEX
8
OBJECT__12
10
0
20
0
30
0
70
128
71
31
72
9
73
33
0
VERTEX
8
OBJECT__12
10
0
20
0
30
0
70
128
71
15
72
13
73
12
0
VERTEX
8
OBJECT__12
10
0
20
0
30
0
70
128
71
20
72
18
73
17
0
VERTEX
8
OBJECT__12
10
0
20
0
30
0
70
128
71
26
72
24
73
34
0
VERTEX
8
OBJECT__12
10
0
20
0
30
0
70
128
71
32
72
27
73
30
0
VERTEX
8
OBJECT__12
10
0
20
0
30
0
70
128
71
28
72
25
73
7
0
VERTEX
8
OBJECT__12
10
0
20
0
30
0
70
128
71
11
72
33
73
9
0
VERTEX
8
OBJECT__12
10
0
20
0
30
0
70
128
71
26
72
34
73
22
0
VERTEX
8
OBJECT__12
10
0
20
0
30
0
70
128
71
24
72
26
73
6
0
VERTEX
8
OBJECT__12
10
0
20
0
30
0
70
128
71
3
72
16
73
1
0
VERTEX
8
OBJECT__12
10
0
20
0
30
0
70
128
71
33
72
32
73
31
0
VERTEX
8
OBJECT__12
10
0
20
0
30
0
70
128
71
29
72
30
73
27
0
SEQEND
8
OBJECT__12
0
POLYLINE
8
OBJECT__13
66
1
70
64
71
36
72
36
62
253
0
VERTEX
8
OBJECT__13
10
42.099998
20
16.000000
30
-16.209999
70
192
0
VERTEX
8
OBJECT__13
10
42.099998
20
19.000000
30
-16.209999
70
192
0
VERTEX
8
OBJECT__13
10
48.000000
20
19.000000
30
-17.250000
70
192
0
VERTEX
8
OBJECT__13
10
36.911999
20
16.000000
30
-13.214000
70
192
0
VERTEX
8
OBJECT__13
10
36.911999
20
19.000000
30
-13.214000
70
192
0
VERTEX
8
OBJECT__13
10
33.061001
20
16.000000
30
-8.625000
70
192
0
VERTEX
8
OBJECT__13
10
33.061001
20
19.000000
30
-8.625000
70
192
0
VERTEX
8
OBJECT__13
10
31.011999
20
16.000000
30
-2.995000
70
192
0
VERTEX
8
OBJECT__13
10
31.011999
20
19.000000
30
-2.995000
70
192
0
VERTEX
8
OBJECT__13
10
31.011999
20
16.000000
30
2.995000
70
192
0
VERTEX
8
OBJECT__13
10
31.011999
20
19.000000
30
2.995000
70
192
0
VERTEX
8
OBJECT__13
10
33.061001
20
16.000000
30
8.625000
70
192
0
VERTEX
8
OBJECT__13
10
33.061001
20
19.000000
30
8.625000
70
192
0
VERTEX
8
OBJECT__13
10
36.911999
20
16.000000
30
13.214000
70
192
0
VERTEX
8
OBJECT__13
10
36.911999
20
19.000000
30
13.214000
70
192
0
VERTEX
8
OBJECT__13
10
42.099998
20
16.000000
30
16.209999
70
192
0
VERTEX
8
OBJECT__13
10
42.099998
20
19.000000
30
16.209999
70
192
0
VERTEX
8
OBJECT__13
10
48.000000
20
16.000000
30
17.250000
70
192
0
VERTEX
8
OBJECT__13
10
48.000000
20
19.000000
30
17.250000
70
192
0
VERTEX
8
OBJECT__13
10
53.900002
20
16.000000
30
16.209999
70
192
0
VERTEX
8
OBJECT__13
10
53.900002
20
19.000000
30
16.209999
70
192
0
VERTEX
8
OBJECT__13
10
59.088001
20
16.000000
30
13.214000
70
192
0
VERTEX
8
OBJECT__13
10
59.088001
20
19.000000
30
13.214000
70
192
0
VERTEX
8
OBJECT__13
10
62.938999
20
16.000000
30
8.625000
70
192
0
VERTEX
8
OBJECT__13
10
62.938999
20
19.000000
30
8.625000
70
192
0
VERTEX
8
OBJECT__13
10
64.987999
20
16.000000
30
2.995000
70
192
0
VERTEX
8
OBJECT__13
10
64.987999
20
19.000000
30
2.995000
70
192
0
VERTEX
8
OBJECT__13
10
64.987999
20
16.000000
30
-2.995000
70
192
0
VERTEX
8
OBJECT__13
10
64.987999
20
19.000000
30
-2.995000
70
192
0
VERTEX
8
OBJECT__13
10
62.938999
20
16.000000
30
-8.625000
70
192
0
VERTEX
8
OBJECT__13
10
62.938999
20
19.000000
30
-8.625000
70
192
0
VERTEX
8
OBJECT__13
10
59.088001
20
16.000000
30
-13.214000
70
192
0
VERTEX
8
OBJECT__13
10
59.088001
20
19.000000
30
-13.214000
70
192
0
VERTEX
8
OBJECT__13
10
53.900002
20
16.000000
30
-16.209999
70
192
0
VERTEX
8
OBJECT__13
10
53.900002
20
19.000000
30
-16.209999
70
192
0
VERTEX
8
OBJECT__13
10
48.000000
20
16.000000
30
-17.250000
70
192
0
VERTEX
8
OBJECT__13
10
0
20
0
30
0
70
128
71
1
72
2
73
3
0
VERTEX
8
OBJECT__13
10
0
20
0
30
0
70
128
71
4
72
5
73
2
0
VERTEX
8
OBJECT__13
10
0
20
0
30
0
70
128
71
6
72
7
73
5
0
VERTEX
8
OBJECT__13
10
0
20
0
30
0
70
128
71
8
72
9
73
7
0
VERTEX
8
OBJECT__13
10
0
20
0
30
0
70
128
71
10
72
11
73
9
0
VERTEX
8
OBJECT__13
10
0
20
0
30
0
70
128
71
12
72
13
73
11
0
VERTEX
8
OBJECT__13
10
0
20
0
30
0
70
128
71
14
72
15
73
13
0
VERTEX
8
OBJECT__13
10
0
20
0
30
0
70
128
71
16
72
17
73
15
0
VERTEX
8
OBJECT__13
10
0
20
0
30
0
70
128
71
18
72
19
73
17
0
VERTEX
8
OBJECT__13
10
0
20
0
30
0
70
128
71
20
72
21
73
19
0
VERTEX
8
OBJECT__13
10
0
20
0
30
0
70
128
71
22
72
23
73
21
0
VERTEX
8
OBJECT__13
10
0
20
0
30
0
70
128
71
24
72
25
73
23
0
VERTEX
8
OBJECT__13
10
0
20
0
30
0
70
128
71
26
72
27
73
25
0
VERTEX
8
OBJECT__13
10
0
20
0
30
0
70
128
71
28
72
29
73
27
0
VERTEX
8
OBJECT__13
10
0
20
0
30
0
70
128
71
30
72
31
73
29
0
VERTEX
8
OBJECT__13
10
0
20
0
30
0
70
128
71
32
72
33
73
31
0
VERTEX
8
OBJECT__13
10
0
20
0
30
0
70
128
71
34
72
35
73
33
0
VERTEX
8
OBJECT__13
10
0
20
0
30
0
70
128
71
36
72
3
73
35
0
VERTEX
8
OBJECT__13
10
0
20
0
30
0
70
128
71
35
72
34
73
36
0
VERTEX
8
OBJECT__13
10
0
20
0
30
0
70
128
71
33
72
32
73
34
0
VERTEX
8
OBJECT__13
10
0
20
0
30
0
70
128
71
31
72
30
73
32
0
VERTEX
8
OBJECT__13
10
0
20
0
30
0
70
128
71
29
72
28
73
30
0
VERTEX
8
OBJECT__13
10
0
20
0
30
0
70
128
71
27
72
26
73
28
0
VERTEX
8
OBJECT__13
10
0
20
0
30
0
70
128
71
25
72
24
73
26
0
VERTEX
8
OBJECT__13
10
0
20
0
30
0
70
128
71
23
72
22
73
24
0
VERTEX
8
OBJECT__13
10
0
20
0
30
0
70
128
71
21
72
20
73
22
0
VERTEX
8
OBJECT__13
10
0
20
0
30
0
70
128
71
19
72
18
73
20
0
VERTEX
8
OBJECT__13
10
0
20
0
30
0
70
128
71
17
72
16
73
18
0
VERTEX
8
OBJECT__13
10
0
20
0
30
0
70
128
71
15
72
14
73
16
0
VERTEX
8
OBJECT__13
10
0
20
0
30
0
70
128
71
13
72
12
73
14
0
VERTEX
8
OBJECT__13
10
0
20
0
30
0
70
128
71
11
72
10
73
12
0
VERTEX
8
OBJECT__13
10
0
20
0
30
0
70
128
71
9
72
8
73
10
0
VERTEX
8
OBJECT__13
10
0
20
0
30
0
70
128
71
7
72
6
73
8
0
VERTEX
8
OBJECT__13
10
0
20
0
30
0
70
128
71
5
72
4
73
6
0
VERTEX
8
OBJECT__13
10
0
20
0
30
0
70
128
71
2
72
1
73
4
0
VERTEX
8
OBJECT__13
10
0
20
0
30
0
70
128
71
3
72
36
73
1
0
SEQEND
8
OBJECT__13
0
POLYLINE
8
OBJECT__14
66
1
70
64
71
5
72
3
62
253
0
VERTEX
8
OBJECT__14
10
52.654999
20
-28.000000
30
-15.429000
70
192
0
VERTEX
8
OBJECT__14
10
48.140999
20
-28.000000
30
-16.115000
70
192
0
VERTEX
8
OBJECT__14
10
43.615002
20
-28.000000
30
-15.508000
70
192
0
VERTEX
8
OBJECT__14
10
39.442001
20
-28.000000
30
-13.656000
70
192
0
VERTEX
8
OBJECT__14
10
56.794998
20
-28.000000
30
-13.504000
70
192
0
VERTEX
8
OBJECT__14
10
0
20
0
30
0
70
128
71
1
72
2
73
3
0
VERTEX
8
OBJECT__14
10
0
20
0
30
0
70
128
71
4
72
5
73
1
0
VERTEX
8
OBJECT__14
10
0
20
0
30
0
70
128
71
3
72
4
73
1
0
SEQEND
8
OBJECT__14
0
POLYLINE
8
OBJECT__16
66
1
70
64
71
5
72
3
62
253
0
VERTEX
8
OBJECT__16
10
39.442001
20
-28.000000
30
13.656000
70
192
0
VERTEX
8
OBJECT__16
10
43.615002
20
-28.000000
30
15.508000
70
192
0
VERTEX
8
OBJECT__16
10
48.140999
20
-28.000000
30
16.115000
70
192
0
VERTEX
8
OBJECT__16
10
52.654999
20
-28.000000
30
15.429000
70
192
0
VERTEX
8
OBJECT__16
10
56.794998
20
-28.000000
30
13.504000
70
192
0
VERTEX
8
OBJECT__16
10
0
20
0
30
0
70
128
71
1
72
2
73
3
0
VERTEX
8
OBJECT__16
10
0
20
0
30
0
70
128
71
3
72
4
73
1
0
VERTEX
8
OBJECT__16
10
0
20
0
30
0
70
128
71
4
72
5
73
1
0
SEQEND
8
OBJECT__16
0
POLYLINE
8
OBJECT__18
66
1
70
64
71
5
72
3
62
253
0
VERTEX
8
OBJECT__18
10
56.419998
20
2.596000
30
-13.599000
70
192
0
VERTEX
8
OBJECT__18
10
52.500000
20
2.596000
30
-15.349000
70
192
0
VERTEX
8
OBJECT__18
10
52.500000
20
2.596000
30
-10.854000
70
192
0
VERTEX
8
OBJECT__18
10
55.150002
20
2.596000
30
-9.324000
70
192
0
VERTEX
8
OBJECT__18
10
59.042000
20
2.596000
30
-11.571000
70
192
0
VERTEX
8
OBJECT__18
10
0
20
0
30
0
70
128
71
1
72
2
73
3
0
VERTEX
8
OBJECT__18
10
0
20
0
30
0
70
128
71
4
72
5
73
1
0
VERTEX
8
OBJECT__18
10
0
20
0
30
0
70
128
71
3
72
4
73
1
0
SEQEND
8
OBJECT__18
0
POLYLINE
8
OBJECT__19
66
1
70
64
71
247
72
276
62
253
0
VERTEX
8
OBJECT__19
10
32.657001
20
7.462000
30
-4.366000
70
192
0
VERTEX
8
OBJECT__19
10
33.074001
20
50.853001
30
-4.242000
70
192
0
VERTEX
8
OBJECT__19
10
34.208000
20
50.853001
30
-7.234000
70
192
0
VERTEX
8
OBJECT__19
10
35.270000
20
7.462000
30
-9.613000
70
192
0
VERTEX
8
OBJECT__19
10
63.342999
20
7.462000
30
-4.366000
70
192
0
VERTEX
8
OBJECT__19
10
60.730000
20
7.462000
30
-9.613000
70
192
0
VERTEX
8
OBJECT__19
10
61.792000
20
50.853001
30
-7.234000
70
192
0
VERTEX
8
OBJECT__19
10
60.347000
20
50.853001
30
-9.329000
70
192
0
VERTEX
8
OBJECT__19
10
33.626999
20
-4.404000
30
7.157000
70
192
0
VERTEX
8
OBJECT__19
10
33.720001
20
7.462000
30
7.111000
70
192
0
VERTEX
8
OBJECT__19
10
32.116001
20
7.462000
30
1.472000
70
192
0
VERTEX
8
OBJECT__19
10
32.556999
20
-4.404000
30
-4.394000
70
192
0
VERTEX
8
OBJECT__19
10
32.013000
20
-4.404000
30
1.481000
70
192
0
VERTEX
8
OBJECT__19
10
35.187000
20
-4.404000
30
-9.676000
70
192
0
VERTEX
8
OBJECT__19
10
63.443001
20
-4.404000
30
-4.394000
70
192
0
VERTEX
8
OBJECT__19
10
60.813000
20
-4.404000
30
-9.676000
70
192
0
VERTEX
8
OBJECT__19
10
63.987000
20
-4.404000
30
1.481000
70
192
0
VERTEX
8
OBJECT__19
10
62.373001
20
-4.404000
30
7.157000
70
192
0
VERTEX
8
OBJECT__19
10
63.883999
20
7.462000
30
1.472000
70
192
0
VERTEX
8
OBJECT__19
10
37.577000
20
50.853001
30
11.433000
70
192
0
VERTEX
8
OBJECT__19
10
38.369999
20
45.088001
30
12.303000
70
192
0
VERTEX
8
OBJECT__19
10
39.000000
20
46.021999
30
12.761000
70
192
0
VERTEX
8
OBJECT__19
10
37.578999
20
43.528000
30
11.659000
70
192
0
VERTEX
8
OBJECT__19
10
37.465000
20
43.183998
30
11.556000
70
192
0
VERTEX
8
OBJECT__19
10
50.931000
20
7.462000
30
-15.681000
70
192
0
VERTEX
8
OBJECT__19
10
49.650002
20
29.174999
30
-15.676000
70
192
0
VERTEX
8
OBJECT__19
10
50.026001
20
29.261999
30
-15.620000
70
192
0
VERTEX
8
OBJECT__19
10
45.069000
20
7.462000
30
-15.681000
70
192
0
VERTEX
8
OBJECT__19
10
47.801998
20
29.044001
30
-15.763000
70
192
0
VERTEX
8
OBJECT__19
10
48.007999
20
29.042000
30
-15.764000
70
192
0
VERTEX
8
OBJECT__19
10
46.176998
20
29.205000
30
-15.657000
70
192
0
VERTEX
8
OBJECT__19
10
45.106998
20
29.488001
30
-15.474000
70
192
0
VERTEX
8
OBJECT__19
10
45.973999
20
29.259001
30
-15.622000
70
192
0
VERTEX
8
OBJECT__19
10
58.423000
20
50.853001
30
11.433000
70
192
0
VERTEX
8
OBJECT__19
10
57.000000
20
50.853001
30
12.710000
70
192
0
VERTEX
8
OBJECT__19
10
57.000000
20
46.021999
30
12.761000
70
192
0
VERTEX
8
OBJECT__19
10
57.985001
20
44.459000
30
12.024000
70
192
0
VERTEX
8
OBJECT__19
10
58.136002
20
44.160000
30
11.900000
70
192
0
VERTEX
8
OBJECT__19
10
59.042000
20
2.596000
30
-11.571000
70
192
0
VERTEX
8
OBJECT__19
10
56.452000
20
-4.404000
30
-13.651000
70
192
0
VERTEX
8
OBJECT__19
10
56.419998
20
2.596000
30
-13.599000
70
192
0
VERTEX
8
OBJECT__19
10
59.660999
20
50.853001
30
-10.322000
70
192
0
VERTEX
8
OBJECT__19
10
57.125000
20
43.293999
30
-12.701000
70
192
0
VERTEX
8
OBJECT__19
10
57.000000
20
43.540001
30
-12.788000
70
192
0
VERTEX
8
OBJECT__19
10
57.000000
20
50.853001
30
-12.710000
70
192
0
VERTEX
8
OBJECT__19
10
57.723000
20
41.775002
30
-12.267000
70
192
0
VERTEX
8
OBJECT__19
10
57.963001
20
40.793999
30
-12.084000
70
192
0
VERTEX
8
OBJECT__19
10
57.723999
20
41.771000
30
-12.266000
70
192
0
VERTEX
8
OBJECT__19
10
58.130001
20
39.262001
30
-11.962000
70
192
0
VERTEX
8
OBJECT__19
10
58.964001
20
12.596000
30
-11.526000
70
192
0
VERTEX
8
OBJECT__19
10
58.104000
20
38.227001
30
-11.995000
70
192
0
VERTEX
8
OBJECT__19
10
57.868000
20
36.726002
30
-12.208000
70
192
0
VERTEX
8
OBJECT__19
10
58.014000
20
37.653000
30
-12.076000
70
192
0
VERTEX
8
OBJECT__19
10
56.374001
20
12.596000
30
-13.525000
70
192
0
VERTEX
8
OBJECT__19
10
56.272999
20
33.319000
30
-13.361000
70
192
0
VERTEX
8
OBJECT__19
10
56.611000
20
33.785000
30
-13.149000
70
192
0
VERTEX
8
OBJECT__19
10
56.736000
20
33.956001
30
-13.071000
70
192
0
VERTEX
8
OBJECT__19
10
57.449001
20
35.398998
30
-12.549000
70
192
0
VERTEX
8
OBJECT__19
10
59.004002
20
7.462000
30
-11.549000
70
192
0
VERTEX
8
OBJECT__19
10
50.896000
20
29.461000
30
-15.490000
70
192
0
VERTEX
8
OBJECT__19
10
52.500000
20
12.596000
30
-15.258000
70
192
0
VERTEX
8
OBJECT__19
10
53.527000
20
30.658001
30
-14.748000
70
192
0
VERTEX
8
OBJECT__19
10
53.773998
20
30.834999
30
-14.645000
70
192
0
VERTEX
8
OBJECT__19
10
52.514000
20
30.087000
30
-15.094000
70
192
0
VERTEX
8
OBJECT__19
10
50.938999
20
29.471001
30
-15.484000
70
192
0
VERTEX
8
OBJECT__19
10
54.429001
20
31.308001
30
-14.372000
70
192
0
VERTEX
8
OBJECT__19
10
55.701000
20
32.532001
30
-13.720000
70
192
0
VERTEX
8
OBJECT__19
10
39.625999
20
12.596000
30
-13.525000
70
192
0
VERTEX
8
OBJECT__19
10
44.596001
20
29.622000
30
-15.387000
70
192
0
VERTEX
8
OBJECT__19
10
41.686001
20
31.216000
30
-14.424000
70
192
0
VERTEX
8
OBJECT__19
10
42.237000
20
30.853001
30
-14.638000
70
192
0
VERTEX
8
OBJECT__19
10
40.474998
20
32.334999
30
-13.819000
70
192
0
VERTEX
8
OBJECT__19
10
41.410999
20
31.440001
30
-14.298000
70
192
0
VERTEX
8
OBJECT__19
10
39.727001
20
33.310001
30
-13.362000
70
192
0
VERTEX
8
OBJECT__19
10
43.088001
20
30.294001
30
-14.968000
70
192
0
VERTEX
8
OBJECT__19
10
43.500000
20
7.462000
30
-15.304000
70
192
0
VERTEX
8
OBJECT__19
10
43.500000
20
12.596000
30
-15.258000
70
192
0
VERTEX
8
OBJECT__19
10
35.653000
20
50.853001
30
-9.329000
70
192
0
VERTEX
8
OBJECT__19
10
37.035999
20
12.596000
30
-11.526000
70
192
0
VERTEX
8
OBJECT__19
10
39.401001
20
33.735001
30
-13.163000
70
192
0
VERTEX
8
OBJECT__19
10
38.728001
20
34.980999
30
-12.685000
70
192
0
VERTEX
8
OBJECT__19
10
39.377998
20
33.777000
30
-13.147000
70
192
0
VERTEX
8
OBJECT__19
10
37.972000
20
37.553001
30
-12.067000
70
192
0
VERTEX
8
OBJECT__19
10
38.179001
20
36.540001
30
-12.247000
70
192
0
VERTEX
8
OBJECT__19
10
37.966000
20
37.648998
30
-12.060000
70
192
0
VERTEX
8
OBJECT__19
10
37.867001
20
39.084999
30
-11.961000
70
192
0
VERTEX
8
OBJECT__19
10
38.366001
20
42.056000
30
-12.334000
70
192
0
VERTEX
8
OBJECT__19
10
38.278000
20
41.770000
30
-12.267000
70
192
0
VERTEX
8
OBJECT__19
10
36.339001
20
50.853001
30
-10.322000
70
192
0
VERTEX
8
OBJECT__19
10
39.000000
20
50.853001
30
-12.710000
70
192
0
VERTEX
8
OBJECT__19
10
39.000000
20
43.540001
30
-12.788000
70
192
0
VERTEX
8
OBJECT__19
10
38.231998
20
41.619999
30
-12.232000
70
192
0
VERTEX
8
OBJECT__19
10
37.933998
20
40.126999
30
-12.006000
70
192
0
VERTEX
8
OBJECT__19
10
39.548000
20
-4.404000
30
-13.651000
70
192
0
VERTEX
8
OBJECT__19
10
36.958000
20
2.596000
30
-11.571000
70
192
0
VERTEX
8
OBJECT__19
10
36.995998
20
7.462000
30
-11.549000
70
192
0
VERTEX
8
OBJECT__19
10
50.360001
20
27.658001
30
15.587000
70
192
0
VERTEX
8
OBJECT__19
10
50.087002
20
27.586000
30
15.638000
70
192
0
VERTEX
8
OBJECT__19
10
52.500000
20
12.596000
30
15.258000
70
192
0
VERTEX
8
OBJECT__19
10
53.745998
20
12.596000
30
14.833000
70
192
0
VERTEX
8
OBJECT__19
10
51.599998
20
27.986000
30
15.357000
70
192
0
VERTEX
8
OBJECT__19
10
53.618999
20
28.905001
30
14.730000
70
192
0
VERTEX
8
OBJECT__19
10
53.159000
20
28.652000
30
14.899000
70
192
0
VERTEX
8
OBJECT__19
10
53.693001
20
28.957001
30
14.697000
70
192
0
VERTEX
8
OBJECT__19
10
48.410000
20
27.396999
30
15.773000
70
192
0
VERTEX
8
OBJECT__19
10
48.000000
20
7.462000
30
15.952000
70
192
0
VERTEX
8
OBJECT__19
10
52.500000
20
7.462000
30
15.304000
70
192
0
VERTEX
8
OBJECT__19
10
48.000000
20
27.412001
30
15.762000
70
192
0
VERTEX
8
OBJECT__19
10
58.716999
20
12.596000
30
11.756000
70
192
0
VERTEX
8
OBJECT__19
10
54.640999
20
29.613001
30
14.272000
70
192
0
VERTEX
8
OBJECT__19
10
55.082001
20
29.917999
30
14.075000
70
192
0
VERTEX
8
OBJECT__19
10
56.556999
20
31.364000
30
13.215000
70
192
0
VERTEX
8
OBJECT__19
10
56.376999
20
31.158001
30
13.332000
70
192
0
VERTEX
8
OBJECT__19
10
57.653999
20
32.893002
30
12.419000
70
192
0
VERTEX
8
OBJECT__19
10
58.483002
20
34.563000
30
11.708000
70
192
0
VERTEX
8
OBJECT__19
10
57.754002
20
33.092999
30
12.334000
70
192
0
VERTEX
8
OBJECT__19
10
58.584000
20
34.883999
30
11.610000
70
192
0
VERTEX
8
OBJECT__19
10
62.279999
20
7.462000
30
7.111000
70
192
0
VERTEX
8
OBJECT__19
10
61.907001
20
50.853001
30
6.929000
70
192
0
VERTEX
8
OBJECT__19
10
58.964001
20
12.596000
30
11.526000
70
192
0
VERTEX
8
OBJECT__19
10
59.021999
20
36.282001
30
11.181000
70
192
0
VERTEX
8
OBJECT__19
10
59.285000
20
37.945000
30
10.896000
70
192
0
VERTEX
8
OBJECT__19
10
59.214001
20
37.493999
30
10.973000
70
192
0
VERTEX
8
OBJECT__19
10
58.762001
20
42.602001
30
11.356000
70
192
0
VERTEX
8
OBJECT__19
10
58.886002
20
42.105000
30
11.241000
70
192
0
VERTEX
8
OBJECT__19
10
59.660999
20
50.853001
30
10.322000
70
192
0
VERTEX
8
OBJECT__19
10
58.534000
20
43.169998
30
11.555000
70
192
0
VERTEX
8
OBJECT__19
10
61.792000
20
50.853001
30
7.234000
70
192
0
VERTEX
8
OBJECT__19
10
59.137001
20
41.099998
30
11.007000
70
192
0
VERTEX
8
OBJECT__19
10
59.317001
20
39.497002
30
10.842000
70
192
0
VERTEX
8
OBJECT__19
10
36.339001
20
50.853001
30
10.322000
70
192
0
VERTEX
8
OBJECT__19
10
37.109001
20
42.105000
30
11.235000
70
192
0
VERTEX
8
OBJECT__19
10
37.022999
20
41.847000
30
11.158000
70
192
0
VERTEX
8
OBJECT__19
10
34.208000
20
50.853001
30
7.234000
70
192
0
VERTEX
8
OBJECT__19
10
34.092999
20
50.853001
30
6.929000
70
192
0
VERTEX
8
OBJECT__19
10
36.783001
20
40.597000
30
10.932000
70
192
0
VERTEX
8
OBJECT__19
10
36.671001
20
38.973999
30
10.837000
70
192
0
VERTEX
8
OBJECT__19
10
37.035999
20
12.596000
30
11.526000
70
192
0
VERTEX
8
OBJECT__19
10
36.775002
20
37.493000
30
10.962000
70
192
0
VERTEX
8
OBJECT__19
10
36.738998
20
37.698002
30
10.923000
70
192
0
VERTEX
8
OBJECT__19
10
37.018002
20
36.113998
30
11.223000
70
192
0
VERTEX
8
OBJECT__19
10
37.283001
20
12.596000
30
11.756000
70
192
0
VERTEX
8
OBJECT__19
10
37.417999
20
34.896999
30
11.608000
70
192
0
VERTEX
8
OBJECT__19
10
37.221001
20
35.390999
30
11.427000
70
192
0
VERTEX
8
OBJECT__19
10
36.995998
20
7.462000
30
11.549000
70
192
0
VERTEX
8
OBJECT__19
10
38.736000
20
32.285999
30
12.720000
70
192
0
VERTEX
8
OBJECT__19
10
38.259998
20
33.102001
30
12.337000
70
192
0
VERTEX
8
OBJECT__19
10
42.220001
20
29.000999
30
14.667000
70
192
0
VERTEX
8
OBJECT__19
10
41.348999
20
29.598000
30
14.279000
70
192
0
VERTEX
8
OBJECT__19
10
42.254002
20
12.596000
30
14.833000
70
192
0
VERTEX
8
OBJECT__19
10
42.306999
20
28.957001
30
14.696000
70
192
0
VERTEX
8
OBJECT__19
10
41.145000
20
29.737000
30
14.189000
70
192
0
VERTEX
8
OBJECT__19
10
39.764999
20
31.000999
30
13.422000
70
192
0
VERTEX
8
OBJECT__19
10
37.858002
20
33.792999
30
12.014000
70
192
0
VERTEX
8
OBJECT__19
10
43.500000
20
12.596000
30
15.258000
70
192
0
VERTEX
8
OBJECT__19
10
45.064999
20
27.782000
30
15.500000
70
192
0
VERTEX
8
OBJECT__19
10
43.811001
20
28.205000
30
15.205000
70
192
0
VERTEX
8
OBJECT__19
10
45.641998
20
27.671000
30
15.578000
70
192
0
VERTEX
8
OBJECT__19
10
46.743000
20
27.459999
30
15.728000
70
192
0
VERTEX
8
OBJECT__19
10
32.393002
20
24.191000
30
-2.500000
70
192
0
VERTEX
8
OBJECT__19
10
32.261002
20
24.191000
30
1.458000
70
192
0
VERTEX
8
OBJECT__19
10
32.425999
20
50.853001
30
0.000000
70
192
0
VERTEX
8
OBJECT__19
10
32.598999
20
50.853001
30
1.424000
70
192
0
VERTEX
8
OBJECT__19
10
32.877998
20
50.853001
30
-3.725000
70
192
0
VERTEX
8
OBJECT__19
10
32.389999
20
23.839001
30
-2.500000
70
192
0
VERTEX
8
OBJECT__19
10
32.353001
20
19.698000
30
-2.500000
70
192
0
VERTEX
8
OBJECT__19
10
32.374001
20
22.031000
30
-2.500000
70
192
0
VERTEX
8
OBJECT__19
10
32.318001
20
19.656000
30
1.459000
70
192
0
VERTEX
8
OBJECT__19
10
32.219002
20
19.541000
30
-1.449000
70
192
0
VERTEX
8
OBJECT__19
10
32.353001
20
19.698000
30
2.500000
70
192
0
VERTEX
8
OBJECT__19
10
32.389999
20
23.839001
30
2.500000
70
192
0
VERTEX
8
OBJECT__19
10
32.374001
20
22.031000
30
2.500000
70
192
0
VERTEX
8
OBJECT__19
10
32.393002
20
24.191000
30
2.500000
70
192
0
VERTEX
8
OBJECT__19
10
32.877998
20
50.853001
30
3.725000
70
192
0
VERTEX
8
OBJECT__19
10
63.646999
20
19.698000
30
-2.500000
70
192
0
VERTEX
8
OBJECT__19
10
63.780998
20
19.541000
30
1.449000
70
192
0
VERTEX
8
OBJECT__19
10
63.610001
20
23.839001
30
-2.500000
70
192
0
VERTEX
8
OBJECT__19
10
63.625999
20
22.031000
30
-2.500000
70
192
0
VERTEX
8
OBJECT__19
10
62.925999
20
50.853001
30
-4.242000
70
192
0
VERTEX
8
OBJECT__19
10
63.606998
20
24.191000
30
-2.500000
70
192
0
VERTEX
8
OBJECT__19
10
63.122002
20
50.853001
30
-3.725000
70
192
0
VERTEX
8
OBJECT__19
10
63.574001
20
50.853001
30
0.000000
70
192
0
VERTEX
8
OBJECT__19
10
63.738998
20
24.191000
30
1.458000
70
192
0
VERTEX
8
OBJECT__19
10
63.401001
20
50.853001
30
1.424000
70
192
0
VERTEX
8
OBJECT__19
10
63.122002
20
50.853001
30
3.725000
70
192
0
VERTEX
8
OBJECT__19
10
63.606998
20
24.191000
30
2.500000
70
192
0
VERTEX
8
OBJECT__19
10
63.610001
20
23.839001
30
2.500000
70
192
0
VERTEX
8
OBJECT__19
10
63.646999
20
19.698000
30
2.500000
70
192
0
VERTEX
8
OBJECT__19
10
63.625999
20
22.031000
30
2.500000
70
192
0
VERTEX
8
OBJECT__19
10
63.778999
20
19.542999
30
1.462000
70
192
0
VERTEX
8
OBJECT__19
10
42.200001
20
-4.404000
30
14.972000
70
192
0
VERTEX
8
OBJECT__19
10
42.208000
20
-2.004000
30
14.952000
70
192
0
VERTEX
8
OBJECT__19
10
37.196999
20
-2.004000
30
11.850000
70
192
0
VERTEX
8
OBJECT__19
10
35.613998
20
0.596000
30
10.148000
70
192
0
VERTEX
8
OBJECT__19
10
36.958000
20
2.596000
30
11.571000
70
192
0
VERTEX
8
OBJECT__19
10
37.213001
20
0.596000
30
11.833000
70
192
0
VERTEX
8
OBJECT__19
10
37.223999
20
2.596000
30
11.820000
70
192
0
VERTEX
8
OBJECT__19
10
35.613998
20
-0.706000
30
10.166000
70
192
0
VERTEX
8
OBJECT__19
10
35.613998
20
-2.004000
30
10.183000
70
192
0
VERTEX
8
OBJECT__19
10
37.182999
20
-4.404000
30
11.865000
70
192
0
VERTEX
8
OBJECT__19
10
42.216000
20
0.596000
30
14.931000
70
192
0
VERTEX
8
OBJECT__19
10
42.222000
20
2.596000
30
14.915000
70
192
0
VERTEX
8
OBJECT__19
10
44.900002
20
0.596000
30
15.709000
70
192
0
VERTEX
8
OBJECT__19
10
43.500000
20
2.596000
30
15.349000
70
192
0
VERTEX
8
OBJECT__19
10
48.000000
20
-4.404000
30
16.056000
70
192
0
VERTEX
8
OBJECT__19
10
44.900002
20
-2.004000
30
15.732000
70
192
0
VERTEX
8
OBJECT__19
10
44.900002
20
-0.701000
30
15.721000
70
192
0
VERTEX
8
OBJECT__19
10
43.500000
20
3.857000
30
15.337000
70
192
0
VERTEX
8
OBJECT__19
10
43.500000
20
7.462000
30
15.304000
70
192
0
VERTEX
8
OBJECT__19
10
45.054001
20
-2.004000
30
-15.762000
70
192
0
VERTEX
8
OBJECT__19
10
50.945999
20
-2.004000
30
-15.762000
70
192
0
VERTEX
8
OBJECT__19
10
48.000000
20
-4.404000
30
-16.056000
70
192
0
VERTEX
8
OBJECT__19
10
50.950001
20
-4.404000
30
-15.782000
70
192
0
VERTEX
8
OBJECT__19
10
51.000000
20
0.596000
30
-15.729000
70
192
0
VERTEX
8
OBJECT__19
10
52.500000
20
2.596000
30
-15.349000
70
192
0
VERTEX
8
OBJECT__19
10
51.000000
20
-1.676000
30
-15.749000
70
192
0
VERTEX
8
OBJECT__19
10
51.000000
20
-2.004000
30
-15.752000
70
192
0
VERTEX
8
OBJECT__19
10
52.500000
20
7.462000
30
-15.304000
70
192
0
VERTEX
8
OBJECT__19
10
52.500000
20
3.857000
30
-15.337000
70
192
0
VERTEX
8
OBJECT__19
10
50.942001
20
0.596000
30
-15.740000
70
192
0
VERTEX
8
OBJECT__19
10
45.057999
20
0.596000
30
-15.740000
70
192
0
VERTEX
8
OBJECT__19
10
43.500000
20
3.857000
30
-15.337000
70
192
0
VERTEX
8
OBJECT__19
10
43.500000
20
2.596000
30
-15.349000
70
192
0
VERTEX
8
OBJECT__19
10
45.049999
20
-4.404000
30
-15.782000
70
192
0
VERTEX
8
OBJECT__19
10
45.000000
20
-2.004000
30
-15.752000
70
192
0
VERTEX
8
OBJECT__19
10
39.580002
20
2.596000
30
-13.599000
70
192
0
VERTEX
8
OBJECT__19
10
45.000000
20
0.596000
30
-15.729000
70
192
0
VERTEX
8
OBJECT__19
10
45.000000
20
-1.676000
30
-15.749000
70
192
0
VERTEX
8
OBJECT__19
10
58.817001
20
-4.404000
30
11.865000
70
192
0
VERTEX
8
OBJECT__19
10
58.803001
20
-2.004000
30
11.850000
70
192
0
VERTEX
8
OBJECT__19
10
53.792000
20
-2.004000
30
14.952000
70
192
0
VERTEX
8
OBJECT__19
10
51.099998
20
0.596000
30
15.709000
70
192
0
VERTEX
8
OBJECT__19
10
52.500000
20
2.596000
30
15.349000
70
192
0
VERTEX
8
OBJECT__19
10
52.500000
20
3.857000
30
15.337000
70
192
0
VERTEX
8
OBJECT__19
10
51.099998
20
-0.701000
30
15.721000
70
192
0
VERTEX
8
OBJECT__19
10
51.099998
20
-2.004000
30
15.732000
70
192
0
VERTEX
8
OBJECT__19
10
53.799999
20
-4.404000
30
14.972000
70
192
0
VERTEX
8
OBJECT__19
10
53.784000
20
0.596000
30
14.931000
70
192
0
VERTEX
8
OBJECT__19
10
53.778000
20
2.596000
30
14.915000
70
192
0
VERTEX
8
OBJECT__19
10
58.786999
20
0.596000
30
11.833000
70
192
0
VERTEX
8
OBJECT__19
10
58.776001
20
2.596000
30
11.820000
70
192
0
VERTEX
8
OBJECT__19
10
60.386002
20
-2.004000
30
10.183000
70
192
0
VERTEX
8
OBJECT__19
10
60.386002
20
0.596000
30
10.148000
70
192
0
VERTEX
8
OBJECT__19
10
60.386002
20
-0.706000
30
10.166000
70
192
0
VERTEX
8
OBJECT__19
10
59.042000
20
2.596000
30
11.571000
70
192
0
VERTEX
8
OBJECT__19
10
59.004002
20
7.462000
30
11.549000
70
192
0
VERTEX
8
OBJECT__19
10
39.000000
20
50.853001
30
12.710000
70
192
0
VERTEX
8
OBJECT__19
10
0
20
0
30
0
70
128
71
1
72
2
73
3
0
VERTEX
8
OBJECT__19
10
0
20
0
30
0
70
128
71
3
72
4
73
1
0
VERTEX
8
OBJECT__19
10
0
20
0
30
0
70
128
71
5
72
6
73
7
0
VERTEX
8
OBJECT__19
10
0
20
0
30
0
70
128
71
6
72
8
73
7
0
VERTEX
8
OBJECT__19
10
0
20
0
30
0
70
128
71
9
72
10
73
11
0
VERTEX
8
OBJECT__19
10
0
20
0
30
0
70
128
71
12
72
13
73
11
0
VERTEX
8
OBJECT__19
10
0
20
0
30
0
70
128
71
14
72
12
73
1
0
VERTEX
8
OBJECT__19
10
0
20
0
30
0
70
128
71
15
72
16
73
6
0
VERTEX
8
OBJECT__19
10
0
20
0
30
0
70
128
71
17
72
15
73
5
0
VERTEX
8
OBJECT__19
10
0
20
0
30
0
70
128
71
18
72
17
73
19
0
VERTEX
8
OBJECT__19
10
0
20
0
30
0
70
128
71
20
72
21
73
22
0
VERTEX
8
OBJECT__19
10
0
20
0
30
0
70
128
71
20
72
23
73
21
0
VERTEX
8
OBJECT__19
10
0
20
0
30
0
70
128
71
20
72
24
73
23
0
VERTEX
8
OBJECT__19
10
0
20
0
30
0
70
128
71
25
72
26
73
27
0
VERTEX
8
OBJECT__19
10
0
20
0
30
0
70
128
71
28
72
29
73
30
0
VERTEX
8
OBJECT__19
10
0
20
0
30
0
70
128
71
28
72
31
73
29
0
VERTEX
8
OBJECT__19
10
0
20
0
30
0
70
128
71
30
72
25
73
28
0
VERTEX
8
OBJECT__19
10
0
20
0
30
0
70
128
71
30
72
26
73
25
0
VERTEX
8
OBJECT__19
10
0
20
0
30
0
70
128
71
28
72
32
73
33
0
VERTEX
8
OBJECT__19
10
0
20
0
30
0
70
128
71
33
72
31
73
28
0
VERTEX
8
OBJECT__19
10
0
20
0
30
0
70
128
71
34
72
35
73
36
0
VERTEX
8
OBJECT__19
10
0
20
0
30
0
70
128
71
36
72
37
73
34
0
VERTEX
8
OBJECT__19
10
0
20
0
30
0
70
128
71
37
72
38
73
34
0
VERTEX
8
OBJECT__19
10
0
20
0
30
0
70
128
71
6
72
16
73
39
0
VERTEX
8
OBJECT__19
10
0
20
0
30
0
70
128
71
40
72
41
73
39
0
VERTEX
8
OBJECT__19
10
0
20
0
30
0
70
128
71
39
72
16
73
40
0
VERTEX
8
OBJECT__19
10
0
20
0
30
0
70
128
71
42
72
43
73
44
0
VERTEX
8
OBJECT__19
10
0
20
0
30
0
70
128
71
44
72
45
73
42
0
VERTEX
8
OBJECT__19
10
0
20
0
30
0
70
128
71
8
72
46
73
43
0
VERTEX
8
OBJECT__19
10
0
20
0
30
0
70
128
71
8
72
47
73
48
0
VERTEX
8
OBJECT__19
10
0
20
0
30
0
70
128
71
48
72
46
73
8
0
VERTEX
8
OBJECT__19
10
0
20
0
30
0
70
128
71
8
72
49
73
47
0
VERTEX
8
OBJECT__19
10
0
20
0
30
0
70
128
71
8
72
50
73
51
0
VERTEX
8
OBJECT__19
10
0
20
0
30
0
70
128
71
50
72
52
73
53
0
VERTEX
8
OBJECT__19
10
0
20
0
30
0
70
128
71
53
72
51
73
50
0
VERTEX
8
OBJECT__19
10
0
20
0
30
0
70
128
71
51
72
49
73
8
0
VERTEX
8
OBJECT__19
10
0
20
0
30
0
70
128
71
50
72
54
73
55
0
VERTEX
8
OBJECT__19
10
0
20
0
30
0
70
128
71
55
72
56
73
50
0
VERTEX
8
OBJECT__19
10
0
20
0
30
0
70
128
71
56
72
57
73
50
0
VERTEX
8
OBJECT__19
10
0
20
0
30
0
70
128
71
57
72
58
73
50
0
VERTEX
8
OBJECT__19
10
0
20
0
30
0
70
128
71
58
72
52
73
50
0
VERTEX
8
OBJECT__19
10
0
20
0
30
0
70
128
71
6
72
59
73
50
0
VERTEX
8
OBJECT__19
10
0
20
0
30
0
70
128
71
50
72
8
73
6
0
VERTEX
8
OBJECT__19
10
0
20
0
30
0
70
128
71
25
72
60
73
61
0
VERTEX
8
OBJECT__19
10
0
20
0
30
0
70
128
71
54
72
62
73
63
0
VERTEX
8
OBJECT__19
10
0
20
0
30
0
70
128
71
54
72
64
73
62
0
VERTEX
8
OBJECT__19
10
0
20
0
30
0
70
128
71
54
72
65
73
64
0
VERTEX
8
OBJECT__19
10
0
20
0
30
0
70
128
71
63
72
66
73
54
0
VERTEX
8
OBJECT__19
10
0
20
0
30
0
70
128
71
54
72
61
73
60
0
VERTEX
8
OBJECT__19
10
0
20
0
30
0
70
128
71
60
72
65
73
54
0
VERTEX
8
OBJECT__19
10
0
20
0
30
0
70
128
71
66
72
67
73
54
0
VERTEX
8
OBJECT__19
10
0
20
0
30
0
70
128
71
67
72
55
73
54
0
VERTEX
8
OBJECT__19
10
0
20
0
30
0
70
128
71
68
72
69
73
32
0
VERTEX
8
OBJECT__19
10
0
20
0
30
0
70
128
71
68
72
70
73
71
0
VERTEX
8
OBJECT__19
10
0
20
0
30
0
70
128
71
68
72
72
73
73
0
VERTEX
8
OBJECT__19
10
0
20
0
30
0
70
128
71
73
72
70
73
68
0
VERTEX
8
OBJECT__19
10
0
20
0
30
0
70
128
71
68
72
74
73
72
0
VERTEX
8
OBJECT__19
10
0
20
0
30
0
70
128
71
71
72
75
73
68
0
VERTEX
8
OBJECT__19
10
0
20
0
30
0
70
128
71
75
72
69
73
68
0
VERTEX
8
OBJECT__19
10
0
20
0
30
0
70
128
71
28
72
76
73
77
0
VERTEX
8
OBJECT__19
10
0
20
0
30
0
70
128
71
77
72
32
73
28
0
VERTEX
8
OBJECT__19
10
0
20
0
30
0
70
128
71
4
72
78
73
79
0
VERTEX
8
OBJECT__19
10
0
20
0
30
0
70
128
71
79
72
80
73
74
0
VERTEX
8
OBJECT__19
10
0
20
0
30
0
70
128
71
79
72
81
73
82
0
VERTEX
8
OBJECT__19
10
0
20
0
30
0
70
128
71
82
72
80
73
79
0
VERTEX
8
OBJECT__19
10
0
20
0
30
0
70
128
71
79
72
83
73
84
0
VERTEX
8
OBJECT__19
10
0
20
0
30
0
70
128
71
84
72
81
73
79
0
VERTEX
8
OBJECT__19
10
0
20
0
30
0
70
128
71
78
72
85
73
83
0
VERTEX
8
OBJECT__19
10
0
20
0
30
0
70
128
71
78
72
86
73
85
0
VERTEX
8
OBJECT__19
10
0
20
0
30
0
70
128
71
83
72
79
73
78
0
VERTEX
8
OBJECT__19
10
0
20
0
30
0
70
128
71
78
72
87
73
88
0
VERTEX
8
OBJECT__19
10
0
20
0
30
0
70
128
71
89
72
90
73
91
0
VERTEX
8
OBJECT__19
10
0
20
0
30
0
70
128
71
87
72
78
73
89
0
VERTEX
8
OBJECT__19
10
0
20
0
30
0
70
128
71
91
72
87
73
89
0
VERTEX
8
OBJECT__19
10
0
20
0
30
0
70
128
71
88
72
92
73
78
0
VERTEX
8
OBJECT__19
10
0
20
0
30
0
70
128
71
92
72
93
73
78
0
VERTEX
8
OBJECT__19
10
0
20
0
30
0
70
128
71
93
72
86
73
78
0
VERTEX
8
OBJECT__19
10
0
20
0
30
0
70
128
71
74
72
68
73
79
0
VERTEX
8
OBJECT__19
10
0
20
0
30
0
70
128
71
94
72
14
73
95
0
VERTEX
8
OBJECT__19
10
0
20
0
30
0
70
128
71
4
72
96
73
95
0
VERTEX
8
OBJECT__19
10
0
20
0
30
0
70
128
71
95
72
14
73
4
0
VERTEX
8
OBJECT__19
10
0
20
0
30
0
70
128
71
97
72
98
73
99
0
VERTEX
8
OBJECT__19
10
0
20
0
30
0
70
128
71
100
72
101
73
97
0
VERTEX
8
OBJECT__19
10
0
20
0
30
0
70
128
71
100
72
102
73
103
0
VERTEX
8
OBJECT__19
10
0
20
0
30
0
70
128
71
100
72
104
73
102
0
VERTEX
8
OBJECT__19
10
0
20
0
30
0
70
128
71
103
72
101
73
100
0
VERTEX
8
OBJECT__19
10
0
20
0
30
0
70
128
71
99
72
100
73
97
0
VERTEX
8
OBJECT__19
10
0
20
0
30
0
70
128
71
98
72
105
73
99
0
VERTEX
8
OBJECT__19
10
0
20
0
30
0
70
128
71
106
72
107
73
99
0
VERTEX
8
OBJECT__19
10
0
20
0
30
0
70
128
71
99
72
108
73
106
0
VERTEX
8
OBJECT__19
10
0
20
0
30
0
70
128
71
109
72
110
73
104
0
VERTEX
8
OBJECT__19
10
0
20
0
30
0
70
128
71
109
72
111
73
110
0
VERTEX
8
OBJECT__19
10
0
20
0
30
0
70
128
71
109
72
112
73
113
0
VERTEX
8
OBJECT__19
10
0
20
0
30
0
70
128
71
109
72
114
73
112
0
VERTEX
8
OBJECT__19
10
0
20
0
30
0
70
128
71
113
72
111
73
109
0
VERTEX
8
OBJECT__19
10
0
20
0
30
0
70
128
71
109
72
115
73
116
0
VERTEX
8
OBJECT__19
10
0
20
0
30
0
70
128
71
116
72
114
73
109
0
VERTEX
8
OBJECT__19
10
0
20
0
30
0
70
128
71
109
72
117
73
115
0
VERTEX
8
OBJECT__19
10
0
20
0
30
0
70
128
71
118
72
119
73
120
0
VERTEX
8
OBJECT__19
10
0
20
0
30
0
70
128
71
120
72
121
73
117
0
VERTEX
8
OBJECT__19
10
0
20
0
30
0
70
128
71
120
72
119
73
122
0
VERTEX
8
OBJECT__19
10
0
20
0
30
0
70
128
71
122
72
123
73
120
0
VERTEX
8
OBJECT__19
10
0
20
0
30
0
70
128
71
123
72
121
73
120
0
VERTEX
8
OBJECT__19
10
0
20
0
30
0
70
128
71
119
72
124
73
125
0
VERTEX
8
OBJECT__19
10
0
20
0
30
0
70
128
71
126
72
34
73
127
0
VERTEX
8
OBJECT__19
10
0
20
0
30
0
70
128
71
124
72
128
73
126
0
VERTEX
8
OBJECT__19
10
0
20
0
30
0
70
128
71
124
72
119
73
128
0
VERTEX
8
OBJECT__19
10
0
20
0
30
0
70
128
71
127
72
124
73
126
0
VERTEX
8
OBJECT__19
10
0
20
0
30
0
70
128
71
125
72
129
73
119
0
VERTEX
8
OBJECT__19
10
0
20
0
30
0
70
128
71
129
72
130
73
119
0
VERTEX
8
OBJECT__19
10
0
20
0
30
0
70
128
71
130
72
122
73
119
0
VERTEX
8
OBJECT__19
10
0
20
0
30
0
70
128
71
117
72
109
73
120
0
VERTEX
8
OBJECT__19
10
0
20
0
30
0
70
128
71
131
72
132
73
24
0
VERTEX
8
OBJECT__19
10
0
20
0
30
0
70
128
71
131
72
133
73
132
0
VERTEX
8
OBJECT__19
10
0
20
0
30
0
70
128
71
24
72
20
73
131
0
VERTEX
8
OBJECT__19
10
0
20
0
30
0
70
128
71
131
72
134
73
133
0
VERTEX
8
OBJECT__19
10
0
20
0
30
0
70
128
71
135
72
136
73
133
0
VERTEX
8
OBJECT__19
10
0
20
0
30
0
70
128
71
135
72
137
73
136
0
VERTEX
8
OBJECT__19
10
0
20
0
30
0
70
128
71
138
72
139
73
140
0
VERTEX
8
OBJECT__19
10
0
20
0
30
0
70
128
71
138
72
141
73
139
0
VERTEX
8
OBJECT__19
10
0
20
0
30
0
70
128
71
138
72
142
73
143
0
VERTEX
8
OBJECT__19
10
0
20
0
30
0
70
128
71
143
72
144
73
138
0
VERTEX
8
OBJECT__19
10
0
20
0
30
0
70
128
71
144
72
141
73
138
0
VERTEX
8
OBJECT__19
10
0
20
0
30
0
70
128
71
140
72
135
73
138
0
VERTEX
8
OBJECT__19
10
0
20
0
30
0
70
128
71
140
72
137
73
135
0
VERTEX
8
OBJECT__19
10
0
20
0
30
0
70
128
71
10
72
145
73
138
0
VERTEX
8
OBJECT__19
10
0
20
0
30
0
70
128
71
138
72
135
73
10
0
VERTEX
8
OBJECT__19
10
0
20
0
30
0
70
128
71
142
72
146
73
147
0
VERTEX
8
OBJECT__19
10
0
20
0
30
0
70
128
71
142
72
148
73
149
0
VERTEX
8
OBJECT__19
10
0
20
0
30
0
70
128
71
142
72
150
73
151
0
VERTEX
8
OBJECT__19
10
0
20
0
30
0
70
128
71
151
72
148
73
142
0
VERTEX
8
OBJECT__19
10
0
20
0
30
0
70
128
71
149
72
152
73
142
0
VERTEX
8
OBJECT__19
10
0
20
0
30
0
70
128
71
152
72
153
73
142
0
VERTEX
8
OBJECT__19
10
0
20
0
30
0
70
128
71
153
72
146
73
142
0
VERTEX
8
OBJECT__19
10
0
20
0
30
0
70
128
71
147
72
154
73
142
0
VERTEX
8
OBJECT__19
10
0
20
0
30
0
70
128
71
106
72
108
73
155
0
VERTEX
8
OBJECT__19
10
0
20
0
30
0
70
128
71
150
72
156
73
157
0
VERTEX
8
OBJECT__19
10
0
20
0
30
0
70
128
71
158
72
150
73
155
0
VERTEX
8
OBJECT__19
10
0
20
0
30
0
70
128
71
155
72
159
73
158
0
VERTEX
8
OBJECT__19
10
0
20
0
30
0
70
128
71
158
72
156
73
150
0
VERTEX
8
OBJECT__19
10
0
20
0
30
0
70
128
71
155
72
108
73
159
0
VERTEX
8
OBJECT__19
10
0
20
0
30
0
70
128
71
157
72
151
73
150
0
VERTEX
8
OBJECT__19
10
0
20
0
30
0
70
128
71
160
72
161
73
162
0
VERTEX
8
OBJECT__19
10
0
20
0
30
0
70
128
71
161
72
163
73
162
0
VERTEX
8
OBJECT__19
10
0
20
0
30
0
70
128
71
162
72
164
73
160
0
VERTEX
8
OBJECT__19
10
0
20
0
30
0
70
128
71
1
72
165
73
160
0
VERTEX
8
OBJECT__19
10
0
20
0
30
0
70
128
71
1
72
166
73
167
0
VERTEX
8
OBJECT__19
10
0
20
0
30
0
70
128
71
167
72
165
73
1
0
VERTEX
8
OBJECT__19
10
0
20
0
30
0
70
128
71
11
72
168
73
169
0
VERTEX
8
OBJECT__19
10
0
20
0
30
0
70
128
71
169
72
1
73
11
0
VERTEX
8
OBJECT__19
10
0
20
0
30
0
70
128
71
169
72
166
73
1
0
VERTEX
8
OBJECT__19
10
0
20
0
30
0
70
128
71
160
72
2
73
1
0
VERTEX
8
OBJECT__19
10
0
20
0
30
0
70
128
71
11
72
10
73
170
0
VERTEX
8
OBJECT__19
10
0
20
0
30
0
70
128
71
10
72
171
73
172
0
VERTEX
8
OBJECT__19
10
0
20
0
30
0
70
128
71
10
72
135
73
173
0
VERTEX
8
OBJECT__19
10
0
20
0
30
0
70
128
71
173
72
171
73
10
0
VERTEX
8
OBJECT__19
10
0
20
0
30
0
70
128
71
172
72
170
73
10
0
VERTEX
8
OBJECT__19
10
0
20
0
30
0
70
128
71
163
72
161
73
173
0
VERTEX
8
OBJECT__19
10
0
20
0
30
0
70
128
71
173
72
135
73
174
0
VERTEX
8
OBJECT__19
10
0
20
0
30
0
70
128
71
173
72
174
73
163
0
VERTEX
8
OBJECT__19
10
0
20
0
30
0
70
128
71
19
72
5
73
175
0
VERTEX
8
OBJECT__19
10
0
20
0
30
0
70
128
71
175
72
176
73
19
0
VERTEX
8
OBJECT__19
10
0
20
0
30
0
70
128
71
5
72
177
73
178
0
VERTEX
8
OBJECT__19
10
0
20
0
30
0
70
128
71
5
72
179
73
180
0
VERTEX
8
OBJECT__19
10
0
20
0
30
0
70
128
71
180
72
177
73
5
0
VERTEX
8
OBJECT__19
10
0
20
0
30
0
70
128
71
178
72
175
73
5
0
VERTEX
8
OBJECT__19
10
0
20
0
30
0
70
128
71
180
72
181
73
182
0
VERTEX
8
OBJECT__19
10
0
20
0
30
0
70
128
71
182
72
183
73
180
0
VERTEX
8
OBJECT__19
10
0
20
0
30
0
70
128
71
180
72
179
73
181
0
VERTEX
8
OBJECT__19
10
0
20
0
30
0
70
128
71
182
72
184
73
183
0
VERTEX
8
OBJECT__19
10
0
20
0
30
0
70
128
71
184
72
185
73
186
0
VERTEX
8
OBJECT__19
10
0
20
0
30
0
70
128
71
186
72
183
73
184
0
VERTEX
8
OBJECT__19
10
0
20
0
30
0
70
128
71
118
72
187
73
186
0
VERTEX
8
OBJECT__19
10
0
20
0
30
0
70
128
71
118
72
188
73
189
0
VERTEX
8
OBJECT__19
10
0
20
0
30
0
70
128
71
189
72
187
73
118
0
VERTEX
8
OBJECT__19
10
0
20
0
30
0
70
128
71
19
72
190
73
188
0
VERTEX
8
OBJECT__19
10
0
20
0
30
0
70
128
71
188
72
118
73
19
0
VERTEX
8
OBJECT__19
10
0
20
0
30
0
70
128
71
186
72
119
73
118
0
VERTEX
8
OBJECT__19
10
0
20
0
30
0
70
128
71
191
72
192
73
193
0
VERTEX
8
OBJECT__19
10
0
20
0
30
0
70
128
71
10
72
194
73
195
0
VERTEX
8
OBJECT__19
10
0
20
0
30
0
70
128
71
196
72
197
73
195
0
VERTEX
8
OBJECT__19
10
0
20
0
30
0
70
128
71
195
72
194
73
196
0
VERTEX
8
OBJECT__19
10
0
20
0
30
0
70
128
71
9
72
198
73
194
0
VERTEX
8
OBJECT__19
10
0
20
0
30
0
70
128
71
9
72
199
73
198
0
VERTEX
8
OBJECT__19
10
0
20
0
30
0
70
128
71
200
72
193
73
199
0
VERTEX
8
OBJECT__19
10
0
20
0
30
0
70
128
71
199
72
9
73
200
0
VERTEX
8
OBJECT__19
10
0
20
0
30
0
70
128
71
194
72
10
73
9
0
VERTEX
8
OBJECT__19
10
0
20
0
30
0
70
128
71
196
72
201
73
202
0
VERTEX
8
OBJECT__19
10
0
20
0
30
0
70
128
71
201
72
203
73
204
0
VERTEX
8
OBJECT__19
10
0
20
0
30
0
70
128
71
191
72
205
73
206
0
VERTEX
8
OBJECT__19
10
0
20
0
30
0
70
128
71
205
72
106
73
203
0
VERTEX
8
OBJECT__19
10
0
20
0
30
0
70
128
71
203
72
207
73
205
0
VERTEX
8
OBJECT__19
10
0
20
0
30
0
70
128
71
106
72
208
73
204
0
VERTEX
8
OBJECT__19
10
0
20
0
30
0
70
128
71
106
72
209
73
208
0
VERTEX
8
OBJECT__19
10
0
20
0
30
0
70
128
71
204
72
203
73
106
0
VERTEX
8
OBJECT__19
10
0
20
0
30
0
70
128
71
207
72
206
73
205
0
VERTEX
8
OBJECT__19
10
0
20
0
30
0
70
128
71
206
72
192
73
191
0
VERTEX
8
OBJECT__19
10
0
20
0
30
0
70
128
71
210
72
211
73
212
0
VERTEX
8
OBJECT__19
10
0
20
0
30
0
70
128
71
211
72
213
73
212
0
VERTEX
8
OBJECT__19
10
0
20
0
30
0
70
128
71
40
72
214
73
215
0
VERTEX
8
OBJECT__19
10
0
20
0
30
0
70
128
71
40
72
216
73
214
0
VERTEX
8
OBJECT__19
10
0
20
0
30
0
70
128
71
40
72
217
73
216
0
VERTEX
8
OBJECT__19
10
0
20
0
30
0
70
128
71
213
72
211
73
217
0
VERTEX
8
OBJECT__19
10
0
20
0
30
0
70
128
71
217
72
40
73
213
0
VERTEX
8
OBJECT__19
10
0
20
0
30
0
70
128
71
215
72
41
73
40
0
VERTEX
8
OBJECT__19
10
0
20
0
30
0
70
128
71
25
72
218
73
219
0
VERTEX
8
OBJECT__19
10
0
20
0
30
0
70
128
71
219
72
220
73
25
0
VERTEX
8
OBJECT__19
10
0
20
0
30
0
70
128
71
219
72
215
73
220
0
VERTEX
8
OBJECT__19
10
0
20
0
30
0
70
128
71
220
72
221
73
28
0
VERTEX
8
OBJECT__19
10
0
20
0
30
0
70
128
71
28
72
221
73
222
0
VERTEX
8
OBJECT__19
10
0
20
0
30
0
70
128
71
221
72
223
73
222
0
VERTEX
8
OBJECT__19
10
0
20
0
30
0
70
128
71
224
72
94
73
225
0
VERTEX
8
OBJECT__19
10
0
20
0
30
0
70
128
71
94
72
226
73
223
0
VERTEX
8
OBJECT__19
10
0
20
0
30
0
70
128
71
223
72
227
73
94
0
VERTEX
8
OBJECT__19
10
0
20
0
30
0
70
128
71
227
72
228
73
94
0
VERTEX
8
OBJECT__19
10
0
20
0
30
0
70
128
71
228
72
225
73
94
0
VERTEX
8
OBJECT__19
10
0
20
0
30
0
70
128
71
223
72
221
73
227
0
VERTEX
8
OBJECT__19
10
0
20
0
30
0
70
128
71
225
72
210
73
224
0
VERTEX
8
OBJECT__19
10
0
20
0
30
0
70
128
71
229
72
230
73
231
0
VERTEX
8
OBJECT__19
10
0
20
0
30
0
70
128
71
106
72
232
73
233
0
VERTEX
8
OBJECT__19
10
0
20
0
30
0
70
128
71
233
72
234
73
106
0
VERTEX
8
OBJECT__19
10
0
20
0
30
0
70
128
71
205
72
235
73
232
0
VERTEX
8
OBJECT__19
10
0
20
0
30
0
70
128
71
205
72
236
73
235
0
VERTEX
8
OBJECT__19
10
0
20
0
30
0
70
128
71
232
72
106
73
205
0
VERTEX
8
OBJECT__19
10
0
20
0
30
0
70
128
71
237
72
231
73
236
0
VERTEX
8
OBJECT__19
10
0
20
0
30
0
70
128
71
236
72
205
73
237
0
VERTEX
8
OBJECT__19
10
0
20
0
30
0
70
128
71
238
72
239
73
233
0
VERTEX
8
OBJECT__19
10
0
20
0
30
0
70
128
71
233
72
232
73
238
0
VERTEX
8
OBJECT__19
10
0
20
0
30
0
70
128
71
240
72
241
73
239
0
VERTEX
8
OBJECT__19
10
0
20
0
30
0
70
128
71
229
72
18
73
242
0
VERTEX
8
OBJECT__19
10
0
20
0
30
0
70
128
71
18
72
118
73
243
0
VERTEX
8
OBJECT__19
10
0
20
0
30
0
70
128
71
243
72
244
73
18
0
VERTEX
8
OBJECT__19
10
0
20
0
30
0
70
128
71
244
72
242
73
18
0
VERTEX
8
OBJECT__19
10
0
20
0
30
0
70
128
71
240
72
243
73
245
0
VERTEX
8
OBJECT__19
10
0
20
0
30
0
70
128
71
118
72
246
73
245
0
VERTEX
8
OBJECT__19
10
0
20
0
30
0
70
128
71
245
72
243
73
118
0
VERTEX
8
OBJECT__19
10
0
20
0
30
0
70
128
71
245
72
241
73
240
0
VERTEX
8
OBJECT__19
10
0
20
0
30
0
70
128
71
242
72
230
73
229
0
VERTEX
8
OBJECT__19
10
0
20
0
30
0
70
128
71
239
72
238
73
240
0
VERTEX
8
OBJECT__19
10
0
20
0
30
0
70
128
71
234
72
107
73
106
0
VERTEX
8
OBJECT__19
10
0
20
0
30
0
70
128
71
231
72
237
73
229
0
VERTEX
8
OBJECT__19
10
0
20
0
30
0
70
128
71
222
72
76
73
28
0
VERTEX
8
OBJECT__19
10
0
20
0
30
0
70
128
71
28
72
25
73
220
0
VERTEX
8
OBJECT__19
10
0
20
0
30
0
70
128
71
214
72
220
73
215
0
VERTEX
8
OBJECT__19
10
0
20
0
30
0
70
128
71
212
72
224
73
210
0
VERTEX
8
OBJECT__19
10
0
20
0
30
0
70
128
71
204
72
202
73
201
0
VERTEX
8
OBJECT__19
10
0
20
0
30
0
70
128
71
202
72
197
73
196
0
VERTEX
8
OBJECT__19
10
0
20
0
30
0
70
128
71
195
72
145
73
10
0
VERTEX
8
OBJECT__19
10
0
20
0
30
0
70
128
71
193
72
200
73
191
0
VERTEX
8
OBJECT__19
10
0
20
0
30
0
70
128
71
185
72
119
73
186
0
VERTEX
8
OBJECT__19
10
0
20
0
30
0
70
128
71
176
72
190
73
19
0
VERTEX
8
OBJECT__19
10
0
20
0
30
0
70
128
71
170
72
168
73
11
0
VERTEX
8
OBJECT__19
10
0
20
0
30
0
70
128
71
164
72
2
73
160
0
VERTEX
8
OBJECT__19
10
0
20
0
30
0
70
128
71
155
72
209
73
106
0
VERTEX
8
OBJECT__19
10
0
20
0
30
0
70
128
71
154
72
143
73
142
0
VERTEX
8
OBJECT__19
10
0
20
0
30
0
70
128
71
134
72
135
73
133
0
VERTEX
8
OBJECT__19
10
0
20
0
30
0
70
128
71
120
72
246
73
118
0
VERTEX
8
OBJECT__19
10
0
20
0
30
0
70
128
71
104
72
100
73
109
0
VERTEX
8
OBJECT__19
10
0
20
0
30
0
70
128
71
105
72
108
73
99
0
VERTEX
8
OBJECT__19
10
0
20
0
30
0
70
128
71
95
72
226
73
94
0
VERTEX
8
OBJECT__19
10
0
20
0
30
0
70
128
71
79
72
96
73
4
0
VERTEX
8
OBJECT__19
10
0
20
0
30
0
70
128
71
32
72
77
73
68
0
VERTEX
8
OBJECT__19
10
0
20
0
30
0
70
128
71
61
72
218
73
25
0
VERTEX
8
OBJECT__19
10
0
20
0
30
0
70
128
71
42
72
8
73
43
0
VERTEX
8
OBJECT__19
10
0
20
0
30
0
70
128
71
39
72
59
73
6
0
VERTEX
8
OBJECT__19
10
0
20
0
30
0
70
128
71
38
72
127
73
34
0
VERTEX
8
OBJECT__19
10
0
20
0
30
0
70
128
71
27
72
60
73
25
0
VERTEX
8
OBJECT__19
10
0
20
0
30
0
70
128
71
22
72
247
73
20
0
VERTEX
8
OBJECT__19
10
0
20
0
30
0
70
128
71
19
72
118
73
18
0
VERTEX
8
OBJECT__19
10
0
20
0
30
0
70
128
71
5
72
19
73
17
0
VERTEX
8
OBJECT__19
10
0
20
0
30
0
70
128
71
6
72
5
73
15
0
VERTEX
8
OBJECT__19
10
0
20
0
30
0
70
128
71
1
72
4
73
14
0
VERTEX
8
OBJECT__19
10
0
20
0
30
0
70
128
71
11
72
1
73
12
0
VERTEX
8
OBJECT__19
10
0
20
0
30
0
70
128
71
11
72
13
73
9
0
VERTEX
8
OBJECT__19
10
0
20
0
30
0
70
128
71
7
72
179
73
5
0
VERTEX
8
OBJECT__19
10
0
20
0
30
0
70
128
71
3
72
78
73
4
0
SEQEND
8
OBJECT__19
0
POLYLINE
8
OBJECT__21
66
1
70
64
71
100
72
98
62
253
0
VERTEX
8
OBJECT__21
10
57.000000
20
45.029999
30
1.625000
70
192
0
VERTEX
8
OBJECT__21
10
58.136002
20
44.160000
30
11.900000
70
192
0
VERTEX
8
OBJECT__21
10
57.985001
20
44.459000
30
12.024000
70
192
0
VERTEX
8
OBJECT__21
10
58.762001
20
42.602001
30
11.356000
70
192
0
VERTEX
8
OBJECT__21
10
58.534000
20
43.169998
30
11.555000
70
192
0
VERTEX
8
OBJECT__21
10
57.723999
20
41.771000
30
-12.266000
70
192
0
VERTEX
8
OBJECT__21
10
58.886002
20
42.105000
30
11.241000
70
192
0
VERTEX
8
OBJECT__21
10
57.723000
20
41.775002
30
-12.267000
70
192
0
VERTEX
8
OBJECT__21
10
57.000000
20
43.540001
30
-12.788000
70
192
0
VERTEX
8
OBJECT__21
10
57.125000
20
43.293999
30
-12.701000
70
192
0
VERTEX
8
OBJECT__21
10
59.137001
20
41.099998
30
11.007000
70
192
0
VERTEX
8
OBJECT__21
10
57.963001
20
40.793999
30
-12.084000
70
192
0
VERTEX
8
OBJECT__21
10
59.317001
20
39.497002
30
10.842000
70
192
0
VERTEX
8
OBJECT__21
10
59.285000
20
37.945000
30
10.896000
70
192
0
VERTEX
8
OBJECT__21
10
58.130001
20
39.262001
30
-11.962000
70
192
0
VERTEX
8
OBJECT__21
10
58.104000
20
38.227001
30
-11.995000
70
192
0
VERTEX
8
OBJECT__21
10
58.014000
20
37.653000
30
-12.076000
70
192
0
VERTEX
8
OBJECT__21
10
59.214001
20
37.493999
30
10.973000
70
192
0
VERTEX
8
OBJECT__21
10
57.754002
20
33.092999
30
12.334000
70
192
0
VERTEX
8
OBJECT__21
10
57.449001
20
35.398998
30
-12.549000
70
192
0
VERTEX
8
OBJECT__21
10
56.736000
20
33.956001
30
-13.071000
70
192
0
VERTEX
8
OBJECT__21
10
57.868000
20
36.726002
30
-12.208000
70
192
0
VERTEX
8
OBJECT__21
10
59.021999
20
36.282001
30
11.181000
70
192
0
VERTEX
8
OBJECT__21
10
58.483002
20
34.563000
30
11.708000
70
192
0
VERTEX
8
OBJECT__21
10
58.584000
20
34.883999
30
11.610000
70
192
0
VERTEX
8
OBJECT__21
10
57.653999
20
32.893002
30
12.419000
70
192
0
VERTEX
8
OBJECT__21
10
55.701000
20
32.532001
30
-13.720000
70
192
0
VERTEX
8
OBJECT__21
10
54.429001
20
31.308001
30
-14.372000
70
192
0
VERTEX
8
OBJECT__21
10
56.272999
20
33.319000
30
-13.361000
70
192
0
VERTEX
8
OBJECT__21
10
56.611000
20
33.785000
30
-13.149000
70
192
0
VERTEX
8
OBJECT__21
10
53.773998
20
30.834999
30
-14.645000
70
192
0
VERTEX
8
OBJECT__21
10
54.640999
20
29.613001
30
14.272000
70
192
0
VERTEX
8
OBJECT__21
10
55.082001
20
29.917999
30
14.075000
70
192
0
VERTEX
8
OBJECT__21
10
56.376999
20
31.158001
30
13.332000
70
192
0
VERTEX
8
OBJECT__21
10
56.556999
20
31.364000
30
13.215000
70
192
0
VERTEX
8
OBJECT__21
10
53.693001
20
28.957001
30
14.697000
70
192
0
VERTEX
8
OBJECT__21
10
52.514000
20
30.087000
30
-15.094000
70
192
0
VERTEX
8
OBJECT__21
10
50.938999
20
29.471001
30
-15.484000
70
192
0
VERTEX
8
OBJECT__21
10
53.527000
20
30.658001
30
-14.748000
70
192
0
VERTEX
8
OBJECT__21
10
50.896000
20
29.461000
30
-15.490000
70
192
0
VERTEX
8
OBJECT__21
10
50.360001
20
27.658001
30
15.587000
70
192
0
VERTEX
8
OBJECT__21
10
51.599998
20
27.986000
30
15.357000
70
192
0
VERTEX
8
OBJECT__21
10
53.159000
20
28.652000
30
14.899000
70
192
0
VERTEX
8
OBJECT__21
10
53.618999
20
28.905001
30
14.730000
70
192
0
VERTEX
8
OBJECT__21
10
49.650002
20
29.174999
30
-15.676000
70
192
0
VERTEX
8
OBJECT__21
10
50.087002
20
27.586000
30
15.638000
70
192
0
VERTEX
8
OBJECT__21
10
48.000000
20
27.412001
30
15.762000
70
192
0
VERTEX
8
OBJECT__21
10
48.410000
20
27.396999
30
15.773000
70
192
0
VERTEX
8
OBJECT__21
10
46.743000
20
27.459999
30
15.728000
70
192
0
VERTEX
8
OBJECT__21
10
46.176998
20
29.205000
30
-15.657000
70
192
0
VERTEX
8
OBJECT__21
10
45.973999
20
29.259001
30
-15.622000
70
192
0
VERTEX
8
OBJECT__21
10
45.641998
20
27.671000
30
15.578000
70
192
0
VERTEX
8
OBJECT__21
10
47.801998
20
29.044001
30
-15.763000
70
192
0
VERTEX
8
OBJECT__21
10
48.007999
20
29.042000
30
-15.764000
70
192
0
VERTEX
8
OBJECT__21
10
45.106998
20
29.488001
30
-15.474000
70
192
0
VERTEX
8
OBJECT__21
10
43.811001
20
28.205000
30
15.205000
70
192
0
VERTEX
8
OBJECT__21
10
45.064999
20
27.782000
30
15.500000
70
192
0
VERTEX
8
OBJECT__21
10
42.306999
20
28.957001
30
14.696000
70
192
0
VERTEX
8
OBJECT__21
10
43.088001
20
30.294001
30
-14.968000
70
192
0
VERTEX
8
OBJECT__21
10
42.237000
20
30.853001
30
-14.638000
70
192
0
VERTEX
8
OBJECT__21
10
41.348999
20
29.598000
30
14.279000
70
192
0
VERTEX
8
OBJECT__21
10
42.220001
20
29.000999
30
14.667000
70
192
0
VERTEX
8
OBJECT__21
10
44.596001
20
29.622000
30
-15.387000
70
192
0
VERTEX
8
OBJECT__21
10
39.401001
20
33.735001
30
-13.163000
70
192
0
VERTEX
8
OBJECT__21
10
39.764999
20
31.000999
30
13.422000
70
192
0
VERTEX
8
OBJECT__21
10
41.145000
20
29.737000
30
14.189000
70
192
0
VERTEX
8
OBJECT__21
10
38.736000
20
32.285999
30
12.720000
70
192
0
VERTEX
8
OBJECT__21
10
39.377998
20
33.777000
30
-13.147000
70
192
0
VERTEX
8
OBJECT__21
10
38.259998
20
33.102001
30
12.337000
70
192
0
VERTEX
8
OBJECT__21
10
40.474998
20
32.334999
30
-13.819000
70
192
0
VERTEX
8
OBJECT__21
10
39.727001
20
33.310001
30
-13.362000
70
192
0
VERTEX
8
OBJECT__21
10
41.686001
20
31.216000
30
-14.424000
70
192
0
VERTEX
8
OBJECT__21
10
41.410999
20
31.440001
30
-14.298000
70
192
0
VERTEX
8
OBJECT__21
10
37.972000
20
37.553001
30
-12.067000
70
192
0
VERTEX
8
OBJECT__21
10
37.018002
20
36.113998
30
11.223000
70
192
0
VERTEX
8
OBJECT__21
10
37.221001
20
35.390999
30
11.427000
70
192
0
VERTEX
8
OBJECT__21
10
37.966000
20
37.648998
30
-12.060000
70
192
0
VERTEX
8
OBJECT__21
10
36.775002
20
37.493000
30
10.962000
70
192
0
VERTEX
8
OBJECT__21
10
38.179001
20
36.540001
30
-12.247000
70
192
0
VERTEX
8
OBJECT__21
10
37.417999
20
34.896999
30
11.608000
70
192
0
VERTEX
8
OBJECT__21
10
37.858002
20
33.792999
30
12.014000
70
192
0
VERTEX
8
OBJECT__21
10
38.728001
20
34.980999
30
-12.685000
70
192
0
VERTEX
8
OBJECT__21
10
37.867001
20
39.084999
30
-11.961000
70
192
0
VERTEX
8
OBJECT__21
10
36.671001
20
38.973999
30
10.837000
70
192
0
VERTEX
8
OBJECT__21
10
36.738998
20
37.698002
30
10.923000
70
192
0
VERTEX
8
OBJECT__21
10
37.109001
20
42.105000
30
11.235000
70
192
0
VERTEX
8
OBJECT__21
10
37.933998
20
40.126999
30
-12.006000
70
192
0
VERTEX
8
OBJECT__21
10
38.231998
20
41.619999
30
-12.232000
70
192
0
VERTEX
8
OBJECT__21
10
36.783001
20
40.597000
30
10.932000
70
192
0
VERTEX
8
OBJECT__21
10
37.022999
20
41.847000
30
11.158000
70
192
0
VERTEX
8
OBJECT__21
10
38.278000
20
41.770000
30
-12.267000
70
192
0
VERTEX
8
OBJECT__21
10
38.366001
20
42.056000
30
-12.334000
70
192
0
VERTEX
8
OBJECT__21
10
39.000000
20
45.029999
30
1.625000
70
192
0
VERTEX
8
OBJECT__21
10
37.578999
20
43.528000
30
11.659000
70
192
0
VERTEX
8
OBJECT__21
10
37.465000
20
43.183998
30
11.556000
70
192
0
VERTEX
8
OBJECT__21
10
39.000000
20
46.021999
30
12.761000
70
192
0
VERTEX
8
OBJECT__21
10
38.369999
20
45.088001
30
12.303000
70
192
0
VERTEX
8
OBJECT__21
10
39.000000
20
43.540001
30
-12.788000
70
192
0
VERTEX
8
OBJECT__21
10
50.026001
20
29.261999
30
-15.620000
70
192
0
VERTEX
8
OBJECT__21
10
57.000000
20
46.021999
30
12.761000
70
192
0
VERTEX
8
OBJECT__21
10
0
20
0
30
0
70
128
71
1
72
2
73
3
0
VERTEX
8
OBJECT__21
10
0
20
0
30
0
70
128
71
1
72
4
73
5
0
VERTEX
8
OBJECT__21
10
0
20
0
30
0
70
128
71
5
72
2
73
1
0
VERTEX
8
OBJECT__21
10
0
20
0
30
0
70
128
71
6
72
7
73
1
0
VERTEX
8
OBJECT__21
10
0
20
0
30
0
70
128
71
7
72
4
73
1
0
VERTEX
8
OBJECT__21
10
0
20
0
30
0
70
128
71
1
72
8
73
6
0
VERTEX
8
OBJECT__21
10
0
20
0
30
0
70
128
71
1
72
9
73
10
0
VERTEX
8
OBJECT__21
10
0
20
0
30
0
70
128
71
10
72
8
73
1
0
VERTEX
8
OBJECT__21
10
0
20
0
30
0
70
128
71
11
72
6
73
12
0
VERTEX
8
OBJECT__21
10
0
20
0
30
0
70
128
71
12
72
13
73
11
0
VERTEX
8
OBJECT__21
10
0
20
0
30
0
70
128
71
14
72
13
73
15
0
VERTEX
8
OBJECT__21
10
0
20
0
30
0
70
128
71
15
72
16
73
14
0
VERTEX
8
OBJECT__21
10
0
20
0
30
0
70
128
71
13
72
12
73
15
0
VERTEX
8
OBJECT__21
10
0
20
0
30
0
70
128
71
16
72
17
73
14
0
VERTEX
8
OBJECT__21
10
0
20
0
30
0
70
128
71
17
72
18
73
14
0
VERTEX
8
OBJECT__21
10
0
20
0
30
0
70
128
71
19
72
20
73
21
0
VERTEX
8
OBJECT__21
10
0
20
0
30
0
70
128
71
19
72
22
73
20
0
VERTEX
8
OBJECT__21
10
0
20
0
30
0
70
128
71
22
72
23
73
18
0
VERTEX
8
OBJECT__21
10
0
20
0
30
0
70
128
71
22
72
24
73
25
0
VERTEX
8
OBJECT__21
10
0
20
0
30
0
70
128
71
22
72
19
73
24
0
VERTEX
8
OBJECT__21
10
0
20
0
30
0
70
128
71
25
72
23
73
22
0
VERTEX
8
OBJECT__21
10
0
20
0
30
0
70
128
71
18
72
17
73
22
0
VERTEX
8
OBJECT__21
10
0
20
0
30
0
70
128
71
26
72
27
73
28
0
VERTEX
8
OBJECT__21
10
0
20
0
30
0
70
128
71
29
72
26
73
19
0
VERTEX
8
OBJECT__21
10
0
20
0
30
0
70
128
71
19
72
30
73
29
0
VERTEX
8
OBJECT__21
10
0
20
0
30
0
70
128
71
29
72
27
73
26
0
VERTEX
8
OBJECT__21
10
0
20
0
30
0
70
128
71
31
72
32
73
33
0
VERTEX
8
OBJECT__21
10
0
20
0
30
0
70
128
71
33
72
34
73
31
0
VERTEX
8
OBJECT__21
10
0
20
0
30
0
70
128
71
34
72
35
73
31
0
VERTEX
8
OBJECT__21
10
0
20
0
30
0
70
128
71
35
72
26
73
31
0
VERTEX
8
OBJECT__21
10
0
20
0
30
0
70
128
71
36
72
37
73
38
0
VERTEX
8
OBJECT__21
10
0
20
0
30
0
70
128
71
36
72
39
73
37
0
VERTEX
8
OBJECT__21
10
0
20
0
30
0
70
128
71
39
72
36
73
32
0
VERTEX
8
OBJECT__21
10
0
20
0
30
0
70
128
71
32
72
31
73
39
0
VERTEX
8
OBJECT__21
10
0
20
0
30
0
70
128
71
40
72
41
73
42
0
VERTEX
8
OBJECT__21
10
0
20
0
30
0
70
128
71
42
72
43
73
40
0
VERTEX
8
OBJECT__21
10
0
20
0
30
0
70
128
71
43
72
44
73
40
0
VERTEX
8
OBJECT__21
10
0
20
0
30
0
70
128
71
44
72
36
73
40
0
VERTEX
8
OBJECT__21
10
0
20
0
30
0
70
128
71
38
72
40
73
36
0
VERTEX
8
OBJECT__21
10
0
20
0
30
0
70
128
71
45
72
46
73
41
0
VERTEX
8
OBJECT__21
10
0
20
0
30
0
70
128
71
45
72
47
73
48
0
VERTEX
8
OBJECT__21
10
0
20
0
30
0
70
128
71
48
72
46
73
45
0
VERTEX
8
OBJECT__21
10
0
20
0
30
0
70
128
71
49
72
50
73
51
0
VERTEX
8
OBJECT__21
10
0
20
0
30
0
70
128
71
51
72
52
73
49
0
VERTEX
8
OBJECT__21
10
0
20
0
30
0
70
128
71
47
72
53
73
50
0
VERTEX
8
OBJECT__21
10
0
20
0
30
0
70
128
71
47
72
45
73
54
0
VERTEX
8
OBJECT__21
10
0
20
0
30
0
70
128
71
54
72
53
73
47
0
VERTEX
8
OBJECT__21
10
0
20
0
30
0
70
128
71
49
72
47
73
50
0
VERTEX
8
OBJECT__21
10
0
20
0
30
0
70
128
71
55
72
56
73
57
0
VERTEX
8
OBJECT__21
10
0
20
0
30
0
70
128
71
55
72
58
73
56
0
VERTEX
8
OBJECT__21
10
0
20
0
30
0
70
128
71
59
72
60
73
61
0
VERTEX
8
OBJECT__21
10
0
20
0
30
0
70
128
71
61
72
62
73
59
0
VERTEX
8
OBJECT__21
10
0
20
0
30
0
70
128
71
58
72
55
73
63
0
VERTEX
8
OBJECT__21
10
0
20
0
30
0
70
128
71
63
72
59
73
58
0
VERTEX
8
OBJECT__21
10
0
20
0
30
0
70
128
71
62
72
58
73
59
0
VERTEX
8
OBJECT__21
10
0
20
0
30
0
70
128
71
52
72
51
73
55
0
VERTEX
8
OBJECT__21
10
0
20
0
30
0
70
128
71
64
72
65
73
66
0
VERTEX
8
OBJECT__21
10
0
20
0
30
0
70
128
71
64
72
67
73
65
0
VERTEX
8
OBJECT__21
10
0
20
0
30
0
70
128
71
64
72
68
73
69
0
VERTEX
8
OBJECT__21
10
0
20
0
30
0
70
128
71
69
72
67
73
64
0
VERTEX
8
OBJECT__21
10
0
20
0
30
0
70
128
71
61
72
70
73
71
0
VERTEX
8
OBJECT__21
10
0
20
0
30
0
70
128
71
61
72
60
73
72
0
VERTEX
8
OBJECT__21
10
0
20
0
30
0
70
128
71
72
72
73
73
61
0
VERTEX
8
OBJECT__21
10
0
20
0
30
0
70
128
71
73
72
70
73
61
0
VERTEX
8
OBJECT__21
10
0
20
0
30
0
70
128
71
71
72
64
73
61
0
VERTEX
8
OBJECT__21
10
0
20
0
30
0
70
128
71
74
72
75
73
76
0
VERTEX
8
OBJECT__21
10
0
20
0
30
0
70
128
71
74
72
77
73
78
0
VERTEX
8
OBJECT__21
10
0
20
0
30
0
70
128
71
78
72
75
73
74
0
VERTEX
8
OBJECT__21
10
0
20
0
30
0
70
128
71
79
72
74
73
80
0
VERTEX
8
OBJECT__21
10
0
20
0
30
0
70
128
71
80
72
81
73
79
0
VERTEX
8
OBJECT__21
10
0
20
0
30
0
70
128
71
69
72
68
73
82
0
VERTEX
8
OBJECT__21
10
0
20
0
30
0
70
128
71
82
72
79
73
69
0
VERTEX
8
OBJECT__21
10
0
20
0
30
0
70
128
71
81
72
69
73
79
0
VERTEX
8
OBJECT__21
10
0
20
0
30
0
70
128
71
77
72
83
73
84
0
VERTEX
8
OBJECT__21
10
0
20
0
30
0
70
128
71
84
72
85
73
77
0
VERTEX
8
OBJECT__21
10
0
20
0
30
0
70
128
71
86
72
87
73
88
0
VERTEX
8
OBJECT__21
10
0
20
0
30
0
70
128
71
89
72
84
73
83
0
VERTEX
8
OBJECT__21
10
0
20
0
30
0
70
128
71
87
72
86
73
90
0
VERTEX
8
OBJECT__21
10
0
20
0
30
0
70
128
71
90
72
89
73
87
0
VERTEX
8
OBJECT__21
10
0
20
0
30
0
70
128
71
83
72
87
73
89
0
VERTEX
8
OBJECT__21
10
0
20
0
30
0
70
128
71
88
72
91
73
86
0
VERTEX
8
OBJECT__21
10
0
20
0
30
0
70
128
71
91
72
92
73
93
0
VERTEX
8
OBJECT__21
10
0
20
0
30
0
70
128
71
93
72
86
73
91
0
VERTEX
8
OBJECT__21
10
0
20
0
30
0
70
128
71
93
72
94
73
95
0
VERTEX
8
OBJECT__21
10
0
20
0
30
0
70
128
71
93
72
95
73
86
0
VERTEX
8
OBJECT__21
10
0
20
0
30
0
70
128
71
93
72
96
73
97
0
VERTEX
8
OBJECT__21
10
0
20
0
30
0
70
128
71
97
72
94
73
93
0
VERTEX
8
OBJECT__21
10
0
20
0
30
0
70
128
71
92
72
98
73
93
0
VERTEX
8
OBJECT__21
10
0
20
0
30
0
70
128
71
85
72
78
73
77
0
VERTEX
8
OBJECT__21
10
0
20
0
30
0
70
128
71
76
72
80
73
74
0
VERTEX
8
OBJECT__21
10
0
20
0
30
0
70
128
71
66
72
61
73
64
0
VERTEX
8
OBJECT__21
10
0
20
0
30
0
70
128
71
57
72
52
73
55
0
VERTEX
8
OBJECT__21
10
0
20
0
30
0
70
128
71
41
72
99
73
45
0
VERTEX
8
OBJECT__21
10
0
20
0
30
0
70
128
71
40
72
99
73
41
0
VERTEX
8
OBJECT__21
10
0
20
0
30
0
70
128
71
28
72
31
73
26
0
VERTEX
8
OBJECT__21
10
0
20
0
30
0
70
128
71
21
72
30
73
19
0
VERTEX
8
OBJECT__21
10
0
20
0
30
0
70
128
71
11
72
7
73
6
0
VERTEX
8
OBJECT__21
10
0
20
0
30
0
70
128
71
3
72
100
73
1
0
SEQEND
8
OBJECT__21
0
POLYLINE
8
OBJECT__22
66
1
70
64
71
17
72
15
62
253
0
VERTEX
8
OBJECT__22
10
57.000000
20
45.029999
30
1.625000
70
192
0
VERTEX
8
OBJECT__22
10
57.000000
20
50.987000
30
4.851000
70
192
0
VERTEX
8
OBJECT__22
10
57.000000
20
51.004002
30
3.327000
70
192
0
VERTEX
8
OBJECT__22
10
57.000000
20
46.021999
30
12.761000
70
192
0
VERTEX
8
OBJECT__22
10
57.000000
20
50.951000
30
7.976000
70
192
0
VERTEX
8
OBJECT__22
10
57.000000
20
43.540001
30
-12.788000
70
192
0
VERTEX
8
OBJECT__22
10
57.000000
20
50.942001
30
-8.202000
70
192
0
VERTEX
8
OBJECT__22
10
57.000000
20
50.924000
30
-9.533000
70
192
0
VERTEX
8
OBJECT__22
10
57.000000
20
50.987999
30
-4.827000
70
192
0
VERTEX
8
OBJECT__22
10
57.000000
20
51.006001
30
-2.274000
70
192
0
VERTEX
8
OBJECT__22
10
57.000000
20
50.999001
30
-3.972000
70
192
0
VERTEX
8
OBJECT__22
10
57.000000
20
51.014000
30
0.000000
70
192
0
VERTEX
8
OBJECT__22
10
57.000000
20
51.007999
30
2.247000
70
192
0
VERTEX
8
OBJECT__22
10
57.000000
20
50.853001
30
12.710000
70
192
0
VERTEX
8
OBJECT__22
10
57.000000
20
50.950001
30
8.019000
70
192
0
VERTEX
8
OBJECT__22
10
57.000000
20
51.014999
30
0.199000
70
192
0
VERTEX
8
OBJECT__22
10
57.000000
20
50.853001
30
-12.710000
70
192
0
VERTEX
8
OBJECT__22
10
0
20
0
30
0
70
128
71
1
72
2
73
3
0
VERTEX
8
OBJECT__22
10
0
20
0
30
0
70
128
71
1
72
4
73
5
0
VERTEX
8
OBJECT__22
10
0
20
0
30
0
70
128
71
6
72
7
73
8
0
VERTEX
8
OBJECT__22
10
0
20
0
30
0
70
128
71
6
72
1
73
9
0
VERTEX
8
OBJECT__22
10
0
20
0
30
0
70
128
71
1
72
10
73
11
0
VERTEX
8
OBJECT__22
10
0
20
0
30
0
70
128
71
5
72
2
73
1
0
VERTEX
8
OBJECT__22
10
0
20
0
30
0
70
128
71
9
72
7
73
6
0
VERTEX
8
OBJECT__22
10
0
20
0
30
0
70
128
71
1
72
12
73
10
0
VERTEX
8
OBJECT__22
10
0
20
0
30
0
70
128
71
3
72
13
73
1
0
VERTEX
8
OBJECT__22
10
0
20
0
30
0
70
128
71
4
72
14
73
15
0
VERTEX
8
OBJECT__22
10
0
20
0
30
0
70
128
71
11
72
9
73
1
0
VERTEX
8
OBJECT__22
10
0
20
0
30
0
70
128
71
15
72
5
73
4
0
VERTEX
8
OBJECT__22
10
0
20
0
30
0
70
128
71
1
72
16
73
12
0
VERTEX
8
OBJECT__22
10
0
20
0
30
0
70
128
71
8
72
17
73
6
0
VERTEX
8
OBJECT__22
10
0
20
0
30
0
70
128
71
13
72
16
73
1
0
SEQEND
8
OBJECT__22
0
POLYLINE
8
OBJECT__23
66
1
70
64
71
17
72
15
62
253
0
VERTEX
8
OBJECT__23
10
39.000000
20
45.029999
30
1.625000
70
192
0
VERTEX
8
OBJECT__23
10
39.000000
20
50.987000
30
-4.851000
70
192
0
VERTEX
8
OBJECT__23
10
39.000000
20
51.004002
30
-3.327000
70
192
0
VERTEX
8
OBJECT__23
10
39.000000
20
43.540001
30
-12.788000
70
192
0
VERTEX
8
OBJECT__23
10
39.000000
20
50.951000
30
-7.976000
70
192
0
VERTEX
8
OBJECT__23
10
39.000000
20
51.007999
30
-2.247000
70
192
0
VERTEX
8
OBJECT__23
10
39.000000
20
51.014999
30
-0.199000
70
192
0
VERTEX
8
OBJECT__23
10
39.000000
20
46.021999
30
12.761000
70
192
0
VERTEX
8
OBJECT__23
10
39.000000
20
50.942001
30
8.202000
70
192
0
VERTEX
8
OBJECT__23
10
39.000000
20
50.924000
30
9.533000
70
192
0
VERTEX
8
OBJECT__23
10
39.000000
20
50.987999
30
4.827000
70
192
0
VERTEX
8
OBJECT__23
10
39.000000
20
51.006001
30
2.274000
70
192
0
VERTEX
8
OBJECT__23
10
39.000000
20
50.999001
30
3.972000
70
192
0
VERTEX
8
OBJECT__23
10
39.000000
20
50.853001
30
-12.710000
70
192
0
VERTEX
8
OBJECT__23
10
39.000000
20
50.950001
30
-8.019000
70
192
0
VERTEX
8
OBJECT__23
10
39.000000
20
51.014000
30
0.000000
70
192
0
VERTEX
8
OBJECT__23
10
39.000000
20
50.853001
30
12.710000
70
192
0
VERTEX
8
OBJECT__23
10
0
20
0
30
0
70
128
71
1
72
2
73
3
0
VERTEX
8
OBJECT__23
10
0
20
0
30
0
70
128
71
4
72
5
73
2
0
VERTEX
8
OBJECT__23
10
0
20
0
30
0
70
128
71
1
72
6
73
7
0
VERTEX
8
OBJECT__23
10
0
20
0
30
0
70
128
71
2
72
1
73
4
0
VERTEX
8
OBJECT__23
10
0
20
0
30
0
70
128
71
8
72
9
73
10
0
VERTEX
8
OBJECT__23
10
0
20
0
30
0
70
128
71
1
72
11
73
9
0
VERTEX
8
OBJECT__23
10
0
20
0
30
0
70
128
71
1
72
12
73
13
0
VERTEX
8
OBJECT__23
10
0
20
0
30
0
70
128
71
3
72
6
73
1
0
VERTEX
8
OBJECT__23
10
0
20
0
30
0
70
128
71
4
72
14
73
15
0
VERTEX
8
OBJECT__23
10
0
20
0
30
0
70
128
71
9
72
8
73
1
0
VERTEX
8
OBJECT__23
10
0
20
0
30
0
70
128
71
1
72
16
73
12
0
VERTEX
8
OBJECT__23
10
0
20
0
30
0
70
128
71
15
72
5
73
4
0
VERTEX
8
OBJECT__23
10
0
20
0
30
0
70
128
71
13
72
11
73
1
0
VERTEX
8
OBJECT__23
10
0
20
0
30
0
70
128
71
10
72
17
73
8
0
VERTEX
8
OBJECT__23
10
0
20
0
30
0
70
128
71
7
72
16
73
1
0
SEQEND
8
OBJECT__23
0
POLYLINE
8
OBJECT__24
66
1
70
64
71
26
72
24
62
253
0
VERTEX
8
OBJECT__24
10
36.339001
20
50.853001
30
10.322000
70
192
0
VERTEX
8
OBJECT__24
10
37.577000
20
50.853001
30
11.433000
70
192
0
VERTEX
8
OBJECT__24
10
39.000000
20
50.924000
30
9.533000
70
192
0
VERTEX
8
OBJECT__24
10
39.000000
20
50.942001
30
8.202000
70
192
0
VERTEX
8
OBJECT__24
10
34.208000
20
50.853001
30
7.234000
70
192
0
VERTEX
8
OBJECT__24
10
32.877998
20
50.853001
30
3.725000
70
192
0
VERTEX
8
OBJECT__24
10
34.092999
20
50.853001
30
6.929000
70
192
0
VERTEX
8
OBJECT__24
10
39.000000
20
50.987999
30
4.827000
70
192
0
VERTEX
8
OBJECT__24
10
39.000000
20
50.999001
30
3.972000
70
192
0
VERTEX
8
OBJECT__24
10
39.000000
20
51.006001
30
2.274000
70
192
0
VERTEX
8
OBJECT__24
10
32.598999
20
50.853001
30
1.424000
70
192
0
VERTEX
8
OBJECT__24
10
39.000000
20
51.014000
30
0.000000
70
192
0
VERTEX
8
OBJECT__24
10
32.425999
20
50.853001
30
0.000000
70
192
0
VERTEX
8
OBJECT__24
10
39.000000
20
51.014999
30
-0.199000
70
192
0
VERTEX
8
OBJECT__24
10
39.000000
20
51.007999
30
-2.247000
70
192
0
VERTEX
8
OBJECT__24
10
33.074001
20
50.853001
30
-4.242000
70
192
0
VERTEX
8
OBJECT__24
10
39.000000
20
51.004002
30
-3.327000
70
192
0
VERTEX
8
OBJECT__24
10
39.000000
20
50.987000
30
-4.851000
70
192
0
VERTEX
8
OBJECT__24
10
34.208000
20
50.853001
30
-7.234000
70
192
0
VERTEX
8
OBJECT__24
10
39.000000
20
50.951000
30
-7.976000
70
192
0
VERTEX
8
OBJECT__24
10
36.339001
20
50.853001
30
-10.322000
70
192
0
VERTEX
8
OBJECT__24
10
35.653000
20
50.853001
30
-9.329000
70
192
0
VERTEX
8
OBJECT__24
10
39.000000
20
50.950001
30
-8.019000
70
192
0
VERTEX
8
OBJECT__24
10
39.000000
20
50.853001
30
-12.710000
70
192
0
VERTEX
8
OBJECT__24
10
32.877998
20
50.853001
30
-3.725000
70
192
0
VERTEX
8
OBJECT__24
10
39.000000
20
50.853001
30
12.710000
70
192
0
VERTEX
8
OBJECT__24
10
0
20
0
30
0
70
128
71
1
72
2
73
3
0
VERTEX
8
OBJECT__24
10
0
20
0
30
0
70
128
71
3
72
4
73
1
0
VERTEX
8
OBJECT__24
10
0
20
0
30
0
70
128
71
5
72
1
73
4
0
VERTEX
8
OBJECT__24
10
0
20
0
30
0
70
128
71
6
72
7
73
8
0
VERTEX
8
OBJECT__24
10
0
20
0
30
0
70
128
71
8
72
9
73
6
0
VERTEX
8
OBJECT__24
10
0
20
0
30
0
70
128
71
9
72
10
73
6
0
VERTEX
8
OBJECT__24
10
0
20
0
30
0
70
128
71
11
72
6
73
10
0
VERTEX
8
OBJECT__24
10
0
20
0
30
0
70
128
71
12
72
13
73
11
0
VERTEX
8
OBJECT__24
10
0
20
0
30
0
70
128
71
13
72
14
73
15
0
VERTEX
8
OBJECT__24
10
0
20
0
30
0
70
128
71
13
72
12
73
14
0
VERTEX
8
OBJECT__24
10
0
20
0
30
0
70
128
71
16
72
17
73
18
0
VERTEX
8
OBJECT__24
10
0
20
0
30
0
70
128
71
16
72
15
73
17
0
VERTEX
8
OBJECT__24
10
0
20
0
30
0
70
128
71
18
72
19
73
16
0
VERTEX
8
OBJECT__24
10
0
20
0
30
0
70
128
71
19
72
18
73
20
0
VERTEX
8
OBJECT__24
10
0
20
0
30
0
70
128
71
20
72
21
73
22
0
VERTEX
8
OBJECT__24
10
0
20
0
30
0
70
128
71
21
72
20
73
23
0
VERTEX
8
OBJECT__24
10
0
20
0
30
0
70
128
71
23
72
24
73
21
0
VERTEX
8
OBJECT__24
10
0
20
0
30
0
70
128
71
20
72
22
73
19
0
VERTEX
8
OBJECT__24
10
0
20
0
30
0
70
128
71
16
72
25
73
15
0
VERTEX
8
OBJECT__24
10
0
20
0
30
0
70
128
71
15
72
25
73
13
0
VERTEX
8
OBJECT__24
10
0
20
0
30
0
70
128
71
10
72
12
73
11
0
VERTEX
8
OBJECT__24
10
0
20
0
30
0
70
128
71
7
72
5
73
8
0
VERTEX
8
OBJECT__24
10
0
20
0
30
0
70
128
71
4
72
8
73
5
0
VERTEX
8
OBJECT__24
10
0
20
0
30
0
70
128
71
2
72
26
73
3
0
SEQEND
8
OBJECT__24
0
POLYLINE
8
OBJECT__25
66
1
70
64
71
26
72
24
62
253
0
VERTEX
8
OBJECT__25
10
59.660999
20
50.853001
30
-10.322000
70
192
0
VERTEX
8
OBJECT__25
10
57.000000
20
50.853001
30
-12.710000
70
192
0
VERTEX
8
OBJECT__25
10
57.000000
20
50.924000
30
-9.533000
70
192
0
VERTEX
8
OBJECT__25
10
61.792000
20
50.853001
30
-7.234000
70
192
0
VERTEX
8
OBJECT__25
10
60.347000
20
50.853001
30
-9.329000
70
192
0
VERTEX
8
OBJECT__25
10
57.000000
20
50.942001
30
-8.202000
70
192
0
VERTEX
8
OBJECT__25
10
57.000000
20
50.987999
30
-4.827000
70
192
0
VERTEX
8
OBJECT__25
10
62.925999
20
50.853001
30
-4.242000
70
192
0
VERTEX
8
OBJECT__25
10
57.000000
20
50.999001
30
-3.972000
70
192
0
VERTEX
8
OBJECT__25
10
57.000000
20
51.006001
30
-2.274000
70
192
0
VERTEX
8
OBJECT__25
10
63.122002
20
50.853001
30
-3.725000
70
192
0
VERTEX
8
OBJECT__25
10
63.574001
20
50.853001
30
0.000000
70
192
0
VERTEX
8
OBJECT__25
10
57.000000
20
51.014000
30
0.000000
70
192
0
VERTEX
8
OBJECT__25
10
57.000000
20
51.014999
30
0.199000
70
192
0
VERTEX
8
OBJECT__25
10
63.401001
20
50.853001
30
1.424000
70
192
0
VERTEX
8
OBJECT__25
10
57.000000
20
51.007999
30
2.247000
70
192
0
VERTEX
8
OBJECT__25
10
63.122002
20
50.853001
30
3.725000
70
192
0
VERTEX
8
OBJECT__25
10
57.000000
20
51.004002
30
3.327000
70
192
0
VERTEX
8
OBJECT__25
10
57.000000
20
50.987000
30
4.851000
70
192
0
VERTEX
8
OBJECT__25
10
61.792000
20
50.853001
30
7.234000
70
192
0
VERTEX
8
OBJECT__25
10
61.907001
20
50.853001
30
6.929000
70
192
0
VERTEX
8
OBJECT__25
10
57.000000
20
50.951000
30
7.976000
70
192
0
VERTEX
8
OBJECT__25
10
59.660999
20
50.853001
30
10.322000
70
192
0
VERTEX
8
OBJECT__25
10
57.000000
20
50.950001
30
8.019000
70
192
0
VERTEX
8
OBJECT__25
10
57.000000
20
50.853001
30
12.710000
70
192
0
VERTEX
8
OBJECT__25
10
58.423000
20
50.853001
30
11.433000
70
192
0
VERTEX
8
OBJECT__25
10
0
20
0
30
0
70
128
71
1
72
2
73
3
0
VERTEX
8
OBJECT__25
10
0
20
0
30
0
70
128
71
4
72
5
73
6
0
VERTEX
8
OBJECT__25
10
0
20
0
30
0
70
128
71
6
72
7
73
4
0
VERTEX
8
OBJECT__25
10
0
20
0
30
0
70
128
71
8
72
4
73
7
0
VERTEX
8
OBJECT__25
10
0
20
0
30
0
70
128
71
7
72
9
73
8
0
VERTEX
8
OBJECT__25
10
0
20
0
30
0
70
128
71
10
72
11
73
8
0
VERTEX
8
OBJECT__25
10
0
20
0
30
0
70
128
71
12
72
11
73
10
0
VERTEX
8
OBJECT__25
10
0
20
0
30
0
70
128
71
12
72
13
73
14
0
VERTEX
8
OBJECT__25
10
0
20
0
30
0
70
128
71
15
72
14
73
16
0
VERTEX
8
OBJECT__25
10
0
20
0
30
0
70
128
71
16
72
17
73
15
0
VERTEX
8
OBJECT__25
10
0
20
0
30
0
70
128
71
17
72
18
73
19
0
VERTEX
8
OBJECT__25
10
0
20
0
30
0
70
128
71
17
72
16
73
18
0
VERTEX
8
OBJECT__25
10
0
20
0
30
0
70
128
71
19
72
20
73
21
0
VERTEX
8
OBJECT__25
10
0
20
0
30
0
70
128
71
20
72
19
73
22
0
VERTEX
8
OBJECT__25
10
0
20
0
30
0
70
128
71
23
72
22
73
24
0
VERTEX
8
OBJECT__25
10
0
20
0
30
0
70
128
71
24
72
25
73
26
0
VERTEX
8
OBJECT__25
10
0
20
0
30
0
70
128
71
24
72
26
73
23
0
VERTEX
8
OBJECT__25
10
0
20
0
30
0
70
128
71
22
72
23
73
20
0
VERTEX
8
OBJECT__25
10
0
20
0
30
0
70
128
71
19
72
21
73
17
0
VERTEX
8
OBJECT__25
10
0
20
0
30
0
70
128
71
14
72
15
73
12
0
VERTEX
8
OBJECT__25
10
0
20
0
30
0
70
128
71
10
72
13
73
12
0
VERTEX
8
OBJECT__25
10
0
20
0
30
0
70
128
71
9
72
10
73
8
0
VERTEX
8
OBJECT__25
10
0
20
0
30
0
70
128
71
5
72
1
73
6
0
VERTEX
8
OBJECT__25
10
0
20
0
30
0
70
128
71
3
72
6
73
1
0
SEQEND
8
OBJECT__25
0
POLYLINE
8
OBJECT__26
66
1
70
64
71
5
72
3
62
253
0
VERTEX
8
OBJECT__26
10
39.580002
20
2.596000
30
-13.599000
70
192
0
VERTEX
8
OBJECT__26
10
40.849998
20
2.596000
30
-9.324000
70
192
0
VERTEX
8
OBJECT__26
10
43.500000
20
2.596000
30
-10.854000
70
192
0
VERTEX
8
OBJECT__26
10
43.500000
20
2.596000
30
-15.349000
70
192
0
VERTEX
8
OBJECT__26
10
36.958000
20
2.596000
30
-11.571000
70
192
0
VERTEX
8
OBJECT__26
10
0
20
0
30
0
70
128
71
1
72
2
73
3
0
VERTEX
8
OBJECT__26
10
0
20
0
30
0
70
128
71
3
72
4
73
1
0
VERTEX
8
OBJECT__26
10
0
20
0
30
0
70
128
71
1
72
5
73
2
0
SEQEND
8
OBJECT__26
0
POLYLINE
8
OBJECT__27
66
1
70
64
71
6
72
4
62
253
0
VERTEX
8
OBJECT__27
10
53.778000
20
2.596000
30
14.915000
70
192
0
VERTEX
8
OBJECT__27
10
58.776001
20
2.596000
30
11.820000
70
192
0
VERTEX
8
OBJECT__27
10
55.150002
20
2.596000
30
9.324000
70
192
0
VERTEX
8
OBJECT__27
10
52.500000
20
2.596000
30
10.854000
70
192
0
VERTEX
8
OBJECT__27
10
52.500000
20
2.596000
30
15.349000
70
192
0
VERTEX
8
OBJECT__27
10
59.042000
20
2.596000
30
11.571000
70
192
0
VERTEX
8
OBJECT__27
10
0
20
0
30
0
70
128
71
1
72
2
73
3
0
VERTEX
8
OBJECT__27
10
0
20
0
30
0
70
128
71
4
72
5
73
1
0
VERTEX
8
OBJECT__27
10
0
20
0
30
0
70
128
71
3
72
4
73
1
0
VERTEX
8
OBJECT__27
10
0
20
0
30
0
70
128
71
2
72
6
73
3
0
SEQEND
8
OBJECT__27
0
POLYLINE
8
OBJECT__28
66
1
70
64
71
6
72
4
62
253
0
VERTEX
8
OBJECT__28
10
42.222000
20
2.596000
30
14.915000
70
192
0
VERTEX
8
OBJECT__28
10
43.500000
20
2.596000
30
10.854000
70
192
0
VERTEX
8
OBJECT__28
10
40.849998
20
2.596000
30
9.324000
70
192
0
VERTEX
8
OBJECT__28
10
37.223999
20
2.596000
30
11.820000
70
192
0
VERTEX
8
OBJECT__28
10
36.958000
20
2.596000
30
11.571000
70
192
0
VERTEX
8
OBJECT__28
10
43.500000
20
2.596000
30
15.349000
70
192
0
VERTEX
8
OBJECT__28
10
0
20
0
30
0
70
128
71
1
72
2
73
3
0
VERTEX
8
OBJECT__28
10
0
20
0
30
0
70
128
71
3
72
4
73
1
0
VERTEX
8
OBJECT__28
10
0
20
0
30
0
70
128
71
3
72
5
73
4
0
VERTEX
8
OBJECT__28
10
0
20
0
30
0
70
128
71
1
72
6
73
2
0
SEQEND
8
OBJECT__28
0
POLYLINE
8
OBJECT__29
66
1
70
64
71
13
72
11
62
253
0
VERTEX
8
OBJECT__29
10
50.396000
20
-2.004000
30
-11.248000
70
192
0
VERTEX
8
OBJECT__29
10
50.814999
20
-2.004000
30
-11.348000
70
192
0
VERTEX
8
OBJECT__29
10
51.000000
20
-2.004000
30
-11.737000
70
192
0
VERTEX
8
OBJECT__29
10
45.604000
20
-2.004000
30
-11.248000
70
192
0
VERTEX
8
OBJECT__29
10
45.000000
20
-2.004000
30
-12.750000
70
192
0
VERTEX
8
OBJECT__29
10
45.000000
20
-2.004000
30
-11.737000
70
192
0
VERTEX
8
OBJECT__29
10
50.945999
20
-2.004000
30
-15.762000
70
192
0
VERTEX
8
OBJECT__29
10
45.054001
20
-2.004000
30
-15.762000
70
192
0
VERTEX
8
OBJECT__29
10
51.000000
20
-2.004000
30
-12.750000
70
192
0
VERTEX
8
OBJECT__29
10
51.000000
20
-2.004000
30
-15.752000
70
192
0
VERTEX
8
OBJECT__29
10
48.000000
20
-2.004000
30
-11.500000
70
192
0
VERTEX
8
OBJECT__29
10
45.185001
20
-2.004000
30
-11.348000
70
192
0
VERTEX
8
OBJECT__29
10
45.000000
20
-2.004000
30
-15.752000
70
192
0
VERTEX
8
OBJECT__29
10
0
20
0
30
0
70
128
71
1
72
2
73
3
0
VERTEX
8
OBJECT__29
10
0
20
0
30
0
70
128
71
4
72
5
73
6
0
VERTEX
8
OBJECT__29
10
0
20
0
30
0
70
128
71
7
72
8
73
5
0
VERTEX
8
OBJECT__29
10
0
20
0
30
0
70
128
71
9
72
10
73
7
0
VERTEX
8
OBJECT__29
10
0
20
0
30
0
70
128
71
9
72
11
73
1
0
VERTEX
8
OBJECT__29
10
0
20
0
30
0
70
128
71
6
72
12
73
4
0
VERTEX
8
OBJECT__29
10
0
20
0
30
0
70
128
71
5
72
11
73
7
0
VERTEX
8
OBJECT__29
10
0
20
0
30
0
70
128
71
3
72
9
73
1
0
VERTEX
8
OBJECT__29
10
0
20
0
30
0
70
128
71
8
72
13
73
5
0
VERTEX
8
OBJECT__29
10
0
20
0
30
0
70
128
71
4
72
11
73
5
0
VERTEX
8
OBJECT__29
10
0
20
0
30
0
70
128
71
7
72
11
73
9
0
SEQEND
8
OBJECT__29
0
POLYLINE
8
OBJECT__30
66
1
70
64
71
32
72
30
62
253
0
VERTEX
8
OBJECT__30
10
38.750000
20
53.085999
30
11.173000
70
192
0
VERTEX
8
OBJECT__30
10
35.806000
20
52.988998
30
12.537000
70
192
0
VERTEX
8
OBJECT__30
10
36.091999
20
52.988998
30
12.872000
70
192
0
VERTEX
8
OBJECT__30
10
38.750000
20
52.988998
30
14.897000
70
192
0
VERTEX
8
OBJECT__30
10
33.417000
20
52.988998
30
9.738000
70
192
0
VERTEX
8
OBJECT__30
10
38.750000
20
53.113998
30
9.644000
70
192
0
VERTEX
8
OBJECT__30
10
38.750000
20
53.154999
30
7.449000
70
192
0
VERTEX
8
OBJECT__30
10
33.275002
20
52.988998
30
9.458000
70
192
0
VERTEX
8
OBJECT__30
10
31.548000
20
52.988998
30
6.066000
70
192
0
VERTEX
8
OBJECT__30
10
38.750000
20
53.171001
30
6.042000
70
192
0
VERTEX
8
OBJECT__30
10
38.750000
20
53.196999
30
3.725000
70
192
0
VERTEX
8
OBJECT__30
10
31.504000
20
52.988998
30
5.883000
70
192
0
VERTEX
8
OBJECT__30
10
30.586000
20
52.988998
30
2.060000
70
192
0
VERTEX
8
OBJECT__30
10
38.750000
20
53.198002
30
3.323000
70
192
0
VERTEX
8
OBJECT__30
10
38.750000
20
53.207001
30
1.078000
70
192
0
VERTEX
8
OBJECT__30
10
30.586000
20
52.988998
30
1.997000
70
192
0
VERTEX
8
OBJECT__30
10
30.586000
20
52.988998
30
-1.997000
70
192
0
VERTEX
8
OBJECT__30
10
38.750000
20
53.210999
30
0.000000
70
192
0
VERTEX
8
OBJECT__30
10
30.586000
20
52.988998
30
-2.060000
70
192
0
VERTEX
8
OBJECT__30
10
38.750000
20
53.207001
30
-1.078000
70
192
0
VERTEX
8
OBJECT__30
10
38.750000
20
53.198002
30
-3.323000
70
192
0
VERTEX
8
OBJECT__30
10
31.504000
20
52.988998
30
-5.883000
70
192
0
VERTEX
8
OBJECT__30
10
31.548000
20
52.988998
30
-6.066000
70
192
0
VERTEX
8
OBJECT__30
10
38.750000
20
53.196999
30
-3.725000
70
192
0
VERTEX
8
OBJECT__30
10
38.750000
20
53.165001
30
-6.176000
70
192
0
VERTEX
8
OBJECT__30
10
33.275002
20
52.988998
30
-9.458000
70
192
0
VERTEX
8
OBJECT__30
10
33.417000
20
52.988998
30
-9.738000
70
192
0
VERTEX
8
OBJECT__30
10
38.750000
20
53.124001
30
-9.311000
70
192
0
VERTEX
8
OBJECT__30
10
38.750000
20
53.118000
30
-9.550000
70
192
0
VERTEX
8
OBJECT__30
10
35.806000
20
52.988998
30
-12.537000
70
192
0
VERTEX
8
OBJECT__30
10
38.750000
20
52.988998
30
-14.897000
70
192
0
VERTEX
8
OBJECT__30
10
36.091999
20
52.988998
30
-12.872000
70
192
0
VERTEX
8
OBJECT__30
10
0
20
0
30
0
70
128
71
1
72
2
73
3
0
VERTEX
8
OBJECT__30
10
0
20
0
30
0
70
128
71
3
72
4
73
1
0
VERTEX
8
OBJECT__30
10
0
20
0
30
0
70
128
71
5
72
2
73
6
0
VERTEX
8
OBJECT__30
10
0
20
0
30
0
70
128
71
7
72
8
73
5
0
VERTEX
8
OBJECT__30
10
0
20
0
30
0
70
128
71
6
72
7
73
5
0
VERTEX
8
OBJECT__30
10
0
20
0
30
0
70
128
71
9
72
8
73
10
0
VERTEX
8
OBJECT__30
10
0
20
0
30
0
70
128
71
11
72
12
73
9
0
VERTEX
8
OBJECT__30
10
0
20
0
30
0
70
128
71
10
72
11
73
9
0
VERTEX
8
OBJECT__30
10
0
20
0
30
0
70
128
71
13
72
12
73
14
0
VERTEX
8
OBJECT__30
10
0
20
0
30
0
70
128
71
15
72
16
73
13
0
VERTEX
8
OBJECT__30
10
0
20
0
30
0
70
128
71
17
72
16
73
18
0
VERTEX
8
OBJECT__30
10
0
20
0
30
0
70
128
71
16
72
15
73
18
0
VERTEX
8
OBJECT__30
10
0
20
0
30
0
70
128
71
19
72
20
73
21
0
VERTEX
8
OBJECT__30
10
0
20
0
30
0
70
128
71
21
72
22
73
19
0
VERTEX
8
OBJECT__30
10
0
20
0
30
0
70
128
71
23
72
24
73
25
0
VERTEX
8
OBJECT__30
10
0
20
0
30
0
70
128
71
25
72
26
73
23
0
VERTEX
8
OBJECT__30
10
0
20
0
30
0
70
128
71
22
72
21
73
24
0
VERTEX
8
OBJECT__30
10
0
20
0
30
0
70
128
71
27
72
28
73
29
0
VERTEX
8
OBJECT__30
10
0
20
0
30
0
70
128
71
29
72
30
73
27
0
VERTEX
8
OBJECT__30
10
0
20
0
30
0
70
128
71
26
72
25
73
28
0
VERTEX
8
OBJECT__30
10
0
20
0
30
0
70
128
71
29
72
31
73
32
0
VERTEX
8
OBJECT__30
10
0
20
0
30
0
70
128
71
32
72
30
73
29
0
VERTEX
8
OBJECT__30
10
0
20
0
30
0
70
128
71
27
72
26
73
28
0
VERTEX
8
OBJECT__30
10
0
20
0
30
0
70
128
71
23
72
22
73
24
0
VERTEX
8
OBJECT__30
10
0
20
0
30
0
70
128
71
19
72
17
73
20
0
VERTEX
8
OBJECT__30
10
0
20
0
30
0
70
128
71
18
72
20
73
17
0
VERTEX
8
OBJECT__30
10
0
20
0
30
0
70
128
71
14
72
15
73
13
0
VERTEX
8
OBJECT__30
10
0
20
0
30
0
70
128
71
11
72
14
73
12
0
VERTEX
8
OBJECT__30
10
0
20
0
30
0
70
128
71
7
72
10
73
8
0
VERTEX
8
OBJECT__30
10
0
20
0
30
0
70
128
71
1
72
6
73
2
0
SEQEND
8
OBJECT__30
0
POLYLINE
8
OBJECT__31
66
1
70
64
71
49
72
55
62
253
0
VERTEX
8
OBJECT__31
10
32.848000
20
52.683998
30
10.118000
70
192
0
VERTEX
8
OBJECT__31
10
35.626999
20
52.683998
30
13.374000
70
192
0
VERTEX
8
OBJECT__31
10
35.806000
20
52.988998
30
12.537000
70
192
0
VERTEX
8
OBJECT__31
10
36.091999
20
52.988998
30
12.872000
70
192
0
VERTEX
8
OBJECT__31
10
30.906000
20
52.683998
30
6.303000
70
192
0
VERTEX
8
OBJECT__31
10
33.275002
20
52.988998
30
9.458000
70
192
0
VERTEX
8
OBJECT__31
10
33.417000
20
52.988998
30
9.738000
70
192
0
VERTEX
8
OBJECT__31
10
29.907000
20
52.683998
30
2.140000
70
192
0
VERTEX
8
OBJECT__31
10
31.504000
20
52.988998
30
5.883000
70
192
0
VERTEX
8
OBJECT__31
10
31.548000
20
52.988998
30
6.066000
70
192
0
VERTEX
8
OBJECT__31
10
29.907000
20
52.683998
30
-2.140000
70
192
0
VERTEX
8
OBJECT__31
10
30.586000
20
52.988998
30
1.997000
70
192
0
VERTEX
8
OBJECT__31
10
30.586000
20
52.988998
30
-1.997000
70
192
0
VERTEX
8
OBJECT__31
10
30.586000
20
52.988998
30
2.060000
70
192
0
VERTEX
8
OBJECT__31
10
30.586000
20
52.988998
30
-2.060000
70
192
0
VERTEX
8
OBJECT__31
10
31.504000
20
52.988998
30
-5.883000
70
192
0
VERTEX
8
OBJECT__31
10
30.906000
20
52.683998
30
-6.303000
70
192
0
VERTEX
8
OBJECT__31
10
31.548000
20
52.988998
30
-6.066000
70
192
0
VERTEX
8
OBJECT__31
10
33.275002
20
52.988998
30
-9.458000
70
192
0
VERTEX
8
OBJECT__31
10
32.848000
20
52.683998
30
-10.118000
70
192
0
VERTEX
8
OBJECT__31
10
33.417000
20
52.988998
30
-9.738000
70
192
0
VERTEX
8
OBJECT__31
10
35.806000
20
52.988998
30
-12.537000
70
192
0
VERTEX
8
OBJECT__31
10
35.626999
20
52.683998
30
-13.374000
70
192
0
VERTEX
8
OBJECT__31
10
32.615002
20
51.988998
30
10.274000
70
192
0
VERTEX
8
OBJECT__31
10
35.437000
20
51.988998
30
13.580000
70
192
0
VERTEX
8
OBJECT__31
10
30.642000
20
51.988998
30
6.400000
70
192
0
VERTEX
8
OBJECT__31
10
32.070000
20
51.988998
30
9.203000
70
192
0
VERTEX
8
OBJECT__31
10
29.872000
20
51.988998
30
3.191000
70
192
0
VERTEX
8
OBJECT__31
10
29.628000
20
51.988998
30
2.173000
70
192
0
VERTEX
8
OBJECT__31
10
29.628000
20
51.988998
30
-2.173000
70
192
0
VERTEX
8
OBJECT__31
10
30.642000
20
51.988998
30
-6.400000
70
192
0
VERTEX
8
OBJECT__31
10
29.872000
20
51.988998
30
-3.191000
70
192
0
VERTEX
8
OBJECT__31
10
32.070000
20
51.988998
30
-9.203000
70
192
0
VERTEX
8
OBJECT__31
10
32.615002
20
51.988998
30
-10.274000
70
192
0
VERTEX
8
OBJECT__31
10
38.750000
20
52.938000
30
-15.228000
70
192
0
VERTEX
8
OBJECT__31
10
38.750000
20
52.789001
30
-15.558000
70
192
0
VERTEX
8
OBJECT__31
10
36.091999
20
52.988998
30
-12.872000
70
192
0
VERTEX
8
OBJECT__31
10
38.750000
20
52.988998
30
-14.897000
70
192
0
VERTEX
8
OBJECT__31
10
38.750000
20
52.658001
30
-15.641000
70
192
0
VERTEX
8
OBJECT__31
10
38.750000
20
52.055000
30
-16.018999
70
192
0
VERTEX
8
OBJECT__31
10
36.154999
20
51.988998
30
-14.109000
70
192
0
VERTEX
8
OBJECT__31
10
38.750000
20
51.988998
30
-16.021000
70
192
0
VERTEX
8
OBJECT__31
10
38.750000
20
52.661999
30
15.678000
70
192
0
VERTEX
8
OBJECT__31
10
36.154999
20
51.988998
30
14.109000
70
192
0
VERTEX
8
OBJECT__31
10
38.750000
20
51.988998
30
16.021000
70
192
0
VERTEX
8
OBJECT__31
10
38.750000
20
52.604000
30
15.777000
70
192
0
VERTEX
8
OBJECT__31
10
38.750000
20
52.949001
30
15.185000
70
192
0
VERTEX
8
OBJECT__31
10
38.750000
20
52.988998
30
14.897000
70
192
0
VERTEX
8
OBJECT__31
10
35.437000
20
51.988998
30
-13.580000
70
192
0
VERTEX
8
OBJECT__31
10
0
20
0
30
0
70
128
71
1
72
2
73
3
0
VERTEX
8
OBJECT__31
10
0
20
0
30
0
70
128
71
2
72
4
73
3
0
VERTEX
8
OBJECT__31
10
0
20
0
30
0
70
128
71
5
72
1
73
6
0
VERTEX
8
OBJECT__31
10
0
20
0
30
0
70
128
71
1
72
7
73
6
0
VERTEX
8
OBJECT__31
10
0
20
0
30
0
70
128
71
8
72
5
73
9
0
VERTEX
8
OBJECT__31
10
0
20
0
30
0
70
128
71
5
72
10
73
9
0
VERTEX
8
OBJECT__31
10
0
20
0
30
0
70
128
71
11
72
8
73
12
0
VERTEX
8
OBJECT__31
10
0
20
0
30
0
70
128
71
12
72
13
73
11
0
VERTEX
8
OBJECT__31
10
0
20
0
30
0
70
128
71
8
72
14
73
12
0
VERTEX
8
OBJECT__31
10
0
20
0
30
0
70
128
71
11
72
15
73
16
0
VERTEX
8
OBJECT__31
10
0
20
0
30
0
70
128
71
16
72
17
73
11
0
VERTEX
8
OBJECT__31
10
0
20
0
30
0
70
128
71
17
72
18
73
19
0
VERTEX
8
OBJECT__31
10
0
20
0
30
0
70
128
71
19
72
20
73
17
0
VERTEX
8
OBJECT__31
10
0
20
0
30
0
70
128
71
20
72
21
73
22
0
VERTEX
8
OBJECT__31
10
0
20
0
30
0
70
128
71
22
72
23
73
20
0
VERTEX
8
OBJECT__31
10
0
20
0
30
0
70
128
71
24
72
25
73
2
0
VERTEX
8
OBJECT__31
10
0
20
0
30
0
70
128
71
5
72
26
73
27
0
VERTEX
8
OBJECT__31
10
0
20
0
30
0
70
128
71
27
72
1
73
5
0
VERTEX
8
OBJECT__31
10
0
20
0
30
0
70
128
71
5
72
8
73
28
0
VERTEX
8
OBJECT__31
10
0
20
0
30
0
70
128
71
8
72
29
73
28
0
VERTEX
8
OBJECT__31
10
0
20
0
30
0
70
128
71
30
72
29
73
8
0
VERTEX
8
OBJECT__31
10
0
20
0
30
0
70
128
71
17
72
31
73
32
0
VERTEX
8
OBJECT__31
10
0
20
0
30
0
70
128
71
32
72
11
73
17
0
VERTEX
8
OBJECT__31
10
0
20
0
30
0
70
128
71
17
72
20
73
33
0
VERTEX
8
OBJECT__31
10
0
20
0
30
0
70
128
71
20
72
34
73
33
0
VERTEX
8
OBJECT__31
10
0
20
0
30
0
70
128
71
34
72
20
73
23
0
VERTEX
8
OBJECT__31
10
0
20
0
30
0
70
128
71
23
72
35
73
36
0
VERTEX
8
OBJECT__31
10
0
20
0
30
0
70
128
71
23
72
37
73
38
0
VERTEX
8
OBJECT__31
10
0
20
0
30
0
70
128
71
38
72
35
73
23
0
VERTEX
8
OBJECT__31
10
0
20
0
30
0
70
128
71
39
72
40
73
41
0
VERTEX
8
OBJECT__31
10
0
20
0
30
0
70
128
71
41
72
23
73
39
0
VERTEX
8
OBJECT__31
10
0
20
0
30
0
70
128
71
40
72
42
73
41
0
VERTEX
8
OBJECT__31
10
0
20
0
30
0
70
128
71
43
72
2
73
44
0
VERTEX
8
OBJECT__31
10
0
20
0
30
0
70
128
71
44
72
45
73
46
0
VERTEX
8
OBJECT__31
10
0
20
0
30
0
70
128
71
2
72
25
73
44
0
VERTEX
8
OBJECT__31
10
0
20
0
30
0
70
128
71
2
72
47
73
48
0
VERTEX
8
OBJECT__31
10
0
20
0
30
0
70
128
71
2
72
43
73
47
0
VERTEX
8
OBJECT__31
10
0
20
0
30
0
70
128
71
48
72
4
73
2
0
VERTEX
8
OBJECT__31
10
0
20
0
30
0
70
128
71
44
72
46
73
43
0
VERTEX
8
OBJECT__31
10
0
20
0
30
0
70
128
71
41
72
49
73
23
0
VERTEX
8
OBJECT__31
10
0
20
0
30
0
70
128
71
36
72
39
73
23
0
VERTEX
8
OBJECT__31
10
0
20
0
30
0
70
128
71
23
72
49
73
34
0
VERTEX
8
OBJECT__31
10
0
20
0
30
0
70
128
71
33
72
31
73
17
0
VERTEX
8
OBJECT__31
10
0
20
0
30
0
70
128
71
32
72
30
73
11
0
VERTEX
8
OBJECT__31
10
0
20
0
30
0
70
128
71
8
72
11
73
30
0
VERTEX
8
OBJECT__31
10
0
20
0
30
0
70
128
71
28
72
26
73
5
0
VERTEX
8
OBJECT__31
10
0
20
0
30
0
70
128
71
27
72
24
73
1
0
VERTEX
8
OBJECT__31
10
0
20
0
30
0
70
128
71
2
72
1
73
24
0
VERTEX
8
OBJECT__31
10
0
20
0
30
0
70
128
71
22
72
37
73
23
0
VERTEX
8
OBJECT__31
10
0
20
0
30
0
70
128
71
19
72
21
73
20
0
VERTEX
8
OBJECT__31
10
0
20
0
30
0
70
128
71
16
72
18
73
17
0
VERTEX
8
OBJECT__31
10
0
20
0
30
0
70
128
71
13
72
15
73
11
0
VERTEX
8
OBJECT__31
10
0
20
0
30
0
70
128
71
9
72
14
73
8
0
VERTEX
8
OBJECT__31
10
0
20
0
30
0
70
128
71
6
72
10
73
5
0
VERTEX
8
OBJECT__31
10
0
20
0
30
0
70
128
71
3
72
7
73
1
0
SEQEND
8
OBJECT__31
0
POLYLINE
8
OBJECT__33
66
1
70
64
71
43
72
41
62
253
0
VERTEX
8
OBJECT__33
10
38.750000
20
51.201000
30
2.323000
70
192
0
VERTEX
8
OBJECT__33
10
38.750000
20
51.209999
30
0.000000
70
192
0
VERTEX
8
OBJECT__33
10
38.750000
20
53.207001
30
1.078000
70
192
0
VERTEX
8
OBJECT__33
10
38.750000
20
53.198002
30
3.323000
70
192
0
VERTEX
8
OBJECT__33
10
38.750000
20
51.194000
30
4.040000
70
192
0
VERTEX
8
OBJECT__33
10
38.750000
20
53.196999
30
-3.725000
70
192
0
VERTEX
8
OBJECT__33
10
38.750000
20
51.199001
30
-3.384000
70
192
0
VERTEX
8
OBJECT__33
10
38.750000
20
51.181000
30
-4.954000
70
192
0
VERTEX
8
OBJECT__33
10
38.750000
20
53.207001
30
-1.078000
70
192
0
VERTEX
8
OBJECT__33
10
38.750000
20
51.209999
30
-0.202000
70
192
0
VERTEX
8
OBJECT__33
10
38.750000
20
51.202999
30
-2.296000
70
192
0
VERTEX
8
OBJECT__33
10
38.750000
20
53.210999
30
0.000000
70
192
0
VERTEX
8
OBJECT__33
10
38.750000
20
53.165001
30
-6.176000
70
192
0
VERTEX
8
OBJECT__33
10
38.750000
20
51.144001
30
-8.132000
70
192
0
VERTEX
8
OBJECT__33
10
38.750000
20
53.124001
30
-9.311000
70
192
0
VERTEX
8
OBJECT__33
10
38.750000
20
53.198002
30
-3.323000
70
192
0
VERTEX
8
OBJECT__33
10
38.750000
20
53.196999
30
3.725000
70
192
0
VERTEX
8
OBJECT__33
10
38.750000
20
51.133999
30
8.360000
70
192
0
VERTEX
8
OBJECT__33
10
38.750000
20
51.181999
30
4.931000
70
192
0
VERTEX
8
OBJECT__33
10
38.750000
20
53.171001
30
6.042000
70
192
0
VERTEX
8
OBJECT__33
10
38.750000
20
53.113998
30
9.644000
70
192
0
VERTEX
8
OBJECT__33
10
38.750000
20
51.116001
30
9.696000
70
192
0
VERTEX
8
OBJECT__33
10
38.750000
20
53.118000
30
-9.550000
70
192
0
VERTEX
8
OBJECT__33
10
38.750000
20
51.144001
30
-8.156000
70
192
0
VERTEX
8
OBJECT__33
10
38.750000
20
51.042999
30
-12.927000
70
192
0
VERTEX
8
OBJECT__33
10
38.750000
20
53.154999
30
7.449000
70
192
0
VERTEX
8
OBJECT__33
10
38.750000
20
53.085999
30
11.173000
70
192
0
VERTEX
8
OBJECT__33
10
38.750000
20
52.988998
30
14.897000
70
192
0
VERTEX
8
OBJECT__33
10
38.750000
20
51.042999
30
12.927000
70
192
0
VERTEX
8
OBJECT__33
10
38.750000
20
52.988998
30
-14.897000
70
192
0
VERTEX
8
OBJECT__33
10
38.750000
20
47.403999
30
12.966000
70
192
0
VERTEX
8
OBJECT__33
10
38.750000
20
52.661999
30
15.678000
70
192
0
VERTEX
8
OBJECT__33
10
38.750000
20
52.604000
30
15.777000
70
192
0
VERTEX
8
OBJECT__33
10
38.750000
20
52.949001
30
15.185000
70
192
0
VERTEX
8
OBJECT__33
10
38.750000
20
52.658001
30
-15.641000
70
192
0
VERTEX
8
OBJECT__33
10
38.750000
20
52.789001
30
-15.558000
70
192
0
VERTEX
8
OBJECT__33
10
38.750000
20
51.988998
30
-16.021000
70
192
0
VERTEX
8
OBJECT__33
10
38.750000
20
52.055000
30
-16.018999
70
192
0
VERTEX
8
OBJECT__33
10
38.750000
20
44.173000
30
-16.021000
70
192
0
VERTEX
8
OBJECT__33
10
38.750000
20
51.988998
30
16.021000
70
192
0
VERTEX
8
OBJECT__33
10
38.750000
20
52.938000
30
-15.228000
70
192
0
VERTEX
8
OBJECT__33
10
38.750000
20
44.173000
30
-13.001000
70
192
0
VERTEX
8
OBJECT__33
10
38.750000
20
47.403999
30
16.021000
70
192
0
VERTEX
8
OBJECT__33
10
0
20
0
30
0
70
128
71
1
72
2
73
3
0
VERTEX
8
OBJECT__33
10
0
20
0
30
0
70
128
71
4
72
5
73
1
0
VERTEX
8
OBJECT__33
10
0
20
0
30
0
70
128
71
6
72
7
73
8
0
VERTEX
8
OBJECT__33
10
0
20
0
30
0
70
128
71
9
72
10
73
11
0
VERTEX
8
OBJECT__33
10
0
20
0
30
0
70
128
71
2
72
12
73
3
0
VERTEX
8
OBJECT__33
10
0
20
0
30
0
70
128
71
8
72
13
73
6
0
VERTEX
8
OBJECT__33
10
0
20
0
30
0
70
128
71
14
72
15
73
13
0
VERTEX
8
OBJECT__33
10
0
20
0
30
0
70
128
71
11
72
16
73
9
0
VERTEX
8
OBJECT__33
10
0
20
0
30
0
70
128
71
3
72
4
73
1
0
VERTEX
8
OBJECT__33
10
0
20
0
30
0
70
128
71
13
72
8
73
14
0
VERTEX
8
OBJECT__33
10
0
20
0
30
0
70
128
71
9
72
12
73
10
0
VERTEX
8
OBJECT__33
10
0
20
0
30
0
70
128
71
4
72
17
73
5
0
VERTEX
8
OBJECT__33
10
0
20
0
30
0
70
128
71
18
72
19
73
20
0
VERTEX
8
OBJECT__33
10
0
20
0
30
0
70
128
71
21
72
22
73
18
0
VERTEX
8
OBJECT__33
10
0
20
0
30
0
70
128
71
23
72
24
73
25
0
VERTEX
8
OBJECT__33
10
0
20
0
30
0
70
128
71
6
72
16
73
7
0
VERTEX
8
OBJECT__33
10
0
20
0
30
0
70
128
71
2
72
10
73
12
0
VERTEX
8
OBJECT__33
10
0
20
0
30
0
70
128
71
18
72
26
73
21
0
VERTEX
8
OBJECT__33
10
0
20
0
30
0
70
128
71
17
72
20
73
19
0
VERTEX
8
OBJECT__33
10
0
20
0
30
0
70
128
71
27
72
28
73
29
0
VERTEX
8
OBJECT__33
10
0
20
0
30
0
70
128
71
25
72
30
73
23
0
VERTEX
8
OBJECT__33
10
0
20
0
30
0
70
128
71
11
72
7
73
16
0
VERTEX
8
OBJECT__33
10
0
20
0
30
0
70
128
71
19
72
5
73
17
0
VERTEX
8
OBJECT__33
10
0
20
0
30
0
70
128
71
22
72
21
73
27
0
VERTEX
8
OBJECT__33
10
0
20
0
30
0
70
128
71
31
72
32
73
33
0
VERTEX
8
OBJECT__33
10
0
20
0
30
0
70
128
71
34
72
31
73
29
0
VERTEX
8
OBJECT__33
10
0
20
0
30
0
70
128
71
25
72
35
73
36
0
VERTEX
8
OBJECT__33
10
0
20
0
30
0
70
128
71
25
72
37
73
38
0
VERTEX
8
OBJECT__33
10
0
20
0
30
0
70
128
71
39
72
37
73
25
0
VERTEX
8
OBJECT__33
10
0
20
0
30
0
70
128
71
14
72
24
73
15
0
VERTEX
8
OBJECT__33
10
0
20
0
30
0
70
128
71
29
72
22
73
27
0
VERTEX
8
OBJECT__33
10
0
20
0
30
0
70
128
71
33
72
40
73
31
0
VERTEX
8
OBJECT__33
10
0
20
0
30
0
70
128
71
29
72
28
73
34
0
VERTEX
8
OBJECT__33
10
0
20
0
30
0
70
128
71
36
72
41
73
25
0
VERTEX
8
OBJECT__33
10
0
20
0
30
0
70
128
71
25
72
42
73
39
0
VERTEX
8
OBJECT__33
10
0
20
0
30
0
70
128
71
20
72
26
73
18
0
VERTEX
8
OBJECT__33
10
0
20
0
30
0
70
128
71
34
72
32
73
31
0
VERTEX
8
OBJECT__33
10
0
20
0
30
0
70
128
71
38
72
35
73
25
0
VERTEX
8
OBJECT__33
10
0
20
0
30
0
70
128
71
40
72
43
73
31
0
VERTEX
8
OBJECT__33
10
0
20
0
30
0
70
128
71
23
72
15
73
24
0
VERTEX
8
OBJECT__33
10
0
20
0
30
0
70
128
71
41
72
30
73
25
0
SEQEND
8
OBJECT__33
0
POLYLINE
8
OBJECT__34
66
1
70
64
71
106
72
104
62
253
0
VERTEX
8
OBJECT__34
10
36.713001
20
44.368000
30
11.276000
70
192
0
VERTEX
8
OBJECT__34
10
36.264000
20
43.299000
30
14.301000
70
192
0
VERTEX
8
OBJECT__34
10
36.148998
20
42.897999
30
14.203000
70
192
0
VERTEX
8
OBJECT__34
10
37.265999
20
45.328999
30
11.774000
70
192
0
VERTEX
8
OBJECT__34
10
37.685001
20
46.056999
30
12.152000
70
192
0
VERTEX
8
OBJECT__34
10
38.750000
20
47.403999
30
12.966000
70
192
0
VERTEX
8
OBJECT__34
10
37.742001
20
46.139999
30
15.396000
70
192
0
VERTEX
8
OBJECT__34
10
36.756001
20
44.457001
30
14.691000
70
192
0
VERTEX
8
OBJECT__34
10
38.750000
20
47.403999
30
16.021000
70
192
0
VERTEX
8
OBJECT__34
10
35.521999
20
38.257000
30
13.658000
70
192
0
VERTEX
8
OBJECT__34
10
35.585999
20
37.730000
30
13.716000
70
192
0
VERTEX
8
OBJECT__34
10
35.580002
20
37.728001
30
10.105000
70
192
0
VERTEX
8
OBJECT__34
10
35.537998
20
39.967999
30
13.673000
70
192
0
VERTEX
8
OBJECT__34
10
35.516998
20
38.339001
30
10.020000
70
192
0
VERTEX
8
OBJECT__34
10
35.699001
20
41.219002
30
10.203000
70
192
0
VERTEX
8
OBJECT__34
10
36.120998
20
42.887001
30
10.669000
70
192
0
VERTEX
8
OBJECT__34
10
35.765999
20
41.563000
30
13.878000
70
192
0
VERTEX
8
OBJECT__34
10
35.534000
20
39.915001
30
10.019000
70
192
0
VERTEX
8
OBJECT__34
10
36.127998
20
42.903999
30
10.676000
70
192
0
VERTEX
8
OBJECT__34
10
36.110001
20
42.762001
30
14.170000
70
192
0
VERTEX
8
OBJECT__34
10
36.400002
20
34.340000
30
14.411000
70
192
0
VERTEX
8
OBJECT__34
10
37.167000
20
32.771999
30
14.995000
70
192
0
VERTEX
8
OBJECT__34
10
37.188999
20
32.785000
30
11.855000
70
192
0
VERTEX
8
OBJECT__34
10
36.734001
20
33.581001
30
11.429000
70
192
0
VERTEX
8
OBJECT__34
10
36.139999
20
35.049000
30
14.198000
70
192
0
VERTEX
8
OBJECT__34
10
36.082001
20
35.226002
30
10.726000
70
192
0
VERTEX
8
OBJECT__34
10
36.109001
20
35.167999
30
14.171000
70
192
0
VERTEX
8
OBJECT__34
10
35.712002
20
36.705002
30
13.829000
70
192
0
VERTEX
8
OBJECT__34
10
35.980999
20
35.562000
30
10.608000
70
192
0
VERTEX
8
OBJECT__34
10
35.643002
20
37.108002
30
10.192000
70
192
0
VERTEX
8
OBJECT__34
10
37.209999
20
32.686001
30
15.027000
70
192
0
VERTEX
8
OBJECT__34
10
38.270000
20
31.149000
30
15.735000
70
192
0
VERTEX
8
OBJECT__34
10
38.805000
20
30.528999
30
13.185000
70
192
0
VERTEX
8
OBJECT__34
10
39.535000
20
29.799000
30
16.450001
70
192
0
VERTEX
8
OBJECT__34
10
40.240002
20
29.197001
30
14.091000
70
192
0
VERTEX
8
OBJECT__34
10
37.625000
20
32.025002
30
12.261000
70
192
0
VERTEX
8
OBJECT__34
10
37.192001
20
32.782001
30
11.857000
70
192
0
VERTEX
8
OBJECT__34
10
40.658001
20
28.917000
30
16.964001
70
192
0
VERTEX
8
OBJECT__34
10
40.651001
20
28.909000
30
14.298000
70
192
0
VERTEX
8
OBJECT__34
10
42.194000
20
27.965000
30
14.988000
70
192
0
VERTEX
8
OBJECT__34
10
41.464001
20
28.341999
30
14.707000
70
192
0
VERTEX
8
OBJECT__34
10
41.073002
20
28.591999
30
17.153999
70
192
0
VERTEX
8
OBJECT__34
10
41.678001
20
28.246000
30
17.368999
70
192
0
VERTEX
8
OBJECT__34
10
42.578999
20
27.733000
30
17.688000
70
192
0
VERTEX
8
OBJECT__34
10
43.117001
20
27.490000
30
15.343000
70
192
0
VERTEX
8
OBJECT__34
10
44.320999
20
27.049999
30
18.129999
70
192
0
VERTEX
8
OBJECT__34
10
44.507000
20
26.993999
30
15.723000
70
192
0
VERTEX
8
OBJECT__34
10
45.403999
20
26.806000
30
18.292999
70
192
0
VERTEX
8
OBJECT__34
10
45.403000
20
26.802000
30
15.872000
70
192
0
VERTEX
8
OBJECT__34
10
46.251999
20
26.618999
30
16.014000
70
192
0
VERTEX
8
OBJECT__34
10
46.191002
20
26.628000
30
18.410999
70
192
0
VERTEX
8
OBJECT__34
10
48.000000
20
26.496000
30
18.500000
70
192
0
VERTEX
8
OBJECT__34
10
48.000000
20
26.500999
30
16.107000
70
192
0
VERTEX
8
OBJECT__34
10
48.062000
20
26.497000
30
16.110001
70
192
0
VERTEX
8
OBJECT__34
10
49.381001
20
26.573000
30
18.448000
70
192
0
VERTEX
8
OBJECT__34
10
49.818001
20
26.629000
30
16.006001
70
192
0
VERTEX
8
OBJECT__34
10
50.598999
20
26.798000
30
18.298000
70
192
0
VERTEX
8
OBJECT__34
10
50.598000
20
26.799999
30
15.874000
70
192
0
VERTEX
8
OBJECT__34
10
51.146999
20
26.899000
30
18.230000
70
192
0
VERTEX
8
OBJECT__34
10
52.087002
20
27.184000
30
18.042999
70
192
0
VERTEX
8
OBJECT__34
10
51.506001
20
26.997999
30
15.720000
70
192
0
VERTEX
8
OBJECT__34
10
53.759998
20
27.903000
30
17.580000
70
192
0
VERTEX
8
OBJECT__34
10
53.151001
20
27.607000
30
15.254000
70
192
0
VERTEX
8
OBJECT__34
10
54.320999
20
28.247999
30
17.368000
70
192
0
VERTEX
8
OBJECT__34
10
54.057999
20
28.062000
30
14.913000
70
192
0
VERTEX
8
OBJECT__34
10
53.813000
20
27.938999
30
15.005000
70
192
0
VERTEX
8
OBJECT__34
10
55.318001
20
28.862000
30
16.990999
70
192
0
VERTEX
8
OBJECT__34
10
55.356998
20
28.896000
30
16.972000
70
192
0
VERTEX
8
OBJECT__34
10
55.351002
20
28.908001
30
14.299000
70
192
0
VERTEX
8
OBJECT__34
10
56.895000
20
30.214001
30
16.221001
70
192
0
VERTEX
8
OBJECT__34
10
55.584999
20
29.061001
30
14.187000
70
192
0
VERTEX
8
OBJECT__34
10
57.345001
20
30.695000
30
13.078000
70
192
0
VERTEX
8
OBJECT__34
10
58.154999
20
31.708000
30
15.464000
70
192
0
VERTEX
8
OBJECT__34
10
58.800999
20
32.792000
30
15.005000
70
192
0
VERTEX
8
OBJECT__34
10
58.808998
20
32.782001
30
11.857000
70
192
0
VERTEX
8
OBJECT__34
10
58.530998
20
32.263000
30
12.125000
70
192
0
VERTEX
8
OBJECT__34
10
58.810001
20
32.785000
30
11.856000
70
192
0
VERTEX
8
OBJECT__34
10
56.958000
20
30.278000
30
13.350000
70
192
0
VERTEX
8
OBJECT__34
10
60.358002
20
37.116001
30
10.190000
70
192
0
VERTEX
8
OBJECT__34
10
59.986000
20
35.450001
30
10.647000
70
192
0
VERTEX
8
OBJECT__34
10
60.278000
20
36.651001
30
13.838000
70
192
0
VERTEX
8
OBJECT__34
10
60.407001
20
37.730000
30
13.722000
70
192
0
VERTEX
8
OBJECT__34
10
60.417999
20
37.729000
30
10.108000
70
192
0
VERTEX
8
OBJECT__34
10
59.451000
20
33.984001
30
11.239000
70
192
0
VERTEX
8
OBJECT__34
10
59.936001
20
35.285000
30
14.134000
70
192
0
VERTEX
8
OBJECT__34
10
59.890999
20
35.169998
30
14.171000
70
192
0
VERTEX
8
OBJECT__34
10
59.242001
20
33.529999
30
14.693000
70
192
0
VERTEX
8
OBJECT__34
10
60.242001
20
41.525002
30
13.871000
70
192
0
VERTEX
8
OBJECT__34
10
59.889999
20
42.756001
30
14.170000
70
192
0
VERTEX
8
OBJECT__34
10
59.868999
20
42.903000
30
10.679000
70
192
0
VERTEX
8
OBJECT__34
10
59.915001
20
42.776001
30
10.631000
70
192
0
VERTEX
8
OBJECT__34
10
60.298000
20
41.233002
30
10.206000
70
192
0
VERTEX
8
OBJECT__34
10
60.471001
20
39.842999
30
13.664000
70
192
0
VERTEX
8
OBJECT__34
10
60.459000
20
40.009998
30
10.026000
70
192
0
VERTEX
8
OBJECT__34
10
60.487000
20
38.433998
30
10.013000
70
192
0
VERTEX
8
OBJECT__34
10
60.484001
20
38.369999
30
13.653000
70
192
0
VERTEX
8
OBJECT__34
10
58.439999
20
45.870998
30
15.273000
70
192
0
VERTEX
8
OBJECT__34
10
57.250000
20
47.403999
30
16.021000
70
192
0
VERTEX
8
OBJECT__34
10
57.250000
20
47.403999
30
12.966000
70
192
0
VERTEX
8
OBJECT__34
10
57.801998
20
46.752998
30
12.562000
70
192
0
VERTEX
8
OBJECT__34
10
58.740002
20
45.372002
30
11.780000
70
192
0
VERTEX
8
OBJECT__34
10
58.999001
20
44.936001
30
14.875000
70
192
0
VERTEX
8
OBJECT__34
10
59.730999
20
43.313999
30
14.305000
70
192
0
VERTEX
8
OBJECT__34
10
58.826000
20
45.244999
30
11.708000
70
192
0
VERTEX
8
OBJECT__34
10
59.605999
20
43.638000
30
10.956000
70
192
0
VERTEX
8
OBJECT__34
10
59.849998
20
42.897999
30
14.204000
70
192
0
VERTEX
8
OBJECT__34
10
0
20
0
30
0
70
128
71
1
72
2
73
3
0
VERTEX
8
OBJECT__34
10
0
20
0
30
0
70
128
71
2
72
1
73
4
0
VERTEX
8
OBJECT__34
10
0
20
0
30
0
70
128
71
5
72
6
73
7
0
VERTEX
8
OBJECT__34
10
0
20
0
30
0
70
128
71
8
72
4
73
5
0
VERTEX
8
OBJECT__34
10
0
20
0
30
0
70
128
71
6
72
9
73
7
0
VERTEX
8
OBJECT__34
10
0
20
0
30
0
70
128
71
7
72
8
73
5
0
VERTEX
8
OBJECT__34
10
0
20
0
30
0
70
128
71
4
72
8
73
2
0
VERTEX
8
OBJECT__34
10
0
20
0
30
0
70
128
71
10
72
11
73
12
0
VERTEX
8
OBJECT__34
10
0
20
0
30
0
70
128
71
13
72
10
73
14
0
VERTEX
8
OBJECT__34
10
0
20
0
30
0
70
128
71
15
72
16
73
17
0
VERTEX
8
OBJECT__34
10
0
20
0
30
0
70
128
71
13
72
18
73
15
0
VERTEX
8
OBJECT__34
10
0
20
0
30
0
70
128
71
17
72
16
73
19
0
VERTEX
8
OBJECT__34
10
0
20
0
30
0
70
128
71
19
72
3
73
20
0
VERTEX
8
OBJECT__34
10
0
20
0
30
0
70
128
71
19
72
20
73
17
0
VERTEX
8
OBJECT__34
10
0
20
0
30
0
70
128
71
17
72
13
73
15
0
VERTEX
8
OBJECT__34
10
0
20
0
30
0
70
128
71
14
72
18
73
13
0
VERTEX
8
OBJECT__34
10
0
20
0
30
0
70
128
71
21
72
22
73
23
0
VERTEX
8
OBJECT__34
10
0
20
0
30
0
70
128
71
24
72
25
73
21
0
VERTEX
8
OBJECT__34
10
0
20
0
30
0
70
128
71
26
72
27
73
25
0
VERTEX
8
OBJECT__34
10
0
20
0
30
0
70
128
71
28
72
27
73
26
0
VERTEX
8
OBJECT__34
10
0
20
0
30
0
70
128
71
26
72
29
73
28
0
VERTEX
8
OBJECT__34
10
0
20
0
30
0
70
128
71
25
72
24
73
26
0
VERTEX
8
OBJECT__34
10
0
20
0
30
0
70
128
71
30
72
11
73
28
0
VERTEX
8
OBJECT__34
10
0
20
0
30
0
70
128
71
28
72
29
73
30
0
VERTEX
8
OBJECT__34
10
0
20
0
30
0
70
128
71
30
72
12
73
11
0
VERTEX
8
OBJECT__34
10
0
20
0
30
0
70
128
71
31
72
32
73
33
0
VERTEX
8
OBJECT__34
10
0
20
0
30
0
70
128
71
32
72
34
73
35
0
VERTEX
8
OBJECT__34
10
0
20
0
30
0
70
128
71
35
72
33
73
32
0
VERTEX
8
OBJECT__34
10
0
20
0
30
0
70
128
71
36
72
37
73
22
0
VERTEX
8
OBJECT__34
10
0
20
0
30
0
70
128
71
22
72
31
73
36
0
VERTEX
8
OBJECT__34
10
0
20
0
30
0
70
128
71
37
72
23
73
22
0
VERTEX
8
OBJECT__34
10
0
20
0
30
0
70
128
71
34
72
38
73
39
0
VERTEX
8
OBJECT__34
10
0
20
0
30
0
70
128
71
39
72
35
73
34
0
VERTEX
8
OBJECT__34
10
0
20
0
30
0
70
128
71
40
72
41
73
42
0
VERTEX
8
OBJECT__34
10
0
20
0
30
0
70
128
71
41
72
38
73
42
0
VERTEX
8
OBJECT__34
10
0
20
0
30
0
70
128
71
43
72
44
73
45
0
VERTEX
8
OBJECT__34
10
0
20
0
30
0
70
128
71
45
72
40
73
43
0
VERTEX
8
OBJECT__34
10
0
20
0
30
0
70
128
71
42
72
43
73
40
0
VERTEX
8
OBJECT__34
10
0
20
0
30
0
70
128
71
44
72
46
73
47
0
VERTEX
8
OBJECT__34
10
0
20
0
30
0
70
128
71
47
72
45
73
44
0
VERTEX
8
OBJECT__34
10
0
20
0
30
0
70
128
71
46
72
48
73
49
0
VERTEX
8
OBJECT__34
10
0
20
0
30
0
70
128
71
49
72
47
73
46
0
VERTEX
8
OBJECT__34
10
0
20
0
30
0
70
128
71
50
72
49
73
48
0
VERTEX
8
OBJECT__34
10
0
20
0
30
0
70
128
71
51
72
52
73
53
0
VERTEX
8
OBJECT__34
10
0
20
0
30
0
70
128
71
52
72
54
73
53
0
VERTEX
8
OBJECT__34
10
0
20
0
30
0
70
128
71
54
72
52
73
55
0
VERTEX
8
OBJECT__34
10
0
20
0
30
0
70
128
71
55
72
56
73
54
0
VERTEX
8
OBJECT__34
10
0
20
0
30
0
70
128
71
57
72
58
73
56
0
VERTEX
8
OBJECT__34
10
0
20
0
30
0
70
128
71
55
72
57
73
56
0
VERTEX
8
OBJECT__34
10
0
20
0
30
0
70
128
71
53
72
50
73
51
0
VERTEX
8
OBJECT__34
10
0
20
0
30
0
70
128
71
59
72
60
73
61
0
VERTEX
8
OBJECT__34
10
0
20
0
30
0
70
128
71
58
72
57
73
59
0
VERTEX
8
OBJECT__34
10
0
20
0
30
0
70
128
71
60
72
62
73
63
0
VERTEX
8
OBJECT__34
10
0
20
0
30
0
70
128
71
63
72
62
73
64
0
VERTEX
8
OBJECT__34
10
0
20
0
30
0
70
128
71
64
72
65
73
66
0
VERTEX
8
OBJECT__34
10
0
20
0
30
0
70
128
71
65
72
67
73
68
0
VERTEX
8
OBJECT__34
10
0
20
0
30
0
70
128
71
65
72
64
73
67
0
VERTEX
8
OBJECT__34
10
0
20
0
30
0
70
128
71
68
72
69
73
65
0
VERTEX
8
OBJECT__34
10
0
20
0
30
0
70
128
71
64
72
66
73
63
0
VERTEX
8
OBJECT__34
10
0
20
0
30
0
70
128
71
63
72
61
73
60
0
VERTEX
8
OBJECT__34
10
0
20
0
30
0
70
128
71
70
72
71
73
69
0
VERTEX
8
OBJECT__34
10
0
20
0
30
0
70
128
71
72
72
73
73
74
0
VERTEX
8
OBJECT__34
10
0
20
0
30
0
70
128
71
74
72
75
73
76
0
VERTEX
8
OBJECT__34
10
0
20
0
30
0
70
128
71
74
72
77
73
75
0
VERTEX
8
OBJECT__34
10
0
20
0
30
0
70
128
71
78
72
71
73
70
0
VERTEX
8
OBJECT__34
10
0
20
0
30
0
70
128
71
73
72
72
73
78
0
VERTEX
8
OBJECT__34
10
0
20
0
30
0
70
128
71
70
72
73
73
78
0
VERTEX
8
OBJECT__34
10
0
20
0
30
0
70
128
71
74
72
76
73
72
0
VERTEX
8
OBJECT__34
10
0
20
0
30
0
70
128
71
79
72
80
73
81
0
VERTEX
8
OBJECT__34
10
0
20
0
30
0
70
128
71
82
72
83
73
79
0
VERTEX
8
OBJECT__34
10
0
20
0
30
0
70
128
71
80
72
84
73
85
0
VERTEX
8
OBJECT__34
10
0
20
0
30
0
70
128
71
86
72
84
73
77
0
VERTEX
8
OBJECT__34
10
0
20
0
30
0
70
128
71
77
72
87
73
86
0
VERTEX
8
OBJECT__34
10
0
20
0
30
0
70
128
71
77
72
74
73
87
0
VERTEX
8
OBJECT__34
10
0
20
0
30
0
70
128
71
86
72
85
73
84
0
VERTEX
8
OBJECT__34
10
0
20
0
30
0
70
128
71
85
72
81
73
80
0
VERTEX
8
OBJECT__34
10
0
20
0
30
0
70
128
71
88
72
89
73
90
0
VERTEX
8
OBJECT__34
10
0
20
0
30
0
70
128
71
90
72
91
73
88
0
VERTEX
8
OBJECT__34
10
0
20
0
30
0
70
128
71
92
72
93
73
88
0
VERTEX
8
OBJECT__34
10
0
20
0
30
0
70
128
71
88
72
91
73
92
0
VERTEX
8
OBJECT__34
10
0
20
0
30
0
70
128
71
92
72
94
73
93
0
VERTEX
8
OBJECT__34
10
0
20
0
30
0
70
128
71
95
72
96
73
93
0
VERTEX
8
OBJECT__34
10
0
20
0
30
0
70
128
71
93
72
94
73
95
0
VERTEX
8
OBJECT__34
10
0
20
0
30
0
70
128
71
96
72
95
73
83
0
VERTEX
8
OBJECT__34
10
0
20
0
30
0
70
128
71
83
72
82
73
96
0
VERTEX
8
OBJECT__34
10
0
20
0
30
0
70
128
71
97
72
98
73
99
0
VERTEX
8
OBJECT__34
10
0
20
0
30
0
70
128
71
100
72
101
73
102
0
VERTEX
8
OBJECT__34
10
0
20
0
30
0
70
128
71
102
72
97
73
100
0
VERTEX
8
OBJECT__34
10
0
20
0
30
0
70
128
71
103
72
102
73
101
0
VERTEX
8
OBJECT__34
10
0
20
0
30
0
70
128
71
101
72
104
73
103
0
VERTEX
8
OBJECT__34
10
0
20
0
30
0
70
128
71
104
72
105
73
103
0
VERTEX
8
OBJECT__34
10
0
20
0
30
0
70
128
71
106
72
103
73
105
0
VERTEX
8
OBJECT__34
10
0
20
0
30
0
70
128
71
105
72
90
73
106
0
VERTEX
8
OBJECT__34
10
0
20
0
30
0
70
128
71
99
72
100
73
97
0
VERTEX
8
OBJECT__34
10
0
20
0
30
0
70
128
71
89
72
106
73
90
0
VERTEX
8
OBJECT__34
10
0
20
0
30
0
70
128
71
81
72
82
73
79
0
VERTEX
8
OBJECT__34
10
0
20
0
30
0
70
128
71
69
72
68
73
70
0
VERTEX
8
OBJECT__34
10
0
20
0
30
0
70
128
71
61
72
58
73
59
0
VERTEX
8
OBJECT__34
10
0
20
0
30
0
70
128
71
48
72
51
73
50
0
VERTEX
8
OBJECT__34
10
0
20
0
30
0
70
128
71
41
72
39
73
38
0
VERTEX
8
OBJECT__34
10
0
20
0
30
0
70
128
71
33
72
36
73
31
0
VERTEX
8
OBJECT__34
10
0
20
0
30
0
70
128
71
23
72
24
73
21
0
VERTEX
8
OBJECT__34
10
0
20
0
30
0
70
128
71
12
72
14
73
10
0
VERTEX
8
OBJECT__34
10
0
20
0
30
0
70
128
71
3
72
19
73
1
0
SEQEND
8
OBJECT__34
0
POLYLINE
8
OBJECT__35
66
1
70
64
71
85
72
83
62
253
0
VERTEX
8
OBJECT__35
10
58.432999
20
40.870998
30
-12.110000
70
192
0
VERTEX
8
OBJECT__35
10
58.480000
20
40.589001
30
-15.246000
70
192
0
VERTEX
8
OBJECT__35
10
58.558998
20
39.500000
30
-15.191000
70
192
0
VERTEX
8
OBJECT__35
10
58.015999
20
42.466999
30
-12.440000
70
192
0
VERTEX
8
OBJECT__35
10
58.193001
20
41.905998
30
-15.439000
70
192
0
VERTEX
8
OBJECT__35
10
57.583000
20
43.526001
30
-15.824000
70
192
0
VERTEX
8
OBJECT__35
10
57.648998
20
43.384998
30
-12.716000
70
192
0
VERTEX
8
OBJECT__35
10
57.250000
20
44.173000
30
-13.001000
70
192
0
VERTEX
8
OBJECT__35
10
57.250000
20
44.173000
30
-16.021000
70
192
0
VERTEX
8
OBJECT__35
10
58.064999
20
35.672001
30
-15.522000
70
192
0
VERTEX
8
OBJECT__35
10
57.669998
20
34.738998
30
-15.766000
70
192
0
VERTEX
8
OBJECT__35
10
57.681999
20
34.735001
30
-12.780000
70
192
0
VERTEX
8
OBJECT__35
10
57.832001
20
35.035999
30
-12.668000
70
192
0
VERTEX
8
OBJECT__35
10
58.158001
20
35.967999
30
-15.462000
70
192
0
VERTEX
8
OBJECT__35
10
58.317001
20
36.564999
30
-12.258000
70
192
0
VERTEX
8
OBJECT__35
10
58.505001
20
37.581001
30
-15.228000
70
192
0
VERTEX
8
OBJECT__35
10
58.540001
20
37.870998
30
-12.052000
70
192
0
VERTEX
8
OBJECT__35
10
58.590000
20
39.457001
30
-11.990000
70
192
0
VERTEX
8
OBJECT__35
10
58.599998
20
38.931999
30
-15.162000
70
192
0
VERTEX
8
OBJECT__35
10
58.584999
20
39.501999
30
-11.994000
70
192
0
VERTEX
8
OBJECT__35
10
55.456001
20
31.462000
30
-16.931000
70
192
0
VERTEX
8
OBJECT__35
10
54.752998
20
30.874001
30
-14.565000
70
192
0
VERTEX
8
OBJECT__35
10
55.553001
20
31.559000
30
-14.180000
70
192
0
VERTEX
8
OBJECT__35
10
56.470001
20
32.622002
30
-16.447001
70
192
0
VERTEX
8
OBJECT__35
10
54.751999
20
30.875999
30
-17.207001
70
192
0
VERTEX
8
OBJECT__35
10
56.054001
20
32.105000
30
-13.896000
70
192
0
VERTEX
8
OBJECT__35
10
56.446999
20
32.648998
30
-13.642000
70
192
0
VERTEX
8
OBJECT__35
10
57.395000
20
34.089001
30
-15.937000
70
192
0
VERTEX
8
OBJECT__35
10
57.081001
20
33.528000
30
-13.233000
70
192
0
VERTEX
8
OBJECT__35
10
53.150002
20
29.731001
30
-15.235000
70
192
0
VERTEX
8
OBJECT__35
10
54.188000
20
30.389999
30
-14.837000
70
192
0
VERTEX
8
OBJECT__35
10
54.324001
20
30.518999
30
-17.375999
70
192
0
VERTEX
8
OBJECT__35
10
54.063999
20
30.302000
30
-17.478001
70
192
0
VERTEX
8
OBJECT__35
10
52.838001
20
29.565001
30
-17.856001
70
192
0
VERTEX
8
OBJECT__35
10
51.571999
20
29.017000
30
-15.687000
70
192
0
VERTEX
8
OBJECT__35
10
51.217999
20
28.896999
30
-18.218000
70
192
0
VERTEX
8
OBJECT__35
10
50.953999
20
28.837999
30
-15.803000
70
192
0
VERTEX
8
OBJECT__35
10
50.423000
20
28.705999
30
-18.325001
70
192
0
VERTEX
8
OBJECT__35
10
50.426998
20
28.684999
30
-15.902000
70
192
0
VERTEX
8
OBJECT__35
10
49.701000
20
28.534000
30
-18.422001
70
192
0
VERTEX
8
OBJECT__35
10
48.000000
20
28.396000
30
-18.500000
70
192
0
VERTEX
8
OBJECT__35
10
48.646000
20
28.416000
30
-16.080000
70
192
0
VERTEX
8
OBJECT__35
10
50.305000
20
28.650000
30
-15.925000
70
192
0
VERTEX
8
OBJECT__35
10
46.807999
20
28.464001
30
-16.049000
70
192
0
VERTEX
8
OBJECT__35
10
45.792999
20
28.629000
30
-18.368000
70
192
0
VERTEX
8
OBJECT__35
10
45.575001
20
28.702000
30
-15.892000
70
192
0
VERTEX
8
OBJECT__35
10
47.252998
20
28.423000
30
-18.485001
70
192
0
VERTEX
8
OBJECT__35
10
45.575001
20
28.694000
30
-18.332001
70
192
0
VERTEX
8
OBJECT__35
10
44.167000
20
29.114000
30
-18.099001
70
192
0
VERTEX
8
OBJECT__35
10
45.179001
20
28.778999
30
-15.841000
70
192
0
VERTEX
8
OBJECT__35
10
44.659000
20
28.937000
30
-15.738000
70
192
0
VERTEX
8
OBJECT__35
10
45.043999
20
28.820000
30
-15.814000
70
192
0
VERTEX
8
OBJECT__35
10
43.911999
20
29.216000
30
-18.042999
70
192
0
VERTEX
8
OBJECT__35
10
42.365002
20
30.018000
30
-17.621000
70
192
0
VERTEX
8
OBJECT__35
10
43.105999
20
29.594000
30
-15.321000
70
192
0
VERTEX
8
OBJECT__35
10
41.678001
20
30.533001
30
-17.370001
70
192
0
VERTEX
8
OBJECT__35
10
41.673000
20
30.492001
30
-14.778000
70
192
0
VERTEX
8
OBJECT__35
10
41.236000
20
30.864000
30
-17.209000
70
192
0
VERTEX
8
OBJECT__35
10
41.241001
20
30.867001
30
-14.567000
70
192
0
VERTEX
8
OBJECT__35
10
38.466999
20
34.361000
30
-12.902000
70
192
0
VERTEX
8
OBJECT__35
10
38.327000
20
34.660999
30
-15.770000
70
192
0
VERTEX
8
OBJECT__35
10
38.304001
20
34.728001
30
-15.755000
70
192
0
VERTEX
8
OBJECT__35
10
39.308998
20
32.928001
30
-13.498000
70
192
0
VERTEX
8
OBJECT__35
10
38.868999
20
33.612000
30
-16.090000
70
192
0
VERTEX
8
OBJECT__35
10
39.921001
20
32.133999
30
-16.643000
70
192
0
VERTEX
8
OBJECT__35
10
40.462002
20
31.544001
30
-14.188000
70
192
0
VERTEX
8
OBJECT__35
10
40.964001
20
31.069000
30
-17.110001
70
192
0
VERTEX
8
OBJECT__35
10
39.551998
20
32.636002
30
-13.644000
70
192
0
VERTEX
8
OBJECT__35
10
37.405998
20
38.650002
30
-11.995000
70
192
0
VERTEX
8
OBJECT__35
10
37.578999
20
37.056999
30
-12.165000
70
192
0
VERTEX
8
OBJECT__35
10
37.486000
20
37.646000
30
-15.222000
70
192
0
VERTEX
8
OBJECT__35
10
37.403999
20
39.304001
30
-15.165000
70
192
0
VERTEX
8
OBJECT__35
10
37.424000
20
39.501999
30
-12.002000
70
192
0
VERTEX
8
OBJECT__35
10
37.839001
20
35.978001
30
-12.395000
70
192
0
VERTEX
8
OBJECT__35
10
37.750000
20
36.293999
30
-15.401000
70
192
0
VERTEX
8
OBJECT__35
10
38.321999
20
34.735001
30
-12.785000
70
192
0
VERTEX
8
OBJECT__35
10
38.032001
20
42.601002
30
-15.585000
70
192
0
VERTEX
8
OBJECT__35
10
38.750000
20
44.173000
30
-16.021000
70
192
0
VERTEX
8
OBJECT__35
10
38.750000
20
44.173000
30
-13.001000
70
192
0
VERTEX
8
OBJECT__35
10
38.056999
20
42.671001
30
-12.496000
70
192
0
VERTEX
8
OBJECT__35
10
37.918999
20
42.273998
30
-15.512000
70
192
0
VERTEX
8
OBJECT__35
10
37.532001
20
40.667000
30
-15.254000
70
192
0
VERTEX
8
OBJECT__35
10
37.667999
20
41.366001
30
-12.191000
70
192
0
VERTEX
8
OBJECT__35
10
37.431000
20
39.807999
30
-12.004000
70
192
0
VERTEX
8
OBJECT__35
10
37.423000
20
39.500999
30
-15.178000
70
192
0
VERTEX
8
OBJECT__35
10
0
20
0
30
0
70
128
71
1
72
2
73
3
0
VERTEX
8
OBJECT__35
10
0
20
0
30
0
70
128
71
4
72
5
73
2
0
VERTEX
8
OBJECT__35
10
0
20
0
30
0
70
128
71
6
72
5
73
7
0
VERTEX
8
OBJECT__35
10
0
20
0
30
0
70
128
71
5
72
4
73
7
0
VERTEX
8
OBJECT__35
10
0
20
0
30
0
70
128
71
8
72
9
73
6
0
VERTEX
8
OBJECT__35
10
0
20
0
30
0
70
128
71
7
72
8
73
6
0
VERTEX
8
OBJECT__35
10
0
20
0
30
0
70
128
71
2
72
1
73
4
0
VERTEX
8
OBJECT__35
10
0
20
0
30
0
70
128
71
10
72
11
73
12
0
VERTEX
8
OBJECT__35
10
0
20
0
30
0
70
128
71
13
72
14
73
10
0
VERTEX
8
OBJECT__35
10
0
20
0
30
0
70
128
71
15
72
16
73
14
0
VERTEX
8
OBJECT__35
10
0
20
0
30
0
70
128
71
14
72
13
73
15
0
VERTEX
8
OBJECT__35
10
0
20
0
30
0
70
128
71
15
72
17
73
16
0
VERTEX
8
OBJECT__35
10
0
20
0
30
0
70
128
71
17
72
18
73
19
0
VERTEX
8
OBJECT__35
10
0
20
0
30
0
70
128
71
19
72
16
73
17
0
VERTEX
8
OBJECT__35
10
0
20
0
30
0
70
128
71
19
72
18
73
20
0
VERTEX
8
OBJECT__35
10
0
20
0
30
0
70
128
71
20
72
3
73
19
0
VERTEX
8
OBJECT__35
10
0
20
0
30
0
70
128
71
21
72
22
73
23
0
VERTEX
8
OBJECT__35
10
0
20
0
30
0
70
128
71
23
72
24
73
21
0
VERTEX
8
OBJECT__35
10
0
20
0
30
0
70
128
71
21
72
25
73
22
0
VERTEX
8
OBJECT__35
10
0
20
0
30
0
70
128
71
24
72
26
73
27
0
VERTEX
8
OBJECT__35
10
0
20
0
30
0
70
128
71
27
72
28
73
24
0
VERTEX
8
OBJECT__35
10
0
20
0
30
0
70
128
71
27
72
29
73
28
0
VERTEX
8
OBJECT__35
10
0
20
0
30
0
70
128
71
29
72
12
73
11
0
VERTEX
8
OBJECT__35
10
0
20
0
30
0
70
128
71
11
72
28
73
29
0
VERTEX
8
OBJECT__35
10
0
20
0
30
0
70
128
71
30
72
31
73
32
0
VERTEX
8
OBJECT__35
10
0
20
0
30
0
70
128
71
31
72
25
73
32
0
VERTEX
8
OBJECT__35
10
0
20
0
30
0
70
128
71
32
72
33
73
30
0
VERTEX
8
OBJECT__35
10
0
20
0
30
0
70
128
71
30
72
33
73
34
0
VERTEX
8
OBJECT__35
10
0
20
0
30
0
70
128
71
34
72
35
73
30
0
VERTEX
8
OBJECT__35
10
0
20
0
30
0
70
128
71
36
72
37
73
35
0
VERTEX
8
OBJECT__35
10
0
20
0
30
0
70
128
71
36
72
38
73
39
0
VERTEX
8
OBJECT__35
10
0
20
0
30
0
70
128
71
39
72
37
73
36
0
VERTEX
8
OBJECT__35
10
0
20
0
30
0
70
128
71
35
72
34
73
36
0
VERTEX
8
OBJECT__35
10
0
20
0
30
0
70
128
71
40
72
41
73
42
0
VERTEX
8
OBJECT__35
10
0
20
0
30
0
70
128
71
43
72
38
73
40
0
VERTEX
8
OBJECT__35
10
0
20
0
30
0
70
128
71
42
72
43
73
40
0
VERTEX
8
OBJECT__35
10
0
20
0
30
0
70
128
71
44
72
42
73
41
0
VERTEX
8
OBJECT__35
10
0
20
0
30
0
70
128
71
45
72
46
73
44
0
VERTEX
8
OBJECT__35
10
0
20
0
30
0
70
128
71
44
72
47
73
45
0
VERTEX
8
OBJECT__35
10
0
20
0
30
0
70
128
71
45
72
48
73
46
0
VERTEX
8
OBJECT__35
10
0
20
0
30
0
70
128
71
41
72
47
73
44
0
VERTEX
8
OBJECT__35
10
0
20
0
30
0
70
128
71
48
72
49
73
50
0
VERTEX
8
OBJECT__35
10
0
20
0
30
0
70
128
71
49
72
51
73
52
0
VERTEX
8
OBJECT__35
10
0
20
0
30
0
70
128
71
53
72
54
73
55
0
VERTEX
8
OBJECT__35
10
0
20
0
30
0
70
128
71
51
72
49
73
53
0
VERTEX
8
OBJECT__35
10
0
20
0
30
0
70
128
71
55
72
51
73
53
0
VERTEX
8
OBJECT__35
10
0
20
0
30
0
70
128
71
52
72
50
73
49
0
VERTEX
8
OBJECT__35
10
0
20
0
30
0
70
128
71
55
72
54
73
56
0
VERTEX
8
OBJECT__35
10
0
20
0
30
0
70
128
71
56
72
57
73
55
0
VERTEX
8
OBJECT__35
10
0
20
0
30
0
70
128
71
58
72
59
73
57
0
VERTEX
8
OBJECT__35
10
0
20
0
30
0
70
128
71
56
72
58
73
57
0
VERTEX
8
OBJECT__35
10
0
20
0
30
0
70
128
71
60
72
61
73
62
0
VERTEX
8
OBJECT__35
10
0
20
0
30
0
70
128
71
63
72
64
73
61
0
VERTEX
8
OBJECT__35
10
0
20
0
30
0
70
128
71
65
72
66
73
59
0
VERTEX
8
OBJECT__35
10
0
20
0
30
0
70
128
71
59
72
58
73
67
0
VERTEX
8
OBJECT__35
10
0
20
0
30
0
70
128
71
65
72
64
73
68
0
VERTEX
8
OBJECT__35
10
0
20
0
30
0
70
128
71
64
72
63
73
68
0
VERTEX
8
OBJECT__35
10
0
20
0
30
0
70
128
71
68
72
66
73
65
0
VERTEX
8
OBJECT__35
10
0
20
0
30
0
70
128
71
59
72
67
73
65
0
VERTEX
8
OBJECT__35
10
0
20
0
30
0
70
128
71
61
72
60
73
63
0
VERTEX
8
OBJECT__35
10
0
20
0
30
0
70
128
71
69
72
70
73
71
0
VERTEX
8
OBJECT__35
10
0
20
0
30
0
70
128
71
72
72
73
73
69
0
VERTEX
8
OBJECT__35
10
0
20
0
30
0
70
128
71
71
72
70
73
74
0
VERTEX
8
OBJECT__35
10
0
20
0
30
0
70
128
71
75
72
74
73
76
0
VERTEX
8
OBJECT__35
10
0
20
0
30
0
70
128
71
76
72
62
73
75
0
VERTEX
8
OBJECT__35
10
0
20
0
30
0
70
128
71
74
72
75
73
71
0
VERTEX
8
OBJECT__35
10
0
20
0
30
0
70
128
71
71
72
72
73
69
0
VERTEX
8
OBJECT__35
10
0
20
0
30
0
70
128
71
77
72
78
73
79
0
VERTEX
8
OBJECT__35
10
0
20
0
30
0
70
128
71
80
72
81
73
77
0
VERTEX
8
OBJECT__35
10
0
20
0
30
0
70
128
71
82
72
81
73
80
0
VERTEX
8
OBJECT__35
10
0
20
0
30
0
70
128
71
80
72
83
73
82
0
VERTEX
8
OBJECT__35
10
0
20
0
30
0
70
128
71
84
72
85
73
82
0
VERTEX
8
OBJECT__35
10
0
20
0
30
0
70
128
71
82
72
83
73
84
0
VERTEX
8
OBJECT__35
10
0
20
0
30
0
70
128
71
84
72
73
73
85
0
VERTEX
8
OBJECT__35
10
0
20
0
30
0
70
128
71
79
72
80
73
77
0
VERTEX
8
OBJECT__35
10
0
20
0
30
0
70
128
71
72
72
85
73
73
0
VERTEX
8
OBJECT__35
10
0
20
0
30
0
70
128
71
62
72
76
73
60
0
VERTEX
8
OBJECT__35
10
0
20
0
30
0
70
128
71
50
72
46
73
48
0
VERTEX
8
OBJECT__35
10
0
20
0
30
0
70
128
71
43
72
39
73
38
0
VERTEX
8
OBJECT__35
10
0
20
0
30
0
70
128
71
31
72
22
73
25
0
VERTEX
8
OBJECT__35
10
0
20
0
30
0
70
128
71
23
72
26
73
24
0
VERTEX
8
OBJECT__35
10
0
20
0
30
0
70
128
71
12
72
13
73
10
0
VERTEX
8
OBJECT__35
10
0
20
0
30
0
70
128
71
3
72
20
73
1
0
SEQEND
8
OBJECT__35
0
POLYLINE
8
OBJECT__36
66
1
70
64
71
28
72
26
62
253
0
VERTEX
8
OBJECT__36
10
38.750000
20
51.116001
30
9.696000
70
192
0
VERTEX
8
OBJECT__36
10
37.306999
20
51.042999
30
11.728000
70
192
0
VERTEX
8
OBJECT__36
10
36.985001
20
51.042999
30
11.461000
70
192
0
VERTEX
8
OBJECT__36
10
36.985001
20
51.071999
30
9.849000
70
192
0
VERTEX
8
OBJECT__36
10
38.750000
20
51.133999
30
8.360000
70
192
0
VERTEX
8
OBJECT__36
10
38.750000
20
51.042999
30
12.927000
70
192
0
VERTEX
8
OBJECT__36
10
36.986000
20
51.130001
30
6.626000
70
192
0
VERTEX
8
OBJECT__36
10
38.750000
20
51.181999
30
4.931000
70
192
0
VERTEX
8
OBJECT__36
10
36.986000
20
51.137001
30
5.816000
70
192
0
VERTEX
8
OBJECT__36
10
36.986000
20
51.162998
30
2.739000
70
192
0
VERTEX
8
OBJECT__36
10
38.750000
20
51.194000
30
4.040000
70
192
0
VERTEX
8
OBJECT__36
10
38.750000
20
51.201000
30
2.323000
70
192
0
VERTEX
8
OBJECT__36
10
38.750000
20
51.209999
30
0.000000
70
192
0
VERTEX
8
OBJECT__36
10
36.986000
20
51.171001
30
1.791000
70
192
0
VERTEX
8
OBJECT__36
10
38.750000
20
51.209999
30
-0.202000
70
192
0
VERTEX
8
OBJECT__36
10
36.986000
20
51.172001
30
0.000000
70
192
0
VERTEX
8
OBJECT__36
10
36.986000
20
51.173000
30
-1.433000
70
192
0
VERTEX
8
OBJECT__36
10
38.750000
20
51.202999
30
-2.296000
70
192
0
VERTEX
8
OBJECT__36
10
36.986000
20
51.162998
30
-2.742000
70
192
0
VERTEX
8
OBJECT__36
10
36.986000
20
51.141998
30
-5.731000
70
192
0
VERTEX
8
OBJECT__36
10
38.750000
20
51.181000
30
-4.954000
70
192
0
VERTEX
8
OBJECT__36
10
38.750000
20
51.199001
30
-3.384000
70
192
0
VERTEX
8
OBJECT__36
10
36.986000
20
51.140999
30
-5.743000
70
192
0
VERTEX
8
OBJECT__36
10
36.985001
20
51.070000
30
-9.896000
70
192
0
VERTEX
8
OBJECT__36
10
38.750000
20
51.144001
30
-8.132000
70
192
0
VERTEX
8
OBJECT__36
10
38.750000
20
51.042999
30
-12.927000
70
192
0
VERTEX
8
OBJECT__36
10
38.750000
20
51.144001
30
-8.156000
70
192
0
VERTEX
8
OBJECT__36
10
36.985001
20
51.042999
30
-11.461000
70
192
0
VERTEX
8
OBJECT__36
10
0
20
0
30
0
70
128
71
1
72
2
73
3
0
VERTEX
8
OBJECT__36
10
0
20
0
30
0
70
128
71
4
72
5
73
1
0
VERTEX
8
OBJECT__36
10
0
20
0
30
0
70
128
71
1
72
6
73
2
0
VERTEX
8
OBJECT__36
10
0
20
0
30
0
70
128
71
5
72
4
73
7
0
VERTEX
8
OBJECT__36
10
0
20
0
30
0
70
128
71
7
72
8
73
5
0
VERTEX
8
OBJECT__36
10
0
20
0
30
0
70
128
71
9
72
10
73
11
0
VERTEX
8
OBJECT__36
10
0
20
0
30
0
70
128
71
10
72
12
73
11
0
VERTEX
8
OBJECT__36
10
0
20
0
30
0
70
128
71
13
72
12
73
14
0
VERTEX
8
OBJECT__36
10
0
20
0
30
0
70
128
71
12
72
10
73
14
0
VERTEX
8
OBJECT__36
10
0
20
0
30
0
70
128
71
15
72
16
73
17
0
VERTEX
8
OBJECT__36
10
0
20
0
30
0
70
128
71
17
72
18
73
15
0
VERTEX
8
OBJECT__36
10
0
20
0
30
0
70
128
71
15
72
13
73
16
0
VERTEX
8
OBJECT__36
10
0
20
0
30
0
70
128
71
19
72
20
73
21
0
VERTEX
8
OBJECT__36
10
0
20
0
30
0
70
128
71
21
72
22
73
19
0
VERTEX
8
OBJECT__36
10
0
20
0
30
0
70
128
71
22
72
18
73
19
0
VERTEX
8
OBJECT__36
10
0
20
0
30
0
70
128
71
23
72
24
73
25
0
VERTEX
8
OBJECT__36
10
0
20
0
30
0
70
128
71
26
72
27
73
24
0
VERTEX
8
OBJECT__36
10
0
20
0
30
0
70
128
71
24
72
28
73
26
0
VERTEX
8
OBJECT__36
10
0
20
0
30
0
70
128
71
27
72
25
73
24
0
VERTEX
8
OBJECT__36
10
0
20
0
30
0
70
128
71
25
72
21
73
23
0
VERTEX
8
OBJECT__36
10
0
20
0
30
0
70
128
71
20
72
23
73
21
0
VERTEX
8
OBJECT__36
10
0
20
0
30
0
70
128
71
17
72
19
73
18
0
VERTEX
8
OBJECT__36
10
0
20
0
30
0
70
128
71
14
72
16
73
13
0
VERTEX
8
OBJECT__36
10
0
20
0
30
0
70
128
71
11
72
8
73
9
0
VERTEX
8
OBJECT__36
10
0
20
0
30
0
70
128
71
7
72
9
73
8
0
VERTEX
8
OBJECT__36
10
0
20
0
30
0
70
128
71
3
72
4
73
1
0
SEQEND
8
OBJECT__36
0
POLYLINE
8
OBJECT__37
66
1
70
64
71
15
72
13
62
253
0
VERTEX
8
OBJECT__37
10
36.950001
20
47.015999
30
11.476000
70
192
0
VERTEX
8
OBJECT__37
10
36.950001
20
47.015999
30
-11.476000
70
192
0
VERTEX
8
OBJECT__37
10
36.986000
20
51.172001
30
0.000000
70
192
0
VERTEX
8
OBJECT__37
10
36.986000
20
51.171001
30
1.791000
70
192
0
VERTEX
8
OBJECT__37
10
36.986000
20
51.162998
30
-2.742000
70
192
0
VERTEX
8
OBJECT__37
10
36.986000
20
51.173000
30
-1.433000
70
192
0
VERTEX
8
OBJECT__37
10
36.986000
20
51.140999
30
-5.743000
70
192
0
VERTEX
8
OBJECT__37
10
36.986000
20
51.141998
30
-5.731000
70
192
0
VERTEX
8
OBJECT__37
10
36.986000
20
51.162998
30
2.739000
70
192
0
VERTEX
8
OBJECT__37
10
36.986000
20
51.137001
30
5.816000
70
192
0
VERTEX
8
OBJECT__37
10
36.986000
20
51.130001
30
6.626000
70
192
0
VERTEX
8
OBJECT__37
10
36.985001
20
51.071999
30
9.849000
70
192
0
VERTEX
8
OBJECT__37
10
36.985001
20
51.042999
30
-11.461000
70
192
0
VERTEX
8
OBJECT__37
10
36.985001
20
51.070000
30
-9.896000
70
192
0
VERTEX
8
OBJECT__37
10
36.985001
20
51.042999
30
11.461000
70
192
0
VERTEX
8
OBJECT__37
10
0
20
0
30
0
70
128
71
1
72
2
73
3
0
VERTEX
8
OBJECT__37
10
0
20
0
30
0
70
128
71
3
72
4
73
1
0
VERTEX
8
OBJECT__37
10
0
20
0
30
0
70
128
71
2
72
5
73
6
0
VERTEX
8
OBJECT__37
10
0
20
0
30
0
70
128
71
2
72
7
73
8
0
VERTEX
8
OBJECT__37
10
0
20
0
30
0
70
128
71
4
72
9
73
1
0
VERTEX
8
OBJECT__37
10
0
20
0
30
0
70
128
71
8
72
5
73
2
0
VERTEX
8
OBJECT__37
10
0
20
0
30
0
70
128
71
1
72
10
73
11
0
VERTEX
8
OBJECT__37
10
0
20
0
30
0
70
128
71
6
72
3
73
2
0
VERTEX
8
OBJECT__37
10
0
20
0
30
0
70
128
71
9
72
10
73
1
0
VERTEX
8
OBJECT__37
10
0
20
0
30
0
70
128
71
11
72
12
73
1
0
VERTEX
8
OBJECT__37
10
0
20
0
30
0
70
128
71
2
72
13
73
14
0
VERTEX
8
OBJECT__37
10
0
20
0
30
0
70
128
71
14
72
7
73
2
0
VERTEX
8
OBJECT__37
10
0
20
0
30
0
70
128
71
12
72
15
73
1
0
SEQEND
8
OBJECT__37
0
POLYLINE
8
OBJECT__38
66
1
70
64
71
4
72
2
62
253
0
VERTEX
8
OBJECT__38
10
36.950001
20
47.015999
30
11.476000
70
192
0
VERTEX
8
OBJECT__38
10
35.549999
20
47.015999
30
9.940000
70
192
0
VERTEX
8
OBJECT__38
10
35.549999
20
47.015999
30
-9.940000
70
192
0
VERTEX
8
OBJECT__38
10
36.950001
20
47.015999
30
-11.476000
70
192
0
VERTEX
8
OBJECT__38
10
0
20
0
30
0
70
128
71
1
72
2
73
3
0
VERTEX
8
OBJECT__38
10
0
20
0
30
0
70
128
71
3
72
4
73
1
0
SEQEND
8
OBJECT__38
0
POLYLINE
8
OBJECT__39
66
1
70
64
71
167
72
167
62
253
0
VERTEX
8
OBJECT__39
10
32.084999
20
16.400000
30
-9.194000
70
192
0
VERTEX
8
OBJECT__39
10
32.070000
20
51.988998
30
-9.203000
70
192
0
VERTEX
8
OBJECT__39
10
32.615002
20
51.988998
30
-10.274000
70
192
0
VERTEX
8
OBJECT__39
10
36.154999
20
51.988998
30
-14.109000
70
192
0
VERTEX
8
OBJECT__39
10
36.139000
20
16.400000
30
-14.128000
70
192
0
VERTEX
8
OBJECT__39
10
35.731998
20
16.400000
30
-13.847000
70
192
0
VERTEX
8
OBJECT__39
10
32.775002
20
16.400000
30
-10.509000
70
192
0
VERTEX
8
OBJECT__39
10
35.437000
20
51.988998
30
-13.580000
70
192
0
VERTEX
8
OBJECT__39
10
29.872000
20
16.400000
30
-3.190000
70
192
0
VERTEX
8
OBJECT__39
10
29.872000
20
51.988998
30
-3.191000
70
192
0
VERTEX
8
OBJECT__39
10
30.642000
20
51.988998
30
-6.400000
70
192
0
VERTEX
8
OBJECT__39
10
30.702000
20
16.400000
30
-6.560000
70
192
0
VERTEX
8
OBJECT__39
10
29.872000
20
51.988998
30
3.191000
70
192
0
VERTEX
8
OBJECT__39
10
29.628000
20
51.988998
30
2.173000
70
192
0
VERTEX
8
OBJECT__39
10
29.635000
20
16.400000
30
2.230000
70
192
0
VERTEX
8
OBJECT__39
10
29.635000
20
16.400000
30
-2.230000
70
192
0
VERTEX
8
OBJECT__39
10
29.628000
20
51.988998
30
-2.173000
70
192
0
VERTEX
8
OBJECT__39
10
32.070000
20
51.988998
30
9.203000
70
192
0
VERTEX
8
OBJECT__39
10
30.642000
20
51.988998
30
6.400000
70
192
0
VERTEX
8
OBJECT__39
10
30.702000
20
16.400000
30
6.560000
70
192
0
VERTEX
8
OBJECT__39
10
29.872000
20
16.400000
30
3.190000
70
192
0
VERTEX
8
OBJECT__39
10
66.127998
20
16.400000
30
3.190000
70
192
0
VERTEX
8
OBJECT__39
10
66.127998
20
51.988998
30
3.191000
70
192
0
VERTEX
8
OBJECT__39
10
65.358002
20
51.988998
30
6.400000
70
192
0
VERTEX
8
OBJECT__39
10
63.930000
20
51.988998
30
9.203000
70
192
0
VERTEX
8
OBJECT__39
10
63.915001
20
16.400000
30
9.194000
70
192
0
VERTEX
8
OBJECT__39
10
65.297997
20
16.400000
30
6.560000
70
192
0
VERTEX
8
OBJECT__39
10
66.127998
20
51.988998
30
-3.191000
70
192
0
VERTEX
8
OBJECT__39
10
66.372002
20
51.988998
30
-2.173000
70
192
0
VERTEX
8
OBJECT__39
10
66.364998
20
16.400000
30
-2.230000
70
192
0
VERTEX
8
OBJECT__39
10
66.372002
20
51.988998
30
2.173000
70
192
0
VERTEX
8
OBJECT__39
10
66.364998
20
16.400000
30
2.230000
70
192
0
VERTEX
8
OBJECT__39
10
63.930000
20
51.988998
30
-9.203000
70
192
0
VERTEX
8
OBJECT__39
10
65.358002
20
51.988998
30
-6.400000
70
192
0
VERTEX
8
OBJECT__39
10
65.297997
20
16.400000
30
-6.560000
70
192
0
VERTEX
8
OBJECT__39
10
66.127998
20
16.400000
30
-3.190000
70
192
0
VERTEX
8
OBJECT__39
10
59.845001
20
51.988998
30
-14.109000
70
192
0
VERTEX
8
OBJECT__39
10
60.563000
20
51.988998
30
-13.580000
70
192
0
VERTEX
8
OBJECT__39
10
60.268002
20
16.400000
30
-13.847000
70
192
0
VERTEX
8
OBJECT__39
10
63.915001
20
16.400000
30
-9.194000
70
192
0
VERTEX
8
OBJECT__39
10
63.224998
20
16.400000
30
-10.509000
70
192
0
VERTEX
8
OBJECT__39
10
63.384998
20
51.988998
30
-10.274000
70
192
0
VERTEX
8
OBJECT__39
10
39.403000
20
16.400000
30
-16.381001
70
192
0
VERTEX
8
OBJECT__39
10
41.236000
20
30.864000
30
-17.209000
70
192
0
VERTEX
8
OBJECT__39
10
41.678001
20
30.533001
30
-17.370001
70
192
0
VERTEX
8
OBJECT__39
10
41.720001
20
16.400000
30
-17.260000
70
192
0
VERTEX
8
OBJECT__39
10
40.964001
20
31.069000
30
-17.110001
70
192
0
VERTEX
8
OBJECT__39
10
39.921001
20
32.133999
30
-16.643000
70
192
0
VERTEX
8
OBJECT__39
10
38.327000
20
34.660999
30
-15.770000
70
192
0
VERTEX
8
OBJECT__39
10
38.868999
20
33.612000
30
-16.090000
70
192
0
VERTEX
8
OBJECT__39
10
37.750000
20
36.293999
30
-15.401000
70
192
0
VERTEX
8
OBJECT__39
10
38.304001
20
34.728001
30
-15.755000
70
192
0
VERTEX
8
OBJECT__39
10
37.486000
20
37.646000
30
-15.222000
70
192
0
VERTEX
8
OBJECT__39
10
37.403999
20
39.304001
30
-15.165000
70
192
0
VERTEX
8
OBJECT__39
10
37.532001
20
40.667000
30
-15.254000
70
192
0
VERTEX
8
OBJECT__39
10
37.423000
20
39.500999
30
-15.178000
70
192
0
VERTEX
8
OBJECT__39
10
38.750000
20
51.988998
30
-16.021000
70
192
0
VERTEX
8
OBJECT__39
10
38.750000
20
44.173000
30
-16.021000
70
192
0
VERTEX
8
OBJECT__39
10
38.032001
20
42.601002
30
-15.585000
70
192
0
VERTEX
8
OBJECT__39
10
37.918999
20
42.273998
30
-15.512000
70
192
0
VERTEX
8
OBJECT__39
10
43.573002
20
16.400000
30
-17.962000
70
192
0
VERTEX
8
OBJECT__39
10
45.792999
20
28.629000
30
-18.368000
70
192
0
VERTEX
8
OBJECT__39
10
47.252998
20
28.423000
30
-18.485001
70
192
0
VERTEX
8
OBJECT__39
10
48.000000
20
16.400000
30
-18.500000
70
192
0
VERTEX
8
OBJECT__39
10
45.575001
20
28.694000
30
-18.332001
70
192
0
VERTEX
8
OBJECT__39
10
44.167000
20
29.114000
30
-18.099001
70
192
0
VERTEX
8
OBJECT__39
10
43.911999
20
29.216000
30
-18.042999
70
192
0
VERTEX
8
OBJECT__39
10
42.365002
20
30.018000
30
-17.621000
70
192
0
VERTEX
8
OBJECT__39
10
54.279999
20
16.400000
30
-17.260000
70
192
0
VERTEX
8
OBJECT__39
10
51.217999
20
28.896999
30
-18.218000
70
192
0
VERTEX
8
OBJECT__39
10
52.838001
20
29.565001
30
-17.856001
70
192
0
VERTEX
8
OBJECT__39
10
54.063999
20
30.302000
30
-17.478001
70
192
0
VERTEX
8
OBJECT__39
10
52.426998
20
16.400000
30
-17.962000
70
192
0
VERTEX
8
OBJECT__39
10
49.701000
20
28.534000
30
-18.422001
70
192
0
VERTEX
8
OBJECT__39
10
50.423000
20
28.705999
30
-18.325001
70
192
0
VERTEX
8
OBJECT__39
10
48.000000
20
28.396000
30
-18.500000
70
192
0
VERTEX
8
OBJECT__39
10
57.583000
20
43.526001
30
-15.824000
70
192
0
VERTEX
8
OBJECT__39
10
57.250000
20
44.173000
30
-16.021000
70
192
0
VERTEX
8
OBJECT__39
10
58.193001
20
41.905998
30
-15.439000
70
192
0
VERTEX
8
OBJECT__39
10
58.480000
20
40.589001
30
-15.246000
70
192
0
VERTEX
8
OBJECT__39
10
58.599998
20
38.931999
30
-15.162000
70
192
0
VERTEX
8
OBJECT__39
10
58.558998
20
39.500000
30
-15.191000
70
192
0
VERTEX
8
OBJECT__39
10
59.861000
20
16.400000
30
-14.128000
70
192
0
VERTEX
8
OBJECT__39
10
58.505001
20
37.581001
30
-15.228000
70
192
0
VERTEX
8
OBJECT__39
10
57.395000
20
34.089001
30
-15.937000
70
192
0
VERTEX
8
OBJECT__39
10
57.669998
20
34.738998
30
-15.766000
70
192
0
VERTEX
8
OBJECT__39
10
58.064999
20
35.672001
30
-15.522000
70
192
0
VERTEX
8
OBJECT__39
10
58.158001
20
35.967999
30
-15.462000
70
192
0
VERTEX
8
OBJECT__39
10
56.597000
20
16.400000
30
-16.381001
70
192
0
VERTEX
8
OBJECT__39
10
54.324001
20
30.518999
30
-17.375999
70
192
0
VERTEX
8
OBJECT__39
10
54.751999
20
30.875999
30
-17.207001
70
192
0
VERTEX
8
OBJECT__39
10
55.456001
20
31.462000
30
-16.931000
70
192
0
VERTEX
8
OBJECT__39
10
56.470001
20
32.622002
30
-16.447001
70
192
0
VERTEX
8
OBJECT__39
10
59.845001
20
51.988998
30
14.109000
70
192
0
VERTEX
8
OBJECT__39
10
59.730999
20
43.313999
30
14.305000
70
192
0
VERTEX
8
OBJECT__39
10
59.849998
20
42.897999
30
14.204000
70
192
0
VERTEX
8
OBJECT__39
10
57.250000
20
51.988998
30
16.021000
70
192
0
VERTEX
8
OBJECT__39
10
57.250000
20
47.403999
30
16.021000
70
192
0
VERTEX
8
OBJECT__39
10
58.439999
20
45.870998
30
15.273000
70
192
0
VERTEX
8
OBJECT__39
10
58.999001
20
44.936001
30
14.875000
70
192
0
VERTEX
8
OBJECT__39
10
59.936001
20
35.285000
30
14.134000
70
192
0
VERTEX
8
OBJECT__39
10
60.268002
20
16.400000
30
13.847000
70
192
0
VERTEX
8
OBJECT__39
10
63.224998
20
16.400000
30
10.509000
70
192
0
VERTEX
8
OBJECT__39
10
59.890999
20
35.169998
30
14.171000
70
192
0
VERTEX
8
OBJECT__39
10
59.861000
20
16.400000
30
14.128000
70
192
0
VERTEX
8
OBJECT__39
10
60.278000
20
36.651001
30
13.838000
70
192
0
VERTEX
8
OBJECT__39
10
60.484001
20
38.369999
30
13.653000
70
192
0
VERTEX
8
OBJECT__39
10
60.407001
20
37.730000
30
13.722000
70
192
0
VERTEX
8
OBJECT__39
10
60.471001
20
39.842999
30
13.664000
70
192
0
VERTEX
8
OBJECT__39
10
60.242001
20
41.525002
30
13.871000
70
192
0
VERTEX
8
OBJECT__39
10
60.563000
20
51.988998
30
13.580000
70
192
0
VERTEX
8
OBJECT__39
10
59.889999
20
42.756001
30
14.170000
70
192
0
VERTEX
8
OBJECT__39
10
63.384998
20
51.988998
30
10.274000
70
192
0
VERTEX
8
OBJECT__39
10
56.597000
20
16.400000
30
16.381001
70
192
0
VERTEX
8
OBJECT__39
10
55.318001
20
28.862000
30
16.990999
70
192
0
VERTEX
8
OBJECT__39
10
54.320999
20
28.247999
30
17.368000
70
192
0
VERTEX
8
OBJECT__39
10
54.279999
20
16.400000
30
17.260000
70
192
0
VERTEX
8
OBJECT__39
10
56.895000
20
30.214001
30
16.221001
70
192
0
VERTEX
8
OBJECT__39
10
55.356998
20
28.896000
30
16.972000
70
192
0
VERTEX
8
OBJECT__39
10
58.154999
20
31.708000
30
15.464000
70
192
0
VERTEX
8
OBJECT__39
10
59.242001
20
33.529999
30
14.693000
70
192
0
VERTEX
8
OBJECT__39
10
58.800999
20
32.792000
30
15.005000
70
192
0
VERTEX
8
OBJECT__39
10
48.000000
20
16.400000
30
18.500000
70
192
0
VERTEX
8
OBJECT__39
10
52.426998
20
16.400000
30
17.962000
70
192
0
VERTEX
8
OBJECT__39
10
49.381001
20
26.573000
30
18.448000
70
192
0
VERTEX
8
OBJECT__39
10
51.146999
20
26.899000
30
18.230000
70
192
0
VERTEX
8
OBJECT__39
10
50.598999
20
26.798000
30
18.298000
70
192
0
VERTEX
8
OBJECT__39
10
53.759998
20
27.903000
30
17.580000
70
192
0
VERTEX
8
OBJECT__39
10
52.087002
20
27.184000
30
18.042999
70
192
0
VERTEX
8
OBJECT__39
10
41.720001
20
16.400000
30
17.260000
70
192
0
VERTEX
8
OBJECT__39
10
44.320999
20
27.049999
30
18.129999
70
192
0
VERTEX
8
OBJECT__39
10
42.578999
20
27.733000
30
17.688000
70
192
0
VERTEX
8
OBJECT__39
10
43.573002
20
16.400000
30
17.962000
70
192
0
VERTEX
8
OBJECT__39
10
46.191002
20
26.628000
30
18.410999
70
192
0
VERTEX
8
OBJECT__39
10
45.403999
20
26.806000
30
18.292999
70
192
0
VERTEX
8
OBJECT__39
10
48.000000
20
26.496000
30
18.500000
70
192
0
VERTEX
8
OBJECT__39
10
36.139000
20
16.400000
30
14.128000
70
192
0
VERTEX
8
OBJECT__39
10
37.209999
20
32.686001
30
15.027000
70
192
0
VERTEX
8
OBJECT__39
10
37.167000
20
32.771999
30
14.995000
70
192
0
VERTEX
8
OBJECT__39
10
36.400002
20
34.340000
30
14.411000
70
192
0
VERTEX
8
OBJECT__39
10
36.139999
20
35.049000
30
14.198000
70
192
0
VERTEX
8
OBJECT__39
10
41.073002
20
28.591999
30
17.153999
70
192
0
VERTEX
8
OBJECT__39
10
40.658001
20
28.917000
30
16.964001
70
192
0
VERTEX
8
OBJECT__39
10
39.403000
20
16.400000
30
16.381001
70
192
0
VERTEX
8
OBJECT__39
10
41.678001
20
28.246000
30
17.368999
70
192
0
VERTEX
8
OBJECT__39
10
39.535000
20
29.799000
30
16.450001
70
192
0
VERTEX
8
OBJECT__39
10
38.270000
20
31.149000
30
15.735000
70
192
0
VERTEX
8
OBJECT__39
10
35.765999
20
41.563000
30
13.878000
70
192
0
VERTEX
8
OBJECT__39
10
35.437000
20
51.988998
30
13.580000
70
192
0
VERTEX
8
OBJECT__39
10
32.615002
20
51.988998
30
10.274000
70
192
0
VERTEX
8
OBJECT__39
10
36.110001
20
42.762001
30
14.170000
70
192
0
VERTEX
8
OBJECT__39
10
36.154999
20
51.988998
30
14.109000
70
192
0
VERTEX
8
OBJECT__39
10
35.537998
20
39.967999
30
13.673000
70
192
0
VERTEX
8
OBJECT__39
10
32.084999
20
16.400000
30
9.194000
70
192
0
VERTEX
8
OBJECT__39
10
35.521999
20
38.257000
30
13.658000
70
192
0
VERTEX
8
OBJECT__39
10
35.712002
20
36.705002
30
13.829000
70
192
0
VERTEX
8
OBJECT__39
10
35.585999
20
37.730000
30
13.716000
70
192
0
VERTEX
8
OBJECT__39
10
35.731998
20
16.400000
30
13.847000
70
192
0
VERTEX
8
OBJECT__39
10
36.109001
20
35.167999
30
14.171000
70
192
0
VERTEX
8
OBJECT__39
10
32.775002
20
16.400000
30
10.509000
70
192
0
VERTEX
8
OBJECT__39
10
37.742001
20
46.139999
30
15.396000
70
192
0
VERTEX
8
OBJECT__39
10
38.750000
20
47.403999
30
16.021000
70
192
0
VERTEX
8
OBJECT__39
10
36.264000
20
43.299000
30
14.301000
70
192
0
VERTEX
8
OBJECT__39
10
36.756001
20
44.457001
30
14.691000
70
192
0
VERTEX
8
OBJECT__39
10
36.148998
20
42.897999
30
14.203000
70
192
0
VERTEX
8
OBJECT__39
10
38.750000
20
51.988998
30
16.021000
70
192
0
VERTEX
8
OBJECT__39
10
57.250000
20
51.988998
30
-16.021000
70
192
0
VERTEX
8
OBJECT__39
10
0
20
0
30
0
70
128
71
1
72
2
73
3
0
VERTEX
8
OBJECT__39
10
0
20
0
30
0
70
128
71
4
72
5
73
6
0
VERTEX
8
OBJECT__39
10
0
20
0
30
0
70
128
71
7
72
3
73
8
0
VERTEX
8
OBJECT__39
10
0
20
0
30
0
70
128
71
8
72
6
73
7
0
VERTEX
8
OBJECT__39
10
0
20
0
30
0
70
128
71
6
72
8
73
4
0
VERTEX
8
OBJECT__39
10
0
20
0
30
0
70
128
71
9
72
10
73
11
0
VERTEX
8
OBJECT__39
10
0
20
0
30
0
70
128
71
2
72
1
73
12
0
VERTEX
8
OBJECT__39
10
0
20
0
30
0
70
128
71
12
72
11
73
2
0
VERTEX
8
OBJECT__39
10
0
20
0
30
0
70
128
71
13
72
14
73
15
0
VERTEX
8
OBJECT__39
10
0
20
0
30
0
70
128
71
16
72
15
73
14
0
VERTEX
8
OBJECT__39
10
0
20
0
30
0
70
128
71
14
72
17
73
16
0
VERTEX
8
OBJECT__39
10
0
20
0
30
0
70
128
71
10
72
9
73
16
0
VERTEX
8
OBJECT__39
10
0
20
0
30
0
70
128
71
16
72
17
73
10
0
VERTEX
8
OBJECT__39
10
0
20
0
30
0
70
128
71
18
72
19
73
20
0
VERTEX
8
OBJECT__39
10
0
20
0
30
0
70
128
71
21
72
20
73
19
0
VERTEX
8
OBJECT__39
10
0
20
0
30
0
70
128
71
19
72
13
73
21
0
VERTEX
8
OBJECT__39
10
0
20
0
30
0
70
128
71
22
72
23
73
24
0
VERTEX
8
OBJECT__39
10
0
20
0
30
0
70
128
71
25
72
26
73
27
0
VERTEX
8
OBJECT__39
10
0
20
0
30
0
70
128
71
27
72
24
73
25
0
VERTEX
8
OBJECT__39
10
0
20
0
30
0
70
128
71
28
72
29
73
30
0
VERTEX
8
OBJECT__39
10
0
20
0
30
0
70
128
71
30
72
29
73
31
0
VERTEX
8
OBJECT__39
10
0
20
0
30
0
70
128
71
31
72
32
73
30
0
VERTEX
8
OBJECT__39
10
0
20
0
30
0
70
128
71
23
72
22
73
32
0
VERTEX
8
OBJECT__39
10
0
20
0
30
0
70
128
71
32
72
31
73
23
0
VERTEX
8
OBJECT__39
10
0
20
0
30
0
70
128
71
33
72
34
73
35
0
VERTEX
8
OBJECT__39
10
0
20
0
30
0
70
128
71
36
72
35
73
34
0
VERTEX
8
OBJECT__39
10
0
20
0
30
0
70
128
71
34
72
28
73
36
0
VERTEX
8
OBJECT__39
10
0
20
0
30
0
70
128
71
37
72
38
73
39
0
VERTEX
8
OBJECT__39
10
0
20
0
30
0
70
128
71
40
72
41
73
42
0
VERTEX
8
OBJECT__39
10
0
20
0
30
0
70
128
71
41
72
39
73
38
0
VERTEX
8
OBJECT__39
10
0
20
0
30
0
70
128
71
38
72
42
73
41
0
VERTEX
8
OBJECT__39
10
0
20
0
30
0
70
128
71
42
72
33
73
40
0
VERTEX
8
OBJECT__39
10
0
20
0
30
0
70
128
71
43
72
44
73
45
0
VERTEX
8
OBJECT__39
10
0
20
0
30
0
70
128
71
45
72
46
73
43
0
VERTEX
8
OBJECT__39
10
0
20
0
30
0
70
128
71
5
72
47
73
44
0
VERTEX
8
OBJECT__39
10
0
20
0
30
0
70
128
71
5
72
48
73
47
0
VERTEX
8
OBJECT__39
10
0
20
0
30
0
70
128
71
5
72
49
73
50
0
VERTEX
8
OBJECT__39
10
0
20
0
30
0
70
128
71
50
72
48
73
5
0
VERTEX
8
OBJECT__39
10
0
20
0
30
0
70
128
71
5
72
51
73
52
0
VERTEX
8
OBJECT__39
10
0
20
0
30
0
70
128
71
52
72
49
73
5
0
VERTEX
8
OBJECT__39
10
0
20
0
30
0
70
128
71
5
72
53
73
51
0
VERTEX
8
OBJECT__39
10
0
20
0
30
0
70
128
71
5
72
4
73
54
0
VERTEX
8
OBJECT__39
10
0
20
0
30
0
70
128
71
54
72
53
73
5
0
VERTEX
8
OBJECT__39
10
0
20
0
30
0
70
128
71
4
72
55
73
56
0
VERTEX
8
OBJECT__39
10
0
20
0
30
0
70
128
71
4
72
57
73
58
0
VERTEX
8
OBJECT__39
10
0
20
0
30
0
70
128
71
58
72
59
73
4
0
VERTEX
8
OBJECT__39
10
0
20
0
30
0
70
128
71
59
72
60
73
4
0
VERTEX
8
OBJECT__39
10
0
20
0
30
0
70
128
71
60
72
55
73
4
0
VERTEX
8
OBJECT__39
10
0
20
0
30
0
70
128
71
56
72
54
73
4
0
VERTEX
8
OBJECT__39
10
0
20
0
30
0
70
128
71
61
72
62
73
63
0
VERTEX
8
OBJECT__39
10
0
20
0
30
0
70
128
71
63
72
64
73
61
0
VERTEX
8
OBJECT__39
10
0
20
0
30
0
70
128
71
65
72
62
73
61
0
VERTEX
8
OBJECT__39
10
0
20
0
30
0
70
128
71
46
72
66
73
65
0
VERTEX
8
OBJECT__39
10
0
20
0
30
0
70
128
71
46
72
67
73
66
0
VERTEX
8
OBJECT__39
10
0
20
0
30
0
70
128
71
46
72
68
73
67
0
VERTEX
8
OBJECT__39
10
0
20
0
30
0
70
128
71
61
72
46
73
65
0
VERTEX
8
OBJECT__39
10
0
20
0
30
0
70
128
71
46
72
45
73
68
0
VERTEX
8
OBJECT__39
10
0
20
0
30
0
70
128
71
69
72
70
73
71
0
VERTEX
8
OBJECT__39
10
0
20
0
30
0
70
128
71
71
72
72
73
69
0
VERTEX
8
OBJECT__39
10
0
20
0
30
0
70
128
71
70
72
69
73
73
0
VERTEX
8
OBJECT__39
10
0
20
0
30
0
70
128
71
73
72
74
73
75
0
VERTEX
8
OBJECT__39
10
0
20
0
30
0
70
128
71
73
72
75
73
70
0
VERTEX
8
OBJECT__39
10
0
20
0
30
0
70
128
71
64
72
76
73
74
0
VERTEX
8
OBJECT__39
10
0
20
0
30
0
70
128
71
74
72
73
73
64
0
VERTEX
8
OBJECT__39
10
0
20
0
30
0
70
128
71
37
72
77
73
78
0
VERTEX
8
OBJECT__39
10
0
20
0
30
0
70
128
71
37
72
79
73
77
0
VERTEX
8
OBJECT__39
10
0
20
0
30
0
70
128
71
37
72
80
73
79
0
VERTEX
8
OBJECT__39
10
0
20
0
30
0
70
128
71
37
72
81
73
82
0
VERTEX
8
OBJECT__39
10
0
20
0
30
0
70
128
71
82
72
80
73
37
0
VERTEX
8
OBJECT__39
10
0
20
0
30
0
70
128
71
83
72
84
73
81
0
VERTEX
8
OBJECT__39
10
0
20
0
30
0
70
128
71
83
72
85
73
86
0
VERTEX
8
OBJECT__39
10
0
20
0
30
0
70
128
71
86
72
87
73
83
0
VERTEX
8
OBJECT__39
10
0
20
0
30
0
70
128
71
87
72
88
73
83
0
VERTEX
8
OBJECT__39
10
0
20
0
30
0
70
128
71
89
72
69
73
90
0
VERTEX
8
OBJECT__39
10
0
20
0
30
0
70
128
71
90
72
91
73
89
0
VERTEX
8
OBJECT__39
10
0
20
0
30
0
70
128
71
92
72
83
73
89
0
VERTEX
8
OBJECT__39
10
0
20
0
30
0
70
128
71
91
72
92
73
89
0
VERTEX
8
OBJECT__39
10
0
20
0
30
0
70
128
71
92
72
93
73
83
0
VERTEX
8
OBJECT__39
10
0
20
0
30
0
70
128
71
93
72
85
73
83
0
VERTEX
8
OBJECT__39
10
0
20
0
30
0
70
128
71
88
72
84
73
83
0
VERTEX
8
OBJECT__39
10
0
20
0
30
0
70
128
71
81
72
37
73
83
0
VERTEX
8
OBJECT__39
10
0
20
0
30
0
70
128
71
94
72
95
73
96
0
VERTEX
8
OBJECT__39
10
0
20
0
30
0
70
128
71
94
72
97
73
98
0
VERTEX
8
OBJECT__39
10
0
20
0
30
0
70
128
71
98
72
99
73
94
0
VERTEX
8
OBJECT__39
10
0
20
0
30
0
70
128
71
99
72
100
73
94
0
VERTEX
8
OBJECT__39
10
0
20
0
30
0
70
128
71
100
72
95
73
94
0
VERTEX
8
OBJECT__39
10
0
20
0
30
0
70
128
71
101
72
102
73
103
0
VERTEX
8
OBJECT__39
10
0
20
0
30
0
70
128
71
102
72
101
73
104
0
VERTEX
8
OBJECT__39
10
0
20
0
30
0
70
128
71
104
72
105
73
102
0
VERTEX
8
OBJECT__39
10
0
20
0
30
0
70
128
71
26
72
106
73
101
0
VERTEX
8
OBJECT__39
10
0
20
0
30
0
70
128
71
26
72
107
73
108
0
VERTEX
8
OBJECT__39
10
0
20
0
30
0
70
128
71
108
72
106
73
26
0
VERTEX
8
OBJECT__39
10
0
20
0
30
0
70
128
71
25
72
109
73
107
0
VERTEX
8
OBJECT__39
10
0
20
0
30
0
70
128
71
25
72
110
73
109
0
VERTEX
8
OBJECT__39
10
0
20
0
30
0
70
128
71
107
72
26
73
25
0
VERTEX
8
OBJECT__39
10
0
20
0
30
0
70
128
71
111
72
94
73
112
0
VERTEX
8
OBJECT__39
10
0
20
0
30
0
70
128
71
110
72
113
73
111
0
VERTEX
8
OBJECT__39
10
0
20
0
30
0
70
128
71
110
72
25
73
113
0
VERTEX
8
OBJECT__39
10
0
20
0
30
0
70
128
71
112
72
110
73
111
0
VERTEX
8
OBJECT__39
10
0
20
0
30
0
70
128
71
114
72
115
73
116
0
VERTEX
8
OBJECT__39
10
0
20
0
30
0
70
128
71
116
72
117
73
114
0
VERTEX
8
OBJECT__39
10
0
20
0
30
0
70
128
71
105
72
118
73
119
0
VERTEX
8
OBJECT__39
10
0
20
0
30
0
70
128
71
119
72
115
73
105
0
VERTEX
8
OBJECT__39
10
0
20
0
30
0
70
128
71
105
72
120
73
118
0
VERTEX
8
OBJECT__39
10
0
20
0
30
0
70
128
71
105
72
121
73
122
0
VERTEX
8
OBJECT__39
10
0
20
0
30
0
70
128
71
122
72
120
73
105
0
VERTEX
8
OBJECT__39
10
0
20
0
30
0
70
128
71
105
72
104
73
121
0
VERTEX
8
OBJECT__39
10
0
20
0
30
0
70
128
71
123
72
124
73
125
0
VERTEX
8
OBJECT__39
10
0
20
0
30
0
70
128
71
126
72
127
73
124
0
VERTEX
8
OBJECT__39
10
0
20
0
30
0
70
128
71
124
72
117
73
126
0
VERTEX
8
OBJECT__39
10
0
20
0
30
0
70
128
71
117
72
128
73
129
0
VERTEX
8
OBJECT__39
10
0
20
0
30
0
70
128
71
129
72
126
73
117
0
VERTEX
8
OBJECT__39
10
0
20
0
30
0
70
128
71
127
72
125
73
124
0
VERTEX
8
OBJECT__39
10
0
20
0
30
0
70
128
71
117
72
116
73
128
0
VERTEX
8
OBJECT__39
10
0
20
0
30
0
70
128
71
130
72
131
73
132
0
VERTEX
8
OBJECT__39
10
0
20
0
30
0
70
128
71
131
72
130
73
133
0
VERTEX
8
OBJECT__39
10
0
20
0
30
0
70
128
71
133
72
134
73
135
0
VERTEX
8
OBJECT__39
10
0
20
0
30
0
70
128
71
133
72
135
73
131
0
VERTEX
8
OBJECT__39
10
0
20
0
30
0
70
128
71
123
72
136
73
134
0
VERTEX
8
OBJECT__39
10
0
20
0
30
0
70
128
71
134
72
133
73
123
0
VERTEX
8
OBJECT__39
10
0
20
0
30
0
70
128
71
137
72
138
73
139
0
VERTEX
8
OBJECT__39
10
0
20
0
30
0
70
128
71
139
72
140
73
137
0
VERTEX
8
OBJECT__39
10
0
20
0
30
0
70
128
71
140
72
141
73
137
0
VERTEX
8
OBJECT__39
10
0
20
0
30
0
70
128
71
137
72
142
73
143
0
VERTEX
8
OBJECT__39
10
0
20
0
30
0
70
128
71
144
72
130
73
145
0
VERTEX
8
OBJECT__39
10
0
20
0
30
0
70
128
71
142
72
137
73
144
0
VERTEX
8
OBJECT__39
10
0
20
0
30
0
70
128
71
145
72
142
73
144
0
VERTEX
8
OBJECT__39
10
0
20
0
30
0
70
128
71
143
72
146
73
137
0
VERTEX
8
OBJECT__39
10
0
20
0
30
0
70
128
71
146
72
147
73
137
0
VERTEX
8
OBJECT__39
10
0
20
0
30
0
70
128
71
147
72
138
73
137
0
VERTEX
8
OBJECT__39
10
0
20
0
30
0
70
128
71
148
72
149
73
150
0
VERTEX
8
OBJECT__39
10
0
20
0
30
0
70
128
71
149
72
148
73
151
0
VERTEX
8
OBJECT__39
10
0
20
0
30
0
70
128
71
151
72
152
73
149
0
VERTEX
8
OBJECT__39
10
0
20
0
30
0
70
128
71
18
72
153
73
148
0
VERTEX
8
OBJECT__39
10
0
20
0
30
0
70
128
71
18
72
154
73
155
0
VERTEX
8
OBJECT__39
10
0
20
0
30
0
70
128
71
154
72
156
73
157
0
VERTEX
8
OBJECT__39
10
0
20
0
30
0
70
128
71
158
72
137
73
159
0
VERTEX
8
OBJECT__39
10
0
20
0
30
0
70
128
71
156
72
160
73
158
0
VERTEX
8
OBJECT__39
10
0
20
0
30
0
70
128
71
156
72
154
73
160
0
VERTEX
8
OBJECT__39
10
0
20
0
30
0
70
128
71
159
72
156
73
158
0
VERTEX
8
OBJECT__39
10
0
20
0
30
0
70
128
71
157
72
155
73
154
0
VERTEX
8
OBJECT__39
10
0
20
0
30
0
70
128
71
155
72
153
73
18
0
VERTEX
8
OBJECT__39
10
0
20
0
30
0
70
128
71
152
72
161
73
162
0
VERTEX
8
OBJECT__39
10
0
20
0
30
0
70
128
71
152
72
163
73
164
0
VERTEX
8
OBJECT__39
10
0
20
0
30
0
70
128
71
164
72
161
73
152
0
VERTEX
8
OBJECT__39
10
0
20
0
30
0
70
128
71
152
72
151
73
165
0
VERTEX
8
OBJECT__39
10
0
20
0
30
0
70
128
71
165
72
163
73
152
0
VERTEX
8
OBJECT__39
10
0
20
0
30
0
70
128
71
162
72
166
73
152
0
VERTEX
8
OBJECT__39
10
0
20
0
30
0
70
128
71
150
72
18
73
148
0
VERTEX
8
OBJECT__39
10
0
20
0
30
0
70
128
71
141
72
159
73
137
0
VERTEX
8
OBJECT__39
10
0
20
0
30
0
70
128
71
132
72
145
73
130
0
VERTEX
8
OBJECT__39
10
0
20
0
30
0
70
128
71
125
72
136
73
123
0
VERTEX
8
OBJECT__39
10
0
20
0
30
0
70
128
71
114
72
105
73
115
0
VERTEX
8
OBJECT__39
10
0
20
0
30
0
70
128
71
103
72
26
73
101
0
VERTEX
8
OBJECT__39
10
0
20
0
30
0
70
128
71
96
72
112
73
94
0
VERTEX
8
OBJECT__39
10
0
20
0
30
0
70
128
71
78
72
167
73
37
0
VERTEX
8
OBJECT__39
10
0
20
0
30
0
70
128
71
72
72
90
73
69
0
VERTEX
8
OBJECT__39
10
0
20
0
30
0
70
128
71
63
72
76
73
64
0
VERTEX
8
OBJECT__39
10
0
20
0
30
0
70
128
71
43
72
5
73
44
0
VERTEX
8
OBJECT__39
10
0
20
0
30
0
70
128
71
39
72
83
73
37
0
VERTEX
8
OBJECT__39
10
0
20
0
30
0
70
128
71
35
72
40
73
33
0
VERTEX
8
OBJECT__39
10
0
20
0
30
0
70
128
71
30
72
36
73
28
0
VERTEX
8
OBJECT__39
10
0
20
0
30
0
70
128
71
24
72
27
73
22
0
VERTEX
8
OBJECT__39
10
0
20
0
30
0
70
128
71
20
72
154
73
18
0
VERTEX
8
OBJECT__39
10
0
20
0
30
0
70
128
71
15
72
21
73
13
0
VERTEX
8
OBJECT__39
10
0
20
0
30
0
70
128
71
11
72
12
73
9
0
VERTEX
8
OBJECT__39
10
0
20
0
30
0
70
128
71
3
72
7
73
1
0
SEQEND
8
OBJECT__39
0
POLYLINE
8
OBJECT__40
66
1
70
64
71
49
72
55
62
253
0
VERTEX
8
OBJECT__40
10
63.152000
20
52.683998
30
-10.118000
70
192
0
VERTEX
8
OBJECT__40
10
60.373001
20
52.683998
30
-13.374000
70
192
0
VERTEX
8
OBJECT__40
10
60.194000
20
52.988998
30
-12.537000
70
192
0
VERTEX
8
OBJECT__40
10
59.908001
20
52.988998
30
-12.872000
70
192
0
VERTEX
8
OBJECT__40
10
65.094002
20
52.683998
30
-6.303000
70
192
0
VERTEX
8
OBJECT__40
10
62.724998
20
52.988998
30
-9.458000
70
192
0
VERTEX
8
OBJECT__40
10
62.583000
20
52.988998
30
-9.738000
70
192
0
VERTEX
8
OBJECT__40
10
66.093002
20
52.683998
30
-2.140000
70
192
0
VERTEX
8
OBJECT__40
10
64.496002
20
52.988998
30
-5.883000
70
192
0
VERTEX
8
OBJECT__40
10
64.452003
20
52.988998
30
-6.066000
70
192
0
VERTEX
8
OBJECT__40
10
66.093002
20
52.683998
30
2.140000
70
192
0
VERTEX
8
OBJECT__40
10
65.414001
20
52.988998
30
-1.997000
70
192
0
VERTEX
8
OBJECT__40
10
65.414001
20
52.988998
30
-2.060000
70
192
0
VERTEX
8
OBJECT__40
10
65.414001
20
52.988998
30
1.997000
70
192
0
VERTEX
8
OBJECT__40
10
65.414001
20
52.988998
30
2.060000
70
192
0
VERTEX
8
OBJECT__40
10
64.496002
20
52.988998
30
5.883000
70
192
0
VERTEX
8
OBJECT__40
10
65.094002
20
52.683998
30
6.303000
70
192
0
VERTEX
8
OBJECT__40
10
64.452003
20
52.988998
30
6.066000
70
192
0
VERTEX
8
OBJECT__40
10
62.724998
20
52.988998
30
9.458000
70
192
0
VERTEX
8
OBJECT__40
10
63.152000
20
52.683998
30
10.118000
70
192
0
VERTEX
8
OBJECT__40
10
62.583000
20
52.988998
30
9.738000
70
192
0
VERTEX
8
OBJECT__40
10
60.194000
20
52.988998
30
12.537000
70
192
0
VERTEX
8
OBJECT__40
10
60.373001
20
52.683998
30
13.374000
70
192
0
VERTEX
8
OBJECT__40
10
63.384998
20
51.988998
30
-10.274000
70
192
0
VERTEX
8
OBJECT__40
10
60.563000
20
51.988998
30
-13.580000
70
192
0
VERTEX
8
OBJECT__40
10
65.358002
20
51.988998
30
-6.400000
70
192
0
VERTEX
8
OBJECT__40
10
63.930000
20
51.988998
30
-9.203000
70
192
0
VERTEX
8
OBJECT__40
10
66.127998
20
51.988998
30
-3.191000
70
192
0
VERTEX
8
OBJECT__40
10
66.372002
20
51.988998
30
-2.173000
70
192
0
VERTEX
8
OBJECT__40
10
66.372002
20
51.988998
30
2.173000
70
192
0
VERTEX
8
OBJECT__40
10
65.358002
20
51.988998
30
6.400000
70
192
0
VERTEX
8
OBJECT__40
10
66.127998
20
51.988998
30
3.191000
70
192
0
VERTEX
8
OBJECT__40
10
63.930000
20
51.988998
30
9.203000
70
192
0
VERTEX
8
OBJECT__40
10
63.384998
20
51.988998
30
10.274000
70
192
0
VERTEX
8
OBJECT__40
10
60.563000
20
51.988998
30
13.580000
70
192
0
VERTEX
8
OBJECT__40
10
57.250000
20
52.669998
30
-15.681000
70
192
0
VERTEX
8
OBJECT__40
10
59.845001
20
51.988998
30
-14.109000
70
192
0
VERTEX
8
OBJECT__40
10
57.250000
20
51.994999
30
-16.021000
70
192
0
VERTEX
8
OBJECT__40
10
57.250000
20
52.558998
30
-15.816000
70
192
0
VERTEX
8
OBJECT__40
10
57.250000
20
51.988998
30
-16.021000
70
192
0
VERTEX
8
OBJECT__40
10
57.250000
20
52.834999
30
-15.481000
70
192
0
VERTEX
8
OBJECT__40
10
57.250000
20
52.988998
30
-14.897000
70
192
0
VERTEX
8
OBJECT__40
10
59.908001
20
52.988998
30
12.872000
70
192
0
VERTEX
8
OBJECT__40
10
57.250000
20
52.988998
30
14.897000
70
192
0
VERTEX
8
OBJECT__40
10
57.250000
20
52.633999
30
15.661000
70
192
0
VERTEX
8
OBJECT__40
10
57.250000
20
52.563999
30
15.812000
70
192
0
VERTEX
8
OBJECT__40
10
59.845001
20
51.988998
30
14.109000
70
192
0
VERTEX
8
OBJECT__40
10
57.250000
20
52.245998
30
15.983000
70
192
0
VERTEX
8
OBJECT__40
10
57.250000
20
51.988998
30
16.021000
70
192
0
VERTEX
8
OBJECT__40
10
0
20
0
30
0
70
128
71
1
72
2
73
3
0
VERTEX
8
OBJECT__40
10
0
20
0
30
0
70
128
71
2
72
4
73
3
0
VERTEX
8
OBJECT__40
10
0
20
0
30
0
70
128
71
5
72
1
73
6
0
VERTEX
8
OBJECT__40
10
0
20
0
30
0
70
128
71
1
72
7
73
6
0
VERTEX
8
OBJECT__40
10
0
20
0
30
0
70
128
71
8
72
5
73
9
0
VERTEX
8
OBJECT__40
10
0
20
0
30
0
70
128
71
5
72
10
73
9
0
VERTEX
8
OBJECT__40
10
0
20
0
30
0
70
128
71
11
72
8
73
12
0
VERTEX
8
OBJECT__40
10
0
20
0
30
0
70
128
71
8
72
13
73
12
0
VERTEX
8
OBJECT__40
10
0
20
0
30
0
70
128
71
12
72
14
73
11
0
VERTEX
8
OBJECT__40
10
0
20
0
30
0
70
128
71
11
72
15
73
16
0
VERTEX
8
OBJECT__40
10
0
20
0
30
0
70
128
71
16
72
17
73
11
0
VERTEX
8
OBJECT__40
10
0
20
0
30
0
70
128
71
17
72
18
73
19
0
VERTEX
8
OBJECT__40
10
0
20
0
30
0
70
128
71
19
72
20
73
17
0
VERTEX
8
OBJECT__40
10
0
20
0
30
0
70
128
71
20
72
21
73
22
0
VERTEX
8
OBJECT__40
10
0
20
0
30
0
70
128
71
22
72
23
73
20
0
VERTEX
8
OBJECT__40
10
0
20
0
30
0
70
128
71
24
72
25
73
2
0
VERTEX
8
OBJECT__40
10
0
20
0
30
0
70
128
71
5
72
26
73
27
0
VERTEX
8
OBJECT__40
10
0
20
0
30
0
70
128
71
27
72
1
73
5
0
VERTEX
8
OBJECT__40
10
0
20
0
30
0
70
128
71
5
72
8
73
28
0
VERTEX
8
OBJECT__40
10
0
20
0
30
0
70
128
71
8
72
29
73
28
0
VERTEX
8
OBJECT__40
10
0
20
0
30
0
70
128
71
30
72
29
73
8
0
VERTEX
8
OBJECT__40
10
0
20
0
30
0
70
128
71
17
72
31
73
32
0
VERTEX
8
OBJECT__40
10
0
20
0
30
0
70
128
71
32
72
11
73
17
0
VERTEX
8
OBJECT__40
10
0
20
0
30
0
70
128
71
17
72
20
73
33
0
VERTEX
8
OBJECT__40
10
0
20
0
30
0
70
128
71
20
72
34
73
33
0
VERTEX
8
OBJECT__40
10
0
20
0
30
0
70
128
71
35
72
34
73
20
0
VERTEX
8
OBJECT__40
10
0
20
0
30
0
70
128
71
36
72
2
73
37
0
VERTEX
8
OBJECT__40
10
0
20
0
30
0
70
128
71
37
72
38
73
39
0
VERTEX
8
OBJECT__40
10
0
20
0
30
0
70
128
71
37
72
40
73
38
0
VERTEX
8
OBJECT__40
10
0
20
0
30
0
70
128
71
2
72
25
73
37
0
VERTEX
8
OBJECT__40
10
0
20
0
30
0
70
128
71
2
72
41
73
42
0
VERTEX
8
OBJECT__40
10
0
20
0
30
0
70
128
71
2
72
36
73
41
0
VERTEX
8
OBJECT__40
10
0
20
0
30
0
70
128
71
23
72
43
73
44
0
VERTEX
8
OBJECT__40
10
0
20
0
30
0
70
128
71
45
72
46
73
47
0
VERTEX
8
OBJECT__40
10
0
20
0
30
0
70
128
71
47
72
23
73
45
0
VERTEX
8
OBJECT__40
10
0
20
0
30
0
70
128
71
46
72
48
73
47
0
VERTEX
8
OBJECT__40
10
0
20
0
30
0
70
128
71
48
72
49
73
47
0
VERTEX
8
OBJECT__40
10
0
20
0
30
0
70
128
71
47
72
35
73
23
0
VERTEX
8
OBJECT__40
10
0
20
0
30
0
70
128
71
44
72
45
73
23
0
VERTEX
8
OBJECT__40
10
0
20
0
30
0
70
128
71
42
72
4
73
2
0
VERTEX
8
OBJECT__40
10
0
20
0
30
0
70
128
71
37
72
39
73
36
0
VERTEX
8
OBJECT__40
10
0
20
0
30
0
70
128
71
20
72
23
73
35
0
VERTEX
8
OBJECT__40
10
0
20
0
30
0
70
128
71
33
72
31
73
17
0
VERTEX
8
OBJECT__40
10
0
20
0
30
0
70
128
71
32
72
30
73
11
0
VERTEX
8
OBJECT__40
10
0
20
0
30
0
70
128
71
8
72
11
73
30
0
VERTEX
8
OBJECT__40
10
0
20
0
30
0
70
128
71
28
72
26
73
5
0
VERTEX
8
OBJECT__40
10
0
20
0
30
0
70
128
71
27
72
24
73
1
0
VERTEX
8
OBJECT__40
10
0
20
0
30
0
70
128
71
2
72
1
73
24
0
VERTEX
8
OBJECT__40
10
0
20
0
30
0
70
128
71
22
72
43
73
23
0
VERTEX
8
OBJECT__40
10
0
20
0
30
0
70
128
71
19
72
21
73
20
0
VERTEX
8
OBJECT__40
10
0
20
0
30
0
70
128
71
16
72
18
73
17
0
VERTEX
8
OBJECT__40
10
0
20
0
30
0
70
128
71
14
72
15
73
11
0
VERTEX
8
OBJECT__40
10
0
20
0
30
0
70
128
71
9
72
13
73
8
0
VERTEX
8
OBJECT__40
10
0
20
0
30
0
70
128
71
6
72
10
73
5
0
VERTEX
8
OBJECT__40
10
0
20
0
30
0
70
128
71
3
72
7
73
1
0
SEQEND
8
OBJECT__40
0
POLYLINE
8
OBJECT__41
66
1
70
64
71
32
72
30
62
253
0
VERTEX
8
OBJECT__41
10
57.250000
20
53.085999
30
-11.173000
70
192
0
VERTEX
8
OBJECT__41
10
60.194000
20
52.988998
30
-12.537000
70
192
0
VERTEX
8
OBJECT__41
10
59.908001
20
52.988998
30
-12.872000
70
192
0
VERTEX
8
OBJECT__41
10
57.250000
20
52.988998
30
-14.897000
70
192
0
VERTEX
8
OBJECT__41
10
62.583000
20
52.988998
30
-9.738000
70
192
0
VERTEX
8
OBJECT__41
10
57.250000
20
53.113998
30
-9.644000
70
192
0
VERTEX
8
OBJECT__41
10
57.250000
20
53.154999
30
-7.449000
70
192
0
VERTEX
8
OBJECT__41
10
62.724998
20
52.988998
30
-9.458000
70
192
0
VERTEX
8
OBJECT__41
10
64.452003
20
52.988998
30
-6.066000
70
192
0
VERTEX
8
OBJECT__41
10
57.250000
20
53.171001
30
-6.042000
70
192
0
VERTEX
8
OBJECT__41
10
57.250000
20
53.196999
30
-3.725000
70
192
0
VERTEX
8
OBJECT__41
10
64.496002
20
52.988998
30
-5.883000
70
192
0
VERTEX
8
OBJECT__41
10
65.414001
20
52.988998
30
-2.060000
70
192
0
VERTEX
8
OBJECT__41
10
57.250000
20
53.198002
30
-3.323000
70
192
0
VERTEX
8
OBJECT__41
10
57.250000
20
53.207001
30
-1.078000
70
192
0
VERTEX
8
OBJECT__41
10
65.414001
20
52.988998
30
-1.997000
70
192
0
VERTEX
8
OBJECT__41
10
57.250000
20
53.210999
30
0.000000
70
192
0
VERTEX
8
OBJECT__41
10
65.414001
20
52.988998
30
1.997000
70
192
0
VERTEX
8
OBJECT__41
10
65.414001
20
52.988998
30
2.060000
70
192
0
VERTEX
8
OBJECT__41
10
57.250000
20
53.207001
30
1.078000
70
192
0
VERTEX
8
OBJECT__41
10
57.250000
20
53.198002
30
3.323000
70
192
0
VERTEX
8
OBJECT__41
10
64.496002
20
52.988998
30
5.883000
70
192
0
VERTEX
8
OBJECT__41
10
64.452003
20
52.988998
30
6.066000
70
192
0
VERTEX
8
OBJECT__41
10
57.250000
20
53.196999
30
3.725000
70
192
0
VERTEX
8
OBJECT__41
10
57.250000
20
53.165001
30
6.176000
70
192
0
VERTEX
8
OBJECT__41
10
62.724998
20
52.988998
30
9.458000
70
192
0
VERTEX
8
OBJECT__41
10
62.583000
20
52.988998
30
9.738000
70
192
0
VERTEX
8
OBJECT__41
10
57.250000
20
53.124001
30
9.311000
70
192
0
VERTEX
8
OBJECT__41
10
57.250000
20
53.118000
30
9.550000
70
192
0
VERTEX
8
OBJECT__41
10
60.194000
20
52.988998
30
12.537000
70
192
0
VERTEX
8
OBJECT__41
10
57.250000
20
52.988998
30
14.897000
70
192
0
VERTEX
8
OBJECT__41
10
59.908001
20
52.988998
30
12.872000
70
192
0
VERTEX
8
OBJECT__41
10
0
20
0
30
0
70
128
71
1
72
2
73
3
0
VERTEX
8
OBJECT__41
10
0
20
0
30
0
70
128
71
3
72
4
73
1
0
VERTEX
8
OBJECT__41
10
0
20
0
30
0
70
128
71
5
72
2
73
6
0
VERTEX
8
OBJECT__41
10
0
20
0
30
0
70
128
71
7
72
8
73
5
0
VERTEX
8
OBJECT__41
10
0
20
0
30
0
70
128
71
6
72
7
73
5
0
VERTEX
8
OBJECT__41
10
0
20
0
30
0
70
128
71
9
72
8
73
10
0
VERTEX
8
OBJECT__41
10
0
20
0
30
0
70
128
71
11
72
12
73
9
0
VERTEX
8
OBJECT__41
10
0
20
0
30
0
70
128
71
10
72
11
73
9
0
VERTEX
8
OBJECT__41
10
0
20
0
30
0
70
128
71
13
72
12
73
14
0
VERTEX
8
OBJECT__41
10
0
20
0
30
0
70
128
71
15
72
16
73
13
0
VERTEX
8
OBJECT__41
10
0
20
0
30
0
70
128
71
16
72
15
73
17
0
VERTEX
8
OBJECT__41
10
0
20
0
30
0
70
128
71
17
72
18
73
16
0
VERTEX
8
OBJECT__41
10
0
20
0
30
0
70
128
71
19
72
20
73
21
0
VERTEX
8
OBJECT__41
10
0
20
0
30
0
70
128
71
21
72
22
73
19
0
VERTEX
8
OBJECT__41
10
0
20
0
30
0
70
128
71
23
72
24
73
25
0
VERTEX
8
OBJECT__41
10
0
20
0
30
0
70
128
71
25
72
26
73
23
0
VERTEX
8
OBJECT__41
10
0
20
0
30
0
70
128
71
22
72
21
73
24
0
VERTEX
8
OBJECT__41
10
0
20
0
30
0
70
128
71
27
72
28
73
29
0
VERTEX
8
OBJECT__41
10
0
20
0
30
0
70
128
71
29
72
30
73
27
0
VERTEX
8
OBJECT__41
10
0
20
0
30
0
70
128
71
26
72
25
73
28
0
VERTEX
8
OBJECT__41
10
0
20
0
30
0
70
128
71
29
72
31
73
32
0
VERTEX
8
OBJECT__41
10
0
20
0
30
0
70
128
71
32
72
30
73
29
0
VERTEX
8
OBJECT__41
10
0
20
0
30
0
70
128
71
27
72
26
73
28
0
VERTEX
8
OBJECT__41
10
0
20
0
30
0
70
128
71
23
72
22
73
24
0
VERTEX
8
OBJECT__41
10
0
20
0
30
0
70
128
71
19
72
18
73
20
0
VERTEX
8
OBJECT__41
10
0
20
0
30
0
70
128
71
17
72
20
73
18
0
VERTEX
8
OBJECT__41
10
0
20
0
30
0
70
128
71
14
72
15
73
13
0
VERTEX
8
OBJECT__41
10
0
20
0
30
0
70
128
71
11
72
14
73
12
0
VERTEX
8
OBJECT__41
10
0
20
0
30
0
70
128
71
7
72
10
73
8
0
VERTEX
8
OBJECT__41
10
0
20
0
30
0
70
128
71
1
72
6
73
2
0
SEQEND
8
OBJECT__41
0
POLYLINE
8
OBJECT__42
66
1
70
64
71
43
72
41
62
253
0
VERTEX
8
OBJECT__42
10
57.250000
20
51.201000
30
-2.323000
70
192
0
VERTEX
8
OBJECT__42
10
57.250000
20
51.209999
30
0.000000
70
192
0
VERTEX
8
OBJECT__42
10
57.250000
20
53.207001
30
-1.078000
70
192
0
VERTEX
8
OBJECT__42
10
57.250000
20
53.198002
30
-3.323000
70
192
0
VERTEX
8
OBJECT__42
10
57.250000
20
51.194000
30
-4.040000
70
192
0
VERTEX
8
OBJECT__42
10
57.250000
20
53.196999
30
3.725000
70
192
0
VERTEX
8
OBJECT__42
10
57.250000
20
51.199001
30
3.384000
70
192
0
VERTEX
8
OBJECT__42
10
57.250000
20
51.181000
30
4.954000
70
192
0
VERTEX
8
OBJECT__42
10
57.250000
20
53.207001
30
1.078000
70
192
0
VERTEX
8
OBJECT__42
10
57.250000
20
51.209999
30
0.202000
70
192
0
VERTEX
8
OBJECT__42
10
57.250000
20
51.202999
30
2.296000
70
192
0
VERTEX
8
OBJECT__42
10
57.250000
20
53.210999
30
0.000000
70
192
0
VERTEX
8
OBJECT__42
10
57.250000
20
53.165001
30
6.176000
70
192
0
VERTEX
8
OBJECT__42
10
57.250000
20
51.144001
30
8.132000
70
192
0
VERTEX
8
OBJECT__42
10
57.250000
20
53.124001
30
9.311000
70
192
0
VERTEX
8
OBJECT__42
10
57.250000
20
53.198002
30
3.323000
70
192
0
VERTEX
8
OBJECT__42
10
57.250000
20
53.196999
30
-3.725000
70
192
0
VERTEX
8
OBJECT__42
10
57.250000
20
51.133999
30
-8.360000
70
192
0
VERTEX
8
OBJECT__42
10
57.250000
20
51.181999
30
-4.931000
70
192
0
VERTEX
8
OBJECT__42
10
57.250000
20
53.171001
30
-6.042000
70
192
0
VERTEX
8
OBJECT__42
10
57.250000
20
53.113998
30
-9.644000
70
192
0
VERTEX
8
OBJECT__42
10
57.250000
20
51.116001
30
-9.696000
70
192
0
VERTEX
8
OBJECT__42
10
57.250000
20
53.118000
30
9.550000
70
192
0
VERTEX
8
OBJECT__42
10
57.250000
20
51.144001
30
8.156000
70
192
0
VERTEX
8
OBJECT__42
10
57.250000
20
51.042999
30
12.927000
70
192
0
VERTEX
8
OBJECT__42
10
57.250000
20
53.154999
30
-7.449000
70
192
0
VERTEX
8
OBJECT__42
10
57.250000
20
53.085999
30
-11.173000
70
192
0
VERTEX
8
OBJECT__42
10
57.250000
20
52.988998
30
-14.897000
70
192
0
VERTEX
8
OBJECT__42
10
57.250000
20
51.042999
30
-12.927000
70
192
0
VERTEX
8
OBJECT__42
10
57.250000
20
52.669998
30
-15.681000
70
192
0
VERTEX
8
OBJECT__42
10
57.250000
20
52.558998
30
-15.816000
70
192
0
VERTEX
8
OBJECT__42
10
57.250000
20
47.403999
30
12.966000
70
192
0
VERTEX
8
OBJECT__42
10
57.250000
20
52.245998
30
15.983000
70
192
0
VERTEX
8
OBJECT__42
10
57.250000
20
52.563999
30
15.812000
70
192
0
VERTEX
8
OBJECT__42
10
57.250000
20
52.988998
30
14.897000
70
192
0
VERTEX
8
OBJECT__42
10
57.250000
20
44.173000
30
-16.021000
70
192
0
VERTEX
8
OBJECT__42
10
57.250000
20
44.173000
30
-13.001000
70
192
0
VERTEX
8
OBJECT__42
10
57.250000
20
51.994999
30
-16.021000
70
192
0
VERTEX
8
OBJECT__42
10
57.250000
20
51.988998
30
16.021000
70
192
0
VERTEX
8
OBJECT__42
10
57.250000
20
51.988998
30
-16.021000
70
192
0
VERTEX
8
OBJECT__42
10
57.250000
20
52.834999
30
-15.481000
70
192
0
VERTEX
8
OBJECT__42
10
57.250000
20
52.633999
30
15.661000
70
192
0
VERTEX
8
OBJECT__42
10
57.250000
20
47.403999
30
16.021000
70
192
0
VERTEX
8
OBJECT__42
10
0
20
0
30
0
70
128
71
1
72
2
73
3
0
VERTEX
8
OBJECT__42
10
0
20
0
30
0
70
128
71
4
72
5
73
1
0
VERTEX
8
OBJECT__42
10
0
20
0
30
0
70
128
71
6
72
7
73
8
0
VERTEX
8
OBJECT__42
10
0
20
0
30
0
70
128
71
9
72
10
73
11
0
VERTEX
8
OBJECT__42
10
0
20
0
30
0
70
128
71
2
72
12
73
3
0
VERTEX
8
OBJECT__42
10
0
20
0
30
0
70
128
71
8
72
13
73
6
0
VERTEX
8
OBJECT__42
10
0
20
0
30
0
70
128
71
14
72
15
73
13
0
VERTEX
8
OBJECT__42
10
0
20
0
30
0
70
128
71
11
72
16
73
9
0
VERTEX
8
OBJECT__42
10
0
20
0
30
0
70
128
71
3
72
4
73
1
0
VERTEX
8
OBJECT__42
10
0
20
0
30
0
70
128
71
13
72
8
73
14
0
VERTEX
8
OBJECT__42
10
0
20
0
30
0
70
128
71
9
72
12
73
10
0
VERTEX
8
OBJECT__42
10
0
20
0
30
0
70
128
71
4
72
17
73
5
0
VERTEX
8
OBJECT__42
10
0
20
0
30
0
70
128
71
18
72
19
73
20
0
VERTEX
8
OBJECT__42
10
0
20
0
30
0
70
128
71
21
72
22
73
18
0
VERTEX
8
OBJECT__42
10
0
20
0
30
0
70
128
71
23
72
24
73
25
0
VERTEX
8
OBJECT__42
10
0
20
0
30
0
70
128
71
6
72
16
73
7
0
VERTEX
8
OBJECT__42
10
0
20
0
30
0
70
128
71
2
72
10
73
12
0
VERTEX
8
OBJECT__42
10
0
20
0
30
0
70
128
71
18
72
26
73
21
0
VERTEX
8
OBJECT__42
10
0
20
0
30
0
70
128
71
17
72
20
73
19
0
VERTEX
8
OBJECT__42
10
0
20
0
30
0
70
128
71
27
72
28
73
29
0
VERTEX
8
OBJECT__42
10
0
20
0
30
0
70
128
71
29
72
30
73
31
0
VERTEX
8
OBJECT__42
10
0
20
0
30
0
70
128
71
32
72
33
73
34
0
VERTEX
8
OBJECT__42
10
0
20
0
30
0
70
128
71
25
72
35
73
23
0
VERTEX
8
OBJECT__42
10
0
20
0
30
0
70
128
71
11
72
7
73
16
0
VERTEX
8
OBJECT__42
10
0
20
0
30
0
70
128
71
19
72
5
73
17
0
VERTEX
8
OBJECT__42
10
0
20
0
30
0
70
128
71
22
72
21
73
27
0
VERTEX
8
OBJECT__42
10
0
20
0
30
0
70
128
71
36
72
37
73
29
0
VERTEX
8
OBJECT__42
10
0
20
0
30
0
70
128
71
31
72
38
73
29
0
VERTEX
8
OBJECT__42
10
0
20
0
30
0
70
128
71
32
72
39
73
33
0
VERTEX
8
OBJECT__42
10
0
20
0
30
0
70
128
71
14
72
24
73
15
0
VERTEX
8
OBJECT__42
10
0
20
0
30
0
70
128
71
29
72
22
73
27
0
VERTEX
8
OBJECT__42
10
0
20
0
30
0
70
128
71
38
72
40
73
29
0
VERTEX
8
OBJECT__42
10
0
20
0
30
0
70
128
71
29
72
28
73
41
0
VERTEX
8
OBJECT__42
10
0
20
0
30
0
70
128
71
42
72
35
73
25
0
VERTEX
8
OBJECT__42
10
0
20
0
30
0
70
128
71
32
72
43
73
39
0
VERTEX
8
OBJECT__42
10
0
20
0
30
0
70
128
71
20
72
26
73
18
0
VERTEX
8
OBJECT__42
10
0
20
0
30
0
70
128
71
41
72
30
73
29
0
VERTEX
8
OBJECT__42
10
0
20
0
30
0
70
128
71
34
72
42
73
32
0
VERTEX
8
OBJECT__42
10
0
20
0
30
0
70
128
71
29
72
40
73
36
0
VERTEX
8
OBJECT__42
10
0
20
0
30
0
70
128
71
23
72
15
73
24
0
VERTEX
8
OBJECT__42
10
0
20
0
30
0
70
128
71
25
72
32
73
42
0
SEQEND
8
OBJECT__42
0
POLYLINE
8
OBJECT__43
66
1
70
64
71
28
72
26
62
253
0
VERTEX
8
OBJECT__43
10
57.250000
20
51.116001
30
-9.696000
70
192
0
VERTEX
8
OBJECT__43
10
57.250000
20
51.042999
30
-12.927000
70
192
0
VERTEX
8
OBJECT__43
10
59.014999
20
51.042999
30
-11.461000
70
192
0
VERTEX
8
OBJECT__43
10
59.014999
20
51.070000
30
-9.896000
70
192
0
VERTEX
8
OBJECT__43
10
57.250000
20
51.133999
30
-8.360000
70
192
0
VERTEX
8
OBJECT__43
10
59.014000
20
51.140999
30
-5.743000
70
192
0
VERTEX
8
OBJECT__43
10
57.250000
20
51.181999
30
-4.931000
70
192
0
VERTEX
8
OBJECT__43
10
59.014000
20
51.141998
30
-5.731000
70
192
0
VERTEX
8
OBJECT__43
10
59.014000
20
51.162998
30
-2.742000
70
192
0
VERTEX
8
OBJECT__43
10
57.250000
20
51.194000
30
-4.040000
70
192
0
VERTEX
8
OBJECT__43
10
57.250000
20
51.201000
30
-2.323000
70
192
0
VERTEX
8
OBJECT__43
10
57.250000
20
51.209999
30
0.000000
70
192
0
VERTEX
8
OBJECT__43
10
59.014000
20
51.173000
30
-1.433000
70
192
0
VERTEX
8
OBJECT__43
10
57.250000
20
51.209999
30
0.202000
70
192
0
VERTEX
8
OBJECT__43
10
59.014000
20
51.172001
30
0.000000
70
192
0
VERTEX
8
OBJECT__43
10
59.014000
20
51.171001
30
1.791000
70
192
0
VERTEX
8
OBJECT__43
10
57.250000
20
51.202999
30
2.296000
70
192
0
VERTEX
8
OBJECT__43
10
59.014000
20
51.162998
30
2.739000
70
192
0
VERTEX
8
OBJECT__43
10
59.014000
20
51.137001
30
5.816000
70
192
0
VERTEX
8
OBJECT__43
10
57.250000
20
51.181000
30
4.954000
70
192
0
VERTEX
8
OBJECT__43
10
57.250000
20
51.199001
30
3.384000
70
192
0
VERTEX
8
OBJECT__43
10
59.014000
20
51.130001
30
6.626000
70
192
0
VERTEX
8
OBJECT__43
10
57.250000
20
51.144001
30
8.132000
70
192
0
VERTEX
8
OBJECT__43
10
58.693001
20
51.042999
30
11.728000
70
192
0
VERTEX
8
OBJECT__43
10
57.250000
20
51.144001
30
8.156000
70
192
0
VERTEX
8
OBJECT__43
10
59.014999
20
51.071999
30
9.849000
70
192
0
VERTEX
8
OBJECT__43
10
59.014999
20
51.042999
30
11.461000
70
192
0
VERTEX
8
OBJECT__43
10
57.250000
20
51.042999
30
12.927000
70
192
0
VERTEX
8
OBJECT__43
10
0
20
0
30
0
70
128
71
1
72
2
73
3
0
VERTEX
8
OBJECT__43
10
0
20
0
30
0
70
128
71
4
72
5
73
1
0
VERTEX
8
OBJECT__43
10
0
20
0
30
0
70
128
71
6
72
7
73
5
0
VERTEX
8
OBJECT__43
10
0
20
0
30
0
70
128
71
8
72
9
73
10
0
VERTEX
8
OBJECT__43
10
0
20
0
30
0
70
128
71
9
72
11
73
10
0
VERTEX
8
OBJECT__43
10
0
20
0
30
0
70
128
71
7
72
6
73
8
0
VERTEX
8
OBJECT__43
10
0
20
0
30
0
70
128
71
12
72
11
73
13
0
VERTEX
8
OBJECT__43
10
0
20
0
30
0
70
128
71
11
72
9
73
13
0
VERTEX
8
OBJECT__43
10
0
20
0
30
0
70
128
71
14
72
15
73
16
0
VERTEX
8
OBJECT__43
10
0
20
0
30
0
70
128
71
16
72
17
73
14
0
VERTEX
8
OBJECT__43
10
0
20
0
30
0
70
128
71
14
72
12
73
15
0
VERTEX
8
OBJECT__43
10
0
20
0
30
0
70
128
71
18
72
19
73
20
0
VERTEX
8
OBJECT__43
10
0
20
0
30
0
70
128
71
20
72
21
73
18
0
VERTEX
8
OBJECT__43
10
0
20
0
30
0
70
128
71
20
72
19
73
22
0
VERTEX
8
OBJECT__43
10
0
20
0
30
0
70
128
71
22
72
23
73
20
0
VERTEX
8
OBJECT__43
10
0
20
0
30
0
70
128
71
24
72
25
73
26
0
VERTEX
8
OBJECT__43
10
0
20
0
30
0
70
128
71
26
72
27
73
24
0
VERTEX
8
OBJECT__43
10
0
20
0
30
0
70
128
71
25
72
23
73
26
0
VERTEX
8
OBJECT__43
10
0
20
0
30
0
70
128
71
24
72
28
73
25
0
VERTEX
8
OBJECT__43
10
0
20
0
30
0
70
128
71
22
72
26
73
23
0
VERTEX
8
OBJECT__43
10
0
20
0
30
0
70
128
71
21
72
17
73
18
0
VERTEX
8
OBJECT__43
10
0
20
0
30
0
70
128
71
16
72
18
73
17
0
VERTEX
8
OBJECT__43
10
0
20
0
30
0
70
128
71
13
72
15
73
12
0
VERTEX
8
OBJECT__43
10
0
20
0
30
0
70
128
71
10
72
7
73
8
0
VERTEX
8
OBJECT__43
10
0
20
0
30
0
70
128
71
5
72
4
73
6
0
VERTEX
8
OBJECT__43
10
0
20
0
30
0
70
128
71
3
72
4
73
1
0
SEQEND
8
OBJECT__43
0
POLYLINE
8
OBJECT__44
66
1
70
64
71
16
72
14
62
253
0
VERTEX
8
OBJECT__44
10
59.049999
20
47.015999
30
11.476000
70
192
0
VERTEX
8
OBJECT__44
10
59.014000
20
51.171001
30
1.791000
70
192
0
VERTEX
8
OBJECT__44
10
59.014000
20
51.172001
30
0.000000
70
192
0
VERTEX
8
OBJECT__44
10
59.049999
20
47.015999
30
-11.476000
70
192
0
VERTEX
8
OBJECT__44
10
59.014000
20
51.162998
30
-2.742000
70
192
0
VERTEX
8
OBJECT__44
10
59.014000
20
51.141998
30
-5.731000
70
192
0
VERTEX
8
OBJECT__44
10
59.014000
20
51.173000
30
-1.433000
70
192
0
VERTEX
8
OBJECT__44
10
59.014000
20
51.162998
30
2.739000
70
192
0
VERTEX
8
OBJECT__44
10
59.014000
20
51.137001
30
5.816000
70
192
0
VERTEX
8
OBJECT__44
10
59.014999
20
51.071999
30
9.849000
70
192
0
VERTEX
8
OBJECT__44
10
59.014000
20
51.130001
30
6.626000
70
192
0
VERTEX
8
OBJECT__44
10
59.014999
20
51.070000
30
-9.896000
70
192
0
VERTEX
8
OBJECT__44
10
59.014999
20
51.042999
30
-11.461000
70
192
0
VERTEX
8
OBJECT__44
10
59.032001
20
49.033001
30
-11.468000
70
192
0
VERTEX
8
OBJECT__44
10
59.014000
20
51.140999
30
-5.743000
70
192
0
VERTEX
8
OBJECT__44
10
59.014999
20
51.042999
30
11.461000
70
192
0
VERTEX
8
OBJECT__44
10
0
20
0
30
0
70
128
71
1
72
2
73
3
0
VERTEX
8
OBJECT__44
10
0
20
0
30
0
70
128
71
4
72
5
73
6
0
VERTEX
8
OBJECT__44
10
0
20
0
30
0
70
128
71
4
72
3
73
7
0
VERTEX
8
OBJECT__44
10
0
20
0
30
0
70
128
71
1
72
8
73
2
0
VERTEX
8
OBJECT__44
10
0
20
0
30
0
70
128
71
7
72
5
73
4
0
VERTEX
8
OBJECT__44
10
0
20
0
30
0
70
128
71
1
72
9
73
8
0
VERTEX
8
OBJECT__44
10
0
20
0
30
0
70
128
71
3
72
4
73
1
0
VERTEX
8
OBJECT__44
10
0
20
0
30
0
70
128
71
1
72
10
73
11
0
VERTEX
8
OBJECT__44
10
0
20
0
30
0
70
128
71
12
72
13
73
14
0
VERTEX
8
OBJECT__44
10
0
20
0
30
0
70
128
71
11
72
9
73
1
0
VERTEX
8
OBJECT__44
10
0
20
0
30
0
70
128
71
4
72
15
73
12
0
VERTEX
8
OBJECT__44
10
0
20
0
30
0
70
128
71
1
72
16
73
10
0
VERTEX
8
OBJECT__44
10
0
20
0
30
0
70
128
71
6
72
15
73
4
0
VERTEX
8
OBJECT__44
10
0
20
0
30
0
70
128
71
14
72
4
73
12
0
SEQEND
8
OBJECT__44
0
POLYLINE
8
OBJECT__45
66
1
70
64
71
4
72
2
62
253
0
VERTEX
8
OBJECT__45
10
59.049999
20
47.015999
30
11.476000
70
192
0
VERTEX
8
OBJECT__45
10
59.049999
20
47.015999
30
-11.476000
70
192
0
VERTEX
8
OBJECT__45
10
60.450001
20
47.015999
30
-9.940000
70
192
0
VERTEX
8
OBJECT__45
10
60.450001
20
47.015999
30
9.940000
70
192
0
VERTEX
8
OBJECT__45
10
0
20
0
30
0
70
128
71
1
72
2
73
3
0
VERTEX
8
OBJECT__45
10
0
20
0
30
0
70
128
71
3
72
4
73
1
0
SEQEND
8
OBJECT__45
0
POLYLINE
8
OBJECT__46
66
1
70
64
71
147
72
147
62
253
0
VERTEX
8
OBJECT__46
10
33.498001
20
16.200001
30
7.221000
70
192
0
VERTEX
8
OBJECT__46
10
31.868999
20
16.200001
30
1.495000
70
192
0
VERTEX
8
OBJECT__46
10
32.172001
20
51.042999
30
1.467000
70
192
0
VERTEX
8
OBJECT__46
10
32.417999
20
16.200001
30
-4.433000
70
192
0
VERTEX
8
OBJECT__46
10
32.710999
20
51.042999
30
-4.350000
70
192
0
VERTEX
8
OBJECT__46
10
35.071999
20
16.200001
30
-9.763000
70
192
0
VERTEX
8
OBJECT__46
10
35.314999
20
51.042999
30
-9.579000
70
192
0
VERTEX
8
OBJECT__46
10
60.928001
20
16.200001
30
-9.763000
70
192
0
VERTEX
8
OBJECT__46
10
63.582001
20
16.200001
30
-4.433000
70
192
0
VERTEX
8
OBJECT__46
10
63.289001
20
51.042999
30
-4.350000
70
192
0
VERTEX
8
OBJECT__46
10
64.130997
20
16.200001
30
1.495000
70
192
0
VERTEX
8
OBJECT__46
10
63.827999
20
51.042999
30
1.467000
70
192
0
VERTEX
8
OBJECT__46
10
62.501999
20
16.200001
30
7.221000
70
192
0
VERTEX
8
OBJECT__46
10
62.229000
20
51.042999
30
7.085000
70
192
0
VERTEX
8
OBJECT__46
10
56.528000
20
16.200001
30
-13.774000
70
192
0
VERTEX
8
OBJECT__46
10
51.571999
20
29.017000
30
-15.687000
70
192
0
VERTEX
8
OBJECT__46
10
50.953999
20
28.837999
30
-15.803000
70
192
0
VERTEX
8
OBJECT__46
10
54.188000
20
30.389999
30
-14.837000
70
192
0
VERTEX
8
OBJECT__46
10
53.150002
20
29.731001
30
-15.235000
70
192
0
VERTEX
8
OBJECT__46
10
55.553001
20
31.559000
30
-14.180000
70
192
0
VERTEX
8
OBJECT__46
10
54.752998
20
30.874001
30
-14.565000
70
192
0
VERTEX
8
OBJECT__46
10
56.054001
20
32.105000
30
-13.896000
70
192
0
VERTEX
8
OBJECT__46
10
56.446999
20
32.648998
30
-13.642000
70
192
0
VERTEX
8
OBJECT__46
10
45.022999
20
16.200001
30
-15.924000
70
192
0
VERTEX
8
OBJECT__46
10
46.807999
20
28.464001
30
-16.049000
70
192
0
VERTEX
8
OBJECT__46
10
45.575001
20
28.702000
30
-15.892000
70
192
0
VERTEX
8
OBJECT__46
10
45.179001
20
28.778999
30
-15.841000
70
192
0
VERTEX
8
OBJECT__46
10
50.977001
20
16.200001
30
-15.924000
70
192
0
VERTEX
8
OBJECT__46
10
48.646000
20
28.416000
30
-16.080000
70
192
0
VERTEX
8
OBJECT__46
10
50.426998
20
28.684999
30
-15.902000
70
192
0
VERTEX
8
OBJECT__46
10
50.305000
20
28.650000
30
-15.925000
70
192
0
VERTEX
8
OBJECT__46
10
39.472000
20
16.200001
30
-13.774000
70
192
0
VERTEX
8
OBJECT__46
10
41.673000
20
30.492001
30
-14.778000
70
192
0
VERTEX
8
OBJECT__46
10
41.241001
20
30.867001
30
-14.567000
70
192
0
VERTEX
8
OBJECT__46
10
43.105999
20
29.594000
30
-15.321000
70
192
0
VERTEX
8
OBJECT__46
10
45.043999
20
28.820000
30
-15.814000
70
192
0
VERTEX
8
OBJECT__46
10
44.659000
20
28.937000
30
-15.738000
70
192
0
VERTEX
8
OBJECT__46
10
40.462002
20
31.544001
30
-14.188000
70
192
0
VERTEX
8
OBJECT__46
10
35.549999
20
47.015999
30
-9.940000
70
192
0
VERTEX
8
OBJECT__46
10
38.056999
20
42.671001
30
-12.496000
70
192
0
VERTEX
8
OBJECT__46
10
38.750000
20
44.173000
30
-13.001000
70
192
0
VERTEX
8
OBJECT__46
10
36.950001
20
47.015999
30
-11.476000
70
192
0
VERTEX
8
OBJECT__46
10
37.667999
20
41.366001
30
-12.191000
70
192
0
VERTEX
8
OBJECT__46
10
37.405998
20
38.650002
30
-11.995000
70
192
0
VERTEX
8
OBJECT__46
10
37.424000
20
39.501999
30
-12.002000
70
192
0
VERTEX
8
OBJECT__46
10
37.431000
20
39.807999
30
-12.004000
70
192
0
VERTEX
8
OBJECT__46
10
37.578999
20
37.056999
30
-12.165000
70
192
0
VERTEX
8
OBJECT__46
10
38.466999
20
34.361000
30
-12.902000
70
192
0
VERTEX
8
OBJECT__46
10
38.321999
20
34.735001
30
-12.785000
70
192
0
VERTEX
8
OBJECT__46
10
37.839001
20
35.978001
30
-12.395000
70
192
0
VERTEX
8
OBJECT__46
10
39.551998
20
32.636002
30
-13.644000
70
192
0
VERTEX
8
OBJECT__46
10
39.308998
20
32.928001
30
-13.498000
70
192
0
VERTEX
8
OBJECT__46
10
38.750000
20
51.042999
30
-12.927000
70
192
0
VERTEX
8
OBJECT__46
10
36.985001
20
51.042999
30
-11.461000
70
192
0
VERTEX
8
OBJECT__46
10
37.306999
20
51.042999
30
11.728000
70
192
0
VERTEX
8
OBJECT__46
10
38.750000
20
51.042999
30
12.927000
70
192
0
VERTEX
8
OBJECT__46
10
38.750000
20
47.403999
30
12.966000
70
192
0
VERTEX
8
OBJECT__46
10
37.685001
20
46.056999
30
12.152000
70
192
0
VERTEX
8
OBJECT__46
10
37.265999
20
45.328999
30
11.774000
70
192
0
VERTEX
8
OBJECT__46
10
36.950001
20
47.015999
30
11.476000
70
192
0
VERTEX
8
OBJECT__46
10
37.188999
20
32.785000
30
11.855000
70
192
0
VERTEX
8
OBJECT__46
10
37.192001
20
32.782001
30
11.857000
70
192
0
VERTEX
8
OBJECT__46
10
36.734001
20
33.581001
30
11.429000
70
192
0
VERTEX
8
OBJECT__46
10
35.980999
20
35.562000
30
10.608000
70
192
0
VERTEX
8
OBJECT__46
10
36.082001
20
35.226002
30
10.726000
70
192
0
VERTEX
8
OBJECT__46
10
35.643002
20
37.108002
30
10.192000
70
192
0
VERTEX
8
OBJECT__46
10
35.516998
20
38.339001
30
10.020000
70
192
0
VERTEX
8
OBJECT__46
10
35.580002
20
37.728001
30
10.105000
70
192
0
VERTEX
8
OBJECT__46
10
35.549999
20
47.015999
30
9.940000
70
192
0
VERTEX
8
OBJECT__46
10
35.534000
20
39.915001
30
10.019000
70
192
0
VERTEX
8
OBJECT__46
10
36.713001
20
44.368000
30
11.276000
70
192
0
VERTEX
8
OBJECT__46
10
36.127998
20
42.903999
30
10.676000
70
192
0
VERTEX
8
OBJECT__46
10
36.120998
20
42.887001
30
10.669000
70
192
0
VERTEX
8
OBJECT__46
10
35.699001
20
41.219002
30
10.203000
70
192
0
VERTEX
8
OBJECT__46
10
33.771000
20
51.042999
30
7.085000
70
192
0
VERTEX
8
OBJECT__46
10
35.514999
20
51.042999
30
9.839000
70
192
0
VERTEX
8
OBJECT__46
10
37.085999
20
16.200001
30
11.972000
70
192
0
VERTEX
8
OBJECT__46
10
41.464001
20
28.341999
30
14.707000
70
192
0
VERTEX
8
OBJECT__46
10
42.194000
20
27.965000
30
14.988000
70
192
0
VERTEX
8
OBJECT__46
10
40.240002
20
29.197001
30
14.091000
70
192
0
VERTEX
8
OBJECT__46
10
40.651001
20
28.909000
30
14.298000
70
192
0
VERTEX
8
OBJECT__46
10
38.805000
20
30.528999
30
13.185000
70
192
0
VERTEX
8
OBJECT__46
10
37.625000
20
32.025002
30
12.261000
70
192
0
VERTEX
8
OBJECT__46
10
48.000000
20
16.200001
30
16.200001
70
192
0
VERTEX
8
OBJECT__46
10
42.147999
20
16.200001
30
15.106000
70
192
0
VERTEX
8
OBJECT__46
10
46.251999
20
26.618999
30
16.014000
70
192
0
VERTEX
8
OBJECT__46
10
44.507000
20
26.993999
30
15.723000
70
192
0
VERTEX
8
OBJECT__46
10
45.403000
20
26.802000
30
15.872000
70
192
0
VERTEX
8
OBJECT__46
10
43.117001
20
27.490000
30
15.343000
70
192
0
VERTEX
8
OBJECT__46
10
53.852001
20
16.200001
30
15.106000
70
192
0
VERTEX
8
OBJECT__46
10
51.506001
20
26.997999
30
15.720000
70
192
0
VERTEX
8
OBJECT__46
10
53.151001
20
27.607000
30
15.254000
70
192
0
VERTEX
8
OBJECT__46
10
49.818001
20
26.629000
30
16.006001
70
192
0
VERTEX
8
OBJECT__46
10
50.598000
20
26.799999
30
15.874000
70
192
0
VERTEX
8
OBJECT__46
10
48.062000
20
26.497000
30
16.110001
70
192
0
VERTEX
8
OBJECT__46
10
48.000000
20
26.500999
30
16.107000
70
192
0
VERTEX
8
OBJECT__46
10
58.914001
20
16.200001
30
11.972000
70
192
0
VERTEX
8
OBJECT__46
10
55.584999
20
29.061001
30
14.187000
70
192
0
VERTEX
8
OBJECT__46
10
56.958000
20
30.278000
30
13.350000
70
192
0
VERTEX
8
OBJECT__46
10
57.345001
20
30.695000
30
13.078000
70
192
0
VERTEX
8
OBJECT__46
10
54.057999
20
28.062000
30
14.913000
70
192
0
VERTEX
8
OBJECT__46
10
55.351002
20
28.908001
30
14.299000
70
192
0
VERTEX
8
OBJECT__46
10
53.813000
20
27.938999
30
15.005000
70
192
0
VERTEX
8
OBJECT__46
10
58.530998
20
32.263000
30
12.125000
70
192
0
VERTEX
8
OBJECT__46
10
58.693001
20
51.042999
30
11.728000
70
192
0
VERTEX
8
OBJECT__46
10
57.801998
20
46.752998
30
12.562000
70
192
0
VERTEX
8
OBJECT__46
10
57.250000
20
47.403999
30
12.966000
70
192
0
VERTEX
8
OBJECT__46
10
58.740002
20
45.372002
30
11.780000
70
192
0
VERTEX
8
OBJECT__46
10
60.450001
20
47.015999
30
9.940000
70
192
0
VERTEX
8
OBJECT__46
10
58.826000
20
45.244999
30
11.708000
70
192
0
VERTEX
8
OBJECT__46
10
59.915001
20
42.776001
30
10.631000
70
192
0
VERTEX
8
OBJECT__46
10
59.868999
20
42.903000
30
10.679000
70
192
0
VERTEX
8
OBJECT__46
10
59.605999
20
43.638000
30
10.956000
70
192
0
VERTEX
8
OBJECT__46
10
60.298000
20
41.233002
30
10.206000
70
192
0
VERTEX
8
OBJECT__46
10
60.459000
20
40.009998
30
10.026000
70
192
0
VERTEX
8
OBJECT__46
10
60.487000
20
38.433998
30
10.013000
70
192
0
VERTEX
8
OBJECT__46
10
60.358002
20
37.116001
30
10.190000
70
192
0
VERTEX
8
OBJECT__46
10
60.417999
20
37.729000
30
10.108000
70
192
0
VERTEX
8
OBJECT__46
10
58.808998
20
32.782001
30
11.857000
70
192
0
VERTEX
8
OBJECT__46
10
58.810001
20
32.785000
30
11.856000
70
192
0
VERTEX
8
OBJECT__46
10
59.451000
20
33.984001
30
11.239000
70
192
0
VERTEX
8
OBJECT__46
10
59.986000
20
35.450001
30
10.647000
70
192
0
VERTEX
8
OBJECT__46
10
59.049999
20
47.015999
30
11.476000
70
192
0
VERTEX
8
OBJECT__46
10
59.014999
20
51.042999
30
11.461000
70
192
0
VERTEX
8
OBJECT__46
10
57.250000
20
51.042999
30
-12.927000
70
192
0
VERTEX
8
OBJECT__46
10
57.250000
20
44.173000
30
-13.001000
70
192
0
VERTEX
8
OBJECT__46
10
59.049999
20
47.015999
30
-11.476000
70
192
0
VERTEX
8
OBJECT__46
10
59.032001
20
49.033001
30
-11.468000
70
192
0
VERTEX
8
OBJECT__46
10
57.081001
20
33.528000
30
-13.233000
70
192
0
VERTEX
8
OBJECT__46
10
57.832001
20
35.035999
30
-12.668000
70
192
0
VERTEX
8
OBJECT__46
10
57.681999
20
34.735001
30
-12.780000
70
192
0
VERTEX
8
OBJECT__46
10
58.317001
20
36.564999
30
-12.258000
70
192
0
VERTEX
8
OBJECT__46
10
58.540001
20
37.870998
30
-12.052000
70
192
0
VERTEX
8
OBJECT__46
10
60.450001
20
47.015999
30
-9.940000
70
192
0
VERTEX
8
OBJECT__46
10
58.590000
20
39.457001
30
-11.990000
70
192
0
VERTEX
8
OBJECT__46
10
58.432999
20
40.870998
30
-12.110000
70
192
0
VERTEX
8
OBJECT__46
10
58.584999
20
39.501999
30
-11.994000
70
192
0
VERTEX
8
OBJECT__46
10
57.648998
20
43.384998
30
-12.716000
70
192
0
VERTEX
8
OBJECT__46
10
58.015999
20
42.466999
30
-12.440000
70
192
0
VERTEX
8
OBJECT__46
10
60.685001
20
51.042999
30
-9.579000
70
192
0
VERTEX
8
OBJECT__46
10
60.467999
20
49.023998
30
-9.889000
70
192
0
VERTEX
8
OBJECT__46
10
60.485001
20
51.042999
30
-9.839000
70
192
0
VERTEX
8
OBJECT__46
10
59.014999
20
51.042999
30
-11.461000
70
192
0
VERTEX
8
OBJECT__46
10
60.485001
20
51.042999
30
9.839000
70
192
0
VERTEX
8
OBJECT__46
10
57.250000
20
51.042999
30
12.927000
70
192
0
VERTEX
8
OBJECT__46
10
36.985001
20
51.042999
30
11.461000
70
192
0
VERTEX
8
OBJECT__46
10
35.514999
20
51.042999
30
-9.839000
70
192
0
VERTEX
8
OBJECT__46
10
0
20
0
30
0
70
128
71
1
72
2
73
3
0
VERTEX
8
OBJECT__46
10
0
20
0
30
0
70
128
71
2
72
4
73
5
0
VERTEX
8
OBJECT__46
10
0
20
0
30
0
70
128
71
4
72
6
73
7
0
VERTEX
8
OBJECT__46
10
0
20
0
30
0
70
128
71
8
72
9
73
10
0
VERTEX
8
OBJECT__46
10
0
20
0
30
0
70
128
71
9
72
11
73
12
0
VERTEX
8
OBJECT__46
10
0
20
0
30
0
70
128
71
11
72
13
73
14
0
VERTEX
8
OBJECT__46
10
0
20
0
30
0
70
128
71
15
72
16
73
17
0
VERTEX
8
OBJECT__46
10
0
20
0
30
0
70
128
71
15
72
18
73
19
0
VERTEX
8
OBJECT__46
10
0
20
0
30
0
70
128
71
15
72
20
73
21
0
VERTEX
8
OBJECT__46
10
0
20
0
30
0
70
128
71
15
72
22
73
20
0
VERTEX
8
OBJECT__46
10
0
20
0
30
0
70
128
71
15
72
23
73
22
0
VERTEX
8
OBJECT__46
10
0
20
0
30
0
70
128
71
21
72
18
73
15
0
VERTEX
8
OBJECT__46
10
0
20
0
30
0
70
128
71
19
72
16
73
15
0
VERTEX
8
OBJECT__46
10
0
20
0
30
0
70
128
71
24
72
25
73
26
0
VERTEX
8
OBJECT__46
10
0
20
0
30
0
70
128
71
26
72
27
73
24
0
VERTEX
8
OBJECT__46
10
0
20
0
30
0
70
128
71
24
72
28
73
29
0
VERTEX
8
OBJECT__46
10
0
20
0
30
0
70
128
71
29
72
25
73
24
0
VERTEX
8
OBJECT__46
10
0
20
0
30
0
70
128
71
28
72
17
73
30
0
VERTEX
8
OBJECT__46
10
0
20
0
30
0
70
128
71
30
72
31
73
28
0
VERTEX
8
OBJECT__46
10
0
20
0
30
0
70
128
71
31
72
29
73
28
0
VERTEX
8
OBJECT__46
10
0
20
0
30
0
70
128
71
32
72
33
73
34
0
VERTEX
8
OBJECT__46
10
0
20
0
30
0
70
128
71
32
72
35
73
33
0
VERTEX
8
OBJECT__46
10
0
20
0
30
0
70
128
71
32
72
24
73
36
0
VERTEX
8
OBJECT__46
10
0
20
0
30
0
70
128
71
36
72
37
73
32
0
VERTEX
8
OBJECT__46
10
0
20
0
30
0
70
128
71
37
72
35
73
32
0
VERTEX
8
OBJECT__46
10
0
20
0
30
0
70
128
71
34
72
38
73
32
0
VERTEX
8
OBJECT__46
10
0
20
0
30
0
70
128
71
7
72
6
73
39
0
VERTEX
8
OBJECT__46
10
0
20
0
30
0
70
128
71
40
72
41
73
42
0
VERTEX
8
OBJECT__46
10
0
20
0
30
0
70
128
71
39
72
43
73
40
0
VERTEX
8
OBJECT__46
10
0
20
0
30
0
70
128
71
39
72
44
73
45
0
VERTEX
8
OBJECT__46
10
0
20
0
30
0
70
128
71
45
72
46
73
39
0
VERTEX
8
OBJECT__46
10
0
20
0
30
0
70
128
71
46
72
43
73
39
0
VERTEX
8
OBJECT__46
10
0
20
0
30
0
70
128
71
6
72
47
73
44
0
VERTEX
8
OBJECT__46
10
0
20
0
30
0
70
128
71
6
72
48
73
49
0
VERTEX
8
OBJECT__46
10
0
20
0
30
0
70
128
71
49
72
50
73
6
0
VERTEX
8
OBJECT__46
10
0
20
0
30
0
70
128
71
6
72
32
73
51
0
VERTEX
8
OBJECT__46
10
0
20
0
30
0
70
128
71
51
72
52
73
6
0
VERTEX
8
OBJECT__46
10
0
20
0
30
0
70
128
71
52
72
48
73
6
0
VERTEX
8
OBJECT__46
10
0
20
0
30
0
70
128
71
50
72
47
73
6
0
VERTEX
8
OBJECT__46
10
0
20
0
30
0
70
128
71
44
72
39
73
6
0
VERTEX
8
OBJECT__46
10
0
20
0
30
0
70
128
71
42
72
39
73
40
0
VERTEX
8
OBJECT__46
10
0
20
0
30
0
70
128
71
53
72
54
73
42
0
VERTEX
8
OBJECT__46
10
0
20
0
30
0
70
128
71
42
72
41
73
53
0
VERTEX
8
OBJECT__46
10
0
20
0
30
0
70
128
71
55
72
56
73
57
0
VERTEX
8
OBJECT__46
10
0
20
0
30
0
70
128
71
57
72
58
73
55
0
VERTEX
8
OBJECT__46
10
0
20
0
30
0
70
128
71
55
72
59
73
60
0
VERTEX
8
OBJECT__46
10
0
20
0
30
0
70
128
71
1
72
61
73
62
0
VERTEX
8
OBJECT__46
10
0
20
0
30
0
70
128
71
1
72
63
73
61
0
VERTEX
8
OBJECT__46
10
0
20
0
30
0
70
128
71
1
72
64
73
65
0
VERTEX
8
OBJECT__46
10
0
20
0
30
0
70
128
71
1
72
66
73
64
0
VERTEX
8
OBJECT__46
10
0
20
0
30
0
70
128
71
65
72
63
73
1
0
VERTEX
8
OBJECT__46
10
0
20
0
30
0
70
128
71
1
72
67
73
68
0
VERTEX
8
OBJECT__46
10
0
20
0
30
0
70
128
71
68
72
66
73
1
0
VERTEX
8
OBJECT__46
10
0
20
0
30
0
70
128
71
1
72
69
73
70
0
VERTEX
8
OBJECT__46
10
0
20
0
30
0
70
128
71
70
72
67
73
1
0
VERTEX
8
OBJECT__46
10
0
20
0
30
0
70
128
71
69
72
71
73
72
0
VERTEX
8
OBJECT__46
10
0
20
0
30
0
70
128
71
69
72
60
73
59
0
VERTEX
8
OBJECT__46
10
0
20
0
30
0
70
128
71
59
72
71
73
69
0
VERTEX
8
OBJECT__46
10
0
20
0
30
0
70
128
71
72
72
73
73
69
0
VERTEX
8
OBJECT__46
10
0
20
0
30
0
70
128
71
73
72
74
73
69
0
VERTEX
8
OBJECT__46
10
0
20
0
30
0
70
128
71
74
72
70
73
69
0
VERTEX
8
OBJECT__46
10
0
20
0
30
0
70
128
71
75
72
76
73
69
0
VERTEX
8
OBJECT__46
10
0
20
0
30
0
70
128
71
69
72
1
73
75
0
VERTEX
8
OBJECT__46
10
0
20
0
30
0
70
128
71
62
72
77
73
1
0
VERTEX
8
OBJECT__46
10
0
20
0
30
0
70
128
71
77
72
78
73
79
0
VERTEX
8
OBJECT__46
10
0
20
0
30
0
70
128
71
77
72
80
73
81
0
VERTEX
8
OBJECT__46
10
0
20
0
30
0
70
128
71
81
72
78
73
77
0
VERTEX
8
OBJECT__46
10
0
20
0
30
0
70
128
71
77
72
82
73
80
0
VERTEX
8
OBJECT__46
10
0
20
0
30
0
70
128
71
77
72
83
73
82
0
VERTEX
8
OBJECT__46
10
0
20
0
30
0
70
128
71
77
72
62
73
83
0
VERTEX
8
OBJECT__46
10
0
20
0
30
0
70
128
71
84
72
85
73
86
0
VERTEX
8
OBJECT__46
10
0
20
0
30
0
70
128
71
85
72
87
73
88
0
VERTEX
8
OBJECT__46
10
0
20
0
30
0
70
128
71
85
72
79
73
89
0
VERTEX
8
OBJECT__46
10
0
20
0
30
0
70
128
71
89
72
87
73
85
0
VERTEX
8
OBJECT__46
10
0
20
0
30
0
70
128
71
88
72
86
73
85
0
VERTEX
8
OBJECT__46
10
0
20
0
30
0
70
128
71
90
72
91
73
92
0
VERTEX
8
OBJECT__46
10
0
20
0
30
0
70
128
71
90
72
93
73
94
0
VERTEX
8
OBJECT__46
10
0
20
0
30
0
70
128
71
94
72
91
73
90
0
VERTEX
8
OBJECT__46
10
0
20
0
30
0
70
128
71
84
72
95
73
93
0
VERTEX
8
OBJECT__46
10
0
20
0
30
0
70
128
71
93
72
90
73
84
0
VERTEX
8
OBJECT__46
10
0
20
0
30
0
70
128
71
84
72
96
73
95
0
VERTEX
8
OBJECT__46
10
0
20
0
30
0
70
128
71
97
72
98
73
99
0
VERTEX
8
OBJECT__46
10
0
20
0
30
0
70
128
71
99
72
100
73
97
0
VERTEX
8
OBJECT__46
10
0
20
0
30
0
70
128
71
97
72
101
73
102
0
VERTEX
8
OBJECT__46
10
0
20
0
30
0
70
128
71
97
72
90
73
103
0
VERTEX
8
OBJECT__46
10
0
20
0
30
0
70
128
71
103
72
101
73
97
0
VERTEX
8
OBJECT__46
10
0
20
0
30
0
70
128
71
102
72
98
73
97
0
VERTEX
8
OBJECT__46
10
0
20
0
30
0
70
128
71
100
72
104
73
97
0
VERTEX
8
OBJECT__46
10
0
20
0
30
0
70
128
71
105
72
106
73
107
0
VERTEX
8
OBJECT__46
10
0
20
0
30
0
70
128
71
105
72
108
73
106
0
VERTEX
8
OBJECT__46
10
0
20
0
30
0
70
128
71
14
72
13
73
109
0
VERTEX
8
OBJECT__46
10
0
20
0
30
0
70
128
71
109
72
110
73
108
0
VERTEX
8
OBJECT__46
10
0
20
0
30
0
70
128
71
109
72
111
73
112
0
VERTEX
8
OBJECT__46
10
0
20
0
30
0
70
128
71
112
72
113
73
109
0
VERTEX
8
OBJECT__46
10
0
20
0
30
0
70
128
71
109
72
114
73
111
0
VERTEX
8
OBJECT__46
10
0
20
0
30
0
70
128
71
113
72
110
73
109
0
VERTEX
8
OBJECT__46
10
0
20
0
30
0
70
128
71
109
72
115
73
114
0
VERTEX
8
OBJECT__46
10
0
20
0
30
0
70
128
71
13
72
116
73
115
0
VERTEX
8
OBJECT__46
10
0
20
0
30
0
70
128
71
115
72
109
73
13
0
VERTEX
8
OBJECT__46
10
0
20
0
30
0
70
128
71
13
72
117
73
118
0
VERTEX
8
OBJECT__46
10
0
20
0
30
0
70
128
71
13
72
97
73
119
0
VERTEX
8
OBJECT__46
10
0
20
0
30
0
70
128
71
119
72
120
73
13
0
VERTEX
8
OBJECT__46
10
0
20
0
30
0
70
128
71
120
72
121
73
13
0
VERTEX
8
OBJECT__46
10
0
20
0
30
0
70
128
71
121
72
122
73
13
0
VERTEX
8
OBJECT__46
10
0
20
0
30
0
70
128
71
122
72
117
73
13
0
VERTEX
8
OBJECT__46
10
0
20
0
30
0
70
128
71
118
72
116
73
13
0
VERTEX
8
OBJECT__46
10
0
20
0
30
0
70
128
71
108
72
123
73
109
0
VERTEX
8
OBJECT__46
10
0
20
0
30
0
70
128
71
105
72
124
73
123
0
VERTEX
8
OBJECT__46
10
0
20
0
30
0
70
128
71
123
72
108
73
105
0
VERTEX
8
OBJECT__46
10
0
20
0
30
0
70
128
71
125
72
126
73
127
0
VERTEX
8
OBJECT__46
10
0
20
0
30
0
70
128
71
127
72
128
73
125
0
VERTEX
8
OBJECT__46
10
0
20
0
30
0
70
128
71
8
72
129
73
23
0
VERTEX
8
OBJECT__46
10
0
20
0
30
0
70
128
71
8
72
130
73
131
0
VERTEX
8
OBJECT__46
10
0
20
0
30
0
70
128
71
131
72
129
73
8
0
VERTEX
8
OBJECT__46
10
0
20
0
30
0
70
128
71
8
72
132
73
130
0
VERTEX
8
OBJECT__46
10
0
20
0
30
0
70
128
71
8
72
133
73
132
0
VERTEX
8
OBJECT__46
10
0
20
0
30
0
70
128
71
134
72
135
73
133
0
VERTEX
8
OBJECT__46
10
0
20
0
30
0
70
128
71
133
72
8
73
134
0
VERTEX
8
OBJECT__46
10
0
20
0
30
0
70
128
71
134
72
136
73
137
0
VERTEX
8
OBJECT__46
10
0
20
0
30
0
70
128
71
138
72
134
73
127
0
VERTEX
8
OBJECT__46
10
0
20
0
30
0
70
128
71
127
72
126
73
138
0
VERTEX
8
OBJECT__46
10
0
20
0
30
0
70
128
71
138
72
139
73
134
0
VERTEX
8
OBJECT__46
10
0
20
0
30
0
70
128
71
139
72
136
73
134
0
VERTEX
8
OBJECT__46
10
0
20
0
30
0
70
128
71
137
72
135
73
134
0
VERTEX
8
OBJECT__46
10
0
20
0
30
0
70
128
71
140
72
141
73
134
0
VERTEX
8
OBJECT__46
10
0
20
0
30
0
70
128
71
140
72
142
73
141
0
VERTEX
8
OBJECT__46
10
0
20
0
30
0
70
128
71
134
72
8
73
140
0
VERTEX
8
OBJECT__46
10
0
20
0
30
0
70
128
71
23
72
15
73
8
0
VERTEX
8
OBJECT__46
10
0
20
0
30
0
70
128
71
128
72
143
73
125
0
VERTEX
8
OBJECT__46
10
0
20
0
30
0
70
128
71
109
72
144
73
14
0
VERTEX
8
OBJECT__46
10
0
20
0
30
0
70
128
71
107
72
145
73
105
0
VERTEX
8
OBJECT__46
10
0
20
0
30
0
70
128
71
104
72
119
73
97
0
VERTEX
8
OBJECT__46
10
0
20
0
30
0
70
128
71
92
72
103
73
90
0
VERTEX
8
OBJECT__46
10
0
20
0
30
0
70
128
71
86
72
96
73
84
0
VERTEX
8
OBJECT__46
10
0
20
0
30
0
70
128
71
79
72
85
73
77
0
VERTEX
8
OBJECT__46
10
0
20
0
30
0
70
128
71
60
72
146
73
55
0
VERTEX
8
OBJECT__46
10
0
20
0
30
0
70
128
71
58
72
59
73
55
0
VERTEX
8
OBJECT__46
10
0
20
0
30
0
70
128
71
39
72
147
73
7
0
VERTEX
8
OBJECT__46
10
0
20
0
30
0
70
128
71
38
72
51
73
32
0
VERTEX
8
OBJECT__46
10
0
20
0
30
0
70
128
71
27
72
36
73
24
0
VERTEX
8
OBJECT__46
10
0
20
0
30
0
70
128
71
17
72
28
73
15
0
VERTEX
8
OBJECT__46
10
0
20
0
30
0
70
128
71
14
72
12
73
11
0
VERTEX
8
OBJECT__46
10
0
20
0
30
0
70
128
71
12
72
10
73
9
0
VERTEX
8
OBJECT__46
10
0
20
0
30
0
70
128
71
10
72
140
73
8
0
VERTEX
8
OBJECT__46
10
0
20
0
30
0
70
128
71
7
72
5
73
4
0
VERTEX
8
OBJECT__46
10
0
20
0
30
0
70
128
71
5
72
3
73
2
0
VERTEX
8
OBJECT__46
10
0
20
0
30
0
70
128
71
3
72
75
73
1
0
SEQEND
8
OBJECT__46
0
POLYLINE
8
OBJECT__47
66
1
70
64
71
43
72
43
62
253
0
VERTEX
8
OBJECT__47
10
37.085999
20
16.200001
30
11.972000
70
192
0
VERTEX
8
OBJECT__47
10
35.865002
20
16.200001
30
13.698000
70
192
0
VERTEX
8
OBJECT__47
10
32.938999
20
16.200001
30
10.396000
70
192
0
VERTEX
8
OBJECT__47
10
31.868999
20
16.200001
30
1.495000
70
192
0
VERTEX
8
OBJECT__47
10
29.833000
20
16.200001
30
2.206000
70
192
0
VERTEX
8
OBJECT__47
10
29.833000
20
16.200001
30
-2.206000
70
192
0
VERTEX
8
OBJECT__47
10
42.147999
20
16.200001
30
15.106000
70
192
0
VERTEX
8
OBJECT__47
10
39.495998
20
16.200001
30
16.204000
70
192
0
VERTEX
8
OBJECT__47
10
33.498001
20
16.200001
30
7.221000
70
192
0
VERTEX
8
OBJECT__47
10
30.889000
20
16.200001
30
6.489000
70
192
0
VERTEX
8
OBJECT__47
10
32.417999
20
16.200001
30
-4.433000
70
192
0
VERTEX
8
OBJECT__47
10
35.071999
20
16.200001
30
-9.763000
70
192
0
VERTEX
8
OBJECT__47
10
32.938999
20
16.200001
30
-10.396000
70
192
0
VERTEX
8
OBJECT__47
10
35.865002
20
16.200001
30
-13.698000
70
192
0
VERTEX
8
OBJECT__47
10
60.928001
20
16.200001
30
-9.763000
70
192
0
VERTEX
8
OBJECT__47
10
56.528000
20
16.200001
30
-13.774000
70
192
0
VERTEX
8
OBJECT__47
10
60.134998
20
16.200001
30
-13.698000
70
192
0
VERTEX
8
OBJECT__47
10
58.914001
20
16.200001
30
11.972000
70
192
0
VERTEX
8
OBJECT__47
10
62.501999
20
16.200001
30
7.221000
70
192
0
VERTEX
8
OBJECT__47
10
63.061001
20
16.200001
30
10.396000
70
192
0
VERTEX
8
OBJECT__47
10
30.889000
20
16.200001
30
-6.489000
70
192
0
VERTEX
8
OBJECT__47
10
39.472000
20
16.200001
30
-13.774000
70
192
0
VERTEX
8
OBJECT__47
10
45.022999
20
16.200001
30
-15.924000
70
192
0
VERTEX
8
OBJECT__47
10
39.495998
20
16.200001
30
-16.204000
70
192
0
VERTEX
8
OBJECT__47
10
43.620998
20
16.200001
30
-17.768000
70
192
0
VERTEX
8
OBJECT__47
10
48.000000
20
16.200001
30
-18.299999
70
192
0
VERTEX
8
OBJECT__47
10
56.504002
20
16.200001
30
-16.204000
70
192
0
VERTEX
8
OBJECT__47
10
63.061001
20
16.200001
30
-10.396000
70
192
0
VERTEX
8
OBJECT__47
10
65.111000
20
16.200001
30
-6.489000
70
192
0
VERTEX
8
OBJECT__47
10
65.111000
20
16.200001
30
6.489000
70
192
0
VERTEX
8
OBJECT__47
10
48.000000
20
16.200001
30
16.200001
70
192
0
VERTEX
8
OBJECT__47
10
53.852001
20
16.200001
30
15.106000
70
192
0
VERTEX
8
OBJECT__47
10
52.379002
20
16.200001
30
17.768000
70
192
0
VERTEX
8
OBJECT__47
10
48.000000
20
16.200001
30
18.299999
70
192
0
VERTEX
8
OBJECT__47
10
43.620998
20
16.200001
30
17.768000
70
192
0
VERTEX
8
OBJECT__47
10
50.977001
20
16.200001
30
-15.924000
70
192
0
VERTEX
8
OBJECT__47
10
52.379002
20
16.200001
30
-17.768000
70
192
0
VERTEX
8
OBJECT__47
10
63.582001
20
16.200001
30
-4.433000
70
192
0
VERTEX
8
OBJECT__47
10
64.130997
20
16.200001
30
1.495000
70
192
0
VERTEX
8
OBJECT__47
10
66.167000
20
16.200001
30
-2.206000
70
192
0
VERTEX
8
OBJECT__47
10
60.134998
20
16.200001
30
13.698000
70
192
0
VERTEX
8
OBJECT__47
10
56.504002
20
16.200001
30
16.204000
70
192
0
VERTEX
8
OBJECT__47
10
66.167000
20
16.200001
30
2.206000
70
192
0
VERTEX
8
OBJECT__47
10
0
20
0
30
0
70
128
71
1
72
2
73
3
0
VERTEX
8
OBJECT__47
10
0
20
0
30
0
70
128
71
4
72
5
73
6
0
VERTEX
8
OBJECT__47
10
0
20
0
30
0
70
128
71
1
72
7
73
8
0
VERTEX
8
OBJECT__47
10
0
20
0
30
0
70
128
71
3
72
9
73
1
0
VERTEX
8
OBJECT__47
10
0
20
0
30
0
70
128
71
4
72
9
73
10
0
VERTEX
8
OBJECT__47
10
0
20
0
30
0
70
128
71
6
72
11
73
4
0
VERTEX
8
OBJECT__47
10
0
20
0
30
0
70
128
71
12
72
13
73
14
0
VERTEX
8
OBJECT__47
10
0
20
0
30
0
70
128
71
15
72
16
73
17
0
VERTEX
8
OBJECT__47
10
0
20
0
30
0
70
128
71
18
72
19
73
20
0
VERTEX
8
OBJECT__47
10
0
20
0
30
0
70
128
71
3
72
10
73
9
0
VERTEX
8
OBJECT__47
10
0
20
0
30
0
70
128
71
6
72
21
73
11
0
VERTEX
8
OBJECT__47
10
0
20
0
30
0
70
128
71
14
72
22
73
12
0
VERTEX
8
OBJECT__47
10
0
20
0
30
0
70
128
71
23
72
22
73
24
0
VERTEX
8
OBJECT__47
10
0
20
0
30
0
70
128
71
23
72
25
73
26
0
VERTEX
8
OBJECT__47
10
0
20
0
30
0
70
128
71
16
72
27
73
17
0
VERTEX
8
OBJECT__47
10
0
20
0
30
0
70
128
71
15
72
28
73
29
0
VERTEX
8
OBJECT__47
10
0
20
0
30
0
70
128
71
19
72
30
73
20
0
VERTEX
8
OBJECT__47
10
0
20
0
30
0
70
128
71
31
72
32
73
33
0
VERTEX
8
OBJECT__47
10
0
20
0
30
0
70
128
71
31
72
34
73
35
0
VERTEX
8
OBJECT__47
10
0
20
0
30
0
70
128
71
10
72
5
73
4
0
VERTEX
8
OBJECT__47
10
0
20
0
30
0
70
128
71
12
72
11
73
21
0
VERTEX
8
OBJECT__47
10
0
20
0
30
0
70
128
71
24
72
25
73
23
0
VERTEX
8
OBJECT__47
10
0
20
0
30
0
70
128
71
26
72
36
73
23
0
VERTEX
8
OBJECT__47
10
0
20
0
30
0
70
128
71
36
72
37
73
27
0
VERTEX
8
OBJECT__47
10
0
20
0
30
0
70
128
71
29
72
38
73
15
0
VERTEX
8
OBJECT__47
10
0
20
0
30
0
70
128
71
39
72
38
73
40
0
VERTEX
8
OBJECT__47
10
0
20
0
30
0
70
128
71
20
72
41
73
18
0
VERTEX
8
OBJECT__47
10
0
20
0
30
0
70
128
71
18
72
41
73
42
0
VERTEX
8
OBJECT__47
10
0
20
0
30
0
70
128
71
32
72
42
73
33
0
VERTEX
8
OBJECT__47
10
0
20
0
30
0
70
128
71
35
72
7
73
31
0
VERTEX
8
OBJECT__47
10
0
20
0
30
0
70
128
71
21
72
13
73
12
0
VERTEX
8
OBJECT__47
10
0
20
0
30
0
70
128
71
26
72
37
73
36
0
VERTEX
8
OBJECT__47
10
0
20
0
30
0
70
128
71
17
72
28
73
15
0
VERTEX
8
OBJECT__47
10
0
20
0
30
0
70
128
71
38
72
29
73
40
0
VERTEX
8
OBJECT__47
10
0
20
0
30
0
70
128
71
42
72
32
73
18
0
VERTEX
8
OBJECT__47
10
0
20
0
30
0
70
128
71
35
72
8
73
7
0
VERTEX
8
OBJECT__47
10
0
20
0
30
0
70
128
71
14
72
24
73
22
0
VERTEX
8
OBJECT__47
10
0
20
0
30
0
70
128
71
40
72
43
73
39
0
VERTEX
8
OBJECT__47
10
0
20
0
30
0
70
128
71
33
72
34
73
31
0
VERTEX
8
OBJECT__47
10
0
20
0
30
0
70
128
71
27
72
16
73
36
0
VERTEX
8
OBJECT__47
10
0
20
0
30
0
70
128
71
8
72
2
73
1
0
VERTEX
8
OBJECT__47
10
0
20
0
30
0
70
128
71
19
72
39
73
30
0
VERTEX
8
OBJECT__47
10
0
20
0
30
0
70
128
71
39
72
43
73
30
0
SEQEND
8
OBJECT__47
0
POLYLINE
8
OBJECT__48
66
1
70
64
71
68
72
68
62
253
0
VERTEX
8
OBJECT__48
10
48.000000
20
16.400000
30
-18.500000
70
192
0
VERTEX
8
OBJECT__48
10
48.000000
20
16.200001
30
-18.299999
70
192
0
VERTEX
8
OBJECT__48
10
43.620998
20
16.200001
30
-17.768000
70
192
0
VERTEX
8
OBJECT__48
10
39.495998
20
16.200001
30
-16.204000
70
192
0
VERTEX
8
OBJECT__48
10
39.403000
20
16.400000
30
-16.381001
70
192
0
VERTEX
8
OBJECT__48
10
41.720001
20
16.400000
30
-17.260000
70
192
0
VERTEX
8
OBJECT__48
10
35.865002
20
16.200001
30
-13.698000
70
192
0
VERTEX
8
OBJECT__48
10
36.139000
20
16.400000
30
-14.128000
70
192
0
VERTEX
8
OBJECT__48
10
35.731998
20
16.400000
30
-13.847000
70
192
0
VERTEX
8
OBJECT__48
10
32.775002
20
16.400000
30
-10.509000
70
192
0
VERTEX
8
OBJECT__48
10
30.889000
20
16.200001
30
-6.489000
70
192
0
VERTEX
8
OBJECT__48
10
30.702000
20
16.400000
30
-6.560000
70
192
0
VERTEX
8
OBJECT__48
10
32.084999
20
16.400000
30
-9.194000
70
192
0
VERTEX
8
OBJECT__48
10
32.938999
20
16.200001
30
-10.396000
70
192
0
VERTEX
8
OBJECT__48
10
29.833000
20
16.200001
30
-2.206000
70
192
0
VERTEX
8
OBJECT__48
10
29.872000
20
16.400000
30
-3.190000
70
192
0
VERTEX
8
OBJECT__48
10
29.635000
20
16.400000
30
-2.230000
70
192
0
VERTEX
8
OBJECT__48
10
29.635000
20
16.400000
30
2.230000
70
192
0
VERTEX
8
OBJECT__48
10
30.889000
20
16.200001
30
6.489000
70
192
0
VERTEX
8
OBJECT__48
10
30.702000
20
16.400000
30
6.560000
70
192
0
VERTEX
8
OBJECT__48
10
29.872000
20
16.400000
30
3.190000
70
192
0
VERTEX
8
OBJECT__48
10
29.833000
20
16.200001
30
2.206000
70
192
0
VERTEX
8
OBJECT__48
10
32.938999
20
16.200001
30
10.396000
70
192
0
VERTEX
8
OBJECT__48
10
32.084999
20
16.400000
30
9.194000
70
192
0
VERTEX
8
OBJECT__48
10
32.775002
20
16.400000
30
10.509000
70
192
0
VERTEX
8
OBJECT__48
10
35.865002
20
16.200001
30
13.698000
70
192
0
VERTEX
8
OBJECT__48
10
39.495998
20
16.200001
30
16.204000
70
192
0
VERTEX
8
OBJECT__48
10
39.403000
20
16.400000
30
16.381001
70
192
0
VERTEX
8
OBJECT__48
10
36.139000
20
16.400000
30
14.128000
70
192
0
VERTEX
8
OBJECT__48
10
43.620998
20
16.200001
30
17.768000
70
192
0
VERTEX
8
OBJECT__48
10
41.720001
20
16.400000
30
17.260000
70
192
0
VERTEX
8
OBJECT__48
10
43.573002
20
16.400000
30
17.962000
70
192
0
VERTEX
8
OBJECT__48
10
48.000000
20
16.400000
30
18.500000
70
192
0
VERTEX
8
OBJECT__48
10
48.000000
20
16.200001
30
18.299999
70
192
0
VERTEX
8
OBJECT__48
10
52.379002
20
16.200001
30
17.768000
70
192
0
VERTEX
8
OBJECT__48
10
56.504002
20
16.200001
30
16.204000
70
192
0
VERTEX
8
OBJECT__48
10
56.597000
20
16.400000
30
16.381001
70
192
0
VERTEX
8
OBJECT__48
10
54.279999
20
16.400000
30
17.260000
70
192
0
VERTEX
8
OBJECT__48
10
60.134998
20
16.200001
30
13.698000
70
192
0
VERTEX
8
OBJECT__48
10
59.861000
20
16.400000
30
14.128000
70
192
0
VERTEX
8
OBJECT__48
10
60.268002
20
16.400000
30
13.847000
70
192
0
VERTEX
8
OBJECT__48
10
63.224998
20
16.400000
30
10.509000
70
192
0
VERTEX
8
OBJECT__48
10
65.111000
20
16.200001
30
6.489000
70
192
0
VERTEX
8
OBJECT__48
10
65.297997
20
16.400000
30
6.560000
70
192
0
VERTEX
8
OBJECT__48
10
63.915001
20
16.400000
30
9.194000
70
192
0
VERTEX
8
OBJECT__48
10
63.061001
20
16.200001
30
10.396000
70
192
0
VERTEX
8
OBJECT__48
10
66.167000
20
16.200001
30
2.206000
70
192
0
VERTEX
8
OBJECT__48
10
66.127998
20
16.400000
30
3.190000
70
192
0
VERTEX
8
OBJECT__48
10
66.364998
20
16.400000
30
2.230000
70
192
0
VERTEX
8
OBJECT__48
10
66.364998
20
16.400000
30
-2.230000
70
192
0
VERTEX
8
OBJECT__48
10
65.111000
20
16.200001
30
-6.489000
70
192
0
VERTEX
8
OBJECT__48
10
65.297997
20
16.400000
30
-6.560000
70
192
0
VERTEX
8
OBJECT__48
10
66.127998
20
16.400000
30
-3.190000
70
192
0
VERTEX
8
OBJECT__48
10
66.167000
20
16.200001
30
-2.206000
70
192
0
VERTEX
8
OBJECT__48
10
63.061001
20
16.200001
30
-10.396000
70
192
0
VERTEX
8
OBJECT__48
10
63.915001
20
16.400000
30
-9.194000
70
192
0
VERTEX
8
OBJECT__48
10
63.224998
20
16.400000
30
-10.509000
70
192
0
VERTEX
8
OBJECT__48
10
60.134998
20
16.200001
30
-13.698000
70
192
0
VERTEX
8
OBJECT__48
10
56.504002
20
16.200001
30
-16.204000
70
192
0
VERTEX
8
OBJECT__48
10
56.597000
20
16.400000
30
-16.381001
70
192
0
VERTEX
8
OBJECT__48
10
59.861000
20
16.400000
30
-14.128000
70
192
0
VERTEX
8
OBJECT__48
10
52.379002
20
16.200001
30
-17.768000
70
192
0
VERTEX
8
OBJECT__48
10
54.279999
20
16.400000
30
-17.260000
70
192
0
VERTEX
8
OBJECT__48
10
52.426998
20
16.400000
30
-17.962000
70
192
0
VERTEX
8
OBJECT__48
10
60.268002
20
16.400000
30
-13.847000
70
192
0
VERTEX
8
OBJECT__48
10
52.426998
20
16.400000
30
17.962000
70
192
0
VERTEX
8
OBJECT__48
10
35.731998
20
16.400000
30
13.847000
70
192
0
VERTEX
8
OBJECT__48
10
43.573002
20
16.400000
30
-17.962000
70
192
0
VERTEX
8
OBJECT__48
10
0
20
0
30
0
70
128
71
1
72
2
73
3
0
VERTEX
8
OBJECT__48
10
0
20
0
30
0
70
128
71
4
72
5
73
6
0
VERTEX
8
OBJECT__48
10
0
20
0
30
0
70
128
71
6
72
3
73
4
0
VERTEX
8
OBJECT__48
10
0
20
0
30
0
70
128
71
4
72
7
73
8
0
VERTEX
8
OBJECT__48
10
0
20
0
30
0
70
128
71
7
72
9
73
8
0
VERTEX
8
OBJECT__48
10
0
20
0
30
0
70
128
71
10
72
9
73
7
0
VERTEX
8
OBJECT__48
10
0
20
0
30
0
70
128
71
11
72
12
73
13
0
VERTEX
8
OBJECT__48
10
0
20
0
30
0
70
128
71
13
72
14
73
11
0
VERTEX
8
OBJECT__48
10
0
20
0
30
0
70
128
71
11
72
15
73
16
0
VERTEX
8
OBJECT__48
10
0
20
0
30
0
70
128
71
15
72
17
73
16
0
VERTEX
8
OBJECT__48
10
0
20
0
30
0
70
128
71
18
72
17
73
15
0
VERTEX
8
OBJECT__48
10
0
20
0
30
0
70
128
71
19
72
20
73
21
0
VERTEX
8
OBJECT__48
10
0
20
0
30
0
70
128
71
21
72
22
73
19
0
VERTEX
8
OBJECT__48
10
0
20
0
30
0
70
128
71
19
72
23
73
24
0
VERTEX
8
OBJECT__48
10
0
20
0
30
0
70
128
71
23
72
25
73
24
0
VERTEX
8
OBJECT__48
10
0
20
0
30
0
70
128
71
25
72
23
73
26
0
VERTEX
8
OBJECT__48
10
0
20
0
30
0
70
128
71
27
72
28
73
29
0
VERTEX
8
OBJECT__48
10
0
20
0
30
0
70
128
71
29
72
26
73
27
0
VERTEX
8
OBJECT__48
10
0
20
0
30
0
70
128
71
27
72
30
73
31
0
VERTEX
8
OBJECT__48
10
0
20
0
30
0
70
128
71
30
72
32
73
31
0
VERTEX
8
OBJECT__48
10
0
20
0
30
0
70
128
71
33
72
32
73
30
0
VERTEX
8
OBJECT__48
10
0
20
0
30
0
70
128
71
33
72
34
73
35
0
VERTEX
8
OBJECT__48
10
0
20
0
30
0
70
128
71
36
72
37
73
38
0
VERTEX
8
OBJECT__48
10
0
20
0
30
0
70
128
71
38
72
35
73
36
0
VERTEX
8
OBJECT__48
10
0
20
0
30
0
70
128
71
36
72
39
73
40
0
VERTEX
8
OBJECT__48
10
0
20
0
30
0
70
128
71
39
72
41
73
40
0
VERTEX
8
OBJECT__48
10
0
20
0
30
0
70
128
71
42
72
41
73
39
0
VERTEX
8
OBJECT__48
10
0
20
0
30
0
70
128
71
43
72
44
73
45
0
VERTEX
8
OBJECT__48
10
0
20
0
30
0
70
128
71
45
72
46
73
43
0
VERTEX
8
OBJECT__48
10
0
20
0
30
0
70
128
71
43
72
47
73
48
0
VERTEX
8
OBJECT__48
10
0
20
0
30
0
70
128
71
47
72
49
73
48
0
VERTEX
8
OBJECT__48
10
0
20
0
30
0
70
128
71
50
72
49
73
47
0
VERTEX
8
OBJECT__48
10
0
20
0
30
0
70
128
71
51
72
52
73
53
0
VERTEX
8
OBJECT__48
10
0
20
0
30
0
70
128
71
53
72
54
73
51
0
VERTEX
8
OBJECT__48
10
0
20
0
30
0
70
128
71
51
72
55
73
56
0
VERTEX
8
OBJECT__48
10
0
20
0
30
0
70
128
71
55
72
57
73
56
0
VERTEX
8
OBJECT__48
10
0
20
0
30
0
70
128
71
57
72
55
73
58
0
VERTEX
8
OBJECT__48
10
0
20
0
30
0
70
128
71
59
72
60
73
61
0
VERTEX
8
OBJECT__48
10
0
20
0
30
0
70
128
71
61
72
58
73
59
0
VERTEX
8
OBJECT__48
10
0
20
0
30
0
70
128
71
59
72
62
73
63
0
VERTEX
8
OBJECT__48
10
0
20
0
30
0
70
128
71
62
72
64
73
63
0
VERTEX
8
OBJECT__48
10
0
20
0
30
0
70
128
71
64
72
62
73
2
0
VERTEX
8
OBJECT__48
10
0
20
0
30
0
70
128
71
2
72
1
73
64
0
VERTEX
8
OBJECT__48
10
0
20
0
30
0
70
128
71
63
72
60
73
59
0
VERTEX
8
OBJECT__48
10
0
20
0
30
0
70
128
71
61
72
65
73
58
0
VERTEX
8
OBJECT__48
10
0
20
0
30
0
70
128
71
58
72
65
73
57
0
VERTEX
8
OBJECT__48
10
0
20
0
30
0
70
128
71
56
72
52
73
51
0
VERTEX
8
OBJECT__48
10
0
20
0
30
0
70
128
71
53
72
50
73
54
0
VERTEX
8
OBJECT__48
10
0
20
0
30
0
70
128
71
47
72
54
73
50
0
VERTEX
8
OBJECT__48
10
0
20
0
30
0
70
128
71
48
72
44
73
43
0
VERTEX
8
OBJECT__48
10
0
20
0
30
0
70
128
71
45
72
42
73
46
0
VERTEX
8
OBJECT__48
10
0
20
0
30
0
70
128
71
39
72
46
73
42
0
VERTEX
8
OBJECT__48
10
0
20
0
30
0
70
128
71
40
72
37
73
36
0
VERTEX
8
OBJECT__48
10
0
20
0
30
0
70
128
71
38
72
66
73
35
0
VERTEX
8
OBJECT__48
10
0
20
0
30
0
70
128
71
35
72
66
73
33
0
VERTEX
8
OBJECT__48
10
0
20
0
30
0
70
128
71
30
72
34
73
33
0
VERTEX
8
OBJECT__48
10
0
20
0
30
0
70
128
71
31
72
28
73
27
0
VERTEX
8
OBJECT__48
10
0
20
0
30
0
70
128
71
29
72
67
73
26
0
VERTEX
8
OBJECT__48
10
0
20
0
30
0
70
128
71
26
72
67
73
25
0
VERTEX
8
OBJECT__48
10
0
20
0
30
0
70
128
71
24
72
20
73
19
0
VERTEX
8
OBJECT__48
10
0
20
0
30
0
70
128
71
21
72
18
73
22
0
VERTEX
8
OBJECT__48
10
0
20
0
30
0
70
128
71
15
72
22
73
18
0
VERTEX
8
OBJECT__48
10
0
20
0
30
0
70
128
71
16
72
12
73
11
0
VERTEX
8
OBJECT__48
10
0
20
0
30
0
70
128
71
13
72
10
73
14
0
VERTEX
8
OBJECT__48
10
0
20
0
30
0
70
128
71
7
72
14
73
10
0
VERTEX
8
OBJECT__48
10
0
20
0
30
0
70
128
71
8
72
5
73
4
0
VERTEX
8
OBJECT__48
10
0
20
0
30
0
70
128
71
6
72
68
73
3
0
VERTEX
8
OBJECT__48
10
0
20
0
30
0
70
128
71
3
72
68
73
1
0
SEQEND
8
OBJECT__48
0
ENDSEC
0
EOF
