999
Converted by 3D Exploration 
999
XDimension Software, LLC
999
http://www.xdsoft.com/explorer/
0
SECTION
2
HEADER
9
$ACADVER
1
AC1008
9
$UCSORG
10
0.0
20
0.0
30
0.0
9
$UCSXDIR
10
1.0
20
0.0
30
0.0
9
$TILEMODE
70
1
9
$UCSYDIR
10
0.0
20
1.0
30
0.0
9
$EXTMIN
10
0.000000
20
-135.000000
30
-135.000000
9
$EXTMAX
10
226.675003
20
135.000000
30
35.000000
0
ENDSEC
0
SECTION
2
TABLES
0
TABLE
2
LTYPE
70
1
0
LTYPE
2
CONTINUOUS
70
64
3
Solid line
72
65
73
0
40
0.0
0
ENDTAB
0
TABLE
2
LAYER
70
79
0
LAYER
2
OBJECT__0
70
0
62
253
6
CONTINUOUS
0
LAYER
2
OBJECT__1
70
0
62
253
6
CONTINUOUS
0
LAYER
2
OBJECT__3
70
0
62
253
6
CONTINUOUS
0
LAYER
2
OBJECT__4
70
0
62
253
6
CONTINUOUS
0
LAYER
2
OBJECT__5
70
0
62
253
6
CONTINUOUS
0
LAYER
2
OBJECT__7
70
0
62
253
6
CONTINUOUS
0
LAYER
2
OBJECT__8
70
0
62
253
6
CONTINUOUS
0
LAYER
2
OBJECT__10
70
0
62
253
6
CONTINUOUS
0
LAYER
2
OBJECT__12
70
0
62
253
6
CONTINUOUS
0
LAYER
2
OBJECT__13
70
0
62
253
6
CONTINUOUS
0
LAYER
2
OBJECT__15
70
0
62
253
6
CONTINUOUS
0
LAYER
2
OBJECT__16
70
0
62
253
6
CONTINUOUS
0
LAYER
2
OBJECT__17
70
0
62
253
6
CONTINUOUS
0
LAYER
2
OBJECT__18
70
0
62
253
6
CONTINUOUS
0
LAYER
2
OBJECT__19
70
0
62
253
6
CONTINUOUS
0
LAYER
2
OBJECT__20
70
0
62
253
6
CONTINUOUS
0
LAYER
2
OBJECT__21
70
0
62
253
6
CONTINUOUS
0
LAYER
2
OBJECT__22
70
0
62
253
6
CONTINUOUS
0
LAYER
2
OBJECT__23
70
0
62
253
6
CONTINUOUS
0
LAYER
2
OBJECT__24
70
0
62
253
6
CONTINUOUS
0
LAYER
2
OBJECT__25
70
0
62
253
6
CONTINUOUS
0
LAYER
2
OBJECT__26
70
0
62
253
6
CONTINUOUS
0
LAYER
2
OBJECT__27
70
0
62
253
6
CONTINUOUS
0
LAYER
2
OBJECT__28
70
0
62
253
6
CONTINUOUS
0
LAYER
2
OBJECT__29
70
0
62
253
6
CONTINUOUS
0
LAYER
2
OBJECT__30
70
0
62
253
6
CONTINUOUS
0
LAYER
2
OBJECT__31
70
0
62
253
6
CONTINUOUS
0
LAYER
2
OBJECT__33
70
0
62
253
6
CONTINUOUS
0
LAYER
2
OBJECT__34
70
0
62
253
6
CONTINUOUS
0
LAYER
2
OBJECT__36
70
0
62
253
6
CONTINUOUS
0
LAYER
2
OBJECT__37
70
0
62
253
6
CONTINUOUS
0
LAYER
2
OBJECT__38
70
0
62
253
6
CONTINUOUS
0
LAYER
2
OBJECT__39
70
0
62
253
6
CONTINUOUS
0
LAYER
2
OBJECT__40
70
0
62
253
6
CONTINUOUS
0
LAYER
2
OBJECT__41
70
0
62
253
6
CONTINUOUS
0
LAYER
2
OBJECT__42
70
0
62
253
6
CONTINUOUS
0
LAYER
2
OBJECT__43
70
0
62
253
6
CONTINUOUS
0
LAYER
2
OBJECT__44
70
0
62
253
6
CONTINUOUS
0
LAYER
2
OBJECT__45
70
0
62
253
6
CONTINUOUS
0
LAYER
2
OBJECT__46
70
0
62
253
6
CONTINUOUS
0
LAYER
2
OBJECT__47
70
0
62
253
6
CONTINUOUS
0
LAYER
2
OBJECT__48
70
0
62
253
6
CONTINUOUS
0
LAYER
2
OBJECT__49
70
0
62
253
6
CONTINUOUS
0
LAYER
2
OBJECT__50
70
0
62
253
6
CONTINUOUS
0
LAYER
2
OBJECT__51
70
0
62
253
6
CONTINUOUS
0
LAYER
2
OBJECT__52
70
0
62
253
6
CONTINUOUS
0
LAYER
2
OBJECT__54
70
0
62
253
6
CONTINUOUS
0
LAYER
2
OBJECT__55
70
0
62
253
6
CONTINUOUS
0
LAYER
2
OBJECT__56
70
0
62
253
6
CONTINUOUS
0
LAYER
2
OBJECT__57
70
0
62
253
6
CONTINUOUS
0
LAYER
2
OBJECT__58
70
0
62
253
6
CONTINUOUS
0
LAYER
2
OBJECT__59
70
0
62
253
6
CONTINUOUS
0
LAYER
2
OBJECT__61
70
0
62
253
6
CONTINUOUS
0
LAYER
2
OBJECT__62
70
0
62
253
6
CONTINUOUS
0
LAYER
2
OBJECT__64
70
0
62
253
6
CONTINUOUS
0
LAYER
2
OBJECT__65
70
0
62
253
6
CONTINUOUS
0
LAYER
2
OBJECT__67
70
0
62
253
6
CONTINUOUS
0
LAYER
2
OBJECT__68
70
0
62
253
6
CONTINUOUS
0
LAYER
2
OBJECT__70
70
0
62
253
6
CONTINUOUS
0
LAYER
2
OBJECT__71
70
0
62
253
6
CONTINUOUS
0
LAYER
2
OBJECT__72
70
0
62
253
6
CONTINUOUS
0
LAYER
2
OBJECT__73
70
0
62
253
6
CONTINUOUS
0
LAYER
2
OBJECT__74
70
0
62
253
6
CONTINUOUS
0
LAYER
2
OBJECT__75
70
0
62
253
6
CONTINUOUS
0
LAYER
2
OBJECT__76
70
0
62
253
6
CONTINUOUS
0
LAYER
2
OBJECT__77
70
0
62
253
6
CONTINUOUS
0
ENDTAB
0
TABLE
2
STYLE
70
1
0
STYLE
2
STANDARD
70
0
40
0.0
41
1.0
50
0.0
71
0
42
0.2
3
txt
4
1
0
ENDTAB
0
TABLE
2
UCS
70
0
0
ENDTAB
0
ENDSEC
0
SECTION
2
ENTITIES
0
POLYLINE
8
OBJECT__0
66
1
70
64
71
46
72
46
62
253
0
VERTEX
8
OBJECT__0
10
12.500000
20
26.200001
30
0.000000
70
192
0
VERTEX
8
OBJECT__0
10
15.100000
20
26.200001
30
0.000000
70
192
0
VERTEX
8
OBJECT__0
10
15.100000
20
24.780001
30
-8.507000
70
192
0
VERTEX
8
OBJECT__0
10
12.500000
20
23.605000
30
-11.368000
70
192
0
VERTEX
8
OBJECT__0
10
12.500000
20
16.334999
30
-20.483999
70
192
0
VERTEX
8
OBJECT__0
10
15.100000
20
20.674999
30
-16.091999
70
192
0
VERTEX
8
OBJECT__0
10
15.100000
20
23.316999
30
-11.212000
70
192
0
VERTEX
8
OBJECT__0
10
12.500000
20
5.830000
30
-25.542999
70
192
0
VERTEX
8
OBJECT__0
10
15.100000
20
14.330000
30
-21.934000
70
192
0
VERTEX
8
OBJECT__0
10
15.100000
20
16.138000
30
-20.268999
70
192
0
VERTEX
8
OBJECT__0
10
15.100000
20
6.432000
30
-25.398001
70
192
0
VERTEX
8
OBJECT__0
10
15.100000
20
5.822000
30
-25.448999
70
192
0
VERTEX
8
OBJECT__0
10
15.100000
20
-2.164000
30
-26.111000
70
192
0
VERTEX
8
OBJECT__0
10
12.500000
20
-5.830000
30
-25.542999
70
192
0
VERTEX
8
OBJECT__0
10
12.500000
20
-16.334999
30
-20.483999
70
192
0
VERTEX
8
OBJECT__0
10
15.100000
20
-10.524000
30
-23.993000
70
192
0
VERTEX
8
OBJECT__0
10
15.100000
20
-5.744000
30
-25.204000
70
192
0
VERTEX
8
OBJECT__0
10
12.500000
20
-23.605000
30
-11.368000
70
192
0
VERTEX
8
OBJECT__0
10
15.100000
20
-17.745001
30
-19.275999
70
192
0
VERTEX
8
OBJECT__0
10
15.100000
20
-23.042000
30
-12.470000
70
192
0
VERTEX
8
OBJECT__0
10
15.100000
20
-16.204000
30
-20.283001
70
192
0
VERTEX
8
OBJECT__0
10
15.100000
20
-23.440001
30
-11.311000
70
192
0
VERTEX
8
OBJECT__0
10
15.100000
20
-25.843000
30
-4.312000
70
192
0
VERTEX
8
OBJECT__0
10
12.500000
20
-26.200001
30
0.000000
70
192
0
VERTEX
8
OBJECT__0
10
12.500000
20
-23.605000
30
11.368000
70
192
0
VERTEX
8
OBJECT__0
10
15.100000
20
-25.843000
30
4.312000
70
192
0
VERTEX
8
OBJECT__0
10
15.100000
20
-25.843000
30
0.000000
70
192
0
VERTEX
8
OBJECT__0
10
15.100000
20
-23.042000
30
12.470000
70
192
0
VERTEX
8
OBJECT__0
10
15.100000
20
-17.745001
30
19.275999
70
192
0
VERTEX
8
OBJECT__0
10
12.500000
20
-16.334999
30
20.483999
70
192
0
VERTEX
8
OBJECT__0
10
15.100000
20
-23.440001
30
11.311000
70
192
0
VERTEX
8
OBJECT__0
10
15.100000
20
-16.204000
30
20.283001
70
192
0
VERTEX
8
OBJECT__0
10
15.100000
20
-10.524000
30
23.993000
70
192
0
VERTEX
8
OBJECT__0
10
12.500000
20
-5.830000
30
25.542999
70
192
0
VERTEX
8
OBJECT__0
10
12.500000
20
5.830000
30
25.542999
70
192
0
VERTEX
8
OBJECT__0
10
15.100000
20
-2.164000
30
26.111000
70
192
0
VERTEX
8
OBJECT__0
10
15.100000
20
-5.744000
30
25.204000
70
192
0
VERTEX
8
OBJECT__0
10
15.100000
20
6.432000
30
25.398001
70
192
0
VERTEX
8
OBJECT__0
10
15.100000
20
14.330000
30
21.934000
70
192
0
VERTEX
8
OBJECT__0
10
12.500000
20
16.334999
30
20.483999
70
192
0
VERTEX
8
OBJECT__0
10
15.100000
20
5.822000
30
25.448999
70
192
0
VERTEX
8
OBJECT__0
10
15.100000
20
16.138000
30
20.268999
70
192
0
VERTEX
8
OBJECT__0
10
15.100000
20
20.674999
30
16.091999
70
192
0
VERTEX
8
OBJECT__0
10
12.500000
20
23.605000
30
11.368000
70
192
0
VERTEX
8
OBJECT__0
10
15.100000
20
24.780001
30
8.507000
70
192
0
VERTEX
8
OBJECT__0
10
15.100000
20
23.316999
30
11.212000
70
192
0
VERTEX
8
OBJECT__0
10
0
20
0
30
0
70
128
71
1
72
2
73
3
0
VERTEX
8
OBJECT__0
10
0
20
0
30
0
70
128
71
3
72
4
73
1
0
VERTEX
8
OBJECT__0
10
0
20
0
30
0
70
128
71
5
72
4
73
6
0
VERTEX
8
OBJECT__0
10
0
20
0
30
0
70
128
71
4
72
7
73
6
0
VERTEX
8
OBJECT__0
10
0
20
0
30
0
70
128
71
8
72
5
73
9
0
VERTEX
8
OBJECT__0
10
0
20
0
30
0
70
128
71
5
72
10
73
9
0
VERTEX
8
OBJECT__0
10
0
20
0
30
0
70
128
71
9
72
11
73
8
0
VERTEX
8
OBJECT__0
10
0
20
0
30
0
70
128
71
8
72
12
73
13
0
VERTEX
8
OBJECT__0
10
0
20
0
30
0
70
128
71
13
72
14
73
8
0
VERTEX
8
OBJECT__0
10
0
20
0
30
0
70
128
71
15
72
14
73
16
0
VERTEX
8
OBJECT__0
10
0
20
0
30
0
70
128
71
14
72
17
73
16
0
VERTEX
8
OBJECT__0
10
0
20
0
30
0
70
128
71
18
72
15
73
19
0
VERTEX
8
OBJECT__0
10
0
20
0
30
0
70
128
71
19
72
20
73
18
0
VERTEX
8
OBJECT__0
10
0
20
0
30
0
70
128
71
15
72
21
73
19
0
VERTEX
8
OBJECT__0
10
0
20
0
30
0
70
128
71
18
72
22
73
23
0
VERTEX
8
OBJECT__0
10
0
20
0
30
0
70
128
71
23
72
24
73
18
0
VERTEX
8
OBJECT__0
10
0
20
0
30
0
70
128
71
25
72
24
73
26
0
VERTEX
8
OBJECT__0
10
0
20
0
30
0
70
128
71
24
72
27
73
26
0
VERTEX
8
OBJECT__0
10
0
20
0
30
0
70
128
71
25
72
28
73
29
0
VERTEX
8
OBJECT__0
10
0
20
0
30
0
70
128
71
29
72
30
73
25
0
VERTEX
8
OBJECT__0
10
0
20
0
30
0
70
128
71
25
72
31
73
28
0
VERTEX
8
OBJECT__0
10
0
20
0
30
0
70
128
71
30
72
32
73
33
0
VERTEX
8
OBJECT__0
10
0
20
0
30
0
70
128
71
33
72
34
73
30
0
VERTEX
8
OBJECT__0
10
0
20
0
30
0
70
128
71
35
72
34
73
36
0
VERTEX
8
OBJECT__0
10
0
20
0
30
0
70
128
71
34
72
37
73
36
0
VERTEX
8
OBJECT__0
10
0
20
0
30
0
70
128
71
35
72
38
73
39
0
VERTEX
8
OBJECT__0
10
0
20
0
30
0
70
128
71
39
72
40
73
35
0
VERTEX
8
OBJECT__0
10
0
20
0
30
0
70
128
71
35
72
41
73
38
0
VERTEX
8
OBJECT__0
10
0
20
0
30
0
70
128
71
40
72
42
73
43
0
VERTEX
8
OBJECT__0
10
0
20
0
30
0
70
128
71
43
72
44
73
40
0
VERTEX
8
OBJECT__0
10
0
20
0
30
0
70
128
71
1
72
44
73
45
0
VERTEX
8
OBJECT__0
10
0
20
0
30
0
70
128
71
44
72
46
73
45
0
VERTEX
8
OBJECT__0
10
0
20
0
30
0
70
128
71
45
72
2
73
1
0
VERTEX
8
OBJECT__0
10
0
20
0
30
0
70
128
71
43
72
46
73
44
0
VERTEX
8
OBJECT__0
10
0
20
0
30
0
70
128
71
39
72
42
73
40
0
VERTEX
8
OBJECT__0
10
0
20
0
30
0
70
128
71
36
72
41
73
35
0
VERTEX
8
OBJECT__0
10
0
20
0
30
0
70
128
71
33
72
37
73
34
0
VERTEX
8
OBJECT__0
10
0
20
0
30
0
70
128
71
29
72
32
73
30
0
VERTEX
8
OBJECT__0
10
0
20
0
30
0
70
128
71
26
72
31
73
25
0
VERTEX
8
OBJECT__0
10
0
20
0
30
0
70
128
71
23
72
27
73
24
0
VERTEX
8
OBJECT__0
10
0
20
0
30
0
70
128
71
20
72
22
73
18
0
VERTEX
8
OBJECT__0
10
0
20
0
30
0
70
128
71
16
72
21
73
15
0
VERTEX
8
OBJECT__0
10
0
20
0
30
0
70
128
71
13
72
17
73
14
0
VERTEX
8
OBJECT__0
10
0
20
0
30
0
70
128
71
11
72
12
73
8
0
VERTEX
8
OBJECT__0
10
0
20
0
30
0
70
128
71
6
72
10
73
5
0
VERTEX
8
OBJECT__0
10
0
20
0
30
0
70
128
71
3
72
7
73
4
0
SEQEND
8
OBJECT__0
0
POLYLINE
8
OBJECT__1
66
1
70
64
71
51
72
51
62
253
0
VERTEX
8
OBJECT__1
10
15.100000
20
26.200001
30
0.000000
70
192
0
VERTEX
8
OBJECT__1
10
15.400000
20
25.900000
30
0.000000
70
192
0
VERTEX
8
OBJECT__1
10
15.400000
20
24.497000
30
-8.410000
70
192
0
VERTEX
8
OBJECT__1
10
15.400000
20
20.438999
30
-15.908000
70
192
0
VERTEX
8
OBJECT__1
10
15.100000
20
20.674999
30
-16.091999
70
192
0
VERTEX
8
OBJECT__1
10
15.100000
20
23.316999
30
-11.212000
70
192
0
VERTEX
8
OBJECT__1
10
15.400000
20
14.166000
30
-21.683001
70
192
0
VERTEX
8
OBJECT__1
10
15.100000
20
16.138000
30
-20.268999
70
192
0
VERTEX
8
OBJECT__1
10
15.100000
20
14.330000
30
-21.934000
70
192
0
VERTEX
8
OBJECT__1
10
15.100000
20
6.432000
30
-25.398001
70
192
0
VERTEX
8
OBJECT__1
10
15.400000
20
-2.139000
30
-25.812000
70
192
0
VERTEX
8
OBJECT__1
10
15.100000
20
-2.164000
30
-26.111000
70
192
0
VERTEX
8
OBJECT__1
10
15.100000
20
5.822000
30
-25.448999
70
192
0
VERTEX
8
OBJECT__1
10
15.400000
20
6.358000
30
-25.107000
70
192
0
VERTEX
8
OBJECT__1
10
15.400000
20
-10.404000
30
-23.719000
70
192
0
VERTEX
8
OBJECT__1
10
15.100000
20
-10.524000
30
-23.993000
70
192
0
VERTEX
8
OBJECT__1
10
15.100000
20
-5.744000
30
-25.204000
70
192
0
VERTEX
8
OBJECT__1
10
15.400000
20
-17.542000
30
-19.055000
70
192
0
VERTEX
8
OBJECT__1
10
15.100000
20
-16.204000
30
-20.283001
70
192
0
VERTEX
8
OBJECT__1
10
15.100000
20
-17.745001
30
-19.275999
70
192
0
VERTEX
8
OBJECT__1
10
15.100000
20
-23.042000
30
-12.470000
70
192
0
VERTEX
8
OBJECT__1
10
15.400000
20
-25.547001
30
-4.263000
70
192
0
VERTEX
8
OBJECT__1
10
15.100000
20
-25.843000
30
-4.312000
70
192
0
VERTEX
8
OBJECT__1
10
15.100000
20
-23.440001
30
-11.311000
70
192
0
VERTEX
8
OBJECT__1
10
15.400000
20
-22.778000
30
-12.327000
70
192
0
VERTEX
8
OBJECT__1
10
15.400000
20
-25.547001
30
4.263000
70
192
0
VERTEX
8
OBJECT__1
10
15.100000
20
-25.843000
30
4.312000
70
192
0
VERTEX
8
OBJECT__1
10
15.100000
20
-25.843000
30
0.000000
70
192
0
VERTEX
8
OBJECT__1
10
15.400000
20
-22.778000
30
12.327000
70
192
0
VERTEX
8
OBJECT__1
10
15.100000
20
-23.440001
30
11.311000
70
192
0
VERTEX
8
OBJECT__1
10
15.100000
20
-23.042000
30
12.470000
70
192
0
VERTEX
8
OBJECT__1
10
15.100000
20
-17.745001
30
19.275999
70
192
0
VERTEX
8
OBJECT__1
10
15.400000
20
-10.404000
30
23.719000
70
192
0
VERTEX
8
OBJECT__1
10
15.100000
20
-10.524000
30
23.993000
70
192
0
VERTEX
8
OBJECT__1
10
15.100000
20
-16.204000
30
20.283001
70
192
0
VERTEX
8
OBJECT__1
10
15.400000
20
-17.542000
30
19.055000
70
192
0
VERTEX
8
OBJECT__1
10
15.400000
20
-2.139000
30
25.812000
70
192
0
VERTEX
8
OBJECT__1
10
15.100000
20
-5.744000
30
25.204000
70
192
0
VERTEX
8
OBJECT__1
10
15.100000
20
-2.164000
30
26.111000
70
192
0
VERTEX
8
OBJECT__1
10
15.400000
20
6.358000
30
25.107000
70
192
0
VERTEX
8
OBJECT__1
10
15.100000
20
5.822000
30
25.448999
70
192
0
VERTEX
8
OBJECT__1
10
15.100000
20
6.432000
30
25.398001
70
192
0
VERTEX
8
OBJECT__1
10
15.100000
20
14.330000
30
21.934000
70
192
0
VERTEX
8
OBJECT__1
10
15.400000
20
20.438999
30
15.908000
70
192
0
VERTEX
8
OBJECT__1
10
15.100000
20
20.674999
30
16.091999
70
192
0
VERTEX
8
OBJECT__1
10
15.100000
20
16.138000
30
20.268999
70
192
0
VERTEX
8
OBJECT__1
10
15.400000
20
14.166000
30
21.683001
70
192
0
VERTEX
8
OBJECT__1
10
15.400000
20
24.497000
30
8.410000
70
192
0
VERTEX
8
OBJECT__1
10
15.100000
20
23.316999
30
11.212000
70
192
0
VERTEX
8
OBJECT__1
10
15.100000
20
24.780001
30
8.507000
70
192
0
VERTEX
8
OBJECT__1
10
15.100000
20
24.780001
30
-8.507000
70
192
0
VERTEX
8
OBJECT__1
10
0
20
0
30
0
70
128
71
1
72
2
73
3
0
VERTEX
8
OBJECT__1
10
0
20
0
30
0
70
128
71
4
72
5
73
6
0
VERTEX
8
OBJECT__1
10
0
20
0
30
0
70
128
71
6
72
3
73
4
0
VERTEX
8
OBJECT__1
10
0
20
0
30
0
70
128
71
4
72
7
73
8
0
VERTEX
8
OBJECT__1
10
0
20
0
30
0
70
128
71
7
72
9
73
8
0
VERTEX
8
OBJECT__1
10
0
20
0
30
0
70
128
71
10
72
9
73
7
0
VERTEX
8
OBJECT__1
10
0
20
0
30
0
70
128
71
11
72
12
73
13
0
VERTEX
8
OBJECT__1
10
0
20
0
30
0
70
128
71
13
72
14
73
11
0
VERTEX
8
OBJECT__1
10
0
20
0
30
0
70
128
71
15
72
16
73
17
0
VERTEX
8
OBJECT__1
10
0
20
0
30
0
70
128
71
17
72
11
73
15
0
VERTEX
8
OBJECT__1
10
0
20
0
30
0
70
128
71
15
72
18
73
19
0
VERTEX
8
OBJECT__1
10
0
20
0
30
0
70
128
71
18
72
20
73
19
0
VERTEX
8
OBJECT__1
10
0
20
0
30
0
70
128
71
21
72
20
73
18
0
VERTEX
8
OBJECT__1
10
0
20
0
30
0
70
128
71
22
72
23
73
24
0
VERTEX
8
OBJECT__1
10
0
20
0
30
0
70
128
71
24
72
25
73
22
0
VERTEX
8
OBJECT__1
10
0
20
0
30
0
70
128
71
26
72
27
73
28
0
VERTEX
8
OBJECT__1
10
0
20
0
30
0
70
128
71
28
72
22
73
26
0
VERTEX
8
OBJECT__1
10
0
20
0
30
0
70
128
71
26
72
29
73
30
0
VERTEX
8
OBJECT__1
10
0
20
0
30
0
70
128
71
29
72
31
73
30
0
VERTEX
8
OBJECT__1
10
0
20
0
30
0
70
128
71
32
72
31
73
29
0
VERTEX
8
OBJECT__1
10
0
20
0
30
0
70
128
71
33
72
34
73
35
0
VERTEX
8
OBJECT__1
10
0
20
0
30
0
70
128
71
35
72
36
73
33
0
VERTEX
8
OBJECT__1
10
0
20
0
30
0
70
128
71
33
72
37
73
38
0
VERTEX
8
OBJECT__1
10
0
20
0
30
0
70
128
71
37
72
39
73
38
0
VERTEX
8
OBJECT__1
10
0
20
0
30
0
70
128
71
37
72
40
73
41
0
VERTEX
8
OBJECT__1
10
0
20
0
30
0
70
128
71
40
72
42
73
41
0
VERTEX
8
OBJECT__1
10
0
20
0
30
0
70
128
71
43
72
42
73
40
0
VERTEX
8
OBJECT__1
10
0
20
0
30
0
70
128
71
44
72
45
73
46
0
VERTEX
8
OBJECT__1
10
0
20
0
30
0
70
128
71
46
72
47
73
44
0
VERTEX
8
OBJECT__1
10
0
20
0
30
0
70
128
71
44
72
48
73
49
0
VERTEX
8
OBJECT__1
10
0
20
0
30
0
70
128
71
48
72
50
73
49
0
VERTEX
8
OBJECT__1
10
0
20
0
30
0
70
128
71
50
72
48
73
2
0
VERTEX
8
OBJECT__1
10
0
20
0
30
0
70
128
71
2
72
1
73
50
0
VERTEX
8
OBJECT__1
10
0
20
0
30
0
70
128
71
49
72
45
73
44
0
VERTEX
8
OBJECT__1
10
0
20
0
30
0
70
128
71
46
72
43
73
47
0
VERTEX
8
OBJECT__1
10
0
20
0
30
0
70
128
71
40
72
47
73
43
0
VERTEX
8
OBJECT__1
10
0
20
0
30
0
70
128
71
41
72
39
73
37
0
VERTEX
8
OBJECT__1
10
0
20
0
30
0
70
128
71
38
72
34
73
33
0
VERTEX
8
OBJECT__1
10
0
20
0
30
0
70
128
71
35
72
32
73
36
0
VERTEX
8
OBJECT__1
10
0
20
0
30
0
70
128
71
29
72
36
73
32
0
VERTEX
8
OBJECT__1
10
0
20
0
30
0
70
128
71
30
72
27
73
26
0
VERTEX
8
OBJECT__1
10
0
20
0
30
0
70
128
71
28
72
23
73
22
0
VERTEX
8
OBJECT__1
10
0
20
0
30
0
70
128
71
24
72
21
73
25
0
VERTEX
8
OBJECT__1
10
0
20
0
30
0
70
128
71
18
72
25
73
21
0
VERTEX
8
OBJECT__1
10
0
20
0
30
0
70
128
71
19
72
16
73
15
0
VERTEX
8
OBJECT__1
10
0
20
0
30
0
70
128
71
17
72
12
73
11
0
VERTEX
8
OBJECT__1
10
0
20
0
30
0
70
128
71
13
72
10
73
14
0
VERTEX
8
OBJECT__1
10
0
20
0
30
0
70
128
71
7
72
14
73
10
0
VERTEX
8
OBJECT__1
10
0
20
0
30
0
70
128
71
8
72
5
73
4
0
VERTEX
8
OBJECT__1
10
0
20
0
30
0
70
128
71
6
72
51
73
3
0
VERTEX
8
OBJECT__1
10
0
20
0
30
0
70
128
71
3
72
51
73
1
0
SEQEND
8
OBJECT__1
0
POLYLINE
8
OBJECT__3
66
1
70
64
71
29
72
29
62
253
0
VERTEX
8
OBJECT__3
10
15.400000
20
-17.542000
30
-19.055000
70
192
0
VERTEX
8
OBJECT__3
10
15.400000
20
-6.000000
30
-5.268000
70
192
0
VERTEX
8
OBJECT__3
10
15.400000
20
-9.725000
30
-3.725000
70
192
0
VERTEX
8
OBJECT__3
10
15.400000
20
6.000000
30
-5.268000
70
192
0
VERTEX
8
OBJECT__3
10
15.400000
20
-2.139000
30
-25.812000
70
192
0
VERTEX
8
OBJECT__3
10
15.400000
20
14.166000
30
21.683001
70
192
0
VERTEX
8
OBJECT__3
10
15.400000
20
6.000000
30
5.268000
70
192
0
VERTEX
8
OBJECT__3
10
15.400000
20
9.725000
30
3.725000
70
192
0
VERTEX
8
OBJECT__3
10
15.400000
20
6.358000
30
25.107000
70
192
0
VERTEX
8
OBJECT__3
10
15.400000
20
-2.139000
30
25.812000
70
192
0
VERTEX
8
OBJECT__3
10
15.400000
20
-25.547001
30
4.263000
70
192
0
VERTEX
8
OBJECT__3
10
15.400000
20
-11.268000
30
0.000000
70
192
0
VERTEX
8
OBJECT__3
10
15.400000
20
-9.725000
30
3.725000
70
192
0
VERTEX
8
OBJECT__3
10
15.400000
20
-22.778000
30
-12.327000
70
192
0
VERTEX
8
OBJECT__3
10
15.400000
20
-10.404000
30
-23.719000
70
192
0
VERTEX
8
OBJECT__3
10
15.400000
20
14.166000
30
-21.683001
70
192
0
VERTEX
8
OBJECT__3
10
15.400000
20
20.438999
30
-15.908000
70
192
0
VERTEX
8
OBJECT__3
10
15.400000
20
9.725000
30
-3.725000
70
192
0
VERTEX
8
OBJECT__3
10
15.400000
20
20.438999
30
15.908000
70
192
0
VERTEX
8
OBJECT__3
10
15.400000
20
-6.000000
30
5.268000
70
192
0
VERTEX
8
OBJECT__3
10
15.400000
20
-17.542000
30
19.055000
70
192
0
VERTEX
8
OBJECT__3
10
15.400000
20
-22.778000
30
12.327000
70
192
0
VERTEX
8
OBJECT__3
10
15.400000
20
-25.547001
30
-4.263000
70
192
0
VERTEX
8
OBJECT__3
10
15.400000
20
6.358000
30
-25.107000
70
192
0
VERTEX
8
OBJECT__3
10
15.400000
20
24.497000
30
8.410000
70
192
0
VERTEX
8
OBJECT__3
10
15.400000
20
11.268000
30
0.000000
70
192
0
VERTEX
8
OBJECT__3
10
15.400000
20
-10.404000
30
23.719000
70
192
0
VERTEX
8
OBJECT__3
10
15.400000
20
24.497000
30
-8.410000
70
192
0
VERTEX
8
OBJECT__3
10
15.400000
20
25.900000
30
0.000000
70
192
0
VERTEX
8
OBJECT__3
10
0
20
0
30
0
70
128
71
1
72
2
73
3
0
VERTEX
8
OBJECT__3
10
0
20
0
30
0
70
128
71
4
72
2
73
5
0
VERTEX
8
OBJECT__3
10
0
20
0
30
0
70
128
71
6
72
7
73
8
0
VERTEX
8
OBJECT__3
10
0
20
0
30
0
70
128
71
7
72
9
73
10
0
VERTEX
8
OBJECT__3
10
0
20
0
30
0
70
128
71
11
72
12
73
13
0
VERTEX
8
OBJECT__3
10
0
20
0
30
0
70
128
71
3
72
14
73
1
0
VERTEX
8
OBJECT__3
10
0
20
0
30
0
70
128
71
2
72
15
73
5
0
VERTEX
8
OBJECT__3
10
0
20
0
30
0
70
128
71
16
72
17
73
18
0
VERTEX
8
OBJECT__3
10
0
20
0
30
0
70
128
71
8
72
19
73
6
0
VERTEX
8
OBJECT__3
10
0
20
0
30
0
70
128
71
10
72
20
73
7
0
VERTEX
8
OBJECT__3
10
0
20
0
30
0
70
128
71
21
72
22
73
13
0
VERTEX
8
OBJECT__3
10
0
20
0
30
0
70
128
71
13
72
22
73
11
0
VERTEX
8
OBJECT__3
10
0
20
0
30
0
70
128
71
23
72
14
73
3
0
VERTEX
8
OBJECT__3
10
0
20
0
30
0
70
128
71
5
72
24
73
4
0
VERTEX
8
OBJECT__3
10
0
20
0
30
0
70
128
71
4
72
24
73
16
0
VERTEX
8
OBJECT__3
10
0
20
0
30
0
70
128
71
25
72
8
73
26
0
VERTEX
8
OBJECT__3
10
0
20
0
30
0
70
128
71
10
72
27
73
20
0
VERTEX
8
OBJECT__3
10
0
20
0
30
0
70
128
71
20
72
27
73
21
0
VERTEX
8
OBJECT__3
10
0
20
0
30
0
70
128
71
3
72
12
73
23
0
VERTEX
8
OBJECT__3
10
0
20
0
30
0
70
128
71
18
72
4
73
16
0
VERTEX
8
OBJECT__3
10
0
20
0
30
0
70
128
71
28
72
29
73
26
0
VERTEX
8
OBJECT__3
10
0
20
0
30
0
70
128
71
26
72
29
73
25
0
VERTEX
8
OBJECT__3
10
0
20
0
30
0
70
128
71
13
72
20
73
21
0
VERTEX
8
OBJECT__3
10
0
20
0
30
0
70
128
71
1
72
15
73
2
0
VERTEX
8
OBJECT__3
10
0
20
0
30
0
70
128
71
18
72
17
73
28
0
VERTEX
8
OBJECT__3
10
0
20
0
30
0
70
128
71
6
72
9
73
7
0
VERTEX
8
OBJECT__3
10
0
20
0
30
0
70
128
71
26
72
18
73
28
0
VERTEX
8
OBJECT__3
10
0
20
0
30
0
70
128
71
11
72
23
73
12
0
VERTEX
8
OBJECT__3
10
0
20
0
30
0
70
128
71
25
72
19
73
8
0
SEQEND
8
OBJECT__3
0
POLYLINE
8
OBJECT__4
66
1
70
64
71
24
72
24
62
253
0
VERTEX
8
OBJECT__4
10
56.299999
20
-115.587997
30
9.000000
70
192
0
VERTEX
8
OBJECT__4
10
12.300000
20
-115.587997
30
9.000000
70
192
0
VERTEX
8
OBJECT__4
10
12.300000
20
-118.000000
30
0.000000
70
192
0
VERTEX
8
OBJECT__4
10
56.299999
20
-109.000000
30
15.588000
70
192
0
VERTEX
8
OBJECT__4
10
12.300000
20
-109.000000
30
15.588000
70
192
0
VERTEX
8
OBJECT__4
10
56.299999
20
-100.000000
30
18.000000
70
192
0
VERTEX
8
OBJECT__4
10
12.300000
20
-100.000000
30
18.000000
70
192
0
VERTEX
8
OBJECT__4
10
56.299999
20
-91.000000
30
15.588000
70
192
0
VERTEX
8
OBJECT__4
10
12.300000
20
-91.000000
30
15.588000
70
192
0
VERTEX
8
OBJECT__4
10
56.299999
20
-84.412003
30
9.000000
70
192
0
VERTEX
8
OBJECT__4
10
12.300000
20
-84.412003
30
9.000000
70
192
0
VERTEX
8
OBJECT__4
10
56.299999
20
-82.000000
30
0.000000
70
192
0
VERTEX
8
OBJECT__4
10
12.300000
20
-82.000000
30
0.000000
70
192
0
VERTEX
8
OBJECT__4
10
12.300000
20
-84.412003
30
-9.000000
70
192
0
VERTEX
8
OBJECT__4
10
12.300000
20
-91.000000
30
-15.588000
70
192
0
VERTEX
8
OBJECT__4
10
56.299999
20
-84.412003
30
-9.000000
70
192
0
VERTEX
8
OBJECT__4
10
12.300000
20
-100.000000
30
-18.000000
70
192
0
VERTEX
8
OBJECT__4
10
56.299999
20
-91.000000
30
-15.588000
70
192
0
VERTEX
8
OBJECT__4
10
12.300000
20
-109.000000
30
-15.588000
70
192
0
VERTEX
8
OBJECT__4
10
56.299999
20
-100.000000
30
-18.000000
70
192
0
VERTEX
8
OBJECT__4
10
12.300000
20
-115.587997
30
-9.000000
70
192
0
VERTEX
8
OBJECT__4
10
56.299999
20
-109.000000
30
-15.588000
70
192
0
VERTEX
8
OBJECT__4
10
56.299999
20
-115.587997
30
-9.000000
70
192
0
VERTEX
8
OBJECT__4
10
56.299999
20
-118.000000
30
0.000000
70
192
0
VERTEX
8
OBJECT__4
10
0
20
0
30
0
70
128
71
1
72
2
73
3
0
VERTEX
8
OBJECT__4
10
0
20
0
30
0
70
128
71
4
72
5
73
2
0
VERTEX
8
OBJECT__4
10
0
20
0
30
0
70
128
71
6
72
7
73
5
0
VERTEX
8
OBJECT__4
10
0
20
0
30
0
70
128
71
8
72
9
73
7
0
VERTEX
8
OBJECT__4
10
0
20
0
30
0
70
128
71
10
72
11
73
9
0
VERTEX
8
OBJECT__4
10
0
20
0
30
0
70
128
71
12
72
13
73
11
0
VERTEX
8
OBJECT__4
10
0
20
0
30
0
70
128
71
14
72
13
73
12
0
VERTEX
8
OBJECT__4
10
0
20
0
30
0
70
128
71
15
72
14
73
16
0
VERTEX
8
OBJECT__4
10
0
20
0
30
0
70
128
71
17
72
15
73
18
0
VERTEX
8
OBJECT__4
10
0
20
0
30
0
70
128
71
19
72
17
73
20
0
VERTEX
8
OBJECT__4
10
0
20
0
30
0
70
128
71
21
72
19
73
22
0
VERTEX
8
OBJECT__4
10
0
20
0
30
0
70
128
71
3
72
21
73
23
0
VERTEX
8
OBJECT__4
10
0
20
0
30
0
70
128
71
23
72
24
73
3
0
VERTEX
8
OBJECT__4
10
0
20
0
30
0
70
128
71
22
72
23
73
21
0
VERTEX
8
OBJECT__4
10
0
20
0
30
0
70
128
71
20
72
22
73
19
0
VERTEX
8
OBJECT__4
10
0
20
0
30
0
70
128
71
18
72
20
73
17
0
VERTEX
8
OBJECT__4
10
0
20
0
30
0
70
128
71
16
72
18
73
15
0
VERTEX
8
OBJECT__4
10
0
20
0
30
0
70
128
71
12
72
16
73
14
0
VERTEX
8
OBJECT__4
10
0
20
0
30
0
70
128
71
11
72
10
73
12
0
VERTEX
8
OBJECT__4
10
0
20
0
30
0
70
128
71
9
72
8
73
10
0
VERTEX
8
OBJECT__4
10
0
20
0
30
0
70
128
71
7
72
6
73
8
0
VERTEX
8
OBJECT__4
10
0
20
0
30
0
70
128
71
5
72
4
73
6
0
VERTEX
8
OBJECT__4
10
0
20
0
30
0
70
128
71
2
72
1
73
4
0
VERTEX
8
OBJECT__4
10
0
20
0
30
0
70
128
71
3
72
24
73
1
0
SEQEND
8
OBJECT__4
0
POLYLINE
8
OBJECT__5
66
1
70
64
71
12
72
10
62
253
0
VERTEX
8
OBJECT__5
10
56.299999
20
-115.587997
30
-9.000000
70
192
0
VERTEX
8
OBJECT__5
10
56.299999
20
-109.000000
30
15.588000
70
192
0
VERTEX
8
OBJECT__5
10
56.299999
20
-115.587997
30
9.000000
70
192
0
VERTEX
8
OBJECT__5
10
56.299999
20
-100.000000
30
18.000000
70
192
0
VERTEX
8
OBJECT__5
10
56.299999
20
-84.412003
30
-9.000000
70
192
0
VERTEX
8
OBJECT__5
10
56.299999
20
-82.000000
30
0.000000
70
192
0
VERTEX
8
OBJECT__5
10
56.299999
20
-91.000000
30
15.588000
70
192
0
VERTEX
8
OBJECT__5
10
56.299999
20
-91.000000
30
-15.588000
70
192
0
VERTEX
8
OBJECT__5
10
56.299999
20
-109.000000
30
-15.588000
70
192
0
VERTEX
8
OBJECT__5
10
56.299999
20
-84.412003
30
9.000000
70
192
0
VERTEX
8
OBJECT__5
10
56.299999
20
-100.000000
30
-18.000000
70
192
0
VERTEX
8
OBJECT__5
10
56.299999
20
-118.000000
30
0.000000
70
192
0
VERTEX
8
OBJECT__5
10
0
20
0
30
0
70
128
71
1
72
2
73
3
0
VERTEX
8
OBJECT__5
10
0
20
0
30
0
70
128
71
1
72
4
73
2
0
VERTEX
8
OBJECT__5
10
0
20
0
30
0
70
128
71
1
72
5
73
6
0
VERTEX
8
OBJECT__5
10
0
20
0
30
0
70
128
71
1
72
7
73
4
0
VERTEX
8
OBJECT__5
10
0
20
0
30
0
70
128
71
1
72
8
73
5
0
VERTEX
8
OBJECT__5
10
0
20
0
30
0
70
128
71
8
72
1
73
9
0
VERTEX
8
OBJECT__5
10
0
20
0
30
0
70
128
71
1
72
10
73
7
0
VERTEX
8
OBJECT__5
10
0
20
0
30
0
70
128
71
9
72
11
73
8
0
VERTEX
8
OBJECT__5
10
0
20
0
30
0
70
128
71
6
72
10
73
1
0
VERTEX
8
OBJECT__5
10
0
20
0
30
0
70
128
71
3
72
12
73
1
0
SEQEND
8
OBJECT__5
0
POLYLINE
8
OBJECT__7
66
1
70
64
71
26
72
26
62
253
0
VERTEX
8
OBJECT__7
10
15.300000
20
-79.515999
30
16.334999
70
192
0
VERTEX
8
OBJECT__7
10
15.300000
20
-88.632004
30
23.605000
70
192
0
VERTEX
8
OBJECT__7
10
15.300000
20
-93.375000
30
11.475000
70
192
0
VERTEX
8
OBJECT__7
10
15.300000
20
-100.000000
30
26.200001
70
192
0
VERTEX
8
OBJECT__7
10
15.300000
20
-100.000000
30
13.250000
70
192
0
VERTEX
8
OBJECT__7
10
15.300000
20
-120.484001
30
16.334999
70
192
0
VERTEX
8
OBJECT__7
10
15.300000
20
-111.474998
30
6.625000
70
192
0
VERTEX
8
OBJECT__7
10
15.300000
20
-106.625000
30
11.475000
70
192
0
VERTEX
8
OBJECT__7
10
15.300000
20
-125.542999
30
5.830000
70
192
0
VERTEX
8
OBJECT__7
10
15.300000
20
-113.250000
30
0.000000
70
192
0
VERTEX
8
OBJECT__7
10
15.300000
20
-125.542999
30
-5.830000
70
192
0
VERTEX
8
OBJECT__7
10
15.300000
20
-120.484001
30
-16.334999
70
192
0
VERTEX
8
OBJECT__7
10
15.300000
20
-111.474998
30
-6.625000
70
192
0
VERTEX
8
OBJECT__7
10
15.300000
20
-111.367996
30
23.605000
70
192
0
VERTEX
8
OBJECT__7
10
15.300000
20
-111.367996
30
-23.605000
70
192
0
VERTEX
8
OBJECT__7
10
15.300000
20
-100.000000
30
-26.200001
70
192
0
VERTEX
8
OBJECT__7
10
15.300000
20
-100.000000
30
-13.250000
70
192
0
VERTEX
8
OBJECT__7
10
15.300000
20
-88.632004
30
-23.605000
70
192
0
VERTEX
8
OBJECT__7
10
15.300000
20
-93.375000
30
-11.475000
70
192
0
VERTEX
8
OBJECT__7
10
15.300000
20
-106.625000
30
-11.475000
70
192
0
VERTEX
8
OBJECT__7
10
15.300000
20
-74.457001
30
-5.830000
70
192
0
VERTEX
8
OBJECT__7
10
15.300000
20
-86.750000
30
0.000000
70
192
0
VERTEX
8
OBJECT__7
10
15.300000
20
-88.525002
30
-6.625000
70
192
0
VERTEX
8
OBJECT__7
10
15.300000
20
-74.457001
30
5.830000
70
192
0
VERTEX
8
OBJECT__7
10
15.300000
20
-88.525002
30
6.625000
70
192
0
VERTEX
8
OBJECT__7
10
15.300000
20
-79.515999
30
-16.334999
70
192
0
VERTEX
8
OBJECT__7
10
0
20
0
30
0
70
128
71
1
72
2
73
3
0
VERTEX
8
OBJECT__7
10
0
20
0
30
0
70
128
71
2
72
4
73
5
0
VERTEX
8
OBJECT__7
10
0
20
0
30
0
70
128
71
6
72
7
73
8
0
VERTEX
8
OBJECT__7
10
0
20
0
30
0
70
128
71
9
72
10
73
7
0
VERTEX
8
OBJECT__7
10
0
20
0
30
0
70
128
71
11
72
12
73
13
0
VERTEX
8
OBJECT__7
10
0
20
0
30
0
70
128
71
5
72
3
73
2
0
VERTEX
8
OBJECT__7
10
0
20
0
30
0
70
128
71
14
72
8
73
5
0
VERTEX
8
OBJECT__7
10
0
20
0
30
0
70
128
71
7
72
6
73
9
0
VERTEX
8
OBJECT__7
10
0
20
0
30
0
70
128
71
10
72
9
73
11
0
VERTEX
8
OBJECT__7
10
0
20
0
30
0
70
128
71
15
72
16
73
17
0
VERTEX
8
OBJECT__7
10
0
20
0
30
0
70
128
71
18
72
19
73
17
0
VERTEX
8
OBJECT__7
10
0
20
0
30
0
70
128
71
5
72
4
73
14
0
VERTEX
8
OBJECT__7
10
0
20
0
30
0
70
128
71
13
72
10
73
11
0
VERTEX
8
OBJECT__7
10
0
20
0
30
0
70
128
71
12
72
15
73
20
0
VERTEX
8
OBJECT__7
10
0
20
0
30
0
70
128
71
17
72
16
73
18
0
VERTEX
8
OBJECT__7
10
0
20
0
30
0
70
128
71
8
72
14
73
6
0
VERTEX
8
OBJECT__7
10
0
20
0
30
0
70
128
71
17
72
20
73
15
0
VERTEX
8
OBJECT__7
10
0
20
0
30
0
70
128
71
21
72
22
73
23
0
VERTEX
8
OBJECT__7
10
0
20
0
30
0
70
128
71
24
72
1
73
25
0
VERTEX
8
OBJECT__7
10
0
20
0
30
0
70
128
71
20
72
13
73
12
0
VERTEX
8
OBJECT__7
10
0
20
0
30
0
70
128
71
26
72
23
73
19
0
VERTEX
8
OBJECT__7
10
0
20
0
30
0
70
128
71
23
72
26
73
21
0
VERTEX
8
OBJECT__7
10
0
20
0
30
0
70
128
71
3
72
25
73
1
0
VERTEX
8
OBJECT__7
10
0
20
0
30
0
70
128
71
21
72
24
73
22
0
VERTEX
8
OBJECT__7
10
0
20
0
30
0
70
128
71
19
72
18
73
26
0
VERTEX
8
OBJECT__7
10
0
20
0
30
0
70
128
71
25
72
22
73
24
0
SEQEND
8
OBJECT__7
0
POLYLINE
8
OBJECT__8
66
1
70
64
71
28
72
28
62
253
0
VERTEX
8
OBJECT__8
10
14.300000
20
-88.632004
30
23.605000
70
192
0
VERTEX
8
OBJECT__8
10
14.300000
20
-100.000000
30
26.200001
70
192
0
VERTEX
8
OBJECT__8
10
15.300000
20
-100.000000
30
26.200001
70
192
0
VERTEX
8
OBJECT__8
10
14.300000
20
-79.515999
30
16.334999
70
192
0
VERTEX
8
OBJECT__8
10
15.300000
20
-88.632004
30
23.605000
70
192
0
VERTEX
8
OBJECT__8
10
15.300000
20
-74.457001
30
5.830000
70
192
0
VERTEX
8
OBJECT__8
10
14.300000
20
-74.457001
30
5.830000
70
192
0
VERTEX
8
OBJECT__8
10
15.300000
20
-74.457001
30
-5.830000
70
192
0
VERTEX
8
OBJECT__8
10
14.300000
20
-74.457001
30
-5.830000
70
192
0
VERTEX
8
OBJECT__8
10
15.300000
20
-79.515999
30
-16.334999
70
192
0
VERTEX
8
OBJECT__8
10
14.300000
20
-79.515999
30
-16.334999
70
192
0
VERTEX
8
OBJECT__8
10
15.300000
20
-88.632004
30
-23.605000
70
192
0
VERTEX
8
OBJECT__8
10
14.300000
20
-88.632004
30
-23.605000
70
192
0
VERTEX
8
OBJECT__8
10
15.300000
20
-100.000000
30
-26.200001
70
192
0
VERTEX
8
OBJECT__8
10
14.300000
20
-100.000000
30
-26.200001
70
192
0
VERTEX
8
OBJECT__8
10
15.300000
20
-111.367996
30
-23.605000
70
192
0
VERTEX
8
OBJECT__8
10
14.300000
20
-111.367996
30
-23.605000
70
192
0
VERTEX
8
OBJECT__8
10
15.300000
20
-120.484001
30
-16.334999
70
192
0
VERTEX
8
OBJECT__8
10
14.300000
20
-120.484001
30
-16.334999
70
192
0
VERTEX
8
OBJECT__8
10
14.300000
20
-125.542999
30
-5.830000
70
192
0
VERTEX
8
OBJECT__8
10
14.300000
20
-125.542999
30
5.830000
70
192
0
VERTEX
8
OBJECT__8
10
15.300000
20
-125.542999
30
-5.830000
70
192
0
VERTEX
8
OBJECT__8
10
14.300000
20
-120.484001
30
16.334999
70
192
0
VERTEX
8
OBJECT__8
10
15.300000
20
-125.542999
30
5.830000
70
192
0
VERTEX
8
OBJECT__8
10
14.300000
20
-111.367996
30
23.605000
70
192
0
VERTEX
8
OBJECT__8
10
15.300000
20
-120.484001
30
16.334999
70
192
0
VERTEX
8
OBJECT__8
10
15.300000
20
-111.367996
30
23.605000
70
192
0
VERTEX
8
OBJECT__8
10
15.300000
20
-79.515999
30
16.334999
70
192
0
VERTEX
8
OBJECT__8
10
0
20
0
30
0
70
128
71
1
72
2
73
3
0
VERTEX
8
OBJECT__8
10
0
20
0
30
0
70
128
71
4
72
1
73
5
0
VERTEX
8
OBJECT__8
10
0
20
0
30
0
70
128
71
6
72
7
73
4
0
VERTEX
8
OBJECT__8
10
0
20
0
30
0
70
128
71
8
72
9
73
7
0
VERTEX
8
OBJECT__8
10
0
20
0
30
0
70
128
71
10
72
11
73
9
0
VERTEX
8
OBJECT__8
10
0
20
0
30
0
70
128
71
12
72
13
73
11
0
VERTEX
8
OBJECT__8
10
0
20
0
30
0
70
128
71
14
72
15
73
13
0
VERTEX
8
OBJECT__8
10
0
20
0
30
0
70
128
71
16
72
17
73
15
0
VERTEX
8
OBJECT__8
10
0
20
0
30
0
70
128
71
18
72
19
73
17
0
VERTEX
8
OBJECT__8
10
0
20
0
30
0
70
128
71
20
72
19
73
18
0
VERTEX
8
OBJECT__8
10
0
20
0
30
0
70
128
71
21
72
20
73
22
0
VERTEX
8
OBJECT__8
10
0
20
0
30
0
70
128
71
23
72
21
73
24
0
VERTEX
8
OBJECT__8
10
0
20
0
30
0
70
128
71
25
72
23
73
26
0
VERTEX
8
OBJECT__8
10
0
20
0
30
0
70
128
71
2
72
25
73
27
0
VERTEX
8
OBJECT__8
10
0
20
0
30
0
70
128
71
27
72
3
73
2
0
VERTEX
8
OBJECT__8
10
0
20
0
30
0
70
128
71
26
72
27
73
25
0
VERTEX
8
OBJECT__8
10
0
20
0
30
0
70
128
71
24
72
26
73
23
0
VERTEX
8
OBJECT__8
10
0
20
0
30
0
70
128
71
22
72
24
73
21
0
VERTEX
8
OBJECT__8
10
0
20
0
30
0
70
128
71
18
72
22
73
20
0
VERTEX
8
OBJECT__8
10
0
20
0
30
0
70
128
71
17
72
16
73
18
0
VERTEX
8
OBJECT__8
10
0
20
0
30
0
70
128
71
15
72
14
73
16
0
VERTEX
8
OBJECT__8
10
0
20
0
30
0
70
128
71
13
72
12
73
14
0
VERTEX
8
OBJECT__8
10
0
20
0
30
0
70
128
71
11
72
10
73
12
0
VERTEX
8
OBJECT__8
10
0
20
0
30
0
70
128
71
9
72
8
73
10
0
VERTEX
8
OBJECT__8
10
0
20
0
30
0
70
128
71
7
72
6
73
8
0
VERTEX
8
OBJECT__8
10
0
20
0
30
0
70
128
71
4
72
28
73
6
0
VERTEX
8
OBJECT__8
10
0
20
0
30
0
70
128
71
5
72
28
73
4
0
VERTEX
8
OBJECT__8
10
0
20
0
30
0
70
128
71
3
72
5
73
1
0
SEQEND
8
OBJECT__8
0
POLYLINE
8
OBJECT__10
66
1
70
64
71
35
72
35
62
253
0
VERTEX
8
OBJECT__10
10
0.000000
20
-14.900000
30
25.808001
70
192
0
VERTEX
8
OBJECT__10
10
0.000000
20
-12.035000
30
24.169001
70
192
0
VERTEX
8
OBJECT__10
10
0.000000
20
-19.952999
30
18.190001
70
192
0
VERTEX
8
OBJECT__10
10
0.000000
20
-5.175000
30
29.347000
70
192
0
VERTEX
8
OBJECT__10
10
0.000000
20
-2.491000
30
26.885000
70
192
0
VERTEX
8
OBJECT__10
10
0.000000
20
5.175000
30
29.347000
70
192
0
VERTEX
8
OBJECT__10
10
0.000000
20
7.389000
30
25.969000
70
192
0
VERTEX
8
OBJECT__10
10
0.000000
20
14.900000
30
25.808001
70
192
0
VERTEX
8
OBJECT__10
10
0.000000
20
16.271000
30
21.546000
70
192
0
VERTEX
8
OBJECT__10
10
0.000000
20
29.799999
30
0.000000
70
192
0
VERTEX
8
OBJECT__10
10
0.000000
20
28.003000
30
-10.192000
70
192
0
VERTEX
8
OBJECT__10
10
0.000000
20
26.540001
30
-4.961000
70
192
0
VERTEX
8
OBJECT__10
10
0.000000
20
22.827999
30
19.155001
70
192
0
VERTEX
8
OBJECT__10
10
0.000000
20
22.955999
30
14.214000
70
192
0
VERTEX
8
OBJECT__10
10
0.000000
20
28.003000
30
10.192000
70
192
0
VERTEX
8
OBJECT__10
10
0.000000
20
26.540001
30
4.961000
70
192
0
VERTEX
8
OBJECT__10
10
0.000000
20
-22.827999
30
19.155001
70
192
0
VERTEX
8
OBJECT__10
10
0.000000
20
-25.177000
30
9.754000
70
192
0
VERTEX
8
OBJECT__10
10
0.000000
20
22.827999
30
-19.155001
70
192
0
VERTEX
8
OBJECT__10
10
0.000000
20
22.955999
30
-14.214000
70
192
0
VERTEX
8
OBJECT__10
10
0.000000
20
14.900000
30
-25.808001
70
192
0
VERTEX
8
OBJECT__10
10
0.000000
20
16.271000
30
-21.546000
70
192
0
VERTEX
8
OBJECT__10
10
0.000000
20
-28.003000
30
10.192000
70
192
0
VERTEX
8
OBJECT__10
10
0.000000
20
5.175000
30
-29.347000
70
192
0
VERTEX
8
OBJECT__10
10
0.000000
20
7.389000
30
-25.969000
70
192
0
VERTEX
8
OBJECT__10
10
0.000000
20
-5.175000
30
-29.347000
70
192
0
VERTEX
8
OBJECT__10
10
0.000000
20
-2.491000
30
-26.885000
70
192
0
VERTEX
8
OBJECT__10
10
0.000000
20
-14.900000
30
-25.808001
70
192
0
VERTEX
8
OBJECT__10
10
0.000000
20
-12.035000
30
-24.169001
70
192
0
VERTEX
8
OBJECT__10
10
0.000000
20
-22.827999
30
-19.155001
70
192
0
VERTEX
8
OBJECT__10
10
0.000000
20
-19.952999
30
-18.190001
70
192
0
VERTEX
8
OBJECT__10
10
0.000000
20
-28.003000
30
-10.192000
70
192
0
VERTEX
8
OBJECT__10
10
0.000000
20
-25.177000
30
-9.754000
70
192
0
VERTEX
8
OBJECT__10
10
0.000000
20
-29.799999
30
0.000000
70
192
0
VERTEX
8
OBJECT__10
10
0.000000
20
-27.000000
30
0.000000
70
192
0
VERTEX
8
OBJECT__10
10
0
20
0
30
0
70
128
71
1
72
2
73
3
0
VERTEX
8
OBJECT__10
10
0
20
0
30
0
70
128
71
4
72
5
73
2
0
VERTEX
8
OBJECT__10
10
0
20
0
30
0
70
128
71
2
72
1
73
4
0
VERTEX
8
OBJECT__10
10
0
20
0
30
0
70
128
71
6
72
7
73
5
0
VERTEX
8
OBJECT__10
10
0
20
0
30
0
70
128
71
5
72
4
73
6
0
VERTEX
8
OBJECT__10
10
0
20
0
30
0
70
128
71
8
72
9
73
7
0
VERTEX
8
OBJECT__10
10
0
20
0
30
0
70
128
71
10
72
11
73
12
0
VERTEX
8
OBJECT__10
10
0
20
0
30
0
70
128
71
7
72
6
73
8
0
VERTEX
8
OBJECT__10
10
0
20
0
30
0
70
128
71
13
72
14
73
9
0
VERTEX
8
OBJECT__10
10
0
20
0
30
0
70
128
71
15
72
16
73
14
0
VERTEX
8
OBJECT__10
10
0
20
0
30
0
70
128
71
12
72
16
73
10
0
VERTEX
8
OBJECT__10
10
0
20
0
30
0
70
128
71
17
72
3
73
18
0
VERTEX
8
OBJECT__10
10
0
20
0
30
0
70
128
71
9
72
8
73
13
0
VERTEX
8
OBJECT__10
10
0
20
0
30
0
70
128
71
16
72
15
73
10
0
VERTEX
8
OBJECT__10
10
0
20
0
30
0
70
128
71
11
72
19
73
20
0
VERTEX
8
OBJECT__10
10
0
20
0
30
0
70
128
71
19
72
21
73
22
0
VERTEX
8
OBJECT__10
10
0
20
0
30
0
70
128
71
18
72
23
73
17
0
VERTEX
8
OBJECT__10
10
0
20
0
30
0
70
128
71
14
72
13
73
15
0
VERTEX
8
OBJECT__10
10
0
20
0
30
0
70
128
71
22
72
20
73
19
0
VERTEX
8
OBJECT__10
10
0
20
0
30
0
70
128
71
21
72
24
73
25
0
VERTEX
8
OBJECT__10
10
0
20
0
30
0
70
128
71
3
72
17
73
1
0
VERTEX
8
OBJECT__10
10
0
20
0
30
0
70
128
71
25
72
22
73
21
0
VERTEX
8
OBJECT__10
10
0
20
0
30
0
70
128
71
24
72
26
73
27
0
VERTEX
8
OBJECT__10
10
0
20
0
30
0
70
128
71
26
72
28
73
29
0
VERTEX
8
OBJECT__10
10
0
20
0
30
0
70
128
71
20
72
12
73
11
0
VERTEX
8
OBJECT__10
10
0
20
0
30
0
70
128
71
29
72
27
73
26
0
VERTEX
8
OBJECT__10
10
0
20
0
30
0
70
128
71
28
72
30
73
31
0
VERTEX
8
OBJECT__10
10
0
20
0
30
0
70
128
71
30
72
32
73
33
0
VERTEX
8
OBJECT__10
10
0
20
0
30
0
70
128
71
27
72
25
73
24
0
VERTEX
8
OBJECT__10
10
0
20
0
30
0
70
128
71
33
72
31
73
30
0
VERTEX
8
OBJECT__10
10
0
20
0
30
0
70
128
71
31
72
29
73
28
0
VERTEX
8
OBJECT__10
10
0
20
0
30
0
70
128
71
32
72
34
73
35
0
VERTEX
8
OBJECT__10
10
0
20
0
30
0
70
128
71
35
72
33
73
32
0
VERTEX
8
OBJECT__10
10
0
20
0
30
0
70
128
71
18
72
35
73
23
0
VERTEX
8
OBJECT__10
10
0
20
0
30
0
70
128
71
35
72
34
73
23
0
SEQEND
8
OBJECT__10
0
POLYLINE
8
OBJECT__12
66
1
70
64
71
3
72
1
62
253
0
VERTEX
8
OBJECT__12
10
80.000000
20
-100.000000
30
8.660000
70
192
0
VERTEX
8
OBJECT__12
10
80.000000
20
-97.698997
30
9.988000
70
192
0
VERTEX
8
OBJECT__12
10
80.000000
20
-102.301003
30
9.988000
70
192
0
VERTEX
8
OBJECT__12
10
0
20
0
30
0
70
128
71
1
72
2
73
3
0
SEQEND
8
OBJECT__12
0
POLYLINE
8
OBJECT__13
66
1
70
64
71
10
72
8
62
253
0
VERTEX
8
OBJECT__13
10
80.000000
20
-76.903000
30
21.995001
70
192
0
VERTEX
8
OBJECT__13
10
80.000000
20
-97.698997
30
9.988000
70
192
0
VERTEX
8
OBJECT__13
10
87.943001
20
-88.450996
30
15.328000
70
192
0
VERTEX
8
OBJECT__13
10
87.972000
20
-94.222000
30
11.996000
70
192
0
VERTEX
8
OBJECT__13
10
87.983002
20
-98.236000
30
9.678000
70
192
0
VERTEX
8
OBJECT__13
10
87.972000
20
-94.225998
30
11.994000
70
192
0
VERTEX
8
OBJECT__13
10
80.000000
20
-100.000000
30
8.660000
70
192
0
VERTEX
8
OBJECT__13
10
87.987999
20
-100.000000
30
8.660000
70
192
0
VERTEX
8
OBJECT__13
10
87.879997
20
-81.316002
30
19.448000
70
192
0
VERTEX
8
OBJECT__13
10
87.841003
20
-76.903000
30
21.995001
70
192
0
VERTEX
8
OBJECT__13
10
0
20
0
30
0
70
128
71
1
72
2
73
3
0
VERTEX
8
OBJECT__13
10
0
20
0
30
0
70
128
71
2
72
4
73
3
0
VERTEX
8
OBJECT__13
10
0
20
0
30
0
70
128
71
2
72
5
73
6
0
VERTEX
8
OBJECT__13
10
0
20
0
30
0
70
128
71
6
72
4
73
2
0
VERTEX
8
OBJECT__13
10
0
20
0
30
0
70
128
71
7
72
8
73
5
0
VERTEX
8
OBJECT__13
10
0
20
0
30
0
70
128
71
3
72
9
73
1
0
VERTEX
8
OBJECT__13
10
0
20
0
30
0
70
128
71
9
72
10
73
1
0
VERTEX
8
OBJECT__13
10
0
20
0
30
0
70
128
71
5
72
2
73
7
0
SEQEND
8
OBJECT__13
0
POLYLINE
8
OBJECT__15
66
1
70
64
71
5
72
3
62
253
0
VERTEX
8
OBJECT__15
10
80.000000
20
-76.903000
30
21.995001
70
192
0
VERTEX
8
OBJECT__15
10
87.841003
20
-76.903000
30
21.995001
70
192
0
VERTEX
8
OBJECT__15
10
87.841003
20
-73.153000
30
15.500000
70
192
0
VERTEX
8
OBJECT__15
10
80.000000
20
-69.403000
30
9.005000
70
192
0
VERTEX
8
OBJECT__15
10
87.841003
20
-69.403000
30
9.005000
70
192
0
VERTEX
8
OBJECT__15
10
0
20
0
30
0
70
128
71
1
72
2
73
3
0
VERTEX
8
OBJECT__15
10
0
20
0
30
0
70
128
71
3
72
4
73
1
0
VERTEX
8
OBJECT__15
10
0
20
0
30
0
70
128
71
3
72
5
73
4
0
SEQEND
8
OBJECT__15
0
POLYLINE
8
OBJECT__16
66
1
70
64
71
7
72
5
62
253
0
VERTEX
8
OBJECT__16
10
80.000000
20
-76.903000
30
21.995001
70
192
0
VERTEX
8
OBJECT__16
10
80.000000
20
-69.403000
30
9.005000
70
192
0
VERTEX
8
OBJECT__16
10
80.000000
20
-91.123001
30
5.125000
70
192
0
VERTEX
8
OBJECT__16
10
80.000000
20
-96.494003
30
9.632000
70
192
0
VERTEX
8
OBJECT__16
10
80.000000
20
-90.198997
30
-3.002000
70
192
0
VERTEX
8
OBJECT__16
10
80.000000
20
-89.905998
30
-1.780000
70
192
0
VERTEX
8
OBJECT__16
10
80.000000
20
-97.698997
30
9.988000
70
192
0
VERTEX
8
OBJECT__16
10
0
20
0
30
0
70
128
71
1
72
2
73
3
0
VERTEX
8
OBJECT__16
10
0
20
0
30
0
70
128
71
3
72
4
73
1
0
VERTEX
8
OBJECT__16
10
0
20
0
30
0
70
128
71
2
72
5
73
6
0
VERTEX
8
OBJECT__16
10
0
20
0
30
0
70
128
71
6
72
3
73
2
0
VERTEX
8
OBJECT__16
10
0
20
0
30
0
70
128
71
4
72
7
73
1
0
SEQEND
8
OBJECT__16
0
POLYLINE
8
OBJECT__17
66
1
70
64
71
10
72
8
62
253
0
VERTEX
8
OBJECT__17
10
80.000000
20
-102.301003
30
9.988000
70
192
0
VERTEX
8
OBJECT__17
10
80.000000
20
-123.097000
30
21.995001
70
192
0
VERTEX
8
OBJECT__17
10
87.921997
20
-114.435997
30
16.995001
70
192
0
VERTEX
8
OBJECT__17
10
80.000000
20
-100.000000
30
8.660000
70
192
0
VERTEX
8
OBJECT__17
10
87.983002
20
-101.764000
30
9.678000
70
192
0
VERTEX
8
OBJECT__17
10
87.972000
20
-105.778000
30
11.996000
70
192
0
VERTEX
8
OBJECT__17
10
87.972000
20
-105.774002
30
11.994000
70
192
0
VERTEX
8
OBJECT__17
10
87.889000
20
-117.998001
30
19.051001
70
192
0
VERTEX
8
OBJECT__17
10
87.841003
20
-123.097000
30
21.995001
70
192
0
VERTEX
8
OBJECT__17
10
87.987999
20
-100.000000
30
8.660000
70
192
0
VERTEX
8
OBJECT__17
10
0
20
0
30
0
70
128
71
1
72
2
73
3
0
VERTEX
8
OBJECT__17
10
0
20
0
30
0
70
128
71
4
72
1
73
5
0
VERTEX
8
OBJECT__17
10
0
20
0
30
0
70
128
71
1
72
6
73
7
0
VERTEX
8
OBJECT__17
10
0
20
0
30
0
70
128
71
2
72
8
73
3
0
VERTEX
8
OBJECT__17
10
0
20
0
30
0
70
128
71
7
72
5
73
1
0
VERTEX
8
OBJECT__17
10
0
20
0
30
0
70
128
71
2
72
9
73
8
0
VERTEX
8
OBJECT__17
10
0
20
0
30
0
70
128
71
3
72
6
73
1
0
VERTEX
8
OBJECT__17
10
0
20
0
30
0
70
128
71
5
72
10
73
4
0
SEQEND
8
OBJECT__17
0
POLYLINE
8
OBJECT__18
66
1
70
64
71
5
72
3
62
253
0
VERTEX
8
OBJECT__18
10
80.000000
20
-123.097000
30
21.995001
70
192
0
VERTEX
8
OBJECT__18
10
80.000000
20
-130.597000
30
9.005000
70
192
0
VERTEX
8
OBJECT__18
10
87.841003
20
-126.847000
30
15.500000
70
192
0
VERTEX
8
OBJECT__18
10
87.841003
20
-130.597000
30
9.005000
70
192
0
VERTEX
8
OBJECT__18
10
87.841003
20
-123.097000
30
21.995001
70
192
0
VERTEX
8
OBJECT__18
10
0
20
0
30
0
70
128
71
1
72
2
73
3
0
VERTEX
8
OBJECT__18
10
0
20
0
30
0
70
128
71
2
72
4
73
3
0
VERTEX
8
OBJECT__18
10
0
20
0
30
0
70
128
71
3
72
5
73
1
0
SEQEND
8
OBJECT__18
0
POLYLINE
8
OBJECT__19
66
1
70
64
71
7
72
5
62
253
0
VERTEX
8
OBJECT__19
10
80.000000
20
-130.597000
30
9.005000
70
192
0
VERTEX
8
OBJECT__19
10
80.000000
20
-123.097000
30
21.995001
70
192
0
VERTEX
8
OBJECT__19
10
80.000000
20
-108.876999
30
5.125000
70
192
0
VERTEX
8
OBJECT__19
10
80.000000
20
-110.094002
30
-1.780000
70
192
0
VERTEX
8
OBJECT__19
10
80.000000
20
-102.301003
30
9.988000
70
192
0
VERTEX
8
OBJECT__19
10
80.000000
20
-103.505997
30
9.632000
70
192
0
VERTEX
8
OBJECT__19
10
80.000000
20
-109.801003
30
-3.002000
70
192
0
VERTEX
8
OBJECT__19
10
0
20
0
30
0
70
128
71
1
72
2
73
3
0
VERTEX
8
OBJECT__19
10
0
20
0
30
0
70
128
71
3
72
4
73
1
0
VERTEX
8
OBJECT__19
10
0
20
0
30
0
70
128
71
2
72
5
73
6
0
VERTEX
8
OBJECT__19
10
0
20
0
30
0
70
128
71
6
72
3
73
2
0
VERTEX
8
OBJECT__19
10
0
20
0
30
0
70
128
71
4
72
7
73
1
0
SEQEND
8
OBJECT__19
0
POLYLINE
8
OBJECT__20
66
1
70
64
71
10
72
8
62
253
0
VERTEX
8
OBJECT__20
10
80.000000
20
-130.597000
30
9.005000
70
192
0
VERTEX
8
OBJECT__20
10
80.000000
20
-109.801003
30
-3.002000
70
192
0
VERTEX
8
OBJECT__20
10
87.943001
20
-119.049004
30
2.337000
70
192
0
VERTEX
8
OBJECT__20
10
87.972000
20
-113.278000
30
-0.994000
70
192
0
VERTEX
8
OBJECT__20
10
87.983002
20
-109.264000
30
-3.312000
70
192
0
VERTEX
8
OBJECT__20
10
87.972000
20
-113.274002
30
-0.996000
70
192
0
VERTEX
8
OBJECT__20
10
80.000000
20
-107.500000
30
-4.330000
70
192
0
VERTEX
8
OBJECT__20
10
87.987999
20
-107.500000
30
-4.330000
70
192
0
VERTEX
8
OBJECT__20
10
87.879997
20
-126.183998
30
6.457000
70
192
0
VERTEX
8
OBJECT__20
10
87.841003
20
-130.597000
30
9.005000
70
192
0
VERTEX
8
OBJECT__20
10
0
20
0
30
0
70
128
71
1
72
2
73
3
0
VERTEX
8
OBJECT__20
10
0
20
0
30
0
70
128
71
2
72
4
73
3
0
VERTEX
8
OBJECT__20
10
0
20
0
30
0
70
128
71
2
72
5
73
6
0
VERTEX
8
OBJECT__20
10
0
20
0
30
0
70
128
71
7
72
8
73
5
0
VERTEX
8
OBJECT__20
10
0
20
0
30
0
70
128
71
3
72
9
73
1
0
VERTEX
8
OBJECT__20
10
0
20
0
30
0
70
128
71
5
72
2
73
7
0
VERTEX
8
OBJECT__20
10
0
20
0
30
0
70
128
71
6
72
4
73
2
0
VERTEX
8
OBJECT__20
10
0
20
0
30
0
70
128
71
9
72
10
73
1
0
SEQEND
8
OBJECT__20
0
POLYLINE
8
OBJECT__21
66
1
70
64
71
3
72
1
62
253
0
VERTEX
8
OBJECT__21
10
80.000000
20
-107.500000
30
-6.987000
70
192
0
VERTEX
8
OBJECT__21
10
80.000000
20
-107.500000
30
-4.330000
70
192
0
VERTEX
8
OBJECT__21
10
80.000000
20
-109.801003
30
-3.002000
70
192
0
VERTEX
8
OBJECT__21
10
0
20
0
30
0
70
128
71
1
72
2
73
3
0
SEQEND
8
OBJECT__21
0
POLYLINE
8
OBJECT__22
66
1
70
64
71
43
72
42
62
253
0
VERTEX
8
OBJECT__22
10
87.841003
20
-73.153000
30
15.500000
70
192
0
VERTEX
8
OBJECT__22
10
87.841003
20
-76.903000
30
21.995001
70
192
0
VERTEX
8
OBJECT__22
10
87.879997
20
-81.316002
30
19.448000
70
192
0
VERTEX
8
OBJECT__22
10
88.000000
20
-100.000000
30
0.000000
70
192
0
VERTEX
8
OBJECT__22
10
87.943001
20
-88.450996
30
15.328000
70
192
0
VERTEX
8
OBJECT__22
10
87.972000
20
-94.222000
30
11.996000
70
192
0
VERTEX
8
OBJECT__22
10
87.972000
20
-94.225998
30
11.994000
70
192
0
VERTEX
8
OBJECT__22
10
87.983002
20
-98.236000
30
9.678000
70
192
0
VERTEX
8
OBJECT__22
10
87.987999
20
-100.000000
30
8.660000
70
192
0
VERTEX
8
OBJECT__22
10
87.983002
20
-101.764000
30
9.678000
70
192
0
VERTEX
8
OBJECT__22
10
87.972000
20
-105.774002
30
11.994000
70
192
0
VERTEX
8
OBJECT__22
10
87.972000
20
-105.778000
30
11.996000
70
192
0
VERTEX
8
OBJECT__22
10
87.921997
20
-114.435997
30
16.995001
70
192
0
VERTEX
8
OBJECT__22
10
87.841003
20
-126.847000
30
15.500000
70
192
0
VERTEX
8
OBJECT__22
10
87.889000
20
-117.998001
30
19.051001
70
192
0
VERTEX
8
OBJECT__22
10
87.841003
20
-130.597000
30
9.005000
70
192
0
VERTEX
8
OBJECT__22
10
87.879997
20
-126.183998
30
6.457000
70
192
0
VERTEX
8
OBJECT__22
10
87.943001
20
-119.049004
30
2.337000
70
192
0
VERTEX
8
OBJECT__22
10
87.972000
20
-113.278000
30
-0.994000
70
192
0
VERTEX
8
OBJECT__22
10
87.972000
20
-113.274002
30
-0.996000
70
192
0
VERTEX
8
OBJECT__22
10
87.983002
20
-109.264000
30
-3.312000
70
192
0
VERTEX
8
OBJECT__22
10
87.987999
20
-107.500000
30
-4.330000
70
192
0
VERTEX
8
OBJECT__22
10
87.983002
20
-107.500000
30
-6.367000
70
192
0
VERTEX
8
OBJECT__22
10
87.972000
20
-107.500000
30
-10.998000
70
192
0
VERTEX
8
OBJECT__22
10
87.972000
20
-107.500000
30
-11.002000
70
192
0
VERTEX
8
OBJECT__22
10
87.921997
20
-107.500000
30
-20.999001
70
192
0
VERTEX
8
OBJECT__22
10
87.841003
20
-100.000000
30
-31.000000
70
192
0
VERTEX
8
OBJECT__22
10
87.889000
20
-107.500000
30
-25.112000
70
192
0
VERTEX
8
OBJECT__22
10
87.841003
20
-92.500000
30
-31.000000
70
192
0
VERTEX
8
OBJECT__22
10
87.879997
20
-92.500000
30
-25.905001
70
192
0
VERTEX
8
OBJECT__22
10
87.943001
20
-92.500000
30
-17.665001
70
192
0
VERTEX
8
OBJECT__22
10
87.972000
20
-92.500000
30
-11.001000
70
192
0
VERTEX
8
OBJECT__22
10
87.972000
20
-92.500000
30
-10.998000
70
192
0
VERTEX
8
OBJECT__22
10
87.983002
20
-92.500000
30
-6.367000
70
192
0
VERTEX
8
OBJECT__22
10
87.987999
20
-92.500000
30
-4.330000
70
192
0
VERTEX
8
OBJECT__22
10
87.983002
20
-90.736000
30
-3.312000
70
192
0
VERTEX
8
OBJECT__22
10
87.972000
20
-86.725998
30
-0.996000
70
192
0
VERTEX
8
OBJECT__22
10
87.972000
20
-86.722000
30
-0.994000
70
192
0
VERTEX
8
OBJECT__22
10
87.921997
20
-78.064003
30
4.004000
70
192
0
VERTEX
8
OBJECT__22
10
87.889000
20
-74.501999
30
6.061000
70
192
0
VERTEX
8
OBJECT__22
10
87.841003
20
-69.403000
30
9.005000
70
192
0
VERTEX
8
OBJECT__22
10
87.841003
20
-107.500000
30
-31.000000
70
192
0
VERTEX
8
OBJECT__22
10
87.841003
20
-123.097000
30
21.995001
70
192
0
VERTEX
8
OBJECT__22
10
0
20
0
30
0
70
128
71
1
72
2
73
3
0
VERTEX
8
OBJECT__22
10
0
20
0
30
0
70
128
71
4
72
3
73
5
0
VERTEX
8
OBJECT__22
10
0
20
0
30
0
70
128
71
4
72
6
73
7
0
VERTEX
8
OBJECT__22
10
0
20
0
30
0
70
128
71
4
72
8
73
9
0
VERTEX
8
OBJECT__22
10
0
20
0
30
0
70
128
71
4
72
10
73
11
0
VERTEX
8
OBJECT__22
10
0
20
0
30
0
70
128
71
4
72
12
73
13
0
VERTEX
8
OBJECT__22
10
0
20
0
30
0
70
128
71
14
72
4
73
15
0
VERTEX
8
OBJECT__22
10
0
20
0
30
0
70
128
71
14
72
16
73
17
0
VERTEX
8
OBJECT__22
10
0
20
0
30
0
70
128
71
4
72
17
73
18
0
VERTEX
8
OBJECT__22
10
0
20
0
30
0
70
128
71
4
72
19
73
20
0
VERTEX
8
OBJECT__22
10
0
20
0
30
0
70
128
71
4
72
21
73
22
0
VERTEX
8
OBJECT__22
10
0
20
0
30
0
70
128
71
4
72
23
73
24
0
VERTEX
8
OBJECT__22
10
0
20
0
30
0
70
128
71
4
72
25
73
26
0
VERTEX
8
OBJECT__22
10
0
20
0
30
0
70
128
71
27
72
4
73
28
0
VERTEX
8
OBJECT__22
10
0
20
0
30
0
70
128
71
27
72
29
73
30
0
VERTEX
8
OBJECT__22
10
0
20
0
30
0
70
128
71
4
72
30
73
31
0
VERTEX
8
OBJECT__22
10
0
20
0
30
0
70
128
71
4
72
32
73
33
0
VERTEX
8
OBJECT__22
10
0
20
0
30
0
70
128
71
4
72
34
73
35
0
VERTEX
8
OBJECT__22
10
0
20
0
30
0
70
128
71
4
72
36
73
37
0
VERTEX
8
OBJECT__22
10
0
20
0
30
0
70
128
71
4
72
38
73
39
0
VERTEX
8
OBJECT__22
10
0
20
0
30
0
70
128
71
1
72
4
73
40
0
VERTEX
8
OBJECT__22
10
0
20
0
30
0
70
128
71
40
72
41
73
1
0
VERTEX
8
OBJECT__22
10
0
20
0
30
0
70
128
71
39
72
40
73
4
0
VERTEX
8
OBJECT__22
10
0
20
0
30
0
70
128
71
37
72
38
73
4
0
VERTEX
8
OBJECT__22
10
0
20
0
30
0
70
128
71
35
72
36
73
4
0
VERTEX
8
OBJECT__22
10
0
20
0
30
0
70
128
71
33
72
34
73
4
0
VERTEX
8
OBJECT__22
10
0
20
0
30
0
70
128
71
31
72
32
73
4
0
VERTEX
8
OBJECT__22
10
0
20
0
30
0
70
128
71
30
72
4
73
27
0
VERTEX
8
OBJECT__22
10
0
20
0
30
0
70
128
71
28
72
42
73
27
0
VERTEX
8
OBJECT__22
10
0
20
0
30
0
70
128
71
26
72
28
73
4
0
VERTEX
8
OBJECT__22
10
0
20
0
30
0
70
128
71
24
72
25
73
4
0
VERTEX
8
OBJECT__22
10
0
20
0
30
0
70
128
71
22
72
23
73
4
0
VERTEX
8
OBJECT__22
10
0
20
0
30
0
70
128
71
20
72
21
73
4
0
VERTEX
8
OBJECT__22
10
0
20
0
30
0
70
128
71
18
72
19
73
4
0
VERTEX
8
OBJECT__22
10
0
20
0
30
0
70
128
71
17
72
4
73
14
0
VERTEX
8
OBJECT__22
10
0
20
0
30
0
70
128
71
15
72
43
73
14
0
VERTEX
8
OBJECT__22
10
0
20
0
30
0
70
128
71
13
72
15
73
4
0
VERTEX
8
OBJECT__22
10
0
20
0
30
0
70
128
71
11
72
12
73
4
0
VERTEX
8
OBJECT__22
10
0
20
0
30
0
70
128
71
9
72
10
73
4
0
VERTEX
8
OBJECT__22
10
0
20
0
30
0
70
128
71
7
72
8
73
4
0
VERTEX
8
OBJECT__22
10
0
20
0
30
0
70
128
71
5
72
6
73
4
0
VERTEX
8
OBJECT__22
10
0
20
0
30
0
70
128
71
3
72
4
73
1
0
SEQEND
8
OBJECT__22
0
POLYLINE
8
OBJECT__23
66
1
70
64
71
10
72
8
62
253
0
VERTEX
8
OBJECT__23
10
80.000000
20
-107.500000
30
-6.987000
70
192
0
VERTEX
8
OBJECT__23
10
80.000000
20
-107.500000
30
-31.000000
70
192
0
VERTEX
8
OBJECT__23
10
87.921997
20
-107.500000
30
-20.999001
70
192
0
VERTEX
8
OBJECT__23
10
87.972000
20
-107.500000
30
-11.002000
70
192
0
VERTEX
8
OBJECT__23
10
87.972000
20
-107.500000
30
-10.998000
70
192
0
VERTEX
8
OBJECT__23
10
87.889000
20
-107.500000
30
-25.112000
70
192
0
VERTEX
8
OBJECT__23
10
87.841003
20
-107.500000
30
-31.000000
70
192
0
VERTEX
8
OBJECT__23
10
80.000000
20
-107.500000
30
-4.330000
70
192
0
VERTEX
8
OBJECT__23
10
87.983002
20
-107.500000
30
-6.367000
70
192
0
VERTEX
8
OBJECT__23
10
87.987999
20
-107.500000
30
-4.330000
70
192
0
VERTEX
8
OBJECT__23
10
0
20
0
30
0
70
128
71
1
72
2
73
3
0
VERTEX
8
OBJECT__23
10
0
20
0
30
0
70
128
71
1
72
4
73
5
0
VERTEX
8
OBJECT__23
10
0
20
0
30
0
70
128
71
2
72
6
73
3
0
VERTEX
8
OBJECT__23
10
0
20
0
30
0
70
128
71
3
72
4
73
1
0
VERTEX
8
OBJECT__23
10
0
20
0
30
0
70
128
71
2
72
7
73
6
0
VERTEX
8
OBJECT__23
10
0
20
0
30
0
70
128
71
8
72
1
73
9
0
VERTEX
8
OBJECT__23
10
0
20
0
30
0
70
128
71
9
72
10
73
8
0
VERTEX
8
OBJECT__23
10
0
20
0
30
0
70
128
71
5
72
9
73
1
0
SEQEND
8
OBJECT__23
0
POLYLINE
8
OBJECT__24
66
1
70
64
71
5
72
3
62
253
0
VERTEX
8
OBJECT__24
10
80.000000
20
-107.500000
30
-31.000000
70
192
0
VERTEX
8
OBJECT__24
10
80.000000
20
-92.500000
30
-31.000000
70
192
0
VERTEX
8
OBJECT__24
10
87.841003
20
-100.000000
30
-31.000000
70
192
0
VERTEX
8
OBJECT__24
10
87.841003
20
-92.500000
30
-31.000000
70
192
0
VERTEX
8
OBJECT__24
10
87.841003
20
-107.500000
30
-31.000000
70
192
0
VERTEX
8
OBJECT__24
10
0
20
0
30
0
70
128
71
1
72
2
73
3
0
VERTEX
8
OBJECT__24
10
0
20
0
30
0
70
128
71
2
72
4
73
3
0
VERTEX
8
OBJECT__24
10
0
20
0
30
0
70
128
71
3
72
5
73
1
0
SEQEND
8
OBJECT__24
0
POLYLINE
8
OBJECT__25
66
1
70
64
71
7
72
5
62
253
0
VERTEX
8
OBJECT__25
10
80.000000
20
-107.500000
30
-31.000000
70
192
0
VERTEX
8
OBJECT__25
10
80.000000
20
-106.588997
30
-7.852000
70
192
0
VERTEX
8
OBJECT__25
10
80.000000
20
-100.000000
30
-10.250000
70
192
0
VERTEX
8
OBJECT__25
10
80.000000
20
-92.500000
30
-31.000000
70
192
0
VERTEX
8
OBJECT__25
10
80.000000
20
-93.411003
30
-7.852000
70
192
0
VERTEX
8
OBJECT__25
10
80.000000
20
-107.500000
30
-6.987000
70
192
0
VERTEX
8
OBJECT__25
10
80.000000
20
-92.500000
30
-6.987000
70
192
0
VERTEX
8
OBJECT__25
10
0
20
0
30
0
70
128
71
1
72
2
73
3
0
VERTEX
8
OBJECT__25
10
0
20
0
30
0
70
128
71
4
72
3
73
5
0
VERTEX
8
OBJECT__25
10
0
20
0
30
0
70
128
71
1
72
6
73
2
0
VERTEX
8
OBJECT__25
10
0
20
0
30
0
70
128
71
3
72
4
73
1
0
VERTEX
8
OBJECT__25
10
0
20
0
30
0
70
128
71
5
72
7
73
4
0
SEQEND
8
OBJECT__25
0
POLYLINE
8
OBJECT__26
66
1
70
64
71
25
72
25
62
253
0
VERTEX
8
OBJECT__26
10
60.500000
20
-96.494003
30
9.632000
70
192
0
VERTEX
8
OBJECT__26
10
80.000000
20
-96.494003
30
9.632000
70
192
0
VERTEX
8
OBJECT__26
10
80.000000
20
-91.123001
30
5.125000
70
192
0
VERTEX
8
OBJECT__26
10
60.500000
20
-103.505997
30
9.632000
70
192
0
VERTEX
8
OBJECT__26
10
80.000000
20
-102.301003
30
9.988000
70
192
0
VERTEX
8
OBJECT__26
10
80.000000
20
-103.505997
30
9.632000
70
192
0
VERTEX
8
OBJECT__26
10
80.000000
20
-97.698997
30
9.988000
70
192
0
VERTEX
8
OBJECT__26
10
60.500000
20
-108.876999
30
5.125000
70
192
0
VERTEX
8
OBJECT__26
10
80.000000
20
-108.876999
30
5.125000
70
192
0
VERTEX
8
OBJECT__26
10
60.500000
20
-110.094002
30
-1.780000
70
192
0
VERTEX
8
OBJECT__26
10
80.000000
20
-110.094002
30
-1.780000
70
192
0
VERTEX
8
OBJECT__26
10
80.000000
20
-107.500000
30
-6.987000
70
192
0
VERTEX
8
OBJECT__26
10
80.000000
20
-109.801003
30
-3.002000
70
192
0
VERTEX
8
OBJECT__26
10
60.500000
20
-108.876999
30
-5.125000
70
192
0
VERTEX
8
OBJECT__26
10
60.500000
20
-106.588997
30
-7.852000
70
192
0
VERTEX
8
OBJECT__26
10
80.000000
20
-106.588997
30
-7.852000
70
192
0
VERTEX
8
OBJECT__26
10
60.500000
20
-100.000000
30
-10.250000
70
192
0
VERTEX
8
OBJECT__26
10
80.000000
20
-100.000000
30
-10.250000
70
192
0
VERTEX
8
OBJECT__26
10
80.000000
20
-93.411003
30
-7.852000
70
192
0
VERTEX
8
OBJECT__26
10
60.500000
20
-93.411003
30
-7.852000
70
192
0
VERTEX
8
OBJECT__26
10
60.500000
20
-89.905998
30
-1.780000
70
192
0
VERTEX
8
OBJECT__26
10
80.000000
20
-90.198997
30
-3.002000
70
192
0
VERTEX
8
OBJECT__26
10
80.000000
20
-89.905998
30
-1.780000
70
192
0
VERTEX
8
OBJECT__26
10
80.000000
20
-92.500000
30
-6.987000
70
192
0
VERTEX
8
OBJECT__26
10
60.500000
20
-91.123001
30
5.125000
70
192
0
VERTEX
8
OBJECT__26
10
0
20
0
30
0
70
128
71
1
72
2
73
3
0
VERTEX
8
OBJECT__26
10
0
20
0
30
0
70
128
71
1
72
4
73
5
0
VERTEX
8
OBJECT__26
10
0
20
0
30
0
70
128
71
4
72
6
73
5
0
VERTEX
8
OBJECT__26
10
0
20
0
30
0
70
128
71
5
72
7
73
1
0
VERTEX
8
OBJECT__26
10
0
20
0
30
0
70
128
71
8
72
9
73
6
0
VERTEX
8
OBJECT__26
10
0
20
0
30
0
70
128
71
10
72
11
73
9
0
VERTEX
8
OBJECT__26
10
0
20
0
30
0
70
128
71
12
72
13
73
14
0
VERTEX
8
OBJECT__26
10
0
20
0
30
0
70
128
71
10
72
14
73
13
0
VERTEX
8
OBJECT__26
10
0
20
0
30
0
70
128
71
13
72
11
73
10
0
VERTEX
8
OBJECT__26
10
0
20
0
30
0
70
128
71
15
72
16
73
12
0
VERTEX
8
OBJECT__26
10
0
20
0
30
0
70
128
71
17
72
18
73
16
0
VERTEX
8
OBJECT__26
10
0
20
0
30
0
70
128
71
19
72
18
73
17
0
VERTEX
8
OBJECT__26
10
0
20
0
30
0
70
128
71
20
72
21
73
22
0
VERTEX
8
OBJECT__26
10
0
20
0
30
0
70
128
71
21
72
23
73
22
0
VERTEX
8
OBJECT__26
10
0
20
0
30
0
70
128
71
22
72
24
73
20
0
VERTEX
8
OBJECT__26
10
0
20
0
30
0
70
128
71
25
72
3
73
23
0
VERTEX
8
OBJECT__26
10
0
20
0
30
0
70
128
71
23
72
21
73
25
0
VERTEX
8
OBJECT__26
10
0
20
0
30
0
70
128
71
24
72
19
73
20
0
VERTEX
8
OBJECT__26
10
0
20
0
30
0
70
128
71
17
72
20
73
19
0
VERTEX
8
OBJECT__26
10
0
20
0
30
0
70
128
71
16
72
15
73
17
0
VERTEX
8
OBJECT__26
10
0
20
0
30
0
70
128
71
14
72
15
73
12
0
VERTEX
8
OBJECT__26
10
0
20
0
30
0
70
128
71
9
72
8
73
10
0
VERTEX
8
OBJECT__26
10
0
20
0
30
0
70
128
71
6
72
4
73
8
0
VERTEX
8
OBJECT__26
10
0
20
0
30
0
70
128
71
7
72
2
73
1
0
VERTEX
8
OBJECT__26
10
0
20
0
30
0
70
128
71
3
72
25
73
1
0
SEQEND
8
OBJECT__26
0
POLYLINE
8
OBJECT__27
66
1
70
64
71
10
72
8
62
253
0
VERTEX
8
OBJECT__27
10
80.000000
20
-92.500000
30
-31.000000
70
192
0
VERTEX
8
OBJECT__27
10
80.000000
20
-92.500000
30
-6.987000
70
192
0
VERTEX
8
OBJECT__27
10
87.943001
20
-92.500000
30
-17.665001
70
192
0
VERTEX
8
OBJECT__27
10
87.972000
20
-92.500000
30
-11.001000
70
192
0
VERTEX
8
OBJECT__27
10
87.983002
20
-92.500000
30
-6.367000
70
192
0
VERTEX
8
OBJECT__27
10
87.972000
20
-92.500000
30
-10.998000
70
192
0
VERTEX
8
OBJECT__27
10
80.000000
20
-92.500000
30
-4.330000
70
192
0
VERTEX
8
OBJECT__27
10
87.987999
20
-92.500000
30
-4.330000
70
192
0
VERTEX
8
OBJECT__27
10
87.879997
20
-92.500000
30
-25.905001
70
192
0
VERTEX
8
OBJECT__27
10
87.841003
20
-92.500000
30
-31.000000
70
192
0
VERTEX
8
OBJECT__27
10
0
20
0
30
0
70
128
71
1
72
2
73
3
0
VERTEX
8
OBJECT__27
10
0
20
0
30
0
70
128
71
2
72
4
73
3
0
VERTEX
8
OBJECT__27
10
0
20
0
30
0
70
128
71
2
72
5
73
6
0
VERTEX
8
OBJECT__27
10
0
20
0
30
0
70
128
71
6
72
4
73
2
0
VERTEX
8
OBJECT__27
10
0
20
0
30
0
70
128
71
7
72
8
73
5
0
VERTEX
8
OBJECT__27
10
0
20
0
30
0
70
128
71
3
72
9
73
1
0
VERTEX
8
OBJECT__27
10
0
20
0
30
0
70
128
71
9
72
10
73
1
0
VERTEX
8
OBJECT__27
10
0
20
0
30
0
70
128
71
5
72
2
73
7
0
SEQEND
8
OBJECT__27
0
POLYLINE
8
OBJECT__28
66
1
70
64
71
10
72
8
62
253
0
VERTEX
8
OBJECT__28
10
80.000000
20
-90.198997
30
-3.002000
70
192
0
VERTEX
8
OBJECT__28
10
80.000000
20
-69.403000
30
9.005000
70
192
0
VERTEX
8
OBJECT__28
10
87.921997
20
-78.064003
30
4.004000
70
192
0
VERTEX
8
OBJECT__28
10
80.000000
20
-92.500000
30
-4.330000
70
192
0
VERTEX
8
OBJECT__28
10
87.983002
20
-90.736000
30
-3.312000
70
192
0
VERTEX
8
OBJECT__28
10
87.972000
20
-86.722000
30
-0.994000
70
192
0
VERTEX
8
OBJECT__28
10
87.972000
20
-86.725998
30
-0.996000
70
192
0
VERTEX
8
OBJECT__28
10
87.889000
20
-74.501999
30
6.061000
70
192
0
VERTEX
8
OBJECT__28
10
87.841003
20
-69.403000
30
9.005000
70
192
0
VERTEX
8
OBJECT__28
10
87.987999
20
-92.500000
30
-4.330000
70
192
0
VERTEX
8
OBJECT__28
10
0
20
0
30
0
70
128
71
1
72
2
73
3
0
VERTEX
8
OBJECT__28
10
0
20
0
30
0
70
128
71
4
72
1
73
5
0
VERTEX
8
OBJECT__28
10
0
20
0
30
0
70
128
71
1
72
6
73
7
0
VERTEX
8
OBJECT__28
10
0
20
0
30
0
70
128
71
2
72
8
73
3
0
VERTEX
8
OBJECT__28
10
0
20
0
30
0
70
128
71
7
72
5
73
1
0
VERTEX
8
OBJECT__28
10
0
20
0
30
0
70
128
71
2
72
9
73
8
0
VERTEX
8
OBJECT__28
10
0
20
0
30
0
70
128
71
3
72
6
73
1
0
VERTEX
8
OBJECT__28
10
0
20
0
30
0
70
128
71
5
72
10
73
4
0
SEQEND
8
OBJECT__28
0
POLYLINE
8
OBJECT__29
66
1
70
64
71
3
72
1
62
253
0
VERTEX
8
OBJECT__29
10
80.000000
20
-90.198997
30
-3.002000
70
192
0
VERTEX
8
OBJECT__29
10
80.000000
20
-92.500000
30
-4.330000
70
192
0
VERTEX
8
OBJECT__29
10
80.000000
20
-92.500000
30
-6.987000
70
192
0
VERTEX
8
OBJECT__29
10
0
20
0
30
0
70
128
71
1
72
2
73
3
0
SEQEND
8
OBJECT__29
0
POLYLINE
8
OBJECT__30
66
1
70
64
71
20
72
20
62
253
0
VERTEX
8
OBJECT__30
10
60.500000
20
-87.139999
30
7.425000
70
192
0
VERTEX
8
OBJECT__30
10
60.500000
20
-93.195000
30
13.199000
70
192
0
VERTEX
8
OBJECT__30
10
60.500000
20
-95.179001
30
5.745000
70
192
0
VERTEX
8
OBJECT__30
10
60.500000
20
-101.412003
30
14.783000
70
192
0
VERTEX
8
OBJECT__30
10
60.500000
20
-100.000000
30
7.500000
70
192
0
VERTEX
8
OBJECT__30
10
60.500000
20
-109.180000
30
11.673000
70
192
0
VERTEX
8
OBJECT__30
10
60.500000
20
-104.820999
30
5.745000
70
192
0
VERTEX
8
OBJECT__30
10
60.500000
20
-87.903999
30
-8.614000
70
192
0
VERTEX
8
OBJECT__30
10
60.500000
20
-93.504997
30
-3.750000
70
192
0
VERTEX
8
OBJECT__30
10
60.500000
20
-97.434998
30
-7.048000
70
192
0
VERTEX
8
OBJECT__30
10
60.500000
20
-85.167000
30
-0.707000
70
192
0
VERTEX
8
OBJECT__30
10
60.500000
20
-92.613998
30
1.302000
70
192
0
VERTEX
8
OBJECT__30
10
60.500000
20
-102.809998
30
-14.582000
70
192
0
VERTEX
8
OBJECT__30
10
60.500000
20
-94.481003
30
-13.786000
70
192
0
VERTEX
8
OBJECT__30
10
60.500000
20
-114.431000
30
-3.501000
70
192
0
VERTEX
8
OBJECT__30
10
60.500000
20
-106.495003
30
-3.750000
70
192
0
VERTEX
8
OBJECT__30
10
60.500000
20
-107.386002
30
1.302000
70
192
0
VERTEX
8
OBJECT__30
10
60.500000
20
-114.032997
30
4.857000
70
192
0
VERTEX
8
OBJECT__30
10
60.500000
20
-110.248001
30
-10.747000
70
192
0
VERTEX
8
OBJECT__30
10
60.500000
20
-102.565002
30
-7.048000
70
192
0
VERTEX
8
OBJECT__30
10
0
20
0
30
0
70
128
71
1
72
2
73
3
0
VERTEX
8
OBJECT__30
10
0
20
0
30
0
70
128
71
2
72
4
73
5
0
VERTEX
8
OBJECT__30
10
0
20
0
30
0
70
128
71
4
72
6
73
7
0
VERTEX
8
OBJECT__30
10
0
20
0
30
0
70
128
71
8
72
9
73
10
0
VERTEX
8
OBJECT__30
10
0
20
0
30
0
70
128
71
11
72
12
73
9
0
VERTEX
8
OBJECT__30
10
0
20
0
30
0
70
128
71
12
72
11
73
1
0
VERTEX
8
OBJECT__30
10
0
20
0
30
0
70
128
71
7
72
5
73
4
0
VERTEX
8
OBJECT__30
10
0
20
0
30
0
70
128
71
9
72
8
73
11
0
VERTEX
8
OBJECT__30
10
0
20
0
30
0
70
128
71
5
72
3
73
2
0
VERTEX
8
OBJECT__30
10
0
20
0
30
0
70
128
71
13
72
14
73
10
0
VERTEX
8
OBJECT__30
10
0
20
0
30
0
70
128
71
3
72
12
73
1
0
VERTEX
8
OBJECT__30
10
0
20
0
30
0
70
128
71
15
72
16
73
17
0
VERTEX
8
OBJECT__30
10
0
20
0
30
0
70
128
71
10
72
14
73
8
0
VERTEX
8
OBJECT__30
10
0
20
0
30
0
70
128
71
18
72
17
73
7
0
VERTEX
8
OBJECT__30
10
0
20
0
30
0
70
128
71
17
72
18
73
15
0
VERTEX
8
OBJECT__30
10
0
20
0
30
0
70
128
71
19
72
13
73
20
0
VERTEX
8
OBJECT__30
10
0
20
0
30
0
70
128
71
7
72
6
73
18
0
VERTEX
8
OBJECT__30
10
0
20
0
30
0
70
128
71
20
72
16
73
19
0
VERTEX
8
OBJECT__30
10
0
20
0
30
0
70
128
71
15
72
19
73
16
0
VERTEX
8
OBJECT__30
10
0
20
0
30
0
70
128
71
10
72
20
73
13
0
SEQEND
8
OBJECT__30
0
POLYLINE
8
OBJECT__31
66
1
70
64
71
23
72
23
62
253
0
VERTEX
8
OBJECT__31
10
60.500000
20
-87.139999
30
7.425000
70
192
0
VERTEX
8
OBJECT__31
10
60.500000
20
-85.167000
30
-0.707000
70
192
0
VERTEX
8
OBJECT__31
10
38.500000
20
-85.167000
30
-0.707000
70
192
0
VERTEX
8
OBJECT__31
10
38.500000
20
-87.903999
30
-8.614000
70
192
0
VERTEX
8
OBJECT__31
10
38.500000
20
-94.481003
30
-13.786000
70
192
0
VERTEX
8
OBJECT__31
10
60.500000
20
-87.903999
30
-8.614000
70
192
0
VERTEX
8
OBJECT__31
10
60.500000
20
-102.809998
30
-14.582000
70
192
0
VERTEX
8
OBJECT__31
10
38.500000
20
-102.809998
30
-14.582000
70
192
0
VERTEX
8
OBJECT__31
10
60.500000
20
-110.248001
30
-10.747000
70
192
0
VERTEX
8
OBJECT__31
10
38.500000
20
-110.248001
30
-10.747000
70
192
0
VERTEX
8
OBJECT__31
10
60.500000
20
-114.431000
30
-3.501000
70
192
0
VERTEX
8
OBJECT__31
10
38.500000
20
-114.431000
30
-3.501000
70
192
0
VERTEX
8
OBJECT__31
10
38.500000
20
-112.860001
30
-7.425000
70
192
0
VERTEX
8
OBJECT__31
10
60.500000
20
-114.032997
30
4.857000
70
192
0
VERTEX
8
OBJECT__31
10
38.500000
20
-114.032997
30
4.857000
70
192
0
VERTEX
8
OBJECT__31
10
60.500000
20
-109.180000
30
11.673000
70
192
0
VERTEX
8
OBJECT__31
10
38.500000
20
-109.180000
30
11.673000
70
192
0
VERTEX
8
OBJECT__31
10
60.500000
20
-101.412003
30
14.783000
70
192
0
VERTEX
8
OBJECT__31
10
38.500000
20
-101.412003
30
14.783000
70
192
0
VERTEX
8
OBJECT__31
10
60.500000
20
-93.195000
30
13.199000
70
192
0
VERTEX
8
OBJECT__31
10
38.500000
20
-93.195000
30
13.199000
70
192
0
VERTEX
8
OBJECT__31
10
38.500000
20
-87.139999
30
7.425000
70
192
0
VERTEX
8
OBJECT__31
10
60.500000
20
-94.481003
30
-13.786000
70
192
0
VERTEX
8
OBJECT__31
10
0
20
0
30
0
70
128
71
1
72
2
73
3
0
VERTEX
8
OBJECT__31
10
0
20
0
30
0
70
128
71
4
72
3
73
2
0
VERTEX
8
OBJECT__31
10
0
20
0
30
0
70
128
71
5
72
4
73
6
0
VERTEX
8
OBJECT__31
10
0
20
0
30
0
70
128
71
7
72
8
73
5
0
VERTEX
8
OBJECT__31
10
0
20
0
30
0
70
128
71
9
72
10
73
8
0
VERTEX
8
OBJECT__31
10
0
20
0
30
0
70
128
71
11
72
12
73
13
0
VERTEX
8
OBJECT__31
10
0
20
0
30
0
70
128
71
13
72
9
73
11
0
VERTEX
8
OBJECT__31
10
0
20
0
30
0
70
128
71
14
72
15
73
12
0
VERTEX
8
OBJECT__31
10
0
20
0
30
0
70
128
71
16
72
17
73
15
0
VERTEX
8
OBJECT__31
10
0
20
0
30
0
70
128
71
16
72
18
73
19
0
VERTEX
8
OBJECT__31
10
0
20
0
30
0
70
128
71
20
72
21
73
19
0
VERTEX
8
OBJECT__31
10
0
20
0
30
0
70
128
71
1
72
22
73
21
0
VERTEX
8
OBJECT__31
10
0
20
0
30
0
70
128
71
21
72
20
73
1
0
VERTEX
8
OBJECT__31
10
0
20
0
30
0
70
128
71
19
72
18
73
20
0
VERTEX
8
OBJECT__31
10
0
20
0
30
0
70
128
71
19
72
17
73
16
0
VERTEX
8
OBJECT__31
10
0
20
0
30
0
70
128
71
15
72
14
73
16
0
VERTEX
8
OBJECT__31
10
0
20
0
30
0
70
128
71
12
72
11
73
14
0
VERTEX
8
OBJECT__31
10
0
20
0
30
0
70
128
71
13
72
10
73
9
0
VERTEX
8
OBJECT__31
10
0
20
0
30
0
70
128
71
8
72
7
73
9
0
VERTEX
8
OBJECT__31
10
0
20
0
30
0
70
128
71
5
72
23
73
7
0
VERTEX
8
OBJECT__31
10
0
20
0
30
0
70
128
71
6
72
23
73
5
0
VERTEX
8
OBJECT__31
10
0
20
0
30
0
70
128
71
2
72
6
73
4
0
VERTEX
8
OBJECT__31
10
0
20
0
30
0
70
128
71
3
72
22
73
1
0
SEQEND
8
OBJECT__31
0
POLYLINE
8
OBJECT__33
66
1
70
64
71
3
72
1
62
253
0
VERTEX
8
OBJECT__33
10
80.000000
20
100.000000
30
8.660000
70
192
0
VERTEX
8
OBJECT__33
10
80.000000
20
102.301003
30
9.988000
70
192
0
VERTEX
8
OBJECT__33
10
80.000000
20
97.698997
30
9.988000
70
192
0
VERTEX
8
OBJECT__33
10
0
20
0
30
0
70
128
71
1
72
2
73
3
0
SEQEND
8
OBJECT__33
0
POLYLINE
8
OBJECT__34
66
1
70
64
71
10
72
8
62
253
0
VERTEX
8
OBJECT__34
10
80.000000
20
123.097000
30
21.995001
70
192
0
VERTEX
8
OBJECT__34
10
80.000000
20
102.301003
30
9.988000
70
192
0
VERTEX
8
OBJECT__34
10
87.943001
20
111.549004
30
15.328000
70
192
0
VERTEX
8
OBJECT__34
10
87.972000
20
105.778000
30
11.996000
70
192
0
VERTEX
8
OBJECT__34
10
87.983002
20
101.764000
30
9.678000
70
192
0
VERTEX
8
OBJECT__34
10
87.972000
20
105.774002
30
11.994000
70
192
0
VERTEX
8
OBJECT__34
10
80.000000
20
100.000000
30
8.660000
70
192
0
VERTEX
8
OBJECT__34
10
87.987999
20
100.000000
30
8.660000
70
192
0
VERTEX
8
OBJECT__34
10
87.879997
20
118.683998
30
19.448000
70
192
0
VERTEX
8
OBJECT__34
10
87.841003
20
123.097000
30
21.995001
70
192
0
VERTEX
8
OBJECT__34
10
0
20
0
30
0
70
128
71
1
72
2
73
3
0
VERTEX
8
OBJECT__34
10
0
20
0
30
0
70
128
71
2
72
4
73
3
0
VERTEX
8
OBJECT__34
10
0
20
0
30
0
70
128
71
2
72
5
73
6
0
VERTEX
8
OBJECT__34
10
0
20
0
30
0
70
128
71
6
72
4
73
2
0
VERTEX
8
OBJECT__34
10
0
20
0
30
0
70
128
71
7
72
8
73
5
0
VERTEX
8
OBJECT__34
10
0
20
0
30
0
70
128
71
3
72
9
73
1
0
VERTEX
8
OBJECT__34
10
0
20
0
30
0
70
128
71
9
72
10
73
1
0
VERTEX
8
OBJECT__34
10
0
20
0
30
0
70
128
71
5
72
2
73
7
0
SEQEND
8
OBJECT__34
0
POLYLINE
8
OBJECT__36
66
1
70
64
71
5
72
3
62
253
0
VERTEX
8
OBJECT__36
10
80.000000
20
123.097000
30
21.995001
70
192
0
VERTEX
8
OBJECT__36
10
87.841003
20
123.097000
30
21.995001
70
192
0
VERTEX
8
OBJECT__36
10
87.841003
20
126.847000
30
15.500000
70
192
0
VERTEX
8
OBJECT__36
10
80.000000
20
130.597000
30
9.005000
70
192
0
VERTEX
8
OBJECT__36
10
87.841003
20
130.597000
30
9.005000
70
192
0
VERTEX
8
OBJECT__36
10
0
20
0
30
0
70
128
71
1
72
2
73
3
0
VERTEX
8
OBJECT__36
10
0
20
0
30
0
70
128
71
3
72
4
73
1
0
VERTEX
8
OBJECT__36
10
0
20
0
30
0
70
128
71
3
72
5
73
4
0
SEQEND
8
OBJECT__36
0
POLYLINE
8
OBJECT__37
66
1
70
64
71
7
72
5
62
253
0
VERTEX
8
OBJECT__37
10
80.000000
20
130.597000
30
9.005000
70
192
0
VERTEX
8
OBJECT__37
10
80.000000
20
110.094002
30
-1.780000
70
192
0
VERTEX
8
OBJECT__37
10
80.000000
20
108.876999
30
5.125000
70
192
0
VERTEX
8
OBJECT__37
10
80.000000
20
123.097000
30
21.995001
70
192
0
VERTEX
8
OBJECT__37
10
80.000000
20
103.505997
30
9.632000
70
192
0
VERTEX
8
OBJECT__37
10
80.000000
20
109.801003
30
-3.002000
70
192
0
VERTEX
8
OBJECT__37
10
80.000000
20
102.301003
30
9.988000
70
192
0
VERTEX
8
OBJECT__37
10
0
20
0
30
0
70
128
71
1
72
2
73
3
0
VERTEX
8
OBJECT__37
10
0
20
0
30
0
70
128
71
4
72
3
73
5
0
VERTEX
8
OBJECT__37
10
0
20
0
30
0
70
128
71
1
72
6
73
2
0
VERTEX
8
OBJECT__37
10
0
20
0
30
0
70
128
71
3
72
4
73
1
0
VERTEX
8
OBJECT__37
10
0
20
0
30
0
70
128
71
5
72
7
73
4
0
SEQEND
8
OBJECT__37
0
POLYLINE
8
OBJECT__38
66
1
70
64
71
10
72
8
62
253
0
VERTEX
8
OBJECT__38
10
80.000000
20
97.698997
30
9.988000
70
192
0
VERTEX
8
OBJECT__38
10
80.000000
20
76.903000
30
21.995001
70
192
0
VERTEX
8
OBJECT__38
10
87.921997
20
85.564003
30
16.995001
70
192
0
VERTEX
8
OBJECT__38
10
80.000000
20
100.000000
30
8.660000
70
192
0
VERTEX
8
OBJECT__38
10
87.983002
20
98.236000
30
9.678000
70
192
0
VERTEX
8
OBJECT__38
10
87.972000
20
94.222000
30
11.996000
70
192
0
VERTEX
8
OBJECT__38
10
87.972000
20
94.225998
30
11.994000
70
192
0
VERTEX
8
OBJECT__38
10
87.889000
20
82.001999
30
19.051001
70
192
0
VERTEX
8
OBJECT__38
10
87.841003
20
76.903000
30
21.995001
70
192
0
VERTEX
8
OBJECT__38
10
87.987999
20
100.000000
30
8.660000
70
192
0
VERTEX
8
OBJECT__38
10
0
20
0
30
0
70
128
71
1
72
2
73
3
0
VERTEX
8
OBJECT__38
10
0
20
0
30
0
70
128
71
4
72
1
73
5
0
VERTEX
8
OBJECT__38
10
0
20
0
30
0
70
128
71
1
72
6
73
7
0
VERTEX
8
OBJECT__38
10
0
20
0
30
0
70
128
71
2
72
8
73
3
0
VERTEX
8
OBJECT__38
10
0
20
0
30
0
70
128
71
7
72
5
73
1
0
VERTEX
8
OBJECT__38
10
0
20
0
30
0
70
128
71
2
72
9
73
8
0
VERTEX
8
OBJECT__38
10
0
20
0
30
0
70
128
71
3
72
6
73
1
0
VERTEX
8
OBJECT__38
10
0
20
0
30
0
70
128
71
5
72
10
73
4
0
SEQEND
8
OBJECT__38
0
POLYLINE
8
OBJECT__39
66
1
70
64
71
5
72
3
62
253
0
VERTEX
8
OBJECT__39
10
80.000000
20
76.903000
30
21.995001
70
192
0
VERTEX
8
OBJECT__39
10
80.000000
20
69.403000
30
9.005000
70
192
0
VERTEX
8
OBJECT__39
10
87.841003
20
73.153000
30
15.500000
70
192
0
VERTEX
8
OBJECT__39
10
87.841003
20
69.403000
30
9.005000
70
192
0
VERTEX
8
OBJECT__39
10
87.841003
20
76.903000
30
21.995001
70
192
0
VERTEX
8
OBJECT__39
10
0
20
0
30
0
70
128
71
1
72
2
73
3
0
VERTEX
8
OBJECT__39
10
0
20
0
30
0
70
128
71
2
72
4
73
3
0
VERTEX
8
OBJECT__39
10
0
20
0
30
0
70
128
71
3
72
5
73
1
0
SEQEND
8
OBJECT__39
0
POLYLINE
8
OBJECT__40
66
1
70
64
71
7
72
5
62
253
0
VERTEX
8
OBJECT__40
10
80.000000
20
76.903000
30
21.995001
70
192
0
VERTEX
8
OBJECT__40
10
80.000000
20
96.494003
30
9.632000
70
192
0
VERTEX
8
OBJECT__40
10
80.000000
20
91.123001
30
5.125000
70
192
0
VERTEX
8
OBJECT__40
10
80.000000
20
69.403000
30
9.005000
70
192
0
VERTEX
8
OBJECT__40
10
80.000000
20
89.905998
30
-1.780000
70
192
0
VERTEX
8
OBJECT__40
10
80.000000
20
97.698997
30
9.988000
70
192
0
VERTEX
8
OBJECT__40
10
80.000000
20
90.198997
30
-3.002000
70
192
0
VERTEX
8
OBJECT__40
10
0
20
0
30
0
70
128
71
1
72
2
73
3
0
VERTEX
8
OBJECT__40
10
0
20
0
30
0
70
128
71
4
72
3
73
5
0
VERTEX
8
OBJECT__40
10
0
20
0
30
0
70
128
71
1
72
6
73
2
0
VERTEX
8
OBJECT__40
10
0
20
0
30
0
70
128
71
3
72
4
73
1
0
VERTEX
8
OBJECT__40
10
0
20
0
30
0
70
128
71
5
72
7
73
4
0
SEQEND
8
OBJECT__40
0
POLYLINE
8
OBJECT__41
66
1
70
64
71
10
72
8
62
253
0
VERTEX
8
OBJECT__41
10
80.000000
20
69.403000
30
9.005000
70
192
0
VERTEX
8
OBJECT__41
10
80.000000
20
90.198997
30
-3.002000
70
192
0
VERTEX
8
OBJECT__41
10
87.943001
20
80.950996
30
2.337000
70
192
0
VERTEX
8
OBJECT__41
10
87.972000
20
86.722000
30
-0.994000
70
192
0
VERTEX
8
OBJECT__41
10
87.983002
20
90.736000
30
-3.312000
70
192
0
VERTEX
8
OBJECT__41
10
87.972000
20
86.725998
30
-0.996000
70
192
0
VERTEX
8
OBJECT__41
10
80.000000
20
92.500000
30
-4.330000
70
192
0
VERTEX
8
OBJECT__41
10
87.987999
20
92.500000
30
-4.330000
70
192
0
VERTEX
8
OBJECT__41
10
87.879997
20
73.816002
30
6.457000
70
192
0
VERTEX
8
OBJECT__41
10
87.841003
20
69.403000
30
9.005000
70
192
0
VERTEX
8
OBJECT__41
10
0
20
0
30
0
70
128
71
1
72
2
73
3
0
VERTEX
8
OBJECT__41
10
0
20
0
30
0
70
128
71
2
72
4
73
3
0
VERTEX
8
OBJECT__41
10
0
20
0
30
0
70
128
71
2
72
5
73
6
0
VERTEX
8
OBJECT__41
10
0
20
0
30
0
70
128
71
7
72
8
73
5
0
VERTEX
8
OBJECT__41
10
0
20
0
30
0
70
128
71
3
72
9
73
1
0
VERTEX
8
OBJECT__41
10
0
20
0
30
0
70
128
71
5
72
2
73
7
0
VERTEX
8
OBJECT__41
10
0
20
0
30
0
70
128
71
6
72
4
73
2
0
VERTEX
8
OBJECT__41
10
0
20
0
30
0
70
128
71
9
72
10
73
1
0
SEQEND
8
OBJECT__41
0
POLYLINE
8
OBJECT__42
66
1
70
64
71
3
72
1
62
253
0
VERTEX
8
OBJECT__42
10
80.000000
20
92.500000
30
-6.987000
70
192
0
VERTEX
8
OBJECT__42
10
80.000000
20
92.500000
30
-4.330000
70
192
0
VERTEX
8
OBJECT__42
10
80.000000
20
90.198997
30
-3.002000
70
192
0
VERTEX
8
OBJECT__42
10
0
20
0
30
0
70
128
71
1
72
2
73
3
0
SEQEND
8
OBJECT__42
0
POLYLINE
8
OBJECT__43
66
1
70
64
71
43
72
42
62
253
0
VERTEX
8
OBJECT__43
10
87.841003
20
126.847000
30
15.500000
70
192
0
VERTEX
8
OBJECT__43
10
87.841003
20
123.097000
30
21.995001
70
192
0
VERTEX
8
OBJECT__43
10
87.879997
20
118.683998
30
19.448000
70
192
0
VERTEX
8
OBJECT__43
10
88.000000
20
100.000000
30
0.000000
70
192
0
VERTEX
8
OBJECT__43
10
87.943001
20
111.549004
30
15.328000
70
192
0
VERTEX
8
OBJECT__43
10
87.972000
20
105.778000
30
11.996000
70
192
0
VERTEX
8
OBJECT__43
10
87.972000
20
105.774002
30
11.994000
70
192
0
VERTEX
8
OBJECT__43
10
87.983002
20
101.764000
30
9.678000
70
192
0
VERTEX
8
OBJECT__43
10
87.987999
20
100.000000
30
8.660000
70
192
0
VERTEX
8
OBJECT__43
10
87.983002
20
98.236000
30
9.678000
70
192
0
VERTEX
8
OBJECT__43
10
87.972000
20
94.225998
30
11.994000
70
192
0
VERTEX
8
OBJECT__43
10
87.972000
20
94.222000
30
11.996000
70
192
0
VERTEX
8
OBJECT__43
10
87.921997
20
85.564003
30
16.995001
70
192
0
VERTEX
8
OBJECT__43
10
87.841003
20
73.153000
30
15.500000
70
192
0
VERTEX
8
OBJECT__43
10
87.889000
20
82.001999
30
19.051001
70
192
0
VERTEX
8
OBJECT__43
10
87.841003
20
69.403000
30
9.005000
70
192
0
VERTEX
8
OBJECT__43
10
87.879997
20
73.816002
30
6.457000
70
192
0
VERTEX
8
OBJECT__43
10
87.943001
20
80.950996
30
2.337000
70
192
0
VERTEX
8
OBJECT__43
10
87.972000
20
86.722000
30
-0.994000
70
192
0
VERTEX
8
OBJECT__43
10
87.972000
20
86.725998
30
-0.996000
70
192
0
VERTEX
8
OBJECT__43
10
87.983002
20
90.736000
30
-3.312000
70
192
0
VERTEX
8
OBJECT__43
10
87.987999
20
92.500000
30
-4.330000
70
192
0
VERTEX
8
OBJECT__43
10
87.983002
20
92.500000
30
-6.367000
70
192
0
VERTEX
8
OBJECT__43
10
87.972000
20
92.500000
30
-10.998000
70
192
0
VERTEX
8
OBJECT__43
10
87.972000
20
92.500000
30
-11.002000
70
192
0
VERTEX
8
OBJECT__43
10
87.921997
20
92.500000
30
-20.999001
70
192
0
VERTEX
8
OBJECT__43
10
87.841003
20
100.000000
30
-31.000000
70
192
0
VERTEX
8
OBJECT__43
10
87.889000
20
92.500000
30
-25.112000
70
192
0
VERTEX
8
OBJECT__43
10
87.841003
20
107.500000
30
-31.000000
70
192
0
VERTEX
8
OBJECT__43
10
87.879997
20
107.500000
30
-25.905001
70
192
0
VERTEX
8
OBJECT__43
10
87.943001
20
107.500000
30
-17.665001
70
192
0
VERTEX
8
OBJECT__43
10
87.972000
20
107.500000
30
-11.001000
70
192
0
VERTEX
8
OBJECT__43
10
87.972000
20
107.500000
30
-10.998000
70
192
0
VERTEX
8
OBJECT__43
10
87.983002
20
107.500000
30
-6.367000
70
192
0
VERTEX
8
OBJECT__43
10
87.987999
20
107.500000
30
-4.330000
70
192
0
VERTEX
8
OBJECT__43
10
87.983002
20
109.264000
30
-3.312000
70
192
0
VERTEX
8
OBJECT__43
10
87.972000
20
113.274002
30
-0.996000
70
192
0
VERTEX
8
OBJECT__43
10
87.972000
20
113.278000
30
-0.994000
70
192
0
VERTEX
8
OBJECT__43
10
87.921997
20
121.935997
30
4.004000
70
192
0
VERTEX
8
OBJECT__43
10
87.889000
20
125.498001
30
6.061000
70
192
0
VERTEX
8
OBJECT__43
10
87.841003
20
130.597000
30
9.005000
70
192
0
VERTEX
8
OBJECT__43
10
87.841003
20
92.500000
30
-31.000000
70
192
0
VERTEX
8
OBJECT__43
10
87.841003
20
76.903000
30
21.995001
70
192
0
VERTEX
8
OBJECT__43
10
0
20
0
30
0
70
128
71
1
72
2
73
3
0
VERTEX
8
OBJECT__43
10
0
20
0
30
0
70
128
71
4
72
3
73
5
0
VERTEX
8
OBJECT__43
10
0
20
0
30
0
70
128
71
4
72
6
73
7
0
VERTEX
8
OBJECT__43
10
0
20
0
30
0
70
128
71
4
72
8
73
9
0
VERTEX
8
OBJECT__43
10
0
20
0
30
0
70
128
71
4
72
10
73
11
0
VERTEX
8
OBJECT__43
10
0
20
0
30
0
70
128
71
4
72
12
73
13
0
VERTEX
8
OBJECT__43
10
0
20
0
30
0
70
128
71
14
72
4
73
15
0
VERTEX
8
OBJECT__43
10
0
20
0
30
0
70
128
71
14
72
16
73
17
0
VERTEX
8
OBJECT__43
10
0
20
0
30
0
70
128
71
4
72
17
73
18
0
VERTEX
8
OBJECT__43
10
0
20
0
30
0
70
128
71
4
72
19
73
20
0
VERTEX
8
OBJECT__43
10
0
20
0
30
0
70
128
71
4
72
21
73
22
0
VERTEX
8
OBJECT__43
10
0
20
0
30
0
70
128
71
4
72
23
73
24
0
VERTEX
8
OBJECT__43
10
0
20
0
30
0
70
128
71
4
72
25
73
26
0
VERTEX
8
OBJECT__43
10
0
20
0
30
0
70
128
71
27
72
4
73
28
0
VERTEX
8
OBJECT__43
10
0
20
0
30
0
70
128
71
27
72
29
73
30
0
VERTEX
8
OBJECT__43
10
0
20
0
30
0
70
128
71
4
72
30
73
31
0
VERTEX
8
OBJECT__43
10
0
20
0
30
0
70
128
71
4
72
32
73
33
0
VERTEX
8
OBJECT__43
10
0
20
0
30
0
70
128
71
4
72
34
73
35
0
VERTEX
8
OBJECT__43
10
0
20
0
30
0
70
128
71
4
72
36
73
37
0
VERTEX
8
OBJECT__43
10
0
20
0
30
0
70
128
71
4
72
38
73
39
0
VERTEX
8
OBJECT__43
10
0
20
0
30
0
70
128
71
1
72
4
73
40
0
VERTEX
8
OBJECT__43
10
0
20
0
30
0
70
128
71
40
72
41
73
1
0
VERTEX
8
OBJECT__43
10
0
20
0
30
0
70
128
71
39
72
40
73
4
0
VERTEX
8
OBJECT__43
10
0
20
0
30
0
70
128
71
37
72
38
73
4
0
VERTEX
8
OBJECT__43
10
0
20
0
30
0
70
128
71
35
72
36
73
4
0
VERTEX
8
OBJECT__43
10
0
20
0
30
0
70
128
71
33
72
34
73
4
0
VERTEX
8
OBJECT__43
10
0
20
0
30
0
70
128
71
31
72
32
73
4
0
VERTEX
8
OBJECT__43
10
0
20
0
30
0
70
128
71
30
72
4
73
27
0
VERTEX
8
OBJECT__43
10
0
20
0
30
0
70
128
71
28
72
42
73
27
0
VERTEX
8
OBJECT__43
10
0
20
0
30
0
70
128
71
26
72
28
73
4
0
VERTEX
8
OBJECT__43
10
0
20
0
30
0
70
128
71
24
72
25
73
4
0
VERTEX
8
OBJECT__43
10
0
20
0
30
0
70
128
71
22
72
23
73
4
0
VERTEX
8
OBJECT__43
10
0
20
0
30
0
70
128
71
20
72
21
73
4
0
VERTEX
8
OBJECT__43
10
0
20
0
30
0
70
128
71
18
72
19
73
4
0
VERTEX
8
OBJECT__43
10
0
20
0
30
0
70
128
71
17
72
4
73
14
0
VERTEX
8
OBJECT__43
10
0
20
0
30
0
70
128
71
15
72
43
73
14
0
VERTEX
8
OBJECT__43
10
0
20
0
30
0
70
128
71
13
72
15
73
4
0
VERTEX
8
OBJECT__43
10
0
20
0
30
0
70
128
71
11
72
12
73
4
0
VERTEX
8
OBJECT__43
10
0
20
0
30
0
70
128
71
9
72
10
73
4
0
VERTEX
8
OBJECT__43
10
0
20
0
30
0
70
128
71
7
72
8
73
4
0
VERTEX
8
OBJECT__43
10
0
20
0
30
0
70
128
71
5
72
6
73
4
0
VERTEX
8
OBJECT__43
10
0
20
0
30
0
70
128
71
3
72
4
73
1
0
SEQEND
8
OBJECT__43
0
POLYLINE
8
OBJECT__44
66
1
70
64
71
10
72
8
62
253
0
VERTEX
8
OBJECT__44
10
80.000000
20
92.500000
30
-6.987000
70
192
0
VERTEX
8
OBJECT__44
10
80.000000
20
92.500000
30
-31.000000
70
192
0
VERTEX
8
OBJECT__44
10
87.921997
20
92.500000
30
-20.999001
70
192
0
VERTEX
8
OBJECT__44
10
87.889000
20
92.500000
30
-25.112000
70
192
0
VERTEX
8
OBJECT__44
10
87.972000
20
92.500000
30
-11.002000
70
192
0
VERTEX
8
OBJECT__44
10
87.972000
20
92.500000
30
-10.998000
70
192
0
VERTEX
8
OBJECT__44
10
87.841003
20
92.500000
30
-31.000000
70
192
0
VERTEX
8
OBJECT__44
10
80.000000
20
92.500000
30
-4.330000
70
192
0
VERTEX
8
OBJECT__44
10
87.983002
20
92.500000
30
-6.367000
70
192
0
VERTEX
8
OBJECT__44
10
87.987999
20
92.500000
30
-4.330000
70
192
0
VERTEX
8
OBJECT__44
10
0
20
0
30
0
70
128
71
1
72
2
73
3
0
VERTEX
8
OBJECT__44
10
0
20
0
30
0
70
128
71
2
72
4
73
3
0
VERTEX
8
OBJECT__44
10
0
20
0
30
0
70
128
71
1
72
5
73
6
0
VERTEX
8
OBJECT__44
10
0
20
0
30
0
70
128
71
2
72
7
73
4
0
VERTEX
8
OBJECT__44
10
0
20
0
30
0
70
128
71
3
72
5
73
1
0
VERTEX
8
OBJECT__44
10
0
20
0
30
0
70
128
71
8
72
1
73
9
0
VERTEX
8
OBJECT__44
10
0
20
0
30
0
70
128
71
9
72
10
73
8
0
VERTEX
8
OBJECT__44
10
0
20
0
30
0
70
128
71
6
72
9
73
1
0
SEQEND
8
OBJECT__44
0
POLYLINE
8
OBJECT__45
66
1
70
64
71
5
72
3
62
253
0
VERTEX
8
OBJECT__45
10
80.000000
20
92.500000
30
-31.000000
70
192
0
VERTEX
8
OBJECT__45
10
80.000000
20
107.500000
30
-31.000000
70
192
0
VERTEX
8
OBJECT__45
10
87.841003
20
100.000000
30
-31.000000
70
192
0
VERTEX
8
OBJECT__45
10
87.841003
20
107.500000
30
-31.000000
70
192
0
VERTEX
8
OBJECT__45
10
87.841003
20
92.500000
30
-31.000000
70
192
0
VERTEX
8
OBJECT__45
10
0
20
0
30
0
70
128
71
1
72
2
73
3
0
VERTEX
8
OBJECT__45
10
0
20
0
30
0
70
128
71
2
72
4
73
3
0
VERTEX
8
OBJECT__45
10
0
20
0
30
0
70
128
71
3
72
5
73
1
0
SEQEND
8
OBJECT__45
0
POLYLINE
8
OBJECT__46
66
1
70
64
71
7
72
5
62
253
0
VERTEX
8
OBJECT__46
10
80.000000
20
92.500000
30
-31.000000
70
192
0
VERTEX
8
OBJECT__46
10
80.000000
20
93.411003
30
-7.852000
70
192
0
VERTEX
8
OBJECT__46
10
80.000000
20
100.000000
30
-10.250000
70
192
0
VERTEX
8
OBJECT__46
10
80.000000
20
107.500000
30
-31.000000
70
192
0
VERTEX
8
OBJECT__46
10
80.000000
20
106.588997
30
-7.852000
70
192
0
VERTEX
8
OBJECT__46
10
80.000000
20
92.500000
30
-6.987000
70
192
0
VERTEX
8
OBJECT__46
10
80.000000
20
107.500000
30
-6.987000
70
192
0
VERTEX
8
OBJECT__46
10
0
20
0
30
0
70
128
71
1
72
2
73
3
0
VERTEX
8
OBJECT__46
10
0
20
0
30
0
70
128
71
4
72
3
73
5
0
VERTEX
8
OBJECT__46
10
0
20
0
30
0
70
128
71
1
72
6
73
2
0
VERTEX
8
OBJECT__46
10
0
20
0
30
0
70
128
71
3
72
4
73
1
0
VERTEX
8
OBJECT__46
10
0
20
0
30
0
70
128
71
5
72
7
73
4
0
SEQEND
8
OBJECT__46
0
POLYLINE
8
OBJECT__47
66
1
70
64
71
25
72
25
62
253
0
VERTEX
8
OBJECT__47
10
80.000000
20
108.876999
30
5.125000
70
192
0
VERTEX
8
OBJECT__47
10
60.500000
20
108.876999
30
5.125000
70
192
0
VERTEX
8
OBJECT__47
10
60.500000
20
103.505997
30
9.632000
70
192
0
VERTEX
8
OBJECT__47
10
60.500000
20
96.494003
30
9.632000
70
192
0
VERTEX
8
OBJECT__47
10
80.000000
20
97.698997
30
9.988000
70
192
0
VERTEX
8
OBJECT__47
10
80.000000
20
96.494003
30
9.632000
70
192
0
VERTEX
8
OBJECT__47
10
80.000000
20
102.301003
30
9.988000
70
192
0
VERTEX
8
OBJECT__47
10
80.000000
20
91.123001
30
5.125000
70
192
0
VERTEX
8
OBJECT__47
10
60.500000
20
91.123001
30
5.125000
70
192
0
VERTEX
8
OBJECT__47
10
60.500000
20
89.905998
30
-1.780000
70
192
0
VERTEX
8
OBJECT__47
10
80.000000
20
89.905998
30
-1.780000
70
192
0
VERTEX
8
OBJECT__47
10
60.500000
20
93.411003
30
-7.852000
70
192
0
VERTEX
8
OBJECT__47
10
80.000000
20
93.411003
30
-7.852000
70
192
0
VERTEX
8
OBJECT__47
10
80.000000
20
92.500000
30
-6.987000
70
192
0
VERTEX
8
OBJECT__47
10
80.000000
20
90.198997
30
-3.002000
70
192
0
VERTEX
8
OBJECT__47
10
60.500000
20
91.123001
30
-5.125000
70
192
0
VERTEX
8
OBJECT__47
10
80.000000
20
100.000000
30
-10.250000
70
192
0
VERTEX
8
OBJECT__47
10
60.500000
20
106.588997
30
-7.852000
70
192
0
VERTEX
8
OBJECT__47
10
80.000000
20
106.588997
30
-7.852000
70
192
0
VERTEX
8
OBJECT__47
10
60.500000
20
110.094002
30
-1.780000
70
192
0
VERTEX
8
OBJECT__47
10
80.000000
20
109.801003
30
-3.002000
70
192
0
VERTEX
8
OBJECT__47
10
80.000000
20
110.094002
30
-1.780000
70
192
0
VERTEX
8
OBJECT__47
10
80.000000
20
107.500000
30
-6.987000
70
192
0
VERTEX
8
OBJECT__47
10
60.500000
20
100.000000
30
-10.250000
70
192
0
VERTEX
8
OBJECT__47
10
80.000000
20
103.505997
30
9.632000
70
192
0
VERTEX
8
OBJECT__47
10
0
20
0
30
0
70
128
71
1
72
2
73
3
0
VERTEX
8
OBJECT__47
10
0
20
0
30
0
70
128
71
3
72
4
73
5
0
VERTEX
8
OBJECT__47
10
0
20
0
30
0
70
128
71
4
72
6
73
5
0
VERTEX
8
OBJECT__47
10
0
20
0
30
0
70
128
71
5
72
7
73
3
0
VERTEX
8
OBJECT__47
10
0
20
0
30
0
70
128
71
8
72
6
73
4
0
VERTEX
8
OBJECT__47
10
0
20
0
30
0
70
128
71
9
72
10
73
11
0
VERTEX
8
OBJECT__47
10
0
20
0
30
0
70
128
71
12
72
13
73
14
0
VERTEX
8
OBJECT__47
10
0
20
0
30
0
70
128
71
15
72
10
73
16
0
VERTEX
8
OBJECT__47
10
0
20
0
30
0
70
128
71
16
72
14
73
15
0
VERTEX
8
OBJECT__47
10
0
20
0
30
0
70
128
71
15
72
11
73
10
0
VERTEX
8
OBJECT__47
10
0
20
0
30
0
70
128
71
17
72
13
73
12
0
VERTEX
8
OBJECT__47
10
0
20
0
30
0
70
128
71
18
72
19
73
17
0
VERTEX
8
OBJECT__47
10
0
20
0
30
0
70
128
71
18
72
20
73
21
0
VERTEX
8
OBJECT__47
10
0
20
0
30
0
70
128
71
20
72
22
73
21
0
VERTEX
8
OBJECT__47
10
0
20
0
30
0
70
128
71
21
72
23
73
18
0
VERTEX
8
OBJECT__47
10
0
20
0
30
0
70
128
71
1
72
22
73
20
0
VERTEX
8
OBJECT__47
10
0
20
0
30
0
70
128
71
20
72
2
73
1
0
VERTEX
8
OBJECT__47
10
0
20
0
30
0
70
128
71
23
72
19
73
18
0
VERTEX
8
OBJECT__47
10
0
20
0
30
0
70
128
71
17
72
24
73
18
0
VERTEX
8
OBJECT__47
10
0
20
0
30
0
70
128
71
12
72
24
73
17
0
VERTEX
8
OBJECT__47
10
0
20
0
30
0
70
128
71
14
72
16
73
12
0
VERTEX
8
OBJECT__47
10
0
20
0
30
0
70
128
71
11
72
8
73
9
0
VERTEX
8
OBJECT__47
10
0
20
0
30
0
70
128
71
4
72
9
73
8
0
VERTEX
8
OBJECT__47
10
0
20
0
30
0
70
128
71
7
72
25
73
3
0
VERTEX
8
OBJECT__47
10
0
20
0
30
0
70
128
71
3
72
25
73
1
0
SEQEND
8
OBJECT__47
0
POLYLINE
8
OBJECT__48
66
1
70
64
71
10
72
8
62
253
0
VERTEX
8
OBJECT__48
10
80.000000
20
107.500000
30
-31.000000
70
192
0
VERTEX
8
OBJECT__48
10
80.000000
20
107.500000
30
-6.987000
70
192
0
VERTEX
8
OBJECT__48
10
87.943001
20
107.500000
30
-17.665001
70
192
0
VERTEX
8
OBJECT__48
10
87.972000
20
107.500000
30
-11.001000
70
192
0
VERTEX
8
OBJECT__48
10
87.983002
20
107.500000
30
-6.367000
70
192
0
VERTEX
8
OBJECT__48
10
87.972000
20
107.500000
30
-10.998000
70
192
0
VERTEX
8
OBJECT__48
10
80.000000
20
107.500000
30
-4.330000
70
192
0
VERTEX
8
OBJECT__48
10
87.987999
20
107.500000
30
-4.330000
70
192
0
VERTEX
8
OBJECT__48
10
87.879997
20
107.500000
30
-25.905001
70
192
0
VERTEX
8
OBJECT__48
10
87.841003
20
107.500000
30
-31.000000
70
192
0
VERTEX
8
OBJECT__48
10
0
20
0
30
0
70
128
71
1
72
2
73
3
0
VERTEX
8
OBJECT__48
10
0
20
0
30
0
70
128
71
2
72
4
73
3
0
VERTEX
8
OBJECT__48
10
0
20
0
30
0
70
128
71
2
72
5
73
6
0
VERTEX
8
OBJECT__48
10
0
20
0
30
0
70
128
71
6
72
4
73
2
0
VERTEX
8
OBJECT__48
10
0
20
0
30
0
70
128
71
7
72
8
73
5
0
VERTEX
8
OBJECT__48
10
0
20
0
30
0
70
128
71
3
72
9
73
1
0
VERTEX
8
OBJECT__48
10
0
20
0
30
0
70
128
71
9
72
10
73
1
0
VERTEX
8
OBJECT__48
10
0
20
0
30
0
70
128
71
5
72
2
73
7
0
SEQEND
8
OBJECT__48
0
POLYLINE
8
OBJECT__49
66
1
70
64
71
10
72
8
62
253
0
VERTEX
8
OBJECT__49
10
80.000000
20
109.801003
30
-3.002000
70
192
0
VERTEX
8
OBJECT__49
10
80.000000
20
130.597000
30
9.005000
70
192
0
VERTEX
8
OBJECT__49
10
87.921997
20
121.935997
30
4.004000
70
192
0
VERTEX
8
OBJECT__49
10
80.000000
20
107.500000
30
-4.330000
70
192
0
VERTEX
8
OBJECT__49
10
87.983002
20
109.264000
30
-3.312000
70
192
0
VERTEX
8
OBJECT__49
10
87.972000
20
113.278000
30
-0.994000
70
192
0
VERTEX
8
OBJECT__49
10
87.972000
20
113.274002
30
-0.996000
70
192
0
VERTEX
8
OBJECT__49
10
87.889000
20
125.498001
30
6.061000
70
192
0
VERTEX
8
OBJECT__49
10
87.841003
20
130.597000
30
9.005000
70
192
0
VERTEX
8
OBJECT__49
10
87.987999
20
107.500000
30
-4.330000
70
192
0
VERTEX
8
OBJECT__49
10
0
20
0
30
0
70
128
71
1
72
2
73
3
0
VERTEX
8
OBJECT__49
10
0
20
0
30
0
70
128
71
4
72
1
73
5
0
VERTEX
8
OBJECT__49
10
0
20
0
30
0
70
128
71
1
72
6
73
7
0
VERTEX
8
OBJECT__49
10
0
20
0
30
0
70
128
71
2
72
8
73
3
0
VERTEX
8
OBJECT__49
10
0
20
0
30
0
70
128
71
7
72
5
73
1
0
VERTEX
8
OBJECT__49
10
0
20
0
30
0
70
128
71
2
72
9
73
8
0
VERTEX
8
OBJECT__49
10
0
20
0
30
0
70
128
71
3
72
6
73
1
0
VERTEX
8
OBJECT__49
10
0
20
0
30
0
70
128
71
5
72
10
73
4
0
SEQEND
8
OBJECT__49
0
POLYLINE
8
OBJECT__50
66
1
70
64
71
3
72
1
62
253
0
VERTEX
8
OBJECT__50
10
80.000000
20
109.801003
30
-3.002000
70
192
0
VERTEX
8
OBJECT__50
10
80.000000
20
107.500000
30
-4.330000
70
192
0
VERTEX
8
OBJECT__50
10
80.000000
20
107.500000
30
-6.987000
70
192
0
VERTEX
8
OBJECT__50
10
0
20
0
30
0
70
128
71
1
72
2
73
3
0
SEQEND
8
OBJECT__50
0
POLYLINE
8
OBJECT__51
66
1
70
64
71
4
72
2
62
253
0
VERTEX
8
OBJECT__51
10
0.000000
20
135.000000
30
-35.000000
70
192
0
VERTEX
8
OBJECT__51
10
0.000000
20
135.000000
30
35.000000
70
192
0
VERTEX
8
OBJECT__51
10
15.000000
20
134.738007
30
34.737999
70
192
0
VERTEX
8
OBJECT__51
10
15.000000
20
134.738007
30
-34.737999
70
192
0
VERTEX
8
OBJECT__51
10
0
20
0
30
0
70
128
71
1
72
2
73
3
0
VERTEX
8
OBJECT__51
10
0
20
0
30
0
70
128
71
3
72
4
73
1
0
SEQEND
8
OBJECT__51
0
POLYLINE
8
OBJECT__52
66
1
70
64
71
4
72
2
62
253
0
VERTEX
8
OBJECT__52
10
15.000000
20
134.738007
30
-34.737999
70
192
0
VERTEX
8
OBJECT__52
10
15.000000
20
134.738007
30
34.737999
70
192
0
VERTEX
8
OBJECT__52
10
15.000000
20
-134.738007
30
34.737999
70
192
0
VERTEX
8
OBJECT__52
10
15.000000
20
-134.738007
30
-34.737999
70
192
0
VERTEX
8
OBJECT__52
10
0
20
0
30
0
70
128
71
1
72
2
73
3
0
VERTEX
8
OBJECT__52
10
0
20
0
30
0
70
128
71
3
72
4
73
1
0
SEQEND
8
OBJECT__52
0
POLYLINE
8
OBJECT__54
66
1
70
64
71
4
72
2
62
253
0
VERTEX
8
OBJECT__54
10
0.000000
20
-135.000000
30
35.000000
70
192
0
VERTEX
8
OBJECT__54
10
0.000000
20
-135.000000
30
-35.000000
70
192
0
VERTEX
8
OBJECT__54
10
15.000000
20
-134.738007
30
-34.737999
70
192
0
VERTEX
8
OBJECT__54
10
15.000000
20
-134.738007
30
34.737999
70
192
0
VERTEX
8
OBJECT__54
10
0
20
0
30
0
70
128
71
1
72
2
73
3
0
VERTEX
8
OBJECT__54
10
0
20
0
30
0
70
128
71
3
72
4
73
1
0
SEQEND
8
OBJECT__54
0
POLYLINE
8
OBJECT__55
66
1
70
64
71
4
72
2
62
253
0
VERTEX
8
OBJECT__55
10
0.000000
20
135.000000
30
35.000000
70
192
0
VERTEX
8
OBJECT__55
10
0.000000
20
135.000000
30
-35.000000
70
192
0
VERTEX
8
OBJECT__55
10
0.000000
20
-135.000000
30
-35.000000
70
192
0
VERTEX
8
OBJECT__55
10
0.000000
20
-135.000000
30
35.000000
70
192
0
VERTEX
8
OBJECT__55
10
0
20
0
30
0
70
128
71
1
72
2
73
3
0
VERTEX
8
OBJECT__55
10
0
20
0
30
0
70
128
71
3
72
4
73
1
0
SEQEND
8
OBJECT__55
0
POLYLINE
8
OBJECT__56
66
1
70
64
71
4
72
2
62
253
0
VERTEX
8
OBJECT__56
10
0.000000
20
135.000000
30
35.000000
70
192
0
VERTEX
8
OBJECT__56
10
0.000000
20
-135.000000
30
35.000000
70
192
0
VERTEX
8
OBJECT__56
10
15.000000
20
-134.738007
30
34.737999
70
192
0
VERTEX
8
OBJECT__56
10
15.000000
20
134.738007
30
34.737999
70
192
0
VERTEX
8
OBJECT__56
10
0
20
0
30
0
70
128
71
1
72
2
73
3
0
VERTEX
8
OBJECT__56
10
0
20
0
30
0
70
128
71
3
72
4
73
1
0
SEQEND
8
OBJECT__56
0
POLYLINE
8
OBJECT__57
66
1
70
64
71
4
72
2
62
253
0
VERTEX
8
OBJECT__57
10
0.000000
20
-135.000000
30
-35.000000
70
192
0
VERTEX
8
OBJECT__57
10
0.000000
20
135.000000
30
-35.000000
70
192
0
VERTEX
8
OBJECT__57
10
15.000000
20
134.738007
30
-34.737999
70
192
0
VERTEX
8
OBJECT__57
10
15.000000
20
-134.738007
30
-34.737999
70
192
0
VERTEX
8
OBJECT__57
10
0
20
0
30
0
70
128
71
1
72
2
73
3
0
VERTEX
8
OBJECT__57
10
0
20
0
30
0
70
128
71
3
72
4
73
1
0
SEQEND
8
OBJECT__57
0
POLYLINE
8
OBJECT__58
66
1
70
64
71
24
72
24
62
253
0
VERTEX
8
OBJECT__58
10
12.300000
20
84.412003
30
9.000000
70
192
0
VERTEX
8
OBJECT__58
10
12.300000
20
82.000000
30
0.000000
70
192
0
VERTEX
8
OBJECT__58
10
56.299999
20
82.000000
30
0.000000
70
192
0
VERTEX
8
OBJECT__58
10
56.299999
20
91.000000
30
15.588000
70
192
0
VERTEX
8
OBJECT__58
10
12.300000
20
91.000000
30
15.588000
70
192
0
VERTEX
8
OBJECT__58
10
56.299999
20
100.000000
30
18.000000
70
192
0
VERTEX
8
OBJECT__58
10
12.300000
20
100.000000
30
18.000000
70
192
0
VERTEX
8
OBJECT__58
10
56.299999
20
109.000000
30
15.588000
70
192
0
VERTEX
8
OBJECT__58
10
12.300000
20
109.000000
30
15.588000
70
192
0
VERTEX
8
OBJECT__58
10
12.300000
20
115.587997
30
9.000000
70
192
0
VERTEX
8
OBJECT__58
10
12.300000
20
118.000000
30
0.000000
70
192
0
VERTEX
8
OBJECT__58
10
56.299999
20
115.587997
30
9.000000
70
192
0
VERTEX
8
OBJECT__58
10
56.299999
20
115.587997
30
-9.000000
70
192
0
VERTEX
8
OBJECT__58
10
12.300000
20
115.587997
30
-9.000000
70
192
0
VERTEX
8
OBJECT__58
10
56.299999
20
109.000000
30
-15.588000
70
192
0
VERTEX
8
OBJECT__58
10
12.300000
20
109.000000
30
-15.588000
70
192
0
VERTEX
8
OBJECT__58
10
12.300000
20
100.000000
30
-18.000000
70
192
0
VERTEX
8
OBJECT__58
10
12.300000
20
91.000000
30
-15.588000
70
192
0
VERTEX
8
OBJECT__58
10
56.299999
20
100.000000
30
-18.000000
70
192
0
VERTEX
8
OBJECT__58
10
56.299999
20
84.412003
30
-9.000000
70
192
0
VERTEX
8
OBJECT__58
10
12.300000
20
84.412003
30
-9.000000
70
192
0
VERTEX
8
OBJECT__58
10
56.299999
20
91.000000
30
-15.588000
70
192
0
VERTEX
8
OBJECT__58
10
56.299999
20
118.000000
30
0.000000
70
192
0
VERTEX
8
OBJECT__58
10
56.299999
20
84.412003
30
9.000000
70
192
0
VERTEX
8
OBJECT__58
10
0
20
0
30
0
70
128
71
1
72
2
73
3
0
VERTEX
8
OBJECT__58
10
0
20
0
30
0
70
128
71
4
72
5
73
1
0
VERTEX
8
OBJECT__58
10
0
20
0
30
0
70
128
71
6
72
7
73
5
0
VERTEX
8
OBJECT__58
10
0
20
0
30
0
70
128
71
8
72
9
73
7
0
VERTEX
8
OBJECT__58
10
0
20
0
30
0
70
128
71
10
72
9
73
8
0
VERTEX
8
OBJECT__58
10
0
20
0
30
0
70
128
71
11
72
10
73
12
0
VERTEX
8
OBJECT__58
10
0
20
0
30
0
70
128
71
13
72
14
73
11
0
VERTEX
8
OBJECT__58
10
0
20
0
30
0
70
128
71
15
72
16
73
14
0
VERTEX
8
OBJECT__58
10
0
20
0
30
0
70
128
71
17
72
16
73
15
0
VERTEX
8
OBJECT__58
10
0
20
0
30
0
70
128
71
18
72
17
73
19
0
VERTEX
8
OBJECT__58
10
0
20
0
30
0
70
128
71
20
72
21
73
18
0
VERTEX
8
OBJECT__58
10
0
20
0
30
0
70
128
71
3
72
2
73
21
0
VERTEX
8
OBJECT__58
10
0
20
0
30
0
70
128
71
21
72
20
73
3
0
VERTEX
8
OBJECT__58
10
0
20
0
30
0
70
128
71
18
72
22
73
20
0
VERTEX
8
OBJECT__58
10
0
20
0
30
0
70
128
71
19
72
22
73
18
0
VERTEX
8
OBJECT__58
10
0
20
0
30
0
70
128
71
15
72
19
73
17
0
VERTEX
8
OBJECT__58
10
0
20
0
30
0
70
128
71
14
72
13
73
15
0
VERTEX
8
OBJECT__58
10
0
20
0
30
0
70
128
71
11
72
23
73
13
0
VERTEX
8
OBJECT__58
10
0
20
0
30
0
70
128
71
12
72
23
73
11
0
VERTEX
8
OBJECT__58
10
0
20
0
30
0
70
128
71
8
72
12
73
10
0
VERTEX
8
OBJECT__58
10
0
20
0
30
0
70
128
71
7
72
6
73
8
0
VERTEX
8
OBJECT__58
10
0
20
0
30
0
70
128
71
5
72
4
73
6
0
VERTEX
8
OBJECT__58
10
0
20
0
30
0
70
128
71
1
72
24
73
4
0
VERTEX
8
OBJECT__58
10
0
20
0
30
0
70
128
71
3
72
24
73
1
0
SEQEND
8
OBJECT__58
0
POLYLINE
8
OBJECT__59
66
1
70
64
71
12
72
10
62
253
0
VERTEX
8
OBJECT__59
10
56.299999
20
84.412003
30
-9.000000
70
192
0
VERTEX
8
OBJECT__59
10
56.299999
20
91.000000
30
15.588000
70
192
0
VERTEX
8
OBJECT__59
10
56.299999
20
84.412003
30
9.000000
70
192
0
VERTEX
8
OBJECT__59
10
56.299999
20
100.000000
30
18.000000
70
192
0
VERTEX
8
OBJECT__59
10
56.299999
20
115.587997
30
-9.000000
70
192
0
VERTEX
8
OBJECT__59
10
56.299999
20
118.000000
30
0.000000
70
192
0
VERTEX
8
OBJECT__59
10
56.299999
20
109.000000
30
15.588000
70
192
0
VERTEX
8
OBJECT__59
10
56.299999
20
109.000000
30
-15.588000
70
192
0
VERTEX
8
OBJECT__59
10
56.299999
20
91.000000
30
-15.588000
70
192
0
VERTEX
8
OBJECT__59
10
56.299999
20
115.587997
30
9.000000
70
192
0
VERTEX
8
OBJECT__59
10
56.299999
20
100.000000
30
-18.000000
70
192
0
VERTEX
8
OBJECT__59
10
56.299999
20
82.000000
30
0.000000
70
192
0
VERTEX
8
OBJECT__59
10
0
20
0
30
0
70
128
71
1
72
2
73
3
0
VERTEX
8
OBJECT__59
10
0
20
0
30
0
70
128
71
1
72
4
73
2
0
VERTEX
8
OBJECT__59
10
0
20
0
30
0
70
128
71
1
72
5
73
6
0
VERTEX
8
OBJECT__59
10
0
20
0
30
0
70
128
71
1
72
7
73
4
0
VERTEX
8
OBJECT__59
10
0
20
0
30
0
70
128
71
1
72
8
73
5
0
VERTEX
8
OBJECT__59
10
0
20
0
30
0
70
128
71
8
72
1
73
9
0
VERTEX
8
OBJECT__59
10
0
20
0
30
0
70
128
71
1
72
10
73
7
0
VERTEX
8
OBJECT__59
10
0
20
0
30
0
70
128
71
9
72
11
73
8
0
VERTEX
8
OBJECT__59
10
0
20
0
30
0
70
128
71
6
72
10
73
1
0
VERTEX
8
OBJECT__59
10
0
20
0
30
0
70
128
71
3
72
12
73
1
0
SEQEND
8
OBJECT__59
0
POLYLINE
8
OBJECT__61
66
1
70
64
71
26
72
26
62
253
0
VERTEX
8
OBJECT__61
10
15.300000
20
94.169998
30
25.542999
70
192
0
VERTEX
8
OBJECT__61
10
15.300000
20
83.665001
30
20.483999
70
192
0
VERTEX
8
OBJECT__61
10
15.300000
20
93.375000
30
11.475000
70
192
0
VERTEX
8
OBJECT__61
10
15.300000
20
76.394997
30
11.368000
70
192
0
VERTEX
8
OBJECT__61
10
15.300000
20
88.525002
30
6.625000
70
192
0
VERTEX
8
OBJECT__61
10
15.300000
20
73.800003
30
0.000000
70
192
0
VERTEX
8
OBJECT__61
10
15.300000
20
86.750000
30
0.000000
70
192
0
VERTEX
8
OBJECT__61
10
15.300000
20
83.665001
30
-20.483999
70
192
0
VERTEX
8
OBJECT__61
10
15.300000
20
93.375000
30
-11.475000
70
192
0
VERTEX
8
OBJECT__61
10
15.300000
20
88.525002
30
-6.625000
70
192
0
VERTEX
8
OBJECT__61
10
15.300000
20
94.169998
30
-25.542999
70
192
0
VERTEX
8
OBJECT__61
10
15.300000
20
100.000000
30
-13.250000
70
192
0
VERTEX
8
OBJECT__61
10
15.300000
20
105.830002
30
-25.542999
70
192
0
VERTEX
8
OBJECT__61
10
15.300000
20
116.334999
30
-20.483999
70
192
0
VERTEX
8
OBJECT__61
10
15.300000
20
106.625000
30
-11.475000
70
192
0
VERTEX
8
OBJECT__61
10
15.300000
20
105.830002
30
25.542999
70
192
0
VERTEX
8
OBJECT__61
10
15.300000
20
100.000000
30
13.250000
70
192
0
VERTEX
8
OBJECT__61
10
15.300000
20
106.625000
30
11.475000
70
192
0
VERTEX
8
OBJECT__61
10
15.300000
20
76.394997
30
-11.368000
70
192
0
VERTEX
8
OBJECT__61
10
15.300000
20
123.605003
30
-11.368000
70
192
0
VERTEX
8
OBJECT__61
10
15.300000
20
111.474998
30
-6.625000
70
192
0
VERTEX
8
OBJECT__61
10
15.300000
20
126.199997
30
0.000000
70
192
0
VERTEX
8
OBJECT__61
10
15.300000
20
113.250000
30
0.000000
70
192
0
VERTEX
8
OBJECT__61
10
15.300000
20
116.334999
30
20.483999
70
192
0
VERTEX
8
OBJECT__61
10
15.300000
20
123.605003
30
11.368000
70
192
0
VERTEX
8
OBJECT__61
10
15.300000
20
111.474998
30
6.625000
70
192
0
VERTEX
8
OBJECT__61
10
0
20
0
30
0
70
128
71
1
72
2
73
3
0
VERTEX
8
OBJECT__61
10
0
20
0
30
0
70
128
71
2
72
4
73
5
0
VERTEX
8
OBJECT__61
10
0
20
0
30
0
70
128
71
5
72
3
73
2
0
VERTEX
8
OBJECT__61
10
0
20
0
30
0
70
128
71
4
72
6
73
7
0
VERTEX
8
OBJECT__61
10
0
20
0
30
0
70
128
71
8
72
9
73
10
0
VERTEX
8
OBJECT__61
10
0
20
0
30
0
70
128
71
11
72
12
73
9
0
VERTEX
8
OBJECT__61
10
0
20
0
30
0
70
128
71
13
72
14
73
15
0
VERTEX
8
OBJECT__61
10
0
20
0
30
0
70
128
71
16
72
17
73
18
0
VERTEX
8
OBJECT__61
10
0
20
0
30
0
70
128
71
7
72
5
73
4
0
VERTEX
8
OBJECT__61
10
0
20
0
30
0
70
128
71
19
72
10
73
7
0
VERTEX
8
OBJECT__61
10
0
20
0
30
0
70
128
71
9
72
8
73
11
0
VERTEX
8
OBJECT__61
10
0
20
0
30
0
70
128
71
12
72
11
73
13
0
VERTEX
8
OBJECT__61
10
0
20
0
30
0
70
128
71
14
72
20
73
21
0
VERTEX
8
OBJECT__61
10
0
20
0
30
0
70
128
71
20
72
22
73
23
0
VERTEX
8
OBJECT__61
10
0
20
0
30
0
70
128
71
18
72
24
73
16
0
VERTEX
8
OBJECT__61
10
0
20
0
30
0
70
128
71
7
72
6
73
19
0
VERTEX
8
OBJECT__61
10
0
20
0
30
0
70
128
71
15
72
12
73
13
0
VERTEX
8
OBJECT__61
10
0
20
0
30
0
70
128
71
23
72
21
73
20
0
VERTEX
8
OBJECT__61
10
0
20
0
30
0
70
128
71
25
72
26
73
23
0
VERTEX
8
OBJECT__61
10
0
20
0
30
0
70
128
71
24
72
18
73
26
0
VERTEX
8
OBJECT__61
10
0
20
0
30
0
70
128
71
3
72
17
73
1
0
VERTEX
8
OBJECT__61
10
0
20
0
30
0
70
128
71
21
72
15
73
14
0
VERTEX
8
OBJECT__61
10
0
20
0
30
0
70
128
71
26
72
25
73
24
0
VERTEX
8
OBJECT__61
10
0
20
0
30
0
70
128
71
10
72
19
73
8
0
VERTEX
8
OBJECT__61
10
0
20
0
30
0
70
128
71
16
72
1
73
17
0
VERTEX
8
OBJECT__61
10
0
20
0
30
0
70
128
71
23
72
22
73
25
0
SEQEND
8
OBJECT__61
0
POLYLINE
8
OBJECT__62
66
1
70
64
71
28
72
28
62
253
0
VERTEX
8
OBJECT__62
10
14.300000
20
73.800003
30
0.000000
70
192
0
VERTEX
8
OBJECT__62
10
15.300000
20
73.800003
30
0.000000
70
192
0
VERTEX
8
OBJECT__62
10
15.300000
20
76.394997
30
11.368000
70
192
0
VERTEX
8
OBJECT__62
10
15.300000
20
83.665001
30
20.483999
70
192
0
VERTEX
8
OBJECT__62
10
14.300000
20
83.665001
30
20.483999
70
192
0
VERTEX
8
OBJECT__62
10
14.300000
20
76.394997
30
11.368000
70
192
0
VERTEX
8
OBJECT__62
10
15.300000
20
94.169998
30
25.542999
70
192
0
VERTEX
8
OBJECT__62
10
14.300000
20
94.169998
30
25.542999
70
192
0
VERTEX
8
OBJECT__62
10
15.300000
20
105.830002
30
25.542999
70
192
0
VERTEX
8
OBJECT__62
10
14.300000
20
105.830002
30
25.542999
70
192
0
VERTEX
8
OBJECT__62
10
15.300000
20
116.334999
30
20.483999
70
192
0
VERTEX
8
OBJECT__62
10
14.300000
20
116.334999
30
20.483999
70
192
0
VERTEX
8
OBJECT__62
10
15.300000
20
123.605003
30
11.368000
70
192
0
VERTEX
8
OBJECT__62
10
14.300000
20
123.605003
30
11.368000
70
192
0
VERTEX
8
OBJECT__62
10
15.300000
20
126.199997
30
0.000000
70
192
0
VERTEX
8
OBJECT__62
10
15.300000
20
123.605003
30
-11.368000
70
192
0
VERTEX
8
OBJECT__62
10
14.300000
20
123.605003
30
-11.368000
70
192
0
VERTEX
8
OBJECT__62
10
14.300000
20
116.334999
30
-20.483999
70
192
0
VERTEX
8
OBJECT__62
10
14.300000
20
105.830002
30
-25.542999
70
192
0
VERTEX
8
OBJECT__62
10
15.300000
20
116.334999
30
-20.483999
70
192
0
VERTEX
8
OBJECT__62
10
14.300000
20
94.169998
30
-25.542999
70
192
0
VERTEX
8
OBJECT__62
10
15.300000
20
105.830002
30
-25.542999
70
192
0
VERTEX
8
OBJECT__62
10
14.300000
20
83.665001
30
-20.483999
70
192
0
VERTEX
8
OBJECT__62
10
15.300000
20
94.169998
30
-25.542999
70
192
0
VERTEX
8
OBJECT__62
10
14.300000
20
76.394997
30
-11.368000
70
192
0
VERTEX
8
OBJECT__62
10
15.300000
20
83.665001
30
-20.483999
70
192
0
VERTEX
8
OBJECT__62
10
15.300000
20
76.394997
30
-11.368000
70
192
0
VERTEX
8
OBJECT__62
10
14.300000
20
126.199997
30
0.000000
70
192
0
VERTEX
8
OBJECT__62
10
0
20
0
30
0
70
128
71
1
72
2
73
3
0
VERTEX
8
OBJECT__62
10
0
20
0
30
0
70
128
71
4
72
5
73
6
0
VERTEX
8
OBJECT__62
10
0
20
0
30
0
70
128
71
7
72
8
73
5
0
VERTEX
8
OBJECT__62
10
0
20
0
30
0
70
128
71
9
72
10
73
8
0
VERTEX
8
OBJECT__62
10
0
20
0
30
0
70
128
71
11
72
12
73
10
0
VERTEX
8
OBJECT__62
10
0
20
0
30
0
70
128
71
13
72
14
73
12
0
VERTEX
8
OBJECT__62
10
0
20
0
30
0
70
128
71
14
72
13
73
15
0
VERTEX
8
OBJECT__62
10
0
20
0
30
0
70
128
71
15
72
16
73
17
0
VERTEX
8
OBJECT__62
10
0
20
0
30
0
70
128
71
18
72
17
73
16
0
VERTEX
8
OBJECT__62
10
0
20
0
30
0
70
128
71
19
72
18
73
20
0
VERTEX
8
OBJECT__62
10
0
20
0
30
0
70
128
71
21
72
19
73
22
0
VERTEX
8
OBJECT__62
10
0
20
0
30
0
70
128
71
23
72
21
73
24
0
VERTEX
8
OBJECT__62
10
0
20
0
30
0
70
128
71
25
72
23
73
26
0
VERTEX
8
OBJECT__62
10
0
20
0
30
0
70
128
71
27
72
2
73
1
0
VERTEX
8
OBJECT__62
10
0
20
0
30
0
70
128
71
1
72
25
73
27
0
VERTEX
8
OBJECT__62
10
0
20
0
30
0
70
128
71
26
72
27
73
25
0
VERTEX
8
OBJECT__62
10
0
20
0
30
0
70
128
71
24
72
26
73
23
0
VERTEX
8
OBJECT__62
10
0
20
0
30
0
70
128
71
22
72
24
73
21
0
VERTEX
8
OBJECT__62
10
0
20
0
30
0
70
128
71
20
72
22
73
19
0
VERTEX
8
OBJECT__62
10
0
20
0
30
0
70
128
71
16
72
20
73
18
0
VERTEX
8
OBJECT__62
10
0
20
0
30
0
70
128
71
17
72
28
73
15
0
VERTEX
8
OBJECT__62
10
0
20
0
30
0
70
128
71
15
72
28
73
14
0
VERTEX
8
OBJECT__62
10
0
20
0
30
0
70
128
71
12
72
11
73
13
0
VERTEX
8
OBJECT__62
10
0
20
0
30
0
70
128
71
10
72
9
73
11
0
VERTEX
8
OBJECT__62
10
0
20
0
30
0
70
128
71
8
72
7
73
9
0
VERTEX
8
OBJECT__62
10
0
20
0
30
0
70
128
71
5
72
4
73
7
0
VERTEX
8
OBJECT__62
10
0
20
0
30
0
70
128
71
6
72
3
73
4
0
VERTEX
8
OBJECT__62
10
0
20
0
30
0
70
128
71
3
72
6
73
1
0
SEQEND
8
OBJECT__62
0
POLYLINE
8
OBJECT__64
66
1
70
64
71
20
72
20
62
253
0
VERTEX
8
OBJECT__64
10
60.500000
20
112.860001
30
7.425000
70
192
0
VERTEX
8
OBJECT__64
10
60.500000
20
106.805000
30
13.199000
70
192
0
VERTEX
8
OBJECT__64
10
60.500000
20
104.820999
30
5.745000
70
192
0
VERTEX
8
OBJECT__64
10
60.500000
20
107.386002
30
1.302000
70
192
0
VERTEX
8
OBJECT__64
10
60.500000
20
114.833000
30
-0.707000
70
192
0
VERTEX
8
OBJECT__64
10
60.500000
20
98.587997
30
14.783000
70
192
0
VERTEX
8
OBJECT__64
10
60.500000
20
100.000000
30
7.500000
70
192
0
VERTEX
8
OBJECT__64
10
60.500000
20
90.820000
30
11.673000
70
192
0
VERTEX
8
OBJECT__64
10
60.500000
20
95.179001
30
5.745000
70
192
0
VERTEX
8
OBJECT__64
10
60.500000
20
85.569000
30
-3.501000
70
192
0
VERTEX
8
OBJECT__64
10
60.500000
20
93.504997
30
-3.750000
70
192
0
VERTEX
8
OBJECT__64
10
60.500000
20
92.613998
30
1.302000
70
192
0
VERTEX
8
OBJECT__64
10
60.500000
20
85.967003
30
4.857000
70
192
0
VERTEX
8
OBJECT__64
10
60.500000
20
89.751999
30
-10.747000
70
192
0
VERTEX
8
OBJECT__64
10
60.500000
20
97.190002
30
-14.582000
70
192
0
VERTEX
8
OBJECT__64
10
60.500000
20
97.434998
30
-7.048000
70
192
0
VERTEX
8
OBJECT__64
10
60.500000
20
112.096001
30
-8.614000
70
192
0
VERTEX
8
OBJECT__64
10
60.500000
20
106.495003
30
-3.750000
70
192
0
VERTEX
8
OBJECT__64
10
60.500000
20
102.565002
30
-7.048000
70
192
0
VERTEX
8
OBJECT__64
10
60.500000
20
105.518997
30
-13.786000
70
192
0
VERTEX
8
OBJECT__64
10
0
20
0
30
0
70
128
71
1
72
2
73
3
0
VERTEX
8
OBJECT__64
10
0
20
0
30
0
70
128
71
4
72
5
73
1
0
VERTEX
8
OBJECT__64
10
0
20
0
30
0
70
128
71
2
72
6
73
7
0
VERTEX
8
OBJECT__64
10
0
20
0
30
0
70
128
71
7
72
3
73
2
0
VERTEX
8
OBJECT__64
10
0
20
0
30
0
70
128
71
6
72
8
73
9
0
VERTEX
8
OBJECT__64
10
0
20
0
30
0
70
128
71
10
72
11
73
12
0
VERTEX
8
OBJECT__64
10
0
20
0
30
0
70
128
71
9
72
7
73
6
0
VERTEX
8
OBJECT__64
10
0
20
0
30
0
70
128
71
13
72
12
73
9
0
VERTEX
8
OBJECT__64
10
0
20
0
30
0
70
128
71
12
72
13
73
10
0
VERTEX
8
OBJECT__64
10
0
20
0
30
0
70
128
71
14
72
15
73
16
0
VERTEX
8
OBJECT__64
10
0
20
0
30
0
70
128
71
17
72
18
73
19
0
VERTEX
8
OBJECT__64
10
0
20
0
30
0
70
128
71
5
72
4
73
18
0
VERTEX
8
OBJECT__64
10
0
20
0
30
0
70
128
71
9
72
8
73
13
0
VERTEX
8
OBJECT__64
10
0
20
0
30
0
70
128
71
16
72
11
73
14
0
VERTEX
8
OBJECT__64
10
0
20
0
30
0
70
128
71
15
72
20
73
19
0
VERTEX
8
OBJECT__64
10
0
20
0
30
0
70
128
71
18
72
17
73
5
0
VERTEX
8
OBJECT__64
10
0
20
0
30
0
70
128
71
10
72
14
73
11
0
VERTEX
8
OBJECT__64
10
0
20
0
30
0
70
128
71
19
72
20
73
17
0
VERTEX
8
OBJECT__64
10
0
20
0
30
0
70
128
71
19
72
16
73
15
0
VERTEX
8
OBJECT__64
10
0
20
0
30
0
70
128
71
3
72
4
73
1
0
SEQEND
8
OBJECT__64
0
POLYLINE
8
OBJECT__65
66
1
70
64
71
23
72
23
62
253
0
VERTEX
8
OBJECT__65
10
60.500000
20
114.833000
30
-0.707000
70
192
0
VERTEX
8
OBJECT__65
10
38.500000
20
114.833000
30
-0.707000
70
192
0
VERTEX
8
OBJECT__65
10
38.500000
20
112.860001
30
7.425000
70
192
0
VERTEX
8
OBJECT__65
10
38.500000
20
112.096001
30
-8.614000
70
192
0
VERTEX
8
OBJECT__65
10
60.500000
20
105.518997
30
-13.786000
70
192
0
VERTEX
8
OBJECT__65
10
38.500000
20
105.518997
30
-13.786000
70
192
0
VERTEX
8
OBJECT__65
10
60.500000
20
97.190002
30
-14.582000
70
192
0
VERTEX
8
OBJECT__65
10
38.500000
20
97.190002
30
-14.582000
70
192
0
VERTEX
8
OBJECT__65
10
60.500000
20
89.751999
30
-10.747000
70
192
0
VERTEX
8
OBJECT__65
10
38.500000
20
89.751999
30
-10.747000
70
192
0
VERTEX
8
OBJECT__65
10
60.500000
20
85.569000
30
-3.501000
70
192
0
VERTEX
8
OBJECT__65
10
38.500000
20
85.569000
30
-3.501000
70
192
0
VERTEX
8
OBJECT__65
10
38.500000
20
87.139999
30
-7.425000
70
192
0
VERTEX
8
OBJECT__65
10
38.500000
20
85.967003
30
4.857000
70
192
0
VERTEX
8
OBJECT__65
10
60.500000
20
90.820000
30
11.673000
70
192
0
VERTEX
8
OBJECT__65
10
38.500000
20
90.820000
30
11.673000
70
192
0
VERTEX
8
OBJECT__65
10
38.500000
20
98.587997
30
14.783000
70
192
0
VERTEX
8
OBJECT__65
10
38.500000
20
106.805000
30
13.199000
70
192
0
VERTEX
8
OBJECT__65
10
60.500000
20
98.587997
30
14.783000
70
192
0
VERTEX
8
OBJECT__65
10
60.500000
20
106.805000
30
13.199000
70
192
0
VERTEX
8
OBJECT__65
10
60.500000
20
112.860001
30
7.425000
70
192
0
VERTEX
8
OBJECT__65
10
60.500000
20
85.967003
30
4.857000
70
192
0
VERTEX
8
OBJECT__65
10
60.500000
20
112.096001
30
-8.614000
70
192
0
VERTEX
8
OBJECT__65
10
0
20
0
30
0
70
128
71
1
72
2
73
3
0
VERTEX
8
OBJECT__65
10
0
20
0
30
0
70
128
71
4
72
2
73
1
0
VERTEX
8
OBJECT__65
10
0
20
0
30
0
70
128
71
5
72
6
73
4
0
VERTEX
8
OBJECT__65
10
0
20
0
30
0
70
128
71
7
72
8
73
6
0
VERTEX
8
OBJECT__65
10
0
20
0
30
0
70
128
71
9
72
10
73
8
0
VERTEX
8
OBJECT__65
10
0
20
0
30
0
70
128
71
11
72
12
73
13
0
VERTEX
8
OBJECT__65
10
0
20
0
30
0
70
128
71
13
72
9
73
11
0
VERTEX
8
OBJECT__65
10
0
20
0
30
0
70
128
71
14
72
12
73
11
0
VERTEX
8
OBJECT__65
10
0
20
0
30
0
70
128
71
15
72
16
73
14
0
VERTEX
8
OBJECT__65
10
0
20
0
30
0
70
128
71
17
72
16
73
15
0
VERTEX
8
OBJECT__65
10
0
20
0
30
0
70
128
71
18
72
17
73
19
0
VERTEX
8
OBJECT__65
10
0
20
0
30
0
70
128
71
3
72
18
73
20
0
VERTEX
8
OBJECT__65
10
0
20
0
30
0
70
128
71
20
72
21
73
3
0
VERTEX
8
OBJECT__65
10
0
20
0
30
0
70
128
71
19
72
20
73
18
0
VERTEX
8
OBJECT__65
10
0
20
0
30
0
70
128
71
15
72
19
73
17
0
VERTEX
8
OBJECT__65
10
0
20
0
30
0
70
128
71
14
72
22
73
15
0
VERTEX
8
OBJECT__65
10
0
20
0
30
0
70
128
71
11
72
22
73
14
0
VERTEX
8
OBJECT__65
10
0
20
0
30
0
70
128
71
13
72
10
73
9
0
VERTEX
8
OBJECT__65
10
0
20
0
30
0
70
128
71
8
72
7
73
9
0
VERTEX
8
OBJECT__65
10
0
20
0
30
0
70
128
71
6
72
5
73
7
0
VERTEX
8
OBJECT__65
10
0
20
0
30
0
70
128
71
4
72
23
73
5
0
VERTEX
8
OBJECT__65
10
0
20
0
30
0
70
128
71
1
72
23
73
4
0
VERTEX
8
OBJECT__65
10
0
20
0
30
0
70
128
71
3
72
21
73
1
0
SEQEND
8
OBJECT__65
0
POLYLINE
8
OBJECT__67
66
1
70
64
71
4
72
2
62
253
0
VERTEX
8
OBJECT__67
10
15.400000
20
14.500000
30
-6.500000
70
192
0
VERTEX
8
OBJECT__67
10
187.815002
20
14.500000
30
-6.500000
70
192
0
VERTEX
8
OBJECT__67
10
187.815002
20
-14.500000
30
-6.500000
70
192
0
VERTEX
8
OBJECT__67
10
15.400000
20
-14.500000
30
-6.500000
70
192
0
VERTEX
8
OBJECT__67
10
0
20
0
30
0
70
128
71
1
72
2
73
3
0
VERTEX
8
OBJECT__67
10
0
20
0
30
0
70
128
71
3
72
4
73
1
0
SEQEND
8
OBJECT__67
0
POLYLINE
8
OBJECT__68
66
1
70
64
71
8
72
6
62
253
0
VERTEX
8
OBJECT__68
10
212.300995
20
-14.500000
30
-29.624001
70
192
0
VERTEX
8
OBJECT__68
10
208.216995
20
-14.500000
30
-18.233999
70
192
0
VERTEX
8
OBJECT__68
10
208.216995
20
14.500000
30
-18.233999
70
192
0
VERTEX
8
OBJECT__68
10
199.419998
20
-14.500000
30
-9.926000
70
192
0
VERTEX
8
OBJECT__68
10
199.419998
20
14.500000
30
-9.926000
70
192
0
VERTEX
8
OBJECT__68
10
187.815002
20
-14.500000
30
-6.500000
70
192
0
VERTEX
8
OBJECT__68
10
187.815002
20
14.500000
30
-6.500000
70
192
0
VERTEX
8
OBJECT__68
10
212.300995
20
14.500000
30
-29.624001
70
192
0
VERTEX
8
OBJECT__68
10
0
20
0
30
0
70
128
71
1
72
2
73
3
0
VERTEX
8
OBJECT__68
10
0
20
0
30
0
70
128
71
4
72
5
73
3
0
VERTEX
8
OBJECT__68
10
0
20
0
30
0
70
128
71
6
72
7
73
5
0
VERTEX
8
OBJECT__68
10
0
20
0
30
0
70
128
71
5
72
4
73
6
0
VERTEX
8
OBJECT__68
10
0
20
0
30
0
70
128
71
3
72
2
73
4
0
VERTEX
8
OBJECT__68
10
0
20
0
30
0
70
128
71
3
72
8
73
1
0
SEQEND
8
OBJECT__68
0
POLYLINE
8
OBJECT__70
66
1
70
64
71
4
72
2
62
253
0
VERTEX
8
OBJECT__70
10
212.828003
20
-14.500000
30
-35.645000
70
192
0
VERTEX
8
OBJECT__70
10
212.300995
20
-14.500000
30
-29.624001
70
192
0
VERTEX
8
OBJECT__70
10
212.300995
20
14.500000
30
-29.624001
70
192
0
VERTEX
8
OBJECT__70
10
212.828003
20
14.500000
30
-35.645000
70
192
0
VERTEX
8
OBJECT__70
10
0
20
0
30
0
70
128
71
1
72
2
73
3
0
VERTEX
8
OBJECT__70
10
0
20
0
30
0
70
128
71
3
72
4
73
1
0
SEQEND
8
OBJECT__70
0
POLYLINE
8
OBJECT__71
66
1
70
64
71
4
72
2
62
253
0
VERTEX
8
OBJECT__71
10
212.828003
20
-14.500000
30
-35.645000
70
192
0
VERTEX
8
OBJECT__71
10
212.828003
20
14.500000
30
-35.645000
70
192
0
VERTEX
8
OBJECT__71
10
226.675003
20
14.500000
30
-34.432999
70
192
0
VERTEX
8
OBJECT__71
10
226.675003
20
-14.500000
30
-34.432999
70
192
0
VERTEX
8
OBJECT__71
10
0
20
0
30
0
70
128
71
1
72
2
73
3
0
VERTEX
8
OBJECT__71
10
0
20
0
30
0
70
128
71
3
72
4
73
1
0
SEQEND
8
OBJECT__71
0
POLYLINE
8
OBJECT__72
66
1
70
64
71
4
72
2
62
253
0
VERTEX
8
OBJECT__72
10
226.169006
20
14.500000
30
-28.645000
70
192
0
VERTEX
8
OBJECT__72
10
226.169006
20
-14.500000
30
-28.645000
70
192
0
VERTEX
8
OBJECT__72
10
226.675003
20
-14.500000
30
-34.432999
70
192
0
VERTEX
8
OBJECT__72
10
226.675003
20
14.500000
30
-34.432999
70
192
0
VERTEX
8
OBJECT__72
10
0
20
0
30
0
70
128
71
1
72
2
73
3
0
VERTEX
8
OBJECT__72
10
0
20
0
30
0
70
128
71
3
72
4
73
1
0
SEQEND
8
OBJECT__72
0
POLYLINE
8
OBJECT__73
66
1
70
64
71
13
72
11
62
253
0
VERTEX
8
OBJECT__73
10
213.826004
20
-14.500000
30
-3.615000
70
192
0
VERTEX
8
OBJECT__73
10
201.768997
20
-14.500000
30
3.882000
70
192
0
VERTEX
8
OBJECT__73
10
199.419998
20
-14.500000
30
-9.926000
70
192
0
VERTEX
8
OBJECT__73
10
187.815002
20
-14.500000
30
6.500000
70
192
0
VERTEX
8
OBJECT__73
10
187.815002
20
-14.500000
30
-6.500000
70
192
0
VERTEX
8
OBJECT__73
10
15.400000
20
-14.500000
30
-6.500000
70
192
0
VERTEX
8
OBJECT__73
10
212.828003
20
-14.500000
30
-35.645000
70
192
0
VERTEX
8
OBJECT__73
10
226.675003
20
-14.500000
30
-34.432999
70
192
0
VERTEX
8
OBJECT__73
10
226.169006
20
-14.500000
30
-28.645000
70
192
0
VERTEX
8
OBJECT__73
10
222.345001
20
-14.500000
30
-14.972000
70
192
0
VERTEX
8
OBJECT__73
10
208.216995
20
-14.500000
30
-18.233999
70
192
0
VERTEX
8
OBJECT__73
10
212.300995
20
-14.500000
30
-29.624001
70
192
0
VERTEX
8
OBJECT__73
10
15.400000
20
-14.500000
30
6.500000
70
192
0
VERTEX
8
OBJECT__73
10
0
20
0
30
0
70
128
71
1
72
2
73
3
0
VERTEX
8
OBJECT__73
10
0
20
0
30
0
70
128
71
2
72
4
73
5
0
VERTEX
8
OBJECT__73
10
0
20
0
30
0
70
128
71
6
72
5
73
4
0
VERTEX
8
OBJECT__73
10
0
20
0
30
0
70
128
71
7
72
8
73
9
0
VERTEX
8
OBJECT__73
10
0
20
0
30
0
70
128
71
10
72
11
73
12
0
VERTEX
8
OBJECT__73
10
0
20
0
30
0
70
128
71
11
72
10
73
1
0
VERTEX
8
OBJECT__73
10
0
20
0
30
0
70
128
71
4
72
13
73
6
0
VERTEX
8
OBJECT__73
10
0
20
0
30
0
70
128
71
12
72
9
73
10
0
VERTEX
8
OBJECT__73
10
0
20
0
30
0
70
128
71
5
72
3
73
2
0
VERTEX
8
OBJECT__73
10
0
20
0
30
0
70
128
71
3
72
11
73
1
0
VERTEX
8
OBJECT__73
10
0
20
0
30
0
70
128
71
9
72
12
73
7
0
SEQEND
8
OBJECT__73
0
POLYLINE
8
OBJECT__74
66
1
70
64
71
13
72
11
62
253
0
VERTEX
8
OBJECT__74
10
15.400000
20
14.500000
30
6.500000
70
192
0
VERTEX
8
OBJECT__74
10
187.815002
20
14.500000
30
6.500000
70
192
0
VERTEX
8
OBJECT__74
10
187.815002
20
14.500000
30
-6.500000
70
192
0
VERTEX
8
OBJECT__74
10
201.768997
20
14.500000
30
3.882000
70
192
0
VERTEX
8
OBJECT__74
10
199.419998
20
14.500000
30
-9.926000
70
192
0
VERTEX
8
OBJECT__74
10
213.826004
20
14.500000
30
-3.615000
70
192
0
VERTEX
8
OBJECT__74
10
208.216995
20
14.500000
30
-18.233999
70
192
0
VERTEX
8
OBJECT__74
10
222.345001
20
14.500000
30
-14.972000
70
192
0
VERTEX
8
OBJECT__74
10
226.169006
20
14.500000
30
-28.645000
70
192
0
VERTEX
8
OBJECT__74
10
212.300995
20
14.500000
30
-29.624001
70
192
0
VERTEX
8
OBJECT__74
10
212.828003
20
14.500000
30
-35.645000
70
192
0
VERTEX
8
OBJECT__74
10
226.675003
20
14.500000
30
-34.432999
70
192
0
VERTEX
8
OBJECT__74
10
15.400000
20
14.500000
30
-6.500000
70
192
0
VERTEX
8
OBJECT__74
10
0
20
0
30
0
70
128
71
1
72
2
73
3
0
VERTEX
8
OBJECT__74
10
0
20
0
30
0
70
128
71
4
72
5
73
3
0
VERTEX
8
OBJECT__74
10
0
20
0
30
0
70
128
71
6
72
7
73
5
0
VERTEX
8
OBJECT__74
10
0
20
0
30
0
70
128
71
3
72
2
73
4
0
VERTEX
8
OBJECT__74
10
0
20
0
30
0
70
128
71
5
72
4
73
6
0
VERTEX
8
OBJECT__74
10
0
20
0
30
0
70
128
71
8
72
9
73
10
0
VERTEX
8
OBJECT__74
10
0
20
0
30
0
70
128
71
11
72
10
73
9
0
VERTEX
8
OBJECT__74
10
0
20
0
30
0
70
128
71
6
72
8
73
7
0
VERTEX
8
OBJECT__74
10
0
20
0
30
0
70
128
71
9
72
12
73
11
0
VERTEX
8
OBJECT__74
10
0
20
0
30
0
70
128
71
10
72
7
73
8
0
VERTEX
8
OBJECT__74
10
0
20
0
30
0
70
128
71
3
72
13
73
1
0
SEQEND
8
OBJECT__74
0
POLYLINE
8
OBJECT__75
66
1
70
64
71
10
72
8
62
253
0
VERTEX
8
OBJECT__75
10
187.815002
20
-14.500000
30
6.500000
70
192
0
VERTEX
8
OBJECT__75
10
201.768997
20
-14.500000
30
3.882000
70
192
0
VERTEX
8
OBJECT__75
10
201.768997
20
14.500000
30
3.882000
70
192
0
VERTEX
8
OBJECT__75
10
213.826004
20
-14.500000
30
-3.615000
70
192
0
VERTEX
8
OBJECT__75
10
213.826004
20
14.500000
30
-3.615000
70
192
0
VERTEX
8
OBJECT__75
10
222.345001
20
-14.500000
30
-14.972000
70
192
0
VERTEX
8
OBJECT__75
10
222.345001
20
14.500000
30
-14.972000
70
192
0
VERTEX
8
OBJECT__75
10
226.169006
20
-14.500000
30
-28.645000
70
192
0
VERTEX
8
OBJECT__75
10
226.169006
20
14.500000
30
-28.645000
70
192
0
VERTEX
8
OBJECT__75
10
187.815002
20
14.500000
30
6.500000
70
192
0
VERTEX
8
OBJECT__75
10
0
20
0
30
0
70
128
71
1
72
2
73
3
0
VERTEX
8
OBJECT__75
10
0
20
0
30
0
70
128
71
4
72
5
73
3
0
VERTEX
8
OBJECT__75
10
0
20
0
30
0
70
128
71
6
72
7
73
5
0
VERTEX
8
OBJECT__75
10
0
20
0
30
0
70
128
71
8
72
9
73
7
0
VERTEX
8
OBJECT__75
10
0
20
0
30
0
70
128
71
7
72
6
73
8
0
VERTEX
8
OBJECT__75
10
0
20
0
30
0
70
128
71
5
72
4
73
6
0
VERTEX
8
OBJECT__75
10
0
20
0
30
0
70
128
71
3
72
2
73
4
0
VERTEX
8
OBJECT__75
10
0
20
0
30
0
70
128
71
3
72
10
73
1
0
SEQEND
8
OBJECT__75
0
POLYLINE
8
OBJECT__76
66
1
70
64
71
4
72
2
62
253
0
VERTEX
8
OBJECT__76
10
187.815002
20
-14.500000
30
6.500000
70
192
0
VERTEX
8
OBJECT__76
10
187.815002
20
14.500000
30
6.500000
70
192
0
VERTEX
8
OBJECT__76
10
15.400000
20
14.500000
30
6.500000
70
192
0
VERTEX
8
OBJECT__76
10
15.400000
20
-14.500000
30
6.500000
70
192
0
VERTEX
8
OBJECT__76
10
0
20
0
30
0
70
128
71
1
72
2
73
3
0
VERTEX
8
OBJECT__76
10
0
20
0
30
0
70
128
71
3
72
4
73
1
0
SEQEND
8
OBJECT__76
0
POLYLINE
8
OBJECT__77
66
1
70
64
71
22
72
22
62
253
0
VERTEX
8
OBJECT__77
10
0.000000
20
-6.000000
30
5.000000
70
192
0
VERTEX
8
OBJECT__77
10
0.000000
20
-6.850000
30
11.865000
70
192
0
VERTEX
8
OBJECT__77
10
0.000000
20
0.000000
30
13.700000
70
192
0
VERTEX
8
OBJECT__77
10
0.000000
20
6.000000
30
5.000000
70
192
0
VERTEX
8
OBJECT__77
10
0.000000
20
11.865000
30
6.850000
70
192
0
VERTEX
8
OBJECT__77
10
0.000000
20
9.536000
30
3.536000
70
192
0
VERTEX
8
OBJECT__77
10
0.000000
20
-11.865000
30
6.850000
70
192
0
VERTEX
8
OBJECT__77
10
0.000000
20
6.850000
30
11.865000
70
192
0
VERTEX
8
OBJECT__77
10
0.000000
20
6.000000
30
-5.000000
70
192
0
VERTEX
8
OBJECT__77
10
0.000000
20
6.850000
30
-11.865000
70
192
0
VERTEX
8
OBJECT__77
10
0.000000
20
0.000000
30
-13.700000
70
192
0
VERTEX
8
OBJECT__77
10
0.000000
20
-13.700000
30
0.000000
70
192
0
VERTEX
8
OBJECT__77
10
0.000000
20
-9.536000
30
3.536000
70
192
0
VERTEX
8
OBJECT__77
10
0.000000
20
11.865000
30
-6.850000
70
192
0
VERTEX
8
OBJECT__77
10
0.000000
20
-6.000000
30
-5.000000
70
192
0
VERTEX
8
OBJECT__77
10
0.000000
20
13.700000
30
0.000000
70
192
0
VERTEX
8
OBJECT__77
10
0.000000
20
11.000000
30
0.000000
70
192
0
VERTEX
8
OBJECT__77
10
0.000000
20
-6.850000
30
-11.865000
70
192
0
VERTEX
8
OBJECT__77
10
0.000000
20
-11.865000
30
-6.850000
70
192
0
VERTEX
8
OBJECT__77
10
0.000000
20
-9.536000
30
-3.536000
70
192
0
VERTEX
8
OBJECT__77
10
0.000000
20
9.536000
30
-3.536000
70
192
0
VERTEX
8
OBJECT__77
10
0.000000
20
-11.000000
30
0.000000
70
192
0
VERTEX
8
OBJECT__77
10
0
20
0
30
0
70
128
71
1
72
2
73
3
0
VERTEX
8
OBJECT__77
10
0
20
0
30
0
70
128
71
3
72
4
73
1
0
VERTEX
8
OBJECT__77
10
0
20
0
30
0
70
128
71
5
72
6
73
4
0
VERTEX
8
OBJECT__77
10
0
20
0
30
0
70
128
71
7
72
2
73
1
0
VERTEX
8
OBJECT__77
10
0
20
0
30
0
70
128
71
4
72
8
73
5
0
VERTEX
8
OBJECT__77
10
0
20
0
30
0
70
128
71
9
72
10
73
11
0
VERTEX
8
OBJECT__77
10
0
20
0
30
0
70
128
71
12
72
7
73
13
0
VERTEX
8
OBJECT__77
10
0
20
0
30
0
70
128
71
3
72
8
73
4
0
VERTEX
8
OBJECT__77
10
0
20
0
30
0
70
128
71
14
72
10
73
9
0
VERTEX
8
OBJECT__77
10
0
20
0
30
0
70
128
71
11
72
15
73
9
0
VERTEX
8
OBJECT__77
10
0
20
0
30
0
70
128
71
1
72
13
73
7
0
VERTEX
8
OBJECT__77
10
0
20
0
30
0
70
128
71
16
72
17
73
6
0
VERTEX
8
OBJECT__77
10
0
20
0
30
0
70
128
71
11
72
18
73
15
0
VERTEX
8
OBJECT__77
10
0
20
0
30
0
70
128
71
19
72
20
73
15
0
VERTEX
8
OBJECT__77
10
0
20
0
30
0
70
128
71
6
72
5
73
16
0
VERTEX
8
OBJECT__77
10
0
20
0
30
0
70
128
71
16
72
14
73
21
0
VERTEX
8
OBJECT__77
10
0
20
0
30
0
70
128
71
15
72
18
73
19
0
VERTEX
8
OBJECT__77
10
0
20
0
30
0
70
128
71
12
72
22
73
20
0
VERTEX
8
OBJECT__77
10
0
20
0
30
0
70
128
71
21
72
17
73
16
0
VERTEX
8
OBJECT__77
10
0
20
0
30
0
70
128
71
20
72
19
73
12
0
VERTEX
8
OBJECT__77
10
0
20
0
30
0
70
128
71
9
72
21
73
14
0
VERTEX
8
OBJECT__77
10
0
20
0
30
0
70
128
71
13
72
22
73
12
0
SEQEND
8
OBJECT__77
0
ENDSEC
0
EOF
