  0
SECTION
  2
HEADER
  9
$ACADVER
  1
AC1015
  9
$ACADMAINTVER
 70
     6
  9
$DWGCODEPAGE
  3
ANSI_1252
  9
$INSBASE
 10
0.0
 20
0.0
 30
0.0
  9
$EXTMIN
 10
0.0
 20
0.0
 30
0.0
  9
$EXTMAX
 10
1682.0
 20
2378.0
 30
0.0
  9
$LIMMIN
 10
0.0
 20
0.0
  9
$LIMMAX
 10
1682.0
 20
2378.0
  9
$ORTHOMODE
 70
     0
  9
$REGENMODE
 70
     1
  9
$FILLMODE
 70
     1
  9
$QTEXTMODE
 70
     0
  9
$MIRRTEXT
 70
     1
  9
$LTSCALE
 40
1.0
  9
$ATTMODE
 70
     1
  9
$TEXTSIZE
 40
2.5
  9
$TRACEWID
 40
1.0
  9
$TEXTSTYLE
  7
Standard
  9
$CLAYER
  8
0
  9
$CELTYPE
  6
ByLayer
  9
$CECOLOR
 62
   256
  9
$CELTSCALE
 40
1.0
  9
$DISPSILH
 70
     0
  9
$DIMSCALE
 40
1.0
  9
$DIMASZ
 40
2.5
  9
$DIMEXO
 40
0.625
  9
$DIMDLI
 40
3.75
  9
$DIMRND
 40
0.0
  9
$DIMDLE
 40
0.0
  9
$DIMEXE
 40
1.25
  9
$DIMTP
 40
0.0
  9
$DIMTM
 40
0.0
  9
$DIMTXT
 40
2.5
  9
$DIMCEN
 40
2.5
  9
$DIMTSZ
 40
0.0
  9
$DIMTOL
 70
     0
  9
$DIMLIM
 70
     0
  9
$DIMTIH
 70
     0
  9
$DIMTOH
 70
     0
  9
$DIMSE1
 70
     0
  9
$DIMSE2
 70
     0
  9
$DIMTAD
 70
     1
  9
$DIMZIN
 70
     8
  9
$DIMBLK
  1

  9
$DIMASO
 70
     1
  9
$DIMSHO
 70
     1
  9
$DIMPOST
  1

  9
$DIMAPOST
  1

  9
$DIMALT
 70
     0
  9
$DIMALTD
 70
     3
  9
$DIMALTF
 40
0.0393700787
  9
$DIMLFAC
 40
1.0
  9
$DIMTOFL
 70
     1
  9
$DIMTVP
 40
0.0
  9
$DIMTIX
 70
     0
  9
$DIMSOXD
 70
     0
  9
$DIMSAH
 70
     0
  9
$DIMBLK1
  1

  9
$DIMBLK2
  1

  9
$DIMSTYLE
  2
ISO-25
  9
$DIMCLRD
 70
     0
  9
$DIMCLRE
 70
     0
  9
$DIMCLRT
 70
     0
  9
$DIMTFAC
 40
1.0
  9
$DIMGAP
 40
0.625
  9
$DIMJUST
 70
     0
  9
$DIMSD1
 70
     0
  9
$DIMSD2
 70
     0
  9
$DIMTOLJ
 70
     0
  9
$DIMTZIN
 70
     8
  9
$DIMALTZ
 70
     0
  9
$DIMALTTZ
 70
     0
  9
$DIMUPT
 70
     0
  9
$DIMDEC
 70
     2
  9
$DIMTDEC
 70
     2
  9
$DIMALTU
 70
     2
  9
$DIMALTTD
 70
     3
  9
$DIMTXSTY
  7
Standard
  9
$DIMAUNIT
 70
     0
  9
$DIMADEC
 70
     0
  9
$DIMALTRND
 40
0.0
  9
$DIMAZIN
 70
     0
  9
$DIMDSEP
 70
    44
  9
$DIMATFIT
 70
     3
  9
$DIMFRAC
 70
     0
  9
$DIMLDRBLK
  1

  9
$DIMLUNIT
 70
     2
  9
$DIMLWD
 70
    -2
  9
$DIMLWE
 70
    -2
  9
$DIMTMOVE
 70
     0
  9
$LUNITS
 70
     2
  9
$LUPREC
 70
     4
  9
$SKETCHINC
 40
1.0
  9
$FILLETRAD
 40
10.0
  9
$AUNITS
 70
     0
  9
$AUPREC
 70
     0
  9
$MENU
  1
.
  9
$ELEVATION
 40
0.0
  9
$PELEVATION
 40
0.0
  9
$THICKNESS
 40
0.0
  9
$LIMCHECK
 70
     0
  9
$CHAMFERA
 40
10.0
  9
$CHAMFERB
 40
10.0
  9
$CHAMFERC
 40
20.0
  9
$CHAMFERD
 40
0.0
  9
$SKPOLY
 70
     0
  9
$TDCREATE
 40
2455345.374018889
  9
$TDUCREATE
 40
2455345.290685555
  9
$TDUPDATE
 40
2455345.374018901
  9
$TDUUPDATE
 40
2455345.290685567
  9
$TDINDWG
 40
0.0000000116
  9
$TDUSRTIMER
 40
0.0000000116
  9
$USRTIMER
 70
     1
  9
$ANGBASE
 50
0.0
  9
$ANGDIR
 70
     0
  9
$PDMODE
 70
     0
  9
$PDSIZE
 40
0.0
  9
$PLINEWID
 40
0.0
  9
$SPLFRAME
 70
     0
  9
$SPLINETYPE
 70
     6
  9
$SPLINESEGS
 70
     8
  9
$HANDSEED
  5
1FC
  9
$SURFTAB1
 70
     6
  9
$SURFTAB2
 70
     6
  9
$SURFTYPE
 70
     6
  9
$SURFU
 70
     6
  9
$SURFV
 70
     6
  9
$UCSBASE
  2

  9
$UCSNAME
  2

  9
$UCSORG
 10
0.0
 20
0.0
 30
0.0
  9
$UCSXDIR
 10
1.0
 20
0.0
 30
0.0
  9
$UCSYDIR
 10
0.0
 20
1.0
 30
0.0
  9
$UCSORTHOREF
  2

  9
$UCSORTHOVIEW
 70
     0
  9
$UCSORGTOP
 10
0.0
 20
0.0
 30
0.0
  9
$UCSORGBOTTOM
 10
0.0
 20
0.0
 30
0.0
  9
$UCSORGLEFT
 10
0.0
 20
0.0
 30
0.0
  9
$UCSORGRIGHT
 10
0.0
 20
0.0
 30
0.0
  9
$UCSORGFRONT
 10
0.0
 20
0.0
 30
0.0
  9
$UCSORGBACK
 10
0.0
 20
0.0
 30
0.0
  9
$PUCSBASE
  2

  9
$PUCSNAME
  2

  9
$PUCSORG
 10
0.0
 20
0.0
 30
0.0
  9
$PUCSXDIR
 10
1.0
 20
0.0
 30
0.0
  9
$PUCSYDIR
 10
0.0
 20
1.0
 30
0.0
  9
$PUCSORTHOREF
  2

  9
$PUCSORTHOVIEW
 70
     0
  9
$PUCSORGTOP
 10
0.0
 20
0.0
 30
0.0
  9
$PUCSORGBOTTOM
 10
0.0
 20
0.0
 30
0.0
  9
$PUCSORGLEFT
 10
0.0
 20
0.0
 30
0.0
  9
$PUCSORGRIGHT
 10
0.0
 20
0.0
 30
0.0
  9
$PUCSORGFRONT
 10
0.0
 20
0.0
 30
0.0
  9
$PUCSORGBACK
 10
0.0
 20
0.0
 30
0.0
  9
$USERI1
 70
     0
  9
$USERI2
 70
     0
  9
$USERI3
 70
     0
  9
$USERI4
 70
     0
  9
$USERI5
 70
     0
  9
$USERR1
 40
0.0
  9
$USERR2
 40
0.0
  9
$USERR3
 40
0.0
  9
$USERR4
 40
0.0
  9
$USERR5
 40
0.0
  9
$WORLDVIEW
 70
     1
  9
$SHADEDGE
 70
     3
  9
$SHADEDIF
 70
    70
  9
$TILEMODE
 70
     1
  9
$MAXACTVP
 70
    64
  9
$PINSBASE
 10
0.0
 20
0.0
 30
0.0
  9
$PLIMCHECK
 70
     0
  9
$PEXTMIN
 10
0.0
 20
0.0
 30
0.0
  9
$PEXTMAX
 10
1682.0
 20
2378.0
 30
0.0
  9
$PLIMMIN
 10
0.0
 20
0.0
  9
$PLIMMAX
 10
1682.0
 20
2378.0
  9
$UNITMODE
 70
     0
  9
$VISRETAIN
 70
     1
  9
$PLINEGEN
 70
     0
  9
$PSLTSCALE
 70
     1
  9
$TREEDEPTH
 70
  3020
  9
$CMLSTYLE
  2
Standard
  9
$CMLJUST
 70
     0
  9
$CMLSCALE
 40
20.0
  9
$PROXYGRAPHICS
 70
     1
  9
$MEASUREMENT
 70
     1
  9
$CELWEIGHT
370
    -1
  9
$ENDCAPS
280
     0
  9
$JOINSTYLE
280
     0
  9
$LWDISPLAY
290
     0
  9
$INSUNITS
 70
     4
  9
$HYPERLINKBASE
  1

  9
$STYLESHEET
  1

  9
$XEDIT
290
     1
  9
$CEPSNTYPE
380
     0
  9
$PSTYLEMODE
290
     1
  9
$FINGERPRINTGUID
  2
{789CBA8C-2853-4119-8D62-3CEA47236562}
  9
$VERSIONGUID
  2
{FAEB1C32-E019-11D5-929B-00C0DF256EC4}
  9
$EXTNAMES
290
     1
  9
$PSVPSCALE
 40
0.0
  9
$OLESTARTUP
290
     0
  0
ENDSEC
  0
SECTION
  2
CLASSES
  0
CLASS
  1
ACDBDICTIONARYWDFLT
  2
AcDbDictionaryWithDefault
  3
ObjectDBX Classes
 90
        0
280
     0
281
     0
  0
CLASS
  1
VISUALSTYLE
  2
AcDbVisualStyle
  3
ObjectDBX Classes
 90
     4095
280
     0
281
     0
  0
CLASS
  1
SCALE
  2
AcDbScale
  3
ObjectDBX Classes
 90
     1153
280
     0
281
     0
  0
CLASS
  1
DICTIONARYVAR
  2
AcDbDictionaryVar
  3
ObjectDBX Classes
 90
        0
280
     0
281
     0
  0
CLASS
  1
ACDBPLACEHOLDER
  2
AcDbPlaceHolder
  3
ObjectDBX Classes
 90
        0
280
     0
281
     0
  0
CLASS
  1
LAYOUT
  2
AcDbLayout
  3
ObjectDBX Classes
 90
        0
280
     0
281
     0
  0
ENDSEC
  0
SECTION
  2
TABLES
  0
TABLE
  2
VPORT
  5
8
330
0
100
AcDbSymbolTable
 70
     1
  0
VPORT
  5
29
330
8
100
AcDbSymbolTableRecord
100
AcDbViewportTableRecord
  2
*Active
 70
     0
 10
0.0
 20
0.0
 11
1.0
 21
1.0
 12
344.1869158879
 22
148.5
 13
0.0
 23
0.0
 14
10.0
 24
10.0
 15
10.0
 25
10.0
 16
0.0
 26
0.0
 36
1.0
 17
0.0
 27
0.0
 37
0.0
 40
297.0
 41
1.9729729729
 42
50.0
 43
0.0
 44
0.0
 50
0.0
 51
0.0
 71
     0
 72
   100
 73
     1
 74
     3
 75
     0
 76
     0
 77
     0
 78
     0
281
     0
 65
     1
110
0.0
120
0.0
130
0.0
111
1.0
121
0.0
131
0.0
112
0.0
122
1.0
132
0.0
 79
     0
146
0.0
  0
ENDTAB
  0
TABLE
  2
LTYPE
  5
5
330
0
100
AcDbSymbolTable
 70
     2
  0
LTYPE
  5
14
330
5
100
AcDbSymbolTableRecord
100
AcDbLinetypeTableRecord
  2
ByBlock
 70
     0
  3

 72
    65
 73
     0
 40
0.0
  0
LTYPE
  5
15
330
5
100
AcDbSymbolTableRecord
100
AcDbLinetypeTableRecord
  2
ByLayer
 70
     0
  3

 72
    65
 73
     0
 40
0.0
  0
LTYPE
  5
16
330
5
100
AcDbSymbolTableRecord
100
AcDbLinetypeTableRecord
  2
Continuous
 70
     0
  3
Solid line
 72
    65
 73
     0
 40
0.0
  0
LTYPE
  5
EF
330
5
100
AcDbSymbolTableRecord
100
AcDbLinetypeTableRecord
  2
CENTER2
 70
     0
  3
Center (.5x) ___ _ ___ _ ___ _ ___ _ ___ _ ___
 72
    65
 73
     4
 40
28.575
 49
19.05
 74
     4
 75
     0
340
0
 46
0.0
 50
0.0
 44
0.0
 45
0.0
 49
-3.175
 74
     4
 75
     0
340
0
 46
0.0
 50
0.0
 44
0.0
 45
0.0
 49
3.175
 74
     4
 75
     0
340
0
 46
0.0
 50
0.0
 44
0.0
 45
0.0
 49
-3.175
 74
     4
 75
     0
340
0
 46
0.0
 50
0.0
 44
0.0
 45
0.0
  0
ENDTAB
  0
TABLE
  2
LAYER
  5
2
330
0
100
AcDbSymbolTable
 70
    16
  0
LAYER
  5
10
330
2
100
AcDbSymbolTableRecord
100
AcDbLayerTableRecord
  2
0
 70
     0
 62
     7
  6
Continuous
370
    -3
390
F
  0
LAYER
  5
5D
330
2
100
AcDbSymbolTableRecord
100
AcDbLayerTableRecord
  2
Default
 70
     0
 62
     7
  6
Continuous
370
    -3
390
F
  0
LAYER
  5
60
330
2
100
AcDbSymbolTableRecord
100
AcDbLayerTableRecord
  2
$DDT_AUDIT_GENERATED_(60)
 70
     0
 62
     7
  6
Continuous
370
    -3
390
F
  0
LAYER
  5
63
330
2
100
AcDbSymbolTableRecord
100
AcDbLayerTableRecord
  2
$DDT_AUDIT_GENERATED_(63)
 70
     0
 62
     7
  6
Continuous
370
    -3
390
F
  0
LAYER
  5
8A
330
2
100
AcDbSymbolTableRecord
100
AcDbLayerTableRecord
  2
$DDT_AUDIT_GENERATED_(8A)
 70
     0
 62
     7
  6
Continuous
370
    -3
390
F
  0
LAYER
  5
8E
330
2
100
AcDbSymbolTableRecord
100
AcDbLayerTableRecord
  2
$DDT_AUDIT_GENERATED_(8E)
 70
     0
 62
     7
  6
Continuous
370
    -3
390
F
  0
LAYER
  5
96
330
2
100
AcDbSymbolTableRecord
100
AcDbLayerTableRecord
  2
$DDT_AUDIT_GENERATED_(96)
 70
     0
 62
     7
  6
Continuous
370
    -3
390
F
  0
LAYER
  5
A8
330
2
100
AcDbSymbolTableRecord
100
AcDbLayerTableRecord
  2
$DDT_AUDIT_GENERATED_(A8)
 70
     0
 62
     7
  6
Continuous
370
    -3
390
F
  0
LAYER
  5
B6
330
2
100
AcDbSymbolTableRecord
100
AcDbLayerTableRecord
  2
$DDT_AUDIT_GENERATED_(B6)
 70
     0
 62
     7
  6
Continuous
370
    -3
390
F
  0
LAYER
  5
D4
330
2
100
AcDbSymbolTableRecord
100
AcDbLayerTableRecord
  2
$DDT_AUDIT_GENERATED_(D4)
 70
     0
 62
     7
  6
Continuous
370
    -3
390
F
  0
LAYER
  5
E6
330
2
100
AcDbSymbolTableRecord
100
AcDbLayerTableRecord
  2
$DDT_AUDIT_GENERATED_(E6)
 70
     0
 62
     7
  6
Continuous
370
    -3
390
F
  0
LAYER
  5
ED
330
2
100
AcDbSymbolTableRecord
100
AcDbLayerTableRecord
  2
DV1_Standard
 70
     0
 62
     7
  6
Continuous
370
    -3
390
F
  0
LAYER
  5
F9
330
2
100
AcDbSymbolTableRecord
100
AcDbLayerTableRecord
  2
$DDT_AUDIT_GENERATED_(F9)
 70
     0
 62
     7
  6
Continuous
370
    -3
390
F
  0
LAYER
  5
12B
330
2
100
AcDbSymbolTableRecord
100
AcDbLayerTableRecord
  2
$DDT_AUDIT_GENERATED_(12B)
 70
     0
 62
     7
  6
Continuous
370
    -3
390
F
  0
LAYER
  5
18F
330
2
100
AcDbSymbolTableRecord
100
AcDbLayerTableRecord
  2
DV2_Standard
 70
     0
 62
     7
  6
Continuous
370
    -3
390
F
  0
LAYER
  5
1E2
330
2
100
AcDbSymbolTableRecord
100
AcDbLayerTableRecord
  2
DV3_Standard
 70
     0
 62
     7
  6
Continuous
370
    -3
390
F
  0
ENDTAB
  0
TABLE
  2
STYLE
  5
3
330
0
100
AcDbSymbolTable
 70
     2
  0
STYLE
  5
11
330
3
100
AcDbSymbolTableRecord
100
AcDbTextStyleTableRecord
  2
Standard
 70
     0
 40
0.0
 41
1.0
 50
0.0
 71
     0
 42
2.5
  3
txt
  4

  0
STYLE
  5
1EB
330
3
100
AcDbSymbolTableRecord
100
AcDbTextStyleTableRecord
  2
SEACAD_seiso_ttf
 70
     0
 40
0.0
 41
1.0
 50
0.0
 71
     0
 42
0.2
  3
seiso.ttf
  4

  0
ENDTAB
  0
TABLE
  2
VIEW
  5
6
330
0
100
AcDbSymbolTable
 70
     0
  0
ENDTAB
  0
TABLE
  2
UCS
  5
7
330
0
100
AcDbSymbolTable
 70
     0
  0
ENDTAB
  0
TABLE
  2
APPID
  5
9
330
0
100
AcDbSymbolTable
 70
     1
  0
APPID
  5
12
330
9
100
AcDbSymbolTableRecord
100
AcDbRegAppTableRecord
  2
ACAD
 70
     0
  0
ENDTAB
  0
TABLE
  2
DIMSTYLE
  5
A
330
0
100
AcDbSymbolTable
 70
     1
100
AcDbDimStyleTable
  0
DIMSTYLE
105
27
330
A
100
AcDbSymbolTableRecord
100
AcDbDimStyleTableRecord
  2
ISO-25
 70
     0
 41
2.5
 42
0.625
 43
3.75
 44
1.25
 73
     0
 74
     0
 77
     1
 78
     8
140
2.5
141
2.5
143
0.0393700787
147
0.625
171
     3
172
     1
271
     2
272
     2
274
     3
278
    44
283
     0
284
     8
340
11
  0
ENDTAB
  0
TABLE
  2
BLOCK_RECORD
  5
1
330
0
100
AcDbSymbolTable
 70
     4
  0
BLOCK_RECORD
  5
1F
330
1
100
AcDbSymbolTableRecord
100
AcDbBlockTableRecord
  2
*Model_Space
340
22
  0
BLOCK_RECORD
  5
1B
330
1
100
AcDbSymbolTableRecord
100
AcDbBlockTableRecord
  2
*Paper_Space
340
1E
  0
BLOCK_RECORD
  5
5E
330
1
100
AcDbSymbolTableRecord
100
AcDbBlockTableRecord
  2
SE
340
0
102
{BLKREFS
331
5F
102
}
  0
BLOCK_RECORD
  5
F5
330
1
100
AcDbSymbolTableRecord
100
AcDbBlockTableRecord
  2
SE1
340
0
102
{BLKREFS
331
F6
102
}
  0
BLOCK_RECORD
  5
195
330
1
100
AcDbSymbolTableRecord
100
AcDbBlockTableRecord
  2
SE2
340
0
102
{BLKREFS
331
196
102
}
  0
ENDTAB
  0
ENDSEC
  0
SECTION
  2
BLOCKS
  0
BLOCK
  5
20
330
1F
100
AcDbEntity
  8
0
100
AcDbBlockBegin
  2
*Model_Space
 70
     0
 10
0.0
 20
0.0
 30
0.0
  3
*Model_Space
  1

  0
ENDBLK
  5
21
330
1F
100
AcDbEntity
  8
0
100
AcDbBlockEnd
  0
BLOCK
  5
1C
330
1B
100
AcDbEntity
 67
     1
  8
0
100
AcDbBlockBegin
  2
*Paper_Space
 70
     0
 10
0.0
 20
0.0
 30
0.0
  3
*Paper_Space
  1

  0
ENDBLK
  5
1D
330
1B
100
AcDbEntity
 67
     1
  8
0
100
AcDbBlockEnd
  0
BLOCK
  5
F3
330
5E
100
AcDbEntity
  8
0
100
AcDbBlockBegin
  2
SE
 70
     0
 10
0.0
 20
0.0
 30
0.0
  3
SE
  1

  0
LINE
  5
61
330
5E
100
AcDbEntity
  8
$DDT_AUDIT_GENERATED_(60)
  6
Continuous
 62
     7
100
AcDbLine
 10
71.8415508116
 20
662.3082137998
 30
0.0
 11
71.8354414329
 21
663.00827926
 31
0.0
  0
LINE
  5
62
330
5E
100
AcDbEntity
  8
$DDT_AUDIT_GENERATED_(60)
  6
Continuous
 62
     7
100
AcDbLine
 10
20.2098778026
 20
663.00827926
 30
0.0
 11
20.203768425
 21
662.3082139275
 31
0.0
  0
LINE
  5
64
330
5E
100
AcDbEntity
  8
$DDT_AUDIT_GENERATED_(63)
  6
Continuous
 62
     7
100
AcDbLine
 10
56.0226586534
 20
680.48559169
 30
0.0
 11
56.0226585378
 21
689.0627171146
 31
0.0
  0
LINE
  5
65
330
5E
100
AcDbEntity
  8
$DDT_AUDIT_GENERATED_(63)
  6
Continuous
 62
     7
100
AcDbLine
 10
36.0226621196
 20
689.0625621907
 30
0.0
 11
36.0226711169
 21
680.4855815659
 31
0.0
  0
SPLINE
  5
66
330
5E
100
AcDbEntity
  8
$DDT_AUDIT_GENERATED_(63)
  6
Continuous
 62
     7
100
AcDbSpline
210
0.0
220
0.0
230
1.0
 70
     8
 71
     3
 72
     9
 73
     5
 74
     0
 42
0.0000000012968709
 43
0.0000000001
 40
0.8762801911189355
 40
0.8762801911189355
 40
0.8762801911189355
 40
0.8762801911189355
 40
0.9128955191686059
 40
1.0
 40
1.0
 40
1.0
 40
1.0
 10
55.83149439480236
 20
679.5578023862146
 30
0.0
 10
55.86955401465941
 20
679.6579120599224
 30
0.0
 10
55.97726079746467
 20
679.9877202343212
 30
0.0
 10
56.00390257282115
 20
680.2798903700527
 30
0.0
 10
56.02265865338207
 20
680.4855916899738
 30
0.0
  0
SPLINE
  5
67
330
5E
100
AcDbEntity
  8
$DDT_AUDIT_GENERATED_(63)
  6
Continuous
 62
     7
100
AcDbSpline
210
0.0
220
0.0
230
1.0
 70
     8
 71
     3
 72
    10
 73
     6
 74
     0
 42
0.000000001293772
 43
0.0000000001
 40
0.0
 40
0.0
 40
0.0
 40
0.0
 40
0.0554446361591971
 40
0.1120396158335922
 40
0.1238387097371596
 40
0.1238387097371596
 40
0.1238387097371596
 40
0.1238387097371596
 10
36.02267111685008
 20
680.4855815658543
 30
0.0
 10
36.03022947711077
 20
680.3571672288314
 30
0.0
 10
36.04552625229029
 20
680.0976742646016
 30
0.0
 10
36.13663735602494
 20
679.7741498157169
 30
0.0
 10
36.20475709134918
 20
679.5882699090305
 30
0.0
 10
36.21704410053187
 20
679.5559964507429
 30
0.0
  0
ELLIPSE
  5
68
330
5E
100
AcDbEntity
  8
$DDT_AUDIT_GENERATED_(63)
  6
Continuous
 62
     7
100
AcDbEllipse
 10
46.0226596178
 20
699.8569486402
 30
0.0
 11
25.99999999999999
 21
0.0
 31
0.0
210
0.0
220
0.0
230
1.0
 40
0.4226182889
 41
0.0
 42
4.369798359840367
  0
ELLIPSE
  5
69
330
5E
100
AcDbEntity
  8
$DDT_AUDIT_GENERATED_(63)
  6
Continuous
 62
     7
100
AcDbEllipse
 10
46.0226596178
 20
699.8569486402
 30
0.0
 11
25.99999999999999
 21
0.0
 31
0.0
210
0.0
220
0.0
230
1.0
 40
0.4226182889
 41
4.387731612782459
 42
4.680870068793704
  0
ELLIPSE
  5
6A
330
5E
100
AcDbEntity
  8
$DDT_AUDIT_GENERATED_(63)
  6
Continuous
 62
     7
100
AcDbEllipse
 10
46.0226596178
 20
699.8569486402
 30
0.0
 11
25.99999999999999
 21
0.0
 31
0.0
210
0.0
220
0.0
230
1.0
 40
0.4226182889
 41
4.743054406619663
 42
5.038329882223929
  0
ELLIPSE
  5
6B
330
5E
100
AcDbEntity
  8
$DDT_AUDIT_GENERATED_(63)
  6
Continuous
 62
     7
100
AcDbEllipse
 10
46.0226596178
 20
699.8569486402
 30
0.0
 11
25.99999999999999
 21
0.0
 31
0.0
210
0.0
220
0.0
230
1.0
 40
0.4226182889
 41
5.060267146542905
 42
6.283185307179586
  0
SPLINE
  5
6C
330
5E
100
AcDbEntity
  8
$DDT_AUDIT_GENERATED_(63)
  6
Continuous
 62
     7
100
AcDbSpline
210
0.0
220
0.0
230
1.0
 70
     8
 71
     3
 72
    26
 73
    22
 74
     0
 42
0.0000000002999416
 43
0.0000000001
 40
0.0
 40
0.0
 40
0.0
 40
0.0
 40
0.0405454518689011
 40
0.0626462924556373
 40
0.1248428208556953
 40
0.2498521231044277
 40
0.3120814078499642
 40
0.3742487776358136
 40
0.436898392742135
 40
0.4994799766654084
 40
0.5616855579218409
 40
0.6241591661827985
 40
0.6869512512933061
 40
0.7493637499155593
 40
0.8118700861023653
 40
0.8538029871655527
 40
0.8747495364474466
 40
0.906047323485667
 40
0.9372952798248708
 40
0.9716094197935007
 40
1.0
 40
1.0
 40
1.0
 40
1.0
 10
46.02265961788382
 20
712.3107276789627
 30
0.0
 10
45.40996004282527
 20
712.306075683353
 30
0.0
 10
44.4632852620743
 20
712.2988879416812
 30
0.0
 10
42.58319130989045
 20
712.2318012575888
 30
0.0
 10
39.45122698259203
 20
712.039453674199
 30
0.0
 10
35.81485005796585
 20
711.585556670863
 30
0.0
 10
32.4039299938205
 20
710.9128840838679
 30
0.0
 10
29.98393401266503
 20
710.2939496167303
 30
0.0
 10
27.7244765010785
 20
709.5678831060252
 30
0.0
 10
25.65908725751964
 20
708.7383555205033
 30
0.0
 10
23.81022730270185
 20
707.8182040182495
 30
0.0
 10
22.19281193443221
 20
706.8165663216214
 30
0.0
 10
20.81393569649515
 20
705.7514446370162
 30
0.0
 10
19.66898289874297
 20
704.6453356832221
 30
0.0
 10
18.84780131268186
 20
703.6430758477344
 30
0.0
 10
18.38133833712568
 20
702.8719404195195
 30
0.0
 10
18.10792998280261
 20
702.2835717071858
 30
0.0
 10
17.92634076762468
 20
701.7542978609174
 30
0.0
 10
17.79447784438196
 20
701.1350017912379
 30
0.0
 10
17.73402880824348
 20
700.5329124342348
 30
0.0
 10
17.73939504011404
 20
700.1353670892352
 30
0.0
 10
17.74182469035408
 20
699.9553719833505
 30
0.0
  0
SPLINE
  5
6D
330
5E
100
AcDbEntity
  8
$DDT_AUDIT_GENERATED_(63)
  6
Continuous
 62
     7
100
AcDbSpline
210
0.0
220
0.0
230
1.0
 70
     8
 71
     3
 72
    25
 73
    21
 74
     0
 42
0.0000000003125395
 43
0.0000000001
 40
0.0
 40
0.0
 40
0.0
 40
0.0
 40
0.0292325181144519
 40
0.0626902868254681
 40
0.1249279255342706
 40
0.1872143000686931
 40
0.2185735710822816
 40
0.2500832534485279
 40
0.3748792421195188
 40
0.4374236907009789
 40
0.5002745012426975
 40
0.5314780267066089
 40
0.5625656652107374
 40
0.6246567890704801
 40
0.7498657947128001
 40
0.8122105970228296
 40
0.8745186665748569
 40
0.9373572506455456
 40
0.9677161515785361
 40
1.0
 40
1.0
 40
1.0
 40
1.0
 10
17.82000741260407
 20
699.314420743327
 30
0.0
 10
17.8611062035789
 20
699.1400443714031
 30
0.0
 10
17.94924419763041
 20
698.7660874160546
 30
0.0
 10
18.21903754137835
 20
698.0284680685655
 30
0.0
 10
18.70402076920876
 20
697.1084747763999
 30
0.0
 10
19.38414292899945
 20
696.223464422181
 30
0.0
 10
20.05161083769456
 20
695.5305571386883
 30
0.0
 10
21.16695905863029
 20
694.5127787652183
 30
0.0
 10
22.78463425743378
 20
693.3929412514054
 30
0.0
 10
24.99176317517881
 20
692.2442272829724
 30
0.0
 10
26.51896447780263
 20
691.5830411454732
 30
0.0
 10
27.8213362079239
 20
691.0928759532338
 30
0.0
 10
29.16928908583915
 20
690.6315333879647
 30
0.0
 10
31.67292183487079
 20
689.8919761299071
 30
0.0
 10
34.8267698002935
 20
689.2199917004612
 30
0.0
 10
38.1599240276454
 20
688.7422314634895
 30
0.0
 10
40.73532030792793
 20
688.4826392297052
 30
0.0
 10
42.91272822642997
 20
688.3535750791336
 30
0.0
 10
44.6813422469863
 20
688.2988478615584
 30
0.0
 10
45.56648729411239
 20
688.2936554400294
 30
0.0
 10
46.02265961775566
 20
688.2909795566801
 30
0.0
  0
SPLINE
  5
6E
330
5E
100
AcDbEntity
  8
$DDT_AUDIT_GENERATED_(63)
  6
Continuous
 62
     7
100
AcDbSpline
210
0.0
220
0.0
230
1.0
 70
     8
 71
     3
 72
    22
 73
    18
 74
     0
 42
0.0000000003124417
 43
0.0000000001
 40
0.0
 40
0.0
 40
0.0
 40
0.0
 40
0.1250000000000001
 40
0.1250000000000001
 40
0.2500000000000001
 40
0.2500000000000001
 40
0.3750000000000002
 40
0.3750000000000002
 40
0.5000000000000002
 40
0.5000000000000002
 40
0.6250000000000002
 40
0.6250000000000002
 40
0.7500000000000002
 40
0.7500000000000002
 40
0.8750000000000001
 40
0.8750000000000001
 40
1.0
 40
1.0
 40
1.0
 40
1.0
 10
74.22531182290406
 20
699.314420743327
 30
0.0
 10
74.06827046552458
 20
698.560614554144
 30
0.0
 10
73.76403199567133
 20
697.8285901935653
 30
0.0
 10
72.83906440300738
 20
696.3989855438431
 30
0.0
 10
72.20851306886269
 20
695.696060953218
 30
0.0
 10
70.63959232395253
 20
694.3460311253979
 30
0.0
 10
69.72209012294435
 20
693.7122300096581
 30
0.0
 10
67.64224007622603
 20
692.5245405921867
 30
0.0
 10
66.4657962153372
 20
691.9652463721993
 30
0.0
 10
63.91563365097229
 20
690.9596295505227
 30
0.0
 10
62.54559486905119
 20
690.5125361424194
 30
0.0
 10
59.59911415685806
 20
689.7277318419316
 30
0.0
 10
58.00373807929709
 20
689.3874078929714
 30
0.0
 10
54.72749059586477
 20
688.8445911912593
 30
0.0
 10
53.04172925287377
 20
688.639301863331
 30
0.0
 10
49.5766709536458
 20
688.3618815791361
 30
0.0
 10
47.78503208477049
 20
688.2911050076317
 30
0.0
 10
46.02265961775566
 20
688.2909795566801
 30
0.0
  0
SPLINE
  5
6F
330
5E
100
AcDbEntity
  8
$DDT_AUDIT_GENERATED_(63)
  6
Continuous
 62
     7
100
AcDbSpline
210
0.0
220
0.0
230
1.0
 70
     8
 71
     3
 72
    25
 73
    21
 74
     0
 42
0.0000000002997519
 43
0.0000000001
 40
0.0
 40
0.0
 40
0.0
 40
0.0
 40
0.0018440163394466
 40
0.0097036092227056
 40
0.0254227949894495
 40
0.0568611665229373
 40
0.1197379095899128
 40
0.1826146526566625
 40
0.245491395723638
 40
0.3712448818573633
 40
0.4341216249243389
 40
0.4969983679913144
 40
0.6227518541250396
 40
0.6541902256585274
 40
0.6856285971920152
 40
0.7485053402587649
 40
0.8113820833257405
 40
0.874258826392716
 40
0.9371355694594656
 40
1.0
 40
1.0
 40
1.0
 40
1.0
 10
46.02265961788382
 20
712.3107276789627
 30
0.0
 10
46.05077777327971
 20
712.3107276617379
 30
0.0
 10
46.19873074502202
 20
712.3107133866835
 30
0.0
 10
46.58578193320245
 20
712.3092009612401
 30
0.0
 10
47.42069860704452
 20
712.2991727097716
 30
0.0
 10
49.0797859160772
 20
712.2527588122703
 30
0.0
 10
51.42133266800843
 20
712.1156331335637
 30
0.0
 10
54.18255372154248
 20
711.8413457943719
 30
0.0
 10
57.81358966450399
 20
711.3169662468847
 30
0.0
 10
61.14415610675671
 20
710.5804482015399
 30
0.0
 10
64.2048364045236
 20
709.609936908638
 30
0.0
 10
66.99747360870053
 20
708.4999986095266
 30
0.0
 10
69.0297434552091
 20
707.3802586269411
 30
0.0
 10
70.49915426979123
 20
706.3173922306933
 30
0.0
 10
71.38965477561528
 20
705.5962855374023
 30
0.0
 10
72.35105044405873
 20
704.6727995747392
 30
0.0
 10
73.2835598933721
 20
703.542545147465
 30
0.0
 10
73.95202663507625
 20
702.3661538864698
 30
0.0
 10
74.28030420218366
 20
701.1632146968371
 30
0.0
 10
74.31738299480195
 20
700.3552307647094
 30
0.0
 10
74.30349454515407
 20
699.9553719833505
 30
0.0
  0
SPLINE
  5
70
330
5E
100
AcDbEntity
  8
$DDT_AUDIT_GENERATED_(63)
  6
Continuous
 62
     7
100
AcDbSpline
210
0.0
220
0.0
230
1.0
 70
     8
 71
     3
 72
     8
 73
     4
 74
     0
 42
0.0000000004765676
 43
0.0000000001
 40
0.1109598369162963
 40
0.1109598369162963
 40
0.1109598369162963
 40
0.1109598369162963
 40
0.1130004091902468
 40
0.1130004091902468
 40
0.1130004091902468
 40
0.1130004091902468
 10
74.90801547422299
 20
703.832035404055
 30
0.0
 10
74.90329663834827
 20
703.8454886416241
 30
0.0
 10
74.89851824300881
 20
703.8589376317178
 30
0.0
 10
74.89367983346501
 20
703.872382149278
 30
0.0
  0
SPLINE
  5
71
330
5E
100
AcDbEntity
  8
$DDT_AUDIT_GENERATED_(63)
  6
Continuous
 62
     7
100
AcDbSpline
210
0.0
220
0.0
230
1.0
 70
     8
 71
     3
 72
    24
 73
    20
 74
     0
 42
0.0000000002759355
 43
0.0000000001
 40
0.1130004091902468
 40
0.1130004091902468
 40
0.1130004091902468
 40
0.1130004091902468
 40
0.125
 40
0.125
 40
0.2500000000000001
 40
0.2500000000000001
 40
0.3750000000000001
 40
0.3750000000000001
 40
0.5000000000000001
 40
0.5000000000000001
 40
0.6250000000000001
 40
0.6250000000000001
 40
0.7500000000000002
 40
0.7500000000000002
 40
0.8750000000000001
 40
0.8750000000000001
 40
0.9375000000000001
 40
0.9375000000000001
 40
1.0
 40
1.0
 40
1.0
 40
1.0
 10
74.89367983346501
 20
703.872382149278
 30
0.0
 10
74.86522755297652
 20
703.9514426713756
 30
0.0
 10
74.83469996256281
 20
704.0303485318684
 30
0.0
 10
74.46141619127613
 20
704.9289301869121
 30
0.0
 10
73.89823749922768
 20
705.7096859421301
 30
0.0
 10
72.49358239829057
 20
707.2163672683238
 30
0.0
 10
71.63629698715701
 20
707.9646095642155
 30
0.0
 10
69.56286690063268
 20
709.3967189972872
 30
0.0
 10
68.3740428098094
 20
710.0613302002545
 30
0.0
 10
65.67517828055007
 20
711.2739927525575
 30
0.0
 10
64.15863571041552
 20
711.8213573713435
 30
0.0
 10
60.92766157553594
 20
712.7515156143818
 30
0.0
 10
59.22186695540223
 20
713.1349201919711
 30
0.0
 10
55.61194079437848
 20
713.7545034798916
 30
0.0
 10
53.72178582051077
 20
713.9880996630282
 30
0.0
 10
50.8724286250411
 20
714.2203435833258
 30
0.0
 10
49.91446459069659
 20
714.2792127802816
 30
0.0
 10
47.98262807320526
 20
714.3590145443688
 30
0.0
 10
46.98571115648291
 20
714.3798974053973
 30
0.0
 10
46.02265961756228
 20
714.3798939690996
 30
0.0
  0
SPLINE
  5
72
330
5E
100
AcDbEntity
  8
$DDT_AUDIT_GENERATED_(63)
  6
Continuous
 62
     7
100
AcDbSpline
210
0.0
220
0.0
230
1.0
 70
     8
 71
     3
 72
     8
 73
     4
 74
     0
 42
0.0000000004799926
 43
0.0000000001
 40
0.1107497338764028
 40
0.1107497338764028
 40
0.1107497338764028
 40
0.1107497338764028
 40
0.1128048795338042
 40
0.1128048795338042
 40
0.1128048795338042
 40
0.1128048795338042
 10
17.13665043435738
 20
703.8319237615361
 30
0.0
 10
17.14135180208865
 20
703.8453845566337
 30
0.0
 10
17.14611166298887
 20
703.8588394303033
 30
0.0
 10
17.15093046143203
 20
703.8722881925055
 30
0.0
  0
SPLINE
  5
73
330
5E
100
AcDbEntity
  8
$DDT_AUDIT_GENERATED_(63)
  6
Continuous
 62
     7
100
AcDbSpline
210
0.0
220
0.0
230
1.0
 70
     8
 71
     3
 72
    21
 73
    17
 74
     0
 42
0.0000000002757667
 43
0.0000000001
 40
0.1128048795338042
 40
0.1128048795338042
 40
0.1128048795338042
 40
0.1128048795338042
 40
0.1249191276557098
 40
0.1900169531513008
 40
0.2503687221921948
 40
0.3750171411895289
 40
0.499888491355072
 40
0.6063834820577384
 40
0.7499780042780654
 40
0.8123724278180365
 40
0.8751524765527087
 40
0.8868957368044837
 40
0.9056207065036734
 40
0.931096062630107
 40
0.962846370653044
 40
1.0
 40
1.0
 40
1.0
 40
1.0
 10
17.15093046143203
 20
703.8722881925055
 30
0.0
 10
17.17933531915084
 20
703.9515631780347
 30
0.0
 10
17.37343050923841
 20
704.4554813690763
 30
0.0
 10
17.87404128235466
 20
705.3350941298218
 30
0.0
 10
19.13719994856535
 20
706.8547248143843
 30
0.0
 10
21.27947911207008
 20
708.7239463179434
 30
0.0
 10
24.69783399092699
 20
710.6332103853126
 30
0.0
 10
29.11618980144531
 20
712.2848369608795
 30
0.0
 10
33.41952693851136
 20
713.2851120759572
 30
0.0
 10
37.36637136658035
 20
713.8723069144114
 30
0.0
 10
39.44196511130251
 20
714.0807648604844
 30
0.0
 10
40.87002371572162
 20
714.1904862175087
 30
0.0
 10
41.73041377628195
 20
714.2491996869759
 30
0.0
 10
42.9042400769709
 20
714.312403483988
 30
0.0
 10
44.36989022677272
 20
714.3675443817823
 30
0.0
 10
45.44366857335926
 20
714.3755682974429
 30
0.0
 10
46.02265961756228
 20
714.3798939690996
 30
0.0
  0
ARC
  5
74
330
5E
100
AcDbEntity
  8
$DDT_AUDIT_GENERATED_(63)
  6
Continuous
 62
     7
100
AcDbCircle
 10
36.8135065555
 20
670.7711307011
 30
0.0
 40
8.214345880242165
100
AcDbArc
 50
179.8860550598
 51
187.9426400691
  0
ARC
  5
75
330
5E
100
AcDbEntity
  8
$DDT_AUDIT_GENERATED_(63)
  6
Continuous
 62
     7
100
AcDbCircle
 10
-393.5099801494
 20
674.5759280495
 30
0.0
 40
422.1221701290222
100
AcDbArc
 50
0.9125328183
 51
2.2172064584
  0
ARC
  5
76
330
5E
100
AcDbEntity
  8
$DDT_AUDIT_GENERATED_(63)
  6
Continuous
 62
     7
100
AcDbCircle
 10
485.5552993849
 20
674.5759280495
 30
0.0
 40
422.1221701290222
100
AcDbArc
 50
177.7827935416
 51
179.0874671817
  0
ARC
  5
77
330
5E
100
AcDbEntity
  8
$DDT_AUDIT_GENERATED_(63)
  6
Continuous
 62
     7
100
AcDbCircle
 10
57.7768085512
 20
682.1491948795
 30
0.0
 40
5.772857475640421
100
AcDbArc
 50
358.5100563422
 51
358.9363113073
  0
LINE
  5
78
330
5E
100
AcDbEntity
  8
$DDT_AUDIT_GENERATED_(63)
  6
Continuous
 62
     7
100
AcDbLine
 10
36.0312044785
 20
680.3270721331
 30
0.0
 11
36.0225594775
 21
680.4534091643
 31
0.0
  0
ARC
  5
79
330
5E
100
AcDbEntity
  8
$DDT_AUDIT_GENERATED_(63)
  6
Continuous
 62
     7
100
AcDbCircle
 10
54.9961664188
 20
680.4593690587
 30
0.0
 40
1.027761530125349
100
AcDbArc
 50
352.9729968074
 51
359.7005876355
  0
ARC
  5
7A
330
5E
100
AcDbEntity
  8
$DDT_AUDIT_GENERATED_(63)
  6
Continuous
 62
     7
100
AcDbCircle
 10
68.4551926887
 20
701.5511473067
 30
0.0
 40
6.83932684165502
100
AcDbArc
 50
356.9711644272
 51
19.4427622593
  0
ARC
  5
7B
330
5E
100
AcDbEntity
  8
$DDT_AUDIT_GENERATED_(63)
  6
Continuous
 62
     7
100
AcDbCircle
 10
23.5904991891
 20
701.5510620792
 30
0.0
 40
6.839706603167823
100
AcDbArc
 50
160.5576035806
 51
183.0302202262
  0
ARC
  5
7C
330
5E
100
AcDbEntity
  8
$DDT_AUDIT_GENERATED_(63)
  6
Continuous
 62
     7
100
AcDbCircle
 10
21.9125145463
 20
701.3667756666
 30
0.0
 40
5.160021768242933
100
AcDbArc
 50
182.076429304
 51
191.6508791932
  0
SPLINE
  5
7D
330
5E
100
AcDbEntity
  8
$DDT_AUDIT_GENERATED_(63)
  6
Continuous
 62
     7
100
AcDbSpline
210
0.0
220
0.0
230
1.0
 70
     8
 71
     3
 72
    30
 73
    26
 74
     0
 42
0.0000000003310912
 43
0.0000000001
 40
0.0
 40
0.0
 40
0.0
 40
0.0
 40
0.0302677445563413
 40
0.0636177307739521
 40
0.0939491512804881
 40
0.1213327479059182
 40
0.1465078805650659
 40
0.1945022038351377
 40
0.2408749871523678
 40
0.2742027593514812
 40
0.3053981397055123
 40
0.3344663513655768
 40
0.3610371826247307
 40
0.3853274988316251
 40
0.4111132974535539
 40
0.435556701113685
 40
0.4622084022365563
 40
0.4909241116207854
 40
0.521570584048857
 40
0.554446227960857
 40
0.5904961656357145
 40
0.629865049769702
 40
0.6671520371219689
 40
0.7072742653345362
 40
0.7249546653222317
 40
0.7249546653222317
 40
0.7249546653222317
 40
0.7249546653222317
 10
16.86447131459083
 20
700.3299003759387
 30
0.0
 10
16.91720945238957
 20
700.0865313195187
 30
0.0
 10
17.01368614400335
 20
699.6553458861456
 30
0.0
 10
17.26317640981796
 20
698.9698026323376
 30
0.0
 10
17.55943427908896
 20
698.3362095691579
 30
0.0
 10
17.88393534034239
 20
697.7703259291054
 30
0.0
 10
18.33212891725925
 20
697.1030867107943
 30
0.0
 10
18.95959989155269
 20
696.3332714344571
 30
0.0
 10
19.75511814503455
 20
695.5485474179851
 30
0.0
 10
20.52193769831833
 20
694.8995573146306
 30
0.0
 10
21.21419009173853
 20
694.3764385944567
 30
0.0
 10
21.89185424458308
 20
693.91273865637
 30
0.0
 10
22.55066780152069
 20
693.4997351066995
 30
0.0
 10
23.20906564054215
 20
693.1175975509592
 30
0.0
 10
23.87582315100242
 20
692.7581172880786
 30
0.0
 10
24.59207955298962
 20
692.3995747249517
 30
0.0
 10
25.36507997377898
 20
692.0405906864208
 30
0.0
 10
26.232254502181
 20
691.6693148383322
 30
0.0
 10
27.20077106402798
 20
691.289583879441
 30
0.0
 10
28.29014366859896
 20
690.9015702619215
 30
0.0
 10
29.52560709157597
 20
690.5063568061249
 30
0.0
 10
30.86682190953171
 20
690.1266482488566
 30
0.0
 10
32.3108229994566
 20
689.7679928514542
 30
0.0
 10
33.52597854111772
 20
689.5055742397572
 30
0.0
 10
34.28023970066013
 20
689.3598083903929
 30
0.0
 10
34.51231338187991
 20
689.3165244656539
 30
0.0
  0
SPLINE
  5
7E
330
5E
100
AcDbEntity
  8
$DDT_AUDIT_GENERATED_(63)
  6
Continuous
 62
     7
100
AcDbSpline
210
0.0
220
0.0
230
1.0
 70
     8
 71
     3
 72
     8
 73
     4
 74
     0
 42
0.0000000002123827
 43
0.0000000001
 40
0.9976349805325744
 40
0.9976349805325744
 40
0.9976349805325744
 40
0.9976349805325744
 40
1.0
 40
1.0
 40
1.0
 40
1.0
 10
45.91131029900053
 20
688.2913324840662
 30
0.0
 10
45.94818479572453
 20
688.2909964393488
 30
0.0
 10
45.98529761827124
 20
688.2906628627389
 30
0.0
 10
46.02266230556414
 20
688.2903304187319
 30
0.0
  0
SPLINE
  5
7F
330
5E
100
AcDbEntity
  8
$DDT_AUDIT_GENERATED_(63)
  6
Continuous
 62
     7
100
AcDbSpline
210
0.0
220
0.0
230
1.0
 70
     8
 71
     3
 72
    36
 73
    32
 74
     0
 42
0.0000000002987928
 43
0.0000000001
 40
0.0
 40
0.0
 40
0.0
 40
0.0
 40
0.0551272543485808
 40
0.1080238106877487
 40
0.1579585848416672
 40
0.2052359811788593
 40
0.250096275103224
 40
0.2927222856685064
 40
0.3328440411469258
 40
0.3701305891708471
 40
0.4094990094468654
 40
0.4455485223687461
 40
0.4784237789284162
 40
0.5090698902690372
 40
0.5377852613147421
 40
0.5644366484179404
 40
0.588879764077331
 40
0.6146652588819561
 40
0.638955288891848
 40
0.6655258070841779
 40
0.6945936762524115
 40
0.7257886890515644
 40
0.7591160685712142
 40
0.7884428142102903
 40
0.8184200906041772
 40
0.8490605675297475
 40
0.880527678559993
 40
0.9076012941988425
 40
0.9375214334647665
 40
0.9703560788496779
 40
1.0
 40
1.0
 40
1.0
 40
1.0
 10
46.0226569301116
 20
688.2903304187319
 30
0.0
 10
46.89361673324751
 20
688.2980795901569
 30
0.0
 10
48.33213334465206
 20
688.3144702468837
 30
0.0
 10
50.63001772677282
 20
688.436862712901
 30
0.0
 10
52.73304819591327
 20
688.6178457200574
 30
0.0
 10
54.69994020851674
 20
688.8519663142313
 30
0.0
 10
56.52052597890535
 20
689.1280290383348
 30
0.0
 10
58.20055291669981
 20
689.4367305047934
 30
0.0
 10
59.73449623614886
 20
689.7679928514765
 30
0.0
 10
61.17849732606982
 20
690.1266482488829
 30
0.0
 10
62.51971214399596
 20
690.5063568061388
 30
0.0
 10
63.7551755670344
 20
690.9015702619794
 30
0.0
 10
64.84454817137129
 20
691.2895838793557
 30
0.0
 10
65.81306473397277
 20
691.6693148387266
 30
0.0
 10
66.68023925980347
 20
692.0405906851952
 30
0.0
 10
67.45323968914313
 20
692.3995747291274
 30
0.0
 10
68.1694960616896
 20
692.7581172736666
 30
0.0
 10
68.83625368360381
 20
693.1175976069266
 30
0.0
 10
69.49465111291326
 20
693.4997349039568
 30
0.0
 10
70.15346637107822
 20
693.9127395278663
 30
0.0
 10
70.83112329137127
 20
694.3764348989721
 30
0.0
 10
71.5234057719955
 20
694.8995726176612
 30
0.0
 10
72.1722419697077
 20
695.4487336875684
 30
0.0
 10
72.76328922808483
 20
696.0124304959668
 30
0.0
 10
73.28408266386303
 20
696.5767189088724
 30
0.0
 10
73.75887488253086
 20
697.1717907370587
 30
0.0
 10
74.1588522127547
 20
697.7628318634412
 30
0.0
 10
74.50190658804712
 20
698.3677243114936
 30
0.0
 10
74.7914633136952
 20
698.9933634779505
 30
0.0
 10
75.03493863350988
 20
699.6679814113169
 30
0.0
 10
75.12943902931092
 20
700.091509149173
 30
0.0
 10
75.18097820246942
 20
700.3298778892746
 30
0.0
  0
ARC
  5
80
330
5E
100
AcDbEntity
  8
$DDT_AUDIT_GENERATED_(63)
  6
Continuous
 62
     7
100
AcDbCircle
 10
70.1328070924
 20
701.3667754633
 30
0.0
 40
5.160019359268103
100
AcDbArc
 50
348.3492070609
 51
357.9235715006
  0
ARC
  5
81
330
5E
100
AcDbEntity
  8
$DDT_AUDIT_GENERATED_(63)
  6
Continuous
 62
     7
100
AcDbCircle
 10
-220.1945241539
 20
597.0774695852
 30
0.0
 40
313.8193571969079
100
AcDbArc
 50
19.8964498171
 51
25.5251512773
  0
SPLINE
  5
82
330
5E
100
AcDbEntity
  8
$DDT_AUDIT_GENERATED_(63)
  6
Continuous
 62
     7
100
AcDbSpline
210
0.0
220
0.0
230
1.0
 70
     8
 71
     3
 72
    40
 73
    36
 74
     0
 42
0.0000000005227787
 43
0.0000000001
 40
0.0
 40
0.0
 40
0.0
 40
0.0
 40
0.0365489255878167
 40
0.0698646358723471
 40
0.0955077756378232
 40
0.1135049676083007
 40
0.1298849458765055
 40
0.1449060527449395
 40
0.1612762313880365
 40
0.1792330885924403
 40
0.1999033569707714
 40
0.2233971137263344
 40
0.2484319308975436
 40
0.2771684431388022
 40
0.3006680052778408
 40
0.3276358603532443
 40
0.3608133847764903
 40
0.3972270653205379
 40
0.4352829357953467
 40
0.4724551703068229
 40
0.5121964317436518
 40
0.5481154880716552
 40
0.5799417131681788
 40
0.6064469951861664
 40
0.6275435739424403
 40
0.6447708890800342
 40
0.6648029255114478
 40
0.6934448950018401
 40
0.7306197343570495
 40
0.7761881252047292
 40
0.8185749284410987
 40
0.8662797496357075
 40
0.9195080472566519
 40
0.9786562219086578
 40
1.0
 40
1.0
 40
1.0
 40
1.0
 10
62.9894585190081
 20
732.3103317823015
 30
0.0
 10
62.89410924200456
 20
732.501913047017
 30
0.0
 10
62.73871150464037
 20
732.8096667228164
 30
0.0
 10
62.4502671344225
 20
733.2586323802486
 30
0.0
 10
62.19834231660408
 20
733.6021264944266
 30
0.0
 10
61.98546232065998
 20
733.8655660708054
 30
0.0
 10
61.80595910664857
 20
734.0724092988338
 30
0.0
 10
61.62856599875295
 20
734.2648173721185
 30
0.0
 10
61.43930889154958
 20
734.4584997037567
 30
0.0
 10
61.22138486324952
 20
734.6682603944861
 30
0.0
 10
60.9676935468981
 20
734.8968479938584
 30
0.0
 10
60.67390087597922
 20
735.1430755617339
 30
0.0
 10
60.33157344402868
 20
735.4087042150397
 30
0.0
 10
59.97353493330515
 20
735.6642764041239
 30
0.0
 10
59.59567743118289
 20
735.913516829126
 30
0.0
 10
59.18643071115806
 20
736.164132126965
 30
0.0
 10
58.69340326096017
 20
736.4409417827152
 30
0.0
 10
58.12210090981746
 20
736.7313640198612
 30
0.0
 10
57.50808365209911
 20
737.0125110447696
 30
0.0
 10
56.84982822915699
 20
737.2837586349967
 30
0.0
 10
56.17773879510776
 20
737.5319136813304
 30
0.0
 10
55.51600532012068
 20
737.7505169035712
 30
0.0
 10
54.92093417200999
 20
737.9278972913346
 30
0.0
 10
54.40775827639229
 20
738.0678081385889
 30
0.0
 10
53.98233536513573
 20
738.1754682266111
 30
0.0
 10
53.59615757816966
 20
738.2673969020566
 30
0.0
 10
53.15903197511117
 20
738.3653299550532
 30
0.0
 10
52.58120397450776
 20
738.4846487363284
 30
0.0
 10
51.81802829777671
 20
738.6248847658309
 30
0.0
 10
50.94256951396538
 20
738.7619346383595
 30
0.0
 10
49.97649971723256
 20
738.8860855003318
 30
0.0
 10
48.93710480549289
 20
738.9901662465805
 30
0.0
 10
47.77169102123309
 20
739.0671589103428
 30
0.0
 10
46.75433783867311
 20
739.1064853708496
 30
0.0
 10
46.19607987065501
 20
739.1002858592467
 30
0.0
 10
46.02261114180081
 20
739.0981862141941
 30
0.0
  0
SPLINE
  5
83
330
5E
100
AcDbEntity
  8
$DDT_AUDIT_GENERATED_(63)
  6
Continuous
 62
     7
100
AcDbSpline
210
0.0
220
0.0
230
1.0
 70
     8
 71
     3
 72
    42
 73
    38
 74
     0
 42
0.0000000005228736
 43
0.0000000001
 40
0.0
 40
0.0
 40
0.0
 40
0.0
 40
0.0213509137744603
 40
0.0805170674546977
 40
0.1337609536580108
 40
0.1814791289754606
 40
0.2238771061154791
 40
0.2694563256134884
 40
0.30663839333632
 40
0.3336418003288988
 40
0.3531446371701645
 40
0.3656089911185466
 40
0.3782529362796865
 40
0.3934665763148613
 40
0.4112607804327441
 40
0.4444427451382986
 40
0.4830872415184375
 40
0.5267411917184354
 40
0.5643080544387924
 40
0.6027189319684411
 40
0.6391015991304337
 40
0.6720824862180618
 40
0.699115446906836
 40
0.7228517844112331
 40
0.7516511132571095
 40
0.780705220653775
 40
0.8072612114095781
 40
0.8300605774676154
 40
0.8499097873708467
 40
0.8591190858174748
 40
0.8678495090419929
 40
0.8760993106498142
 40
0.8866055037880112
 40
0.904604959161077
 40
0.9302671757804494
 40
0.963618929426086
 40
1.0
 40
1.0
 40
1.0
 40
1.0
 10
46.02262596999516
 20
739.0981848987648
 30
0.0
 10
45.84913731930435
 20
739.1002845601523
 30
0.0
 10
45.29082777993514
 20
739.1064838615961
 30
0.0
 10
44.27338943849049
 20
739.0671480513353
 30
0.0
 10
43.10789323401264
 20
738.9901403875693
 30
0.0
 10
42.06844222452168
 20
738.8860431885003
 30
0.0
 10
41.1023385799003
 20
738.761876211012
 30
0.0
 10
40.22688412108253
 20
738.6248164455513
 30
0.0
 10
39.47496390639255
 20
738.4866370365644
 30
0.0
 10
38.9116084711754
 20
738.3706270150626
 30
0.0
 10
38.52002408125218
 20
738.2834373891816
 30
0.0
 10
38.22494027961073
 20
738.2142106624752
 30
0.0
 10
37.9588217614042
 20
738.1492041118391
 30
0.0
 10
37.65998777145868
 20
738.0729062211486
 30
0.0
 10
37.23114185830098
 20
737.957605872371
 30
0.0
 10
36.66175842033581
 20
737.7920926991453
 30
0.0
 10
35.9473971407517
 20
737.5604673218788
 30
0.0
 10
35.23138940943407
 20
737.2982745755792
 30
0.0
 10
34.54607957971556
 20
737.0164433525252
 30
0.0
 10
33.92814502130096
 20
736.7337779369589
 30
0.0
 10
33.35634776619428
 20
736.443271627341
 30
0.0
 10
32.86405790870427
 20
736.1671386464413
 30
0.0
 10
32.45407308083306
 20
735.9163622242833
 30
0.0
 10
32.07444583100393
 20
735.6661390866492
 30
0.0
 10
31.69650872905239
 20
735.3964513869686
 30
0.0
 10
31.32383967817406
 20
735.1055435127549
 30
0.0
 10
30.99428087718627
 20
734.8244474110019
 30
0.0
 10
30.7152782725968
 20
734.5661573418021
 30
0.0
 10
30.5135261998889
 20
734.3649484937525
 30
0.0
 10
30.37082397007399
 20
734.2148560212243
 30
0.0
 10
30.27350058573199
 20
734.1089876702953
 30
0.0
 10
30.17328451441744
 20
733.9963768776292
 30
0.0
 10
30.03966006369415
 20
733.8405665452734
 30
0.0
 10
29.84782729026533
 20
733.6032200007987
 30
0.0
 10
29.59557719587884
 20
733.25941558439
 30
0.0
 10
29.30748213344282
 20
732.8111545236998
 30
0.0
 10
29.15237504844717
 20
732.5040294958866
 30
0.0
 10
29.05747317449657
 20
732.3133836706347
 30
0.0
  0
ARC
  5
84
330
5E
100
AcDbEntity
  8
$DDT_AUDIT_GENERATED_(63)
  6
Continuous
 62
     7
100
AcDbCircle
 10
312.2210820284
 20
597.0847622234
 30
0.0
 40
313.7991708171704
100
AcDbArc
 50
154.4743919204
 51
160.1036423854
  0
SPLINE
  5
85
330
5E
100
AcDbEntity
  8
$DDT_AUDIT_GENERATED_(63)
  6
Continuous
 62
     7
100
AcDbSpline
210
0.0
220
0.0
230
1.0
 70
     8
 71
     3
 72
    35
 73
    31
 74
     0
 42
0.0000000003509203
 43
0.0000000001
 40
0.0
 40
0.0
 40
0.0
 40
0.0
 40
0.0548219377714967
 40
0.1079020043189173
 40
0.1532747132464095
 40
0.1909330960831697
 40
0.2209921501980569
 40
0.2486770282948718
 40
0.2767698926503276
 40
0.3167997961155912
 40
0.3576490344738404
 40
0.3992354876548996
 40
0.4415471827645573
 40
0.4845846863631434
 40
0.5210846296500434
 40
0.5581473727617439
 40
0.5956582065935441
 40
0.6204908250905427
 40
0.6400952610412497
 40
0.6551246770377231
 40
0.6718590818709284
 40
0.6918952247298278
 40
0.7156067773420286
 40
0.7457020696612466
 40
0.7827117861872663
 40
0.8172987585222884
 40
0.8563135281984942
 40
0.899761642385978
 40
0.9476523158305439
 40
1.0
 40
1.0
 40
1.0
 40
1.0
 10
28.68504470688406
 20
669.6105179439966
 30
0.0
 10
28.761345906362
 20
669.0681263805591
 30
0.0
 10
28.88904271646232
 20
668.169334298743
 30
0.0
 10
29.11038950853614
 20
666.766263145327
 30
0.0
 10
29.32256405501318
 20
665.5531715050764
 30
0.0
 10
29.51816422984372
 20
664.541769771783
 30
0.0
 10
29.69848221585279
 20
663.6923302087494
 30
0.0
 10
29.87500191302493
 20
662.930234898824
 30
0.0
 10
30.09054402177854
 20
662.0832332452278
 30
0.0
 10
30.36714623291439
 20
661.1264418285907
 30
0.0
 10
30.73364489655721
 20
660.0652127869104
 30
0.0
 10
31.18111822801889
 20
659.0068452260856
 30
0.0
 10
31.73094414595835
 20
657.9659189797688
 30
0.0
 10
32.36569445470704
 20
657.0181176914174
 30
0.0
 10
33.07350339856941
 20
656.1738349968799
 30
0.0
 10
33.83293656171138
 20
655.4346460955685
 30
0.0
 10
34.58126533920709
 20
654.8373737419777
 30
0.0
 10
35.23691951388368
 20
654.3896073424727
 30
0.0
 10
35.72969825700744
 20
654.0865545056596
 30
0.0
 10
36.16521509808369
 20
653.8387794948957
 30
0.0
 10
36.61271405354002
 20
653.6014792246392
 30
0.0
 10
37.14534183307958
 20
653.3407634234126
 30
0.0
 10
37.8086962707924
 20
653.045448907492
 30
0.0
 10
38.64171237772296
 20
652.7158798490223
 30
0.0
 10
39.59503225335003
 20
652.3922708298171
 30
0.0
 10
40.65089630985378
 20
652.0919833321575
 30
0.0
 10
41.78758791186085
 20
651.8295602101826
 30
0.0
 10
43.06290838840365
 20
651.6091203125396
 30
0.0
 10
44.51818838933222
 20
651.4463821052262
 30
0.0
 10
45.44685203360039
 20
651.4234771978755
 30
0.0
 10
46.02265946710794
 20
651.4120804331255
 30
0.0
  0
SPLINE
  5
86
330
5E
100
AcDbEntity
  8
$DDT_AUDIT_GENERATED_(63)
  6
Continuous
 62
     7
100
AcDbSpline
210
0.0
220
0.0
230
1.0
 70
     8
 71
     3
 72
    36
 73
    32
 74
     0
 42
0.0000000003509352
 43
0.0000000001
 40
0.0
 40
0.0
 40
0.0
 40
0.0
 40
0.0483984648751303
 40
0.0973354250991965
 40
0.1408184917438387
 40
0.1788580823380654
 40
0.2114589532570028
 40
0.2390798956546098
 40
0.264934763707036
 40
0.2896479084634592
 40
0.3208239134338801
 40
0.3495547932638195
 40
0.3753931398039832
 40
0.3959533394287261
 40
0.4197892932858904
 40
0.4469023898524519
 40
0.4765683770214552
 40
0.5152464565744882
 40
0.552377623574571
 40
0.5879400250837512
 40
0.6383657647354768
 40
0.6854033728844651
 40
0.7053890370530812
 40
0.7257540772181729
 40
0.7508401018622106
 40
0.7811123857086357
 40
0.8165664193747931
 40
0.8564280363851845
 40
0.9012827439844623
 40
0.9511274152073309
 40
1.0
 40
1.0
 40
1.0
 40
1.0
 10
46.02256361485363
 20
651.4184729890071
 30
0.0
 10
46.55500621803694
 20
651.4252999747148
 30
0.0
 10
47.45815462745246
 20
651.4410030550499
 30
0.0
 10
48.88662826958636
 20
651.5957979833586
 30
0.0
 10
50.16376883179908
 20
651.8110363881325
 30
0.0
 10
51.27341999698825
 20
652.0620207299636
 30
0.0
 10
52.21345771099288
 20
652.3226179297136
 30
0.0
 10
53.02492090421695
 20
652.5846994287888
 30
0.0
 10
53.75043154965731
 20
652.8503187413532
 30
0.0
 10
54.49584242491966
 20
653.1558516625826
 30
0.0
 10
55.25040363903634
 20
653.5049087847252
 30
0.0
 10
55.99264291676634
 20
653.8959320321585
 30
0.0
 10
56.62172989202885
 20
654.2700454787787
 30
0.0
 10
57.18951588774245
 20
654.6464349289672
 30
0.0
 10
57.74470609390945
 20
655.0569213747469
 30
0.0
 10
58.33649524844829
 20
655.5556457127145
 30
0.0
 10
58.98619094463888
 20
656.1927613118456
 30
0.0
 10
59.62948529481906
 20
656.9547857456813
 30
0.0
 10
60.21704979427026
 20
657.8161649771305
 30
0.0
 10
60.77365912484387
 20
658.8150235237065
 30
0.0
 10
61.26836969565092
 20
659.9384038080365
 30
0.0
 10
61.62061091881044
 20
660.9561918565081
 30
0.0
 10
61.8502022182271
 20
661.7213967434583
 30
0.0
 10
62.00931556626532
 20
662.2973080738263
 30
0.0
 10
62.17908527561674
 20
662.9667418670234
 30
0.0
 10
62.36527228015913
 20
663.7730404825923
 30
0.0
 10
62.56208123582656
 20
664.7136083097043
 30
0.0
 10
62.76556646662993
 20
665.7891490800997
 30
0.0
 10
62.97106651734345
 20
666.9888226771521
 30
0.0
 10
63.17572040819925
 20
668.3039284868711
 30
0.0
 10
63.29240164906838
 20
669.1269106698761
 30
0.0
 10
63.36037421209898
 20
669.610478902442
 30
0.0
  0
ARC
  5
87
330
5E
100
AcDbEntity
  8
$DDT_AUDIT_GENERATED_(63)
  6
Continuous
 62
     7
100
AcDbCircle
 10
569.844168825
 20
671.8235810678
 30
0.0
 40
506.3985268529348
100
AcDbArc
 50
178.8410912494
 51
180.1172441666
  0
LINE
  5
88
330
5E
100
AcDbEntity
  8
$DDT_AUDIT_GENERATED_(63)
  6
Continuous
 62
     7
100
AcDbLine
 10
63.3585451637
 20
669.5993933719
 30
0.0
 11
63.3675134507
 21
669.7325629706
 31
0.0
  0
ARC
  5
89
330
5E
100
AcDbEntity
  8
$DDT_AUDIT_GENERATED_(63)
  6
Continuous
 62
     7
100
AcDbCircle
 10
-475.9542356086
 20
671.8207144825
 30
0.0
 40
504.5543110145733
100
AcDbArc
 50
359.8826624471
 51
1.160791954
  0
ELLIPSE
  5
8B
330
5E
100
AcDbEntity
  8
$DDT_AUDIT_GENERATED_(8A)
  6
Continuous
 62
     7
100
AcDbEllipse
 10
46.0226596178
 20
698.7994161712
 30
0.0
 11
-12.5
 21
0.0
 31
0.0
210
0.0
220
0.0
230
1.0
 40
0.4226182889
 41
6.159399511047115
 42
6.283185307179586
  0
ELLIPSE
  5
8C
330
5E
100
AcDbEntity
  8
$DDT_AUDIT_GENERATED_(8A)
  6
Continuous
 62
     7
100
AcDbEllipse
 10
46.0226596178
 20
698.7994161712
 30
0.0
 11
-12.5
 21
0.0
 31
0.0
210
0.0
220
0.0
230
1.0
 40
0.4226182889
 41
3.141592653589793
 42
3.264837907588949
  0
SPLINE
  5
8D
330
5E
100
AcDbEntity
  8
$DDT_AUDIT_GENERATED_(8A)
  6
Continuous
 62
     7
100
AcDbSpline
210
0.0
220
0.0
230
1.0
 70
     8
 71
     3
 72
    53
 73
    49
 74
     0
 42
0.0000000003608262
 43
0.0000000001
 40
0.0
 40
0.0
 40
0.0
 40
0.0
 40
0.0062796401001912
 40
0.0292187907699078
 40
0.0519069638993793
 40
0.0743825447570295
 40
0.0967135968120015
 40
0.1189620346722161
 40
0.1411724767436892
 40
0.1633731363609991
 40
0.1855763189072126
 40
0.2077919419905654
 40
0.2300246726439681
 40
0.2522758245136511
 40
0.2745448795417448
 40
0.2968304026145916
 40
0.3191305679624638
 40
0.3414434481403342
 40
0.3637671624186093
 40
0.386099944180161
 40
0.4084401629607559
 40
0.430786321953615
 40
0.4531370428640581
 40
0.4754910447043564
 40
0.4978471200223595
 40
0.5202041102710295
 40
0.5425607279349184
 40
0.564915612141381
 40
0.5872675904834679
 40
0.6096154315598767
 40
0.631957819458336
 40
0.6542933287125882
 40
0.6766204011855811
 40
0.6989373280840655
 40
0.7212422432267271
 40
0.7435331386977667
 40
0.7658079225006145
 40
0.7880645519385426
 40
0.8103012993272096
 40
0.8325172422327977
 40
0.854713121918241
 40
0.8768927779778739
 40
0.8990654194606545
 40
0.9212423561129272
 40
0.9434492231315275
 40
0.9657278261941581
 40
0.9881372283218538
 40
1.0
 40
1.0
 40
1.0
 40
1.0
 10
33.61697832855489
 20
699.4056714093011
 30
0.0
 10
33.62486586358281
 20
699.4385127639054
 30
0.0
 10
33.65671796189221
 20
699.5691921393297
 30
0.0
 10
33.77088180711723
 20
699.8234093604751
 30
0.0
 10
33.95539473245903
 20
700.1436741348616
 30
0.0
 10
34.19459695007425
 20
700.4615875421265
 30
0.0
 10
34.48145754277538
 20
700.7720559917611
 30
0.0
 10
34.8166006751398
 20
701.0751702313395
 30
0.0
 10
35.19854556447552
 20
701.3695219922338
 30
0.0
 10
35.62609412636701
 20
701.6539323584534
 30
0.0
 10
36.0976343553243
 20
701.92707386963
 30
0.0
 10
36.61132565507234
 20
702.1876486555229
 30
0.0
 10
37.16510730956029
 20
702.4344064505397
 30
0.0
 10
37.75669575064903
 20
702.6661553480926
 30
0.0
 10
38.38360531310567
 20
702.8817767072153
 30
0.0
 10
39.04317453848816
 20
703.0802368726406
 30
0.0
 10
39.73258813751366
 20
703.260593101947
 30
0.0
 10
40.44889649858915
 20
703.4219969142725
 30
0.0
 10
41.18903303409336
 20
703.5636959061187
 30
0.0
 10
41.94983013030826
 20
703.6850348459362
 30
0.0
 10
42.72803418987753
 20
703.7854564098172
 30
0.0
 10
43.52032014243171
 20
703.8645017417961
 30
0.0
 10
44.323305663453
 20
703.9218109057334
 30
0.0
 10
45.13356524918153
 20
703.9571232430699
 30
0.0
 10
45.9476442264235
 20
703.970277627143
 30
0.0
 10
46.76207087298887
 20
703.9612126196961
 30
0.0
 10
47.57336952414203
 20
703.9299667891912
 30
0.0
 10
48.37807727404034
 20
703.8766788180726
 30
0.0
 10
49.17275974720946
 20
703.8015870152321
 30
0.0
 10
49.95402558837726
 20
703.7050285739788
 30
0.0
 10
50.71853745414588
 20
703.5874392802147
 30
0.0
 10
51.4630256056772
 20
703.4493531015567
 30
0.0
 10
52.18430145796671
 20
703.2914018237813
 30
0.0
 10
52.87927117432334
 20
703.1143148067193
 30
0.0
 10
53.54494948163791
 20
702.9189189202729
 30
0.0
 10
54.17847397124456
 20
702.706138708985
 30
0.0
 10
54.77712040395299
 20
702.476996663914
 30
0.0
 10
55.33831940285899
 20
702.232613582325
 30
0.0
 10
55.85967645821001
 20
701.9742074957522
 30
0.0
 10
56.3389925624913
 20
701.7030930686133
 30
0.0
 10
56.77430073517112
 20
701.420666694691
 30
0.0
 10
57.16386603735955
 20
701.1284180820851
 30
0.0
 10
57.50631001982161
 20
700.8278217727013
 30
0.0
 10
57.80021846727772
 20
700.5206673050645
 30
0.0
 10
58.04587757025858
 20
700.2075014853689
 30
0.0
 10
58.23888275655003
 20
699.8929504609588
 30
0.0
 10
58.3692201267337
 20
699.617340168499
 30
0.0
 10
58.4113133215658
 20
699.4650221630827
 30
0.0
 10
58.42804089549784
 20
699.4029782689701
 30
0.0
  0
ELLIPSE
  5
8F
330
5E
100
AcDbEntity
  8
$DDT_AUDIT_GENERATED_(8E)
  6
Continuous
 62
     7
100
AcDbEllipse
 10
46.0226596178
 20
697.8805242616
 30
0.0
 11
8.422375322854004
 21
0.0
 31
0.0
210
0.0
220
0.0
230
1.0
 40
0.4226182889
 41
0.0
 42
0.1336765061809694
  0
ELLIPSE
  5
90
330
5E
100
AcDbEntity
  8
$DDT_AUDIT_GENERATED_(8E)
  6
Continuous
 62
     7
100
AcDbEllipse
 10
46.0226596178
 20
697.8805242616
 30
0.0
 11
8.422375322854004
 21
0.0
 31
0.0
210
0.0
220
0.0
230
1.0
 40
0.4226182889
 41
0.1336765061809694
 42
3.023720353701196
  0
ELLIPSE
  5
91
330
5E
100
AcDbEntity
  8
$DDT_AUDIT_GENERATED_(8E)
  6
Continuous
 62
     7
100
AcDbEllipse
 10
46.0226596178
 20
697.8805242616
 30
0.0
 11
8.422375322854004
 21
0.0
 31
0.0
210
0.0
220
0.0
230
1.0
 40
0.4226182889
 41
3.023720353701196
 42
4.024807423092637
  0
ELLIPSE
  5
92
330
5E
100
AcDbEntity
  8
$DDT_AUDIT_GENERATED_(8E)
  6
Continuous
 62
     7
100
AcDbEllipse
 10
46.0226596178
 20
697.8177561479
 30
0.0
 11
8.327218268567002
 21
0.0
 31
0.0
210
0.0
220
0.0
230
1.0
 40
0.4226182889
 41
4.114390103193372
 42
5.551091585525142
  0
ELLIPSE
  5
93
330
5E
100
AcDbEntity
  8
$DDT_AUDIT_GENERATED_(8E)
  6
Continuous
 62
     7
100
AcDbEllipse
 10
46.0226596178
 20
697.8177561479
 30
0.0
 11
8.327218268567002
 21
0.0
 31
0.0
210
0.0
220
0.0
230
1.0
 40
0.4226182889
 41
5.551091585525142
 42
6.283185307179586
  0
ELLIPSE
  5
94
330
5E
100
AcDbEntity
  8
$DDT_AUDIT_GENERATED_(8E)
  6
Continuous
 62
     7
100
AcDbEllipse
 10
46.0226596178
 20
697.8177561479
 30
0.0
 11
7.875000000000002
 21
0.0
 31
0.0
210
0.0
220
0.0
230
1.0
 40
0.4226182889
 41
0.0
 42
6.283185307179586
  0
ARC
  5
95
330
5E
100
AcDbEntity
  8
$DDT_AUDIT_GENERATED_(8E)
  6
Continuous
 62
     7
100
AcDbCircle
 10
44.0975972443
 20
704.8342222952
 30
0.0
 40
10.31346383805594
100
AcDbArc
 50
250.8031378549
 51
254.2958219527
  0
SPLINE
  5
97
330
5E
100
AcDbEntity
  8
$DDT_AUDIT_GENERATED_(96)
  6
Continuous
 62
     7
100
AcDbSpline
210
0.0
220
0.0
230
1.0
 70
     8
 71
     3
 72
    25
 73
    21
 74
     0
 42
0.0000000005547671
 43
0.0000000001
 40
0.0
 40
0.0
 40
0.0
 40
0.0
 40
0.0506208581522385
 40
0.0929411047710186
 40
0.1267003380898555
 40
0.1516205793076203
 40
0.2092676503573263
 40
0.2572274596322515
 40
0.2975158201855507
 40
0.3336596152283323
 40
0.3712769906860546
 40
0.4080417597484303
 40
0.4460875213148629
 40
0.4901846196731966
 40
0.5438133768316127
 40
0.6072783228511066
 40
0.6620172759704889
 40
0.7718944010583054
 40
0.8724842392209649
 40
1.0
 40
1.0
 40
1.0
 40
1.0
 10
43.17535433906608
 20
680.9080500026419
 30
0.0
 10
42.85533866130899
 20
680.9831153155283
 30
0.0
 10
42.26778035212661
 20
681.1209297059968
 30
0.0
 10
41.48739946789658
 20
681.3742237439852
 30
0.0
 10
40.87708085860409
 20
681.6044820257571
 30
0.0
 10
40.18654367987141
 20
681.8993376194611
 30
0.0
 10
39.43222457895062
 20
682.2758255848552
 30
0.0
 10
38.63154420261409
 20
682.8220839244372
 30
0.0
 10
38.09334357561841
 20
683.3813923324658
 30
0.0
 10
37.84372088849722
 20
683.8430170426618
 30
0.0
 10
37.8362134968918
 20
684.1618913204277
 30
0.0
 10
38.06590170421947
 20
684.3103365567363
 30
0.0
 10
38.57010911207795
 20
684.2223288188582
 30
0.0
 10
39.30361019693589
 20
683.9301340494532
 30
0.0
 10
40.23311411436422
 20
683.5104905748852
 30
0.0
 10
41.25957707234986
 20
683.1137777781233
 30
0.0
 10
42.66582515311971
 20
682.6742871900102
 30
0.0
 10
44.36223059620999
 20
682.3410759929207
 30
0.0
 10
46.57785376908134
 20
682.2202447222975
 30
0.0
 10
48.04792462319714
 20
682.4563399695362
 30
0.0
 10
48.86972473379308
 20
682.5883220575242
 30
0.0
  0
SPLINE
  5
98
330
5E
100
AcDbEntity
  8
$DDT_AUDIT_GENERATED_(96)
  6
Continuous
 62
     7
100
AcDbSpline
210
0.0
220
0.0
230
1.0
 70
     8
 71
     3
 72
    24
 73
    20
 74
     0
 42
0.0000000005746196
 43
0.0000000001
 40
0.0
 40
0.0
 40
0.0
 40
0.0
 40
0.0333696513129813
 40
0.0651947023733277
 40
0.1477165902144258
 40
0.2040316370682974
 40
0.2509999669407366
 40
0.2911852482349647
 40
0.3284497285565067
 40
0.3481606104903793
 40
0.3682110775621359
 40
0.4061808907250155
 40
0.4441869426471665
 40
0.4887659982729746
 40
0.5143923784744299
 40
0.5423501107082361
 40
0.6058331224823668
 40
0.6811226939439545
 40
0.7435668700654108
 40
0.7435668700654108
 40
0.7435668700654108
 40
0.7435668700654108
 10
48.86972473379308
 20
682.5883220575242
 30
0.0
 10
49.0806584753335
 20
682.6357462470912
 30
0.0
 10
49.49276237328674
 20
682.728399374082
 30
0.0
 10
50.41100575136489
 20
682.9873848252863
 30
0.0
 10
51.44555174760581
 20
683.3570751727041
 30
0.0
 10
52.52343281510667
 20
683.8299740550823
 30
0.0
 10
53.32023976317892
 20
684.1726445206526
 30
0.0
 10
53.89090919112562
 20
684.3120190958213
 30
0.0
 10
54.14001897523143
 20
684.2264718965771
 30
0.0
 10
54.20243785435722
 20
684.0552906969983
 30
0.0
 10
54.18428362621282
 20
683.8273868454936
 30
0.0
 10
54.00171806642324
 20
683.449131541489
 30
0.0
 10
53.50910494040627
 20
682.9084773112886
 30
0.0
 10
52.92919806537349
 20
682.4849680305441
 30
0.0
 10
52.37834486804886
 20
682.1640798578665
 30
0.0
 10
51.70227661253394
 20
681.8252562462917
 30
0.0
 10
50.70972103958452
 20
681.4111781744209
 30
0.0
 10
49.46473427566676
 20
681.0256231575888
 30
0.0
 10
48.58830957478897
 20
680.8459406870712
 30
0.0
 10
48.18739639714175
 20
680.7811246908207
 30
0.0
  0
SPLINE
  5
99
330
5E
100
AcDbEntity
  8
$DDT_AUDIT_GENERATED_(96)
  6
Continuous
 62
     7
100
AcDbSpline
210
0.0
220
0.0
230
1.0
 70
     8
 71
     3
 72
     8
 73
     4
 74
     0
 42
0.0000000005104666
 43
0.0000000001
 40
0.9954502167396746
 40
0.9954502167396746
 40
0.9954502167396746
 40
0.9954502167396746
 40
1.0
 40
1.0
 40
1.0
 40
1.0
 10
43.29238968083377
 20
680.8884844937386
 30
0.0
 10
43.26301881669255
 20
680.8929586652863
 30
0.0
 10
43.23364816336268
 20
680.8974369145711
 30
0.0
 10
43.20427751002008
 20
680.901915163806
 30
0.0
  0
SPLINE
  5
9A
330
5E
100
AcDbEntity
  8
$DDT_AUDIT_GENERATED_(96)
  6
Continuous
 62
     7
100
AcDbSpline
210
0.0
220
0.0
230
1.0
 70
     8
 71
     3
 72
    18
 73
    14
 74
     0
 42
0.0000000006172984
 43
0.0000000001
 40
0.4379810205357658
 40
0.4379810205357658
 40
0.4379810205357658
 40
0.4379810205357658
 40
0.4747994207268159
 40
0.527859552066264
 40
0.60849687176175
 40
0.6422399238765938
 40
0.6754289711467959
 40
0.709200305468355
 40
0.7465158610909685
 40
0.789231735871771
 40
0.8455363971189178
 40
0.9158696181466324
 40
1.0
 40
1.0
 40
1.0
 40
1.0
 10
50.94944714930468
 20
681.6034076488563
 30
0.0
 10
51.15398201077399
 20
681.686379441695
 30
0.0
 10
51.64671509150167
 20
681.9005470263543
 30
0.0
 10
52.53705411013049
 20
682.3509436046791
 30
0.0
 10
53.46175947487247
 20
683.0072363413267
 30
0.0
 10
53.82310086244622
 20
683.5919705937918
 30
0.0
 10
53.82492826078897
 20
683.8611018920267
 30
0.0
 10
53.57180910621071
 20
683.9483140873483
 30
0.0
 10
53.05625144018565
 20
683.7887572007562
 30
0.0
 10
52.35904211369068
 20
683.4582566780103
 30
0.0
 10
51.45645950561413
 20
683.0438300251245
 30
0.0
 10
50.2882923709301
 20
682.5888961664278
 30
0.0
 10
49.38942290878781
 20
682.3606888678253
 30
0.0
 10
48.89984332199008
 20
682.2363930729865
 30
0.0
  0
SPLINE
  5
9B
330
5E
100
AcDbEntity
  8
$DDT_AUDIT_GENERATED_(96)
  6
Continuous
 62
     7
100
AcDbSpline
210
0.0
220
0.0
230
1.0
 70
     8
 71
     3
 72
    24
 73
    20
 74
     0
 42
0.0000000005918172
 43
0.0000000001
 40
0.0
 40
0.0
 40
0.0
 40
0.0
 40
0.0556237668525654
 40
0.1089288459580911
 40
0.160026339172876
 40
0.2556111398266727
 40
0.3449773223398953
 40
0.4232865266916289
 40
0.488127704282757
 40
0.5392186389015622
 40
0.5823302492524759
 40
0.6165426512844739
 40
0.6486503157698439
 40
0.6811311090128279
 40
0.7136603362074606
 40
0.7502331905646423
 40
0.7927064089365764
 40
0.8483612777117461
 40
0.8731219196972793
 40
0.8731219196972793
 40
0.8731219196972793
 40
0.8731219196972793
 10
48.89984332199008
 20
682.2363930729865
 30
0.0
 10
48.57049404949996
 20
682.1706402007004
 30
0.0
 10
47.92552454763482
 20
682.0418752620103
 30
0.0
 10
46.96009093698807
 20
681.9425533993547
 30
0.0
 10
45.74792113610717
 20
681.8983615940164
 30
0.0
 10
44.31509884933501
 20
681.9957580468086
 30
0.0
 10
42.75165547490192
 20
682.3029554571997
 30
0.0
 10
41.41746533944527
 20
682.7157478946581
 30
0.0
 10
40.34645379346367
 20
683.1484021435108
 30
0.0
 10
39.50450130260245
 20
683.5469777920869
 30
0.0
 10
38.85253212617999
 20
683.8419516887732
 30
0.0
 10
38.3954015749169
 20
683.9463490814702
 30
0.0
 10
38.20793962706168
 20
683.8192768882789
 30
0.0
 10
38.24374433400583
 20
683.5377670304197
 30
0.0
 10
38.52599134762784
 20
683.1269307181029
 30
0.0
 10
39.04105466385568
 20
682.6772314620913
 30
0.0
 10
39.73248002619697
 20
682.2389363440667
 30
0.0
 10
40.39006154450832
 20
681.9068607070548
 30
0.0
 10
40.83149370048961
 20
681.711768547532
 30
0.0
 10
40.96849082113776
 20
681.6541435794743
 30
0.0
  0
SPLINE
  5
9C
330
5E
100
AcDbEntity
  8
$DDT_AUDIT_GENERATED_(96)
  6
Continuous
 62
     7
100
AcDbSpline
210
0.0
220
0.0
230
1.0
 70
     8
 71
     3
 72
    19
 73
    15
 74
     0
 42
0.0000000037614353
 43
0.0000000001
 40
0.0
 40
0.0
 40
0.0
 40
0.0
 40
0.0650290993609552
 40
0.1322643870255638
 40
0.2645690698543252
 40
0.3276744746189642
 40
0.3886213050743264
 40
0.505507641557957
 40
0.6208654643585192
 40
0.6801457423453692
 40
0.7414308011062416
 40
0.8713938756847623
 40
0.9373700279445815
 40
0.9412312833258251
 40
0.9412312833258251
 40
0.9412312833258251
 40
0.9412312833258251
 10
46.02265961770449
 20
687.1885744496273
 30
0.0
 10
45.94680040101394
 20
687.1871782924086
 30
0.0
 10
45.79250835482272
 20
687.1843436476403
 30
0.0
 10
45.49470487545774
 20
687.1538401085431
 30
0.0
 10
45.22741076604915
 20
687.0950379909962
 30
0.0
 10
45.03274174547017
 20
687.00951116436
 30
0.0
 10
44.89620214331375
 20
686.9140221919544
 30
0.0
 10
44.82676578707525
 20
686.7729408721175
 30
0.0
 10
44.90573691474846
 20
686.6214533867312
 30
0.0
 10
45.04634126935009
 20
686.510043224012
 30
0.0
 10
45.24230458677904
 20
686.4044730239755
 30
0.0
 10
45.50765725883098
 20
686.3250414621225
 30
0.0
 10
45.7332207728393
 20
686.2930516864377
 30
0.0
 10
45.81349060985553
 20
686.2868031889095
 30
0.0
 10
45.81793276025707
 20
686.286471865546
 30
0.0
  0
SPLINE
  5
9D
330
5E
100
AcDbEntity
  8
$DDT_AUDIT_GENERATED_(96)
  6
Continuous
 62
     7
100
AcDbSpline
210
0.0
220
0.0
230
1.0
 70
     8
 71
     3
 72
     8
 73
     4
 74
     0
 42
0.0000000028673265
 43
0.0000000001
 40
0.9412312833258251
 40
0.9412312833258251
 40
0.9412312833258251
 40
0.9412312833258251
 40
1.0
 40
1.0
 40
1.0
 40
1.0
 10
45.81793276025707
 20
686.286471865546
 30
0.0
 10
45.88554276078715
 20
686.2814290887933
 30
0.0
 10
45.95410118925997
 20
686.2796644499442
 30
0.0
 10
46.02265961773281
 20
686.2779034315824
 30
0.0
  0
SPLINE
  5
9E
330
5E
100
AcDbEntity
  8
$DDT_AUDIT_GENERATED_(96)
  6
Continuous
 62
     7
100
AcDbSpline
210
0.0
220
0.0
230
1.0
 70
     8
 71
     3
 72
     8
 73
     4
 74
     0
 42
0.0000000028673156
 43
0.0000000001
 40
0.0
 40
0.0
 40
0.0
 40
0.0
 40
0.0589213456744162
 40
0.0589213456744162
 40
0.0589213456744162
 40
0.0589213456744162
 10
46.02265961773281
 20
686.2779034315824
 30
0.0
 10
46.09139015414518
 20
686.2797329253418
 30
0.0
 10
46.16012069055756
 20
686.2815658048085
 30
0.0
 10
46.22791807716986
 20
686.2865888176556
 30
0.0
  0
SPLINE
  5
9F
330
5E
100
AcDbEntity
  8
$DDT_AUDIT_GENERATED_(96)
  6
Continuous
 62
     7
100
AcDbSpline
210
0.0
220
0.0
230
1.0
 70
     8
 71
     3
 72
    19
 73
    15
 74
     0
 42
0.0000000037614088
 43
0.0000000001
 40
0.0589213456744162
 40
0.0589213456744162
 40
0.0589213456744162
 40
0.0589213456744162
 40
0.0649333005956277
 40
0.1327082145413306
 40
0.262541011195473
 40
0.3238300534029699
 40
0.3831791378299778
 40
0.4985801773760976
 40
0.6156908305834448
 40
0.6768006718776678
 40
0.7400615351700788
 40
0.8724180618443421
 40
0.9382719315823916
 40
1.0
 40
1.0
 40
1.0
 40
1.0
 10
46.22791807716986
 20
686.2865888176556
 30
0.0
 10
46.23483568618614
 20
686.2871013335606
 30
0.0
 10
46.31961873685568
 20
686.2937992468845
 30
0.0
 10
46.54913267506512
 20
686.3274955607807
 30
0.0
 10
46.81416697067951
 20
686.4089157055299
 30
0.0
 10
47.00730465804642
 20
686.5154851966219
 30
0.0
 10
47.14464798232579
 20
686.6275775617734
 30
0.0
 10
47.21871359337638
 20
686.7793410019065
 30
0.0
 10
47.14398408898602
 20
686.9197839046922
 30
0.0
 10
47.00346478218494
 20
687.014407023951
 30
0.0
 10
46.80524933426137
 20
687.0988561168813
 30
0.0
 10
46.53677945085129
 20
687.1556608276413
 30
0.0
 10
46.24350034441515
 20
687.1849701263209
 30
0.0
 10
46.09466886719358
 20
687.1873975239671
 30
0.0
 10
46.02265961770449
 20
687.1885744496273
 30
0.0
  0
SPLINE
  5
A0
330
5E
100
AcDbEntity
  8
$DDT_AUDIT_GENERATED_(96)
  6
Continuous
 62
     7
100
AcDbSpline
210
0.0
220
0.0
230
1.0
 70
    12
 71
     3
 72
    20
 73
    16
 74
     0
 42
0.0000000045481597
 43
0.0000000001
 40
0.0
 40
0.0
 40
0.0
 40
0.0
 40
0.0112685634503797
 40
0.0751494951944546
 40
0.1479948415674821
 40
0.2292781246816107
 40
0.314881623761185
 40
0.4029477642747942
 40
0.4930576724285958
 40
0.583125486291015
 40
0.6706503246709886
 40
0.7503716222325032
 40
0.8203430857094283
 40
0.8822377537118733
 40
0.9167185368654165
 40
0.9167185368654165
 40
0.9167185368654165
 40
0.9167185368654165
 10
46.02265961773293
 20
675.913595112471
 30
0.0
 41
1.014174506908396
 10
46.01093680645832
 20
675.9135938505572
 30
0.0
 41
1.014174506908396
 10
45.93275556999075
 20
675.9142746814873
 30
0.0
 41
1.014174506908396
 10
45.77960337888812
 20
675.9246568728388
 30
0.0
 41
1.014174506908396
 10
45.56732263994105
 20
675.9631165928545
 30
0.0
 41
1.014174506908396
 10
45.36482108519306
 20
676.0302886629976
 30
0.0
 41
1.014174506908396
 10
45.19891401074941
 20
676.1230670547089
 30
0.0
 41
1.014174506908396
 10
45.08997451020115
 20
676.2327626154843
 30
0.0
 41
1.014174506908396
 10
45.04934956180729
 20
676.3491642730733
 30
0.0
 41
1.014174506908396
 10
45.08067454120097
 20
676.4616941040737
 30
0.0
 41
1.014174506908396
 10
45.17729351108816
 20
676.5595570733024
 30
0.0
 41
1.014174506908396
 10
45.32042785049405
 20
676.6357880331151
 30
0.0
 41
1.014174506908396
 10
45.48617130555989
 20
676.6893621497812
 30
0.0
 41
1.014174506908396
 10
45.63789091534156
 20
676.7197633120714
 30
0.0
 41
1.014174506908396
 10
45.73225405835829
 20
676.7318898847641
 30
0.0
 41
1.014174506908396
 10
45.76661309283929
 20
676.7355009880295
 30
0.0
 41
1.014174506908396
  0
SPLINE
  5
A1
330
5E
100
AcDbEntity
  8
$DDT_AUDIT_GENERATED_(96)
  6
Continuous
 62
     7
100
AcDbSpline
210
0.0
220
0.0
230
1.0
 70
    12
 71
     3
 72
    10
 73
     6
 74
     0
 42
0.0000000032462079
 43
0.0000000001
 40
0.9167185368654165
 40
0.9167185368654165
 40
0.9167185368654165
 40
0.9167185368654165
 40
0.9372819132724325
 40
0.9863697975508191
 40
1.0
 40
1.0
 40
1.0
 40
1.0
 10
45.76661309283929
 20
676.7355009880295
 30
0.0
 41
1.014174506908396
 10
45.78710386173711
 20
676.737654549199
 30
0.0
 41
1.014174506908396
 10
45.85722983247455
 20
676.7440726005022
 30
0.0
 41
1.014174506908396
 10
45.94333124390558
 20
676.7481240462263
 30
0.0
 41
1.014174506908396
 10
46.00849762638916
 20
676.7486678627537
 30
0.0
 41
1.014174506908396
 10
46.02265961810875
 20
676.7486652738587
 30
0.0
 41
1.014174506908396
  0
SPLINE
  5
A2
330
5E
100
AcDbEntity
  8
$DDT_AUDIT_GENERATED_(96)
  6
Continuous
 62
     7
100
AcDbSpline
210
0.0
220
0.0
230
1.0
 70
     8
 71
     3
 72
     8
 73
     4
 74
     0
 42
0.000000003246897
 43
0.0000000001
 40
0.0
 40
0.0
 40
0.0
 40
0.0
 40
0.0807546694083761
 40
0.0807546694083761
 40
0.0807546694083761
 40
0.0807546694083761
 10
46.02265961810875
 20
676.7486652738587
 30
0.0
 10
46.10677699700852
 20
676.7486681171455
 30
0.0
 10
46.19034884120123
 20
676.7443105549395
 30
0.0
 10
46.27083172405708
 20
676.7360018669368
 30
0.0
  0
SPLINE
  5
A3
330
5E
100
AcDbEntity
  8
$DDT_AUDIT_GENERATED_(96)
  6
Continuous
 62
     7
100
AcDbSpline
210
0.0
220
0.0
230
1.0
 70
     8
 71
     3
 72
    14
 73
    10
 74
     0
 42
0.0000000044714493
 43
0.0000000001
 40
0.0807546694083761
 40
0.0807546694083761
 40
0.0807546694083761
 40
0.0807546694083761
 40
0.25
 40
0.25
 40
0.5
 40
0.5
 40
0.75
 40
0.75
 40
1.0
 40
1.0
 40
1.0
 40
1.0
 10
46.27083172405708
 20
676.7360018669368
 30
0.0
 10
46.4395074454203
 20
676.718588550059
 30
0.0
 10
46.59461533106729
 20
676.6838204592444
 30
0.0
 10
46.88723199364124
 20
676.5640374818079
 30
0.0
 10
46.98333960950384
 20
676.4636417286309
 30
0.0
 10
46.98472271543866
 20
676.2506729384359
 30
0.0
 10
46.88936467614415
 20
676.1379349017533
 30
0.0
 10
46.53862600947647
 20
675.9677134778348
 30
0.0
 10
46.28252720068393
 20
675.9135999106
 30
0.0
 10
46.02265961773293
 20
675.913595112471
 30
0.0
  0
SPLINE
  5
A4
330
5E
100
AcDbEntity
  8
$DDT_AUDIT_GENERATED_(96)
  6
Continuous
 62
     7
100
AcDbSpline
210
0.0
220
0.0
230
1.0
 70
     8
 71
     3
 72
    45
 73
    41
 74
     0
 42
0.0000000003955306
 43
0.0000000001
 40
0.0032467208099048
 40
0.0032467208099048
 40
0.0032467208099048
 40
0.0032467208099048
 40
0.0224802297240036
 40
0.0413516760433594
 40
0.0545388709691366
 40
0.0638901485918363
 40
0.0732048745462613
 40
0.1109474161985774
 40
0.141013166009961
 40
0.1738246453852162
 40
0.2099830588729243
 40
0.2493254800855008
 40
0.292103383244246
 40
0.3369808948982436
 40
0.3706336924025899
 40
0.4045994920889549
 40
0.4390047922832481
 40
0.4733813790346145
 40
0.5080074446481956
 40
0.5425398007255219
 40
0.5771397026404786
 40
0.6112197782374404
 40
0.6547859451732385
 40
0.696619817871348
 40
0.7365630352882173
 40
0.7745537047174539
 40
0.809218805749124
 40
0.8378645677316533
 40
0.8470512460739001
 40
0.8555162700350644
 40
0.8671667218194513
 40
0.883938767527858
 40
0.9057681978065035
 40
0.9323309803882698
 40
0.9492682550987253
 40
0.9677306200736
 40
0.9853077102835306
 40
0.9934626370055455
 40
0.9967398570791134
 40
1.0
 40
1.0
 40
1.0
 40
1.0
 10
36.14214338374521
 20
679.9635256592597
 30
0.0
 10
36.15553394014327
 20
679.8528779770693
 30
0.0
 10
36.18305362509143
 20
679.6579225668855
 30
0.0
 10
36.27246610939518
 20
679.3564467622892
 30
0.0
 10
36.36352804053935
 20
679.1180847633149
 30
0.0
 10
36.44154316642285
 20
678.9413997401638
 30
0.0
 10
36.59587366432378
 20
678.6244729315499
 30
0.0
 10
36.85921196809164
 20
678.1867094286026
 30
0.0
 10
37.29253591437148
 20
677.6200977181613
 30
0.0
 10
37.80382795182827
 20
677.0604280896245
 30
0.0
 10
38.45755530141849
 20
676.4562664713085
 30
0.0
 10
39.27528225559784
 20
675.8213974089629
 30
0.0
 10
40.26326679811626
 20
675.1903916345126
 30
0.0
 10
41.30657666266696
 20
674.6670503610184
 30
0.0
 10
42.34255464782266
 20
674.2720878251778
 30
0.0
 10
43.32692464110874
 20
673.9949906470433
 30
0.0
 10
44.35253221052306
 20
673.8057271298943
 30
0.0
 10
45.40637190862645
 20
673.7079155330749
 30
0.0
 10
46.46936397099803
 20
673.6999421214938
 30
0.0
 10
47.52853366781278
 20
673.7815374626125
 30
0.0
 10
48.56226602015795
 20
673.9555882009356
 30
0.0
 10
49.65011305653352
 20
674.2435712675034
 30
0.0
 10
50.74994014187616
 20
674.6610149098381
 30
0.0
 10
51.81708289500011
 20
675.2044895784752
 30
0.0
 10
52.74526496738183
 20
675.7962257817121
 30
0.0
 10
53.52619749960947
 20
676.3965968345169
 30
0.0
 10
54.14450654599943
 20
676.9592886994363
 30
0.0
 10
54.5320332490776
 20
677.3708803938766
 30
0.0
 10
54.75752136484634
 20
677.6360347287183
 30
0.0
 10
54.89390569059901
 20
677.8047494908458
 30
0.0
 10
55.05624794245523
 20
678.0183528251993
 30
0.0
 10
55.25715999968507
 20
678.3089042996243
 30
0.0
 10
55.4807970407963
 20
678.6822457470714
 30
0.0
 10
55.65695376519553
 20
679.0480898541168
 30
0.0
 10
55.78140393386129
 20
679.3823961339691
 30
0.0
 10
55.85765520831946
 20
679.6566613766984
 30
0.0
 10
55.89529955691238
 20
679.8740919069221
 30
0.0
 10
55.90761111788827
 20
680.008878009317
 30
0.0
 10
55.91120264144234
 20
680.0771705530743
 30
0.0
 10
55.91189131748283
 20
680.1044550217798
 30
0.0
 10
55.91226973322927
 20
680.1205720876225
 30
0.0
  0
ARC
  5
A5
330
5E
100
AcDbEntity
  8
$DDT_AUDIT_GENERATED_(96)
  6
Continuous
 62
     7
100
AcDbCircle
 10
46.0190610271
 20
693.1465699035
 30
0.0
 40
12.56731474664361
100
AcDbArc
 50
237.698556159
 51
302.3574871417
  0
ARC
  5
A6
330
5E
100
AcDbEntity
  8
$DDT_AUDIT_GENERATED_(96)
  6
Continuous
 62
     7
100
AcDbCircle
 10
45.7060970787
 20
693.0890800023
 30
0.0
 40
12.37043059046289
100
AcDbArc
 50
243.1531995041
 51
247.3124721986
  0
ARC
  5
A7
330
5E
100
AcDbEntity
  8
$DDT_AUDIT_GENERATED_(96)
  6
Continuous
 62
     7
100
AcDbCircle
 10
46.0226596178
 20
674.2487203758
 30
0.0
 40
2.499999999999978
100
AcDbArc
 50
85.774218422
 51
92.0031750273
  0
ELLIPSE
  5
A9
330
5E
100
AcDbEntity
  8
$DDT_AUDIT_GENERATED_(A8)
  6
Continuous
 62
     7
100
AcDbEllipse
 10
46.0226596178
 20
698.8968216393
 30
0.0
 11
-9.599999999999994
 21
0.0
 31
0.0
210
0.0
220
0.0
230
1.0
 40
0.4226182889
 41
0.0304618747514024
 42
0.6247778514862073
  0
ELLIPSE
  5
AA
330
5E
100
AcDbEntity
  8
$DDT_AUDIT_GENERATED_(A8)
  6
Continuous
 62
     7
100
AcDbEllipse
 10
46.0226596178
 20
698.8968216393
 30
0.0
 11
-9.599999999999994
 21
0.0
 31
0.0
210
0.0
220
0.0
230
1.0
 40
0.4226182889
 41
2.656506361667174
 42
3.111130778838391
  0
ELLIPSE
  5
AB
330
5E
100
AcDbEntity
  8
$DDT_AUDIT_GENERATED_(A8)
  6
Continuous
 62
     7
100
AcDbEllipse
 10
46.0226596178
 20
698.649683953
 30
0.0
 11
-9.599999999999994
 21
0.0
 31
0.0
210
0.0
220
0.0
230
1.0
 40
0.4226182889
 41
3.141592653589793
 42
3.28295052880037
  0
ELLIPSE
  5
AC
330
5E
100
AcDbEntity
  8
$DDT_AUDIT_GENERATED_(A8)
  6
Continuous
 62
     7
100
AcDbEllipse
 10
46.0226596178
 20
698.649683953
 30
0.0
 11
-9.599999999999994
 21
0.0
 31
0.0
210
0.0
220
0.0
230
1.0
 40
0.4226182889
 41
6.147854358018971
 42
6.283185307179586
  0
ELLIPSE
  5
AD
330
5E
100
AcDbEntity
  8
$DDT_AUDIT_GENERATED_(A8)
  6
Continuous
 62
     7
100
AcDbEllipse
 10
46.0226596178
 20
698.4686449626
 30
0.0
 11
-9.809908016738998
 21
0.0
 31
0.0
210
0.0
220
0.0
230
1.0
 40
0.4226182889
 41
0.0
 42
1.318927172861997
  0
ELLIPSE
  5
AE
330
5E
100
AcDbEntity
  8
$DDT_AUDIT_GENERATED_(A8)
  6
Continuous
 62
     7
100
AcDbEllipse
 10
46.0226596178
 20
698.4686449626
 30
0.0
 11
-9.809908016738998
 21
0.0
 31
0.0
210
0.0
220
0.0
230
1.0
 40
0.4226182889
 41
1.822665480727794
 42
6.283185307179586
  0
ELLIPSE
  5
AF
330
5E
100
AcDbEntity
  8
$DDT_AUDIT_GENERATED_(A8)
  6
Continuous
 62
     7
100
AcDbEllipse
 10
46.0226596178
 20
698.7764605729
 30
0.0
 11
-12.5
 21
0.0
 31
0.0
210
0.0
220
0.0
230
1.0
 40
0.4226182889
 41
0.0
 42
0.1354389772802236
  0
ELLIPSE
  5
B0
330
5E
100
AcDbEntity
  8
$DDT_AUDIT_GENERATED_(A8)
  6
Continuous
 62
     7
100
AcDbEllipse
 10
46.0226596178
 20
698.7764605729
 30
0.0
 11
-12.5
 21
0.0
 31
0.0
210
0.0
220
0.0
230
1.0
 40
0.4226182889
 41
3.00262040701237
 42
3.277060975937314
  0
ELLIPSE
  5
B1
330
5E
100
AcDbEntity
  8
$DDT_AUDIT_GENERATED_(A8)
  6
Continuous
 62
     7
100
AcDbEllipse
 10
46.0226596178
 20
698.7764605729
 30
0.0
 11
-12.5
 21
0.0
 31
0.0
210
0.0
220
0.0
230
1.0
 40
0.4226182889
 41
6.14351853010348
 42
6.283185307179586
  0
SPLINE
  5
B2
330
5E
100
AcDbEntity
  8
$DDT_AUDIT_GENERATED_(A8)
  6
Continuous
 62
     7
100
AcDbSpline
210
0.0
220
0.0
230
1.0
 70
     8
 71
     3
 72
    47
 73
    43
 74
     0
 42
0.0000000004727075
 43
0.0000000001
 40
0.0
 40
0.0
 40
0.0
 40
0.0
 40
0.0179050072813218
 40
0.0442805657747788
 40
0.0702548373030289
 40
0.0959631691919251
 40
0.121531109079361
 40
0.1470433809993843
 40
0.1725465077501593
 40
0.1980613392994657
 40
0.2236022989073305
 40
0.2491741694319968
 40
0.2747767284534179
 40
0.3004073938586591
 40
0.3260626521005308
 40
0.3517387861940626
 40
0.377432216504005
 40
0.4031396346231035
 40
0.4288580306980492
 40
0.454584668476763
 40
0.4803170365081906
 40
0.5060527897154641
 40
0.5317896878831359
 40
0.5575250280042202
 40
0.5832563562015545
 40
0.6089813381842664
 40
0.6346974732063242
 40
0.6604020306601892
 40
0.6860919910924238
 40
0.7117640009683093
 40
0.7374143609087498
 40
0.7630390860828945
 40
0.7886341117007681
 40
0.8141957769186965
 40
0.8397218227357945
 40
0.865213301176304
 40
0.8906780155520639
 40
0.9161344748932853
 40
0.9416096492549094
 40
0.9671659170564386
 40
0.992903958110803
 40
1.0
 40
1.0
 40
1.0
 40
1.0
 10
36.50852548690965
 20
699.1470789212624
 30
0.0
 10
36.53056032476153
 20
699.2169114073694
 30
0.0
 10
36.57822606709489
 20
699.3632823573749
 30
0.0
 10
36.72015217584918
 20
699.6189659225322
 30
0.0
 10
36.92044955802775
 20
699.8935480932956
 30
0.0
 10
37.17200018938261
 20
700.1638852528243
 30
0.0
 10
37.4705155244747
 20
700.4262073702488
 30
0.0
 10
37.81570219773312
 20
700.6800166632607
 30
0.0
 10
38.20585491363428
 20
700.9236891129938
 30
0.0
 10
38.63917758279904
 20
701.1557691235357
 30
0.0
 10
39.11345131082135
 20
701.3747534185973
 30
0.0
 10
39.62619230768259
 20
701.579232582957
 30
0.0
 10
40.17461914022097
 20
701.7678792278266
 30
0.0
 10
40.75570497774141
 20
701.9394779525625
 30
0.0
 10
41.36621432978535
 20
702.0929356087304
 30
0.0
 10
42.00273594111892
 20
702.2272871494825
 30
0.0
 10
42.66171041573874
 20
702.3416978087143
 30
0.0
 10
43.33945492865287
 20
702.4354640454414
 30
0.0
 10
44.03218599475746
 20
702.5080139066595
 30
0.0
 10
44.73604115813977
 20
702.5589072129218
 30
0.0
 10
45.44710008739244
 20
702.5878356694876
 30
0.0
 10
46.1614053630929
 20
702.594622918995
 30
0.0
 10
46.8749784299569
 20
702.5792246140123
 30
0.0
 10
47.58384271692814
 20
702.5417289568825
 30
0.0
 10
48.28404635505674
 20
702.4823566723711
 30
0.0
 10
48.97168705318256
 20
702.4014600072805
 30
0.0
 10
49.64292949514941
 20
702.2995222163436
 30
0.0
 10
50.2940233491913
 20
702.1771575692109
 30
0.0
 10
50.92132333963363
 20
702.0351115134158
 30
0.0
 10
51.52130955744664
 20
701.8742612899656
 30
0.0
 10
52.09060857421436
 20
701.6956170928705
 30
0.0
 10
52.6260157563397
 20
701.5003240661257
 30
0.0
 10
53.12452151206212
 20
701.289663974285
 30
0.0
 10
53.58333789966813
 20
701.0650589616549
 30
0.0
 10
53.99994848308493
 20
700.8280623519356
 30
0.0
 10
54.37210841620582
 20
700.580378129626
 30
0.0
 10
54.69807052999176
 20
700.3237302932364
 30
0.0
 10
54.97595573106039
 20
700.0602494007862
 30
0.0
 10
55.20630857240361
 20
699.7908304294172
 30
0.0
 10
55.38299158773621
 20
699.5205821244783
 30
0.0
 10
55.49203301189999
 20
699.3066679831558
 30
0.0
 10
55.52269661410379
 20
699.1972275216027
 30
0.0
 10
55.53033205083263
 20
699.169571732633
 30
0.0
  0
SPLINE
  5
B3
330
5E
100
AcDbEntity
  8
$DDT_AUDIT_GENERATED_(A8)
  6
Continuous
 62
     7
100
AcDbSpline
210
0.0
220
0.0
230
1.0
 70
     8
 71
     3
 72
    52
 73
    48
 74
     0
 42
0.0000000003610703
 43
0.0000000001
 40
0.0
 40
0.0
 40
0.0
 40
0.0
 40
0.0024662148717703
 40
0.0246409807109173
 40
0.0469980598587774
 40
0.0695516480249058
 40
0.0922721845529027
 40
0.1151096810145474
 40
0.1380146874436741
 40
0.1609491439811897
 40
0.1838856853792245
 40
0.2068100141538171
 40
0.2297171180160802
 40
0.252605628250833
 40
0.2754761388683594
 40
0.2983301980003846
 40
0.3211697388798114
 40
0.3439967771713368
 40
0.3668132622517481
 40
0.3896210144202051
 40
0.4124217085205653
 40
0.4352168816659753
 40
0.4580079528028344
 40
0.4807962476007686
 40
0.5035830253990518
 40
0.5263695067436646
 40
0.5491566477068371
 40
0.5719455196586439
 40
0.5947373779884896
 40
0.617533541794661
 40
0.6403354225087123
 40
0.6631445521990377
 40
0.6859626096671032
 40
0.7087914403675019
 40
0.7316330623502623
 40
0.7544896436398949
 40
0.7773634246383845
 40
0.8002565389571964
 40
0.8231706528545255
 40
0.8461062922324271
 40
0.8690616573624756
 40
0.8920306631536847
 40
0.9149948195314993
 40
0.9379238834318339
 40
0.9607743680887059
 40
0.9834914459380539
 40
1.0
 40
1.0
 40
1.0
 40
1.0
 10
33.64750639616136
 20
698.0134552437596
 30
0.0
 10
33.65120372421026
 20
697.9990275288228
 30
0.0
 10
33.68311169745466
 20
697.8751108613519
 30
0.0
 10
33.79852922058798
 20
697.6219676336624
 30
0.0
 10
33.99029577193244
 20
697.2814835890906
 30
0.0
 10
34.23985434764896
 20
696.9437194138234
 30
0.0
 10
34.53842309755857
 20
696.6146727417928
 30
0.0
 10
34.88696605780247
 20
696.2947744168792
 30
0.0
 10
35.28318988164555
 20
695.9859701547969
 30
0.0
 10
35.7252293070247
 20
695.6896388128487
 30
0.0
 10
36.21083158930316
 20
695.4070888616892
 30
0.0
 10
36.73769942977918
 20
695.1394343846681
 30
0.0
 10
37.30346434414838
 20
694.8876691854813
 30
0.0
 10
37.90568416463699
 20
694.6527003425564
 30
0.0
 10
38.54180579762424
 20
694.4353760683548
 30
0.0
 10
39.20916031869717
 20
694.236488404898
 30
0.0
 10
39.90496174036586
 20
694.0567717112854
 30
0.0
 10
40.62631087631468
 20
693.8968984493152
 30
0.0
 10
41.37020263323148
 20
693.7574741927039
 30
0.0
 10
42.13353589683101
 20
693.639032642899
 30
0.0
 10
42.91312521293534
 20
693.5420311048047
 30
0.0
 10
43.7057137279123
 20
693.466846607759
 30
0.0
 10
44.50798699970809
 20
693.4137727431615
 30
0.0
 10
45.31658740706666
 20
693.3830172313304
 30
0.0
 10
46.12812895716584
 20
693.3747002083599
 30
0.0
 10
46.93920933852531
 20
693.3888531667064
 30
0.0
 10
47.74642634158877
 20
693.4254182401361
 30
0.0
 10
48.54639496508746
 20
693.4842484394077
 30
0.0
 10
49.33576554406586
 20
693.5651091504309
 30
0.0
 10
50.11123739398462
 20
693.667680172303
 30
0.0
 10
50.86957175342221
 20
693.7915581994278
 30
0.0
 10
51.60760607079781
 20
693.9362602069951
 30
0.0
 10
52.32226770594968
 20
694.1012277277043
 30
0.0
 10
53.01058681070729
 20
694.2858320998795
 30
0.0
 10
53.66970802905855
 20
694.4893807365844
 30
0.0
 10
54.29690057740488
 20
694.7111244893081
 30
0.0
 10
54.88956573527289
 20
694.9502657568001
 30
0.0
 10
55.44524155408649
 20
695.2059677300883
 30
0.0
 10
55.96160008037297
 20
695.4773605649076
 30
0.0
 10
56.43644746406901
 20
695.7635538017593
 30
0.0
 10
56.86767999352079
 20
696.0636070727737
 30
0.0
 10
57.25333690950512
 20
696.3765906618347
 30
0.0
 10
57.59119624829388
 20
696.701156608269
 30
0.0
 10
57.88026025714728
 20
697.0368684936807
 30
0.0
 10
58.11537225200313
 20
697.3788877826402
 30
0.0
 10
58.29060140780661
 20
697.7056206821552
 30
0.0
 10
58.35666050422492
 20
697.898232815628
 30
0.0
 10
58.3887258208177
 20
697.9940827141081
 30
0.0
  0
LINE
  5
B4
330
5E
100
AcDbEntity
  8
$DDT_AUDIT_GENERATED_(A8)
  6
Continuous
 62
     7
100
AcDbLine
 10
33.5226596178
 20
698.7994161712
 30
0.0
 11
33.5226596178
 21
698.7764605729
 31
0.0
  0
LINE
  5
B5
330
5E
100
AcDbEntity
  8
$DDT_AUDIT_GENERATED_(A8)
  6
Continuous
 62
     7
100
AcDbLine
 10
58.5226596178
 20
698.7764605729
 30
0.0
 11
58.5226596178
 21
698.7994161712
 31
0.0
  0
ARC
  5
B7
330
5E
100
AcDbEntity
  8
$DDT_AUDIT_GENERATED_(B6)
  6
Continuous
 62
     7
100
AcDbCircle
 10
73.0226519164
 20
634.9224621907
 30
0.0
 40
46.90023810827828
100
AcDbArc
 50
192.1326048137
 51
195.7372023556
  0
ARC
  5
B8
330
5E
100
AcDbEntity
  8
$DDT_AUDIT_GENERATED_(B6)
  6
Continuous
 62
     7
100
AcDbCircle
 10
40.0447060145
 20
627.5849252939
 30
0.0
 40
13.11896958434916
100
AcDbArc
 50
180.2261011991
 51
191.0734234999
  0
ARC
  5
B9
330
5E
100
AcDbEntity
  8
$DDT_AUDIT_GENERATED_(B6)
  6
Continuous
 62
     7
100
AcDbCircle
 10
-6551.7023165555
 20
681.6920677718
 30
0.0
 40
6578.851084446756
100
AcDbArc
 50
359.5283200481
 51
359.6639420649
  0
SPLINE
  5
BA
330
5E
100
AcDbEntity
  8
$DDT_AUDIT_GENERATED_(B6)
  6
Continuous
 62
     7
100
AcDbSpline
210
0.0
220
0.0
230
1.0
 70
     8
 71
     3
 72
    10
 73
     6
 74
     0
 42
0.0000000003399137
 43
0.0000000001
 40
0.0
 40
0.0
 40
0.0
 40
0.0
 40
0.1633825794354762
 40
0.5816913027499878
 40
1.0
 40
1.0
 40
1.0
 40
1.0
 10
27.88042975936064
 20
622.201923155675
 30
0.0
 10
28.33758482716038
 20
620.5880060057827
 30
0.0
 10
30.15456915907256
 20
614.5378606168777
 30
0.0
 10
33.01866951283282
 20
607.9759637817389
 30
0.0
 10
41.68799635506263
 20
603.1329768085373
 30
0.0
 10
46.02265961775409
 20
603.1329768085373
 30
0.0
  0
ARC
  5
BB
330
5E
100
AcDbEntity
  8
$DDT_AUDIT_GENERATED_(B6)
  6
Continuous
 62
     7
100
AcDbCircle
 10
39.5298238066
 20
629.83419434
 30
0.0
 40
25.79026994769862
100
AcDbArc
 50
342.7863231708
 51
349.34386966
  0
SPLINE
  5
BC
330
5E
100
AcDbEntity
  8
$DDT_AUDIT_GENERATED_(B6)
  6
Continuous
 62
     7
100
AcDbSpline
210
0.0
220
0.0
230
1.0
 70
     8
 71
     3
 72
    31
 73
    27
 74
     0
 42
0.0000000003499444
 43
0.0000000001
 40
0.0
 40
0.0
 40
0.0
 40
0.0
 40
0.0014113372588239
 40
0.0358454290774851
 40
0.1047136127148076
 40
0.1391477045334689
 40
0.1735817963521301
 40
0.2080158881707914
 40
0.2424499799894526
 40
0.2768840718081139
 40
0.3113181636267751
 40
0.3801863472640976
 40
0.4146204390827588
 40
0.4490545309014201
 40
0.4834886227200813
 40
0.5179227145387426
 40
0.586790898176065
 40
0.6556590818133875
 40
0.6900931736320488
 40
0.72452726545071
 40
0.7589613572693713
 40
0.7933954490880325
 40
0.862263632725355
 40
0.9311318163626775
 40
0.9655659081813388
 40
1.0
 40
1.0
 40
1.0
 40
1.0
 10
64.16488947614754
 20
622.201923155675
 30
0.0
 10
64.16077058134336
 20
622.1896675582077
 30
0.0
 10
64.07132933832283
 20
621.8744727200838
 30
0.0
 10
63.80716977804889
 20
620.9545828387845
 30
0.0
 10
63.44824448519554
 20
619.746824411613
 30
0.0
 10
63.07585615045993
 20
618.5418423530704
 30
0.0
 10
62.78876160742539
 20
617.6396998044448
 30
0.0
 10
62.49254676759214
 20
616.7393987332505
 30
0.0
 10
62.18315171183308
 20
615.8421066746748
 30
0.0
 10
61.85469378646394
 20
614.9497413720479
 30
0.0
 10
61.38256972944783
 20
613.769942621571
 30
0.0
 10
60.84416106475993
 20
612.6114897677243
 30
0.0
 10
60.21119093050739
 20
611.4931547025503
 30
0.0
 10
59.68448521798569
 20
610.680134769606
 30
0.0
 10
59.10372779450193
 20
609.8979789975109
 30
0.0
 10
58.25879846255909
 20
608.9014480320737
 30
0.0
 10
57.07991903744271
 20
607.7486227837549
 30
0.0
 10
55.77599815838024
 20
606.7148686767038
 30
0.0
 10
54.66969339915754
 20
605.9609253080813
 30
0.0
 10
53.80978163239515
 20
605.4340713699125
 30
0.0
 10
52.92094769208207
 20
604.948432737455
 30
0.0
 10
51.69870249067353
 20
604.3606346763421
 30
0.0
 10
50.10383446087635
 20
603.7483790091597
 30
0.0
 10
48.43029964138493
 20
603.3387255086004
 30
0.0
 10
47.05967464464879
 20
603.1638289839807
 30
0.0
 10
46.36835208064023
 20
603.132977284566
 30
0.0
 10
46.02265961775409
 20
603.1329768085373
 30
0.0
  0
ARC
  5
BD
330
5E
100
AcDbEntity
  8
$DDT_AUDIT_GENERATED_(B6)
  6
Continuous
 62
     7
100
AcDbCircle
 10
53.9453224103
 20
627.3925394942
 30
0.0
 40
11.17504296691909
100
AcDbArc
 50
347.9795026885
 51
0.7209726126
  0
LINE
  5
BE
330
5E
100
AcDbEntity
  8
$DDT_AUDIT_GENERATED_(B6)
  6
Continuous
 62
     7
100
AcDbLine
 10
65.1191730978
 20
627.5326928548
 30
0.0
 11
65.0097142163
 21
643.1051497735
 31
0.0
  0
ARC
  5
BF
330
5E
100
AcDbEntity
  8
$DDT_AUDIT_GENERATED_(B6)
  6
Continuous
 62
     7
100
AcDbCircle
 10
55.2401919514
 20
670.4964001618
 30
0.0
 40
8.22476193856008
100
AcDbArc
 50
352.354878886
 51
0.2496248164
  0
ARC
  5
C0
330
5E
100
AcDbEntity
  8
$DDT_AUDIT_GENERATED_(B6)
  6
Continuous
 62
     7
100
AcDbCircle
 10
-774.3539794252
 20
698.1984199795
 30
0.0
 40
803.4691442319106
100
AcDbArc
 50
357.8673986239
 51
357.9044330277
  0
ARC
  5
C1
330
5E
100
AcDbEntity
  8
$DDT_AUDIT_GENERATED_(B6)
  6
Continuous
 62
     7
100
AcDbCircle
 10
-2113.5329357078
 20
755.2517425233
 30
0.0
 40
2143.782964287091
100
AcDbArc
 50
357.7428255244
 51
357.7513798958
  0
ARC
  5
C2
330
5E
100
AcDbEntity
  8
$DDT_AUDIT_GENERATED_(B6)
  6
Continuous
 62
     7
100
AcDbCircle
 10
867.6595874079
 20
698.2561709331
 30
0.0
 40
804.730476370896
100
AcDbArc
 50
182.0963618638
 51
182.1320012998
  0
ARC
  5
C3
330
5E
100
AcDbEntity
  8
$DDT_AUDIT_GENERATED_(B6)
  6
Continuous
 62
     7
100
AcDbCircle
 10
2235.1593787879
 20
756.3658193906
 30
0.0
 40
2173.385014957047
100
AcDbArc
 50
182.248516359
 51
182.255807883
  0
LINE
  5
C4
330
5E
100
AcDbEntity
  8
$DDT_AUDIT_GENERATED_(B6)
  6
Continuous
 62
     7
100
AcDbLine
 10
18.0226601305
 20
662.3082139572
 30
0.0
 11
28.2951819062
 21
662.3082139085
 31
0.0
  0
LINE
  5
C5
330
5E
100
AcDbEntity
  8
$DDT_AUDIT_GENERATED_(B6)
  6
Continuous
 62
     7
100
AcDbLine
 10
74.0226591099
 20
662.3082138188
 30
0.0
 11
63.7529537489
 21
662.3082138675
 31
0.0
  0
SPLINE
  5
C6
330
5E
100
AcDbEntity
  8
$DDT_AUDIT_GENERATED_(B6)
  6
Continuous
 62
     7
100
AcDbSpline
210
0.0
220
0.0
230
1.0
 70
     8
 71
     3
 72
    14
 73
    10
 74
     0
 42
0.000000001479431
 43
0.0000000001
 40
0.0
 40
0.0
 40
0.0
 40
0.0
 40
0.25
 40
0.25
 40
0.5
 40
0.5
 40
0.75
 40
0.75
 40
1.0
 40
1.0
 40
1.0
 40
1.0
 10
46.02265961775409
 20
640.7239800742691
 30
0.0
 10
45.30113867111962
 20
640.7239802607565
 30
0.0
 10
44.58286099404044
 20
640.6316242569741
 30
0.0
 10
43.56871176102599
 20
640.2549548728844
 30
0.0
 10
43.27070773874481
 20
639.9623657871382
 30
0.0
 10
43.27463170201207
 20
639.2725057107501
 30
0.0
 10
43.57614035438972
 20
638.8833173852145
 30
0.0
 10
44.58546948733083
 20
638.2941587501772
 30
0.0
 10
45.30125821544674
 20
638.09911080323
 30
0.0
 10
46.02265961775409
 20
638.099110355578
 30
0.0
  0
SPLINE
  5
C7
330
5E
100
AcDbEntity
  8
$DDT_AUDIT_GENERATED_(B6)
  6
Continuous
 62
     7
100
AcDbSpline
210
0.0
220
0.0
230
1.0
 70
     8
 71
     3
 72
    14
 73
    10
 74
     0
 42
0.0000000014794174
 43
0.0000000001
 40
0.0
 40
0.0
 40
0.0
 40
0.0
 40
0.25
 40
0.25
 40
0.5
 40
0.5
 40
0.75
 40
0.75
 40
1.0
 40
1.0
 40
1.0
 40
1.0
 10
46.02265961775409
 20
638.099110355578
 30
0.0
 10
46.74419786354834
 20
638.099110803315
 30
0.0
 10
47.46006217706226
 20
638.2941294248692
 30
0.0
 10
48.47008876472696
 20
638.8840019894657
 30
0.0
 10
48.76953583074067
 20
639.270903158083
 30
0.0
 10
48.77573282474506
 20
639.9598312131293
 30
0.0
 10
48.47994510801076
 20
640.2534038850192
 30
0.0
 10
47.46190678750143
 20
640.6321395677197
 30
0.0
 10
46.74629091732643
 20
640.7239802613018
 30
0.0
 10
46.02265961775409
 20
640.7239800742691
 30
0.0
  0
LINE
  5
C8
330
5E
100
AcDbEntity
  8
$DDT_AUDIT_GENERATED_(B6)
  6
Continuous
 62
     7
100
AcDbLine
 10
17.0226598786
 20
661.3082139623
 30
0.0
 11
17.0226593341
 21
554.8183636154
 31
0.0
  0
ARC
  5
C9
330
5E
100
AcDbEntity
  8
$DDT_AUDIT_GENERATED_(B6)
  6
Continuous
 62
     7
100
AcDbCircle
 10
-427.4336195578
 20
672.3187835743
 30
0.0
 40
456.0169241462563
100
AcDbArc
 50
358.971835176
 51
359.7755287474
  0
SPLINE
  5
CA
330
5E
100
AcDbEntity
  8
$DDT_AUDIT_GENERATED_(B6)
  6
Continuous
 62
     7
100
AcDbSpline
210
0.0
220
0.0
230
1.0
 70
     8
 71
     3
 72
    12
 73
     8
 74
     0
 42
0.0000000042511119
 43
0.0000000001
 40
0.0
 40
0.0
 40
0.0
 40
0.0
 40
0.1337016226062039
 40
0.2598177670072753
 40
0.3721929924070833
 40
0.4436046616567095
 40
0.4717082672238723
 40
0.4717082672238723
 40
0.4717082672238723
 40
0.4717082672238723
 10
27.32504516573935
 20
644.6852965412495
 30
0.0
 10
27.31369458434108
 20
644.5008161925141
 30
0.0
 10
27.29526282208312
 20
644.2040084837449
 30
0.0
 10
27.26714670225892
 20
643.8541926421375
 30
0.0
 10
27.24709155220891
 20
643.6586576098895
 30
0.0
 10
27.23784537480611
 20
643.5884696212879
 30
0.0
 10
27.23647529171482
 20
643.5797104580369
 30
0.0
 10
27.23644016877851
 20
643.5794750275048
 30
0.0
  0
ARC
  5
CB
330
5E
100
AcDbEntity
  8
$DDT_AUDIT_GENERATED_(B6)
  6
Continuous
 62
     7
100
AcDbCircle
 10
-735.9110985144
 20
695.9478836532
 30
0.0
 40
764.9555379601693
100
AcDbArc
 50
356.1587177379
 51
357.9326911699
  0
LINE
  5
CC
330
5E
100
AcDbEntity
  8
$DDT_AUDIT_GENERATED_(B6)
  6
Continuous
 62
     7
100
AcDbLine
 10
75.0226599015
 20
554.8183636153
 30
0.0
 11
75.022659357
 21
661.308213824
 31
0.0
  0
ARC
  5
CD
330
5E
100
AcDbEntity
  8
$DDT_AUDIT_GENERATED_(B6)
  6
Continuous
 62
     7
100
AcDbCircle
 10
519.0287495437
 20
672.3155203743
 30
0.0
 40
455.5667271096407
100
AcDbArc
 50
180.236633904
 51
181.0272837509
  0
SPLINE
  5
CE
330
5E
100
AcDbEntity
  8
$DDT_AUDIT_GENERATED_(B6)
  6
Continuous
 62
     7
100
AcDbSpline
210
0.0
220
0.0
230
1.0
 70
     8
 71
     3
 72
    12
 73
     8
 74
     0
 42
0.0000000042511119
 43
0.0000000001
 40
0.5282917327761347
 40
0.5282917327761347
 40
0.5282917327761347
 40
0.5282917327761347
 40
0.5563953383432915
 40
0.6278070075929162
 40
0.7401822329927265
 40
0.8662983773937979
 40
1.0
 40
1.0
 40
1.0
 40
1.0
 10
64.80887906672966
 20
643.5794750275049
 30
0.0
 10
64.80884394379335
 20
643.5797104580369
 30
0.0
 10
64.8074738607021
 20
643.5884696212879
 30
0.0
 10
64.79822768329925
 20
643.6586576098895
 30
0.0
 10
64.77817253324928
 20
643.8541926421376
 30
0.0
 10
64.75005641342504
 20
644.2040084837449
 30
0.0
 10
64.73162465116711
 20
644.5008161925141
 30
0.0
 10
64.72027406976882
 20
644.6852965412495
 30
0.0
  0
ARC
  5
CF
330
5E
100
AcDbEntity
  8
$DDT_AUDIT_GENERATED_(B6)
  6
Continuous
 62
     7
100
AcDbCircle
 10
827.5990543202
 20
695.9287235158
 30
0.0
 40
764.5976937860463
100
AcDbArc
 50
182.0653987098
 51
183.8416437292
  0
ARC
  5
D0
330
5E
100
AcDbEntity
  8
$DDT_AUDIT_GENERATED_(B6)
  6
Continuous
 62
     7
100
AcDbCircle
 10
18.0226598811
 20
661.3082139572
 30
0.0
 40
0.9999999999033894
100
AcDbArc
 50
89.9999904481
 51
180.1060522301
  0
ARC
  5
D1
330
5E
100
AcDbEntity
  8
$DDT_AUDIT_GENERATED_(B6)
  6
Continuous
 62
     7
100
AcDbCircle
 10
74.0226593544
 20
661.3082138188
 30
0.0
 40
0.9999999999996739
100
AcDbArc
 50
0.106014127
 51
90.0000092688
  0
ARC
  5
D2
330
5E
100
AcDbEntity
  8
$DDT_AUDIT_GENERATED_(B6)
  6
Continuous
 62
     7
100
AcDbCircle
 10
17.3226593353
 20
554.8183636137
 30
0.0
 40
0.2999999999994695
100
AcDbArc
 50
181.0228506529
 51
270.0000187395
  0
ARC
  5
D3
330
5E
100
AcDbEntity
  8
$DDT_AUDIT_GENERATED_(B6)
  6
Continuous
 62
     7
100
AcDbCircle
 10
74.7226599003
 20
554.8183636137
 30
0.0
 40
0.2999999999866903
100
AcDbArc
 50
269.9999812605
 51
0.8524629186
  0
SPLINE
  5
D5
330
5E
100
AcDbEntity
  8
$DDT_AUDIT_GENERATED_(D4)
  6
Continuous
 62
     7
100
AcDbSpline
210
0.0
220
0.0
230
1.0
 70
     8
 71
     3
 72
    12
 73
     8
 74
     0
 42
0.0000000000473543
 43
0.0000000001
 40
0.4702086363684608
 40
0.4702086363684608
 40
0.4702086363684608
 40
0.4702086363684608
 40
0.4843750000000005
 40
0.4843750000000005
 40
0.5000000000000006
 40
0.5000000000000006
 40
0.5297292128390784
 40
0.5297292128390784
 40
0.5297292128390784
 40
0.5297292128390784
 10
39.68372807296164
 20
751.517311681124
 30
0.0
 10
40.63706439964228
 20
751.5656700664233
 30
0.0
 10
41.63194813989404
 20
751.6042744668002
 30
0.0
 10
43.73632348982979
 20
751.6605542610845
 30
0.0
 10
44.85170822020931
 20
751.6763095036586
 30
0.0
 10
48.12063772042323
 20
751.6775088806085
 30
0.0
 10
50.22894153322024
 20
751.6236721468558
 30
0.0
 10
52.2469067068193
 20
751.5230866021805
 30
0.0
  0
LINE
  5
D6
330
5E
100
AcDbEntity
  8
$DDT_AUDIT_GENERATED_(D4)
  6
Continuous
 62
     7
100
AcDbLine
 10
71.287383943
 20
735.3610088728
 30
0.0
 11
73.1400002778
 21
710.3392829929
 31
0.0
  0
SPLINE
  5
D7
330
5E
100
AcDbEntity
  8
$DDT_AUDIT_GENERATED_(D4)
  6
Continuous
 62
     7
100
AcDbSpline
210
0.0
220
0.0
230
1.0
 70
     8
 71
     3
 72
     9
 73
     5
 74
     0
 42
0.0000000000686833
 43
0.0000000001
 40
0.4285532152351041
 40
0.4285532152351041
 40
0.4285532152351041
 40
0.4285532152351041
 40
0.430114421581108
 40
0.433666112911118
 40
0.433666112911118
 40
0.433666112911118
 40
0.433666112911118
 10
60.31988065698428
 20
744.9093477411897
 30
0.0
 10
60.24982859925628
 20
744.9243685525462
 30
0.0
 10
60.01635103999611
 20
744.9729921359109
 30
0.0
 10
59.76805162254185
 20
745.0199523314847
 30
0.0
 10
59.58926155398112
 20
745.0516858548398
 30
0.0
  0
SPLINE
  5
D8
330
5E
100
AcDbEntity
  8
$DDT_AUDIT_GENERATED_(D4)
  6
Continuous
 62
     7
100
AcDbSpline
210
0.0
220
0.0
230
1.0
 70
     8
 71
     3
 72
     9
 73
     5
 74
     0
 42
0.0000000000691565
 43
0.0000000001
 40
0.5673594588393475
 40
0.5673594588393475
 40
0.5673594588393475
 40
0.5673594588393475
 40
0.5696799844536399
 40
0.57075794982685
 40
0.57075794982685
 40
0.57075794982685
 40
0.57075794982685
 10
32.28004781304683
 20
745.0197790914874
 30
0.0
 10
32.16603650551759
 20
744.9986677328161
 30
0.0
 10
32.00318747714703
 20
744.9672132412832
 30
0.0
 10
31.84688950908665
 20
744.9350252122254
 30
0.0
 10
31.79792496223937
 20
744.9247352337683
 30
0.0
  0
LINE
  5
D9
330
5E
100
AcDbEntity
  8
$DDT_AUDIT_GENERATED_(D4)
  6
Continuous
 62
     7
100
AcDbLine
 10
18.9053189574
 20
710.3392829929
 30
0.0
 11
20.7579335472
 21
735.3609852807
 31
0.0
  0
LINE
  5
DA
330
5E
100
AcDbEntity
  8
$DDT_AUDIT_GENERATED_(D4)
  6
Continuous
 62
     7
100
AcDbLine
 10
20.818436319
 20
736.1781451757
 30
0.0
 11
20.9026671074
 21
737.3157793723
 31
0.0
  0
SPLINE
  5
DB
330
5E
100
AcDbEntity
  8
$DDT_AUDIT_GENERATED_(D4)
  6
Continuous
 62
     7
100
AcDbSpline
210
0.0
220
0.0
230
1.0
 70
     8
 71
     3
 72
    14
 73
    10
 74
     0
 42
0.000000012562469
 43
0.0000000001
 40
0.0
 40
0.0
 40
0.0
 40
0.0
 40
0.3991097889540816
 40
0.3991097889540816
 40
0.3991097889540816
 40
0.9999600891300442
 40
0.9999600891300442
 40
0.9999600891300442
 40
1.0
 40
1.0
 40
1.0
 40
1.0
 10
73.17512731046858
 20
709.5440587244834
 30
0.0
 10
73.17150234080653
 20
709.6498021615118
 30
0.0
 10
73.16739556751476
 20
709.755536281237
 30
0.0
 10
73.16285081720245
 20
709.8612952392522
 30
0.0
 10
73.15600880897406
 20
710.0205127124337
 30
0.0
 10
73.1481527917894
 20
710.1798090339978
 30
0.0
 10
73.14002343986672
 20
710.3392612034771
 30
0.0
 10
73.14002289988237
 20
710.3392717949336
 30
0.0
 10
73.14002235989686
 20
710.3392823863911
 30
0.0
 10
73.14001135459723
 20
710.3392838024934
 30
0.0
  0
ARC
  5
DC
330
5E
100
AcDbEntity
  8
$DDT_AUDIT_GENERATED_(D4)
  6
Continuous
 62
     7
100
AcDbCircle
 10
66.0562070911
 20
707.8587758226
 30
0.0
 40
47.21610123870212
100
AcDbArc
 50
176.9885676477
 51
177.9545089597
  0
SPLINE
  5
DD
330
5E
100
AcDbEntity
  8
$DDT_AUDIT_GENERATED_(D4)
  6
Continuous
 62
     7
100
AcDbSpline
210
0.0
220
0.0
230
1.0
 70
     8
 71
     3
 72
     8
 73
     4
 74
     0
 42
0.0000000002014218
 43
0.0000000001
 40
0.0
 40
0.0
 40
0.0
 40
0.0
 40
0.0098646659526313
 40
0.0098646659526313
 40
0.0098646659526313
 40
0.0098646659526313
 10
73.14001135459723
 20
710.3392838024934
 30
0.0
 10
73.13169016376139
 20
710.5023174175844
 30
0.0
 10
73.12144751737897
 20
710.6652449289741
 30
0.0
 10
73.10907578580444
 20
710.8280320930804
 30
0.0
  0
ARC
  5
DE
330
5E
100
AcDbEntity
  8
$DDT_AUDIT_GENERATED_(D4)
  6
Continuous
 62
     7
100
AcDbCircle
 10
991.5415798853
 20
662.8832428201
 30
0.0
 40
973.4863740843174
100
AcDbArc
 50
175.6061021561
 51
175.7302754408
  0
SPLINE
  5
DF
330
5E
100
AcDbEntity
  8
$DDT_AUDIT_GENERATED_(D4)
  6
Continuous
 62
     7
100
AcDbSpline
210
0.0
220
0.0
230
1.0
 70
     8
 71
     3
 72
     8
 73
     4
 74
     0
 42
0.0000000048815919
 43
0.0000000001
 40
0.0
 40
0.0
 40
0.0
 40
0.0
 40
1.0
 40
1.0
 40
1.0
 40
1.0
 10
71.28831094968174
 20
735.3610744354718
 30
0.0
 10
71.21977039238986
 20
736.2839979969193
 30
0.0
 10
71.16898132008373
 20
736.9649438530048
 30
0.0
 10
71.13594373276332
 20
737.4039120037281
 30
0.0
  0
SPLINE
  5
E0
330
5E
100
AcDbEntity
  8
$DDT_AUDIT_GENERATED_(D4)
  6
Continuous
 62
     7
100
AcDbSpline
210
0.0
220
0.0
230
1.0
 70
     8
 71
     3
 72
    58
 73
    54
 74
     0
 42
0.000000000369272
 43
0.0000000001
 40
0.0
 40
0.0
 40
0.0
 40
0.0
 40
0.002401663914902
 40
0.0120398143980743
 40
0.0216050570035502
 40
0.0311030277356236
 40
0.040770201625706
 40
0.0512245543913841
 40
0.0617677809221008
 40
0.0723981299355373
 40
0.0831078161800494
 40
0.0938882956384945
 40
0.1047313915036426
 40
0.1156539889103784
 40
0.1252868700224902
 40
0.1355251705859703
 40
0.1459079764785901
 40
0.1566259453540234
 40
0.1671232277880639
 40
0.1784753513615611
 40
0.1908618852417694
 40
0.2005713895352195
 40
0.2101793141154323
 40
0.2197680264472134
 40
0.2318104586068896
 40
0.2434127710480826
 40
0.2545603010185753
 40
0.2639697687165089
 40
0.2737981466817681
 40
0.283075755883387
 40
0.2920284581436789
 40
0.3031370687309209
 40
0.3317191101300303
 40
0.3611723981304085
 40
0.3920368026670427
 40
0.4241327832796656
 40
0.4573582068222977
 40
0.4713021925525889
 40
0.4853109676247294
 40
0.5434940585552448
 40
0.60508599236877
 40
0.6755893216288222
 40
0.7347432008366401
 40
0.7967488189272419
 40
0.8557093861595451
 40
0.9060072498833778
 40
0.9500583695685235
 40
0.96194222390631
 40
0.9659177380440629
 40
0.9697609689542105
 40
0.9849018525683936
 40
0.9994712690991666
 40
1.0
 40
1.0
 40
1.0
 40
1.0
 10
39.6634190339758
 20
751.5163856990839
 30
0.0
 10
39.5786296776722
 20
751.5123135442644
 30
0.0
 10
39.21503788247636
 20
751.4947989991731
 30
0.0
 10
38.51814875502446
 20
751.4541543941971
 30
0.0
 10
37.64330592835807
 20
751.3978804967732
 30
0.0
 10
36.78381608039521
 20
751.3351576266307
 30
0.0
 10
35.92184158727603
 20
751.2656581538025
 30
0.0
 10
35.0546819199139
 20
751.1884234346213
 30
0.0
 10
34.1898363470841
 20
751.1036265437199
 30
0.0
 10
33.3494177892786
 20
751.0133207396525
 30
0.0
 10
32.53625635238222
 20
750.917866551244
 30
0.0
 10
31.75292134637135
 20
750.817646316884
 30
0.0
 10
31.0022330516529
 20
750.7129137577343
 30
0.0
 10
30.31329949106248
 20
750.6085703865905
 30
0.0
 10
29.67454508175627
 20
750.5013899906868
 30
0.0
 10
29.08866501471893
 20
750.3914873452513
 30
0.0
 10
28.52565355904754
 20
750.2714993622534
 30
0.0
 10
27.99612560339398
 20
750.1397696365664
 30
0.0
 10
27.49828733097709
 20
749.9917697440144
 30
0.0
 10
27.01093781556374
 20
749.8163515762257
 30
0.0
 10
26.56833847111592
 20
749.6182729073903
 30
0.0
 10
26.16691793093433
 20
749.3936365140755
 30
0.0
 10
25.85076398965039
 20
749.1817828654262
 30
0.0
 10
25.51959163251291
 20
748.9194849172935
 30
0.0
 10
25.20008335911968
 20
748.60779676896
 30
0.0
 10
24.91320576617013
 20
748.2541348967503
 30
0.0
 10
24.70044419569092
 20
747.9237241653369
 30
0.0
 10
24.54542884686099
 20
747.6298634953989
 30
0.0
 10
24.43715290739367
 20
747.3863659543082
 30
0.0
 10
24.36080531101397
 20
747.1902883753397
 30
0.0
 10
24.30615406948016
 20
747.041363867394
 30
0.0
 10
24.20957429915335
 20
746.7636553487732
 30
0.0
 10
24.09991923881783
 20
746.4039530116704
 30
0.0
 10
23.98352876144602
 20
745.9725225107564
 30
0.0
 10
23.8828823738198
 20
745.5733863998463
 30
0.0
 10
23.78493130638951
 20
745.1949140461795
 30
0.0
 10
23.71634905502239
 20
744.954485456211
 30
0.0
 10
23.64225815963756
 20
744.7221451313424
 30
0.0
 10
23.53516616094357
 20
744.3956998170166
 30
0.0
 10
23.35017236616529
 20
743.8729109839713
 30
0.0
 10
23.0476173177534
 20
743.0939937721938
 30
0.0
 10
22.72775871816327
 20
742.3356015022562
 30
0.0
 10
22.36237018748353
 20
741.5308037991408
 30
0.0
 10
22.00112920492222
 20
740.7383931488519
 30
0.0
 10
21.65567293934845
 20
739.9381676467798
 30
0.0
 10
21.36971728896265
 20
739.2095403308973
 30
0.0
 10
21.17431223398133
 20
738.6193959081114
 30
0.0
 10
21.09621560422362
 20
738.3555331210516
 30
0.0
 10
21.05397782514367
 20
738.2051808552704
 30
0.0
 10
21.00041745425816
 20
737.9942418184851
 30
0.0
 10
20.94807070946058
 20
737.7219841214303
 30
0.0
 10
20.91549258773499
 20
737.4761102524079
 30
0.0
 10
20.90804653074096
 20
737.3860520603448
 30
0.0
 10
20.90774546675162
 20
737.3823952165461
 30
0.0
  0
SPLINE
  5
E1
330
5E
100
AcDbEntity
  8
$DDT_AUDIT_GENERATED_(D4)
  6
Continuous
 62
     7
100
AcDbSpline
210
0.0
220
0.0
230
1.0
 70
     8
 71
     3
 72
    59
 73
    55
 74
     0
 42
0.0000000003680952
 43
0.0000000001
 40
0.0
 40
0.0
 40
0.0
 40
0.0
 40
0.0025697562370714
 40
0.0171813455297495
 40
0.0317680923863219
 40
0.0362527584138973
 40
0.0401435689551959
 40
0.0441155412797333
 40
0.0891731429277982
 40
0.1365438517255387
 40
0.1908436575484345
 40
0.2534137516414061
 40
0.3135778877172763
 40
0.3703756290049358
 40
0.4274646057908118
 40
0.4886978271864344
 40
0.5213700925214627
 40
0.5419822425328954
 40
0.5594552869395084
 40
0.5769322170488639
 40
0.6096392656516691
 40
0.6412325738199223
 40
0.6717399573863393
 40
0.7010427096614862
 40
0.7122464411627324
 40
0.7207760120424137
 40
0.7288258449839715
 40
0.7374314062449855
 40
0.7464230142157058
 40
0.7560012870903259
 40
0.7662839176697115
 40
0.7771807410158375
 40
0.7884441712392105
 40
0.800052460462139
 40
0.8095218508152521
 40
0.8190132326867381
 40
0.8316681068508509
 40
0.8420373832613011
 40
0.8530375938322035
 40
0.8634623284226723
 40
0.8741432784047651
 40
0.8845228468822073
 40
0.89478794927334
 40
0.9052979705041662
 40
0.9164007633939775
 40
0.9273813851631861
 40
0.9382263412167468
 40
0.9489260652130248
 40
0.9594735258077415
 40
0.9698650132831204
 40
0.9801016895330835
 40
0.9899311752040665
 40
0.9992768999868777
 40
1.0
 40
1.0
 40
1.0
 40
1.0
 10
71.1356246338939
 20
737.3862874219597
 30
0.0
 10
71.13413781018937
 20
737.4040615112806
 30
0.0
 10
71.12544881345768
 20
737.5060404132373
 30
0.0
 10
71.08933848296286
 20
737.7646939837795
 30
0.0
 10
71.03537511218904
 20
738.035572842303
 30
0.0
 10
70.97866260162604
 20
738.2515376270411
 30
0.0
 10
70.95435864556045
 20
738.335517933002
 30
0.0
 10
70.87759381481641
 20
738.5979880794555
 30
0.0
 10
70.70849733675155
 20
739.1123042335083
 30
0.0
 10
70.43539134338941
 20
739.8226882213689
 30
0.0
 10
70.10774996847961
 20
740.5932494620934
 30
0.0
 10
69.75169698523439
 20
741.3801930754452
 30
0.0
 10
69.40316423196569
 20
742.1463704826463
 30
0.0
 10
69.10338995939183
 20
742.8369605691204
 30
0.0
 10
68.81580774869533
 20
743.5562626427807
 30
0.0
 10
68.59159380848412
 20
744.1608597445842
 30
0.0
 10
68.4434407238981
 20
744.596390233137
 30
0.0
 10
68.35393334254233
 20
744.8755442320834
 30
0.0
 10
68.30239543927713
 20
745.0461014712894
 30
0.0
 10
68.2379649545782
 20
745.2788155322028
 30
0.0
 10
68.15809949156323
 20
745.5925454009212
 30
0.0
 10
68.0538675263256
 20
746.0099808702072
 30
0.0
 10
67.93000096999887
 20
746.4657963365216
 30
0.0
 10
67.81054479807872
 20
746.846437995691
 30
0.0
 10
67.70308457965382
 20
747.1402791659693
 30
0.0
 10
67.64892425938636
 20
747.2803145049864
 30
0.0
 10
67.57555889225014
 20
747.4598924510161
 30
0.0
 10
67.47395793840157
 20
747.6810659947892
 30
0.0
 10
67.33060167958963
 20
747.9479636290256
 30
0.0
 10
67.13571856794378
 20
748.2491428883343
 30
0.0
 10
66.88097294108987
 20
748.5692060294668
 30
0.0
 10
66.56902933708201
 20
748.884524341812
 30
0.0
 10
66.2075270327586
 20
749.1770875565455
 30
0.0
 10
65.84778950214796
 20
749.4133495790298
 30
0.0
 10
65.46357985428244
 20
749.6225410362507
 30
0.0
 10
65.04249251926515
 20
749.8116208814328
 30
0.0
 10
64.58731619464918
 20
749.978338351495
 30
0.0
 10
64.06988676742941
 20
750.1340556190046
 30
0.0
 10
63.53849121678633
 20
750.2676371896036
 30
0.0
 10
62.9599540082579
 20
750.3910744066313
 30
0.0
 10
62.34872607567981
 20
750.505355966895
 30
0.0
 10
61.69736132811041
 20
750.6139722681469
 30
0.0
 10
61.00761117388129
 20
750.7177190861214
 30
0.0
 10
60.27023703686589
 20
750.8199781494532
 30
0.0
 10
59.4793013928162
 20
750.9209696878568
 30
0.0
 10
58.64419487890303
 20
751.0186774501985
 30
0.0
 10
57.7848615681331
 20
751.1106052034686
 30
0.0
 10
56.90468863633986
 20
751.1963616854827
 30
0.0
 10
56.00659494829911
 20
751.2756658525539
 30
0.0
 10
55.09424941907069
 20
751.3481094043474
 30
0.0
 10
54.17554482476077
 20
751.413395851839
 30
0.0
 10
53.27296802586111
 20
751.4691648579517
 30
0.0
 10
52.62470914218109
 20
751.5057531107519
 30
0.0
 10
52.31734293952571
 20
751.5200258801178
 30
0.0
 10
52.29169794985812
 20
751.5212156356238
 30
0.0
  0
ARC
  5
E2
330
5E
100
AcDbEntity
  8
$DDT_AUDIT_GENERATED_(D4)
  6
Continuous
 62
     7
100
AcDbCircle
 10
46.0400491637
 20
636.628429427
 30
0.0
 40
109.2169560756972
100
AcDbArc
 50
82.4879263838
 51
97.5696763653
  0
LINE
  5
E3
330
5E
100
AcDbEntity
  8
$DDT_AUDIT_GENERATED_(D4)
  6
Continuous
 62
     7
100
AcDbLine
 10
73.173852314
 20
709.5326728271
 30
0.0
 11
73.163833675
 21
709.8083438448
 31
0.0
  0
SPLINE
  5
E4
330
5E
100
AcDbEntity
  8
$DDT_AUDIT_GENERATED_(D4)
  6
Continuous
 62
     7
100
AcDbSpline
210
0.0
220
0.0
230
1.0
 70
     8
 71
     3
 72
    14
 73
    10
 74
     0
 42
0.0000000099244869
 43
0.0000000001
 40
0.0
 40
0.0
 40
0.0
 40
0.0
 40
0.0432209551721902
 40
0.2275225430632955
 40
0.412943667177682
 40
0.6050215205194049
 40
0.7123758913938734
 40
0.7931679863253255
 40
0.8287321828329688
 40
0.8287321828329688
 40
0.8287321828329688
 40
0.8287321828329688
 10
18.86897345845251
 20
709.5043701891137
 30
0.0
 10
18.86804028498761
 20
709.4799830236975
 30
0.0
 10
18.86388026797423
 20
709.3703194362704
 30
0.0
 10
18.86167380198118
 20
709.1969660692067
 30
0.0
 10
18.86388716853916
 20
709.004324784063
 30
0.0
 10
18.87237330666569
 20
708.878545523796
 30
0.0
 10
18.88601738633219
 20
708.7914625221389
 30
0.0
 10
18.9015742499832
 20
708.7330528597569
 30
0.0
 10
18.91944073041218
 20
708.6920195768454
 30
0.0
 10
18.92671369252627
 20
708.6783791817962
 30
0.0
  0
SPLINE
  5
E5
330
5E
100
AcDbEntity
  8
$DDT_AUDIT_GENERATED_(D4)
  6
Continuous
 62
     7
100
AcDbSpline
210
0.0
220
0.0
230
1.0
 70
     8
 71
     3
 72
    14
 73
    10
 74
     0
 42
0.0000000101712739
 43
0.0000000001
 40
0.1738488552916218
 40
0.1738488552916218
 40
0.1738488552916218
 40
0.1738488552916218
 40
0.2044619836121234
 40
0.2693948179213155
 40
0.3652908685089167
 40
0.5412123067638758
 40
0.7286010913516381
 40
0.9278339556771287
 40
1.0
 40
1.0
 40
1.0
 40
1.0
 10
73.11850181100866
 20
708.6780707628654
 30
0.0
 10
73.12465430036438
 20
708.6895933132938
 30
0.0
 10
73.13987178512973
 20
708.7231673242098
 30
0.0
 10
73.15584239185152
 20
708.7757409488166
 30
0.0
 10
73.16995511645682
 20
708.8526671599345
 30
0.0
 10
73.17947704250557
 20
708.9638664569379
 30
0.0
 10
73.18363257143153
 20
709.1392424267373
 30
0.0
 10
73.18254666941374
 20
709.3187540761801
 30
0.0
 10
73.17826996998731
 20
709.442533448802
 30
0.0
 10
73.17690956921878
 20
709.4812697215887
 30
0.0
  0
LINE
  5
E7
330
5E
100
AcDbEntity
  8
$DDT_AUDIT_GENERATED_(E6)
  6
Continuous
 62
     7
100
AcDbLine
 10
74.4232882435
 20
663.00827926
 30
0.0
 11
63.7216172833
 21
663.00827926
 31
0.0
  0
LINE
  5
E8
330
5E
100
AcDbEntity
  8
$DDT_AUDIT_GENERATED_(E6)
  6
Continuous
 62
     7
100
AcDbLine
 10
28.3163417023
 20
663.00827926
 30
0.0
 11
17.622030992
 21
663.00827926
 31
0.0
  0
LINE
  5
E9
330
5E
100
AcDbEntity
  8
$DDT_AUDIT_GENERATED_(E6)
  6
Continuous
 62
     7
100
AcDbLine
 10
17.1321853062
 20
663.4981249459
 30
0.0
 11
17.622030992
 21
663.00827926
 31
0.0
  0
LINE
  5
EA
330
5E
100
AcDbEntity
  8
$DDT_AUDIT_GENERATED_(E6)
  6
Continuous
 62
     7
100
AcDbLine
 10
74.4232882435
 20
663.00827926
 30
0.0
 11
74.9131339294
 21
663.4981249459
 31
0.0
  0
ARC
  5
EB
330
5E
100
AcDbEntity
  8
$DDT_AUDIT_GENERATED_(E6)
  6
Continuous
 62
     7
100
AcDbCircle
 10
709.5431470629
 20
648.8976090322
 30
0.0
 40
692.6648592344261
100
AcDbArc
 50
176.0282656413
 51
178.7921865962
  0
ARC
  5
EC
330
5E
100
AcDbEntity
  8
$DDT_AUDIT_GENERATED_(E6)
  6
Continuous
 62
     7
100
AcDbCircle
 10
-617.4978278274
 20
648.8976090322
 30
0.0
 40
692.6648592344261
100
AcDbArc
 50
1.2078134038
 51
3.9686126285
  0
LINE
  5
EE
330
5E
100
AcDbEntity
  8
DV1_Standard
  6
Continuous
 62
     7
100
AcDbLine
 10
17.3226594334
 20
554.5183636137
 30
0.0
 11
74.7226598021
 21
554.5183636137
 31
0.0
  0
LINE
  5
F0
330
5E
100
AcDbEntity
  8
DV1_Standard
  6
CENTER2
 62
     7
100
AcDbLine
 10
66.0226591707
 20
554.5183636137
 30
0.0
 11
26.0226600648
 21
554.5183636137
 31
0.0
  0
LINE
  5
F1
330
5E
100
AcDbEntity
  8
DV1_Standard
  6
CENTER2
 62
     7
100
AcDbLine
 10
46.0226596178
 20
574.5183631666
 30
0.0
 11
46.0226596178
 21
534.5183640607
 31
0.0
  0
LINE
  5
F2
330
5E
100
AcDbEntity
  8
DV1_Standard
  6
Continuous
 62
     7
100
AcDbLine
 10
46.4836361781
 20
688.8788946972
 30
0.0
 11
45.5593392984
 21
688.8788946972
 31
0.0
  0
ENDBLK
  5
F4
330
5E
100
AcDbEntity
  8
0
100
AcDbBlockEnd
  0
BLOCK
  5
193
330
F5
100
AcDbEntity
  8
0
100
AcDbBlockBegin
  2
SE1
 70
     0
 10
0.0
 20
0.0
 30
0.0
  3
SE1
  1

  0
LINE
  5
F7
330
F5
100
AcDbEntity
  8
$DDT_AUDIT_GENERATED_(60)
  6
Continuous
 62
     7
100
AcDbLine
 10
231.8679351841
 20
662.3082138554
 30
0.0
 11
231.8618258058
 21
663.00827926
 31
0.0
  0
LINE
  5
F8
330
F5
100
AcDbEntity
  8
$DDT_AUDIT_GENERATED_(60)
  6
Continuous
 62
     7
100
AcDbLine
 10
180.2362621755
 20
663.00827926
 30
0.0
 11
180.2301527983
 21
662.3082139727
 31
0.0
  0
LINE
  5
FA
330
F5
100
AcDbEntity
  8
$DDT_AUDIT_GENERATED_(F9)
  6
Continuous
 62
     7
100
AcDbLine
 10
233.1407062331
 20
723.7833330568
 30
0.0
 11
233.3416654451
 21
716.1090103677
 31
0.0
  0
LINE
  5
FB
330
F5
100
AcDbEntity
  8
$DDT_AUDIT_GENERATED_(F9)
  6
Continuous
 62
     7
100
AcDbLine
 10
233.026134627
 20
716.2528060459
 30
0.0
 11
233.3416654451
 21
716.1090103677
 31
0.0
  0
ARC
  5
FC
330
F5
100
AcDbEntity
  8
$DDT_AUDIT_GENERATED_(63)
  6
Continuous
 62
     7
100
AcDbCircle
 10
394.9699383699
 20
659.1187457337
 30
0.0
 40
23.66249505314345
100
AcDbArc
 50
116.7468579829
 51
142.7295677236
  0
ARC
  5
FD
330
F5
100
AcDbEntity
  8
$DDT_AUDIT_GENERATED_(63)
  6
Continuous
 62
     7
100
AcDbCircle
 10
376.0033651489
 20
673.7154835777
 30
0.0
 40
0.2999999380220708
100
AcDbArc
 50
297.0195624876
 51
325.1302302247
  0
ARC
  5
FE
330
F5
100
AcDbEntity
  8
$DDT_AUDIT_GENERATED_(63)
  6
Continuous
 62
     7
100
AcDbCircle
 10
416.4210935806
 20
668.2533329176
 30
0.0
 40
24.4002194227737
100
AcDbArc
 50
88.0053982458
 51
88.1750291912
  0
LINE
  5
FF
330
F5
100
AcDbEntity
  8
$DDT_AUDIT_GENERATED_(63)
  6
Continuous
 62
     7
100
AcDbLine
 10
426.1703409035
 20
688.4937010301
 30
0.0
 11
474.9074634953
 21
711.2201963098
 31
0.0
  0
ARC
  5
100
330
F5
100
AcDbEntity
  8
$DDT_AUDIT_GENERATED_(63)
  6
Continuous
 62
     7
100
AcDbCircle
 10
474.9799415913
 20
713.3713548196
 30
0.0
 40
1.500002658708046
100
AcDbArc
 50
315.0018858286
 51
42.2493369476
  0
ARC
  5
101
330
F5
100
AcDbEntity
  8
$DDT_AUDIT_GENERATED_(63)
  6
Continuous
 62
     7
100
AcDbCircle
 10
424.0684648563
 20
689.785273143
 30
0.0
 40
1.500001501420539
100
AcDbArc
 50
211.5030379126
 51
274.999980928
  0
SPLINE
  5
102
330
F5
100
AcDbEntity
  8
$DDT_AUDIT_GENERATED_(63)
  6
Continuous
 62
     7
100
AcDbSpline
210
0.0
220
0.0
230
1.0
 70
     8
 71
     3
 72
     8
 73
     4
 74
     0
 42
0.0000000002830455
 43
0.0000000001
 40
0.0
 40
0.0
 40
0.0
 40
0.0
 40
1.0
 40
1.0
 40
1.0
 40
1.0
 10
476.0902824219239
 20
714.3798939690996
 30
0.0
 10
468.4428149557357
 20
722.7991384850127
 30
0.0
 10
459.4177477355195
 20
730.6948288556578
 30
0.0
 10
450.0890239225131
 20
738.186629156307
 30
0.0
  0
LINE
  5
103
330
F5
100
AcDbEntity
  8
$DDT_AUDIT_GENERATED_(63)
  6
Continuous
 62
     7
100
AcDbLine
 10
324.729634476
 20
670.9652384894
 30
0.0
 11
321.2012146539
 21
678.5319586236
 31
0.0
  0
LINE
  5
104
330
F5
100
AcDbEntity
  8
$DDT_AUDIT_GENERATED_(63)
  6
Continuous
 62
     7
100
AcDbLine
 10
321.2012146539
 20
678.5319586236
 30
0.0
 11
320.088541581
 21
680.9180935419
 31
0.0
  0
LINE
  5
105
330
F5
100
AcDbEntity
  8
$DDT_AUDIT_GENERATED_(63)
  6
Continuous
 62
     7
100
AcDbLine
 10
320.088541581
 20
680.9180935419
 30
0.0
 11
319.7730168228
 21
681.5947385166
 31
0.0
  0
LINE
  5
106
330
F5
100
AcDbEntity
  8
$DDT_AUDIT_GENERATED_(63)
  6
Continuous
 62
     7
100
AcDbLine
 10
333.7666712059
 20
651.5852521974
 30
0.0
 11
325.3928113946
 21
669.5430511086
 31
0.0
  0
LINE
  5
107
330
F5
100
AcDbEntity
  8
$DDT_AUDIT_GENERATED_(63)
  6
Continuous
 62
     7
100
AcDbLine
 10
325.3928113946
 20
669.5430511086
 30
0.0
 11
324.729634476
 21
670.9652384894
 31
0.0
  0
LINE
  5
108
330
F5
100
AcDbEntity
  8
$DDT_AUDIT_GENERATED_(63)
  6
Continuous
 62
     7
100
AcDbLine
 10
319.9185604113
 20
681.9979209485
 30
0.0
 11
319.9164112643
 21
682.002525742
 31
0.0
  0
ARC
  5
109
330
F5
100
AcDbEntity
  8
$DDT_AUDIT_GENERATED_(63)
  6
Continuous
 62
     7
100
AcDbCircle
 10
320.0398760064
 20
681.7323176246
 30
0.0
 40
0.3000000000001865
100
AcDbArc
 50
154.7198543105
 51
179.6028518671
  0
ARC
  5
10A
330
F5
100
AcDbEntity
  8
$DDT_AUDIT_GENERATED_(63)
  6
Continuous
 62
     7
100
AcDbCircle
 10
320.0398760064
 20
681.7323176246
 30
0.0
 40
0.3000000000001865
100
AcDbArc
 50
114.5613372213
 51
121.2864500228
  0
ARC
  5
10B
330
F5
100
AcDbEntity
  8
$DDT_AUDIT_GENERATED_(63)
  6
Continuous
 62
     7
100
AcDbCircle
 10
447.4785177206
 20
734.9352199814
 30
0.0
 40
4.169700738961454
100
AcDbArc
 50
51.2395574087
 51
108.5506802625
  0
ARC
  5
10C
330
F5
100
AcDbEntity
  8
$DDT_AUDIT_GENERATED_(63)
  6
Continuous
 62
     7
100
AcDbCircle
 10
-7078.345315211
 20
16838.6997478411
 30
0.0
 40
17773.6840942891
100
AcDbArc
 50
295.0597892187
 51
295.0603070295
  0
ARC
  5
10D
330
F5
100
AcDbEntity
  8
$DDT_AUDIT_GENERATED_(63)
  6
Continuous
 62
     7
100
AcDbCircle
 10
-7078.345315211
 20
16838.6997478411
 30
0.0
 40
17773.6840942891
100
AcDbArc
 50
294.603450735
 51
295.0597892187
  0
SPLINE
  5
10E
330
F5
100
AcDbEntity
  8
$DDT_AUDIT_GENERATED_(63)
  6
Continuous
 62
     7
100
AcDbSpline
210
0.0
220
0.0
230
1.0
 70
     8
 71
     3
 72
    11
 73
     7
 74
     0
 42
0.0000000004588348
 43
0.0000000001
 40
0.9718903627257605
 40
0.9718903627257605
 40
0.9718903627257605
 40
0.9718903627257605
 40
0.9727665106510378
 40
0.9827607523917646
 40
0.9916312545411906
 40
1.0
 40
1.0
 40
1.0
 40
1.0
 10
445.5966992142561
 20
738.6294233145152
 30
0.0
 10
445.6079576681492
 20
738.63466265551
 30
0.0
 10
445.7455046123339
 20
738.6986858330457
 30
0.0
 10
445.946807599037
 20
738.7926984258681
 30
0.0
 10
446.1241441326831
 20
738.8748780012252
 30
0.0
 10
446.1428664257202
 20
738.8838961581013
 30
0.0
 10
446.1519551175505
 20
738.8882739796337
 30
0.0
  0
SPLINE
  5
10F
330
F5
100
AcDbEntity
  8
$DDT_AUDIT_GENERATED_(63)
  6
Continuous
 62
     7
100
AcDbSpline
210
0.0
220
0.0
230
1.0
 70
     8
 71
     3
 72
    21
 73
    17
 74
     0
 42
0.0000000000722091
 43
0.0000000001
 40
0.0
 40
0.0
 40
0.0
 40
0.0
 40
0.1250000000000001
 40
0.1250000000000001
 40
0.2500000000000003
 40
0.2500000000000003
 40
0.3750000000000004
 40
0.3750000000000004
 40
0.5000000000000006
 40
0.5000000000000006
 40
0.7500000000000009
 40
0.7500000000000009
 40
0.8125000000000006
 40
0.8125000000000006
 40
0.8750000000000003
 40
1.0
 40
1.0
 40
1.0
 40
1.0
 10
446.1519551175505
 20
738.8882739796337
 30
0.0
 10
443.7642105766565
 20
738.0867676223494
 30
0.0
 10
441.277967829493
 20
737.1591171630853
 30
0.0
 10
435.9757568504378
 20
735.0205009828186
 30
0.0
 10
433.1726012433065
 20
733.8143938097672
 30
0.0
 10
426.8119347725435
 20
730.9771483436809
 30
0.0
 10
423.253059577242
 20
729.3454926960083
 30
0.0
 10
414.9194936981735
 20
725.5014683100824
 30
0.0
 10
410.1244305613217
 20
723.2810202988974
 30
0.0
 10
393.3675544876334
 20
715.5722098110782
 30
0.0
 10
379.3123042521877
 20
709.1467285417867
 30
0.0
 10
360.9775186825448
 20
700.769408257271
 30
0.0
 10
357.2726167912535
 20
699.0768223531436
 30
0.0
 10
349.8557825459497
 20
695.6880235261632
 30
0.0
 10
338.7106202171412
 20
690.595225942465
 30
0.0
 10
327.4743669682147
 20
685.4598787374024
 30
0.0
 10
319.9151743424961
 20
682.0051759886119
 30
0.0
  0
ARC
  5
110
330
F5
100
AcDbEntity
  8
$DDT_AUDIT_GENERATED_(63)
  6
Continuous
 62
     7
100
AcDbCircle
 10
2142.8020719441
 20
-3050.4057711282
 30
0.0
 40
4141.743099065923
100
AcDbArc
 50
115.6678381314
 51
116.0336255388
  0
ARC
  5
111
330
F5
100
AcDbEntity
  8
$DDT_AUDIT_GENERATED_(63)
  6
Continuous
 62
     7
100
AcDbCircle
 10
1118.2529936793
 20
-844.9408486079
 30
0.0
 40
1710.422758806547
100
AcDbArc
 50
115.6623412624
 51
116.7350574564
  0
ARC
  5
112
330
F5
100
AcDbEntity
  8
$DDT_AUDIT_GENERATED_(63)
  6
Continuous
 62
     7
100
AcDbCircle
 10
-259.8944715589
 20
2020.2356186362
 30
0.0
 40
1468.968518865932
100
AcDbArc
 50
295.7168270144
 51
296.3542363871
  0
LINE
  5
113
330
F5
100
AcDbEntity
  8
$DDT_AUDIT_GENERATED_(63)
  6
Continuous
 62
     7
100
AcDbLine
 10
392.2094603827
 20
703.9419676332
 30
0.0
 11
407.7621739666
 21
711.5440328397
 31
0.0
  0
LINE
  5
114
330
F5
100
AcDbEntity
  8
$DDT_AUDIT_GENERATED_(63)
  6
Continuous
 62
     7
100
AcDbLine
 10
407.7621524493
 20
711.5440656884
 30
0.0
 11
418.1319872813
 21
716.6341703553
 31
0.0
  0
ARC
  5
115
330
F5
100
AcDbEntity
  8
$DDT_AUDIT_GENERATED_(63)
  6
Continuous
 62
     7
100
AcDbCircle
 10
438.1708472505
 20
677.169276774
 30
0.0
 40
44.26095901376825
100
AcDbArc
 50
107.1648279398
 51
116.9198274957
  0
ARC
  5
116
330
F5
100
AcDbEntity
  8
$DDT_AUDIT_GENERATED_(63)
  6
Continuous
 62
     7
100
AcDbCircle
 10
428.0256857991
 20
708.5352423157
 30
0.0
 40
11.30641641890694
100
AcDbArc
 50
62.2787841142
 51
104.9521945332
  0
ARC
  5
117
330
F5
100
AcDbEntity
  8
$DDT_AUDIT_GENERATED_(63)
  6
Continuous
 62
     7
100
AcDbCircle
 10
428.1692474131
 20
710.1175637259
 30
0.0
 40
9.857758455779852
100
AcDbArc
 50
40.9459313921
 51
58.7370742039
  0
LINE
  5
118
330
F5
100
AcDbEntity
  8
$DDT_AUDIT_GENERATED_(63)
  6
Continuous
 62
     7
100
AcDbLine
 10
435.6150694997
 20
716.5778475413
 30
0.0
 11
437.3561677405
 21
714.7103311835
 31
0.0
  0
SPLINE
  5
119
330
F5
100
AcDbEntity
  8
$DDT_AUDIT_GENERATED_(63)
  6
Continuous
 62
     7
100
AcDbSpline
210
0.0
220
0.0
230
1.0
 70
    12
 71
     3
 72
     9
 73
     5
 74
     0
 42
0.0000000002110567
 43
0.0000000001
 40
0.0
 40
0.0
 40
0.0
 40
0.0
 40
0.3580316073317
 40
1.0
 40
1.0
 40
1.0
 40
1.0
 10
334.1781011657392
 20
651.446464326733
 30
0.0
 41
1.0
 10
342.6016079933052
 20
655.8723456090466
 30
0.0
 41
1.0
 10
362.0994023587057
 20
666.0678969112246
 30
0.0
 41
1.0
 10
370.6620613503856
 20
670.654848740459
 30
0.0
 41
1.0
 10
376.1396537689348
 20
673.4482277196264
 30
0.0
 41
1.0
  0
ARC
  5
11A
330
F5
100
AcDbEntity
  8
$DDT_AUDIT_GENERATED_(63)
  6
Continuous
 62
     7
100
AcDbCircle
 10
416.5053976946
 20
667.784951015
 30
0.0
 40
24.86504554701233
100
AcDbArc
 50
87.9326119306
 51
112.4746416925
  0
SPLINE
  5
11B
330
F5
100
AcDbEntity
  8
$DDT_AUDIT_GENERATED_(63)
  6
Continuous
 62
     7
100
AcDbSpline
210
0.0
220
0.0
230
1.0
 70
    12
 71
     3
 72
    13
 73
     9
 74
     0
 42
0.0000000014314179
 43
0.0000000001
 40
0.0
 40
0.0
 40
0.0
 40
0.0
 40
0.006487375890136
 40
0.2208742570379
 40
0.4352611381856
 40
0.6496480193333001
 40
0.8640349004810001
 40
1.0
 40
1.0
 40
1.0
 40
1.0
 10
417.4024017139647
 20
692.6338116295644
 30
0.0
 41
1.0
 10
417.4255843501656
 20
692.6373345371616
 30
0.0
 41
1.0
 10
418.2082690184808
 20
692.7509799594922
 30
0.0
 41
1.0
 10
419.3414924619358
 20
692.5614323031298
 30
0.0
 41
1.0
 10
420.4540154505294
 20
691.8326677749336
 30
0.0
 41
1.0
 10
421.5111394531236
 20
690.85186559647
 30
0.0
 41
1.0
 10
422.2226674321634
 20
689.8976440990431
 30
0.0
 41
1.0
 10
422.6306604101334
 20
689.2606927354005
 30
0.0
 41
1.0
 10
422.7895448869832
 20
689.0014567000226
 30
0.0
 41
1.0
  0
ARC
  5
11C
330
F5
100
AcDbEntity
  8
$DDT_AUDIT_GENERATED_(63)
  6
Continuous
 62
     7
100
AcDbCircle
 10
334.038563473
 20
651.712037824
 30
0.0
 40
0.3000000000000554
100
AcDbArc
 50
232.5908724379
 51
297.7183453305
  0
LINE
  5
11D
330
F5
100
AcDbEntity
  8
$DDT_AUDIT_GENERATED_(63)
  6
Continuous
 62
     7
100
AcDbLine
 10
407.0001224725
 20
690.7614668314
 30
0.0
 11
407.0139735073
 21
690.7307285147
 31
0.0
  0
ARC
  5
11E
330
F5
100
AcDbEntity
  8
$DDT_AUDIT_GENERATED_(63)
  6
Continuous
 62
     7
100
AcDbCircle
 10
474.6961543508
 20
711.673350197
 30
0.0
 40
0.4999999999995265
100
AcDbArc
 50
295.0000017176
 51
315.0000017347
  0
ARC
  5
11F
330
F5
100
AcDbEntity
  8
$DDT_AUDIT_GENERATED_(63)
  6
Continuous
 62
     7
100
AcDbCircle
 10
425.959031759
 20
688.9468549172
 30
0.0
 40
0.4999999999553991
100
AcDbArc
 50
275.0000017005
 51
295.0000017176
  0
LINE
  5
120
330
F5
100
AcDbEntity
  8
$DDT_AUDIT_GENERATED_(63)
  6
Continuous
 62
     7
100
AcDbLine
 10
424.1965477925
 20
688.2907475773
 30
0.0
 11
426.0026096452
 21
688.4487575696
 31
0.0
  0
LINE
  5
121
330
F5
100
AcDbEntity
  8
$DDT_AUDIT_GENERATED_(63)
  6
Continuous
 62
     7
100
AcDbLine
 10
475.049707752
 20
711.3197968171
 30
0.0
 11
476.0970458807
 21
712.3671350086
 31
0.0
  0
ARC
  5
122
330
F5
100
AcDbEntity
  8
$DDT_AUDIT_GENERATED_(63)
  6
Continuous
 62
     7
100
AcDbCircle
 10
320.0413742809
 20
681.7296312007
 30
0.0
 40
0.3001215538340723
100
AcDbArc
 50
113.9815328411
 51
159.7967362828
  0
LINE
  5
123
330
F5
100
AcDbEntity
  8
$DDT_AUDIT_GENERATED_(63)
  6
Continuous
 62
     7
100
AcDbLine
 10
319.8200306061
 20
681.920122618
 30
0.0
 11
319.7438002822
 21
681.7338675496
 31
0.0
  0
ARC
  5
124
330
F5
100
AcDbEntity
  8
$DDT_AUDIT_GENERATED_(63)
  6
Continuous
 62
     7
100
AcDbCircle
 10
447.1518986821
 20
732.99141926
 30
0.0
 40
5.845996627979342
100
AcDbArc
 50
61.1160736534
 51
105.81438509
  0
ARC
  5
125
330
F5
100
AcDbEntity
  8
$DDT_AUDIT_GENERATED_(63)
  6
Continuous
 62
     7
100
AcDbCircle
 10
-2248.885129106
 20
6387.4898265714
 30
0.0
 40
6285.438859815962
100
AcDbArc
 50
294.7676492033
 51
294.9955133427
  0
SPLINE
  5
126
330
F5
100
AcDbEntity
  8
$DDT_AUDIT_GENERATED_(8A)
  6
Continuous
 62
     7
100
AcDbSpline
210
0.0
220
0.0
230
1.0
 70
     8
 71
     3
 72
    12
 73
     8
 74
     0
 42
0.0000000013355798
 43
0.0000000001
 40
0.7344768081761412
 40
0.7344768081761412
 40
0.7344768081761412
 40
0.7344768081761412
 40
0.75
 40
0.75
 40
0.875
 40
0.875
 40
1.0
 40
1.0
 40
1.0
 40
1.0
 10
470.5552177536856
 20
708.5723916431526
 30
0.0
 10
470.6053379804567
 20
708.6029598859669
 30
0.0
 10
470.6557774705839
 20
708.6337232425913
 30
0.0
 10
471.1134193066378
 20
708.912845815782
 30
0.0
 10
471.5117858478216
 20
709.1558439297025
 30
0.0
 10
472.0832719169483
 20
709.5044643625467
 30
0.0
 10
472.2524555054921
 20
709.6076808728266
 30
0.0
 10
472.2524555054921
 20
709.6076808728266
 30
0.0
  0
ARC
  5
127
330
F5
100
AcDbEntity
  8
$DDT_AUDIT_GENERATED_(8A)
  6
Continuous
 62
     7
100
AcDbCircle
 10
367.6106236854
 20
877.6972017637
 30
0.0
 40
197.9999999999806
100
AcDbArc
 50
287.6322642473
 51
288.0963930632
  0
ARC
  5
128
330
F5
100
AcDbEntity
  8
$DDT_AUDIT_GENERATED_(8A)
  6
Continuous
 62
     7
100
AcDbCircle
 10
367.6106236854
 20
877.6972017637
 30
0.0
 40
198.0
100
AcDbArc
 50
301.9038865091
 51
302.367739188
  0
ARC
  5
129
330
F5
100
AcDbEntity
  8
$DDT_AUDIT_GENERATED_(8A)
  6
Continuous
 62
     7
100
AcDbCircle
 10
427.4952579647
 20
689.2850987098
 30
0.0
 40
0.3000000000012714
100
AcDbArc
 50
236.6268949422
 51
287.6324114356
  0
ARC
  5
12A
330
F5
100
AcDbEntity
  8
$DDT_AUDIT_GENERATED_(8A)
  6
Continuous
 62
     7
100
AcDbCircle
 10
473.4495773325
 20
710.7139514334
 30
0.0
 40
0.2999999999997579
100
AcDbArc
 50
302.3675919996
 51
353.373108493
  0
LINE
  5
12C
330
F5
100
AcDbEntity
  8
$DDT_AUDIT_GENERATED_(12B)
  6
Continuous
 62
     7
100
AcDbLine
 10
324.8024675083
 20
670.8090475592
 30
0.0
 11
324.5402238135
 21
671.3714309335
 31
0.0
  0
SPLINE
  5
12D
330
F5
100
AcDbEntity
  8
$DDT_AUDIT_GENERATED_(96)
  6
Continuous
 62
     7
100
AcDbSpline
210
0.0
220
0.0
230
1.0
 70
     8
 71
     3
 72
    24
 73
    20
 74
     0
 42
0.0000000010839106
 43
0.0000000001
 40
0.0
 40
0.0
 40
0.0
 40
0.0
 40
0.0506208581522385
 40
0.0929411047710186
 40
0.1267003380898555
 40
0.1516205793076203
 40
0.2092676503573263
 40
0.2572274596322515
 40
0.2975158201855507
 40
0.3336596152283323
 40
0.3712769906860546
 40
0.4080417597484303
 40
0.4460875213148629
 40
0.4901846196731966
 40
0.5438133768316127
 40
0.6072783228511066
 40
0.6620172759704889
 40
0.7718944010583054
 40
0.8534259800544375
 40
0.8534259800544375
 40
0.8534259800544375
 40
0.8534259800544375
 10
395.5353211771948
 20
680.9080500026419
 30
0.0
 10
395.5027626078223
 20
680.9831153155283
 30
0.0
 10
395.4429877338862
 20
681.1209297059968
 30
0.0
 10
395.337591087659
 20
681.3742237439852
 30
0.0
 10
395.244815345903
 20
681.6044820257571
 30
0.0
 10
395.1346852997668
 20
681.8993376194611
 30
0.0
 10
395.0118523895861
 20
682.2758255848552
 30
0.0
 10
395.0241785656768
 20
682.8220839244372
 30
0.0
 10
395.3514812592632
 20
683.3813923324658
 30
0.0
 10
395.9105228683358
 20
683.8430170426618
 30
0.0
 10
396.5770275909831
 20
684.1618913204277
 30
0.0
 10
397.2833787586763
 20
684.3103365567363
 30
0.0
 10
397.9020436230286
 20
684.2223288188582
 30
0.0
 10
398.3376925001843
 20
683.9301340494532
 30
0.0
 10
398.6062998300123
 20
683.5104905748852
 30
0.0
 10
398.8224404457737
 20
683.1137777781233
 30
0.0
 10
399.0390771722149
 20
682.6742871900102
 30
0.0
 10
399.1871216123795
 20
682.3650212556744
 30
0.0
 10
399.2270358169676
 20
682.281010784101
 30
0.0
 10
399.2258382188555
 20
682.2834974667453
 30
0.0
  0
SPLINE
  5
12E
330
F5
100
AcDbEntity
  8
$DDT_AUDIT_GENERATED_(96)
  6
Continuous
 62
     7
100
AcDbSpline
210
0.0
220
0.0
230
1.0
 70
     8
 71
     3
 72
     9
 73
     5
 74
     0
 42
0.0000000044878428
 43
0.0000000001
 40
0.8548184329318177
 40
0.8548184329318177
 40
0.8548184329318177
 40
0.8548184329318177
 40
0.8550551872490709
 40
1.0
 40
1.0
 40
1.0
 40
1.0
 10
395.6680382128914
 20
680.6057093143158
 30
0.0
 10
395.6680302607143
 20
680.6057262878663
 30
0.0
 10
395.6630599815879
 20
680.6163502488448
 30
0.0
 10
395.6004752118149
 20
680.7592492477276
 30
0.0
 10
395.5379925257809
 20
680.901915163806
 30
0.0
  0
ARC
  5
12F
330
F5
100
AcDbEntity
  8
$DDT_AUDIT_GENERATED_(96)
  6
Continuous
 62
     7
100
AcDbCircle
 10
413.8610182254
 20
675.7741680627
 30
0.0
 40
12.19704682373668
100
AcDbArc
 50
109.9226413832
 51
110.0164829606
  0
ARC
  5
130
330
F5
100
AcDbEntity
  8
$DDT_AUDIT_GENERATED_(96)
  6
Continuous
 62
     7
100
AcDbCircle
 10
413.8661304008
 20
675.7633645454
 30
0.0
 40
12.2089458199481
100
AcDbArc
 50
120.5011964753
 51
120.6635154092
  0
ARC
  5
131
330
F5
100
AcDbEntity
  8
$DDT_AUDIT_GENERATED_(96)
  6
Continuous
 62
     7
100
AcDbCircle
 10
394.1929426765
 20
658.8093583248
 30
0.0
 40
19.18492293659907
100
AcDbArc
 50
110.6050479593
 51
110.8562490673
  0
ARC
  5
132
330
F5
100
AcDbEntity
  8
$DDT_AUDIT_GENERATED_(96)
  6
Continuous
 62
     7
100
AcDbCircle
 10
394.1929426765
 20
658.8093583248
 30
0.0
 40
19.18492293659907
100
AcDbArc
 50
116.1964612679
 51
116.5425933874
  0
ARC
  5
133
330
F5
100
AcDbEntity
  8
$DDT_AUDIT_GENERATED_(96)
  6
Continuous
 62
     7
100
AcDbCircle
 10
394.1993280006
 20
658.7949736277
 30
0.0
 40
19.20063459491899
100
AcDbArc
 50
110.6667988072
 51
117.0173085445
  0
SPLINE
  5
134
330
F5
100
AcDbEntity
  8
$DDT_AUDIT_GENERATED_(96)
  6
Continuous
 62
     7
100
AcDbSpline
210
0.0
220
0.0
230
1.0
 70
     8
 71
     3
 72
    11
 73
     7
 74
     0
 42
0.000000004610336
 43
0.0000000001
 40
0.0
 40
0.0
 40
0.0
 40
0.0
 40
0.0500411170856218
 40
0.0987951460436645
 40
0.1463397505371305
 40
0.1583934896288113
 40
0.1583934896288113
 40
0.1583934896288113
 40
0.1583934896288113
 10
396.0346013529428
 20
680.9537245064165
 30
0.0
 10
396.0600285262362
 20
680.8936978584725
 30
0.0
 10
396.1102288025641
 20
680.7751882215359
 30
0.0
 10
396.1530340754081
 20
680.6746222555333
 30
0.0
 10
396.1674385723696
 20
680.6406665673923
 30
0.0
 10
396.168779459442
 20
680.6374672210087
 30
0.0
 10
396.1687822707798
 20
680.63744981491
 30
0.0
  0
SPLINE
  5
135
330
F5
100
AcDbEntity
  8
$DDT_AUDIT_GENERATED_(96)
  6
Continuous
 62
     7
100
AcDbSpline
210
0.0
220
0.0
230
1.0
 70
     8
 71
     3
 72
    23
 73
    19
 74
     0
 42
0.0000000012197899
 43
0.0000000001
 40
0.1596739848598629
 40
0.1596739848598629
 40
0.1596739848598629
 40
0.1596739848598629
 40
0.160026339172876
 40
0.2556111398266727
 40
0.3449773223398953
 40
0.4232865266916289
 40
0.488127704282757
 40
0.5392186389015622
 40
0.5823302492524759
 40
0.6165426512844739
 40
0.6486503157698439
 40
0.6811311090128279
 40
0.7136603362074606
 40
0.7502331905646423
 40
0.7927064089365764
 40
0.8483612777117461
 40
0.9175350956575802
 40
1.0
 40
1.0
 40
1.0
 40
1.0
 10
398.8835859900555
 20
681.9194718234389
 30
0.0
 10
398.8835867067942
 20
681.9194706595134
 30
0.0
 10
398.8837100443426
 20
681.9192996513224
 30
0.0
 10
398.8461553974378
 20
681.9957580468086
 30
0.0
 10
398.6964612770629
 20
682.3029554571997
 30
0.0
 10
398.4863443153784
 20
682.7157478946581
 30
0.0
 10
398.2483307888627
 20
683.1484021435108
 30
0.0
 10
397.999016679923
 20
683.5469777920869
 30
0.0
 10
397.6643291652808
 20
683.8419516887732
 30
0.0
 10
397.1554962556301
 20
683.9463490814702
 30
0.0
 10
396.5733002193485
 20
683.8192768882789
 30
0.0
 10
396.0341351496987
 20
683.5377670304197
 30
0.0
 10
395.626395400796
 20
683.1269307181029
 30
0.0
 10
395.4777934778601
 20
682.6772314620913
 30
0.0
 10
395.5427089842788
 20
682.2389363440667
 30
0.0
 10
395.6965748327542
 20
681.7868453581872
 30
0.0
 10
395.8819823658408
 20
681.315561334636
 30
0.0
 10
395.9790694722981
 20
681.0854004329973
 30
0.0
 10
396.0318664853684
 20
680.9602278840903
 30
0.0
  0
ARC
  5
136
330
F5
100
AcDbEntity
  8
$DDT_AUDIT_GENERATED_(96)
  6
Continuous
 62
     7
100
AcDbCircle
 10
407.7139297571
 20
686.0779125866
 30
0.0
 40
0.1999990522094764
100
AcDbArc
 50
90.1244828514
 51
114.9653973586
  0
ARC
  5
137
330
F5
100
AcDbEntity
  8
$DDT_AUDIT_GENERATED_(96)
  6
Continuous
 62
     7
100
AcDbCircle
 10
409.7923537307
 20
687.0614207837
 30
0.0
 40
0.1999990702314407
100
AcDbArc
 50
115.9425082018
 51
140.5209639371
  0
ARC
  5
138
330
F5
100
AcDbEntity
  8
$DDT_AUDIT_GENERATED_(96)
  6
Continuous
 62
     7
100
AcDbCircle
 10
376.644153579
 20
674.2058919887
 30
0.0
 40
0.5015201391971648
100
AcDbArc
 50
240.8511987945
 51
277.2228655468
  0
ARC
  5
139
330
F5
100
AcDbEntity
  8
$DDT_AUDIT_GENERATED_(96)
  6
Continuous
 62
     7
100
AcDbCircle
 10
400.4011058506
 20
707.8547469859
 30
0.0
 40
22.59372210871284
100
AcDbArc
 50
294.2900674369
 51
317.5700166079
  0
ARC
  5
13A
330
F5
100
AcDbEntity
  8
$DDT_AUDIT_GENERATED_(96)
  6
Continuous
 62
     7
100
AcDbCircle
 10
654.6966700093
 20
152.4069390345
 30
0.0
 40
588.2518197487332
100
AcDbArc
 50
114.8347273376
 51
115.7402369027
  0
SPLINE
  5
13B
330
F5
100
AcDbEntity
  8
$DDT_AUDIT_GENERATED_(96)
  6
Continuous
 62
     7
100
AcDbSpline
210
0.0
220
0.0
230
1.0
 70
     8
 71
     3
 72
    11
 73
     7
 74
     0
 42
0.0000000011014764
 43
0.0000000001
 40
0.0
 40
0.0
 40
0.0
 40
0.0
 40
0.0180316864660649
 40
0.4234895911525401
 40
0.9005331585076021
 40
1.0
 40
1.0
 40
1.0
 40
1.0
 10
387.4405303812806
 20
676.7685287548481
 30
0.0
 10
387.495307068022
 20
676.7930689446999
 30
0.0
 10
388.6044917893671
 20
677.2898631489184
 30
0.0
 10
391.1232636795228
 20
678.5002925675876
 30
0.0
 10
393.8786658882356
 20
679.7653749213581
 30
0.0
 10
395.367803123677
 20
680.4661361378666
 30
0.0
 10
395.6674527710763
 20
680.6069761227005
 30
0.0
  0
ARC
  5
13C
330
F5
100
AcDbEntity
  8
$DDT_AUDIT_GENERATED_(96)
  6
Continuous
 62
     7
100
AcDbCircle
 10
374.0008259534
 20
703.0198995274
 30
0.0
 40
29.44353204621182
100
AcDbArc
 50
274.7934850051
 51
292.7772166973
  0
ARC
  5
13D
330
F5
100
AcDbEntity
  8
$DDT_AUDIT_GENERATED_(96)
  6
Continuous
 62
     7
100
AcDbCircle
 10
416.5490321505
 20
692.7948308292
 30
0.0
 40
0.5014519584806639
100
AcDbArc
 50
314.1331851206
 51
344.5290748542
  0
ARC
  5
13E
330
F5
100
AcDbEntity
  8
$DDT_AUDIT_GENERATED_(96)
  6
Continuous
 62
     7
100
AcDbCircle
 10
395.9596009234
 20
679.9748552415
 30
0.0
 40
0.6965432585753246
100
AcDbArc
 50
72.194004745
 51
115.1812223641
  0
ARC
  5
13F
330
F5
100
AcDbEntity
  8
$DDT_AUDIT_GENERATED_(96)
  6
Continuous
 62
     7
100
AcDbCircle
 10
396.663274116
 20
683.1058685499
 30
0.0
 40
2.515216447382461
100
AcDbArc
 50
258.2427177947
 51
332.2865031184
  0
ARC
  5
140
330
F5
100
AcDbEntity
  8
$DDT_AUDIT_GENERATED_(96)
  6
Continuous
 62
     7
100
AcDbCircle
 10
399.524225804
 20
681.6674293493
 30
0.0
 40
0.6908114020029005
100
AcDbArc
 50
115.369000425
 51
158.7306377969
  0
ARC
  5
141
330
F5
100
AcDbEntity
  8
$DDT_AUDIT_GENERATED_(96)
  6
Continuous
 62
     7
100
AcDbCircle
 10
407.708210542
 20
688.7778937341
 30
0.0
 40
2.499999999999992
100
AcDbArc
 50
270.1525931174
 51
295.0000017176
  0
ARC
  5
142
330
F5
100
AcDbEntity
  8
$DDT_AUDIT_GENERATED_(96)
  6
Continuous
 62
     7
100
AcDbCircle
 10
407.708210542
 20
688.7778937341
 30
0.0
 40
2.500000000000019
100
AcDbArc
 50
295.0000017176
 51
320.494970957
  0
LINE
  5
143
330
F5
100
AcDbEntity
  8
$DDT_AUDIT_GENERATED_(B6)
  6
Continuous
 62
     7
100
AcDbLine
 10
177.0490438114
 20
623.7164151759
 30
0.0
 11
177.0490442461
 21
554.8183631332
 31
0.0
  0
LINE
  5
144
330
F5
100
AcDbEntity
  8
$DDT_AUDIT_GENERATED_(B6)
  6
Continuous
 62
     7
100
AcDbLine
 10
235.0490435999
 20
657.2401348735
 30
0.0
 11
235.0490435743
 21
661.3082138307
 31
0.0
  0
ARC
  5
145
330
F5
100
AcDbEntity
  8
$DDT_AUDIT_GENERATED_(B6)
  6
Continuous
 62
     7
100
AcDbCircle
 10
233.1349689966
 20
643.8820447764
 30
0.0
 40
12.17948178430157
100
AcDbArc
 50
108.6901700434
 51
129.6809723136
  0
LINE
  5
146
330
F5
100
AcDbEntity
  8
$DDT_AUDIT_GENERATED_(B6)
  6
Continuous
 62
     7
100
AcDbLine
 10
221.2160939533
 20
625.1323946287
 30
0.0
 11
221.3422472644
 21
645.0548795456
 31
0.0
  0
LINE
  5
147
330
F5
100
AcDbEntity
  8
$DDT_AUDIT_GENERATED_(B6)
  6
Continuous
 62
     7
100
AcDbLine
 10
221.3641880427
 20
621.9617712013
 30
0.0
 11
221.2160938685
 21
625.1323798177
 31
0.0
  0
ARC
  5
148
330
F5
100
AcDbEntity
  8
$DDT_AUDIT_GENERATED_(B6)
  6
Continuous
 62
     7
100
AcDbCircle
 10
292.9557582125
 20
627.9928545462
 30
0.0
 40
71.58998133381725
100
AcDbArc
 50
188.1078545912
 51
216.0146990159
  0
ARC
  5
149
330
F5
100
AcDbEntity
  8
$DDT_AUDIT_GENERATED_(B6)
  6
Continuous
 62
     7
100
AcDbCircle
 10
255.4179619002
 20
584.8509045292
 30
0.0
 40
20.3958377116563
100
AcDbArc
 50
116.3159695816
 51
177.0559163628
  0
ARC
  5
14A
330
F5
100
AcDbEntity
  8
$DDT_AUDIT_GENERATED_(B6)
  6
Continuous
 62
     7
100
AcDbCircle
 10
194.2984522
 20
719.6352038895
 30
0.0
 40
101.3541063727914
100
AcDbArc
 50
285.4882938536
 51
294.6715560016
  0
ARC
  5
14B
330
F5
100
AcDbEntity
  8
$DDT_AUDIT_GENERATED_(B6)
  6
Continuous
 62
     7
100
AcDbCircle
 10
247.7855752446
 20
624.611054943
 30
0.0
 40
26.55386198038925
100
AcDbArc
 50
185.7259426205
 51
192.6451261348
  0
ARC
  5
14C
330
F5
100
AcDbEntity
  8
$DDT_AUDIT_GENERATED_(B6)
  6
Continuous
 62
     7
100
AcDbCircle
 10
241.4479685744
 20
672.4293107714
 30
0.0
 40
29.70577976465246
100
AcDbArc
 50
230.0296840796
 51
260.8050596845
  0
ARC
  5
14D
330
F5
100
AcDbEntity
  8
$DDT_AUDIT_GENERATED_(B6)
  6
Continuous
 62
     7
100
AcDbCircle
 10
230.158955146
 20
645.5152068663
 30
0.0
 40
8.828924262498909
100
AcDbArc
 50
151.9754633639
 51
182.9886625114
  0
ARC
  5
14E
330
F5
100
AcDbEntity
  8
$DDT_AUDIT_GENERATED_(B6)
  6
Continuous
 62
     7
100
AcDbCircle
 10
233.1674563396
 20
643.7057684974
 30
0.0
 40
12.33620031700565
100
AcDbArc
 50
129.2743318557
 51
151.1220835349
  0
ARC
  5
14F
330
F5
100
AcDbEntity
  8
$DDT_AUDIT_GENERATED_(B6)
  6
Continuous
 62
     7
100
AcDbCircle
 10
244.0476089551
 20
657.2388517121
 30
0.0
 40
8.998565446680209
100
AcDbArc
 50
179.9918298386
 51
263.628800928
  0
ARC
  5
150
330
F5
100
AcDbEntity
  8
$DDT_AUDIT_GENERATED_(B6)
  6
Continuous
 62
     7
100
AcDbCircle
 10
2449.2504838344
 20
-3295.5798676715
 30
0.0
 40
4478.014915164752
100
AcDbArc
 50
118.5449402209
 51
119.4675808467
  0
ARC
  5
151
330
F5
100
AcDbEntity
  8
$DDT_AUDIT_GENERATED_(B6)
  6
Continuous
 62
     7
100
AcDbCircle
 10
239.7095577197
 20
659.1056128952
 30
0.0
 40
16.28073725051395
100
AcDbArc
 50
259.3515493895
 51
296.4760712498
  0
ARC
  5
152
330
F5
100
AcDbEntity
  8
$DDT_AUDIT_GENERATED_(B6)
  6
Continuous
 62
     7
100
AcDbCircle
 10
244.0490439047
 20
657.2401347488
 30
0.0
 40
8.999999886057129
100
AcDbArc
 50
263.6206285807
 51
294.5317575048
  0
LINE
  5
153
330
F5
100
AcDbEntity
  8
$DDT_AUDIT_GENERATED_(B6)
  6
Continuous
 62
     7
100
AcDbLine
 10
320.1749659844
 20
680.7327566282
 30
0.0
 11
319.8532584962
 21
681.4226597067
 31
0.0
  0
LINE
  5
154
330
F5
100
AcDbEntity
  8
$DDT_AUDIT_GENERATED_(B6)
  6
Continuous
 62
     7
100
AcDbLine
 10
320.1919970987
 20
680.6962332906
 30
0.0
 11
320.1749659844
 21
680.7327566282
 31
0.0
  0
LINE
  5
155
330
F5
100
AcDbEntity
  8
$DDT_AUDIT_GENERATED_(B6)
  6
Continuous
 62
     7
100
AcDbLine
 10
333.7222168534
 20
651.6805848571
 30
0.0
 11
333.3236059457
 21
652.5354086853
 31
0.0
  0
ARC
  5
156
330
F5
100
AcDbEntity
  8
$DDT_AUDIT_GENERATED_(B6)
  6
Continuous
 62
     7
100
AcDbCircle
 10
-9833.1535071967
 20
21126.378371323
 30
0.0
 40
22838.62292665286
100
AcDbArc
 50
296.1619055703
 51
296.4071294831
  0
ARC
  5
157
330
F5
100
AcDbEntity
  8
$DDT_AUDIT_GENERATED_(B6)
  6
Continuous
 62
     7
100
AcDbCircle
 10
-21256.8694119251
 20
47698.8192441493
 30
0.0
 40
51735.10346599556
100
AcDbArc
 50
294.5604291167
 51
294.6503061299
  0
LINE
  5
158
330
F5
100
AcDbEntity
  8
$DDT_AUDIT_GENERATED_(B6)
  6
Continuous
 62
     7
100
AcDbLine
 10
319.1922839907
 20
681.6661148866
 30
0.0
 11
247.7858217706
 21
649.0525533515
 31
0.0
  0
ARC
  5
159
330
F5
100
AcDbEntity
  8
$DDT_AUDIT_GENERATED_(B6)
  6
Continuous
 62
     7
100
AcDbCircle
 10
319.400104609
 20
681.2113505624
 30
0.0
 40
0.4999999999711729
100
AcDbArc
 50
25.0000016949
 51
114.5597046935
  0
ARC
  5
15A
330
F5
100
AcDbEntity
  8
$DDT_AUDIT_GENERATED_(B6)
  6
Continuous
 62
     7
100
AcDbCircle
 10
333.2690629663
 20
651.4692757127
 30
0.0
 40
0.4999999999999877
100
AcDbArc
 50
297.9869231435
 51
25.0000017176
  0
LINE
  5
15B
330
F5
100
AcDbEntity
  8
$DDT_AUDIT_GENERATED_(B6)
  6
Continuous
 62
     7
100
AcDbLine
 10
178.0490435766
 20
662.3082139516
 30
0.0
 11
234.0490435766
 21
662.3082138244
 31
0.0
  0
LINE
  5
15C
330
F5
100
AcDbEntity
  8
$DDT_AUDIT_GENERATED_(B6)
  6
Continuous
 62
     7
100
AcDbLine
 10
177.0490435743
 20
661.3082139453
 30
0.0
 11
177.0490436184
 21
654.3082138247
 31
0.0
  0
SPLINE
  5
15D
330
F5
100
AcDbEntity
  8
$DDT_AUDIT_GENERATED_(B6)
  6
Continuous
 62
     7
100
AcDbSpline
210
0.0
220
0.0
230
1.0
 70
     8
 71
     3
 72
    10
 73
     6
 74
     0
 42
0.0000000062094566
 43
0.0000000001
 40
0.0
 40
0.0
 40
0.0
 40
0.0
 40
0.5
 40
0.5
 40
1.0
 40
1.0
 40
1.0
 40
1.0
 10
234.0490435765594
 20
662.3082138243784
 30
0.0
 10
234.3108429629284
 20
662.3082138237835
 30
0.0
 10
234.571030232261
 20
662.2004407280303
 30
0.0
 10
234.9412704758321
 20
661.8302004859534
 30
0.0
 10
235.0490435726354
 20
661.5700132170557
 30
0.0
 10
235.0490435742869
 20
661.3082138306866
 30
0.0
  0
SPLINE
  5
15E
330
F5
100
AcDbEntity
  8
$DDT_AUDIT_GENERATED_(B6)
  6
Continuous
 62
     7
100
AcDbSpline
210
0.0
220
0.0
230
1.0
 70
     8
 71
     3
 72
    10
 73
     6
 74
     0
 42
0.0000000062094565
 43
0.0000000001
 40
0.0
 40
0.0
 40
0.0
 40
0.0
 40
0.5
 40
0.5
 40
1.0
 40
1.0
 40
1.0
 40
1.0
 10
177.049043574287
 20
661.3082139453319
 30
0.0
 10
177.0490435726355
 20
661.5700133345613
 30
0.0
 10
177.1568166686126
 20
661.8302006075918
 30
0.0
 10
177.5270569147346
 20
662.2004408552078
 30
0.0
 10
177.7872441873303
 20
662.3082139522351
 30
0.0
 10
178.0490435765595
 20
662.30821395164
 30
0.0
  0
LINE
  5
15F
330
F5
100
AcDbEntity
  8
$DDT_AUDIT_GENERATED_(B6)
  6
Continuous
 62
     7
100
AcDbLine
 10
234.7490442511
 20
554.5183640922
 30
0.0
 11
177.3490442511
 21
554.5183631351
 31
0.0
  0
LINE
  5
160
330
F5
100
AcDbEntity
  8
$DDT_AUDIT_GENERATED_(B6)
  6
Continuous
 62
     7
100
AcDbLine
 10
235.0490442461
 20
554.8183640941
 30
0.0
 11
235.04904405
 21
585.8984829273
 31
0.0
  0
SPLINE
  5
161
330
F5
100
AcDbEntity
  8
$DDT_AUDIT_GENERATED_(B6)
  6
Continuous
 62
     7
100
AcDbSpline
210
0.0
220
0.0
230
1.0
 70
     8
 71
     3
 72
    10
 73
     6
 74
     0
 42
0.0000000206981883
 43
0.0000000001
 40
0.0
 40
0.0
 40
0.0
 40
0.0
 40
0.5
 40
0.5
 40
1.0
 40
1.0
 40
1.0
 40
1.0
 10
177.3490442510544
 20
554.5183631350757
 30
0.0
 10
177.2705044341963
 20
554.518363133766
 30
0.0
 10
177.1924482518653
 20
554.5506950618267
 30
0.0
 10
177.0813761764019
 20
554.6617671347373
 30
0.0
 10
177.0490442465473
 20
554.7398233163251
 30
0.0
 10
177.0490442460518
 20
554.8183631331832
 30
0.0
  0
SPLINE
  5
162
330
F5
100
AcDbEntity
  8
$DDT_AUDIT_GENERATED_(B6)
  6
Continuous
 62
     7
100
AcDbSpline
210
0.0
220
0.0
230
1.0
 70
     8
 71
     3
 72
    10
 73
     6
 74
     0
 42
0.0000000206981886
 43
0.0000000001
 40
0.0
 40
0.0
 40
0.0
 40
0.0
 40
0.5
 40
0.5
 40
1.0
 40
1.0
 40
1.0
 40
1.0
 10
235.0490442460516
 20
554.8183640941298
 30
0.0
 10
235.0490442465471
 20
554.7398242783084
 30
0.0
 10
235.0167123185676
 20
554.6617680973179
 30
0.0
 10
234.9056402471231
 20
554.5506960233206
 30
0.0
 10
234.8275840668756
 20
554.5183640935471
 30
0.0
 10
234.7490442510542
 20
554.5183640922374
 30
0.0
  0
LINE
  5
163
330
F5
100
AcDbEntity
  8
$DDT_AUDIT_GENERATED_(B6)
  6
Continuous
 62
     7
100
AcDbLine
 10
177.0490437862
 20
627.7167048736
 30
0.0
 11
177.0490438114
 21
623.7164151759
 31
0.0
  0
LINE
  5
164
330
F5
100
AcDbEntity
  8
$DDT_AUDIT_GENERATED_(B6)
  6
Continuous
 62
     7
100
AcDbLine
 10
177.0490436437
 20
650.3082138247
 30
0.0
 11
177.0490437862
 21
627.7167048736
 31
0.0
  0
ARC
  5
165
330
F5
100
AcDbEntity
  8
$DDT_AUDIT_GENERATED_(B6)
  6
Continuous
 62
     7
100
AcDbCircle
 10
149.4624918758
 20
652.3082130771
 30
0.0
 40
27.65895587400738
100
AcDbArc
 50
4.1353724496
 51
4.1466387157
  0
ARC
  5
166
330
F5
100
AcDbEntity
  8
$DDT_AUDIT_GENERATED_(B6)
  6
Continuous
 62
     7
100
AcDbCircle
 10
149.4624918767
 20
652.3082130771
 30
0.0
 40
27.65895587313453
100
AcDbArc
 50
355.8533643897
 51
4.1466387158
  0
ARC
  5
167
330
F5
100
AcDbEntity
  8
$DDT_AUDIT_GENERATED_(B6)
  6
Continuous
 62
     7
100
AcDbCircle
 10
1744.0758848402
 20
-2003.0670578833
 30
0.0
 40
3005.650201674826
100
AcDbArc
 50
117.9893111772
 51
118.4050043988
  0
ARC
  5
168
330
F5
100
AcDbEntity
  8
$DDT_AUDIT_GENERATED_(B6)
  6
Continuous
 62
     7
100
AcDbCircle
 10
319.6381864445
 20
625.0606927715
 30
0.0
 40
16.55281181132517
100
AcDbArc
 50
108.8688318535
 51
128.0302156376
  0
LINE
  5
169
330
F5
100
AcDbEntity
  8
$DDT_AUDIT_GENERATED_(B6)
  6
Continuous
 62
     7
100
AcDbLine
 10
332.4992670617
 20
654.3032087986
 30
0.0
 11
333.3445036915
 21
652.4905932499
 31
0.0
  0
LINE
  5
16A
330
F5
100
AcDbEntity
  8
$DDT_AUDIT_GENERATED_(B6)
  6
Continuous
 62
     7
100
AcDbLine
 10
333.3445037228
 20
652.4905932499
 30
0.0
 11
333.0441083291
 21
653.1347932398
 31
0.0
  0
ARC
  5
16B
330
F5
100
AcDbEntity
  8
$DDT_AUDIT_GENERATED_(D4)
  6
Continuous
 62
     7
100
AcDbCircle
 10
263.5598942939
 20
929.6682206358
 30
0.0
 40
180.4618423561153
100
AcDbArc
 50
272.1724048479
 51
278.6016801999
  0
ARC
  5
16C
330
F5
100
AcDbEntity
  8
$DDT_AUDIT_GENERATED_(D4)
  6
Continuous
 62
     7
100
AcDbCircle
 10
263.5314295061
 20
929.7230515067
 30
0.0
 40
180.5199053258898
100
AcDbArc
 50
272.3416577426
 51
272.9064610669
  0
SPLINE
  5
16D
330
F5
100
AcDbEntity
  8
$DDT_AUDIT_GENERATED_(D4)
  6
Continuous
 62
     7
100
AcDbSpline
210
0.0
220
0.0
230
1.0
 70
     8
 71
     3
 72
     9
 73
     5
 74
     0
 42
0.0000000000449528
 43
0.0000000001
 40
0.8557782348980605
 40
0.8557782348980605
 40
0.8557782348980605
 40
0.8557782348980605
 40
0.856437407600137
 40
0.8571416139606832
 40
0.8571416139606832
 40
0.8571416139606832
 40
0.8571416139606832
 10
228.252595219567
 20
736.2426111644753
 30
0.0
 10
228.2052153791774
 20
736.2296961725704
 30
0.0
 10
228.1075372452201
 20
736.2026449432282
 30
0.0
 10
228.0105942917175
 20
736.1749055560724
 30
0.0
 10
227.9606699875352
 20
736.1603797310482
 30
0.0
  0
LINE
  5
16E
330
F5
100
AcDbEntity
  8
$DDT_AUDIT_GENERATED_(D4)
  6
Continuous
 62
     7
100
AcDbLine
 10
232.692793107
 20
708.5082133819
 30
0.0
 11
218.2747659384
 21
708.5082133819
 31
0.0
  0
LINE
  5
16F
330
F5
100
AcDbEntity
  8
$DDT_AUDIT_GENERATED_(D4)
  6
Continuous
 62
     7
100
AcDbLine
 10
218.2747659384
 20
708.5082133819
 30
0.0
 11
213.2825809155
 21
708.5082133819
 31
0.0
  0
LINE
  5
170
330
F5
100
AcDbEntity
  8
$DDT_AUDIT_GENERATED_(D4)
  6
Continuous
 62
     7
100
AcDbLine
 10
213.2825809164
 20
708.5082133819
 30
0.0
 11
210.4032229478
 21
708.5082133819
 31
0.0
  0
ARC
  5
171
330
F5
100
AcDbEntity
  8
$DDT_AUDIT_GENERATED_(D4)
  6
Continuous
 62
     7
100
AcDbCircle
 10
210.4032229478
 20
713.5082133819
 30
0.0
 40
4.99999999999989
100
AcDbArc
 50
238.0
 51
270.0
  0
LINE
  5
172
330
F5
100
AcDbEntity
  8
$DDT_AUDIT_GENERATED_(D4)
  6
Continuous
 62
     7
100
AcDbLine
 10
179.2645263117
 20
727.0699385514
 30
0.0
 11
206.4812987353
 21
710.063011606
 31
0.0
  0
LINE
  5
173
330
F5
100
AcDbEntity
  8
$DDT_AUDIT_GENERATED_(D4)
  6
Continuous
 62
     7
100
AcDbLine
 10
207.7536266266
 20
709.2679729011
 30
0.0
 11
206.4812984795
 21
710.0630117659
 31
0.0
  0
SPLINE
  5
174
330
F5
100
AcDbEntity
  8
$DDT_AUDIT_GENERATED_(D4)
  6
Continuous
 62
     7
100
AcDbSpline
210
0.0
220
0.0
230
1.0
 70
     8
 71
     3
 72
    10
 73
     6
 74
     0
 42
0.0000000030146709
 43
0.0000000001
 40
0.4840263760878108
 40
0.4840263760878108
 40
0.4840263760878108
 40
0.4840263760878108
 40
0.5000000000000003
 40
0.5000000000000003
 40
0.5002928432292457
 40
0.5002928432292457
 40
0.5002928432292457
 40
0.5002928432292457
 10
179.1694746034334
 20
727.3005275235529
 30
0.0
 10
179.1397080378634
 20
727.3188673140878
 30
0.0
 10
179.124363063332
 20
727.3283204897789
 30
0.0
 10
179.1235497181302
 20
727.3288216204816
 30
0.0
 10
179.123540154128
 20
727.328827513656
 30
0.0
 10
179.1235356659062
 20
727.328830279904
 30
0.0
  0
LINE
  5
175
330
F5
100
AcDbEntity
  8
$DDT_AUDIT_GENERATED_(D4)
  6
Continuous
 62
     7
100
AcDbLine
 10
179.2096420675
 20
733.66072776
 30
0.0
 11
179.1096806416
 21
727.2798422829
 31
0.0
  0
SPLINE
  5
176
330
F5
100
AcDbEntity
  8
$DDT_AUDIT_GENERATED_(D4)
  6
Continuous
 62
     7
100
AcDbSpline
210
0.0
220
0.0
230
1.0
 70
     8
 71
     3
 72
    18
 73
    14
 74
     0
 42
0.0000000005525724
 43
0.0000000001
 40
0.0115581564642204
 40
0.0115581564642204
 40
0.0115581564642204
 40
0.0115581564642204
 40
0.0288247823597513
 40
0.0962299495156629
 40
0.2063510240778008
 40
0.299346737866009
 40
0.3808339581306268
 40
0.4366123344073281
 40
0.4885394033936019
 40
0.5367768367141029
 40
0.5984018950071782
 40
0.6839344776571885
 40
0.7462068798546745
 40
0.7462068798546745
 40
0.7462068798546745
 40
0.7462068798546745
 10
233.0810382097557
 20
723.8105142143818
 30
0.0
 10
233.0820357395265
 20
723.9147134937814
 30
0.0
 10
233.0867230884458
 20
724.3989898100225
 30
0.0
 10
233.0997823727995
 20
725.6041644801826
 30
0.0
 10
233.1172264971671
 20
727.2225463348896
 30
0.0
 10
233.1431510983856
 20
728.9444142582175
 30
0.0
 10
233.1749409311146
 20
730.3334450389175
 30
0.0
 10
233.2111466105768
 20
731.4752493426007
 30
0.0
 10
233.2500952639508
 20
732.415893537871
 30
0.0
 10
233.3023795686344
 20
733.3913897475662
 30
0.0
 10
233.3860462643248
 20
734.5677391926392
 30
0.0
 10
233.5145272732295
 20
735.8280505845252
 30
0.0
 10
233.6470980926563
 20
736.7066626092975
 30
0.0
 10
233.7118525479962
 20
737.0769815178504
 30
0.0
  0
ARC
  5
177
330
F5
100
AcDbEntity
  8
$DDT_AUDIT_GENERATED_(D4)
  6
Continuous
 62
     7
100
AcDbCircle
 10
3417.5746411185
 20
698.5167968616
 30
0.0
 40
3184.597931882058
100
AcDbArc
 50
179.6809004595
 51
179.8148702399
  0
SPLINE
  5
178
330
F5
100
AcDbEntity
  8
$DDT_AUDIT_GENERATED_(D4)
  6
Continuous
 62
     7
100
AcDbSpline
210
0.0
220
0.0
230
1.0
 70
     8
 71
     3
 72
    27
 73
    23
 74
     0
 42
0.0000000001106326
 43
0.0000000001
 40
0.0
 40
0.0
 40
0.0
 40
0.0
 40
0.0109124495016192
 40
0.0930074618389539
 40
0.1654736700466645
 40
0.2349604927444142
 40
0.3006388826532145
 40
0.3417579314088323
 40
0.3803939284699734
 40
0.4162939058784616
 40
0.4508710407704462
 40
0.4930290235774036
 40
0.5436982563731473
 40
0.609261191460859
 40
0.6816529657220745
 40
0.7585014003151346
 40
0.7910089751406063
 40
0.8259301425959573
 40
0.8643026072405853
 40
0.9074243332536249
 40
0.9568810034023614
 40
1.0
 40
1.0
 40
1.0
 40
1.0
 10
270.4332423727989
 20
749.3364585464547
 30
0.0
 10
270.0736451895318
 20
749.2979286967114
 30
0.0
 10
267.4412148842423
 20
749.0158250075481
 30
0.0
 10
262.3229945973673
 20
748.421186316943
 30
0.0
 10
255.6747886014498
 20
747.6393417291192
 30
0.0
 10
249.4509107341133
 20
746.8850202560175
 30
0.0
 10
244.1829401199402
 20
746.2341504989241
 30
0.0
 10
239.8347925558257
 20
745.6886315998582
 30
0.0
 10
236.3779679140272
 20
745.2509140396755
 30
0.0
 10
233.1168867436917
 20
744.835290186271
 30
0.0
 10
229.7508247564221
 20
744.4043135217942
 30
0.0
 10
225.9435859418639
 20
743.9152042098242
 30
0.0
 10
221.2105520345198
 20
743.3059682138482
 30
0.0
 10
215.5738792928103
 20
742.5817891089082
 30
0.0
 10
209.1543175686571
 20
741.7620585476966
 30
0.0
 10
203.719872118287
 20
741.0886214170263
 30
0.0
 10
199.4198798171605
 20
740.4478043418061
 30
0.0
 10
196.2786694887562
 20
739.9101705669098
 30
0.0
 10
192.8337922111573
 20
739.2235631686127
 30
0.0
 10
189.0101360032855
 20
738.3371498339849
 30
0.0
 10
184.9719544878769
 20
737.2721059104159
 30
0.0
 10
182.4931792400497
 20
736.5223660755215
 30
0.0
 10
181.1262575933363
 20
736.1056492910749
 30
0.0
  0
ARC
  5
179
330
F5
100
AcDbEntity
  8
$DDT_AUDIT_GENERATED_(D4)
  6
Continuous
 62
     7
100
AcDbCircle
 10
303.0455340038
 20
585.2073097906
 30
0.0
 40
166.4700376275155
100
AcDbArc
 50
90.6121572946
 51
94.3152304997
  0
ARC
  5
17A
330
F5
100
AcDbEntity
  8
$DDT_AUDIT_GENERATED_(D4)
  6
Continuous
 62
     7
100
AcDbCircle
 10
301.322547762
 20
749.1202736286
 30
0.0
 40
2.55623515874412
100
AcDbArc
 50
359.0057732912
 51
91.2531853066
  0
ARC
  5
17B
330
F5
100
AcDbEntity
  8
$DDT_AUDIT_GENERATED_(D4)
  6
Continuous
 62
     7
100
AcDbCircle
 10
181.7598004001
 20
733.6579238614
 30
0.0
 40
2.531496781803833
100
AcDbArc
 50
110.5695436925
 51
179.7976993584
  0
SPLINE
  5
17C
330
F5
100
AcDbEntity
  8
$DDT_AUDIT_GENERATED_(D4)
  6
Continuous
 62
     7
100
AcDbSpline
210
0.0
220
0.0
230
1.0
 70
     8
 71
     3
 72
    41
 73
    37
 74
     0
 42
0.0000000001342925
 43
0.0000000001
 40
0.0
 40
0.0
 40
0.0
 40
0.0
 40
0.0447152051911316
 40
0.090201682043483
 40
0.1343977914953409
 40
0.1678580522121966
 40
0.1987899776762146
 40
0.221958830300883
 40
0.2510669354606025
 40
0.3010529068587188
 40
0.3564815764731824
 40
0.4158397420166868
 40
0.4719673867672229
 40
0.5062722891395028
 40
0.5383708023919209
 40
0.570707942397897
 40
0.5981556309470957
 40
0.6185610281150551
 40
0.6358986267300268
 40
0.660239987181218
 40
0.6773120948523271
 40
0.6955799416182851
 40
0.7184437080686037
 40
0.7355280398929607
 40
0.7518411360892508
 40
0.7678106876684162
 40
0.7854671635204888
 40
0.8068511844198066
 40
0.8298759010618794
 40
0.8553240225749162
 40
0.8813352945192482
 40
0.9084786394204464
 40
0.9374057736007562
 40
0.9581162851455478
 40
0.9783917711095921
 40
1.0
 40
1.0
 40
1.0
 40
1.0
 10
227.8213308502138
 20
736.118985704106
 30
0.0
 10
229.1850396725075
 20
736.389218974845
 30
0.0
 10
231.5066347090693
 20
736.8568953963196
 30
0.0
 10
235.3757408075053
 20
737.2538668345533
 30
0.0
 10
238.8061649417091
 20
737.7427587536432
 30
0.0
 10
241.8494288574799
 20
738.1612977153353
 30
0.0
 10
244.2971556676371
 20
738.5024174018524
 30
0.0
 10
246.6302890796098
 20
738.817958512499
 30
0.0
 10
249.4974760116952
 20
739.1995737816891
 30
0.0
 10
253.2740417700939
 20
739.688858053275
 30
0.0
 10
257.9008923816255
 20
740.297019581835
 30
0.0
 10
262.6918835196311
 20
740.9710110229402
 30
0.0
 10
266.8891572702056
 20
741.5681910917313
 30
0.0
 10
270.3280466582141
 20
742.0247882794953
 30
0.0
 10
273.1034022792547
 20
742.3648443964095
 30
0.0
 10
275.6906033105013
 20
742.6523875992945
 30
0.0
 10
277.9502327076939
 20
742.8899339255206
 30
0.0
 10
279.7870347571885
 20
743.0830421341527
 30
0.0
 10
281.5346764124428
 20
743.270270304607
 30
0.0
 10
283.1888925417859
 20
743.4550042904764
 30
0.0
 10
284.8651507750718
 20
743.653608098859
 30
0.0
 10
286.4921104785197
 20
743.8547870729276
 30
0.0
 10
288.1005577877386
 20
744.0659261455648
 30
0.0
 10
289.6203604476605
 20
744.2746352893245
 30
0.0
 10
290.9155754642177
 20
744.4608160900343
 30
0.0
 10
292.1758429348983
 20
744.6501221986712
 30
0.0
 10
293.4930540696216
 20
744.8579605071143
 30
0.0
 10
294.8804757920921
 20
745.0773067399749
 30
0.0
 10
296.2893536499533
 20
745.285994914358
 30
0.0
 10
297.6495597723652
 20
745.4657057166588
 30
0.0
 10
298.9222722648077
 20
745.6209085405605
 30
0.0
 10
300.0477600090279
 20
745.7638855899085
 30
0.0
 10
300.824295526954
 20
745.8707155122162
 30
0.0
 10
301.2826348897868
 20
745.9368375420106
 30
0.0
 10
301.5423717307248
 20
745.9761325699967
 30
0.0
 10
301.5891542634504
 20
745.9846762644818
 30
0.0
 10
301.6131330837885
 20
745.9892858462504
 30
0.0
  0
ARC
  5
17D
330
F5
100
AcDbEntity
  8
$DDT_AUDIT_GENERATED_(D4)
  6
Continuous
 62
     7
100
AcDbCircle
 10
300.8048654406
 20
748.9820607364
 30
0.0
 40
3.099999897461836
100
AcDbArc
 50
285.1043274539
 51
359.9999999579
  0
ARC
  5
17E
330
F5
100
AcDbEntity
  8
$DDT_AUDIT_GENERATED_(D4)
  6
Continuous
 62
     7
100
AcDbCircle
 10
290.7618843299
 20
748.1099491369
 30
0.0
 40
3.133475575026174
100
AcDbArc
 50
93.8512871133
 51
98.5651723958
  0
ARC
  5
17F
330
F5
100
AcDbEntity
  8
$DDT_AUDIT_GENERATED_(D4)
  6
Continuous
 62
     7
100
AcDbCircle
 10
270.7694231459
 20
745.974833394
 30
0.0
 40
3.381505951284097
100
AcDbArc
 50
91.9283130135
 51
96.2700792559
  0
ARC
  5
180
330
F5
100
AcDbEntity
  8
$DDT_AUDIT_GENERATED_(D4)
  6
Continuous
 62
     7
100
AcDbCircle
 10
270.7674492683
 20
746.188155301
 30
0.0
 40
3.168211791323296
100
AcDbArc
 50
87.6060588799
 51
91.9566285736
  0
ARC
  5
181
330
F5
100
AcDbEntity
  8
$DDT_AUDIT_GENERATED_(D4)
  6
Continuous
 62
     7
100
AcDbCircle
 10
179.4235044202
 20
727.3243513584
 30
0.0
 40
0.2999998589168293
100
AcDbArc
 50
188.966427391
 51
238.0221739343
  0
ARC
  5
182
330
F5
100
AcDbEntity
  8
$DDT_AUDIT_GENERATED_(D4)
  6
Continuous
 62
     7
100
AcDbCircle
 10
232.6927925288
 20
708.808213384
 30
0.0
 40
0.2999999826326797
100
AcDbArc
 50
269.9994205523
 51
3.4170505566
  0
LINE
  5
183
330
F5
100
AcDbEntity
  8
$DDT_AUDIT_GENERATED_(E6)
  6
Continuous
 62
     7
100
AcDbLine
 10
234.4496726164
 20
663.00827926
 30
0.0
 11
177.648415365
 21
663.00827926
 31
0.0
  0
LINE
  5
184
330
F5
100
AcDbEntity
  8
$DDT_AUDIT_GENERATED_(E6)
  6
Continuous
 62
     7
100
AcDbLine
 10
231.8730944766
 20
706.5049011801
 30
0.0
 11
180.2249935047
 21
706.5049011801
 31
0.0
  0
LINE
  5
185
330
F5
100
AcDbEntity
  8
$DDT_AUDIT_GENERATED_(E6)
  6
Continuous
 62
     7
100
AcDbLine
 10
177.1585696791
 20
663.4981249459
 30
0.0
 11
177.648415365
 21
663.00827926
 31
0.0
  0
LINE
  5
186
330
F5
100
AcDbEntity
  8
$DDT_AUDIT_GENERATED_(E6)
  6
Continuous
 62
     7
100
AcDbLine
 10
234.4496726164
 20
663.00827926
 30
0.0
 11
234.9395183023
 21
663.4981249459
 31
0.0
  0
ARC
  5
187
330
F5
100
AcDbEntity
  8
$DDT_AUDIT_GENERATED_(E6)
  6
Continuous
 62
     7
100
AcDbCircle
 10
869.5695314359
 20
648.8976090322
 30
0.0
 40
692.6648592344261
100
AcDbArc
 50
175.3055434556
 51
178.7921865962
  0
ARC
  5
188
330
F5
100
AcDbEntity
  8
$DDT_AUDIT_GENERATED_(E6)
  6
Continuous
 62
     7
100
AcDbCircle
 10
-457.4714434545
 20
648.8976090322
 30
0.0
 40
692.664859234426
100
AcDbArc
 50
1.2078134038
 51
4.6944565444
  0
ARC
  5
189
330
F5
100
AcDbEntity
  8
$DDT_AUDIT_GENERATED_(E6)
  6
Continuous
 62
     7
100
AcDbCircle
 10
231.8730944767
 20
705.5049011802
 30
0.0
 40
0.9999999999376187
100
AcDbArc
 50
4.6944565446
 51
90.0000000009
  0
ARC
  5
18A
330
F5
100
AcDbEntity
  8
$DDT_AUDIT_GENERATED_(E6)
  6
Continuous
 62
     7
100
AcDbCircle
 10
180.2249935047
 20
705.5049011802
 30
0.0
 40
0.9999999999430464
100
AcDbArc
 50
89.9999999991
 51
175.3055434554
  0
ARC
  5
18B
330
F5
100
AcDbEntity
  8
$DDT_AUDIT_GENERATED_(E6)
  6
Continuous
 62
     7
100
AcDbCircle
 10
231.4285987265
 20
707.0049011801
 30
0.0
 40
0.4999999999933391
100
AcDbArc
 50
198.709613237
 51
270.0000000009
  0
ARC
  5
18C
330
F5
100
AcDbEntity
  8
$DDT_AUDIT_GENERATED_(E6)
  6
Continuous
 62
     7
100
AcDbCircle
 10
180.6694892549
 20
707.0049011801
 30
0.0
 40
0.4999999999933307
100
AcDbArc
 50
269.9999999991
 51
341.290386763
  0
ARC
  5
18D
330
F5
100
AcDbEntity
  8
$DDT_AUDIT_GENERATED_(E6)
  6
Continuous
 62
     7
100
AcDbCircle
 10
206.0532826809
 20
698.4082139516
 30
0.0
 40
26.29999999999999
100
AcDbArc
 50
124.7853348941
 51
161.290386763
  0
ARC
  5
18E
330
F5
100
AcDbEntity
  8
$DDT_AUDIT_GENERATED_(E6)
  6
Continuous
 62
     7
100
AcDbCircle
 10
206.0448053004
 20
698.4082139516
 30
0.0
 40
26.3
100
AcDbArc
 50
18.709613237
 51
22.5835592813
  0
LINE
  5
190
330
F5
100
AcDbEntity
  8
DV2_Standard
  6
CENTER2
 62
     7
100
AcDbLine
 10
226.049043804
 20
554.5183636137
 30
0.0
 11
186.0490446981
 21
554.5183636137
 31
0.0
  0
LINE
  5
191
330
F5
100
AcDbEntity
  8
DV2_Standard
  6
CENTER2
 62
     7
100
AcDbLine
 10
206.0490442511
 20
574.5183631666
 30
0.0
 11
206.0490442511
 21
534.5183640607
 31
0.0
  0
ARC
  5
192
330
F5
100
AcDbEntity
  8
DV2_Standard
  6
Continuous
 62
     7
100
AcDbCircle
 10
367.7056197997
 20
877.4064988154
 30
0.0
 40
197.694169220089
100
AcDbArc
 50
288.0963930632
 51
301.3793517572
  0
ENDBLK
  5
194
330
F5
100
AcDbEntity
  8
0
100
AcDbBlockEnd
  0
BLOCK
  5
1E9
330
195
100
AcDbEntity
  8
0
100
AcDbBlockBegin
  2
SE2
 70
     0
 10
0.0
 20
0.0
 30
0.0
  3
SE2
  1

  0
ARC
  5
197
330
195
100
AcDbEntity
  8
$DDT_AUDIT_GENERATED_(63)
  6
Continuous
 62
     7
100
AcDbCircle
 10
45.0611671613
 20
130.2915495376
 30
0.0
 40
28.4180623434864
100
AcDbArc
 50
146.3832232119
 51
147.7672117993
  0
ARC
  5
198
330
195
100
AcDbEntity
  8
$DDT_AUDIT_GENERATED_(63)
  6
Continuous
 62
     7
100
AcDbCircle
 10
46.9844943585
 20
130.2919548909
 30
0.0
 40
28.41766880522577
100
AcDbArc
 50
32.2933584934
 51
33.6165570522
  0
SPLINE
  5
199
330
195
100
AcDbEntity
  8
$DDT_AUDIT_GENERATED_(63)
  6
Continuous
 62
     7
100
AcDbSpline
210
0.0
220
0.0
230
1.0
 70
     8
 71
     3
 72
    30
 73
    26
 74
     0
 42
0.0000000000719574
 43
0.0000000001
 40
0.0
 40
0.0
 40
0.0
 40
0.0
 40
0.0312499999999994
 40
0.0312499999999994
 40
0.0624999999999988
 40
0.0624999999999988
 40
0.0937499999999982
 40
0.0937499999999982
 40
0.1249999999999976
 40
0.1249999999999976
 40
0.1406249999999975
 40
0.1406249999999975
 40
0.1562499999999974
 40
0.1562499999999974
 40
0.1874999999999972
 40
0.1874999999999972
 40
0.2499999999999974
 40
0.2499999999999974
 40
0.3749999999999978
 40
0.3749999999999978
 40
0.4999999999999982
 40
0.4999999999999982
 40
0.749999999999999
 40
0.749999999999999
 40
1.0
 40
1.0
 40
1.0
 40
1.0
 10
46.02265962240612
 20
131.3938626922013
 30
0.0
 10
47.95093628893974
 20
131.3937992789334
 30
0.0
 10
49.78201554087202
 20
131.6853677942563
 30
0.0
 10
53.31591859937775
 20
132.7773915412545
 30
0.0
 10
55.01948114462571
 20
133.577786426277
 30
0.0
 10
58.03344581514063
 20
135.6401316569118
 30
0.0
 10
59.3431893900574
 20
136.9024948225896
 30
0.0
 10
61.44783600324433
 20
139.7504421991384
 30
0.0
 10
62.24259484702907
 20
141.3365477781788
 30
0.0
 10
62.97493288459471
 20
143.7958225067666
 30
0.0
 10
63.14152819697438
 20
144.6300312200332
 30
0.0
 10
63.35893440955432
 20
146.2361527712529
 30
0.0
 10
63.409039206226
 20
147.0058347782928
 30
0.0
 10
63.50061828811088
 20
149.248745157804
 30
0.0
 10
63.48886039661085
 20
150.6565218421765
 30
0.0
 10
63.44368829574805
 20
154.8549239914702
 30
0.0
 10
63.407290976762
 20
157.628908033717
 30
0.0
 10
63.288804454988
 20
165.9285036021676
 30
0.0
 10
63.19690575523859
 20
171.4321174068202
 30
0.0
 10
63.05467706142884
 20
182.4729670459834
 30
0.0
 10
63.0049251005923
 20
188.0110847356364
 30
0.0
 10
62.89294676574059
 20
204.6201840055702
 30
0.0
 10
62.86725934550944
 20
215.6842482560567
 30
0.0
 10
62.92544437770026
 20
237.8371275481207
 30
0.0
 10
63.00961996336557
 20
248.9264762938934
 30
0.0
 10
63.13282384762406
 20
260.0116280709191
 30
0.0
  0
ARC
  5
19A
330
195
100
AcDbEntity
  8
$DDT_AUDIT_GENERATED_(63)
  6
Continuous
 62
     7
100
AcDbCircle
 10
102.2366871686
 20
160.3477616394
 30
0.0
 40
36.75010283598727
100
AcDbArc
 50
186.2068543718
 51
199.3058264973
  0
ARC
  5
19B
330
195
100
AcDbEntity
  8
$DDT_AUDIT_GENERATED_(63)
  6
Continuous
 62
     7
100
AcDbCircle
 10
176.2846456622
 20
167.1784173554
 30
0.0
 40
111.1091605786266
100
AcDbArc
 50
181.974134815
 51
185.5801345871
  0
LINE
  5
19C
330
195
100
AcDbEntity
  8
$DDT_AUDIT_GENERATED_(63)
  6
Continuous
 62
     7
100
AcDbLine
 10
63.1327084315
 20
260.0116273578
 30
0.0
 11
63.4394535016
 21
256.4858648256
 31
0.0
  0
ARC
  5
19D
330
195
100
AcDbEntity
  8
$DDT_AUDIT_GENERATED_(63)
  6
Continuous
 62
     7
100
AcDbCircle
 10
62.8516028841
 20
260.000855421
 30
0.0
 40
0.2814272202467032
100
AcDbArc
 50
2.1937402039
 51
15.6707399332
  0
ARC
  5
19E
330
195
100
AcDbEntity
  8
$DDT_AUDIT_GENERATED_(63)
  6
Continuous
 62
     7
100
AcDbCircle
 10
30.4272961358
 20
256.3318689762
 30
0.0
 40
1.827964027018409
100
AcDbArc
 50
175.1674259331
 51
179.9881504199
  0
LINE
  5
19F
330
195
100
AcDbEntity
  8
$DDT_AUDIT_GENERATED_(63)
  6
Continuous
 62
     7
100
AcDbLine
 10
28.6058165059
 20
256.4858648437
 30
0.0
 11
28.9126772787
 21
260.0116260636
 31
0.0
  0
ARC
  5
1A0
330
195
100
AcDbEntity
  8
$DDT_AUDIT_GENERATED_(63)
  6
Continuous
 62
     7
100
AcDbCircle
 10
29.1935207571
 20
260.0010715207
 30
0.0
 40
0.2812266586678158
100
AcDbArc
 50
164.4278854377
 51
177.8489108877
  0
SPLINE
  5
1A1
330
195
100
AcDbEntity
  8
$DDT_AUDIT_GENERATED_(63)
  6
Continuous
 62
     7
100
AcDbSpline
210
0.0
220
0.0
230
1.0
 70
     8
 71
     3
 72
    44
 73
    40
 74
     0
 42
0.0000000000719986
 43
0.0000000001
 40
0.0
 40
0.0
 40
0.0
 40
0.0
 40
0.0083844230097878
 40
0.0167449005025497
 40
0.0250058497640976
 40
0.0331006557461916
 40
0.0409733580679222
 40
0.0485852798725078
 40
0.0559245696545239
 40
0.0629833637906345
 40
0.0697537383614264
 40
0.076228709650444
 40
0.0824029754348061
 40
0.0882773999035466
 40
0.0938598736165241
 40
0.0991572222977821
 40
0.1041750953682068
 40
0.1089185470515581
 40
0.1133924711219608
 40
0.1176019203900568
 40
0.1215543276312607
 40
0.1252614237681085
 40
0.1287342568626132
 40
0.1319826927154236
 40
0.1350156493123338
 40
0.1378412843071747
 40
0.1404671409928566
 40
0.1429002582797675
 40
0.1451472500238502
 40
0.1472143587122272
 40
0.1491075818336652
 40
0.1672042994589594
 40
0.184155695581704
 40
0.2153010357307644
 40
0.2759927969207198
 40
0.3956149547952445
 40
0.5173216684792407
 40
0.7232266917472558
 40
1.0
 40
1.0
 40
1.0
 40
1.0
 10
46.02265962240612
 20
131.3938626922013
 30
0.0
 10
45.59885922388061
 20
131.4029134480604
 30
0.0
 10
44.75246878078644
 20
131.4209891920407
 30
0.0
 10
43.49614247178815
 20
131.5584426271313
 30
0.0
 10
42.26766527851444
 20
131.7665975966689
 30
0.0
 10
41.08178540142661
 20
132.0465130217639
 30
0.0
 10
39.950735830357
 20
132.3890324354
 30
0.0
 10
38.88385684684864
 20
132.7884348324186
 30
0.0
 10
37.88495487265963
 20
133.2333821963076
 30
0.0
 10
36.95533290079305
 20
133.7143081622194
 30
0.0
 10
36.0954407570307
 20
134.2226375322997
 30
0.0
 10
35.30510184474797
 20
134.7506693109375
 30
0.0
 10
34.58356856104272
 20
135.2917994251241
 30
0.0
 10
33.92883898342448
 20
135.8399696670145
 30
0.0
 10
33.3368037836393
 20
136.3888660795716
 30
0.0
 10
32.80327677321803
 20
136.9334711150533
 30
0.0
 10
32.3241644380015
 20
137.4694521738463
 30
0.0
 10
31.8955502170493
 20
137.9931440832928
 30
0.0
 10
31.51367190245345
 20
138.5014739175176
 30
0.0
 10
31.17488558963422
 20
138.9920020669985
 30
0.0
 10
30.87552095582712
 20
139.4629913525361
 30
0.0
 10
30.61163455087826
 20
139.913193101733
 30
0.0
 10
30.37948742583808
 20
140.3418703934452
 30
0.0
 10
30.17566179037228
 20
140.7485197386261
 30
0.0
 10
29.99706290491821
 20
141.1328198826986
 30
0.0
 10
29.84089403337889
 20
141.4946075608708
 30
0.0
 10
29.70463398872292
 20
141.8338553120323
 30
0.0
 10
29.58601775578131
 20
142.1506522384928
 30
0.0
 10
29.48301064617092
 20
142.4451792420049
 30
0.0
 10
29.39380822050574
 20
142.7177121243303
 30
0.0
 10
29.09486508650725
 20
143.6908610246988
 30
0.0
 10
28.75155867659562
 20
145.3628200056719
 30
0.0
 10
28.53923669360603
 20
148.4046343699486
 30
0.0
 10
28.57468145866601
 20
153.4248510874894
 30
0.0
 10
28.7202426151928
 20
163.085593335214
 30
0.0
 10
28.93543855127573
 20
176.9103274554925
 30
0.0
 10
29.12933753670874
 20
197.4016206235688
 30
0.0
 10
29.21414413538766
 20
225.141112895329
 30
0.0
 10
29.02242518794016
 20
247.3034742469547
 30
0.0
 10
28.91249519370406
 20
260.0116271884802
 30
0.0
  0
ARC
  5
1A2
330
195
100
AcDbEntity
  8
$DDT_AUDIT_GENERATED_(63)
  6
Continuous
 62
     7
100
AcDbCircle
 10
-86.6359550943
 20
167.3366406278
 30
0.0
 40
113.5098424827614
100
AcDbArc
 50
354.4580102413
 51
357.9877203566
  0
ARC
  5
1A3
330
195
100
AcDbEntity
  8
$DDT_AUDIT_GENERATED_(63)
  6
Continuous
 62
     7
100
AcDbCircle
 10
-9.9523930542
 20
160.293659345
 30
0.0
 40
36.50669006921025
100
AcDbArc
 50
340.6503108749
 51
353.8370082559
  0
ARC
  5
1A4
330
195
100
AcDbEntity
  8
$DDT_AUDIT_GENERATED_(63)
  6
Continuous
 62
     7
100
AcDbCircle
 10
-6.8782506582
 20
160.2911169146
 30
0.0
 40
33.24324208025615
100
AcDbArc
 50
347.7111183199
 51
348.7502277399
  0
ARC
  5
1A5
330
195
100
AcDbEntity
  8
$DDT_AUDIT_GENERATED_(63)
  6
Continuous
 62
     7
100
AcDbCircle
 10
98.4855726647
 20
160.1870428368
 30
0.0
 40
32.79567441909106
100
AcDbArc
 50
191.8043772183
 51
192.2717375524
  0
ARC
  5
1A6
330
195
100
AcDbEntity
  8
$DDT_AUDIT_GENERATED_(63)
  6
Continuous
 62
     7
100
AcDbCircle
 10
61.6180222057
 20
256.3318689877
 30
0.0
 40
1.827964911816776
100
AcDbArc
 50
359.8780151157
 51
4.832593809
  0
ARC
  5
1A7
330
195
100
AcDbEntity
  8
$DDT_AUDIT_GENERATED_(63)
  6
Continuous
 62
     7
100
AcDbCircle
 10
47.4909820511
 20
132.765098593
 30
0.0
 40
27.79413358237999
100
AcDbArc
 50
266.9717904706
 51
359.366673281
  0
ARC
  5
1A8
330
195
100
AcDbEntity
  8
$DDT_AUDIT_GENERATED_(63)
  6
Continuous
 62
     7
100
AcDbCircle
 10
44.6782428955
 20
132.9001673534
 30
0.0
 40
27.92296184129917
100
AcDbArc
 50
180.906876776
 51
272.7601010791
  0
ARC
  5
1A9
330
195
100
AcDbEntity
  8
$DDT_AUDIT_GENERATED_(63)
  6
Continuous
 62
     7
100
AcDbCircle
 10
34.7548418743
 20
132.1828111603
 30
0.0
 40
18.00189180394893
100
AcDbArc
 50
174.4215741175
 51
179.1516275971
  0
ARC
  5
1AA
330
195
100
AcDbEntity
  8
$DDT_AUDIT_GENERATED_(63)
  6
Continuous
 62
     7
100
AcDbCircle
 10
41.9688605636
 20
131.5917632247
 30
0.0
 40
25.23242885405203
100
AcDbArc
 50
144.9514553866
 51
174.6968762904
  0
ARC
  5
1AB
330
195
100
AcDbEntity
  8
$DDT_AUDIT_GENERATED_(63)
  6
Continuous
 62
     7
100
AcDbCircle
 10
50.0764586079
 20
131.5917631903
 30
0.0
 40
25.23242892619059
100
AcDbArc
 50
5.3031233734
 51
35.0485445937
  0
ARC
  5
1AC
330
195
100
AcDbEntity
  8
$DDT_AUDIT_GENERATED_(63)
  6
Continuous
 62
     7
100
AcDbCircle
 10
57.2904764925
 20
132.1828111283
 30
0.0
 40
18.00189267299971
100
AcDbArc
 50
0.8483727135
 51
5.578383739
  0
SPLINE
  5
1AD
330
195
100
AcDbEntity
  8
$DDT_AUDIT_GENERATED_(63)
  6
Continuous
 62
     7
100
AcDbSpline
210
0.0
220
0.0
230
1.0
 70
     8
 71
     3
 72
    15
 73
    11
 74
     0
 42
0.0000000030188218
 43
0.0000000001
 40
0.0
 40
0.0
 40
0.0
 40
0.0
 40
0.1215951931054085
 40
0.2439668773483778
 40
0.3672365286405637
 40
0.4915796107982602
 40
0.6170183439240401
 40
0.7435361282466159
 40
0.8712867136114085
 40
1.0
 40
1.0
 40
1.0
 40
1.0
 10
31.68793786948439
 20
261.4231890275835
 30
0.0
 10
31.49830350386187
 20
261.4119008589012
 30
0.0
 10
31.17675385960982
 20
261.3907838928409
 30
0.0
 10
30.66866627834564
 20
261.3066510874687
 30
0.0
 10
30.20768033008629
 20
261.1850140461015
 30
0.0
 10
29.79111254959223
 20
261.0250160331975
 30
0.0
 10
29.44184211295975
 20
260.8287584300481
 30
0.0
 10
29.16881785844438
 20
260.6016832475927
 30
0.0
 10
28.97901135519666
 20
260.3396985051253
 30
0.0
 10
28.93956470834045
 20
260.1661608796512
 30
0.0
 10
28.9189847142464
 20
260.0630913132001
 30
0.0
  0
ARC
  5
1AE
330
195
100
AcDbEntity
  8
$DDT_AUDIT_GENERATED_(63)
  6
Continuous
 62
     7
100
AcDbCircle
 10
46.2932654653
 20
-72.0567480841
 30
0.0
 40
333.7996705230365
100
AcDbArc
 50
90.0464490783
 51
92.5119905128
  0
ARC
  5
1AF
330
195
100
AcDbEntity
  8
$DDT_AUDIT_GENERATED_(63)
  6
Continuous
 62
     7
100
AcDbCircle
 10
45.7458334993
 20
-72.2571309726
 30
0.0
 40
333.9999913368208
100
AcDbArc
 50
87.4884617337
 51
89.9525110793
  0
SPLINE
  5
1B0
330
195
100
AcDbEntity
  8
$DDT_AUDIT_GENERATED_(63)
  6
Continuous
 62
     7
100
AcDbSpline
210
0.0
220
0.0
230
1.0
 70
     8
 71
     3
 72
    20
 73
    16
 74
     0
 42
0.0000000030238493
 43
0.0000000001
 40
0.0
 40
0.0
 40
0.0
 40
0.0
 40
0.0958889114668204
 40
0.1813020806983184
 40
0.2564185202145794
 40
0.3212578739984708
 40
0.3919546697269515
 40
0.4451315080904141
 40
0.4818828453513347
 40
0.5538270885801182
 40
0.6643570060930024
 40
0.7340496894392183
 40
0.8132710778873857
 40
0.9019367927127726
 40
1.0
 40
1.0
 40
1.0
 40
1.0
 10
63.12633432849549
 20
260.0630893484925
 30
0.0
 10
63.1123801692548
 20
260.1415858729554
 30
0.0
 10
63.08771188842721
 20
260.2666151302043
 30
0.0
 10
62.98665574627597
 20
260.4522246145593
 30
0.0
 10
62.86428314286137
 20
260.6027568249689
 30
0.0
 10
62.7200395498016
 20
260.7353447508949
 30
0.0
 10
62.56861300181068
 20
260.8453342090633
 30
0.0
 10
62.42315733282066
 20
260.9322001727032
 30
0.0
 10
62.26699594502684
 20
261.0132581893763
 30
0.0
 10
62.04362412162287
 20
261.1113039054946
 30
0.0
 10
61.75554644403957
 20
261.2080207911768
 30
0.0
 10
61.4343316255577
 20
261.289802811604
 30
0.0
 10
61.12518484647446
 20
261.3498760428535
 30
0.0
 10
60.75447895440578
 20
261.3999347629546
 30
0.0
 10
60.5097769330751
 20
261.4146803564112
 30
0.0
 10
60.35734723450472
 20
261.4231906650638
 30
0.0
  0
SPLINE
  5
1B1
330
195
100
AcDbEntity
  8
$DDT_AUDIT_GENERATED_(63)
  6
Continuous
 62
     7
100
AcDbSpline
210
0.0
220
0.0
230
1.0
 70
     8
 71
     3
 72
    10
 73
     6
 74
     0
 42
0.0000000017967611
 43
0.0000000001
 40
0.0
 40
0.0
 40
0.0
 40
0.0
 40
0.0020685517972973
 40
0.0168903484240525
 40
0.0274327277213323
 40
0.0274327277213323
 40
0.0274327277213323
 40
0.0274327277213323
 10
25.72138997767677
 20
153.806810894885
 30
0.0
 10
25.72107689382563
 20
153.8050360178365
 30
0.0
 10
25.71882763382008
 20
153.7923389353188
 30
0.0
 10
25.71199465010854
 20
153.7507685853293
 30
0.0
 10
25.70146843680151
 20
153.6928713849769
 30
0.0
 10
25.69447699646967
 20
153.6565305598083
 30
0.0
  0
SPLINE
  5
1B2
330
195
100
AcDbEntity
  8
$DDT_AUDIT_GENERATED_(63)
  6
Continuous
 62
     7
100
AcDbSpline
210
0.0
220
0.0
230
1.0
 70
     8
 71
     3
 72
    46
 73
    42
 74
     0
 42
0.0000000010528751
 43
0.0000000001
 40
0.0538199033260647
 40
0.0538199033260647
 40
0.0538199033260647
 40
0.0538199033260647
 40
0.0540455671389415
 40
0.0611091513891931
 40
0.0685162637006535
 40
0.0815870306220893
 40
0.09495427885217
 40
0.1172137108081954
 40
0.1374483190142223
 40
0.1632507960433127
 40
0.1903725840895149
 40
0.2140587509432162
 40
0.2364586976682905
 40
0.2666689575423076
 40
0.2975523059302291
 40
0.3313599741437234
 40
0.3742187075891217
 40
0.3974998757914822
 40
0.4205567153937757
 40
0.439053590785552
 40
0.452407769690186
 40
0.4684028787312026
 40
0.4889359278417799
 40
0.5111101129338285
 40
0.5584504466178386
 40
0.5995788846045743
 40
0.6392610259041783
 40
0.6890830398203146
 40
0.7442792703862053
 40
0.7823139605615618
 40
0.8033154780212021
 40
0.8275549777155196
 40
0.8481537353664313
 40
0.8636237757025408
 40
0.8751509723903693
 40
0.8889969219916793
 40
0.9061802162799029
 40
0.9308413639433709
 40
0.960305844522182
 40
0.9915827794616072
 40
1.0
 40
1.0
 40
1.0
 40
1.0
 10
25.57360454397993
 20
153.0992797210129
 30
0.0
 10
25.57318130800419
 20
153.0974291405579
 30
0.0
 10
25.55950943250384
 20
153.0376681609213
 30
0.0
 10
25.53187670421246
 20
152.9180822144941
 30
0.0
 10
25.50680673948353
 20
152.8130529174652
 30
0.0
 10
25.49511874892912
 20
152.7652709510457
 30
0.0
 10
25.47432351383572
 20
152.681880719034
 30
0.0
 10
25.4589067306752
 20
152.6229472474053
 30
0.0
 10
25.44651442968786
 20
152.5776137687217
 30
0.0
 10
25.4416801038381
 20
152.5616362741117
 30
0.0
 10
25.44232179541534
 20
152.5647671589946
 30
0.0
 10
25.44480439804478
 20
152.5735837723601
 30
0.0
 10
25.44737435506862
 20
152.5825416293043
 30
0.0
 10
25.44925647476913
 20
152.5893165885354
 30
0.0
 10
25.44499068944244
 20
152.5799427392875
 30
0.0
 10
25.43047113466731
 20
152.5473641306612
 30
0.0
 10
25.4051261370832
 20
152.4925437317566
 30
0.0
 10
25.35469216291592
 20
152.3926695678777
 30
0.0
 10
25.30449659213803
 20
152.2988274595895
 30
0.0
 10
25.26076624419151
 20
152.2203234937967
 30
0.0
 10
25.21450041315196
 20
152.1385157910664
 30
0.0
 10
25.12903991001982
 20
151.9906075120857
 30
0.0
 10
25.0076437427277
 20
151.7867247366519
 30
0.0
 10
24.78424057108538
 20
151.41794501607
 30
0.0
 10
24.4548261124704
 20
150.8834579220457
 30
0.0
 10
24.1033547516434
 20
150.3245031895575
 30
0.0
 10
23.74413532560242
 20
149.759103004853
 30
0.0
 10
23.3660091738276
 20
149.1696115238961
 30
0.0
 10
23.00839654983611
 20
148.6182620418456
 30
0.0
 10
22.74346064419778
 20
148.2141887587051
 30
0.0
 10
22.55716088398215
 20
147.9321862312248
 30
0.0
 10
22.41188455406024
 20
147.713540728679
 30
0.0
 10
22.27847428818082
 20
147.5138080061059
 30
0.0
 10
22.17258503874937
 20
147.355882177865
 30
0.0
 10
22.07924757893808
 20
147.2170263558698
 30
0.0
 10
21.96645500011146
 20
147.0495963825147
 30
0.0
 10
21.81053738242133
 20
146.8186169436081
 30
0.0
 10
21.60062151312685
 20
146.5083525547893
 30
0.0
 10
21.34472775432431
 20
146.1298576523834
 30
0.0
 10
21.10087452305729
 20
145.7706509312914
 30
0.0
 10
20.96269393788802
 20
145.5610452156835
 30
0.0
 10
20.92834476660503
 20
145.5089525633067
 30
0.0
  0
SPLINE
  5
1B3
330
195
100
AcDbEntity
  8
$DDT_AUDIT_GENERATED_(63)
  6
Continuous
 62
     7
100
AcDbSpline
210
0.0
220
0.0
230
1.0
 70
     8
 71
     3
 72
    37
 73
    33
 74
     0
 42
0.0000000009035684
 43
0.0000000001
 40
0.0
 40
0.0
 40
0.0
 40
0.0
 40
0.0274664396637782
 40
0.0685288038624004
 40
0.1072743637531646
 40
0.1413565252135366
 40
0.1676482704823338
 40
0.1927408695815323
 40
0.2224249113465248
 40
0.2563358051810735
 40
0.2916207142574789
 40
0.3156384293763245
 40
0.3397423647619977
 40
0.3683012946956909
 40
0.3992881422577518
 40
0.4188347977843195
 40
0.4332490358693709
 40
0.4464026479893013
 40
0.4656765957166822
 40
0.484861737101539
 40
0.4999723061031355
 40
0.5116537495427675
 40
0.5273142295607395
 40
0.5484551504691568
 40
0.5679065334004177
 40
0.5833349222724471
 40
0.5971261277344997
 40
0.6250027413181305
 40
0.6568270261896206
 40
0.6914561197056087
 40
0.7248862869101576
 40
0.7560963451622408
 40
0.7560963451622408
 40
0.7560963451622408
 40
0.7560963451622408
 10
71.10001351717487
 20
145.5341780769934
 30
0.0
 10
70.99220460335358
 20
145.6960645209826
 30
0.0
 10
70.7657280253107
 20
146.0363130414151
 30
0.0
 10
70.41954098199385
 20
146.5452214829029
 30
0.0
 10
70.12165421046056
 20
146.9860097901816
 30
0.0
 10
69.88430379766864
 20
147.3383631445567
 30
0.0
 10
69.68997546187873
 20
147.6287008551281
 30
0.0
 10
69.51553959138029
 20
147.8908033614273
 30
0.0
 10
69.32157520018019
 20
148.1841852461835
 30
0.0
 10
69.09478374856421
 20
148.5300252996823
 30
0.0
 10
68.87248700796492
 20
148.8717346341296
 30
0.0
 10
68.66584063813097
 20
149.1914192410042
 30
0.0
 10
68.46898666799002
 20
149.4974901253124
 30
0.0
 10
68.24972047177674
 20
149.8402842017138
 30
0.0
 10
68.03763298204646
 20
150.1738979448021
 30
0.0
 10
67.8613984848549
 20
150.4528988618033
 30
0.0
 10
67.7324975901577
 20
150.6580520429048
 30
0.0
 10
67.6037244186416
 20
150.8640071106747
 30
0.0
 10
67.46056141498913
 20
151.0944446026361
 30
0.0
 10
67.30985964802117
 20
151.3392004859243
 30
0.0
 10
67.18354753085022
 20
151.5461681475447
 30
0.0
 10
67.07127840391975
 20
151.7314296973793
 30
0.0
 10
66.98004009216879
 20
151.8832268466028
 30
0.0
 10
66.88433542965247
 20
152.0448944953075
 30
0.0
 10
66.79738186866754
 20
152.1969388923274
 30
0.0
 10
66.74139508060381
 20
152.2985455173429
 30
0.0
 10
66.69683694185105
 20
152.3816073694002
 30
0.0
 10
66.65517913880906
 20
152.4628614015261
 30
0.0
 10
66.62781749860727
 20
152.519288481685
 30
0.0
 10
66.60737185355029
 20
152.564083490887
 30
0.0
 10
66.60052482562479
 20
152.5789090534492
 30
0.0
 10
66.59836020179421
 20
152.5831517520519
 30
0.0
 10
66.59793651297727
 20
152.5836033703504
 30
0.0
  0
SPLINE
  5
1B4
330
195
100
AcDbEntity
  8
$DDT_AUDIT_GENERATED_(63)
  6
Continuous
 62
     7
100
AcDbSpline
210
0.0
220
0.0
230
1.0
 70
     8
 71
     3
 72
    15
 73
    11
 74
     0
 42
0.0000000016119988
 43
0.0000000001
 40
0.8488913620877536
 40
0.8488913620877536
 40
0.8488913620877536
 40
0.8488913620877536
 40
0.8595140576028161
 40
0.8980654279354072
 40
0.9365998587890741
 40
0.9542691467004971
 40
0.9684259008897279
 40
0.9757266413524687
 40
0.9870570386065183
 40
1.0
 40
1.0
 40
1.0
 40
1.0
 10
66.60224540645784
 20
152.5664398327076
 30
0.0
 10
66.60210785375793
 20
152.5668411341971
 30
0.0
 10
66.60086767648023
 20
152.5707871101658
 30
0.0
 10
66.59226411846419
 20
152.6001113766972
 30
0.0
 10
66.55972776698948
 20
152.7251298657842
 30
0.0
 10
66.52148499522484
 20
152.8838063755821
 30
0.0
 10
66.4925072745768
 20
153.0086618919918
 30
0.0
 10
66.46180884735611
 20
153.1452926586093
 30
0.0
 10
66.42960254553356
 20
153.2920996989323
 30
0.0
 10
66.40574948998157
 20
153.4064702454064
 30
0.0
 10
66.39055558729112
 20
153.4794398376551
 30
0.0
  0
ARC
  5
1B5
330
195
100
AcDbEntity
  8
$DDT_AUDIT_GENERATED_(63)
  6
Continuous
 62
     7
100
AcDbCircle
 10
96.4902509021
 20
160.0095436313
 30
0.0
 40
30.80277538572118
100
AcDbArc
 50
187.1077483865
 51
192.7738900783
  0
ARC
  5
1B6
330
195
100
AcDbEntity
  8
$DDT_AUDIT_GENERATED_(63)
  6
Continuous
 62
     7
100
AcDbCircle
 10
163.4180690646
 20
166.889055211
 30
0.0
 40
98.07880963360799
100
AcDbArc
 50
182.2894393225
 51
186.2578970153
  0
ARC
  5
1B7
330
195
100
AcDbEntity
  8
$DDT_AUDIT_GENERATED_(63)
  6
Continuous
 62
     7
100
AcDbCircle
 10
1010.0667002035
 20
210.5385150609
 30
0.0
 40
945.846043348829
100
AcDbArc
 50
182.2508810205
 51
182.8840349373
  0
ARC
  5
1B8
330
195
100
AcDbEntity
  8
$DDT_AUDIT_GENERATED_(63)
  6
Continuous
 62
     7
100
AcDbCircle
 10
1834.8245756853
 20
243.7683388934
 30
0.0
 40
1771.272866831001
100
AcDbArc
 50
181.773360036
 51
182.2771280923
  0
ARC
  5
1B9
330
195
100
AcDbEntity
  8
$DDT_AUDIT_GENERATED_(63)
  6
Continuous
 62
     7
100
AcDbCircle
 10
1933.0466484114
 20
246.4050131273
 30
0.0
 40
1869.529682381422
100
AcDbArc
 50
181.3101714655
 51
181.7610044213
  0
ARC
  5
1BA
330
195
100
AcDbEntity
  8
$DDT_AUDIT_GENERATED_(63)
  6
Continuous
 62
     7
100
AcDbCircle
 10
1968.6489787397
 20
248.2884082546
 30
0.0
 40
1905.165538994165
100
AcDbArc
 50
180.4772765033
 51
181.3429494467
  0
ARC
  5
1BB
330
195
100
AcDbEntity
  8
$DDT_AUDIT_GENERATED_(63)
  6
Continuous
 62
     7
100
AcDbCircle
 10
2306.3598470902
 20
254.2128062388
 30
0.0
 40
2242.916565671251
100
AcDbArc
 50
179.9483248576
 51
180.5580173906
  0
ARC
  5
1BC
330
195
100
AcDbEntity
  8
$DDT_AUDIT_GENERATED_(63)
  6
Continuous
 62
     7
100
AcDbCircle
 10
-2220.7673427667
 20
254.2500912931
 30
0.0
 40
2249.369437885203
100
AcDbArc
 50
359.4426336599
 51
0.0505775365
  0
ARC
  5
1BD
330
195
100
AcDbEntity
  8
$DDT_AUDIT_GENERATED_(63)
  6
Continuous
 62
     7
100
AcDbCircle
 10
-1877.7651198371
 20
248.3049580123
 30
0.0
 40
1906.32718599507
100
AcDbArc
 50
358.6573725332
 51
359.5225161777
  0
ARC
  5
1BE
330
195
100
AcDbEntity
  8
$DDT_AUDIT_GENERATED_(63)
  6
Continuous
 62
     7
100
AcDbCircle
 10
-1867.1571911329
 20
247.1218307755
 30
0.0
 40
1895.695112324686
100
AcDbArc
 50
358.2416336195
 51
358.6862505253
  0
ARC
  5
1BF
330
195
100
AcDbEntity
  8
$DDT_AUDIT_GENERATED_(63)
  6
Continuous
 62
     7
100
AcDbCircle
 10
-1726.9819102573
 20
243.2143303237
 30
0.0
 40
1755.465984423945
100
AcDbArc
 50
357.7204532767
 51
358.228757727
  0
ARC
  5
1C0
330
195
100
AcDbEntity
  8
$DDT_AUDIT_GENERATED_(63)
  6
Continuous
 62
     7
100
AcDbCircle
 10
-935.9322329242
 20
211.3415620397
 30
0.0
 40
963.7746214119851
100
AcDbArc
 50
357.1218602958
 51
357.7432358231
  0
ARC
  5
1C1
330
195
100
AcDbEntity
  8
$DDT_AUDIT_GENERATED_(63)
  6
Continuous
 62
     7
100
AcDbCircle
 10
-67.7743806678
 20
166.6301512321
 30
0.0
 40
94.47376933704192
100
AcDbArc
 50
353.6603154666
 51
357.8100918513
  0
ARC
  5
1C2
330
195
100
AcDbEntity
  8
$DDT_AUDIT_GENERATED_(63)
  6
Continuous
 62
     7
100
AcDbCircle
 10
-4.4440771537
 20
160.0094265021
 30
0.0
 40
30.8019163828617
100
AcDbArc
 50
347.2259236467
 51
352.8922822102
  0
LINE
  5
1C3
330
195
100
AcDbEntity
  8
$DDT_AUDIT_GENERATED_(B6)
  6
Continuous
 62
     7
100
AcDbLine
 10
21.3580908844
 20
360.2247839585
 30
0.0
 11
21.4027604983
 21
360.1518236733
 31
0.0
  0
SPLINE
  5
1C4
330
195
100
AcDbEntity
  8
$DDT_AUDIT_GENERATED_(B6)
  6
Continuous
 62
     7
100
AcDbSpline
210
0.0
220
0.0
230
1.0
 70
     8
 71
     3
 72
    10
 73
     6
 74
     0
 42
0.0000000001104252
 43
0.0000000001
 40
0.4950401535549564
 40
0.4950401535549564
 40
0.4950401535549564
 40
0.4950401535549564
 40
0.5000000000000002
 40
0.5000000000000002
 40
0.5075706895626071
 40
0.5075706895626071
 40
0.5075706895626071
 40
0.5075706895626071
 10
75.01890597254226
 20
375.8851892088365
 30
0.0
 10
75.0213914979566
 20
375.73554535976
 30
0.0
 10
75.02264532814056
 20
375.5859397833653
 30
0.0
 10
75.0226804706709
 20
375.20812951468
 30
0.0
 10
75.01981007531565
 20
374.9794697357141
 30
0.0
 10
75.01407486994857
 20
374.750551769309
 30
0.0
  0
ARC
  5
1C5
330
195
100
AcDbEntity
  8
$DDT_AUDIT_GENERATED_(B6)
  6
Continuous
 62
     7
100
AcDbCircle
 10
-9.2388627359
 20
339.8563612762
 30
0.0
 40
36.75613157326483
100
AcDbArc
 50
33.4311141225
 51
33.6370998757
  0
ARC
  5
1C6
330
195
100
AcDbEntity
  8
$DDT_AUDIT_GENERATED_(B6)
  6
Continuous
 62
     7
100
AcDbCircle
 10
-2871.5485125339
 20
246.3300081975
 30
0.0
 40
2900.147962066846
100
AcDbArc
 50
0.2123925545
 51
0.800300713
  0
ARC
  5
1C7
330
195
100
AcDbEntity
  8
$DDT_AUDIT_GENERATED_(B6)
  6
Continuous
 62
     7
100
AcDbCircle
 10
2965.080564092
 20
246.2910738549
 30
0.0
 40
2901.634911695818
100
AcDbArc
 50
179.1991278182
 51
179.7869462226
  0
ARC
  5
1C8
330
195
100
AcDbEntity
  8
$DDT_AUDIT_GENERATED_(B6)
  6
Continuous
 62
     7
100
AcDbCircle
 10
61.3390766911
 20
257.0677536204
 30
0.0
 40
2.124067604479885
100
AcDbArc
 50
344.9604382257
 51
0.2953131316
  0
ARC
  5
1C9
330
195
100
AcDbEntity
  8
$DDT_AUDIT_GENERATED_(B6)
  6
Continuous
 62
     7
100
AcDbCircle
 10
30.7632736515
 20
257.0763480856
 30
0.0
 40
2.181864951214048
100
AcDbArc
 50
179.9056126727
 51
190.7990590528
  0
SPLINE
  5
1CA
330
195
100
AcDbEntity
  8
$DDT_AUDIT_GENERATED_(D4)
  6
Continuous
 62
     7
100
AcDbSpline
210
0.0
220
0.0
230
1.0
 70
     8
 71
     3
 72
    42
 73
    38
 74
     0
 42
0.000000000045366
 43
0.0000000001
 40
0.2194528439954145
 40
0.2194528439954145
 40
0.2194528439954145
 40
0.2194528439954145
 40
0.2499999999999985
 40
0.2499999999999985
 40
0.3124999999999982
 40
0.3124999999999982
 40
0.3437499999999981
 40
0.3437499999999981
 40
0.374999999999998
 40
0.374999999999998
 40
0.3906249999999981
 40
0.3906249999999981
 40
0.4062499999999981
 40
0.4062499999999981
 40
0.4218749999999981
 40
0.4218749999999981
 40
0.4374999999999981
 40
0.4374999999999981
 40
0.4687499999999982
 40
0.4687499999999982
 40
0.4999999999999982
 40
0.4999999999999982
 40
0.5312499999999982
 40
0.5312499999999982
 40
0.5624999999999982
 40
0.5624999999999982
 40
0.5937499999999983
 40
0.5937499999999983
 40
0.6249999999999983
 40
0.6249999999999983
 40
0.6562499999999983
 40
0.6562499999999983
 40
0.6874999999999983
 40
0.6874999999999983
 40
0.7499999999999987
 40
0.7499999999999987
 40
0.7790646210987556
 40
0.7790646210987556
 40
0.7790646210987556
 40
0.7790646210987556
 10
68.75415741816452
 20
326.9703761750735
 30
0.0
 10
68.64982640547468
 20
324.7499154535467
 30
0.0
 10
68.55213431168902
 20
322.5289798775914
 30
0.0
 10
68.28090413651321
 20
315.7617705704511
 30
0.0
 10
68.14866955089738
 20
311.2130521912997
 30
0.0
 10
67.91313434119023
 20
304.3870690016211
 30
0.0
 10
67.82938376612555
 20
302.1101411644085
 30
0.0
 10
67.49874934579023
 20
297.5767861694585
 30
0.0
 10
67.2606161056194
 20
295.3184147759837
 30
0.0
 10
66.41076198419405
 20
291.9953943155603
 30
0.0
 10
66.03255270158515
 20
290.884751211138
 30
0.0
 10
65.07154535487003
 20
288.7907246750922
 30
0.0
 10
64.49191600155856
 20
287.8050406324345
 30
0.0
 10
63.15581409975031
 20
285.943605015236
 30
0.0
 10
62.3944288132339
 20
285.06054504257
 30
0.0
 10
60.76379125522296
 20
283.4195559663636
 30
0.0
 10
59.89753089725432
 20
282.6604477508827
 30
0.0
 10
57.15089237758347
 20
280.560291252281
 30
0.0
 10
55.09974414939917
 20
279.4055036159381
 30
0.0
 10
50.73833279703292
 20
277.9318028602216
 30
0.0
 10
48.401987357385
 20
277.5826313218137
 30
0.0
 10
43.73381096993453
 20
277.5735014110379
 30
0.0
 10
41.45063490260059
 20
277.897847131939
 30
0.0
 10
37.01851030521783
 20
279.3664405730089
 30
0.0
 10
35.00502556226245
 20
280.4890908571099
 30
0.0
 10
31.30166032173945
 20
283.294535366333
 30
0.0
 10
29.65033745910517
 20
284.906719956328
 30
0.0
 10
26.92043610732147
 20
288.664861269527
 30
0.0
 10
25.96015383772106
 20
290.7627607306078
 30
0.0
 10
24.79008145246793
 20
295.2585551635149
 30
0.0
 10
24.5510012974852
 20
297.5309188218046
 30
0.0
 10
24.21725450712064
 20
302.0774252038131
 30
0.0
 10
24.13343000616156
 20
304.3544648188545
 30
0.0
 10
23.89740383911523
 20
311.1842603958245
 30
0.0
 10
23.76531962599282
 20
315.7362717492166
 30
0.0
 10
23.49845568127725
 20
322.3987403624758
 30
0.0
 10
23.40590861667987
 20
324.5128682323675
 30
0.0
 10
23.30725444605717
 20
326.6265338036486
 30
0.0
  0
SPLINE
  5
1CB
330
195
100
AcDbEntity
  8
$DDT_AUDIT_GENERATED_(D4)
  6
Continuous
 62
     7
100
AcDbSpline
210
0.0
220
0.0
230
1.0
 70
    11
 71
     3
 72
    28
 73
    24
 74
     0
 42
0.0000000001655783
 43
0.0000000001
 40
0.0
 40
0.0
 40
0.0
 40
0.0
 40
0.019961644145047
 40
0.0401662415755228
 40
0.0714845765532785
 40
0.1027577060734789
 40
0.1647177330752398
 40
0.2265777988615613
 40
0.2886757222635913
 40
0.351272769453211
 40
0.4142848898462787
 40
0.4773374388540803
 40
0.5397558224808131
 40
0.601790030056082
 40
0.6637081151776629
 40
0.6949139517614927
 40
0.726072825311907
 40
0.7573701868806778
 40
0.7887214324724107
 40
0.8414927394711269
 40
0.8945398090995427
 40
0.9469110856444585
 40
1.0
 40
1.0
 40
1.0
 40
1.0
 10
51.16547764280143
 20
293.0306418994923
 30
0.0
 10
51.49298499939972
 20
293.2511683831683
 30
0.0
 10
52.1232929874862
 20
293.7338561747654
 30
0.0
 10
53.12976399249246
 20
294.7250491927999
 30
0.0
 10
54.11170148578823
 20
296.0407636291021
 30
0.0
 10
55.17366011757041
 20
298.2647631933714
 30
0.0
 10
55.66793161386452
 20
301.3615340473758
 30
0.0
 10
54.81052239738043
 20
305.0205223141059
 30
0.0
 10
52.63923704870169
 20
308.115160040643
 30
0.0
 10
49.43891044543512
 20
310.1821097360653
 30
0.0
 10
45.64959955590432
 20
310.8503161072576
 30
0.0
 10
41.93529419314783
 20
309.8754966336708
 30
0.0
 10
38.89695394897893
 20
307.5887176603054
 30
0.0
 10
36.96084742832452
 20
304.3473074655024
 30
0.0
 10
36.47803444048369
 20
301.2436926872374
 30
0.0
 10
36.80544509832158
 20
298.8049649055814
 30
0.0
 10
37.40761774160222
 20
297.049941430831
 30
0.0
 10
38.32952315405254
 20
295.436313253393
 30
0.0
 10
39.8276511513494
 20
293.7083805612456
 30
0.0
 10
42.09551383221699
 20
292.1425484796555
 30
0.0
 10
45.16976614876753
 20
291.2735930177976
 30
0.0
 10
48.36383033586301
 20
291.5510578366753
 30
0.0
 10
50.29445670490088
 20
292.4441415330928
 30
0.0
 10
51.16547764280143
 20
293.0306418994923
 30
0.0
  0
SPLINE
  5
1CC
330
195
100
AcDbEntity
  8
$DDT_AUDIT_GENERATED_(D4)
  6
Continuous
 62
     7
100
AcDbSpline
210
0.0
220
0.0
230
1.0
 70
     8
 71
     3
 72
     8
 73
     4
 74
     0
 42
0.0000000001649185
 43
0.0000000001
 40
0.0
 40
0.0
 40
0.0
 40
0.0
 40
0.0088160386856082
 40
0.0088160386856082
 40
0.0088160386856082
 40
0.0088160386856082
 10
20.91313282597662
 20
363.0292132654347
 30
0.0
 10
21.01942005286404
 20
362.8862033638779
 30
0.0
 10
21.12625816381431
 20
362.7435884927555
 30
0.0
 10
21.23366821578623
 20
362.6014067013485
 30
0.0
  0
SPLINE
  5
1CD
330
195
100
AcDbEntity
  8
$DDT_AUDIT_GENERATED_(D4)
  6
Continuous
 62
     7
100
AcDbSpline
210
0.0
220
0.0
230
1.0
 70
     8
 71
     3
 72
     8
 73
     4
 74
     0
 42
0.0000000001651131
 43
0.0000000001
 40
0.9913840567166924
 40
0.9913840567166924
 40
0.9913840567166924
 40
0.9913840567166924
 40
1.0
 40
1.0
 40
1.0
 40
1.0
 10
70.81935119559986
 20
362.6115624609548
 30
0.0
 10
70.92412144011556
 20
362.7503300099121
 30
0.0
 10
71.02838955928861
 20
362.8895546959697
 30
0.0
 10
71.13218402058631
 20
363.0292105388696
 30
0.0
  0
SPLINE
  5
1CE
330
195
100
AcDbEntity
  8
$DDT_AUDIT_GENERATED_(D4)
  6
Continuous
 62
     7
100
AcDbSpline
210
0.0
220
0.0
230
1.0
 70
     8
 71
     3
 72
    71
 73
    67
 74
     0
 42
0.0000000000478708
 43
0.0000000001
 40
0.0
 40
0.0
 40
0.0
 40
0.0
 40
0.0156854816370959
 40
0.0304276927639896
 40
0.0614041281269663
 40
0.0658427062405087
 40
0.0747751044069701
 40
0.0826827960637699
 40
0.0875445622898993
 40
0.0902199892855514
 40
0.0932244867292896
 40
0.0986048719352349
 40
0.1035633252936787
 40
0.108459344496377
 40
0.1133899207340355
 40
0.1233356509893809
 40
0.1258195949561034
 40
0.1280291957596319
 40
0.1301844163226304
 40
0.1323307608687402
 40
0.134489023216915
 40
0.1366642778683841
 40
0.1384238021263737
 40
0.1397692838545224
 40
0.1409867462166195
 40
0.1417888793578593
 40
0.1424022876723597
 40
0.1426942110675428
 40
0.1429097779643352
 40
0.1443893373869796
 40
0.1476132783987565
 40
0.1493934774243567
 40
0.1513051895915358
 40
0.1555648568833764
 40
0.1602290367697267
 40
0.1609851093382976
 40
0.1617550647853213
 40
0.1633355154863179
 40
0.1701639413723146
 40
0.1776929834704513
 40
0.1943258731529457
 40
0.2092400268805706
 40
0.2242038787037409
 40
0.239334301440304
 40
0.2477368206134124
 40
0.2547907000732691
 40
0.2698539319255409
 40
0.2858361541994671
 40
0.3012371927163196
 40
0.3164915267354372
 40
0.3309679157626978
 40
0.3470290908474081
 40
0.3617005979388057
 40
0.3769477651739605
 40
0.3935778542700377
 40
0.4086114060344087
 40
0.4150129061973191
 40
0.4227620719239304
 40
0.4304494041223114
 40
0.434310096923039
 40
0.4381880069604266
 40
0.453732547516738
 40
0.4613221489216023
 40
0.4690937637409305
 40
0.4999371537656288
 40
0.5054769119222478
 40
0.5054769119222478
 40
0.5054769119222478
 40
0.5054769119222478
 10
19.04826193801357
 20
368.1839544375695
 30
0.0
 10
19.14338699516975
 20
368.1490778529254
 30
0.0
 10
19.32791939691709
 20
368.0813693975758
 30
0.0
 10
19.70096675039917
 20
367.9543658656241
 30
0.0
 10
20.00855030620033
 20
367.8083955279172
 30
0.0
 10
20.28103915628359
 20
367.65823749026
 30
0.0
 10
20.41170541205683
 20
367.585118123154
 30
0.0
 10
20.54740151866334
 20
367.4441119122147
 30
0.0
 10
20.64815551402208
 20
367.213394595215
 30
0.0
 10
20.71923653146636
 20
366.9522518087868
 30
0.0
 10
20.79481798627704
 20
366.6105181016146
 30
0.0
 10
20.88732686771735
 20
366.0580258252863
 30
0.0
 10
20.99166523261512
 20
365.2580883112485
 30
0.0
 10
21.09046411944206
 20
364.3691838227207
 30
0.0
 10
21.21870076997128
 20
363.0637789872436
 30
0.0
 10
21.3229536211324
 20
361.749203661234
 30
0.0
 10
21.40711529721055
 20
360.6098354723111
 30
0.0
 10
21.44470901807082
 20
360.0589654423655
 30
0.0
 10
21.48031791657832
 20
359.5345155580681
 30
0.0
 10
21.51569025609475
 20
359.0138969491616
 30
0.0
 10
21.55211609200789
 20
358.5005174328359
 30
0.0
 10
21.58612406805252
 20
358.0151986549834
 30
0.0
 10
21.61429912395427
 20
357.5837848378093
 30
0.0
 10
21.63708708717284
 20
357.2285155187546
 30
0.0
 10
21.65386973677044
 20
356.946566955386
 30
0.0
 10
21.66683635681604
 20
356.7252564810445
 30
0.0
 10
21.67513020087737
 20
356.5814859662959
 30
0.0
 10
21.680681179625
 20
356.4870661870079
 30
0.0
 10
21.68905354999739
 20
356.316830535175
 30
0.0
 10
21.71074173052003
 20
355.8972227233852
 30
0.0
 10
21.74014470903162
 20
355.3430957019282
 30
0.0
 10
21.77482217395858
 20
354.7625721851204
 30
0.0
 10
21.81433131496853
 20
354.0938807274613
 30
0.0
 10
21.86689780472082
 20
353.1770181148347
 30
0.0
 10
21.91360728670361
 20
352.3567410270281
 30
0.0
 10
21.94387133870463
 20
351.8332601360189
 30
0.0
 10
21.95913121207026
 20
351.5707993993319
 30
0.0
 10
22.00385637450701
 20
350.7938915862264
 30
0.0
 10
22.0804847305721
 20
349.4409993273453
 30
0.0
 10
22.22930900157574
 20
346.8088997779337
 30
0.0
 10
22.41827096707834
 20
343.4945859636282
 30
0.0
 10
22.63998680991895
 20
339.5519613020618
 30
0.0
 10
22.84830545248652
 20
335.7346248321892
 30
0.0
 10
23.01905300195497
 20
332.4666132493834
 30
0.0
 10
23.14923705367621
 20
329.8699054984862
 30
0.0
 10
23.27496264771433
 20
327.2779102108707
 30
0.0
 10
23.42432698707751
 20
324.0437052651822
 30
0.0
 10
23.59103412404494
 20
320.1043982313709
 30
0.0
 10
23.7410313759673
 20
316.1509468309122
 30
0.0
 10
23.87053379658257
 20
312.3228382748896
 30
0.0
 10
23.99317714433919
 20
308.4327935318734
 30
0.0
 10
24.12127376683542
 20
304.5856288210531
 30
0.0
 10
24.30216407737773
 20
300.6726073274178
 30
0.0
 10
24.62286601363399
 20
296.7203138401917
 30
0.0
 10
25.30321306902514
 20
292.7724354419868
 30
0.0
 10
26.46542328457075
 20
289.7126970767884
 30
0.0
 10
27.71830049336046
 20
287.5563307721974
 30
0.0
 10
28.81084397164285
 20
286.0441753559657
 30
0.0
 10
29.89985196791982
 20
284.8064722642079
 30
0.0
 10
30.82856503297011
 20
283.8737170103682
 30
0.0
 10
32.28524485115536
 20
282.5222421646702
 30
0.0
 10
34.12748248721045
 20
281.1097549667817
 30
0.0
 10
36.41750314715007
 20
279.7836557622699
 30
0.0
 10
40.02091282798906
 20
278.1414212957498
 30
0.0
 10
43.84138631040168
 20
277.4960189297582
 30
0.0
 10
46.98917957565325
 20
277.5929699741514
 30
0.0
 10
47.46724211312238
 20
277.6226769932182
 30
0.0
  0
SPLINE
  5
1CF
330
195
100
AcDbEntity
  8
$DDT_AUDIT_GENERATED_(D4)
  6
Continuous
 62
     7
100
AcDbSpline
210
0.0
220
0.0
230
1.0
 70
     8
 71
     3
 72
    68
 73
    64
 74
     0
 42
0.0000000000484346
 43
0.0000000001
 40
0.5163137221169004
 40
0.5163137221169004
 40
0.5163137221169004
 40
0.5163137221169004
 40
0.5307778314182934
 40
0.5385484750471623
 40
0.5461362358758547
 40
0.5616847640826361
 40
0.5655604549514409
 40
0.5694201269852371
 40
0.5771084944640433
 40
0.5848450232398832
 40
0.591251311553568
 40
0.6062996726110823
 40
0.6229229572637273
 40
0.6381649534508761
 40
0.6528435873936189
 40
0.6689015694131831
 40
0.6833766499103259
 40
0.6986337518724762
 40
0.7140338077561318
 40
0.7300169789908654
 40
0.7450758059400775
 40
0.7521270606777986
 40
0.7605396788203922
 40
0.7756606985596511
 40
0.7801936733805926
 40
0.7906301307630323
 40
0.805552322160937
 40
0.8221780801140948
 40
0.8297024198261367
 40
0.8365249913288297
 40
0.8396281685004346
 40
0.8419544677574257
 40
0.8443159937702731
 40
0.8485665809545383
 40
0.8504742078278096
 40
0.8522505869115494
 40
0.8554685999022603
 40
0.8569458645927016
 40
0.8588836299295627
 40
0.8632089505397176
 40
0.8653838449456448
 40
0.867541372118753
 40
0.8696877390521356
 40
0.871843412753713
 40
0.8740621938117963
 40
0.8765447346918875
 40
0.8864856720220322
 40
0.8914112854856197
 40
0.8962966095331213
 40
0.901230743476618
 40
0.9066140043073359
 40
0.9096500190856237
 40
0.9123687860748936
 40
0.9173196960250867
 40
0.921544187645653
 40
0.9252922115436717
 40
0.9294285652289542
 40
0.9332192902503214
 40
0.9386189224964774
 40
0.9553285198389275
 40
0.9695727684204567
 40
0.9843142247511821
 40
1.0
 40
1.0
 40
1.0
 40
1.0
 10
50.24958010116963
 20
277.9713409921774
 30
0.0
 10
51.47307468252563
 20
278.2052493312776
 30
0.0
 10
53.31602073424426
 20
278.7289882524095
 30
0.0
 10
55.64100976809217
 20
279.7907139030959
 30
0.0
 10
57.9302310163594
 20
281.1183521100789
 30
0.0
 10
59.77166902078837
 20
282.5318512987495
 30
0.0
 10
61.22758979873782
 20
283.8842068550796
 30
0.0
 10
62.15561467476709
 20
284.8173823411553
 30
0.0
 10
63.24309575844998
 20
286.0549946883722
 30
0.0
 10
64.3342393111716
 20
287.5674461474684
 30
0.0
 10
65.58589535721785
 20
289.7252181806178
 30
0.0
 10
66.74582363800975
 20
292.7869749491793
 30
0.0
 10
67.4241142491229
 20
296.7353395152476
 30
0.0
 10
67.74402445569704
 20
300.6872859287455
 30
0.0
 10
67.92458299971557
 20
304.6002160352306
 30
0.0
 10
68.05260641968967
 20
308.4475869384115
 30
0.0
 10
68.17525548494615
 20
312.3374580575701
 30
0.0
 10
68.30480977801805
 20
316.1655888456571
 30
0.0
 10
68.45488057270069
 20
320.1192741540412
 30
0.0
 10
68.62163322862942
 20
324.0582159040694
 30
0.0
 10
68.77101477994854
 20
327.2919172226658
 30
0.0
 10
68.89678205788297
 20
329.8841707748113
 30
0.0
 10
69.0269800207938
 20
332.4807368243927
 30
0.0
 10
69.15152286243486
 20
334.8631668625571
 30
0.0
 10
69.28872679130077
 20
337.416367376979
 30
0.0
 10
69.42778803817687
 20
339.9510805418773
 30
0.0
 10
69.62792815909222
 20
343.510092758475
 30
0.0
 10
69.81683554324994
 20
346.8242285095311
 30
0.0
 10
69.9656536617271
 20
349.4545394093046
 30
0.0
 10
70.04937373145832
 20
350.9364246653298
 30
0.0
 10
70.10955461124422
 20
351.9717146052794
 30
0.0
 10
70.14730755085064
 20
352.6315755533076
 30
0.0
 10
70.19056853878806
 20
353.3884361890741
 30
0.0
 10
70.23186226467101
 20
354.109476350484
 30
0.0
 10
70.27135306600226
 20
354.7765181849331
 30
0.0
 10
70.3058157671389
 20
355.3562676630993
 30
0.0
 10
70.33566306369032
 20
355.9083693026868
 30
0.0
 10
70.3636108241342
 20
356.4766637638463
 30
0.0
 10
70.40199476367684
 20
357.1286172218741
 30
0.0
 10
70.44595470092854
 20
357.8266260105955
 30
0.0
 10
70.49431293471923
 20
358.5158943799232
 30
0.0
 10
70.5306964560563
 20
359.029553839193
 30
0.0
 10
70.566060687371
 20
359.5501896862338
 30
0.0
 10
70.60170678641407
 20
360.0755453185999
 30
0.0
 10
70.63940374200807
 20
360.6265651548988
 30
0.0
 10
70.72356493531285
 20
361.7663274380789
 30
0.0
 10
70.82774219572354
 20
363.0795789982213
 30
0.0
 10
70.95564399701138
 20
364.3881994097452
 30
0.0
 10
71.05393006071264
 20
365.2835835902893
 30
0.0
 10
71.15782858347063
 20
366.0975966982717
 30
0.0
 10
71.25044976761298
 20
366.6671259498649
 30
0.0
 10
71.32673266412378
 20
367.0229397415936
 30
0.0
 10
71.39908777825165
 20
367.2957522537475
 30
0.0
 10
71.47676705235196
 20
367.4740880904033
 30
0.0
 10
71.55823772061217
 20
367.5786349562056
 30
0.0
 10
71.63289040964426
 20
367.6293169816383
 30
0.0
 10
71.7041347569451
 20
367.659092611846
 30
0.0
 10
71.78540384515419
 20
367.6907029237653
 30
0.0
 10
71.94376889503275
 20
367.760161094236
 30
0.0
 10
72.16680905908173
 20
367.8709951615928
 30
0.0
 10
72.44600661724472
 20
367.989085684794
 30
0.0
 10
72.71740056115789
 20
368.0813668618146
 30
0.0
 10
72.9019289093018
 20
368.1490721255242
 30
0.0
 10
72.9970551163762
 20
368.1839485735401
 30
0.0
  0
ARC
  5
1D0
330
195
100
AcDbEntity
  8
$DDT_AUDIT_GENERATED_(D4)
  6
Continuous
 62
     7
100
AcDbCircle
 10
63.4972909156
 20
368.7060510454
 30
0.0
 40
9.514100633369944
100
AcDbArc
 50
323.3677597161
 51
356.8542162962
  0
ARC
  5
1D1
330
195
100
AcDbEntity
  8
$DDT_AUDIT_GENERATED_(D4)
  6
Continuous
 62
     7
100
AcDbCircle
 10
28.5480209586
 20
368.7060512723
 30
0.0
 40
9.514095151620198
100
AcDbArc
 50
183.1457515189
 51
216.632246071
  0
ARC
  5
1D2
330
195
100
AcDbEntity
  8
$DDT_AUDIT_GENERATED_(D4)
  6
Continuous
 62
     7
100
AcDbCircle
 10
34.4274119585
 20
372.8617497284
 30
0.0
 40
38.75406348761502
100
AcDbArc
 50
357.3451924208
 51
1.0370699099
  0
ARC
  5
1D3
330
195
100
AcDbEntity
  8
$DDT_AUDIT_GENERATED_(D4)
  6
Continuous
 62
     7
100
AcDbCircle
 10
-177.5274869352
 20
382.0410724839
 30
0.0
 40
250.9074850481866
100
AcDbArc
 50
356.8340566543
 51
357.4931601548
  0
ARC
  5
1D4
330
195
100
AcDbEntity
  8
$DDT_AUDIT_GENERATED_(D4)
  6
Continuous
 62
     7
100
AcDbCircle
 10
139.1170083643
 20
370.8902754812
 30
0.0
 40
120.2765199912934
100
AcDbArc
 50
178.1188666902
 51
178.7266156032
  0
ARC
  5
1D5
330
195
100
AcDbEntity
  8
$DDT_AUDIT_GENERATED_(D4)
  6
Continuous
 62
     7
100
AcDbCircle
 10
58.7449904172
 20
372.8776499998
 30
0.0
 40
39.88069085103577
100
AcDbArc
 50
179.0150772941
 51
182.602624775
  0
ARC
  5
1D6
330
195
100
AcDbEntity
  8
$DDT_AUDIT_GENERATED_(D4)
  6
Continuous
 62
     7
100
AcDbCircle
 10
269.5723767669
 20
382.0409666014
 30
0.0
 40
250.9070523060338
100
AcDbArc
 50
182.5068199456
 51
183.1659232547
  0
ARC
  5
1D7
330
195
100
AcDbEntity
  8
$DDT_AUDIT_GENERATED_(D4)
  6
Continuous
 62
     7
100
AcDbCircle
 10
46.0226596177
 20
375.1600890539
 30
0.0
 40
27.11925878156485
100
AcDbArc
 50
359.3205121447
 51
180.6794878553
  0
ELLIPSE
  5
1D8
330
195
100
AcDbEntity
  8
$DDT_AUDIT_GENERATED_(D4)
  6
Continuous
 62
     7
100
AcDbEllipse
 10
72.8759956456
 20
373.5702842088
 30
0.0
 11
-0.2999307457236776
 21
-0.006445755940544424
 31
0.0
210
0.0
220
0.0
230
1.0
 40
0.5298312773
 41
3.056313378366755
 42
3.142280514019311
  0
SPLINE
  5
1D9
330
195
100
AcDbEntity
  8
$DDT_AUDIT_GENERATED_(D4)
  6
Continuous
 62
     7
100
AcDbSpline
210
0.0
220
0.0
230
1.0
 70
     8
 71
     3
 72
     8
 73
     4
 74
     0
 42
0.000000000097593
 43
0.0000000001
 40
0.0
 40
0.0
 40
0.0
 40
0.0
 40
0.000496938481974
 40
0.000496938481974
 40
0.000496938481974
 40
0.000496938481974
 10
50.44881465388801
 20
278.0085634767339
 30
0.0
 10
50.46563801010022
 20
278.0122325652073
 30
0.0
 10
50.48220907820515
 20
278.015849439287
 30
0.0
 10
50.49856206086636
 20
278.0194258052049
 30
0.0
  0
SPLINE
  5
1DA
330
195
100
AcDbEntity
  8
$DDT_AUDIT_GENERATED_(D4)
  6
Continuous
 62
     7
100
AcDbSpline
210
0.0
220
0.0
230
1.0
 70
     8
 71
     3
 72
    78
 73
    74
 74
     0
 42
0.000000000095072
 43
0.0000000001
 40
0.0079259255121864
 40
0.0079259255121864
 40
0.0079259255121864
 40
0.0079259255121864
 40
0.0102253104101305
 40
0.0187288066224574
 40
0.0284708011798645
 40
0.0391864891451123
 40
0.0500934035141851
 40
0.0621668264357007
 40
0.0745715466884384
 40
0.0876131962099307
 40
0.1015395267394457
 40
0.1160988907601562
 40
0.1252828132453768
 40
0.1345109839039127
 40
0.143895209007718
 40
0.1532838459035627
 40
0.1626698040859468
 40
0.1702203250352918
 40
0.1778594822722079
 40
0.1858155348940298
 40
0.1951135415922209
 40
0.2048497176021621
 40
0.2152705185255181
 40
0.22672185636183
 40
0.2357071630524762
 40
0.2430403985208232
 40
0.250406108737241
 40
0.2578292750664625
 40
0.2718267495044088
 40
0.2852479665069779
 40
0.2976731192119171
 40
0.3095529236733237
 40
0.3228663265938733
 40
0.3370447932308865
 40
0.3541227842743711
 40
0.3707113339148081
 40
0.3858299287017819
 40
0.4018131366692897
 40
0.4186589447126491
 40
0.4360965846273511
 40
0.4541391480856296
 40
0.4712819018792582
 40
0.4880484254029215
 40
0.5040854041977099
 40
0.51874933906217
 40
0.5311794216387611
 40
0.5424507292978499
 40
0.552605435380021
 40
0.558086219609575
 40
0.5634610190640992
 40
0.5690623412954716
 40
0.5758949518199847
 40
0.6039067654524984
 40
0.6327871952207674
 40
0.649389969077408
 40
0.6682432671552926
 40
0.6862072122673571
 40
0.7051651111489445
 40
0.7255199505498455
 40
0.744637384391918
 40
0.7622403264498899
 40
0.7722798166625354
 40
0.7815000348203041
 40
0.7851250315486654
 40
0.7895957177351101
 40
0.7938231717044963
 40
0.7978152029656256
 40
0.8015836059771807
 40
0.8092623308113961
 40
0.8160212090941515
 40
0.8220380618357959
 40
0.8290600436807861
 40
0.8301866381053515
 40
0.8301866381053515
 40
0.8301866381053515
 40
0.8301866381053515
 10
51.19173749083734
 20
278.1886400303755
 30
0.0
 10
51.26596931349594
 20
278.2091821405752
 30
0.0
 10
51.61927145805596
 20
278.3097905762453
 30
0.0
 10
52.29563154609677
 20
278.5189762870504
 30
0.0
 10
53.26626137359867
 20
278.8440517297353
 30
0.0
 10
54.29669081468772
 20
279.2461624980684
 30
0.0
 10
55.37562348834397
 20
279.7455478828935
 30
0.0
 10
56.47448445494773
 20
280.3371509883636
 30
0.0
 10
57.59911547920805
 20
281.0337465993058
 30
0.0
 10
58.73435829691179
 20
281.8318651742051
 30
0.0
 10
59.8808302477207
 20
282.7405330753799
 30
0.0
 10
60.87052671718723
 20
283.6230425936713
 30
0.0
 10
61.69655362300549
 20
284.436378998469
 30
0.0
 10
62.36462695645412
 20
285.1496779253662
 30
0.0
 10
63.00558304068754
 20
285.8966706171477
 30
0.0
 10
63.61367932760358
 20
286.6774445700206
 30
0.0
 10
64.14429840636188
 20
287.4350061392378
 30
0.0
 10
64.60475646752523
 20
288.1659978945544
 30
0.0
 10
65.00671377325176
 20
288.8732847991614
 30
0.0
 10
65.40238576118249
 20
289.6535372794164
 30
0.0
 10
65.7863106191375
 20
290.5207889571596
 30
0.0
 10
66.15135119705052
 20
291.4888997818732
 30
0.0
 10
66.48393626170962
 20
292.547623602659
 30
0.0
 10
66.75091045730744
 20
293.5967697615362
 30
0.0
 10
66.9495947899054
 20
294.550063755112
 30
0.0
 10
67.09418975389768
 20
295.3678002716127
 30
0.0
 10
67.2108438076976
 20
296.1345807332542
 30
0.0
 10
67.34183910737379
 20
297.1352584610327
 30
0.0
 10
67.46933802079103
 20
298.3502422502286
 30
0.0
 10
67.58153765782745
 20
299.7427594174495
 30
0.0
 10
67.66630609193275
 20
301.0629664873899
 30
0.0
 10
67.73615801972981
 20
302.3803610392649
 30
0.0
 10
67.79793861244728
 20
303.7599536789705
 30
0.0
 10
67.85842769994026
 20
305.3220683555222
 30
0.0
 10
67.9163290569793
 20
306.9988625355969
 30
0.0
 10
67.97167624932376
 20
308.7079166907795
 30
0.0
 10
68.02485869723812
 20
310.3774496344483
 30
0.0
 10
68.07893715488039
 20
312.0550779736236
 30
0.0
 10
68.13753830160837
 20
313.8126880751611
 30
0.0
 10
68.20150013549647
 20
315.6413934928567
 30
0.0
 10
68.26924492527957
 20
317.4797748815295
 30
0.0
 10
68.34045813023387
 20
319.2949595300415
 30
0.0
 10
68.41440238004739
 20
321.0413403427096
 30
0.0
 10
68.48927851508829
 20
322.7022410149521
 30
0.0
 10
68.56154573824617
 20
324.2127609807335
 30
0.0
 10
68.62925223771849
 20
325.5575597385512
 30
0.0
 10
68.69183230600159
 20
326.7453642361027
 30
0.0
 10
68.74358885418306
 20
327.6901456927329
 30
0.0
 10
68.7854384180665
 20
328.4284703870012
 30
0.0
 10
68.81834671354551
 20
329.0068618124913
 30
0.0
 10
68.85332735812402
 20
329.6325759606489
 30
0.0
 10
68.93025053888204
 20
331.05193226236
 30
0.0
 10
69.05053965552571
 20
333.286140050883
 30
0.0
 10
69.19101155157819
 20
335.8601320087888
 30
0.0
 10
69.31519315427316
 20
338.1102765488927
 30
0.0
 10
69.41939729603936
 20
339.977038390821
 30
0.0
 10
69.529380407646
 20
341.9255581475286
 30
0.0
 10
69.64338559706437
 20
343.9262489305701
 30
0.0
 10
69.76023204217688
 20
345.9678722321279
 30
0.0
 10
69.87395940102026
 20
347.9636711175299
 30
0.0
 10
69.96674896439922
 20
349.5993308761136
 30
0.0
 10
70.04010730029484
 20
350.8882738482622
 30
0.0
 10
70.08666798384948
 20
351.6851084046455
 30
0.0
 10
70.1217024375277
 20
352.2892660369469
 30
0.0
 10
70.14671863787383
 20
352.7193116325136
 30
0.0
 10
70.17240312439431
 20
353.1622119895421
 30
0.0
 10
70.19679090885154
 20
353.5801725467378
 30
0.0
 10
70.22831592721197
 20
354.1181004174783
 30
0.0
 10
70.2667004254127
 20
354.7477333714479
 30
0.0
 10
70.30872119552625
 20
355.4599408965756
 30
0.0
 10
70.34398014302162
 20
356.1579031570223
 30
0.0
 10
70.37261423007044
 20
356.6524797940266
 30
0.0
 10
70.39014805780945
 20
356.9315528248756
 30
0.0
 10
70.39259082636174
 20
356.9700398506608
 30
0.0
  0
SPLINE
  5
1DB
330
195
100
AcDbEntity
  8
$DDT_AUDIT_GENERATED_(D4)
  6
Continuous
 62
     7
100
AcDbSpline
210
0.0
220
0.0
230
1.0
 70
     8
 71
     3
 72
    17
 73
    13
 74
     0
 42
0.0000000001604956
 43
0.0000000001
 40
0.8743846701435248
 40
0.8743846701435248
 40
0.8743846701435248
 40
0.8743846701435248
 40
0.8769663526689382
 40
0.885507299460219
 40
0.8899204107272395
 40
0.8948507503233681
 40
0.9008317522738005
 40
0.9077876200692133
 40
0.9151267644722049
 40
0.9225917335675509
 40
0.9301921909756351
 40
0.9378646403395705
 40
0.9378646403395705
 40
0.9378646403395705
 40
0.9378646403395705
 10
70.7034247165305
 20
361.3162088571328
 30
0.0
 10
70.70981539261344
 20
361.3965298314326
 30
0.0
 10
70.73745588538542
 20
361.7407751593527
 30
0.0
 10
70.77653992671782
 20
362.2110752387444
 30
0.0
 10
70.82248323808942
 20
362.7302948646516
 30
0.0
 10
70.86158887353278
 20
363.1524648642354
 30
0.0
 10
70.90711843642603
 20
363.6118726390969
 30
0.0
 10
70.95942681996634
 20
364.1021092838986
 30
0.0
 10
71.01209468879281
 20
364.5585148828858
 30
0.0
 10
71.05963312421876
 20
364.9323867636678
 30
0.0
 10
71.09775351151097
 20
365.1953869118297
 30
0.0
 10
71.1066102107484
 20
365.2492043544965
 30
0.0
 10
71.10574280879544
 20
365.2490125157575
 30
0.0
  0
SPLINE
  5
1DC
330
195
100
AcDbEntity
  8
$DDT_AUDIT_GENERATED_(D4)
  6
Continuous
 62
     7
100
AcDbSpline
210
0.0
220
0.0
230
1.0
 70
     8
 71
     3
 72
    20
 73
    16
 74
     0
 42
0.0000000001564611
 43
0.0000000001
 40
0.0705318717585325
 40
0.0705318717585325
 40
0.0705318717585325
 40
0.0705318717585325
 40
0.0766397331949417
 40
0.0842833305454899
 40
0.0918475564852699
 40
0.1017008832837921
 40
0.1110741321369965
 40
0.1189927493806395
 40
0.1252738334704097
 40
0.1314978982880301
 40
0.1388926536650564
 40
0.147440115914045
 40
0.1568062695785878
 40
0.1661776458984231
 40
0.1721632641617462
 40
0.1721632641617462
 40
0.1721632641617462
 40
0.1721632641617462
 10
20.94920927872995
 20
365.1442274808917
 30
0.0
 10
20.94868412717289
 20
365.1441919315575
 30
0.0
 10
20.95319825483318
 20
365.1143981415153
 30
0.0
 10
20.97861547006541
 20
364.9482768010793
 30
0.0
 10
21.02164711877719
 20
364.6284838300891
 30
0.0
 10
21.07565070749516
 20
364.1804674035598
 30
0.0
 10
21.13685045503383
 20
363.6177426015119
 30
0.0
 10
21.18928137179291
 20
363.0898254138251
 30
0.0
 10
21.23520158684167
 20
362.5900446484009
 30
0.0
 10
21.28000168829903
 20
362.0754112085737
 30
0.0
 10
21.32889188683651
 20
361.482905925767
 30
0.0
 10
21.38352392841994
 20
360.7848600608764
 30
0.0
 10
21.44118058312167
 20
360.0140842514458
 30
0.0
 10
21.490484047919
 20
359.2910559745306
 30
0.0
 10
21.52239158598993
 20
358.8492481681125
 30
0.0
 10
21.53485813307159
 20
358.67703161369
 30
0.0
  0
SPLINE
  5
1DD
330
195
100
AcDbEntity
  8
$DDT_AUDIT_GENERATED_(D4)
  6
Continuous
 62
     7
100
AcDbSpline
210
0.0
220
0.0
230
1.0
 70
     8
 71
     3
 72
    60
 73
    56
 74
     0
 42
0.000000000108293
 43
0.0000000001
 40
0.1976817587982383
 40
0.1976817587982383
 40
0.1976817587982383
 40
0.1976817587982383
 40
0.2007774947112481
 40
0.2160519247018992
 40
0.2359040052533547
 40
0.2544205090686818
 40
0.2711240539450466
 40
0.2930544516431444
 40
0.3169018405030334
 40
0.3423404787355332
 40
0.3641024653635453
 40
0.3768688857318109
 40
0.3900699968298272
 40
0.4034232857724105
 40
0.4144723884488208
 40
0.424866332798815
 40
0.4352258803978967
 40
0.4455364818419397
 40
0.4567867168931758
 40
0.4678903425747526
 40
0.4787837462382196
 40
0.488624066566721
 40
0.4964727736406492
 40
0.5091618331981759
 40
0.5234489446697039
 40
0.5396025394313564
 40
0.5576896554977727
 40
0.5777371552178612
 40
0.5990887356078787
 40
0.6210148076633162
 40
0.6421969213728818
 40
0.6628657863480982
 40
0.6830292230017957
 40
0.7023674498067525
 40
0.7221475419474738
 40
0.7437382037621659
 40
0.7604602716491894
 40
0.7766556041795843
 40
0.7915835296995147
 40
0.8057423290788067
 40
0.8210895244406797
 40
0.8365942063725464
 40
0.8519632417097931
 40
0.8667813660748833
 40
0.8843420209402173
 40
0.8991703948915547
 40
0.912376119139364
 40
0.9245721402503618
 40
0.9359016270055645
 40
0.946436173917268
 40
0.95602238983823
 40
0.9659868955558051
 40
0.9753188602659292
 40
0.9840536515263967
 40
0.9900801101559451
 40
0.9900801101559451
 40
0.9900801101559451
 40
0.9900801101559451
 10
21.68571590470053
 20
356.4106998621531
 30
0.0
 10
21.69128049381963
 20
356.3161022978824
 30
0.0
 10
21.72389837053985
 20
355.7535052900479
 30
0.0
 10
21.78685047869417
 20
354.5726312123659
 30
0.0
 10
21.88685401169562
 20
352.938834173528
 30
0.0
 10
21.98427604280876
 20
351.249031702168
 30
0.0
 10
22.08468855153946
 20
349.4943823099825
 30
0.0
 10
22.19349866098011
 20
347.5727785333765
 30
0.0
 10
22.31843101717904
 20
345.3847012938055
 30
0.0
 10
22.44330905285331
 20
343.2031715968795
 30
0.0
 10
22.54778680155659
 20
341.3621517142288
 30
0.0
 10
22.63031789789222
 20
339.8965536497912
 30
0.0
 10
22.69780074469604
 20
338.688905567565
 30
0.0
 10
22.76196596497427
 20
337.5336246702321
 30
0.0
 10
22.82092181918627
 20
336.4638246298757
 30
0.0
 10
22.87460399954789
 20
335.4855333416101
 30
0.0
 10
22.92681809057727
 20
334.5295503311716
 30
0.0
 10
22.98027241548452
 20
333.5467917614338
 30
0.0
 10
23.03478320376778
 20
332.5407038247053
 30
0.0
 10
23.0901239766372
 20
331.5162344965155
 30
0.0
 10
23.14308297832525
 20
330.5348442046302
 30
0.0
 10
23.19067092656107
 20
329.6534091943873
 30
0.0
 10
23.24323156231821
 20
328.715257925654
 30
0.0
 10
23.30480803944618
 20
327.6394479185189
 30
0.0
 10
23.3768713997963
 20
326.3087569971227
 30
0.0
 10
23.45410357803679
 20
324.8130047739419
 30
0.0
 10
23.53556688297344
 20
323.1414866708173
 30
0.0
 10
23.619203740811
 20
321.3117564175201
 30
0.0
 10
23.70218923750826
 20
319.3655965343224
 30
0.0
 10
23.77971057951825
 20
317.3861856209278
 30
0.0
 10
23.85150504344821
 20
315.4279103759235
 30
0.0
 10
23.91767607986419
 20
313.5229825393221
 30
0.0
 10
23.97884701059155
 20
311.6736315660921
 30
0.0
 10
24.03728382641812
 20
309.8504015447203
 30
0.0
 10
24.09686104333461
 20
307.98197682417
 30
0.0
 10
24.15611078664353
 20
306.1928814960683
 30
0.0
 10
24.21722943252812
 20
304.5137929770584
 30
0.0
 10
24.27831937964649
 20
303.0400833199246
 30
0.0
 10
24.34633539469969
 20
301.6459064897961
 30
0.0
 10
24.42703351742156
 20
300.278831236517
 30
0.0
 10
24.52860308769755
 20
298.8954194914359
 30
0.0
 10
24.66283115987704
 20
297.4774385207897
 30
0.0
 10
24.83607117269018
 20
296.0800684147943
 30
0.0
 10
25.0719878644375
 20
294.6274791521118
 30
0.0
 10
25.38008909865203
 20
293.2049291698137
 30
0.0
 10
25.76759939665971
 20
291.8525664543414
 30
0.0
 10
26.18931713290148
 20
290.6842102453185
 30
0.0
 10
26.64334268745504
 20
289.6444445047712
 30
0.0
 10
27.12431720419039
 20
288.7085233021216
 30
0.0
 10
27.61835993104796
 20
287.8715841673396
 30
0.0
 10
28.13123053178928
 20
287.096785064092
 30
0.0
 10
28.6486606618489
 20
286.377117516349
 30
0.0
 10
29.17352471856982
 20
285.7015345624525
 30
0.0
 10
29.635914407889
 20
285.1467856300522
 30
0.0
 10
29.93136395043968
 20
284.8123588102631
 30
0.0
 10
30.05035312722378
 20
284.6818751524783
 30
0.0
  0
SPLINE
  5
1DE
330
195
100
AcDbEntity
  8
$DDT_AUDIT_GENERATED_(D4)
  6
Continuous
 62
     7
100
AcDbSpline
210
0.0
220
0.0
230
1.0
 70
     8
 71
     3
 72
     8
 73
     4
 74
     0
 42
0.0000000001091338
 43
0.0000000001
 40
0.9977330226311142
 40
0.9977330226311142
 40
0.9977330226311142
 40
0.9977330226311142
 40
1.0
 40
1.0
 40
1.0
 40
1.0
 10
30.5025484730247
 20
284.2063841668128
 30
0.0
 10
30.54939656741694
 20
284.1587226255116
 30
0.0
 10
30.5977672190405
 20
284.1097682992482
 30
0.0
 10
30.64845652121683
 20
284.0585319682938
 30
0.0
  0
ARC
  5
1DF
330
195
100
AcDbEntity
  8
$DDT_AUDIT_GENERATED_(D4)
  6
Continuous
 62
     7
100
AcDbCircle
 10
3.1241928233
 20
372.3442460933
 30
0.0
 40
70.06061703469244
100
AcDbArc
 50
1.0079554326
 51
2.0512641309
  0
ARC
  5
1E0
330
195
100
AcDbEntity
  8
$DDT_AUDIT_GENERATED_(E6)
  6
Continuous
 62
     7
100
AcDbCircle
 10
46.0226596178
 20
375.433842624
 30
0.0
 40
28.99047431159973
100
AcDbArc
 50
328.04260069
 51
0.0
  0
ARC
  5
1E1
330
195
100
AcDbEntity
  8
$DDT_AUDIT_GENERATED_(E6)
  6
Continuous
 62
     7
100
AcDbCircle
 10
46.0226596178
 20
375.433842624
 30
0.0
 40
28.99047431159973
100
AcDbArc
 50
0.0
 51
211.9573726291
  0
LINE
  5
1E3
330
195
100
AcDbEntity
  8
DV3_Standard
  6
CENTER2
 62
     7
100
AcDbLine
 10
66.0226591707
 20
375.433842624
 30
0.0
 11
26.0226600648
 21
375.433842624
 31
0.0
  0
LINE
  5
1E4
330
195
100
AcDbEntity
  8
DV3_Standard
  6
CENTER2
 62
     7
100
AcDbLine
 10
46.0226596178
 20
395.433842177
 30
0.0
 11
46.0226596178
 21
355.4338430711
 31
0.0
  0
LINE
  5
1E5
330
195
100
AcDbEntity
  8
DV3_Standard
  6
CENTER2
 62
     7
100
AcDbLine
 10
71.022659059
 20
375.433842624
 30
0.0
 11
78.5131339294
 21
375.433842624
 31
0.0
  0
LINE
  5
1E6
330
195
100
AcDbEntity
  8
DV3_Standard
  6
CENTER2
 62
     7
100
AcDbLine
 10
46.0226596178
 20
400.4338420652
 30
0.0
 11
46.0226596178
 21
407.9243169356
 31
0.0
  0
LINE
  5
1E7
330
195
100
AcDbEntity
  8
DV3_Standard
  6
CENTER2
 62
     7
100
AcDbLine
 10
21.0226601765
 20
375.433842624
 30
0.0
 11
13.5321853062
 21
375.433842624
 31
0.0
  0
LINE
  5
1E8
330
195
100
AcDbEntity
  8
DV3_Standard
  6
CENTER2
 62
     7
100
AcDbLine
 10
46.0226596178
 20
350.4338431828
 30
0.0
 11
46.0226596178
 21
342.9433683124
 31
0.0
  0
ENDBLK
  5
1EA
330
195
100
AcDbEntity
  8
0
100
AcDbBlockEnd
  0
ENDSEC
  0
SECTION
  2
ENTITIES
  0
INSERT
  5
5F
330
1F
100
AcDbEntity
  8
Default
100
AcDbBlockReference
  2
SE
 10
0.0
 20
0.0
 30
0.0
  0
INSERT
  5
F6
330
1F
100
AcDbEntity
  8
Default
100
AcDbBlockReference
  2
SE1
 10
0.0
 20
0.0
 30
0.0
  0
INSERT
  5
196
330
1F
100
AcDbEntity
  8
Default
100
AcDbBlockReference
  2
SE2
 10
0.0
 20
0.0
 30
0.0
  0
TEXT
  5
1EC
330
1F
100
AcDbEntity
  8
Default
  6
Continuous
 62
     7
100
AcDbText
 10
5.9362635081
 20
53.4225120485
 30
0.0
 40
10.0
  1
Grohe AG^J
  7
SEACAD_seiso_ttf
 11
5.9362635081
 21
63.4225120485
 31
0.0
100
AcDbText
 73
     3
  0
TEXT
  5
1ED
330
1F
100
AcDbEntity
  8
Default
  6
Continuous
 62
     7
100
AcDbText
 10
5.9362635081
 20
37.0588756849
 30
0.0
 40
10.0
  1
 
  7
SEACAD_seiso_ttf
 11
5.9362635081
 21
47.0588756849
 31
0.0
100
AcDbText
 73
     3
  0
TEXT
  5
1EE
330
1F
100
AcDbEntity
  8
Default
  6
Continuous
 62
     7
100
AcDbText
 10
5.9362635081
 20
20.6952393213
 30
0.0
 40
10.0
  1
ecn: 
  7
SEACAD_seiso_ttf
 11
5.9362635081
 21
30.6952393213
 31
0.0
100
AcDbText
 73
     3
  0
TEXT
  5
1EF
330
1F
100
AcDbEntity
  8
Default
  6
Continuous
 62
     7
100
AcDbText
 10
5.9362635081
 20
4.3316029576
 30
0.0
 40
10.0
  1
unit: mm
  7
SEACAD_seiso_ttf
 11
5.9362635081
 21
14.3316029576
 31
0.0
100
AcDbText
 73
     3
  0
LINE
  5
1F0
330
1F
100
AcDbEntity
  8
Default
  6
Continuous
 62
     7
100
AcDbLine
 10
0.0
 20
0.0
 30
0.0
 11
100.0
 21
0.0
 31
0.0
  0
LINE
  5
1F1
330
1F
100
AcDbEntity
  8
Default
  6
Continuous
 62
     7
100
AcDbLine
 10
0.0
 20
0.0
 30
0.0
 11
0.0
 21
100.0
 31
0.0
  0
TEXT
  5
1F2
330
1F
100
AcDbEntity
  8
Default
  6
Continuous
 62
     7
100
AcDbText
 10
24.3923665681
 20
-18.2375342018
 30
0.0
 40
10.0
  1
100 mm
  7
SEACAD_seiso_ttf
 11
24.3923665681
 21
-8.2375342018
 31
0.0
100
AcDbText
 73
     3
  0
TEXT
  5
1F3
330
1F
100
AcDbEntity
  8
Default
  6
Continuous
 62
     7
100
AcDbText
 10
-7.6150308803
 20
24.6231930421
 30
0.0
 40
10.0
  1
100 mm
 50
90.0
  7
SEACAD_seiso_ttf
 11
-17.6150308803
 21
24.6231930421
 31
0.0
100
AcDbText
 73
     3
  0
TEXT
  5
1F4
330
1F
100
AcDbEntity
  8
Default
  6
Continuous
 62
     7
100
AcDbText
 10
28.4878128572
 20
20.0907663715
 30
0.0
 40
10.0
  1
218275
  7
SEACAD_seiso_ttf
 11
28.4878128572
 21
30.0907663715
 31
0.0
100
AcDbText
 73
     3
  0
TEXT
  5
1F5
330
1F
100
AcDbEntity
  8
Default
  6
Continuous
 62
     7
100
AcDbText
 10
5.9012241913
 20
36.7242780188
 30
0.0
 40
10.0
  1
32942002
  7
SEACAD_seiso_ttf
 11
5.9012241913
 21
46.7242780188
 31
0.0
100
AcDbText
 73
     3
  0
ENDSEC
  0
SECTION
  2
OBJECTS
  0
DICTIONARY
  5
C
330
0
100
AcDbDictionary
281
     1
  3
ACAD_GROUP
350
D
  3
ACAD_LAYOUT
350
1A
  3
ACAD_MLEADERSTYLE
350
1F9
  3
ACAD_MLINESTYLE
350
17
  3
ACAD_PLOTSETTINGS
350
19
  3
ACAD_PLOTSTYLENAME
350
E
  3
ACAD_SCALELIST
350
3B
  3
ACAD_TABLESTYLE
350
1F8
  3
ACAD_VISUALSTYLE
350
2A
  3
AcDbVariableDictionary
350
1F6
  0
DICTIONARY
  5
D
102
{ACAD_REACTORS
330
C
102
}
330
C
100
AcDbDictionary
281
     1
  0
DICTIONARY
  5
1A
102
{ACAD_REACTORS
330
C
102
}
330
C
100
AcDbDictionary
281
     1
  3
Layout1
350
1E
  3
Model
350
22
  0
DICTIONARY
  5
1F9
102
{ACAD_REACTORS
330
C
102
}
330
C
100
AcDbDictionary
281
     1
  0
DICTIONARY
  5
17
102
{ACAD_REACTORS
330
C
102
}
330
C
100
AcDbDictionary
281
     1
  3
Standard
350
18
  0
DICTIONARY
  5
19
102
{ACAD_REACTORS
330
C
102
}
330
C
100
AcDbDictionary
281
     1
  0
ACDBDICTIONARYWDFLT
  5
E
102
{ACAD_REACTORS
330
C
102
}
330
C
100
AcDbDictionary
281
     1
  3
Normal
350
F
100
AcDbDictionaryWithDefault
340
F
  0
DICTIONARY
  5
3B
102
{ACAD_REACTORS
330
C
102
}
330
C
100
AcDbDictionary
281
     1
  3
A0
350
3C
  3
A1
350
3D
  3
A2
350
3E
  3
A3
350
3F
  3
A4
350
40
  3
A5
350
41
  3
A6
350
42
  3
A7
350
43
  3
A8
350
44
  3
A9
350
45
  3
B0
350
46
  3
B1
350
47
  3
B2
350
48
  3
B3
350
49
  3
B4
350
4A
  3
B5
350
4B
  3
B6
350
4C
  3
B7
350
4D
  3
B8
350
4E
  3
B9
350
4F
  3
C0
350
50
  3
C1
350
51
  3
C2
350
52
  3
C3
350
53
  3
C4
350
54
  3
C5
350
55
  3
C6
350
56
  3
C7
350
57
  3
C8
350
58
  3
C9
350
59
  3
D0
350
5A
  3
D1
350
5B
  3
D2
350
5C
  0
DICTIONARY
  5
1F8
102
{ACAD_REACTORS
330
C
102
}
330
C
100
AcDbDictionary
281
     1
  0
DICTIONARY
  5
2A
102
{ACAD_REACTORS
330
C
102
}
330
C
100
AcDbDictionary
281
     1
  3
2dWireframe
350
2F
  3
3D Hidden
350
31
  3
3dWireframe
350
30
  3
Basic
350
32
  3
Brighten
350
36
  3
ColorChange
350
3A
  3
Conceptual
350
34
  3
Dim
350
35
  3
Facepattern
350
39
  3
Flat
350
2B
  3
FlatWithEdges
350
2C
  3
Gouraud
350
2D
  3
GouraudWithEdges
350
2E
  3
Linepattern
350
38
  3
Realistic
350
33
  3
Thicken
350
37
  0
DICTIONARY
  5
1F6
102
{ACAD_REACTORS
330
C
102
}
330
C
100
AcDbDictionary
281
     1
  3
CANNOSCALE
350
1F7
  3
PSOLHEIGHT
350
1FB
  3
PSOLWIDTH
350
1FA
  0
LAYOUT
  5
1E
102
{ACAD_REACTORS
330
1A
102
}
330
1A
100
AcDbPlotSettings
  1

  2
none_device
  4

  6

 40
0.0
 41
0.0
 42
0.0
 43
0.0
 44
0.0
 45
0.0
 46
0.0
 47
0.0
 48
0.0
 49
0.0
140
0.0
141
0.0
142
1.0
143
1.0
 70
   688
 72
     0
 73
     0
 74
     5
  7

 75
    16
147
1.0
148
0.0
149
0.0
100
AcDbLayout
  1
Layout1
 70
     1
 71
     1
 10
0.0
 20
0.0
 11
1682.0
 21
2378.0
 12
0.0
 22
0.0
 32
0.0
 14
0.0
 24
0.0
 34
0.0
 15
1682.0
 25
2378.0
 35
0.0
146
0.0
 13
0.0
 23
0.0
 33
0.0
 16
1.0
 26
0.0
 36
0.0
 17
0.0
 27
1.0
 37
0.0
 76
     0
330
1B
  0
LAYOUT
  5
22
102
{ACAD_REACTORS
330
1A
102
}
330
1A
100
AcDbPlotSettings
  1

  2
none_device
  4

  6

 40
0.0
 41
0.0
 42
0.0
 43
0.0
 44
0.0
 45
0.0
 46
0.0
 47
0.0
 48
0.0
 49
0.0
140
0.0
141
0.0
142
1.0
143
1.0
 70
  1712
 72
     0
 73
     0
 74
     0
  7

 75
     0
147
1.0
148
0.0
149
0.0
100
AcDbLayout
  1
Model
 70
     1
 71
     0
 10
0.0
 20
0.0
 11
1682.0
 21
2378.0
 12
0.0
 22
0.0
 32
0.0
 14
0.0
 24
0.0
 34
0.0
 15
1682.0
 25
2378.0
 35
0.0
146
0.0
 13
0.0
 23
0.0
 33
0.0
 16
1.0
 26
0.0
 36
0.0
 17
0.0
 27
1.0
 37
0.0
 76
     0
330
1F
331
29
  0
MLINESTYLE
  5
18
102
{ACAD_REACTORS
330
17
102
}
330
17
100
AcDbMlineStyle
  2
Standard
 70
     0
  3

 62
   256
 51
90.0
 52
90.0
 71
     2
 49
0.5
 62
   256
  6
BYLAYER
 49
-0.5
 62
   256
  6
BYLAYER
  0
ACDBPLACEHOLDER
  5
F
102
{ACAD_REACTORS
330
E
102
}
330
E
  0
SCALE
  5
3C
102
{ACAD_REACTORS
330
3B
102
}
330
3B
100
AcDbScale
 70
     0
300
1:1
140
1.0
141
1.0
290
     1
  0
SCALE
  5
3D
102
{ACAD_REACTORS
330
3B
102
}
330
3B
100
AcDbScale
 70
     0
300
1:2
140
1.0
141
2.0
290
     0
  0
SCALE
  5
3E
102
{ACAD_REACTORS
330
3B
102
}
330
3B
100
AcDbScale
 70
     0
300
1:4
140
1.0
141
4.0
290
     0
  0
SCALE
  5
3F
102
{ACAD_REACTORS
330
3B
102
}
330
3B
100
AcDbScale
 70
     0
300
1:5
140
1.0
141
5.0
290
     0
  0
SCALE
  5
40
102
{ACAD_REACTORS
330
3B
102
}
330
3B
100
AcDbScale
 70
     0
300
1:8
140
1.0
141
8.0
290
     0
  0
SCALE
  5
41
102
{ACAD_REACTORS
330
3B
102
}
330
3B
100
AcDbScale
 70
     0
300
1:10
140
1.0
141
10.0
290
     0
  0
SCALE
  5
42
102
{ACAD_REACTORS
330
3B
102
}
330
3B
100
AcDbScale
 70
     0
300
1:16
140
1.0
141
16.0
290
     0
  0
SCALE
  5
43
102
{ACAD_REACTORS
330
3B
102
}
330
3B
100
AcDbScale
 70
     0
300
1:20
140
1.0
141
20.0
290
     0
  0
SCALE
  5
44
102
{ACAD_REACTORS
330
3B
102
}
330
3B
100
AcDbScale
 70
     0
300
1:30
140
1.0
141
30.0
290
     0
  0
SCALE
  5
45
102
{ACAD_REACTORS
330
3B
102
}
330
3B
100
AcDbScale
 70
     0
300
1:40
140
1.0
141
40.0
290
     0
  0
SCALE
  5
46
102
{ACAD_REACTORS
330
3B
102
}
330
3B
100
AcDbScale
 70
     0
300
1:50
140
1.0
141
50.0
290
     0
  0
SCALE
  5
47
102
{ACAD_REACTORS
330
3B
102
}
330
3B
100
AcDbScale
 70
     0
300
1:100
140
1.0
141
100.0
290
     0
  0
SCALE
  5
48
102
{ACAD_REACTORS
330
3B
102
}
330
3B
100
AcDbScale
 70
     0
300
2:1
140
2.0
141
1.0
290
     0
  0
SCALE
  5
49
102
{ACAD_REACTORS
330
3B
102
}
330
3B
100
AcDbScale
 70
     0
300
4:1
140
4.0
141
1.0
290
     0
  0
SCALE
  5
4A
102
{ACAD_REACTORS
330
3B
102
}
330
3B
100
AcDbScale
 70
     0
300
8:1
140
8.0
141
1.0
290
     0
  0
SCALE
  5
4B
102
{ACAD_REACTORS
330
3B
102
}
330
3B
100
AcDbScale
 70
     0
300
10:1
140
10.0
141
1.0
290
     0
  0
SCALE
  5
4C
102
{ACAD_REACTORS
330
3B
102
}
330
3B
100
AcDbScale
 70
     0
300
100:1
140
100.0
141
1.0
290
     0
  0
SCALE
  5
4D
102
{ACAD_REACTORS
330
3B
102
}
330
3B
100
AcDbScale
 70
     0
300
1/128" = 1'-0"
140
0.0078125
141
12.0
290
     0
  0
SCALE
  5
4E
102
{ACAD_REACTORS
330
3B
102
}
330
3B
100
AcDbScale
 70
     0
300
1/64" = 1'-0"
140
0.015625
141
12.0
290
     0
  0
SCALE
  5
4F
102
{ACAD_REACTORS
330
3B
102
}
330
3B
100
AcDbScale
 70
     0
300
1/32" = 1'-0"
140
0.03125
141
12.0
290
     0
  0
SCALE
  5
50
102
{ACAD_REACTORS
330
3B
102
}
330
3B
100
AcDbScale
 70
     0
300
1/16" = 1'-0"
140
0.0625
141
12.0
290
     0
  0
SCALE
  5
51
102
{ACAD_REACTORS
330
3B
102
}
330
3B
100
AcDbScale
 70
     0
300
3/32" = 1'-0"
140
0.09375
141
12.0
290
     0
  0
SCALE
  5
52
102
{ACAD_REACTORS
330
3B
102
}
330
3B
100
AcDbScale
 70
     0
300
1/8" = 1'-0"
140
0.125
141
12.0
290
     0
  0
SCALE
  5
53
102
{ACAD_REACTORS
330
3B
102
}
330
3B
100
AcDbScale
 70
     0
300
3/16" = 1'-0"
140
0.1875
141
12.0
290
     0
  0
SCALE
  5
54
102
{ACAD_REACTORS
330
3B
102
}
330
3B
100
AcDbScale
 70
     0
300
1/4" = 1'-0"
140
0.25
141
12.0
290
     0
  0
SCALE
  5
55
102
{ACAD_REACTORS
330
3B
102
}
330
3B
100
AcDbScale
 70
     0
300
3/8" = 1'-0"
140
0.375
141
12.0
290
     0
  0
SCALE
  5
56
102
{ACAD_REACTORS
330
3B
102
}
330
3B
100
AcDbScale
 70
     0
300
1/2" = 1'-0"
140
0.5
141
12.0
290
     0
  0
SCALE
  5
57
102
{ACAD_REACTORS
330
3B
102
}
330
3B
100
AcDbScale
 70
     0
300
3/4" = 1'-0"
140
0.75
141
12.0
290
     0
  0
SCALE
  5
58
102
{ACAD_REACTORS
330
3B
102
}
330
3B
100
AcDbScale
 70
     0
300
1" = 1'-0"
140
1.0
141
12.0
290
     0
  0
SCALE
  5
59
102
{ACAD_REACTORS
330
3B
102
}
330
3B
100
AcDbScale
 70
     0
300
1-1/2" = 1'-0"
140
1.5
141
12.0
290
     0
  0
SCALE
  5
5A
102
{ACAD_REACTORS
330
3B
102
}
330
3B
100
AcDbScale
 70
     0
300
3" = 1'-0"
140
3.0
141
12.0
290
     0
  0
SCALE
  5
5B
102
{ACAD_REACTORS
330
3B
102
}
330
3B
100
AcDbScale
 70
     0
300
6" = 1'-0"
140
6.0
141
12.0
290
     0
  0
SCALE
  5
5C
102
{ACAD_REACTORS
330
3B
102
}
330
3B
100
AcDbScale
 70
     0
300
1'-0" = 1'-0"
140
12.0
141
12.0
290
     0
  0
VISUALSTYLE
  5
2F
102
{ACAD_REACTORS
330
2A
102
}
330
2A
100
AcDbVisualStyle
  2
2dWireframe
 70
     4
 71
     0
 72
     2
 73
     0
 90
        0
 40
-0.6
 41
-30.0
 62
     5
 63
     7
 74
     1
 91
        4
 64
     7
 65
   257
 75
     1
175
     1
 42
1.0
 92
        0
 66
   257
 43
1.0
 76
     1
 77
     6
 78
     2
 67
     7
 79
     5
170
     0
171
     0
290
     0
174
     0
 93
        1
 44
0.0
173
     0
291
     0
 45
0.0
1001
ACAD
1000
AcDbSavedByObjectVersion
1070
     0
  0
VISUALSTYLE
  5
31
102
{ACAD_REACTORS
330
2A
102
}
330
2A
100
AcDbVisualStyle
  2
3D Hidden
 70
     6
 71
     1
 72
     2
 73
     2
 90
        0
 40
-0.6
 41
-30.0
 62
     5
 63
     7
 74
     2
 91
        2
 64
     7
 65
   257
 75
     2
175
     1
 42
40.0
 92
        0
 66
   257
 43
1.0
 76
     1
 77
     6
 78
     2
 67
     7
 79
     3
170
     0
171
     0
290
     0
174
     0
 93
        1
 44
0.0
173
     0
291
     0
 45
0.0
1001
ACAD
1000
AcDbSavedByObjectVersion
1070
     0
  0
VISUALSTYLE
  5
30
102
{ACAD_REACTORS
330
2A
102
}
330
2A
100
AcDbVisualStyle
  2
3dWireframe
 70
     5
 71
     0
 72
     2
 73
     0
 90
        0
 40
-0.6
 41
-30.0
 62
     5
 63
     7
 74
     1
 91
        4
 64
     7
 65
   257
 75
     1
175
     1
 42
1.0
 92
        0
 66
   257
 43
1.0
 76
     1
 77
     6
 78
     2
 67
     7
 79
     5
170
     0
171
     0
290
     0
174
     0
 93
        1
 44
0.0
173
     0
291
     0
 45
0.0
1001
ACAD
1000
AcDbSavedByObjectVersion
1070
     0
  0
VISUALSTYLE
  5
32
102
{ACAD_REACTORS
330
2A
102
}
330
2A
100
AcDbVisualStyle
  2
Basic
 70
     7
 71
     1
 72
     0
 73
     1
 90
        0
 40
-0.6
 41
-30.0
 62
     5
 63
     7
 74
     0
 91
        4
 64
     7
 65
   257
 75
     1
175
     1
 42
1.0
 92
        8
 66
     7
 43
1.0
 76
     1
 77
     6
 78
     2
 67
     7
 79
     5
170
     0
171
     0
290
     0
174
     0
 93
        1
 44
0.0
173
     0
291
     1
 45
0.0
1001
ACAD
1000
AcDbSavedByObjectVersion
1070
     0
  0
VISUALSTYLE
  5
36
102
{ACAD_REACTORS
330
2A
102
}
330
2A
100
AcDbVisualStyle
  2
Brighten
 70
    12
 71
     2
 72
     2
 73
     0
 90
        0
 40
-0.6
 41
-30.0
 62
     5
 63
     7
 74
     1
 91
        4
 64
     7
 65
   257
 75
     1
175
     1
 42
1.0
 92
        8
 66
     7
 43
1.0
 76
     1
 77
     6
 78
     2
 67
     7
 79
     5
170
     0
171
     0
290
     0
174
     0
 93
        1
 44
50.0
173
     0
291
     1
 45
0.0
1001
ACAD
1000
AcDbSavedByObjectVersion
1070
     0
  0
VISUALSTYLE
  5
3A
102
{ACAD_REACTORS
330
2A
102
}
330
2A
100
AcDbVisualStyle
  2
ColorChange
 70
    16
 71
     2
 72
     2
 73
     3
 90
        0
 40
-0.6
 41
-30.0
 62
     5
 63
     8
 74
     1
 91
        4
 64
     7
 65
   257
 75
     1
175
     1
 42
1.0
 92
        8
 66
     8
 43
1.0
 76
     1
 77
     6
 78
     2
 67
     7
 79
     5
170
     0
171
     0
290
     0
174
     0
 93
        1
 44
0.0
173
     0
291
     1
 45
0.0
1001
ACAD
1000
AcDbSavedByObjectVersion
1070
     0
  0
VISUALSTYLE
  5
34
102
{ACAD_REACTORS
330
2A
102
}
330
2A
100
AcDbVisualStyle
  2
Conceptual
 70
     9
 71
     3
 72
     2
 73
     0
 90
        0
 40
-0.6
 41
-30.0
 62
     5
 63
     7
 74
     2
 91
        2
 64
     7
 65
   257
 75
     1
175
     1
 42
40.0
 92
        8
 66
     7
 43
1.0
 76
     1
 77
     6
 78
     2
 67
     7
 79
     3
170
     0
171
     0
290
     0
174
     0
 93
        1
 44
0.0
173
     0
291
     0
 45
0.0
1001
ACAD
1000
AcDbSavedByObjectVersion
1070
     0
  0
VISUALSTYLE
  5
35
102
{ACAD_REACTORS
330
2A
102
}
330
2A
100
AcDbVisualStyle
  2
Dim
 70
    11
 71
     2
 72
     2
 73
     0
 90
        0
 40
-0.6
 41
-30.0
 62
     5
 63
     7
 74
     1
 91
        4
 64
     7
 65
   257
 75
     1
175
     1
 42
1.0
 92
        8
 66
     7
 43
1.0
 76
     1
 77
     6
 78
     2
 67
     7
 79
     5
170
     0
171
     0
290
     0
174
     0
 93
        1
 44
-50.0
173
     0
291
     1
 45
0.0
1001
ACAD
1000
AcDbSavedByObjectVersion
1070
     0
  0
VISUALSTYLE
  5
39
102
{ACAD_REACTORS
330
2A
102
}
330
2A
100
AcDbVisualStyle
  2
Facepattern
 70
    15
 71
     2
 72
     2
 73
     0
 90
        0
 40
-0.6
 41
-30.0
 62
     5
 63
     7
 74
     1
 91
        4
 64
     7
 65
   257
 75
     1
175
     1
 42
1.0
 92
        8
 66
     7
 43
1.0
 76
     1
 77
     6
 78
     2
 67
     7
 79
     5
170
     0
171
     0
290
     0
174
     0
 93
        1
 44
0.0
173
     0
291
     1
 45
0.0
1001
ACAD
1000
AcDbSavedByObjectVersion
1070
     0
  0
VISUALSTYLE
  5
2B
102
{ACAD_REACTORS
330
2A
102
}
330
2A
100
AcDbVisualStyle
  2
Flat
 70
     0
 71
     2
 72
     1
 73
     1
 90
        2
 40
-0.6
 41
30.0
 62
     5
 63
     7
 74
     0
 91
        4
 64
     7
 65
   257
 75
     1
175
     1
 42
1.0
 92
        8
 66
     7
 43
1.0
 76
     1
 77
     6
 78
     2
 67
     7
 79
     5
170
     0
171
     0
290
     0
174
     0
 93
       13
 44
0.0
173
     0
291
     1
 45
0.0
1001
ACAD
1000
AcDbSavedByObjectVersion
1070
     0
  0
VISUALSTYLE
  5
2C
102
{ACAD_REACTORS
330
2A
102
}
330
2A
100
AcDbVisualStyle
  2
FlatWithEdges
 70
     1
 71
     2
 72
     1
 73
     1
 90
        2
 40
-0.6
 41
30.0
 62
     5
 63
     7
 74
     1
 91
        4
 64
     7
 65
   257
 75
     1
175
     1
 42
1.0
 92
        0
 66
   257
 43
1.0
 76
     1
 77
     6
 78
     2
 67
     7
 79
     5
170
     0
171
     0
290
     0
174
     0
 93
       13
 44
0.0
173
     0
291
     1
 45
0.0
1001
ACAD
1000
AcDbSavedByObjectVersion
1070
     0
  0
VISUALSTYLE
  5
2D
102
{ACAD_REACTORS
330
2A
102
}
330
2A
100
AcDbVisualStyle
  2
Gouraud
 70
     2
 71
     2
 72
     2
 73
     1
 90
        2
 40
-0.6
 41
30.0
 62
     5
 63
     7
 74
     0
 91
        4
 64
     7
 65
   257
 75
     1
175
     1
 42
1.0
 92
        0
 66
     7
 43
1.0
 76
     1
 77
     6
 78
     2
 67
     7
 79
     5
170
     0
171
     0
290
     0
174
     0
 93
       13
 44
0.0
173
     0
291
     1
 45
0.0
1001
ACAD
1000
AcDbSavedByObjectVersion
1070
     0
  0
VISUALSTYLE
  5
2E
102
{ACAD_REACTORS
330
2A
102
}
330
2A
100
AcDbVisualStyle
  2
GouraudWithEdges
 70
     3
 71
     2
 72
     2
 73
     1
 90
        2
 40
-0.6
 41
30.0
 62
     5
 63
     7
 74
     1
 91
        4
 64
     7
 65
   257
 75
     1
175
     1
 42
1.0
 92
        0
 66
   257
 43
1.0
 76
     1
 77
     6
 78
     2
 67
     7
 79
     5
170
     0
171
     0
290
     0
174
     0
 93
       13
 44
0.0
173
     0
291
     1
 45
0.0
1001
ACAD
1000
AcDbSavedByObjectVersion
1070
     0
  0
VISUALSTYLE
  5
38
102
{ACAD_REACTORS
330
2A
102
}
330
2A
100
AcDbVisualStyle
  2
Linepattern
 70
    14
 71
     2
 72
     2
 73
     0
 90
        0
 40
-0.6
 41
-30.0
 62
     5
 63
     7
 74
     1
 91
        4
 64
     7
 65
   257
 75
     7
175
     7
 42
1.0
 92
        8
 66
     7
 43
1.0
 76
     1
 77
     6
 78
     2
 67
     7
 79
     5
170
     0
171
     0
290
     0
174
     0
 93
        1
 44
0.0
173
     0
291
     1
 45
0.0
1001
ACAD
1000
AcDbSavedByObjectVersion
1070
     0
  0
VISUALSTYLE
  5
33
102
{ACAD_REACTORS
330
2A
102
}
330
2A
100
AcDbVisualStyle
  2
Realistic
 70
     8
 71
     2
 72
     2
 73
     0
 90
        0
 40
-0.6
 41
-30.0
 62
     5
 63
     7
 74
     1
 91
        0
 64
     7
 65
   257
 75
     1
175
     1
 42
1.0
 92
        8
 66
     8
 43
1.0
 76
     1
 77
     6
 78
     2
 67
     7
 79
     5
170
     0
171
     0
290
     0
174
     0
 93
       13
 44
0.0
173
     0
291
     0
 45
0.0
1001
ACAD
1000
AcDbSavedByObjectVersion
1070
     0
  0
VISUALSTYLE
  5
37
102
{ACAD_REACTORS
330
2A
102
}
330
2A
100
AcDbVisualStyle
  2
Thicken
 70
    13
 71
     2
 72
     2
 73
     0
 90
        0
 40
-0.6
 41
-30.0
 62
     5
 63
     7
 74
     1
 91
        4
 64
     7
 65
   257
 75
     1
175
     1
 42
1.0
 92
       12
 66
     7
 43
1.0
 76
     1
 77
     6
 78
     2
 67
     7
 79
     5
170
     0
171
     0
290
     0
174
     0
 93
        1
 44
0.0
173
     0
291
     1
 45
0.0
1001
ACAD
1000
AcDbSavedByObjectVersion
1070
     0
  0
DICTIONARYVAR
  5
1F7
102
{ACAD_REACTORS
330
1F6
102
}
330
1F6
100
DictionaryVariables
280
     0
  1
1:1
  0
DICTIONARYVAR
  5
1FB
102
{ACAD_REACTORS
330
1F6
102
}
330
1F6
100
DictionaryVariables
280
     0
  1
80.000000
  0
DICTIONARYVAR
  5
1FA
102
{ACAD_REACTORS
330
1F6
102
}
330
1F6
100
DictionaryVariables
280
     0
  1
5.000000
  0
ENDSEC
  0
EOF
