  0
SECTION
  2
HEADER
  9
$ACADVER
  1
AC1015
  9
$ACADMAINTVER
 70
     6
  9
$DWGCODEPAGE
  3
ANSI_1252
  9
$INSBASE
 10
0.0
 20
0.0
 30
0.0
  9
$EXTMIN
 10
0.0
 20
0.0
 30
0.0
  9
$EXTMAX
 10
1682.0
 20
2378.0
 30
0.0
  9
$LIMMIN
 10
0.0
 20
0.0
  9
$LIMMAX
 10
1682.0
 20
2378.0
  9
$ORTHOMODE
 70
     0
  9
$REGENMODE
 70
     1
  9
$FILLMODE
 70
     1
  9
$QTEXTMODE
 70
     0
  9
$MIRRTEXT
 70
     1
  9
$LTSCALE
 40
1.0
  9
$ATTMODE
 70
     1
  9
$TEXTSIZE
 40
2.5
  9
$TRACEWID
 40
1.0
  9
$TEXTSTYLE
  7
Standard
  9
$CLAYER
  8
0
  9
$CELTYPE
  6
ByLayer
  9
$CECOLOR
 62
   256
  9
$CELTSCALE
 40
1.0
  9
$DISPSILH
 70
     0
  9
$DIMSCALE
 40
1.0
  9
$DIMASZ
 40
2.5
  9
$DIMEXO
 40
0.625
  9
$DIMDLI
 40
3.75
  9
$DIMRND
 40
0.0
  9
$DIMDLE
 40
0.0
  9
$DIMEXE
 40
1.25
  9
$DIMTP
 40
0.0
  9
$DIMTM
 40
0.0
  9
$DIMTXT
 40
2.5
  9
$DIMCEN
 40
2.5
  9
$DIMTSZ
 40
0.0
  9
$DIMTOL
 70
     0
  9
$DIMLIM
 70
     0
  9
$DIMTIH
 70
     0
  9
$DIMTOH
 70
     0
  9
$DIMSE1
 70
     0
  9
$DIMSE2
 70
     0
  9
$DIMTAD
 70
     1
  9
$DIMZIN
 70
     8
  9
$DIMBLK
  1

  9
$DIMASO
 70
     1
  9
$DIMSHO
 70
     1
  9
$DIMPOST
  1

  9
$DIMAPOST
  1

  9
$DIMALT
 70
     0
  9
$DIMALTD
 70
     3
  9
$DIMALTF
 40
0.0393700787
  9
$DIMLFAC
 40
1.0
  9
$DIMTOFL
 70
     1
  9
$DIMTVP
 40
0.0
  9
$DIMTIX
 70
     0
  9
$DIMSOXD
 70
     0
  9
$DIMSAH
 70
     0
  9
$DIMBLK1
  1

  9
$DIMBLK2
  1

  9
$DIMSTYLE
  2
ISO-25
  9
$DIMCLRD
 70
     0
  9
$DIMCLRE
 70
     0
  9
$DIMCLRT
 70
     0
  9
$DIMTFAC
 40
1.0
  9
$DIMGAP
 40
0.625
  9
$DIMJUST
 70
     0
  9
$DIMSD1
 70
     0
  9
$DIMSD2
 70
     0
  9
$DIMTOLJ
 70
     0
  9
$DIMTZIN
 70
     8
  9
$DIMALTZ
 70
     0
  9
$DIMALTTZ
 70
     0
  9
$DIMUPT
 70
     0
  9
$DIMDEC
 70
     2
  9
$DIMTDEC
 70
     2
  9
$DIMALTU
 70
     2
  9
$DIMALTTD
 70
     3
  9
$DIMTXSTY
  7
Standard
  9
$DIMAUNIT
 70
     0
  9
$DIMADEC
 70
     0
  9
$DIMALTRND
 40
0.0
  9
$DIMAZIN
 70
     0
  9
$DIMDSEP
 70
    44
  9
$DIMATFIT
 70
     3
  9
$DIMFRAC
 70
     0
  9
$DIMLDRBLK
  1

  9
$DIMLUNIT
 70
     2
  9
$DIMLWD
 70
    -2
  9
$DIMLWE
 70
    -2
  9
$DIMTMOVE
 70
     0
  9
$LUNITS
 70
     2
  9
$LUPREC
 70
     4
  9
$SKETCHINC
 40
1.0
  9
$FILLETRAD
 40
10.0
  9
$AUNITS
 70
     0
  9
$AUPREC
 70
     0
  9
$MENU
  1
.
  9
$ELEVATION
 40
0.0
  9
$PELEVATION
 40
0.0
  9
$THICKNESS
 40
0.0
  9
$LIMCHECK
 70
     0
  9
$CHAMFERA
 40
10.0
  9
$CHAMFERB
 40
10.0
  9
$CHAMFERC
 40
20.0
  9
$CHAMFERD
 40
0.0
  9
$SKPOLY
 70
     0
  9
$TDCREATE
 40
2455315.515098287
  9
$TDUCREATE
 40
2455315.431764954
  9
$TDUPDATE
 40
2455315.515098298
  9
$TDUUPDATE
 40
2455315.431764965
  9
$TDINDWG
 40
0.0000000116
  9
$TDUSRTIMER
 40
0.0000000116
  9
$USRTIMER
 70
     1
  9
$ANGBASE
 50
0.0
  9
$ANGDIR
 70
     0
  9
$PDMODE
 70
     0
  9
$PDSIZE
 40
0.0
  9
$PLINEWID
 40
0.0
  9
$SPLFRAME
 70
     0
  9
$SPLINETYPE
 70
     6
  9
$SPLINESEGS
 70
     8
  9
$HANDSEED
  5
162
  9
$SURFTAB1
 70
     6
  9
$SURFTAB2
 70
     6
  9
$SURFTYPE
 70
     6
  9
$SURFU
 70
     6
  9
$SURFV
 70
     6
  9
$UCSBASE
  2

  9
$UCSNAME
  2

  9
$UCSORG
 10
0.0
 20
0.0
 30
0.0
  9
$UCSXDIR
 10
1.0
 20
0.0
 30
0.0
  9
$UCSYDIR
 10
0.0
 20
1.0
 30
0.0
  9
$UCSORTHOREF
  2

  9
$UCSORTHOVIEW
 70
     0
  9
$UCSORGTOP
 10
0.0
 20
0.0
 30
0.0
  9
$UCSORGBOTTOM
 10
0.0
 20
0.0
 30
0.0
  9
$UCSORGLEFT
 10
0.0
 20
0.0
 30
0.0
  9
$UCSORGRIGHT
 10
0.0
 20
0.0
 30
0.0
  9
$UCSORGFRONT
 10
0.0
 20
0.0
 30
0.0
  9
$UCSORGBACK
 10
0.0
 20
0.0
 30
0.0
  9
$PUCSBASE
  2

  9
$PUCSNAME
  2

  9
$PUCSORG
 10
0.0
 20
0.0
 30
0.0
  9
$PUCSXDIR
 10
1.0
 20
0.0
 30
0.0
  9
$PUCSYDIR
 10
0.0
 20
1.0
 30
0.0
  9
$PUCSORTHOREF
  2

  9
$PUCSORTHOVIEW
 70
     0
  9
$PUCSORGTOP
 10
0.0
 20
0.0
 30
0.0
  9
$PUCSORGBOTTOM
 10
0.0
 20
0.0
 30
0.0
  9
$PUCSORGLEFT
 10
0.0
 20
0.0
 30
0.0
  9
$PUCSORGRIGHT
 10
0.0
 20
0.0
 30
0.0
  9
$PUCSORGFRONT
 10
0.0
 20
0.0
 30
0.0
  9
$PUCSORGBACK
 10
0.0
 20
0.0
 30
0.0
  9
$USERI1
 70
     0
  9
$USERI2
 70
     0
  9
$USERI3
 70
     0
  9
$USERI4
 70
     0
  9
$USERI5
 70
     0
  9
$USERR1
 40
0.0
  9
$USERR2
 40
0.0
  9
$USERR3
 40
0.0
  9
$USERR4
 40
0.0
  9
$USERR5
 40
0.0
  9
$WORLDVIEW
 70
     1
  9
$SHADEDGE
 70
     3
  9
$SHADEDIF
 70
    70
  9
$TILEMODE
 70
     1
  9
$MAXACTVP
 70
    64
  9
$PINSBASE
 10
0.0
 20
0.0
 30
0.0
  9
$PLIMCHECK
 70
     0
  9
$PEXTMIN
 10
0.0
 20
0.0
 30
0.0
  9
$PEXTMAX
 10
1682.0
 20
2378.0
 30
0.0
  9
$PLIMMIN
 10
0.0
 20
0.0
  9
$PLIMMAX
 10
1682.0
 20
2378.0
  9
$UNITMODE
 70
     0
  9
$VISRETAIN
 70
     1
  9
$PLINEGEN
 70
     0
  9
$PSLTSCALE
 70
     1
  9
$TREEDEPTH
 70
  3020
  9
$CMLSTYLE
  2
Standard
  9
$CMLJUST
 70
     0
  9
$CMLSCALE
 40
20.0
  9
$PROXYGRAPHICS
 70
     1
  9
$MEASUREMENT
 70
     1
  9
$CELWEIGHT
370
    -1
  9
$ENDCAPS
280
     0
  9
$JOINSTYLE
280
     0
  9
$LWDISPLAY
290
     0
  9
$INSUNITS
 70
     4
  9
$HYPERLINKBASE
  1

  9
$STYLESHEET
  1

  9
$XEDIT
290
     1
  9
$CEPSNTYPE
380
     0
  9
$PSTYLEMODE
290
     1
  9
$FINGERPRINTGUID
  2
{5EC67CA7-1DA3-42FD-8537-3D3D8E7BF46C}
  9
$VERSIONGUID
  2
{FAEB1C32-E019-11D5-929B-00C0DF256EC4}
  9
$EXTNAMES
290
     1
  9
$PSVPSCALE
 40
0.0
  9
$OLESTARTUP
290
     0
  0
ENDSEC
  0
SECTION
  2
CLASSES
  0
CLASS
  1
ACDBDICTIONARYWDFLT
  2
AcDbDictionaryWithDefault
  3
ObjectDBX Classes
 90
        0
280
     0
281
     0
  0
CLASS
  1
VISUALSTYLE
  2
AcDbVisualStyle
  3
ObjectDBX Classes
 90
     4095
280
     0
281
     0
  0
CLASS
  1
SCALE
  2
AcDbScale
  3
ObjectDBX Classes
 90
     1153
280
     0
281
     0
  0
CLASS
  1
DICTIONARYVAR
  2
AcDbDictionaryVar
  3
ObjectDBX Classes
 90
        0
280
     0
281
     0
  0
CLASS
  1
ACDBPLACEHOLDER
  2
AcDbPlaceHolder
  3
ObjectDBX Classes
 90
        0
280
     0
281
     0
  0
CLASS
  1
LAYOUT
  2
AcDbLayout
  3
ObjectDBX Classes
 90
        0
280
     0
281
     0
  0
ENDSEC
  0
SECTION
  2
TABLES
  0
TABLE
  2
VPORT
  5
8
330
0
100
AcDbSymbolTable
 70
     1
  0
VPORT
  5
29
330
8
100
AcDbSymbolTableRecord
100
AcDbViewportTableRecord
  2
*Active
 70
     0
 10
0.0
 20
0.0
 11
1.0
 21
1.0
 12
344.1869158879
 22
148.5
 13
0.0
 23
0.0
 14
10.0
 24
10.0
 15
10.0
 25
10.0
 16
0.0
 26
0.0
 36
1.0
 17
0.0
 27
0.0
 37
0.0
 40
297.0
 41
1.9729729729
 42
50.0
 43
0.0
 44
0.0
 50
0.0
 51
0.0
 71
     0
 72
   100
 73
     1
 74
     3
 75
     0
 76
     0
 77
     0
 78
     0
281
     0
 65
     1
110
0.0
120
0.0
130
0.0
111
1.0
121
0.0
131
0.0
112
0.0
122
1.0
132
0.0
 79
     0
146
0.0
  0
ENDTAB
  0
TABLE
  2
LTYPE
  5
5
330
0
100
AcDbSymbolTable
 70
     1
  0
LTYPE
  5
14
330
5
100
AcDbSymbolTableRecord
100
AcDbLinetypeTableRecord
  2
ByBlock
 70
     0
  3

 72
    65
 73
     0
 40
0.0
  0
LTYPE
  5
15
330
5
100
AcDbSymbolTableRecord
100
AcDbLinetypeTableRecord
  2
ByLayer
 70
     0
  3

 72
    65
 73
     0
 40
0.0
  0
LTYPE
  5
16
330
5
100
AcDbSymbolTableRecord
100
AcDbLinetypeTableRecord
  2
Continuous
 70
     0
  3
Solid line
 72
    65
 73
     0
 40
0.0
  0
ENDTAB
  0
TABLE
  2
LAYER
  5
2
330
0
100
AcDbSymbolTable
 70
    15
  0
LAYER
  5
10
330
2
100
AcDbSymbolTableRecord
100
AcDbLayerTableRecord
  2
0
 70
     0
 62
     7
  6
Continuous
370
    -3
390
F
  0
LAYER
  5
5D
330
2
100
AcDbSymbolTableRecord
100
AcDbLayerTableRecord
  2
Default
 70
     0
 62
     7
  6
Continuous
370
    -3
390
F
  0
LAYER
  5
60
330
2
100
AcDbSymbolTableRecord
100
AcDbLayerTableRecord
  2
$DDT_AUDIT_GENERATED_(60)
 70
     0
 62
     7
  6
Continuous
370
    -3
390
F
  0
LAYER
  5
75
330
2
100
AcDbSymbolTableRecord
100
AcDbLayerTableRecord
  2
$DDT_AUDIT_GENERATED_(75)
 70
     0
 62
     7
  6
Continuous
370
    -3
390
F
  0
LAYER
  5
77
330
2
100
AcDbSymbolTableRecord
100
AcDbLayerTableRecord
  2
$DDT_AUDIT_GENERATED_(77)
 70
     0
 62
     7
  6
Continuous
370
    -3
390
F
  0
LAYER
  5
89
330
2
100
AcDbSymbolTableRecord
100
AcDbLayerTableRecord
  2
02636038_GEHÄUSE
 70
     0
 62
     7
  6
Continuous
370
    -3
390
F
  0
LAYER
  5
99
330
2
100
AcDbSymbolTableRecord
100
AcDbLayerTableRecord
  2
$DDT_AUDIT_GENERATED_(99)
 70
     0
 62
     7
  6
Continuous
370
    -3
390
F
  0
LAYER
  5
9E
330
2
100
AcDbSymbolTableRecord
100
AcDbLayerTableRecord
  2
$DDT_AUDIT_GENERATED_(9E)
 70
     0
 62
     7
  6
Continuous
370
    -3
390
F
  0
LAYER
  5
A1
330
2
100
AcDbSymbolTableRecord
100
AcDbLayerTableRecord
  2
08664131_STOPFEN
 70
     0
 62
     7
  6
Continuous
370
    -3
390
F
  0
LAYER
  5
A5
330
2
100
AcDbSymbolTableRecord
100
AcDbLayerTableRecord
  2
$DDT_AUDIT_GENERATED_(A5)
 70
     0
 62
     7
  6
Continuous
370
    -3
390
F
  0
LAYER
  5
A8
330
2
100
AcDbSymbolTableRecord
100
AcDbLayerTableRecord
  2
$DDT_AUDIT_GENERATED_(A8)
 70
     0
 62
     7
  6
Continuous
370
    -3
390
F
  0
LAYER
  5
CD
330
2
100
AcDbSymbolTableRecord
100
AcDbLayerTableRecord
  2
$DDT_AUDIT_GENERATED_(CD)
 70
     0
 62
     7
  6
Continuous
370
    -3
390
F
  0
LAYER
  5
E0
330
2
100
AcDbSymbolTableRecord
100
AcDbLayerTableRecord
  2
$DDT_AUDIT_GENERATED_(E0)
 70
     0
 62
     7
  6
Continuous
370
    -3
390
F
  0
LAYER
  5
E8
330
2
100
AcDbSymbolTableRecord
100
AcDbLayerTableRecord
  2
64927031_SCHABL_
 70
     0
 62
     7
  6
Continuous
370
    -3
390
F
  0
LAYER
  5
10E
330
2
100
AcDbSymbolTableRecord
100
AcDbLayerTableRecord
  2
$DDT_AUDIT_GENERATED_(10E)
 70
     0
 62
     7
  6
Continuous
370
    -3
390
F
  0
ENDTAB
  0
TABLE
  2
STYLE
  5
3
330
0
100
AcDbSymbolTable
 70
     2
  0
STYLE
  5
11
330
3
100
AcDbSymbolTableRecord
100
AcDbTextStyleTableRecord
  2
Standard
 70
     0
 40
0.0
 41
1.0
 50
0.0
 71
     0
 42
2.5
  3
txt
  4

  0
STYLE
  5
151
330
3
100
AcDbSymbolTableRecord
100
AcDbTextStyleTableRecord
  2
SEACAD_seiso_ttf
 70
     0
 40
0.0
 41
1.0
 50
0.0
 71
     0
 42
0.2
  3
seiso.ttf
  4

  0
ENDTAB
  0
TABLE
  2
VIEW
  5
6
330
0
100
AcDbSymbolTable
 70
     0
  0
ENDTAB
  0
TABLE
  2
UCS
  5
7
330
0
100
AcDbSymbolTable
 70
     0
  0
ENDTAB
  0
TABLE
  2
APPID
  5
9
330
0
100
AcDbSymbolTable
 70
     1
  0
APPID
  5
12
330
9
100
AcDbSymbolTableRecord
100
AcDbRegAppTableRecord
  2
ACAD
 70
     0
  0
ENDTAB
  0
TABLE
  2
DIMSTYLE
  5
A
330
0
100
AcDbSymbolTable
 70
     1
100
AcDbDimStyleTable
  0
DIMSTYLE
105
27
330
A
100
AcDbSymbolTableRecord
100
AcDbDimStyleTableRecord
  2
ISO-25
 70
     0
 41
2.5
 42
0.625
 43
3.75
 44
1.25
 73
     0
 74
     0
 77
     1
 78
     8
140
2.5
141
2.5
143
0.0393700787
147
0.625
171
     3
172
     1
271
     2
272
     2
274
     3
278
    44
283
     0
284
     8
340
11
  0
ENDTAB
  0
TABLE
  2
BLOCK_RECORD
  5
1
330
0
100
AcDbSymbolTable
 70
     4
  0
BLOCK_RECORD
  5
1F
330
1
100
AcDbSymbolTableRecord
100
AcDbBlockTableRecord
  2
*Model_Space
340
22
  0
BLOCK_RECORD
  5
1B
330
1
100
AcDbSymbolTableRecord
100
AcDbBlockTableRecord
  2
*Paper_Space
340
1E
  0
BLOCK_RECORD
  5
5E
330
1
100
AcDbSymbolTableRecord
100
AcDbBlockTableRecord
  2
SE
340
0
102
{BLKREFS
331
5F
102
}
  0
BLOCK_RECORD
  5
BD
330
1
100
AcDbSymbolTableRecord
100
AcDbBlockTableRecord
  2
SE1
340
0
102
{BLKREFS
331
BE
102
}
  0
BLOCK_RECORD
  5
113
330
1
100
AcDbSymbolTableRecord
100
AcDbBlockTableRecord
  2
SE2
340
0
102
{BLKREFS
331
114
102
}
  0
ENDTAB
  0
ENDSEC
  0
SECTION
  2
BLOCKS
  0
BLOCK
  5
20
330
1F
100
AcDbEntity
  8
0
100
AcDbBlockBegin
  2
*Model_Space
 70
     0
 10
0.0
 20
0.0
 30
0.0
  3
*Model_Space
  1

  0
ENDBLK
  5
21
330
1F
100
AcDbEntity
  8
0
100
AcDbBlockEnd
  0
BLOCK
  5
1C
330
1B
100
AcDbEntity
 67
     1
  8
0
100
AcDbBlockBegin
  2
*Paper_Space
 70
     0
 10
0.0
 20
0.0
 30
0.0
  3
*Paper_Space
  1

  0
ENDBLK
  5
1D
330
1B
100
AcDbEntity
 67
     1
  8
0
100
AcDbBlockEnd
  0
BLOCK
  5
BB
330
5E
100
AcDbEntity
  8
0
100
AcDbBlockBegin
  2
SE
 70
     0
 10
0.0
 20
0.0
 30
0.0
  3
SE
  1

  0
SPLINE
  5
61
330
5E
100
AcDbEntity
  8
$DDT_AUDIT_GENERATED_(60)
  6
Continuous
 62
     7
100
AcDbSpline
210
0.0
220
0.0
230
1.0
 70
     8
 71
     3
 72
     9
 73
     5
 74
     0
 42
0.0000000026351968
 43
0.0000000001
 40
0.0
 40
0.0
 40
0.0
 40
0.0
 40
0.4510456347673626
 40
1.0
 40
1.0
 40
1.0
 40
1.0
 10
25.09664488474561
 20
441.146156868497
 30
0.0
 10
25.54141122176802
 20
440.7884548815788
 30
0.0
 10
26.55568495800738
 20
440.029921092863
 30
0.0
 10
27.62351791115385
 20
439.3537165206518
 30
0.0
 10
28.2248326563969
 20
439.0081237762237
 30
0.0
  0
SPLINE
  5
62
330
5E
100
AcDbEntity
  8
$DDT_AUDIT_GENERATED_(60)
  6
Continuous
 62
     7
100
AcDbSpline
210
0.0
220
0.0
230
1.0
 70
     8
 71
     3
 72
    28
 73
    24
 74
     0
 42
0.0000000003306549
 43
0.0000000001
 40
0.0
 40
0.0
 40
0.0
 40
0.0
 40
0.0210972564602719
 40
0.0419355208054517
 40
0.0625594062274809
 40
0.0941285515174926
 40
0.1251057432735421
 40
0.1875892512190946
 40
0.2500726077634013
 40
0.312555347921057
 40
0.3750391511698405
 40
0.4375218410440442
 40
0.5000056355471866
 40
0.5624890699886758
 40
0.6249722202720549
 40
0.687455454247704
 40
0.7499390907191043
 40
0.8124220090325484
 40
0.8749053687809605
 40
0.9058667540132078
 40
0.9374522602433943
 40
0.9684246907809951
 40
1.0
 40
1.0
 40
1.0
 40
1.0
 10
55.47146039165181
 20
441.146260815597
 30
0.0
 10
55.42584938174945
 20
441.145973958361
 30
0.0
 10
55.33476048249373
 20
441.1459388794402
 30
0.0
 10
55.13038789204305
 20
441.1462321837789
 30
0.0
 10
54.83445122598997
 20
441.1463810903882
 30
0.0
 10
54.40884750426432
 20
441.1465193131633
 30
0.0
 10
53.61794684499592
 20
441.1460836946824
 30
0.0
 10
52.35866077729448
 20
441.1459652335615
 30
0.0
 10
50.45847182507173
 20
441.1463025036614
 30
0.0
 10
48.23140146967678
 20
441.1462585244345
 30
0.0
 10
45.74993344349355
 20
441.1460168156261
 30
0.0
 10
43.09434012299263
 20
441.146333409372
 30
0.0
 10
40.35000251526859
 20
441.1462294251101
 30
0.0
 10
37.60575824847945
 20
441.1460516678624
 30
0.0
 10
34.94995828571488
 20
441.146343454958
 30
0.0
 10
32.46866280480937
 20
441.1461419831925
 30
0.0
 10
30.24172797937764
 20
441.1461163159722
 30
0.0
 10
28.34100032590296
 20
441.1462325125495
 30
0.0
 10
27.08240237953409
 20
441.1461403461707
 30
0.0
 10
26.29097256343307
 20
441.1463536809257
 30
0.0
 10
25.81453030397449
 20
441.1463170053697
 30
0.0
 10
25.44457537320512
 20
441.146001638771
 30
0.0
 10
25.30082851604359
 20
441.1460284087433
 30
0.0
 10
25.22844712451511
 20
441.1462736213715
 30
0.0
  0
LINE
  5
63
330
5E
100
AcDbEntity
  8
$DDT_AUDIT_GENERATED_(60)
  6
Continuous
 62
     7
100
AcDbLine
 10
56.3500005209
 20
442.7046779873
 30
0.0
 11
56.3500005209
 21
442.7046889575
 31
0.0
  0
ARC
  5
64
330
5E
100
AcDbEntity
  8
$DDT_AUDIT_GENERATED_(60)
  6
Continuous
 62
     7
100
AcDbCircle
 10
54.3503184095
 20
442.7045624841
 30
0.0
 40
1.999682114724839
100
AcDbArc
 50
308.8010038216
 51
339.9986880954
  0
ELLIPSE
  5
65
330
5E
100
AcDbEntity
  8
$DDT_AUDIT_GENERATED_(60)
  6
Continuous
 62
     7
100
AcDbEllipse
 10
26.3501286126
 20
442.7047016091
 30
0.0
 11
-1.998569975548477
 21
0.07893662209713373
 31
0.0
210
0.0
220
0.0
230
0.9999999999999999
 40
0.9999555045
 41
0.0394742782118152
 42
0.9329572102668042
  0
LINE
  5
66
330
5E
100
AcDbEntity
  8
$DDT_AUDIT_GENERATED_(60)
  6
Continuous
 62
     7
100
AcDbLine
 10
24.8500005209
 20
454.7717182461
 30
0.0
 11
24.9719801092
 21
454.7717182461
 31
0.0
  0
LINE
  5
67
330
5E
100
AcDbEntity
  8
$DDT_AUDIT_GENERATED_(60)
  6
Continuous
 62
     7
100
AcDbLine
 10
24.9719801092
 20
454.7717182461
 30
0.0
 11
55.7279848961
 21
454.7717182461
 31
0.0
  0
LINE
  5
68
330
5E
100
AcDbEntity
  8
$DDT_AUDIT_GENERATED_(60)
  6
Continuous
 62
     7
100
AcDbLine
 10
55.7279848961
 20
454.7717182461
 30
0.0
 11
55.8500005209
 21
454.7717182461
 31
0.0
  0
SPLINE
  5
69
330
5E
100
AcDbEntity
  8
$DDT_AUDIT_GENERATED_(60)
  6
Continuous
 62
     7
100
AcDbSpline
210
0.0
220
0.0
230
1.0
 70
     8
 71
     3
 72
     9
 73
     5
 74
     0
 42
0.0000000026351905
 43
0.0000000001
 40
0.0
 40
0.0
 40
0.0
 40
0.0
 40
0.5482108134326144
 40
1.0
 40
1.0
 40
1.0
 40
1.0
 10
52.47516686817122
 20
439.0081386207249
 30
0.0
 10
53.07516660691905
 20
439.3529943994156
 30
0.0
 10
54.14376467920276
 20
440.0292943521878
 30
0.0
 10
55.15794679775451
 20
440.7878181689851
 30
0.0
 10
55.60335414759571
 20
441.1461562472431
 30
0.0
  0
ARC
  5
6A
330
5E
100
AcDbEntity
  8
$DDT_AUDIT_GENERATED_(60)
  6
Continuous
 62
     7
100
AcDbCircle
 10
40.3515096229
 20
460.1034784181
 30
0.0
 40
24.33254778060419
100
AcDbArc
 50
239.7675783174
 51
240.9191971709
  0
ARC
  5
6B
330
5E
100
AcDbEntity
  8
$DDT_AUDIT_GENERATED_(60)
  6
Continuous
 62
     7
100
AcDbCircle
 10
40.3515096229
 20
460.1034784181
 30
0.0
 40
24.33254778060419
100
AcDbArc
 50
299.0664201228
 51
299.94338413
  0
ARC
  5
6C
330
5E
100
AcDbEntity
  8
$DDT_AUDIT_GENERATED_(60)
  6
Continuous
 62
     7
100
AcDbCircle
 10
40.3515096229
 20
460.1034784181
 30
0.0
 40
24.33254778060419
100
AcDbArc
 50
299.9938156527
 51
300.2194305913
  0
ARC
  5
6D
330
5E
100
AcDbEntity
  8
$DDT_AUDIT_GENERATED_(60)
  6
Continuous
 62
     7
100
AcDbCircle
 10
50.1524947035
 20
443.3501834664
 30
0.0
 40
4.9242420154104
100
AcDbArc
 50
288.3936444635
 51
298.1434794324
  0
ARC
  5
6E
330
5E
100
AcDbEntity
  8
$DDT_AUDIT_GENERATED_(60)
  6
Continuous
 62
     7
100
AcDbCircle
 10
40.3499276366
 20
519.6255895279
 30
0.0
 40
81.7407976748254
100
AcDbArc
 50
262.0140726449
 51
277.986028122
  0
ARC
  5
6F
330
5E
100
AcDbEntity
  8
$DDT_AUDIT_GENERATED_(60)
  6
Continuous
 62
     7
100
AcDbCircle
 10
30.5479872141
 20
443.3512090598
 30
0.0
 40
4.925386977680673
100
AcDbArc
 50
241.857281298
 51
251.604847737
  0
LINE
  5
70
330
5E
100
AcDbEntity
  8
$DDT_AUDIT_GENERATED_(60)
  6
Continuous
 62
     7
100
AcDbLine
 10
56.3500005209
 20
442.7046855485
 30
0.0
 11
56.3500005209
 21
454.2717182461
 31
0.0
  0
LINE
  5
71
330
5E
100
AcDbEntity
  8
$DDT_AUDIT_GENERATED_(60)
  6
Continuous
 62
     7
100
AcDbLine
 10
24.3500005209
 20
454.2717182461
 30
0.0
 11
24.3500005209
 21
442.7047093322
 31
0.0
  0
LINE
  5
72
330
5E
100
AcDbEntity
  8
$DDT_AUDIT_GENERATED_(60)
  6
Continuous
 62
     7
100
AcDbLine
 10
56.229412367
 20
442.0207373394
 30
0.0
 11
56.2294970907
 21
442.0209702003
 31
0.0
  0
SPLINE
  5
73
330
5E
100
AcDbEntity
  8
$DDT_AUDIT_GENERATED_(60)
  6
Continuous
 62
     7
100
AcDbSpline
210
0.0
220
0.0
230
1.0
 70
     8
 71
     3
 72
    13
 73
     9
 74
     0
 42
0.0000000126476626
 43
0.0000000001
 40
0.0
 40
0.0
 40
0.0
 40
0.0
 40
0.239456844299491
 40
0.3683606601314442
 40
0.4999999999021909
 40
0.6316393396872386
 40
0.7605431555603419
 40
1.0
 40
1.0
 40
1.0
 40
1.0
 10
56.35000052092311
 20
454.2717182452105
 30
0.0
 10
56.34353576268984
 20
454.3401141028089
 30
0.0
 10
56.33298469967879
 20
454.4300362737502
 30
0.0
 10
56.27072755430316
 20
454.5480518320501
 30
0.0
 10
56.20609182176843
 20
454.627809546211
 30
0.0
 10
56.12633410773541
 20
454.6924452789208
 30
0.0
 10
56.0083185495176
 20
454.7547024245653
 30
0.0
 10
55.91839637854947
 20
454.7652534877508
 30
0.0
 10
55.8500005209231
 20
454.7717182461155
 30
0.0
  0
SPLINE
  5
74
330
5E
100
AcDbEntity
  8
$DDT_AUDIT_GENERATED_(60)
  6
Continuous
 62
     7
100
AcDbSpline
210
0.0
220
0.0
230
1.0
 70
     8
 71
     3
 72
    13
 73
     9
 74
     0
 42
0.0000000126476626
 43
0.0000000001
 40
0.0
 40
0.0
 40
0.0
 40
0.0
 40
0.2394568444396536
 40
0.368360660312755
 40
0.5000000000978033
 40
0.63163933986855
 40
0.760543155700509
 40
1.0
 40
1.0
 40
1.0
 40
1.0
 10
24.85000052092311
 20
454.7717182461155
 30
0.0
 10
24.78160466329674
 20
454.7652534877508
 30
0.0
 10
24.6916824923286
 20
454.7547024245653
 30
0.0
 10
24.5736669341108
 20
454.6924452789208
 30
0.0
 10
24.49390922007778
 20
454.627809546211
 30
0.0
 10
24.42927348754304
 20
454.5480518320501
 30
0.0
 10
24.36701634216742
 20
454.4300362737502
 30
0.0
 10
24.35646527915636
 20
454.3401141028089
 30
0.0
 10
24.35000052092311
 20
454.2717182452105
 30
0.0
  0
CIRCLE
  5
76
330
5E
100
AcDbEntity
  8
$DDT_AUDIT_GENERATED_(75)
  6
Continuous
 62
     7
100
AcDbCircle
 10
40.35
 20
445.2717182457
 30
0.0
 40
23.0
  0
CIRCLE
  5
78
330
5E
100
AcDbEntity
  8
$DDT_AUDIT_GENERATED_(77)
  6
Continuous
 62
     7
100
AcDbCircle
 10
40.35
 20
445.2717182457
 30
0.0
 40
23.1
  0
ARC
  5
79
330
5E
100
AcDbEntity
  8
$DDT_AUDIT_GENERATED_(77)
  6
Continuous
 62
     7
100
AcDbCircle
 10
9.9411325539
 20
476.6717182457
 30
0.0
 40
1.59999999999999
100
AcDbArc
 50
90.0
 51
180.0
  0
LINE
  5
7A
330
5E
100
AcDbEntity
  8
$DDT_AUDIT_GENERATED_(77)
  6
Continuous
 62
     7
100
AcDbLine
 10
8.3411325539
 20
413.8717182457
 30
0.0
 11
8.3411325539
 21
433.8073209733
 31
0.0
  0
LINE
  5
7B
330
5E
100
AcDbEntity
  8
$DDT_AUDIT_GENERATED_(77)
  6
Continuous
 62
     7
100
AcDbLine
 10
8.3411325539
 20
456.736115518
 30
0.0
 11
8.3411325539
 21
476.6717182457
 31
0.0
  0
ARC
  5
7C
330
5E
100
AcDbEntity
  8
$DDT_AUDIT_GENERATED_(77)
  6
Continuous
 62
     7
100
AcDbCircle
 10
9.9411325539
 20
413.8717182457
 30
0.0
 40
1.600000000000004
100
AcDbArc
 50
180.0
 51
270.0
  0
LINE
  5
7D
330
5E
100
AcDbEntity
  8
$DDT_AUDIT_GENERATED_(77)
  6
Continuous
 62
     7
100
AcDbLine
 10
182.7411325539
 20
412.2717182457
 30
0.0
 11
168.9659439151
 21
412.2717182457
 31
0.0
  0
LINE
  5
7E
330
5E
100
AcDbEntity
  8
$DDT_AUDIT_GENERATED_(77)
  6
Continuous
 62
     7
100
AcDbLine
 10
131.7340561457
 20
412.2717182457
 30
0.0
 11
48.5353527719
 21
412.2717182457
 31
0.0
  0
LINE
  5
7F
330
5E
100
AcDbEntity
  8
$DDT_AUDIT_GENERATED_(77)
  6
Continuous
 62
     7
100
AcDbLine
 10
32.1646472281
 20
412.2717182457
 30
0.0
 11
9.9411325539
 21
412.2717182457
 31
0.0
  0
ARC
  5
80
330
5E
100
AcDbEntity
  8
$DDT_AUDIT_GENERATED_(77)
  6
Continuous
 62
     7
100
AcDbCircle
 10
182.7411325539
 20
413.8717182457
 30
0.0
 40
1.59999999999999
100
AcDbArc
 50
270.0
 51
0.0
  0
LINE
  5
81
330
5E
100
AcDbEntity
  8
$DDT_AUDIT_GENERATED_(77)
  6
Continuous
 62
     7
100
AcDbLine
 10
184.3411325539
 20
476.6717182457
 30
0.0
 11
184.3411325539
 21
446.0481895608
 31
0.0
  0
LINE
  5
82
330
5E
100
AcDbEntity
  8
$DDT_AUDIT_GENERATED_(77)
  6
Continuous
 62
     7
100
AcDbLine
 10
184.3411325539
 20
444.4952469305
 30
0.0
 11
184.3411325539
 21
413.8717182457
 31
0.0
  0
ARC
  5
83
330
5E
100
AcDbEntity
  8
$DDT_AUDIT_GENERATED_(77)
  6
Continuous
 62
     7
100
AcDbCircle
 10
182.7411325539
 20
476.6717182457
 30
0.0
 40
1.600000000000004
100
AcDbArc
 50
0.0
 51
90.0
  0
LINE
  5
84
330
5E
100
AcDbEntity
  8
$DDT_AUDIT_GENERATED_(77)
  6
Continuous
 62
     7
100
AcDbLine
 10
9.9411325539
 20
478.2717182457
 30
0.0
 11
32.1646472281
 21
478.2717182457
 31
0.0
  0
LINE
  5
85
330
5E
100
AcDbEntity
  8
$DDT_AUDIT_GENERATED_(77)
  6
Continuous
 62
     7
100
AcDbLine
 10
48.5353527719
 20
478.2717182457
 30
0.0
 11
142.1646472281
 21
478.2717182457
 31
0.0
  0
LINE
  5
86
330
5E
100
AcDbEntity
  8
$DDT_AUDIT_GENERATED_(77)
  6
Continuous
 62
     7
100
AcDbLine
 10
158.5353527719
 20
478.2717182457
 30
0.0
 11
182.7411325539
 21
478.2717182457
 31
0.0
  0
ARC
  5
87
330
5E
100
AcDbEntity
  8
$DDT_AUDIT_GENERATED_(77)
  6
Continuous
 62
     7
100
AcDbCircle
 10
150.35
 20
445.2717182457
 30
0.0
 40
23.15
100
AcDbArc
 50
323.7277470047
 51
360.0
  0
ARC
  5
88
330
5E
100
AcDbEntity
  8
$DDT_AUDIT_GENERATED_(77)
  6
Continuous
 62
     7
100
AcDbCircle
 10
150.35
 20
445.2717182457
 30
0.0
 40
23.15
100
AcDbArc
 50
0.0
 51
216.2705251349
  0
ELLIPSE
  5
8A
330
5E
100
AcDbEntity
  8
02636038_GEHÄUSE
  6
Continuous
 62
     7
100
AcDbEllipse
 10
40.35
 20
432.294698682
 30
0.0
 11
10.75000000000001
 21
0.0
 31
0.0
210
0.0
220
0.0
230
1.0
 40
0.2249510543
 41
0.0
 42
6.283185307179586
  0
LINE
  5
8B
330
5E
100
AcDbEntity
  8
02636038_GEHÄUSE
  6
Continuous
 62
     7
100
AcDbLine
 10
29.35
 20
433.1859394065
 30
0.0
 11
29.35
 21
432.0222660587
 31
0.0
  0
ELLIPSE
  5
8C
330
5E
100
AcDbEntity
  8
02636038_GEHÄUSE
  6
Continuous
 62
     7
100
AcDbEllipse
 10
40.35
 20
435.2178088764
 30
0.0
 11
11.7999999999994
 21
3.469446951953614E-15
 31
0.0
210
0.0
220
0.0
230
1.0
 40
0.2249510543
 41
2.771250021498068
 42
3.511935285681518
  0
LINE
  5
8D
330
5E
100
AcDbEntity
  8
02636038_GEHÄUSE
  6
Continuous
 62
     7
100
AcDbLine
 10
29.35
 20
436.1785368804
 30
0.0
 11
29.35
 21
434.4086599654
 31
0.0
  0
LINE
  5
8E
330
5E
100
AcDbEntity
  8
02636038_GEHÄUSE
  6
Continuous
 62
     7
100
AcDbLine
 10
29.35
 20
434.4086599654
 30
0.0
 11
29.35
 21
433.1859394065
 31
0.0
  0
LINE
  5
8F
330
5E
100
AcDbEntity
  8
02636038_GEHÄUSE
  6
Continuous
 62
     7
100
AcDbLine
 10
51.35
 20
432.0222660587
 30
0.0
 11
51.35
 21
433.1859394065
 31
0.0
  0
ELLIPSE
  5
90
330
5E
100
AcDbEntity
  8
02636038_GEHÄUSE
  6
Continuous
 62
     7
100
AcDbEllipse
 10
40.35
 20
435.2178088764
 30
0.0
 11
-11.79999999999963
 21
3.469446951953615E-15
 31
0.0
210
0.0
220
0.0
230
1.0
 40
0.2249510543
 41
2.771250021498073
 42
3.511935285681515
  0
LINE
  5
91
330
5E
100
AcDbEntity
  8
02636038_GEHÄUSE
  6
Continuous
 62
     7
100
AcDbLine
 10
51.35
 20
433.1859394065
 30
0.0
 11
51.35
 21
434.4086599654
 31
0.0
  0
LINE
  5
92
330
5E
100
AcDbEntity
  8
02636038_GEHÄUSE
  6
Continuous
 62
     7
100
AcDbLine
 10
51.35
 20
434.4086599654
 30
0.0
 11
51.35
 21
436.1785368804
 31
0.0
  0
LINE
  5
93
330
5E
100
AcDbEntity
  8
02636038_GEHÄUSE
  6
Continuous
 62
     7
100
AcDbLine
 10
29.9927647323
 20
431.5876405998
 30
0.0
 11
30.4968779533
 21
431.3277103699
 31
0.0
  0
LINE
  5
94
330
5E
100
AcDbEntity
  8
02636038_GEHÄUSE
  6
Continuous
 62
     7
100
AcDbLine
 10
50.2031220467
 20
431.3277103699
 30
0.0
 11
50.7072352677
 21
431.5876405998
 31
0.0
  0
ARC
  5
95
330
5E
100
AcDbEntity
  8
02636038_GEHÄUSE
  6
Continuous
 62
     7
100
AcDbCircle
 10
49.4155217592
 20
434.2987372992
 30
0.0
 40
3.001129825171177
100
AcDbArc
 50
294.9663094597
 51
310.0560367884
  0
ARC
  5
96
330
5E
100
AcDbEntity
  8
02636038_GEHÄUSE
  6
Continuous
 62
     7
100
AcDbCircle
 10
31.5811769527
 20
434.7824638031
 30
0.0
 40
3.567441434264532
100
AcDbArc
 50
231.3094592253
 51
243.3144712317
  0
LINE
  5
97
330
5E
100
AcDbEntity
  8
02636038_GEHÄUSE
  6
Continuous
 62
     7
100
AcDbLine
 10
28.55
 20
438.8505851723
 30
0.0
 11
28.55
 21
435.2178088764
 31
0.0
  0
LINE
  5
98
330
5E
100
AcDbEntity
  8
02636038_GEHÄUSE
  6
Continuous
 62
     7
100
AcDbLine
 10
52.15
 20
435.2178088764
 30
0.0
 11
52.15
 21
438.8505167693
 31
0.0
  0
ARC
  5
9A
330
5E
100
AcDbEntity
  8
$DDT_AUDIT_GENERATED_(99)
  6
Continuous
 62
     7
100
AcDbCircle
 10
150.35
 20
445.2717182457
 30
0.0
 40
33.5
100
AcDbArc
 50
0.0
 51
236.2410700575
  0
ARC
  5
9B
330
5E
100
AcDbEntity
  8
$DDT_AUDIT_GENERATED_(99)
  6
Continuous
 62
     7
100
AcDbCircle
 10
150.35
 20
445.2717182457
 30
0.0
 40
33.5
100
AcDbArc
 50
303.7589300676
 51
0.0
  0
ARC
  5
9C
330
5E
100
AcDbEntity
  8
$DDT_AUDIT_GENERATED_(99)
  6
Continuous
 62
     7
100
AcDbCircle
 10
150.35
 20
445.2717182457
 30
0.0
 40
23.15
100
AcDbArc
 50
323.7277470047
 51
0.0
  0
ARC
  5
9D
330
5E
100
AcDbEntity
  8
$DDT_AUDIT_GENERATED_(99)
  6
Continuous
 62
     7
100
AcDbCircle
 10
150.35
 20
445.2717182457
 30
0.0
 40
23.15
100
AcDbArc
 50
0.0
 51
216.3150176906
  0
ARC
  5
9F
330
5E
100
AcDbEntity
  8
$DDT_AUDIT_GENERATED_(9E)
  6
Continuous
 62
     7
100
AcDbCircle
 10
150.35
 20
445.2717182457
 30
0.0
 40
23.09984335770181
100
AcDbArc
 50
323.7945263198
 51
360.0
  0
ARC
  5
A0
330
5E
100
AcDbEntity
  8
$DDT_AUDIT_GENERATED_(9E)
  6
Continuous
 62
     7
100
AcDbCircle
 10
150.35
 20
445.2717182457
 30
0.0
 40
23.09984335770181
100
AcDbArc
 50
0.0
 51
216.2729768683
  0
ARC
  5
A2
330
5E
100
AcDbEntity
  8
08664131_STOPFEN
  6
Continuous
 62
     7
100
AcDbCircle
 10
40.35
 20
445.2717182457
 30
0.0
 40
17.5
100
AcDbArc
 50
0.0
 51
23.764673751
  0
ARC
  5
A3
330
5E
100
AcDbEntity
  8
08664131_STOPFEN
  6
Continuous
 62
     7
100
AcDbCircle
 10
40.35
 20
445.2717182457
 30
0.0
 40
17.5
100
AcDbArc
 50
32.8998007793
 51
147.0793263722
  0
ARC
  5
A4
330
5E
100
AcDbEntity
  8
08664131_STOPFEN
  6
Continuous
 62
     7
100
AcDbCircle
 10
40.35
 20
445.2717182457
 30
0.0
 40
17.5
100
AcDbArc
 50
156.1976939572
 51
0.0
  0
CIRCLE
  5
A6
330
5E
100
AcDbEntity
  8
$DDT_AUDIT_GENERATED_(A5)
  6
Continuous
 62
     7
100
AcDbCircle
 10
40.35
 20
445.2717182457
 30
0.0
 40
33.5
  0
CIRCLE
  5
A7
330
5E
100
AcDbEntity
  8
$DDT_AUDIT_GENERATED_(A5)
  6
Continuous
 62
     7
100
AcDbCircle
 10
40.35
 20
445.2717182457
 30
0.0
 40
23.09999999999999
  0
SPLINE
  5
A9
330
5E
100
AcDbEntity
  8
$DDT_AUDIT_GENERATED_(A8)
  6
Continuous
 62
     7
100
AcDbSpline
210
0.0
220
0.0
230
1.0
 70
     8
 71
     3
 72
     8
 73
     4
 74
     0
 42
0.0000000004921268
 43
0.0000000001
 40
0.9429071759117501
 40
0.9429071759117501
 40
0.9429071759117501
 40
0.9429071759117501
 40
1.0
 40
1.0
 40
1.0
 40
1.0
 10
131.6698894785781
 20
443.9704244784367
 30
0.0
 10
131.6685019766386
 20
444.3571317785962
 30
0.0
 10
131.6685677322162
 20
444.7438390257566
 30
0.0
 10
131.6686334877936
 20
445.1305462798917
 30
0.0
  0
ARC
  5
AA
330
5E
100
AcDbEntity
  8
$DDT_AUDIT_GENERATED_(A8)
  6
Continuous
 62
     7
100
AcDbCircle
 10
-4170.4428335182
 20
420.0303740964
 30
0.0
 40
4302.184688409871
100
AcDbArc
 50
0.3223820986
 51
0.3342818113
  0
ARC
  5
AB
330
5E
100
AcDbEntity
  8
$DDT_AUDIT_GENERATED_(A8)
  6
Continuous
 62
     7
100
AcDbCircle
 10
150.3493707676
 20
445.1297003516
 30
0.0
 40
18.23472186999139
100
AcDbArc
 50
0.0026581017
 51
89.9980228732
  0
ARC
  5
AC
330
5E
100
AcDbEntity
  8
$DDT_AUDIT_GENERATED_(A8)
  6
Continuous
 62
     7
100
AcDbCircle
 10
150.3088291643
 20
443.1367139791
 30
0.0
 40
22.94910631338717
100
AcDbArc
 50
4.9841758553
 51
89.8971989824
  0
ARC
  5
AD
330
5E
100
AcDbEntity
  8
$DDT_AUDIT_GENERATED_(A8)
  6
Continuous
 62
     7
100
AcDbCircle
 10
150.3503626027
 20
445.1299578158
 30
0.0
 40
18.23446439846078
100
AcDbArc
 50
90.0011393595
 51
179.9981508609
  0
ARC
  5
AE
330
5E
100
AcDbEntity
  8
$DDT_AUDIT_GENERATED_(A8)
  6
Continuous
 62
     7
100
AcDbCircle
 10
150.3913109148
 20
443.1365614079
 30
0.0
 40
22.94925911878027
100
AcDbArc
 50
90.1031260853
 51
175.0154750559
  0
LINE
  5
AF
330
5E
100
AcDbEntity
  8
$DDT_AUDIT_GENERATED_(A8)
  6
Continuous
 62
     7
100
AcDbLine
 10
168.1160915663
 20
445.1305462972
 30
0.0
 11
132.5838951552
 21
445.1305462956
 31
0.0
  0
LINE
  5
B0
330
5E
100
AcDbEntity
  8
$DDT_AUDIT_GENERATED_(A8)
  6
Continuous
 62
     7
100
AcDbLine
 10
150.3500024794
 20
466.0822885706
 30
0.0
 11
150.3500023682
 21
466.0887281363
 31
0.0
  0
ARC
  5
B1
330
5E
100
AcDbEntity
  8
$DDT_AUDIT_GENERATED_(A8)
  6
Continuous
 62
     7
100
AcDbCircle
 10
150.3525336472
 20
375.1125314855
 30
0.0
 40
18.61593362645514
100
AcDbArc
 50
180.0084339188
 51
269.9922027821
  0
ARC
  5
B2
330
5E
100
AcDbEntity
  8
$DDT_AUDIT_GENERATED_(A8)
  6
Continuous
 62
     7
100
AcDbCircle
 10
150.3472918146
 20
375.1127060256
 30
0.0
 40
18.61610682184445
100
AcDbArc
 50
270.0083343303
 51
359.9910289599
  0
LINE
  5
B3
330
5E
100
AcDbEntity
  8
$DDT_AUDIT_GENERATED_(A8)
  6
Continuous
 62
     7
100
AcDbLine
 10
168.9659439151
 20
375.1066661494
 30
0.0
 11
168.9659439151
 21
424.8142130477
 31
0.0
  0
LINE
  5
B4
330
5E
100
AcDbEntity
  8
$DDT_AUDIT_GENERATED_(A8)
  6
Continuous
 62
     7
100
AcDbLine
 10
131.7340561457
 20
424.8142137596
 30
0.0
 11
131.7340561457
 21
375.1066661503
 31
0.0
  0
ARC
  5
B5
330
5E
100
AcDbEntity
  8
$DDT_AUDIT_GENERATED_(A8)
  6
Continuous
 62
     7
100
AcDbCircle
 10
3653.2558795381
 20
422.1497808359
 30
0.0
 40
3484.293497466771
100
AcDbArc
 50
179.6391105367
 51
179.9562374678
  0
ARC
  5
B6
330
5E
100
AcDbEntity
  8
$DDT_AUDIT_GENERATED_(A8)
  6
Continuous
 62
     7
100
AcDbCircle
 10
-2109.4425136947
 20
426.6256541729
 30
0.0
 40
2241.179849840642
100
AcDbArc
 50
359.9536105474
 51
0.4509312882
  0
ARC
  5
B7
330
5E
100
AcDbEntity
  8
$DDT_AUDIT_GENERATED_(A8)
  6
Continuous
 62
     7
100
AcDbCircle
 10
150.222101155
 20
442.6907216271
 30
0.0
 40
23.39208848373877
100
AcDbArc
 50
83.4446717209
 51
89.6867249013
  0
ARC
  5
B8
330
5E
100
AcDbEntity
  8
$DDT_AUDIT_GENERATED_(A8)
  6
Continuous
 62
     7
100
AcDbCircle
 10
150.2674700525
 20
443.1158484148
 30
0.0
 40
22.98214883040403
100
AcDbArc
 50
6.1486301658
 51
60.6285875673
  0
ARC
  5
B9
330
5E
100
AcDbEntity
  8
$DDT_AUDIT_GENERATED_(A8)
  6
Continuous
 62
     7
100
AcDbCircle
 10
150.4393065246
 20
443.1151922526
 30
0.0
 40
22.98895677217902
100
AcDbArc
 50
121.2299607779
 51
174.2110295186
  0
LINE
  5
BA
330
5E
100
AcDbEntity
  8
$DDT_AUDIT_GENERATED_(A8)
  6
Continuous
 62
     7
100
AcDbLine
 10
150.3500085851
 20
466.0824603571
 30
0.0
 11
150.2066423974
 21
466.0771458577
 31
0.0
  0
ENDBLK
  5
BC
330
5E
100
AcDbEntity
  8
0
100
AcDbBlockEnd
  0
BLOCK
  5
111
330
BD
100
AcDbEntity
  8
0
100
AcDbBlockBegin
  2
SE1
 70
     0
 10
0.0
 20
0.0
 30
0.0
  3
SE1
  1

  0
LINE
  5
BF
330
BD
100
AcDbEntity
  8
$DDT_AUDIT_GENERATED_(60)
  6
Continuous
 62
     7
100
AcDbLine
 10
257.1987848675
 20
442.7047134908
 30
0.0
 11
410.1962019279
 21
442.7047086281
 31
0.0
  0
ARC
  5
C0
330
BD
100
AcDbEntity
  8
$DDT_AUDIT_GENERATED_(60)
  6
Continuous
 62
     7
100
AcDbCircle
 10
411.6948852019
 20
-73.0493201345
 30
0.0
 40
515.7562062024492
100
AcDbArc
 50
89.8332171476
 51
90.1664901871
  0
SPLINE
  5
C1
330
BD
100
AcDbEntity
  8
$DDT_AUDIT_GENERATED_(60)
  6
Continuous
 62
     7
100
AcDbSpline
210
0.0
220
0.0
230
1.0
 70
    12
 71
     3
 72
    19
 73
    15
 74
     0
 42
0.000000000359682
 43
0.0000000001
 40
0.4999699989347296
 40
0.4999699989347296
 40
0.4999699989347296
 40
0.4999699989347296
 40
0.4999980968246884
 40
0.5660767770290177
 40
0.6350072011813483
 40
0.7039535842559229
 40
0.7736512969898188
 40
0.8070484207672729
 40
0.8404455445447293
 40
0.9093512829107417
 40
0.9381760981844071
 40
0.9670009134580699
 40
0.9845741931595134
 40
1.0
 40
1.0
 40
1.0
 40
1.0
 10
427.1961422976482
 20
442.7044624805683
 30
0.0
 41
1.0
 10
427.1961423151156
 20
442.704462463214
 30
0.0
 41
1.0
 10
427.1961422268616
 20
442.7044216284884
 30
0.0
 41
1.0
 10
426.998210948579
 20
442.7043158728122
 30
0.0
 41
1.0
 10
426.100788375154
 20
442.7046062802357
 30
0.0
 41
1.0
 10
424.598715640382
 20
442.7043484902466
 30
0.0
 41
1.0
 10
422.915412707103
 20
442.704432563974
 30
0.0
 41
1.0
 10
421.357840370554
 20
442.7044795066015
 30
0.0
 41
1.0
 10
419.684943054041
 20
442.7044128493541
 30
0.0
 41
1.0
 10
417.900135647869
 20
442.7045661293441
 30
0.0
 41
1.0
 10
416.075252383858
 20
442.7045225107471
 30
0.0
 41
1.0
 10
414.959096797979
 20
442.7045577317434
 30
0.0
 41
1.0
 10
414.029211409005
 20
442.7041882515203
 30
0.0
 41
1.0
 10
413.528799805463
 20
442.7042180608984
 30
0.0
 41
1.0
 10
413.29418056181
 20
442.7044027095492
 30
0.0
 41
1.0
  0
LINE
  5
C2
330
BD
100
AcDbEntity
  8
$DDT_AUDIT_GENERATED_(60)
  6
Continuous
 62
     7
100
AcDbLine
 10
249.1987938927
 20
454.7717182461
 30
0.0
 11
410.1962024534
 21
454.7717182461
 31
0.0
  0
LINE
  5
C3
330
BD
100
AcDbEntity
  8
$DDT_AUDIT_GENERATED_(60)
  6
Continuous
 62
     7
100
AcDbLine
 10
410.1962029335
 20
454.7717182461
 30
0.0
 11
413.1336667136
 21
454.7717182461
 31
0.0
  0
LINE
  5
C4
330
BD
100
AcDbEntity
  8
$DDT_AUDIT_GENERATED_(60)
  6
Continuous
 62
     7
100
AcDbLine
 10
426.6961303501
 20
454.7717182461
 30
0.0
 11
413.1336583834
 21
454.7717182461
 31
0.0
  0
ARC
  5
C5
330
BD
100
AcDbEntity
  8
$DDT_AUDIT_GENERATED_(60)
  6
Continuous
 62
     7
100
AcDbCircle
 10
408.5377220032
 20
415.7278016918
 30
0.0
 40
23.33932208421702
100
AcDbArc
 50
85.9251554308
 51
120.8173756975
  0
ARC
  5
C6
330
BD
100
AcDbEntity
  8
$DDT_AUDIT_GENERATED_(60)
  6
Continuous
 62
     7
100
AcDbCircle
 10
439.3990190852
 20
678.2214128059
 30
0.0
 40
240.9727481730454
100
AcDbArc
 50
263.7574501993
 51
265.6749049299
  0
ARC
  5
C7
330
BD
100
AcDbEntity
  8
$DDT_AUDIT_GENERATED_(60)
  6
Continuous
 62
     7
100
AcDbCircle
 10
405.6043058021
 20
383.5667964932
 30
0.0
 40
55.63116294106833
100
AcDbArc
 50
82.1564467021
 51
85.2653156278
  0
ARC
  5
C8
330
BD
100
AcDbEntity
  8
$DDT_AUDIT_GENERATED_(60)
  6
Continuous
 62
     7
100
AcDbCircle
 10
411.1962029335
 20
460.1050515794
 30
0.0
 40
24.33333333333422
100
AcDbArc
 50
294.3350868112
 51
308.8178440961
  0
LINE
  5
C9
330
BD
100
AcDbEntity
  8
$DDT_AUDIT_GENERATED_(60)
  6
Continuous
 62
     7
100
AcDbLine
 10
427.1962029833
 20
442.7044624625
 30
0.0
 11
427.1962029833
 21
454.2717182461
 31
0.0
  0
ARC
  5
CA
330
BD
100
AcDbEntity
  8
$DDT_AUDIT_GENERATED_(60)
  6
Continuous
 62
     7
100
AcDbCircle
 10
425.1961427284
 20
442.7044647068
 30
0.0
 40
1.999999582296424
100
AcDbArc
 50
308.8188142773
 51
359.9999354869
  0
ARC
  5
CB
330
BD
100
AcDbEntity
  8
$DDT_AUDIT_GENERATED_(60)
  6
Continuous
 62
     7
100
AcDbCircle
 10
426.696130004
 20
454.2717185988
 30
0.0
 40
0.4999996472954892
100
AcDbArc
 50
0.0
 51
89.9999603722
  0
LINE
  5
CC
330
BD
100
AcDbEntity
  8
$DDT_AUDIT_GENERATED_(60)
  6
Continuous
 62
     7
100
AcDbLine
 10
257.1987848675
 20
435.7717182444
 30
0.0
 11
396.5901866823
 21
435.7717182444
 31
0.0
  0
ARC
  5
CE
330
BD
100
AcDbEntity
  8
$DDT_AUDIT_GENERATED_(CD)
  6
Continuous
 62
     7
100
AcDbCircle
 10
243.7987848675
 20
445.114691533
 30
0.0
 40
21.6
100
AcDbArc
 50
55.922620733
 51
64.202921917
  0
LINE
  5
CF
330
BD
100
AcDbEntity
  8
$DDT_AUDIT_GENERATED_(77)
  6
Continuous
 62
     7
100
AcDbLine
 10
239.1987848674
 20
413.8717182457
 30
0.0
 11
239.1987848674
 21
476.6717182457
 31
0.0
  0
LINE
  5
D0
330
BD
100
AcDbEntity
  8
$DDT_AUDIT_GENERATED_(77)
  6
Continuous
 62
     7
100
AcDbLine
 10
239.1987848674
 20
476.6717182457
 30
0.0
 11
239.1987848674
 21
478.2717182457
 31
0.0
  0
LINE
  5
D1
330
BD
100
AcDbEntity
  8
$DDT_AUDIT_GENERATED_(77)
  6
Continuous
 62
     7
100
AcDbLine
 10
239.1987848674
 20
412.2717182457
 30
0.0
 11
239.1987848674
 21
413.8717182457
 31
0.0
  0
LINE
  5
D2
330
BD
100
AcDbEntity
  8
$DDT_AUDIT_GENERATED_(77)
  6
Continuous
 62
     7
100
AcDbLine
 10
239.1987848674
 20
478.2717182457
 30
0.0
 11
248.1987848674
 21
478.2717182457
 31
0.0
  0
LINE
  5
D3
330
BD
100
AcDbEntity
  8
$DDT_AUDIT_GENERATED_(77)
  6
Continuous
 62
     7
100
AcDbLine
 10
249.1987848674
 20
413.8717182457
 30
0.0
 11
249.1987848674
 21
413.2717182457
 31
0.0
  0
LINE
  5
D4
330
BD
100
AcDbEntity
  8
$DDT_AUDIT_GENERATED_(77)
  6
Continuous
 62
     7
100
AcDbLine
 10
249.1987848674
 20
476.6717182457
 30
0.0
 11
249.1987848674
 21
413.8717182457
 31
0.0
  0
LINE
  5
D5
330
BD
100
AcDbEntity
  8
$DDT_AUDIT_GENERATED_(77)
  6
Continuous
 62
     7
100
AcDbLine
 10
249.1987848674
 20
477.2717182457
 30
0.0
 11
249.1987848674
 21
476.6717182457
 31
0.0
  0
LINE
  5
D6
330
BD
100
AcDbEntity
  8
$DDT_AUDIT_GENERATED_(77)
  6
Continuous
 62
     7
100
AcDbLine
 10
248.1987848674
 20
412.2717182457
 30
0.0
 11
239.1987848674
 21
412.2717182457
 31
0.0
  0
ARC
  5
D7
330
BD
100
AcDbEntity
  8
$DDT_AUDIT_GENERATED_(77)
  6
Continuous
 62
     7
100
AcDbCircle
 10
248.1987848674
 20
413.2717182457
 30
0.0
 40
1.000000000000001
100
AcDbArc
 50
270.0
 51
0.0
  0
ARC
  5
D8
330
BD
100
AcDbEntity
  8
$DDT_AUDIT_GENERATED_(77)
  6
Continuous
 62
     7
100
AcDbCircle
 10
248.1987848674
 20
477.2717182457
 30
0.0
 40
0.9999999999999905
100
AcDbArc
 50
0.0
 51
90.0
  0
LINE
  5
D9
330
BD
100
AcDbEntity
  8
02636038_GEHÄUSE
  6
Continuous
 62
     7
100
AcDbLine
 10
420.4303372366
 20
434.7129225162
 30
0.0
 11
399.4813808438
 21
429.8764748478
 31
0.0
  0
LINE
  5
DA
330
BD
100
AcDbEntity
  8
02636038_GEHÄUSE
  6
Continuous
 62
     7
100
AcDbLine
 10
398.8740457547
 20
430.0621558185
 30
0.0
 11
399.4813808438
 21
429.8764748478
 31
0.0
  0
LINE
  5
DB
330
BD
100
AcDbEntity
  8
02636038_GEHÄUSE
  6
Continuous
 62
     7
100
AcDbLine
 10
420.4303372366
 20
434.7129225162
 30
0.0
 11
420.8948092188
 21
435.1460496467
 31
0.0
  0
ARC
  5
DC
330
BD
100
AcDbEntity
  8
02636038_GEHÄUSE
  6
Continuous
 62
     7
100
AcDbCircle
 10
399.1664174594
 20
431.0184605745
 30
0.0
 40
0.9999999999999941
100
AcDbArc
 50
193.0
 51
253.0
  0
ARC
  5
DD
330
BD
100
AcDbEntity
  8
02636038_GEHÄUSE
  6
Continuous
 62
     7
100
AcDbCircle
 10
420.2128108587
 20
435.8774033483
 30
0.0
 40
0.9999999999999879
100
AcDbArc
 50
313.0
 51
13.0
  0
LINE
  5
DE
330
BD
100
AcDbEntity
  8
02636038_GEHÄUSE
  6
Continuous
 62
     7
100
AcDbLine
 10
396.9913219698
 20
435.9944227292
 30
0.0
 11
398.1920473946
 21
430.7935095201
 31
0.0
  0
LINE
  5
DF
330
BD
100
AcDbEntity
  8
02636038_GEHÄUSE
  6
Continuous
 62
     7
100
AcDbLine
 10
421.1871809235
 20
436.1023544027
 30
0.0
 11
420.755683694
 21
437.971374242
 31
0.0
  0
LINE
  5
E1
330
BD
100
AcDbEntity
  8
$DDT_AUDIT_GENERATED_(E0)
  6
Continuous
 62
     7
100
AcDbLine
 10
418.815170045
 20
433.9295101452
 30
0.0
 11
401.2765088789
 21
429.880391167
 31
0.0
  0
LINE
  5
E2
330
BD
100
AcDbEntity
  8
$DDT_AUDIT_GENERATED_(E0)
  6
Continuous
 62
     7
100
AcDbLine
 10
401.1865284571
 20
430.270139193
 30
0.0
 11
401.2765088789
 21
429.880391167
 31
0.0
  0
LINE
  5
E3
330
BD
100
AcDbEntity
  8
$DDT_AUDIT_GENERATED_(E0)
  6
Continuous
 62
     7
100
AcDbLine
 10
418.815170045
 20
433.9295101452
 30
0.0
 11
418.7251896233
 21
434.3192581711
 31
0.0
  0
LINE
  5
E4
330
BD
100
AcDbEntity
  8
$DDT_AUDIT_GENERATED_(99)
  6
Continuous
 62
     7
100
AcDbLine
 10
249.1987848674
 20
413.2717182457
 30
0.0
 11
249.1987848674
 21
411.7717182457
 31
0.0
  0
LINE
  5
E5
330
BD
100
AcDbEntity
  8
08664131_STOPFEN
  6
Continuous
 62
     7
100
AcDbLine
 10
257.1987848675
 20
427.7717182457
 30
0.0
 11
257.1987848675
 21
462.7717182457
 31
0.0
  0
LINE
  5
E6
330
BD
100
AcDbEntity
  8
08664131_STOPFEN
  6
Continuous
 62
     7
100
AcDbLine
 10
257.1987848675
 20
462.7717182457
 30
0.0
 11
249.1987848674
 21
462.7717182457
 31
0.0
  0
LINE
  5
E7
330
BD
100
AcDbEntity
  8
08664131_STOPFEN
  6
Continuous
 62
     7
100
AcDbLine
 10
249.1987848674
 20
427.7717182457
 30
0.0
 11
257.1987848675
 21
427.7717182457
 31
0.0
  0
LINE
  5
E9
330
BD
100
AcDbEntity
  8
64927031_SCHABL_
  6
Continuous
 62
     7
100
AcDbLine
 10
253.1987848675
 20
467.7675431017
 30
0.0
 11
253.1987848675
 21
462.7717182457
 31
0.0
  0
LINE
  5
EA
330
BD
100
AcDbEntity
  8
64927031_SCHABL_
  6
Continuous
 62
     7
100
AcDbLine
 10
263.1155220123
 20
462.9426187915
 30
0.0
 11
255.9015246607
 21
463.0055743926
 31
0.0
  0
LINE
  5
EB
330
BD
100
AcDbEntity
  8
64927031_SCHABL_
  6
Continuous
 62
     7
100
AcDbLine
 10
249.1987848674
 20
422.2453303131
 30
0.0
 11
251.3795348857
 21
422.2643614302
 31
0.0
  0
LINE
  5
EC
330
BD
100
AcDbEntity
  8
64927031_SCHABL_
  6
Continuous
 62
     7
100
AcDbLine
 10
252.7031481352
 20
468.2675240633
 30
0.0
 11
249.1987848674
 21
468.2981061782
 31
0.0
  0
ARC
  5
ED
330
BD
100
AcDbEntity
  8
64927031_SCHABL_
  6
Continuous
 62
     7
100
AcDbCircle
 10
252.6987848675
 20
467.7675431017
 30
0.0
 40
0.5000000000000004
100
AcDbArc
 50
0.0
 51
89.5
  0
LINE
  5
EE
330
BD
100
AcDbEntity
  8
$DDT_AUDIT_GENERATED_(A5)
  6
Continuous
 62
     7
100
AcDbLine
 10
239.1987848675
 20
479.2717182457
 30
0.0
 11
239.1987848675
 21
478.2717182457
 31
0.0
  0
LINE
  5
EF
330
BD
100
AcDbEntity
  8
$DDT_AUDIT_GENERATED_(A5)
  6
Continuous
 62
     7
100
AcDbLine
 10
239.1987848675
 20
456.736115518
 30
0.0
 11
239.1987848675
 21
433.8073209733
 31
0.0
  0
LINE
  5
F0
330
BD
100
AcDbEntity
  8
$DDT_AUDIT_GENERATED_(A5)
  6
Continuous
 62
     7
100
AcDbLine
 10
239.1987848675
 20
412.2717182457
 30
0.0
 11
239.1987848675
 21
411.2717182457
 31
0.0
  0
LINE
  5
F1
330
BD
100
AcDbEntity
  8
$DDT_AUDIT_GENERATED_(A5)
  6
Continuous
 62
     7
100
AcDbLine
 10
249.1987848675
 20
411.7717182457
 30
0.0
 11
249.1987848675
 21
413.2717182457
 31
0.0
  0
LINE
  5
F2
330
BD
100
AcDbEntity
  8
$DDT_AUDIT_GENERATED_(A5)
  6
Continuous
 62
     7
100
AcDbLine
 10
249.1987848675
 20
413.8717182457
 30
0.0
 11
249.1987848675
 21
476.6717182457
 31
0.0
  0
LINE
  5
F3
330
BD
100
AcDbEntity
  8
$DDT_AUDIT_GENERATED_(A5)
  6
Continuous
 62
     7
100
AcDbLine
 10
249.1987848675
 20
477.2717182457
 30
0.0
 11
249.1987848675
 21
478.7717182457
 31
0.0
  0
LINE
  5
F4
330
BD
100
AcDbEntity
  8
$DDT_AUDIT_GENERATED_(A5)
  6
Continuous
 62
     7
100
AcDbLine
 10
239.1987848675
 20
411.2717182457
 30
0.0
 11
248.6987848675
 21
411.2717182457
 31
0.0
  0
LINE
  5
F5
330
BD
100
AcDbEntity
  8
$DDT_AUDIT_GENERATED_(A5)
  6
Continuous
 62
     7
100
AcDbLine
 10
248.6987848675
 20
479.2717182457
 30
0.0
 11
239.1987848675
 21
479.2717182457
 31
0.0
  0
ARC
  5
F6
330
BD
100
AcDbEntity
  8
$DDT_AUDIT_GENERATED_(A5)
  6
Continuous
 62
     7
100
AcDbCircle
 10
248.6987848675
 20
411.7717182457
 30
0.0
 40
0.5000000000000004
100
AcDbArc
 50
270.0
 51
0.0
  0
ARC
  5
F7
330
BD
100
AcDbEntity
  8
$DDT_AUDIT_GENERATED_(A5)
  6
Continuous
 62
     7
100
AcDbCircle
 10
248.6987848675
 20
478.7717182457
 30
0.0
 40
0.5000000000000004
100
AcDbArc
 50
0.0
 51
90.0
  0
ARC
  5
F8
330
BD
100
AcDbEntity
  8
$DDT_AUDIT_GENERATED_(A8)
  6
Continuous
 62
     7
100
AcDbCircle
 10
-6019.6065068828
 20
365.815488661
 30
0.0
 40
6301.124688583063
100
AcDbArc
 50
359.9152874373
 51
0.0845126109
  0
ARC
  5
F9
330
BD
100
AcDbEntity
  8
$DDT_AUDIT_GENERATED_(A8)
  6
Continuous
 62
     7
100
AcDbCircle
 10
281.4397678579
 20
356.9940539058
 30
0.0
 40
0.4999999996847453
100
AcDbArc
 50
188.8827637984
 51
278.2245733683
  0
SPLINE
  5
FA
330
BD
100
AcDbEntity
  8
$DDT_AUDIT_GENERATED_(A8)
  6
Continuous
 62
     7
100
AcDbSpline
210
0.0
220
0.0
230
1.0
 70
     8
 71
     5
 72
    12
 73
     6
 74
     0
 42
0.0000000008935599
 43
0.0000000001
 40
0.0
 40
0.0
 40
0.0
 40
0.0
 40
0.0
 40
0.0
 40
1.0
 40
1.0
 40
1.0
 40
1.0
 40
1.0
 40
1.0
 10
279.5231214964339
 20
418.4513855457933
 30
0.0
 10
279.5231223329091
 20
420.921016194121
 30
0.0
 10
279.5231207114751
 20
422.8412532143449
 30
0.0
 10
277.744247590335
 20
424.4703085372018
 30
0.0
 10
275.8317032385569
 20
424.3015699276167
 30
0.0
 10
273.3720047744131
 20
424.0845553051116
 30
0.0
  0
LINE
  5
FB
330
BD
100
AcDbEntity
  8
$DDT_AUDIT_GENERATED_(A8)
  6
Continuous
 62
     7
100
AcDbLine
 10
281.511326821
 20
375.1097911503
 30
0.0
 11
281.5113275329
 21
424.8110887596
 31
0.0
  0
LINE
  5
FC
330
BD
100
AcDbEntity
  8
$DDT_AUDIT_GENERATED_(A8)
  6
Continuous
 62
     7
100
AcDbLine
 10
281.5112945688
 20
356.4991964219
 30
0.0
 11
284.1176857375
 21
356.8759242518
 31
0.0
  0
LINE
  5
FD
330
BD
100
AcDbEntity
  8
$DDT_AUDIT_GENERATED_(A8)
  6
Continuous
 62
     7
100
AcDbLine
 10
273.3720047744
 20
424.0845553051
 30
0.0
 11
272.0381144712
 21
423.9668686436
 31
0.0
  0
ARC
  5
FE
330
BD
100
AcDbEntity
  8
$DDT_AUDIT_GENERATED_(A8)
  6
Continuous
 62
     7
100
AcDbCircle
 10
-340.8219651311
 20
420.0242036609
 30
0.0
 40
622.3517021755142
100
AcDbArc
 50
0.4407010001
 51
1.4499588395
  0
ARC
  5
FF
330
BD
100
AcDbEntity
  8
$DDT_AUDIT_GENERATED_(A8)
  6
Continuous
 62
     7
100
AcDbCircle
 10
284.046097674
 20
357.3708976187
 30
0.0
 40
0.5001234696106855
100
AcDbArc
 50
278.2296306632
 51
356.9087953171
  0
LINE
  5
100
330
BD
100
AcDbEntity
  8
$DDT_AUDIT_GENERATED_(A8)
  6
Continuous
 62
     7
100
AcDbLine
 10
265.2907279966
 20
466.0857833535
 30
0.0
 11
284.117641336
 21
463.3644222107
 31
0.0
  0
ARC
  5
101
330
BD
100
AcDbEntity
  8
$DDT_AUDIT_GENERATED_(A8)
  6
Continuous
 62
     7
100
AcDbCircle
 10
251.600340988
 20
422.4648472536
 30
0.0
 40
0.3000000000001774
100
AcDbArc
 50
222.2379711895
 51
275.042045173
  0
ARC
  5
102
330
BD
100
AcDbEntity
  8
$DDT_AUDIT_GENERATED_(A8)
  6
Continuous
 62
     7
100
AcDbCircle
 10
-18888.6825584498
 20
12250.7800717976
 30
0.0
 40
22488.96867644182
100
AcDbArc
 50
328.3976131079
 51
328.3976319104
  0
ARC
  5
103
330
BD
100
AcDbEntity
  8
$DDT_AUDIT_GENERATED_(A8)
  6
Continuous
 62
     7
100
AcDbCircle
 10
284.0461115786
 20
462.8695651793
 30
0.0
 40
0.4999999876913244
100
AcDbArc
 50
3.0764114017
 51
81.7750737
  0
ARC
  5
104
330
BD
100
AcDbEntity
  8
$DDT_AUDIT_GENERATED_(A8)
  6
Continuous
 62
     7
100
AcDbCircle
 10
265.2478101363
 20
465.7888691283
 30
0.0
 40
0.2999999997145104
100
AcDbArc
 50
81.7750727637
 51
148.0000000162
  0
LINE
  5
105
330
BD
100
AcDbEntity
  8
$DDT_AUDIT_GENERATED_(A8)
  6
Continuous
 62
     7
100
AcDbLine
 10
258.0116236968
 20
454.7746740844
 30
0.0
 11
264.9933957077
 21
465.9478449074
 31
0.0
  0
LINE
  5
106
330
BD
100
AcDbEntity
  8
$DDT_AUDIT_GENERATED_(A8)
  6
Continuous
 62
     7
100
AcDbLine
 10
264.4763054783
 20
423.2997042948
 30
0.0
 11
251.6267070141
 21
422.1660081118
 31
0.0
  0
ARC
  5
107
330
BD
100
AcDbEntity
  8
$DDT_AUDIT_GENERATED_(A8)
  6
Continuous
 62
     7
100
AcDbCircle
 10
270.4175692514
 20
397.8581439403
 30
0.0
 40
26.12607143245828
100
AcDbArc
 50
100.5109717443
 51
103.144486489
  0
SPLINE
  5
108
330
BD
100
AcDbEntity
  8
$DDT_AUDIT_GENERATED_(A8)
  6
Continuous
 62
     7
100
AcDbSpline
210
0.0
220
0.0
230
1.0
 70
     8
 71
     3
 72
    10
 73
     6
 74
     0
 42
0.0000000005472923
 43
0.0000000001
 40
0.0
 40
0.0
 40
0.0
 40
0.0
 40
0.3341136677160645
 40
0.6691569674632735
 40
1.0
 40
1.0
 40
1.0
 40
1.0
 10
279.5231222991358
 20
375.1097912220577
 30
0.0
 10
279.5526200991913
 20
372.8723969967789
 30
0.0
 10
279.6161049406672
 20
369.1234709269241
 30
0.0
 10
280.1138150630496
 20
362.8058754953194
 30
0.0
 10
280.6323617319365
 20
359.1102141816033
 30
0.0
 10
280.9485234798981
 20
356.9172022168561
 30
0.0
  0
LINE
  5
109
330
BD
100
AcDbEntity
  8
$DDT_AUDIT_GENERATED_(A8)
  6
Continuous
 62
     7
100
AcDbLine
 10
279.5231226602
 20
418.4513855458
 30
0.0
 11
279.5231220259
 21
375.1097912221
 31
0.0
  0
ARC
  5
10A
330
BD
100
AcDbEntity
  8
$DDT_AUDIT_GENERATED_(A8)
  6
Continuous
 62
     7
100
AcDbCircle
 10
-46.0154620545
 20
375.1206217269
 30
0.0
 40
331.0386582580945
100
AcDbArc
 50
356.9217652392
 51
359.9981173742
  0
LINE
  5
10B
330
BD
100
AcDbEntity
  8
$DDT_AUDIT_GENERATED_(A8)
  6
Continuous
 62
     7
100
AcDbLine
 10
285.0230718779
 20
375.1042897281
 30
0.0
 11
285.0230718779
 21
435.7717182444
 31
0.0
  0
ARC
  5
10C
330
BD
100
AcDbEntity
  8
$DDT_AUDIT_GENERATED_(A8)
  6
Continuous
 62
     7
100
AcDbCircle
 10
265.2283290098
 20
465.8367338038
 30
0.0
 40
0.2483961570505946
100
AcDbArc
 50
76.5440922792
 51
115.5041289583
  0
SPLINE
  5
10D
330
BD
100
AcDbEntity
  8
$DDT_AUDIT_GENERATED_(A8)
  6
Continuous
 62
     7
100
AcDbSpline
210
0.0
220
0.0
230
1.0
 70
     8
 71
     3
 72
    11
 73
     7
 74
     0
 42
0.0000000005626116
 43
0.0000000001
 40
0.542487696179142
 40
0.542487696179142
 40
0.542487696179142
 40
0.542487696179142
 40
0.6155177172120744
 40
0.7256896821989058
 40
0.8558427643612454
 40
1.0
 40
1.0
 40
1.0
 40
1.0
 10
284.882342220286
 20
454.7717357147241
 30
0.0
 10
284.8697089817358
 20
455.2044676804291
 30
0.0
 10
284.835886398386
 20
456.2900861316978
 30
0.0
 10
284.7692141496201
 20
458.1366919250523
 30
0.0
 10
284.6711225404953
 20
460.4562311342028
 30
0.0
 10
284.5937829635582
 20
461.9581812874669
 30
0.0
 10
284.5449775609816
 20
462.8964277718198
 30
0.0
  0
LINE
  5
10F
330
BD
100
AcDbEntity
  8
$DDT_AUDIT_GENERATED_(10E)
  6
Continuous
 62
     7
100
AcDbLine
 10
265.64635753
 20
423.5359648618
 30
0.0
 11
271.9964698858
 21
423.8687601486
 31
0.0
  0
LINE
  5
110
330
BD
100
AcDbEntity
  8
$DDT_AUDIT_GENERATED_(10E)
  6
Continuous
 62
     7
100
AcDbLine
 10
271.9964698858
 20
423.8687601486
 30
0.0
 11
272.0381144712
 21
423.9668686436
 31
0.0
  0
ENDBLK
  5
112
330
BD
100
AcDbEntity
  8
0
100
AcDbBlockEnd
  0
BLOCK
  5
14F
330
113
100
AcDbEntity
  8
0
100
AcDbBlockBegin
  2
SE2
 70
     0
 10
0.0
 20
0.0
 30
0.0
  3
SE2
  1

  0
LINE
  5
115
330
113
100
AcDbEntity
  8
$DDT_AUDIT_GENERATED_(60)
  6
Continuous
 62
     7
100
AcDbLine
 10
56.3500005209
 20
123.4507910062
 30
0.0
 11
56.3500005209
 21
284.448200047
 31
0.0
  0
LINE
  5
116
330
113
100
AcDbEntity
  8
$DDT_AUDIT_GENERATED_(60)
  6
Continuous
 62
     7
100
AcDbLine
 10
24.3500005209
 20
284.448200047
 30
0.0
 11
24.3500005209
 21
123.4507910062
 31
0.0
  0
SPLINE
  5
117
330
113
100
AcDbEntity
  8
$DDT_AUDIT_GENERATED_(60)
  6
Continuous
 62
     7
100
AcDbSpline
210
0.0
220
0.0
230
1.0
 70
    12
 71
     3
 72
    11
 73
     7
 74
     0
 42
0.0000000033267788
 43
0.0000000001
 40
0.0
 40
0.0
 40
0.0
 40
0.0
 40
0.4896358194660154
 40
1.0
 40
1.0
 40
1.0
 40
1.0
 40
1.0
 40
1.0
 10
24.35000052092311
 20
123.450791006177
 30
0.0
 41
0.9999999985171484
 10
24.35004733395418
 20
122.9704803318424
 30
0.0
 41
0.9999999985171485
 10
24.3500184869411
 20
121.9798893814111
 30
0.0
 41
0.9999999985171484
 10
24.4106309658875
 20
120.969143291567
 30
0.0
 41
0.9999999985171484
 10
24.47590630298049
 20
120.4507910061761
 30
0.0
 41
0.9999999985171484
 10
24.47590636904739
 20
120.4507904824461
 30
0.0
 41
0.9999999985171483
 10
24.47590630298051
 20
120.450791006176
 30
0.0
 41
0.9999999985171482
  0
SPLINE
  5
118
330
113
100
AcDbEntity
  8
$DDT_AUDIT_GENERATED_(60)
  6
Continuous
 62
     7
100
AcDbSpline
210
0.0
220
0.0
230
1.0
 70
    12
 71
     3
 72
    11
 73
     7
 74
     0
 42
0.0000000033267762
 43
0.0000000001
 40
0.0
 40
0.0
 40
0.0
 40
0.0
 40
0.4790896637727191
 40
0.9999817584934368
 40
0.9999817584934368
 40
1.0
 40
1.0
 40
1.0
 40
1.0
 10
56.2240576520562
 20
120.450791006086
 30
0.0
 41
1.0
 10
56.28535972740863
 20
120.9373547342007
 30
0.0
 41
1.0
 10
56.3500395597753
 20
121.948517421409
 30
0.0
 41
1.0
 10
56.3499308529917
 20
122.939831596027
 30
0.0
 41
1.0
 10
56.3500005160444
 20
123.450755224788
 30
0.0
 41
1.0
 10
56.35000051767071
 20
123.4507731157557
 30
0.0
 41
1.0
 10
56.35000052092311
 20
123.450791006177
 30
0.0
 41
1.0
  0
LINE
  5
119
330
113
100
AcDbEntity
  8
$DDT_AUDIT_GENERATED_(77)
  6
Continuous
 62
     7
100
AcDbLine
 10
184.3411325539
 20
294.4482090723
 30
0.0
 11
184.3411325539
 21
285.4482090723
 31
0.0
  0
LINE
  5
11A
330
113
100
AcDbEntity
  8
$DDT_AUDIT_GENERATED_(77)
  6
Continuous
 62
     7
100
AcDbLine
 10
9.9411325539
 20
294.4482090723
 30
0.0
 11
182.7411325539
 21
294.4482090723
 31
0.0
  0
LINE
  5
11B
330
113
100
AcDbEntity
  8
$DDT_AUDIT_GENERATED_(77)
  6
Continuous
 62
     7
100
AcDbLine
 10
8.3411325539
 20
294.4482090723
 30
0.0
 11
9.9411325539
 21
294.4482090723
 31
0.0
  0
LINE
  5
11C
330
113
100
AcDbEntity
  8
$DDT_AUDIT_GENERATED_(77)
  6
Continuous
 62
     7
100
AcDbLine
 10
182.7411325539
 20
294.4482090723
 30
0.0
 11
184.3411325539
 21
294.4482090723
 31
0.0
  0
LINE
  5
11D
330
113
100
AcDbEntity
  8
$DDT_AUDIT_GENERATED_(77)
  6
Continuous
 62
     7
100
AcDbLine
 10
182.7411325539
 20
284.4482090723
 30
0.0
 11
9.9411325539
 21
284.4482090723
 31
0.0
  0
LINE
  5
11E
330
113
100
AcDbEntity
  8
$DDT_AUDIT_GENERATED_(77)
  6
Continuous
 62
     7
100
AcDbLine
 10
183.3411325539
 20
284.4482090723
 30
0.0
 11
182.7411325539
 21
284.4482090723
 31
0.0
  0
LINE
  5
11F
330
113
100
AcDbEntity
  8
$DDT_AUDIT_GENERATED_(77)
  6
Continuous
 62
     7
100
AcDbLine
 10
9.9411325539
 20
284.4482090723
 30
0.0
 11
9.3411325539
 21
284.4482090723
 31
0.0
  0
LINE
  5
120
330
113
100
AcDbEntity
  8
$DDT_AUDIT_GENERATED_(77)
  6
Continuous
 62
     7
100
AcDbLine
 10
8.3411325539
 20
285.4482090723
 30
0.0
 11
8.3411325539
 21
294.4482090723
 31
0.0
  0
ARC
  5
121
330
113
100
AcDbEntity
  8
$DDT_AUDIT_GENERATED_(77)
  6
Continuous
 62
     7
100
AcDbCircle
 10
183.3411325539
 20
285.4482090723
 30
0.0
 40
0.9999999999999905
100
AcDbArc
 50
270.0
 51
0.0
  0
ARC
  5
122
330
113
100
AcDbEntity
  8
$DDT_AUDIT_GENERATED_(77)
  6
Continuous
 62
     7
100
AcDbCircle
 10
9.3411325539
 20
285.4482090723
 30
0.0
 40
1.000000000000001
100
AcDbArc
 50
180.0
 51
270.0
  0
LINE
  5
123
330
113
100
AcDbEntity
  8
$DDT_AUDIT_GENERATED_(99)
  6
Continuous
 62
     7
100
AcDbLine
 10
184.35
 20
294.4482090723
 30
0.0
 11
184.3411325539
 21
294.4482090723
 31
0.0
  0
LINE
  5
124
330
113
100
AcDbEntity
  8
$DDT_AUDIT_GENERATED_(99)
  6
Continuous
 62
     7
100
AcDbLine
 10
158.5353527719
 20
294.4482090723
 30
0.0
 11
142.1646472281
 21
294.4482090723
 31
0.0
  0
LINE
  5
125
330
113
100
AcDbEntity
  8
$DDT_AUDIT_GENERATED_(99)
  6
Continuous
 62
     7
100
AcDbLine
 10
116.85
 20
284.4482090723
 30
0.0
 11
182.7411325539
 21
284.4482090723
 31
0.0
  0
LINE
  5
126
330
113
100
AcDbEntity
  8
$DDT_AUDIT_GENERATED_(99)
  6
Continuous
 62
     7
100
AcDbLine
 10
183.3411325539
 20
284.4482090723
 30
0.0
 11
183.85
 21
284.4482090723
 31
0.0
  0
LINE
  5
127
330
113
100
AcDbEntity
  8
$DDT_AUDIT_GENERATED_(99)
  6
Continuous
 62
     7
100
AcDbLine
 10
184.35
 20
284.9482090723
 30
0.0
 11
184.35
 21
294.4482090723
 31
0.0
  0
ARC
  5
128
330
113
100
AcDbEntity
  8
$DDT_AUDIT_GENERATED_(99)
  6
Continuous
 62
     7
100
AcDbCircle
 10
183.85
 20
284.9482090723
 30
0.0
 40
0.5000000000000004
100
AcDbArc
 50
270.0
 51
0.0
  0
LINE
  5
129
330
113
100
AcDbEntity
  8
08664131_STOPFEN
  6
Continuous
 62
     7
100
AcDbLine
 10
22.85
 20
276.4482090722
 30
0.0
 11
57.85
 21
276.4482090722
 31
0.0
  0
LINE
  5
12A
330
113
100
AcDbEntity
  8
08664131_STOPFEN
  6
Continuous
 62
     7
100
AcDbLine
 10
57.85
 20
276.4482090722
 30
0.0
 11
57.85
 21
284.4482090723
 31
0.0
  0
LINE
  5
12B
330
113
100
AcDbEntity
  8
08664131_STOPFEN
  6
Continuous
 62
     7
100
AcDbLine
 10
22.85
 20
284.4482090723
 30
0.0
 11
22.85
 21
276.4482090722
 31
0.0
  0
LINE
  5
12C
330
113
100
AcDbEntity
  8
64927031_SCHABL_
  6
Continuous
 62
     7
100
AcDbLine
 10
127.8541751439
 20
280.4482090722
 30
0.0
 11
172.8458248561
 21
280.4482090722
 31
0.0
  0
LINE
  5
12D
330
113
100
AcDbEntity
  8
64927031_SCHABL_
  6
Continuous
 62
     7
100
AcDbLine
 10
127.3236120674
 20
284.4482090723
 30
0.0
 11
127.3541941824
 21
280.9438458045
 31
0.0
  0
LINE
  5
12E
330
113
100
AcDbEntity
  8
64927031_SCHABL_
  6
Continuous
 62
     7
100
AcDbLine
 10
173.3458058176
 20
280.9438458045
 30
0.0
 11
173.3763879326
 21
284.4482090723
 31
0.0
  0
ARC
  5
12F
330
113
100
AcDbEntity
  8
64927031_SCHABL_
  6
Continuous
 62
     7
100
AcDbCircle
 10
172.8458248561
 20
280.9482090722
 30
0.0
 40
0.5000000000000004
100
AcDbArc
 50
295.7479267209
 51
359.5
  0
ARC
  5
130
330
113
100
AcDbEntity
  8
64927031_SCHABL_
  6
Continuous
 62
     7
100
AcDbCircle
 10
127.8541751439
 20
280.9482090722
 30
0.0
 40
0.5000000000000018
100
AcDbArc
 50
180.5
 51
243.930557028
  0
LINE
  5
131
330
113
100
AcDbEntity
  8
$DDT_AUDIT_GENERATED_(A5)
  6
Continuous
 62
     7
100
AcDbLine
 10
48.5353527719
 20
294.4482090722
 30
0.0
 11
32.1646472281
 21
294.4482090722
 31
0.0
  0
LINE
  5
132
330
113
100
AcDbEntity
  8
$DDT_AUDIT_GENERATED_(A5)
  6
Continuous
 62
     7
100
AcDbLine
 10
8.3411325539
 20
294.4482090722
 30
0.0
 11
6.35
 21
294.4482090722
 31
0.0
  0
LINE
  5
133
330
113
100
AcDbEntity
  8
$DDT_AUDIT_GENERATED_(A5)
  6
Continuous
 62
     7
100
AcDbLine
 10
6.85
 20
284.4482090722
 30
0.0
 11
9.3411325539
 21
284.4482090722
 31
0.0
  0
LINE
  5
134
330
113
100
AcDbEntity
  8
$DDT_AUDIT_GENERATED_(A5)
  6
Continuous
 62
     7
100
AcDbLine
 10
9.9411325539
 20
284.4482090722
 30
0.0
 11
73.85
 21
284.4482090722
 31
0.0
  0
LINE
  5
135
330
113
100
AcDbEntity
  8
$DDT_AUDIT_GENERATED_(A5)
  6
Continuous
 62
     7
100
AcDbLine
 10
6.35
 20
294.4482090722
 30
0.0
 11
6.35
 21
284.9482090722
 31
0.0
  0
ARC
  5
136
330
113
100
AcDbEntity
  8
$DDT_AUDIT_GENERATED_(A5)
  6
Continuous
 62
     7
100
AcDbCircle
 10
6.85
 20
284.9482090722
 30
0.0
 40
0.5000000000000004
100
AcDbArc
 50
180.0
 51
270.0
  0
LINE
  5
137
330
113
100
AcDbEntity
  8
$DDT_AUDIT_GENERATED_(A8)
  6
Continuous
 62
     7
100
AcDbLine
 10
169.0313665121
 20
252.6238716406
 30
0.0
 11
168.5840926181
 21
249.5294075872
 31
0.0
  0
LINE
  5
138
330
113
100
AcDbEntity
  8
$DDT_AUDIT_GENERATED_(A8)
  6
Continuous
 62
     7
100
AcDbLine
 10
173.0607981508
 20
280.501490989
 30
0.0
 11
169.0313665121
 21
252.6238716406
 31
0.0
  0
LINE
  5
139
330
113
100
AcDbEntity
  8
$DDT_AUDIT_GENERATED_(A8)
  6
Continuous
 62
     7
100
AcDbLine
 10
131.6686334878
 20
252.6238716406
 30
0.0
 11
127.6385018202
 21
280.5063341385
 31
0.0
  0
LINE
  5
13A
330
113
100
AcDbEntity
  8
$DDT_AUDIT_GENERATED_(A8)
  6
Continuous
 62
     7
100
AcDbLine
 10
132.1158982128
 20
249.5294710231
 30
0.0
 11
131.6686334878
 21
252.6238716406
 31
0.0
  0
SPLINE
  5
13B
330
113
100
AcDbEntity
  8
$DDT_AUDIT_GENERATED_(A8)
  6
Continuous
 62
     7
100
AcDbSpline
210
0.0
220
0.0
230
1.0
 70
     8
 71
     3
 72
    10
 73
     6
 74
     0
 42
0.0000000142853884
 43
0.0000000001
 40
0.0
 40
0.0
 40
0.0
 40
0.0
 40
0.5
 40
0.5
 40
1.0
 40
1.0
 40
1.0
 40
1.0
 10
168.5840926179766
 20
249.5294075872463
 30
0.0
 10
168.567691776876
 20
249.4160976579247
 30
0.0
 10
168.5110081118494
 20
249.309078911098
 30
0.0
 10
168.342027660901
 20
249.1546751152207
 30
0.0
 10
168.2303432012444
 20
249.1078495717172
 30
0.0
 10
168.1160915663351
 20
249.1016646362603
 30
0.0
  0
SPLINE
  5
13C
330
113
100
AcDbEntity
  8
$DDT_AUDIT_GENERATED_(A8)
  6
Continuous
 62
     7
100
AcDbSpline
210
0.0
220
0.0
230
1.0
 70
     8
 71
     3
 72
    30
 73
    26
 74
     0
 42
0.0000000003536005
 43
0.0000000001
 40
0.0
 40
0.0
 40
0.0
 40
0.0
 40
0.0471766787859294
 40
0.09432920322502
 40
0.141418582917897
 40
0.1884058039514819
 40
0.2352593276261046
 40
0.2819538688542928
 40
0.3284674340076867
 40
0.3747794548822196
 40
0.4208728594102301
 40
0.4667408187878271
 40
0.5123792324091845
 40
0.5576516408168609
 40
0.6025366368763219
 40
0.6470825122422388
 40
0.6913463158053732
 40
0.7353922440890883
 40
0.7792949703918937
 40
0.8231395523286009
 40
0.8670247206883068
 40
0.9110583006373327
 40
0.9553408246508743
 40
0.9999901135033322
 40
1.0
 40
1.0
 40
1.0
 40
1.0
 10
173.1711587349898
 20
281.2650205963398
 30
0.0
 10
173.1181280401249
 20
280.961880472171
 30
0.0
 10
173.0120938020241
 20
280.3557554311284
 30
0.0
 10
172.7328728104524
 20
279.4548150398287
 30
0.0
 10
172.3660226180936
 20
278.5643044476294
 30
0.0
 10
171.9034498910106
 20
277.6880184762688
 30
0.0
 10
171.3483872176548
 20
276.8294116057202
 30
0.0
 10
170.7014315583018
 20
275.9920664788347
 30
0.0
 10
169.9642645292662
 20
275.1795265685082
 30
0.0
 10
169.1385757088957
 20
274.3953051465268
 30
0.0
 10
168.2262177391843
 20
273.6428619759199
 30
0.0
 10
167.2294163956129
 20
272.9257540752242
 30
0.0
 10
166.1521074310042
 20
272.2483586372182
 30
0.0
 10
164.9994416069022
 20
271.6148433855922
 30
0.0
 10
163.7769098782051
 20
271.0289465070394
 30
0.0
 10
162.4884973308104
 20
270.4935588374758
 30
0.0
 10
161.1379596193813
 20
270.0112766462561
 30
0.0
 10
159.7296623592601
 20
269.5847141909394
 30
0.0
 10
158.2684334175231
 20
269.2165566052539
 30
0.0
 10
156.7590049361418
 20
268.9094355795349
 30
0.0
 10
155.2061443568363
 20
268.6659815053378
 30
0.0
 10
153.6152201425337
 20
268.4888551203974
 30
0.0
 10
151.9924902170351
 20
268.3806062413866
 30
0.0
 10
150.8989353194148
 20
268.3562629731638
 30
0.0
 10
150.350126294702
 20
268.356265942203
 30
0.0
 10
150.3500048012227
 20
268.356265943068
 30
0.0
  0
SPLINE
  5
13D
330
113
100
AcDbEntity
  8
$DDT_AUDIT_GENERATED_(A8)
  6
Continuous
 62
     7
100
AcDbSpline
210
0.0
220
0.0
230
1.0
 70
     8
 71
     3
 72
    20
 73
    16
 74
     0
 42
0.0000000003531972
 43
0.0000000001
 40
0.0
 40
0.0
 40
0.0
 40
0.0
 40
0.0000094119517988
 40
0.0815623644544156
 40
0.1622080925732818
 40
0.2425993108128903
 40
0.3233297866588812
 40
0.4048651825556016
 40
0.4875675811462217
 40
0.5714171505666578
 40
0.6560278700194251
 40
0.7413360786100504
 40
0.8272170631708174
 40
0.9135122065131936
 40
1.0
 40
1.0
 40
1.0
 40
1.0
 10
150.3500048012227
 20
268.356265943068
 30
0.0
 10
150.3498843928742
 20
268.3562659423181
 30
0.0
 10
149.348039718481
 20
268.3562608871005
 30
0.0
 10
147.352174981468
 20
268.4375860611562
 30
0.0
 10
144.4406765434478
 20
268.7950541537131
 30
0.0
 10
141.6705682738565
 20
269.3706130187589
 30
0.0
 10
139.0729378801918
 20
270.1474139438464
 30
0.0
 10
136.6768897304406
 20
271.108715714696
 30
0.0
 10
134.5085810636675
 20
272.2368181604132
 30
0.0
 10
132.5951558311638
 20
273.5109860544419
 30
0.0
 10
130.9625237749488
 20
274.9074787827516
 30
0.0
 10
129.624075583352
 20
276.4024117570261
 30
0.0
 10
128.5975981932993
 20
277.9747219141193
 30
0.0
 10
127.8619835612959
 20
279.601045811284
 30
0.0
 10
127.639971210444
 20
280.7099501978202
 30
0.0
 10
127.5288412649288
 20
281.2650205963522
 30
0.0
  0
SPLINE
  5
13E
330
113
100
AcDbEntity
  8
$DDT_AUDIT_GENERATED_(A8)
  6
Continuous
 62
     7
100
AcDbSpline
210
0.0
220
0.0
230
1.0
 70
     8
 71
     3
 72
    10
 73
     6
 74
     0
 42
0.0000000142871317
 43
0.0000000001
 40
0.0
 40
0.0
 40
0.0
 40
0.0
 40
0.5
 40
0.5
 40
1.0
 40
1.0
 40
1.0
 40
1.0
 10
132.5838951551773
 20
249.1017416650057
 30
0.0
 10
132.4696853851373
 20
249.1079936925554
 30
0.0
 10
132.3580176809999
 20
249.154796014269
 30
0.0
 10
132.1890392972169
 20
249.3091403032303
 30
0.0
 10
132.1323404956856
 20
249.4161233830608
 30
0.0
 10
132.1158982137671
 20
249.5294710232868
 30
0.0
  0
SPLINE
  5
13F
330
113
100
AcDbEntity
  8
$DDT_AUDIT_GENERATED_(A8)
  6
Continuous
 62
     7
100
AcDbSpline
210
0.0
220
0.0
230
1.0
 70
     8
 71
     3
 72
     8
 73
     4
 74
     0
 42
0.0000000002811638
 43
0.0000000001
 40
0.0
 40
0.0
 40
0.0
 40
0.0
 40
1.0
 40
1.0
 40
1.0
 40
1.0
 10
168.1160915663351
 20
249.1016646362603
 30
0.0
 10
156.2834436745409
 20
248.464761236828
 30
0.0
 10
144.4165503620394
 20
248.4648122195758
 30
0.0
 10
132.5838951551773
 20
249.1017416650057
 30
0.0
  0
ELLIPSE
  5
140
330
113
100
AcDbEntity
  8
$DDT_AUDIT_GENERATED_(A8)
  6
Continuous
 62
     7
100
AcDbEllipse
 10
150.35
 20
283.72072001
 30
0.0
 11
22.1129280841199
 21
2.685351940812097E-12
 31
0.0
210
0.0
220
0.0
230
1.0
 40
0.5299192642
 41
-0.443932261853174
 42
-0.2830343530247603
  0
SPLINE
  5
141
330
113
100
AcDbEntity
  8
$DDT_AUDIT_GENERATED_(A8)
  6
Continuous
 62
     7
100
AcDbSpline
210
0.0
220
0.0
230
1.0
 70
     8
 71
     3
 72
    10
 73
     6
 74
     0
 42
0.0000000305690107
 43
0.0000000001
 40
0.0
 40
0.0
 40
0.0
 40
0.0
 40
0.5
 40
0.5
 40
1.0
 40
1.0
 40
1.0
 40
1.0
 10
170.5881406669393
 20
278.8101653121454
 30
0.0
 10
170.5295857948071
 20
278.8214895637669
 30
0.0
 10
170.4703712926921
 20
278.8158869265316
 30
0.0
 10
170.374590859597
 20
278.7722708780259
 30
0.0
 10
170.3383070263341
 20
278.7351124788774
 30
0.0
 10
170.3195168146365
 20
278.6878820899887
 30
0.0
  0
SPLINE
  5
142
330
113
100
AcDbEntity
  8
$DDT_AUDIT_GENERATED_(A8)
  6
Continuous
 62
     7
100
AcDbSpline
210
0.0
220
0.0
230
1.0
 70
     8
 71
     3
 72
    10
 73
     6
 74
     0
 42
0.0000000379120569
 43
0.0000000001
 40
0.0
 40
0.0
 40
0.0
 40
0.0
 40
0.5
 40
0.5
 40
0.6399715016176108
 40
0.6399715016176108
 40
0.6399715016176108
 40
0.6399715016176108
 10
167.9369184900394
 20
276.5454069803192
 30
0.0
 10
167.8915339697304
 20
276.5680338843772
 30
0.0
 10
167.8456370491657
 20
276.5738495023368
 30
0.0
 10
167.7981357350581
 20
276.5577535719803
 30
0.0
 10
167.7884517386117
 20
276.5528548115341
 30
0.0
 10
167.7795729171573
 20
276.5466688971356
 30
0.0
  0
SPLINE
  5
143
330
113
100
AcDbEntity
  8
$DDT_AUDIT_GENERATED_(A8)
  6
Continuous
 62
     7
100
AcDbSpline
210
0.0
220
0.0
230
1.0
 70
     8
 71
     3
 72
    10
 73
     6
 74
     0
 42
0.0000000379232304
 43
0.0000000001
 40
0.0
 40
0.0
 40
0.0
 40
0.0
 40
0.5
 40
0.5
 40
0.6416628022329922
 40
0.6416628022329922
 40
0.6416628022329922
 40
0.6416628022329922
 10
132.7630815099603
 20
276.5454069803192
 30
0.0
 10
132.8084660302732
 20
276.568033884375
 30
0.0
 10
132.854362950834
 20
276.5738495023368
 30
0.0
 10
132.9019898002217
 20
276.5577110340598
 30
0.0
 10
132.9117821853293
 20
276.5527362251005
 30
0.0
 10
132.9207485831407
 20
276.5464440969902
 30
0.0
  0
SPLINE
  5
144
330
113
100
AcDbEntity
  8
$DDT_AUDIT_GENERATED_(A8)
  6
Continuous
 62
     7
100
AcDbSpline
210
0.0
220
0.0
230
1.0
 70
     8
 71
     3
 72
    10
 73
     6
 74
     0
 42
0.0000000305690107
 43
0.0000000001
 40
0.0
 40
0.0
 40
0.0
 40
0.0
 40
0.5
 40
0.5
 40
1.0
 40
1.0
 40
1.0
 40
1.0
 10
130.1118593328831
 20
278.8101653123436
 30
0.0
 10
130.1704142050093
 20
278.8214895639744
 30
0.0
 10
130.2296287071312
 20
278.8158869267287
 30
0.0
 10
130.3254091402267
 20
278.7722708782223
 30
0.0
 10
130.3616929734897
 20
278.7351124790735
 30
0.0
 10
130.3804831851873
 20
278.6878820901847
 30
0.0
  0
ELLIPSE
  5
145
330
113
100
AcDbEntity
  8
$DDT_AUDIT_GENERATED_(A8)
  6
Continuous
 62
     7
100
AcDbEllipse
 10
150.35
 20
283.72072001
 30
0.0
 11
-22.11292808415716
 21
-5.807854197570350E-12
 31
0.0
210
0.0
220
0.0
230
1.0
 40
0.5299192642
 41
0.2830343530243256
 42
0.4439322618340755
  0
LINE
  5
146
330
113
100
AcDbEntity
  8
$DDT_AUDIT_GENERATED_(A8)
  6
Continuous
 62
     7
100
AcDbLine
 10
170.3201612877
 20
278.7013159145
 30
0.0
 11
170.1653357662
 21
278.4191722698
 31
0.0
  0
ARC
  5
147
330
113
100
AcDbEntity
  8
$DDT_AUDIT_GENERATED_(A8)
  6
Continuous
 62
     7
100
AcDbCircle
 10
166.8370650217
 20
280.4166325518
 30
0.0
 40
3.889869260556042
100
AcDbArc
 50
293.7289885621
 51
328.7647937553
  0
ARC
  5
148
330
113
100
AcDbEntity
  8
$DDT_AUDIT_GENERATED_(A8)
  6
Continuous
 62
     7
100
AcDbCircle
 10
158.9750879951
 20
295.621654948
 30
0.0
 40
21.00485626958378
100
AcDbArc
 50
294.8244609133
 51
296.681367521
  0
ARC
  5
149
330
113
100
AcDbEntity
  8
$DDT_AUDIT_GENERATED_(A8)
  6
Continuous
 62
     7
100
AcDbCircle
 10
144.7342206971
 20
294.3381045736
 30
0.0
 40
21.35340424761551
100
AcDbArc
 50
236.4160530851
 51
248.7945502106
  0
ARC
  5
14A
330
113
100
AcDbEntity
  8
$DDT_AUDIT_GENERATED_(A8)
  6
Continuous
 62
     7
100
AcDbCircle
 10
156.4280837067
 20
293.5537174614
 30
0.0
 40
20.44471792302289
100
AcDbArc
 50
291.8834728156
 51
303.3376007779
  0
LINE
  5
14B
330
113
100
AcDbEntity
  8
$DDT_AUDIT_GENERATED_(A8)
  6
Continuous
 62
     7
100
AcDbLine
 10
132.9045722754
 20
276.5567723552
 30
0.0
 11
132.2931339058
 21
276.8534491522
 31
0.0
  0
LINE
  5
14C
330
113
100
AcDbEntity
  8
$DDT_AUDIT_GENERATED_(A8)
  6
Continuous
 62
     7
100
AcDbLine
 10
130.5488940404
 20
278.3825809203
 30
0.0
 11
130.5261635716
 21
278.4178652919
 31
0.0
  0
ARC
  5
14D
330
113
100
AcDbEntity
  8
$DDT_AUDIT_GENERATED_(A8)
  6
Continuous
 62
     7
100
AcDbCircle
 10
133.8492307592
 20
280.3995572499
 30
0.0
 40
3.867869694303481
100
AcDbArc
 50
211.4308787766
 51
246.3592099457
  0
LINE
  5
14E
330
113
100
AcDbEntity
  8
$DDT_AUDIT_GENERATED_(A8)
  6
Continuous
 62
     7
100
AcDbLine
 10
130.5202994429
 20
278.4171719467
 30
0.0
 11
130.3866750801
 21
278.7033321629
 31
0.0
  0
ENDBLK
  5
150
330
113
100
AcDbEntity
  8
0
100
AcDbBlockEnd
  0
ENDSEC
  0
SECTION
  2
ENTITIES
  0
INSERT
  5
5F
330
1F
100
AcDbEntity
  8
Default
100
AcDbBlockReference
  2
SE
 10
0.0
 20
0.0
 30
0.0
  0
INSERT
  5
BE
330
1F
100
AcDbEntity
  8
Default
100
AcDbBlockReference
  2
SE1
 10
0.0
 20
0.0
 30
0.0
  0
INSERT
  5
114
330
1F
100
AcDbEntity
  8
Default
100
AcDbBlockReference
  2
SE2
 10
0.0
 20
0.0
 30
0.0
  0
TEXT
  5
152
330
1F
100
AcDbEntity
  8
Default
  6
Continuous
 62
     7
100
AcDbText
 10
5.9362635081
 20
53.4225120485
 30
0.0
 40
10.0
  1
Grohe AG^J
  7
SEACAD_seiso_ttf
 11
5.9362635081
 21
63.4225120485
 31
0.0
100
AcDbText
 73
     3
  0
TEXT
  5
153
330
1F
100
AcDbEntity
  8
Default
  6
Continuous
 62
     7
100
AcDbText
 10
5.9362635081
 20
37.0588756849
 30
0.0
 40
10.0
  1
 
  7
SEACAD_seiso_ttf
 11
5.9362635081
 21
47.0588756849
 31
0.0
100
AcDbText
 73
     3
  0
TEXT
  5
154
330
1F
100
AcDbEntity
  8
Default
  6
Continuous
 62
     7
100
AcDbText
 10
5.9362635081
 20
20.6952393213
 30
0.0
 40
10.0
  1
ecn: 
  7
SEACAD_seiso_ttf
 11
5.9362635081
 21
30.6952393213
 31
0.0
100
AcDbText
 73
     3
  0
TEXT
  5
155
330
1F
100
AcDbEntity
  8
Default
  6
Continuous
 62
     7
100
AcDbText
 10
5.9362635081
 20
4.3316029576
 30
0.0
 40
10.0
  1
unit: mm
  7
SEACAD_seiso_ttf
 11
5.9362635081
 21
14.3316029576
 31
0.0
100
AcDbText
 73
     3
  0
LINE
  5
156
330
1F
100
AcDbEntity
  8
Default
  6
Continuous
 62
     7
100
AcDbLine
 10
0.0
 20
0.0
 30
0.0
 11
100.0
 21
0.0
 31
0.0
  0
LINE
  5
157
330
1F
100
AcDbEntity
  8
Default
  6
Continuous
 62
     7
100
AcDbLine
 10
0.0
 20
0.0
 30
0.0
 11
0.0
 21
100.0
 31
0.0
  0
TEXT
  5
158
330
1F
100
AcDbEntity
  8
Default
  6
Continuous
 62
     7
100
AcDbText
 10
24.3923665681
 20
-18.2375342018
 30
0.0
 40
10.0
  1
100 mm
  7
SEACAD_seiso_ttf
 11
24.3923665681
 21
-8.2375342018
 31
0.0
100
AcDbText
 73
     3
  0
TEXT
  5
159
330
1F
100
AcDbEntity
  8
Default
  6
Continuous
 62
     7
100
AcDbText
 10
-7.6150308803
 20
24.6231930421
 30
0.0
 40
10.0
  1
100 mm
 50
90.0
  7
SEACAD_seiso_ttf
 11
-17.6150308803
 21
24.6231930421
 31
0.0
100
AcDbText
 73
     3
  0
TEXT
  5
15A
330
1F
100
AcDbEntity
  8
Default
  6
Continuous
 62
     7
100
AcDbText
 10
28.4878128572
 20
20.0907663715
 30
0.0
 40
10.0
  1
216868
  7
SEACAD_seiso_ttf
 11
28.4878128572
 21
30.0907663715
 31
0.0
100
AcDbText
 73
     3
  0
TEXT
  5
15B
330
1F
100
AcDbEntity
  8
Default
  6
Continuous
 62
     7
100
AcDbText
 10
5.9012241913
 20
36.7242780188
 30
0.0
 40
10.0
  1
19381000
  7
SEACAD_seiso_ttf
 11
5.9012241913
 21
46.7242780188
 31
0.0
100
AcDbText
 73
     3
  0
ENDSEC
  0
SECTION
  2
OBJECTS
  0
DICTIONARY
  5
C
330
0
100
AcDbDictionary
281
     1
  3
ACAD_GROUP
350
D
  3
ACAD_LAYOUT
350
1A
  3
ACAD_MLEADERSTYLE
350
15F
  3
ACAD_MLINESTYLE
350
17
  3
ACAD_PLOTSETTINGS
350
19
  3
ACAD_PLOTSTYLENAME
350
E
  3
ACAD_SCALELIST
350
3B
  3
ACAD_TABLESTYLE
350
15E
  3
ACAD_VISUALSTYLE
350
2A
  3
AcDbVariableDictionary
350
15C
  0
DICTIONARY
  5
D
102
{ACAD_REACTORS
330
C
102
}
330
C
100
AcDbDictionary
281
     1
  0
DICTIONARY
  5
1A
102
{ACAD_REACTORS
330
C
102
}
330
C
100
AcDbDictionary
281
     1
  3
Layout1
350
1E
  3
Model
350
22
  0
DICTIONARY
  5
15F
102
{ACAD_REACTORS
330
C
102
}
330
C
100
AcDbDictionary
281
     1
  0
DICTIONARY
  5
17
102
{ACAD_REACTORS
330
C
102
}
330
C
100
AcDbDictionary
281
     1
  3
Standard
350
18
  0
DICTIONARY
  5
19
102
{ACAD_REACTORS
330
C
102
}
330
C
100
AcDbDictionary
281
     1
  0
ACDBDICTIONARYWDFLT
  5
E
102
{ACAD_REACTORS
330
C
102
}
330
C
100
AcDbDictionary
281
     1
  3
Normal
350
F
100
AcDbDictionaryWithDefault
340
F
  0
DICTIONARY
  5
3B
102
{ACAD_REACTORS
330
C
102
}
330
C
100
AcDbDictionary
281
     1
  3
A0
350
3C
  3
A1
350
3D
  3
A2
350
3E
  3
A3
350
3F
  3
A4
350
40
  3
A5
350
41
  3
A6
350
42
  3
A7
350
43
  3
A8
350
44
  3
A9
350
45
  3
B0
350
46
  3
B1
350
47
  3
B2
350
48
  3
B3
350
49
  3
B4
350
4A
  3
B5
350
4B
  3
B6
350
4C
  3
B7
350
4D
  3
B8
350
4E
  3
B9
350
4F
  3
C0
350
50
  3
C1
350
51
  3
C2
350
52
  3
C3
350
53
  3
C4
350
54
  3
C5
350
55
  3
C6
350
56
  3
C7
350
57
  3
C8
350
58
  3
C9
350
59
  3
D0
350
5A
  3
D1
350
5B
  3
D2
350
5C
  0
DICTIONARY
  5
15E
102
{ACAD_REACTORS
330
C
102
}
330
C
100
AcDbDictionary
281
     1
  0
DICTIONARY
  5
2A
102
{ACAD_REACTORS
330
C
102
}
330
C
100
AcDbDictionary
281
     1
  3
2dWireframe
350
2F
  3
3D Hidden
350
31
  3
3dWireframe
350
30
  3
Basic
350
32
  3
Brighten
350
36
  3
ColorChange
350
3A
  3
Conceptual
350
34
  3
Dim
350
35
  3
Facepattern
350
39
  3
Flat
350
2B
  3
FlatWithEdges
350
2C
  3
Gouraud
350
2D
  3
GouraudWithEdges
350
2E
  3
Linepattern
350
38
  3
Realistic
350
33
  3
Thicken
350
37
  0
DICTIONARY
  5
15C
102
{ACAD_REACTORS
330
C
102
}
330
C
100
AcDbDictionary
281
     1
  3
CANNOSCALE
350
15D
  3
PSOLHEIGHT
350
161
  3
PSOLWIDTH
350
160
  0
LAYOUT
  5
1E
102
{ACAD_REACTORS
330
1A
102
}
330
1A
100
AcDbPlotSettings
  1

  2
none_device
  4

  6

 40
0.0
 41
0.0
 42
0.0
 43
0.0
 44
0.0
 45
0.0
 46
0.0
 47
0.0
 48
0.0
 49
0.0
140
0.0
141
0.0
142
1.0
143
1.0
 70
   688
 72
     0
 73
     0
 74
     5
  7

 75
    16
147
1.0
148
0.0
149
0.0
100
AcDbLayout
  1
Layout1
 70
     1
 71
     1
 10
0.0
 20
0.0
 11
1682.0
 21
2378.0
 12
0.0
 22
0.0
 32
0.0
 14
0.0
 24
0.0
 34
0.0
 15
1682.0
 25
2378.0
 35
0.0
146
0.0
 13
0.0
 23
0.0
 33
0.0
 16
1.0
 26
0.0
 36
0.0
 17
0.0
 27
1.0
 37
0.0
 76
     0
330
1B
  0
LAYOUT
  5
22
102
{ACAD_REACTORS
330
1A
102
}
330
1A
100
AcDbPlotSettings
  1

  2
none_device
  4

  6

 40
0.0
 41
0.0
 42
0.0
 43
0.0
 44
0.0
 45
0.0
 46
0.0
 47
0.0
 48
0.0
 49
0.0
140
0.0
141
0.0
142
1.0
143
1.0
 70
  1712
 72
     0
 73
     0
 74
     0
  7

 75
     0
147
1.0
148
0.0
149
0.0
100
AcDbLayout
  1
Model
 70
     1
 71
     0
 10
0.0
 20
0.0
 11
1682.0
 21
2378.0
 12
0.0
 22
0.0
 32
0.0
 14
0.0
 24
0.0
 34
0.0
 15
1682.0
 25
2378.0
 35
0.0
146
0.0
 13
0.0
 23
0.0
 33
0.0
 16
1.0
 26
0.0
 36
0.0
 17
0.0
 27
1.0
 37
0.0
 76
     0
330
1F
331
29
  0
MLINESTYLE
  5
18
102
{ACAD_REACTORS
330
17
102
}
330
17
100
AcDbMlineStyle
  2
Standard
 70
     0
  3

 62
   256
 51
90.0
 52
90.0
 71
     2
 49
0.5
 62
   256
  6
BYLAYER
 49
-0.5
 62
   256
  6
BYLAYER
  0
ACDBPLACEHOLDER
  5
F
102
{ACAD_REACTORS
330
E
102
}
330
E
  0
SCALE
  5
3C
102
{ACAD_REACTORS
330
3B
102
}
330
3B
100
AcDbScale
 70
     0
300
1:1
140
1.0
141
1.0
290
     1
  0
SCALE
  5
3D
102
{ACAD_REACTORS
330
3B
102
}
330
3B
100
AcDbScale
 70
     0
300
1:2
140
1.0
141
2.0
290
     0
  0
SCALE
  5
3E
102
{ACAD_REACTORS
330
3B
102
}
330
3B
100
AcDbScale
 70
     0
300
1:4
140
1.0
141
4.0
290
     0
  0
SCALE
  5
3F
102
{ACAD_REACTORS
330
3B
102
}
330
3B
100
AcDbScale
 70
     0
300
1:5
140
1.0
141
5.0
290
     0
  0
SCALE
  5
40
102
{ACAD_REACTORS
330
3B
102
}
330
3B
100
AcDbScale
 70
     0
300
1:8
140
1.0
141
8.0
290
     0
  0
SCALE
  5
41
102
{ACAD_REACTORS
330
3B
102
}
330
3B
100
AcDbScale
 70
     0
300
1:10
140
1.0
141
10.0
290
     0
  0
SCALE
  5
42
102
{ACAD_REACTORS
330
3B
102
}
330
3B
100
AcDbScale
 70
     0
300
1:16
140
1.0
141
16.0
290
     0
  0
SCALE
  5
43
102
{ACAD_REACTORS
330
3B
102
}
330
3B
100
AcDbScale
 70
     0
300
1:20
140
1.0
141
20.0
290
     0
  0
SCALE
  5
44
102
{ACAD_REACTORS
330
3B
102
}
330
3B
100
AcDbScale
 70
     0
300
1:30
140
1.0
141
30.0
290
     0
  0
SCALE
  5
45
102
{ACAD_REACTORS
330
3B
102
}
330
3B
100
AcDbScale
 70
     0
300
1:40
140
1.0
141
40.0
290
     0
  0
SCALE
  5
46
102
{ACAD_REACTORS
330
3B
102
}
330
3B
100
AcDbScale
 70
     0
300
1:50
140
1.0
141
50.0
290
     0
  0
SCALE
  5
47
102
{ACAD_REACTORS
330
3B
102
}
330
3B
100
AcDbScale
 70
     0
300
1:100
140
1.0
141
100.0
290
     0
  0
SCALE
  5
48
102
{ACAD_REACTORS
330
3B
102
}
330
3B
100
AcDbScale
 70
     0
300
2:1
140
2.0
141
1.0
290
     0
  0
SCALE
  5
49
102
{ACAD_REACTORS
330
3B
102
}
330
3B
100
AcDbScale
 70
     0
300
4:1
140
4.0
141
1.0
290
     0
  0
SCALE
  5
4A
102
{ACAD_REACTORS
330
3B
102
}
330
3B
100
AcDbScale
 70
     0
300
8:1
140
8.0
141
1.0
290
     0
  0
SCALE
  5
4B
102
{ACAD_REACTORS
330
3B
102
}
330
3B
100
AcDbScale
 70
     0
300
10:1
140
10.0
141
1.0
290
     0
  0
SCALE
  5
4C
102
{ACAD_REACTORS
330
3B
102
}
330
3B
100
AcDbScale
 70
     0
300
100:1
140
100.0
141
1.0
290
     0
  0
SCALE
  5
4D
102
{ACAD_REACTORS
330
3B
102
}
330
3B
100
AcDbScale
 70
     0
300
1/128" = 1'-0"
140
0.0078125
141
12.0
290
     0
  0
SCALE
  5
4E
102
{ACAD_REACTORS
330
3B
102
}
330
3B
100
AcDbScale
 70
     0
300
1/64" = 1'-0"
140
0.015625
141
12.0
290
     0
  0
SCALE
  5
4F
102
{ACAD_REACTORS
330
3B
102
}
330
3B
100
AcDbScale
 70
     0
300
1/32" = 1'-0"
140
0.03125
141
12.0
290
     0
  0
SCALE
  5
50
102
{ACAD_REACTORS
330
3B
102
}
330
3B
100
AcDbScale
 70
     0
300
1/16" = 1'-0"
140
0.0625
141
12.0
290
     0
  0
SCALE
  5
51
102
{ACAD_REACTORS
330
3B
102
}
330
3B
100
AcDbScale
 70
     0
300
3/32" = 1'-0"
140
0.09375
141
12.0
290
     0
  0
SCALE
  5
52
102
{ACAD_REACTORS
330
3B
102
}
330
3B
100
AcDbScale
 70
     0
300
1/8" = 1'-0"
140
0.125
141
12.0
290
     0
  0
SCALE
  5
53
102
{ACAD_REACTORS
330
3B
102
}
330
3B
100
AcDbScale
 70
     0
300
3/16" = 1'-0"
140
0.1875
141
12.0
290
     0
  0
SCALE
  5
54
102
{ACAD_REACTORS
330
3B
102
}
330
3B
100
AcDbScale
 70
     0
300
1/4" = 1'-0"
140
0.25
141
12.0
290
     0
  0
SCALE
  5
55
102
{ACAD_REACTORS
330
3B
102
}
330
3B
100
AcDbScale
 70
     0
300
3/8" = 1'-0"
140
0.375
141
12.0
290
     0
  0
SCALE
  5
56
102
{ACAD_REACTORS
330
3B
102
}
330
3B
100
AcDbScale
 70
     0
300
1/2" = 1'-0"
140
0.5
141
12.0
290
     0
  0
SCALE
  5
57
102
{ACAD_REACTORS
330
3B
102
}
330
3B
100
AcDbScale
 70
     0
300
3/4" = 1'-0"
140
0.75
141
12.0
290
     0
  0
SCALE
  5
58
102
{ACAD_REACTORS
330
3B
102
}
330
3B
100
AcDbScale
 70
     0
300
1" = 1'-0"
140
1.0
141
12.0
290
     0
  0
SCALE
  5
59
102
{ACAD_REACTORS
330
3B
102
}
330
3B
100
AcDbScale
 70
     0
300
1-1/2" = 1'-0"
140
1.5
141
12.0
290
     0
  0
SCALE
  5
5A
102
{ACAD_REACTORS
330
3B
102
}
330
3B
100
AcDbScale
 70
     0
300
3" = 1'-0"
140
3.0
141
12.0
290
     0
  0
SCALE
  5
5B
102
{ACAD_REACTORS
330
3B
102
}
330
3B
100
AcDbScale
 70
     0
300
6" = 1'-0"
140
6.0
141
12.0
290
     0
  0
SCALE
  5
5C
102
{ACAD_REACTORS
330
3B
102
}
330
3B
100
AcDbScale
 70
     0
300
1'-0" = 1'-0"
140
12.0
141
12.0
290
     0
  0
VISUALSTYLE
  5
2F
102
{ACAD_REACTORS
330
2A
102
}
330
2A
100
AcDbVisualStyle
  2
2dWireframe
 70
     4
 71
     0
 72
     2
 73
     0
 90
        0
 40
-0.6
 41
-30.0
 62
     5
 63
     7
 74
     1
 91
        4
 64
     7
 65
   257
 75
     1
175
     1
 42
1.0
 92
        0
 66
   257
 43
1.0
 76
     1
 77
     6
 78
     2
 67
     7
 79
     5
170
     0
171
     0
290
     0
174
     0
 93
        1
 44
0.0
173
     0
291
     0
 45
0.0
1001
ACAD
1000
AcDbSavedByObjectVersion
1070
     0
  0
VISUALSTYLE
  5
31
102
{ACAD_REACTORS
330
2A
102
}
330
2A
100
AcDbVisualStyle
  2
3D Hidden
 70
     6
 71
     1
 72
     2
 73
     2
 90
        0
 40
-0.6
 41
-30.0
 62
     5
 63
     7
 74
     2
 91
        2
 64
     7
 65
   257
 75
     2
175
     1
 42
40.0
 92
        0
 66
   257
 43
1.0
 76
     1
 77
     6
 78
     2
 67
     7
 79
     3
170
     0
171
     0
290
     0
174
     0
 93
        1
 44
0.0
173
     0
291
     0
 45
0.0
1001
ACAD
1000
AcDbSavedByObjectVersion
1070
     0
  0
VISUALSTYLE
  5
30
102
{ACAD_REACTORS
330
2A
102
}
330
2A
100
AcDbVisualStyle
  2
3dWireframe
 70
     5
 71
     0
 72
     2
 73
     0
 90
        0
 40
-0.6
 41
-30.0
 62
     5
 63
     7
 74
     1
 91
        4
 64
     7
 65
   257
 75
     1
175
     1
 42
1.0
 92
        0
 66
   257
 43
1.0
 76
     1
 77
     6
 78
     2
 67
     7
 79
     5
170
     0
171
     0
290
     0
174
     0
 93
        1
 44
0.0
173
     0
291
     0
 45
0.0
1001
ACAD
1000
AcDbSavedByObjectVersion
1070
     0
  0
VISUALSTYLE
  5
32
102
{ACAD_REACTORS
330
2A
102
}
330
2A
100
AcDbVisualStyle
  2
Basic
 70
     7
 71
     1
 72
     0
 73
     1
 90
        0
 40
-0.6
 41
-30.0
 62
     5
 63
     7
 74
     0
 91
        4
 64
     7
 65
   257
 75
     1
175
     1
 42
1.0
 92
        8
 66
     7
 43
1.0
 76
     1
 77
     6
 78
     2
 67
     7
 79
     5
170
     0
171
     0
290
     0
174
     0
 93
        1
 44
0.0
173
     0
291
     1
 45
0.0
1001
ACAD
1000
AcDbSavedByObjectVersion
1070
     0
  0
VISUALSTYLE
  5
36
102
{ACAD_REACTORS
330
2A
102
}
330
2A
100
AcDbVisualStyle
  2
Brighten
 70
    12
 71
     2
 72
     2
 73
     0
 90
        0
 40
-0.6
 41
-30.0
 62
     5
 63
     7
 74
     1
 91
        4
 64
     7
 65
   257
 75
     1
175
     1
 42
1.0
 92
        8
 66
     7
 43
1.0
 76
     1
 77
     6
 78
     2
 67
     7
 79
     5
170
     0
171
     0
290
     0
174
     0
 93
        1
 44
50.0
173
     0
291
     1
 45
0.0
1001
ACAD
1000
AcDbSavedByObjectVersion
1070
     0
  0
VISUALSTYLE
  5
3A
102
{ACAD_REACTORS
330
2A
102
}
330
2A
100
AcDbVisualStyle
  2
ColorChange
 70
    16
 71
     2
 72
     2
 73
     3
 90
        0
 40
-0.6
 41
-30.0
 62
     5
 63
     8
 74
     1
 91
        4
 64
     7
 65
   257
 75
     1
175
     1
 42
1.0
 92
        8
 66
     8
 43
1.0
 76
     1
 77
     6
 78
     2
 67
     7
 79
     5
170
     0
171
     0
290
     0
174
     0
 93
        1
 44
0.0
173
     0
291
     1
 45
0.0
1001
ACAD
1000
AcDbSavedByObjectVersion
1070
     0
  0
VISUALSTYLE
  5
34
102
{ACAD_REACTORS
330
2A
102
}
330
2A
100
AcDbVisualStyle
  2
Conceptual
 70
     9
 71
     3
 72
     2
 73
     0
 90
        0
 40
-0.6
 41
-30.0
 62
     5
 63
     7
 74
     2
 91
        2
 64
     7
 65
   257
 75
     1
175
     1
 42
40.0
 92
        8
 66
     7
 43
1.0
 76
     1
 77
     6
 78
     2
 67
     7
 79
     3
170
     0
171
     0
290
     0
174
     0
 93
        1
 44
0.0
173
     0
291
     0
 45
0.0
1001
ACAD
1000
AcDbSavedByObjectVersion
1070
     0
  0
VISUALSTYLE
  5
35
102
{ACAD_REACTORS
330
2A
102
}
330
2A
100
AcDbVisualStyle
  2
Dim
 70
    11
 71
     2
 72
     2
 73
     0
 90
        0
 40
-0.6
 41
-30.0
 62
     5
 63
     7
 74
     1
 91
        4
 64
     7
 65
   257
 75
     1
175
     1
 42
1.0
 92
        8
 66
     7
 43
1.0
 76
     1
 77
     6
 78
     2
 67
     7
 79
     5
170
     0
171
     0
290
     0
174
     0
 93
        1
 44
-50.0
173
     0
291
     1
 45
0.0
1001
ACAD
1000
AcDbSavedByObjectVersion
1070
     0
  0
VISUALSTYLE
  5
39
102
{ACAD_REACTORS
330
2A
102
}
330
2A
100
AcDbVisualStyle
  2
Facepattern
 70
    15
 71
     2
 72
     2
 73
     0
 90
        0
 40
-0.6
 41
-30.0
 62
     5
 63
     7
 74
     1
 91
        4
 64
     7
 65
   257
 75
     1
175
     1
 42
1.0
 92
        8
 66
     7
 43
1.0
 76
     1
 77
     6
 78
     2
 67
     7
 79
     5
170
     0
171
     0
290
     0
174
     0
 93
        1
 44
0.0
173
     0
291
     1
 45
0.0
1001
ACAD
1000
AcDbSavedByObjectVersion
1070
     0
  0
VISUALSTYLE
  5
2B
102
{ACAD_REACTORS
330
2A
102
}
330
2A
100
AcDbVisualStyle
  2
Flat
 70
     0
 71
     2
 72
     1
 73
     1
 90
        2
 40
-0.6
 41
30.0
 62
     5
 63
     7
 74
     0
 91
        4
 64
     7
 65
   257
 75
     1
175
     1
 42
1.0
 92
        8
 66
     7
 43
1.0
 76
     1
 77
     6
 78
     2
 67
     7
 79
     5
170
     0
171
     0
290
     0
174
     0
 93
       13
 44
0.0
173
     0
291
     1
 45
0.0
1001
ACAD
1000
AcDbSavedByObjectVersion
1070
     0
  0
VISUALSTYLE
  5
2C
102
{ACAD_REACTORS
330
2A
102
}
330
2A
100
AcDbVisualStyle
  2
FlatWithEdges
 70
     1
 71
     2
 72
     1
 73
     1
 90
        2
 40
-0.6
 41
30.0
 62
     5
 63
     7
 74
     1
 91
        4
 64
     7
 65
   257
 75
     1
175
     1
 42
1.0
 92
        0
 66
   257
 43
1.0
 76
     1
 77
     6
 78
     2
 67
     7
 79
     5
170
     0
171
     0
290
     0
174
     0
 93
       13
 44
0.0
173
     0
291
     1
 45
0.0
1001
ACAD
1000
AcDbSavedByObjectVersion
1070
     0
  0
VISUALSTYLE
  5
2D
102
{ACAD_REACTORS
330
2A
102
}
330
2A
100
AcDbVisualStyle
  2
Gouraud
 70
     2
 71
     2
 72
     2
 73
     1
 90
        2
 40
-0.6
 41
30.0
 62
     5
 63
     7
 74
     0
 91
        4
 64
     7
 65
   257
 75
     1
175
     1
 42
1.0
 92
        0
 66
     7
 43
1.0
 76
     1
 77
     6
 78
     2
 67
     7
 79
     5
170
     0
171
     0
290
     0
174
     0
 93
       13
 44
0.0
173
     0
291
     1
 45
0.0
1001
ACAD
1000
AcDbSavedByObjectVersion
1070
     0
  0
VISUALSTYLE
  5
2E
102
{ACAD_REACTORS
330
2A
102
}
330
2A
100
AcDbVisualStyle
  2
GouraudWithEdges
 70
     3
 71
     2
 72
     2
 73
     1
 90
        2
 40
-0.6
 41
30.0
 62
     5
 63
     7
 74
     1
 91
        4
 64
     7
 65
   257
 75
     1
175
     1
 42
1.0
 92
        0
 66
   257
 43
1.0
 76
     1
 77
     6
 78
     2
 67
     7
 79
     5
170
     0
171
     0
290
     0
174
     0
 93
       13
 44
0.0
173
     0
291
     1
 45
0.0
1001
ACAD
1000
AcDbSavedByObjectVersion
1070
     0
  0
VISUALSTYLE
  5
38
102
{ACAD_REACTORS
330
2A
102
}
330
2A
100
AcDbVisualStyle
  2
Linepattern
 70
    14
 71
     2
 72
     2
 73
     0
 90
        0
 40
-0.6
 41
-30.0
 62
     5
 63
     7
 74
     1
 91
        4
 64
     7
 65
   257
 75
     7
175
     7
 42
1.0
 92
        8
 66
     7
 43
1.0
 76
     1
 77
     6
 78
     2
 67
     7
 79
     5
170
     0
171
     0
290
     0
174
     0
 93
        1
 44
0.0
173
     0
291
     1
 45
0.0
1001
ACAD
1000
AcDbSavedByObjectVersion
1070
     0
  0
VISUALSTYLE
  5
33
102
{ACAD_REACTORS
330
2A
102
}
330
2A
100
AcDbVisualStyle
  2
Realistic
 70
     8
 71
     2
 72
     2
 73
     0
 90
        0
 40
-0.6
 41
-30.0
 62
     5
 63
     7
 74
     1
 91
        0
 64
     7
 65
   257
 75
     1
175
     1
 42
1.0
 92
        8
 66
     8
 43
1.0
 76
     1
 77
     6
 78
     2
 67
     7
 79
     5
170
     0
171
     0
290
     0
174
     0
 93
       13
 44
0.0
173
     0
291
     0
 45
0.0
1001
ACAD
1000
AcDbSavedByObjectVersion
1070
     0
  0
VISUALSTYLE
  5
37
102
{ACAD_REACTORS
330
2A
102
}
330
2A
100
AcDbVisualStyle
  2
Thicken
 70
    13
 71
     2
 72
     2
 73
     0
 90
        0
 40
-0.6
 41
-30.0
 62
     5
 63
     7
 74
     1
 91
        4
 64
     7
 65
   257
 75
     1
175
     1
 42
1.0
 92
       12
 66
     7
 43
1.0
 76
     1
 77
     6
 78
     2
 67
     7
 79
     5
170
     0
171
     0
290
     0
174
     0
 93
        1
 44
0.0
173
     0
291
     1
 45
0.0
1001
ACAD
1000
AcDbSavedByObjectVersion
1070
     0
  0
DICTIONARYVAR
  5
15D
102
{ACAD_REACTORS
330
15C
102
}
330
15C
100
DictionaryVariables
280
     0
  1
1:1
  0
DICTIONARYVAR
  5
161
102
{ACAD_REACTORS
330
15C
102
}
330
15C
100
DictionaryVariables
280
     0
  1
80.000000
  0
DICTIONARYVAR
  5
160
102
{ACAD_REACTORS
330
15C
102
}
330
15C
100
DictionaryVariables
280
     0
  1
5.000000
  0
ENDSEC
  0
EOF
