  0
SECTION
  2
HEADER
  9
$ACADVER
  1
AC1015
  9
$ACADMAINTVER
 70
     6
  9
$DWGCODEPAGE
  3
ANSI_1252
  9
$INSBASE
 10
0.0
 20
0.0
 30
0.0
  9
$EXTMIN
 10
0.0
 20
0.0
 30
0.0
  9
$EXTMAX
 10
1682.0
 20
2378.0
 30
0.0
  9
$LIMMIN
 10
0.0
 20
0.0
  9
$LIMMAX
 10
1682.0
 20
2378.0
  9
$ORTHOMODE
 70
     0
  9
$REGENMODE
 70
     1
  9
$FILLMODE
 70
     1
  9
$QTEXTMODE
 70
     0
  9
$MIRRTEXT
 70
     1
  9
$LTSCALE
 40
1.0
  9
$ATTMODE
 70
     1
  9
$TEXTSIZE
 40
2.5
  9
$TRACEWID
 40
1.0
  9
$TEXTSTYLE
  7
Standard
  9
$CLAYER
  8
0
  9
$CELTYPE
  6
ByLayer
  9
$CECOLOR
 62
   256
  9
$CELTSCALE
 40
1.0
  9
$DISPSILH
 70
     0
  9
$DIMSCALE
 40
1.0
  9
$DIMASZ
 40
2.5
  9
$DIMEXO
 40
0.625
  9
$DIMDLI
 40
3.75
  9
$DIMRND
 40
0.0
  9
$DIMDLE
 40
0.0
  9
$DIMEXE
 40
1.25
  9
$DIMTP
 40
0.0
  9
$DIMTM
 40
0.0
  9
$DIMTXT
 40
2.5
  9
$DIMCEN
 40
2.5
  9
$DIMTSZ
 40
0.0
  9
$DIMTOL
 70
     0
  9
$DIMLIM
 70
     0
  9
$DIMTIH
 70
     0
  9
$DIMTOH
 70
     0
  9
$DIMSE1
 70
     0
  9
$DIMSE2
 70
     0
  9
$DIMTAD
 70
     1
  9
$DIMZIN
 70
     8
  9
$DIMBLK
  1

  9
$DIMASO
 70
     1
  9
$DIMSHO
 70
     1
  9
$DIMPOST
  1

  9
$DIMAPOST
  1

  9
$DIMALT
 70
     0
  9
$DIMALTD
 70
     3
  9
$DIMALTF
 40
0.0393700787
  9
$DIMLFAC
 40
1.0
  9
$DIMTOFL
 70
     1
  9
$DIMTVP
 40
0.0
  9
$DIMTIX
 70
     0
  9
$DIMSOXD
 70
     0
  9
$DIMSAH
 70
     0
  9
$DIMBLK1
  1

  9
$DIMBLK2
  1

  9
$DIMSTYLE
  2
ISO-25
  9
$DIMCLRD
 70
     0
  9
$DIMCLRE
 70
     0
  9
$DIMCLRT
 70
     0
  9
$DIMTFAC
 40
1.0
  9
$DIMGAP
 40
0.625
  9
$DIMJUST
 70
     0
  9
$DIMSD1
 70
     0
  9
$DIMSD2
 70
     0
  9
$DIMTOLJ
 70
     0
  9
$DIMTZIN
 70
     8
  9
$DIMALTZ
 70
     0
  9
$DIMALTTZ
 70
     0
  9
$DIMUPT
 70
     0
  9
$DIMDEC
 70
     2
  9
$DIMTDEC
 70
     2
  9
$DIMALTU
 70
     2
  9
$DIMALTTD
 70
     3
  9
$DIMTXSTY
  7
Standard
  9
$DIMAUNIT
 70
     0
  9
$DIMADEC
 70
     0
  9
$DIMALTRND
 40
0.0
  9
$DIMAZIN
 70
     0
  9
$DIMDSEP
 70
    44
  9
$DIMATFIT
 70
     3
  9
$DIMFRAC
 70
     0
  9
$DIMLDRBLK
  1

  9
$DIMLUNIT
 70
     2
  9
$DIMLWD
 70
    -2
  9
$DIMLWE
 70
    -2
  9
$DIMTMOVE
 70
     0
  9
$LUNITS
 70
     2
  9
$LUPREC
 70
     4
  9
$SKETCHINC
 40
1.0
  9
$FILLETRAD
 40
10.0
  9
$AUNITS
 70
     0
  9
$AUPREC
 70
     0
  9
$MENU
  1
.
  9
$ELEVATION
 40
0.0
  9
$PELEVATION
 40
0.0
  9
$THICKNESS
 40
0.0
  9
$LIMCHECK
 70
     0
  9
$CHAMFERA
 40
10.0
  9
$CHAMFERB
 40
10.0
  9
$CHAMFERC
 40
20.0
  9
$CHAMFERD
 40
0.0
  9
$SKPOLY
 70
     0
  9
$TDCREATE
 40
2455315.463637188
  9
$TDUCREATE
 40
2455315.380303854
  9
$TDUPDATE
 40
2455315.463637199
  9
$TDUUPDATE
 40
2455315.380303866
  9
$TDINDWG
 40
0.0000000116
  9
$TDUSRTIMER
 40
0.0000000116
  9
$USRTIMER
 70
     1
  9
$ANGBASE
 50
0.0
  9
$ANGDIR
 70
     0
  9
$PDMODE
 70
     0
  9
$PDSIZE
 40
0.0
  9
$PLINEWID
 40
0.0
  9
$SPLFRAME
 70
     0
  9
$SPLINETYPE
 70
     6
  9
$SPLINESEGS
 70
     8
  9
$HANDSEED
  5
150
  9
$SURFTAB1
 70
     6
  9
$SURFTAB2
 70
     6
  9
$SURFTYPE
 70
     6
  9
$SURFU
 70
     6
  9
$SURFV
 70
     6
  9
$UCSBASE
  2

  9
$UCSNAME
  2

  9
$UCSORG
 10
0.0
 20
0.0
 30
0.0
  9
$UCSXDIR
 10
1.0
 20
0.0
 30
0.0
  9
$UCSYDIR
 10
0.0
 20
1.0
 30
0.0
  9
$UCSORTHOREF
  2

  9
$UCSORTHOVIEW
 70
     0
  9
$UCSORGTOP
 10
0.0
 20
0.0
 30
0.0
  9
$UCSORGBOTTOM
 10
0.0
 20
0.0
 30
0.0
  9
$UCSORGLEFT
 10
0.0
 20
0.0
 30
0.0
  9
$UCSORGRIGHT
 10
0.0
 20
0.0
 30
0.0
  9
$UCSORGFRONT
 10
0.0
 20
0.0
 30
0.0
  9
$UCSORGBACK
 10
0.0
 20
0.0
 30
0.0
  9
$PUCSBASE
  2

  9
$PUCSNAME
  2

  9
$PUCSORG
 10
0.0
 20
0.0
 30
0.0
  9
$PUCSXDIR
 10
1.0
 20
0.0
 30
0.0
  9
$PUCSYDIR
 10
0.0
 20
1.0
 30
0.0
  9
$PUCSORTHOREF
  2

  9
$PUCSORTHOVIEW
 70
     0
  9
$PUCSORGTOP
 10
0.0
 20
0.0
 30
0.0
  9
$PUCSORGBOTTOM
 10
0.0
 20
0.0
 30
0.0
  9
$PUCSORGLEFT
 10
0.0
 20
0.0
 30
0.0
  9
$PUCSORGRIGHT
 10
0.0
 20
0.0
 30
0.0
  9
$PUCSORGFRONT
 10
0.0
 20
0.0
 30
0.0
  9
$PUCSORGBACK
 10
0.0
 20
0.0
 30
0.0
  9
$USERI1
 70
     0
  9
$USERI2
 70
     0
  9
$USERI3
 70
     0
  9
$USERI4
 70
     0
  9
$USERI5
 70
     0
  9
$USERR1
 40
0.0
  9
$USERR2
 40
0.0
  9
$USERR3
 40
0.0
  9
$USERR4
 40
0.0
  9
$USERR5
 40
0.0
  9
$WORLDVIEW
 70
     1
  9
$SHADEDGE
 70
     3
  9
$SHADEDIF
 70
    70
  9
$TILEMODE
 70
     1
  9
$MAXACTVP
 70
    64
  9
$PINSBASE
 10
0.0
 20
0.0
 30
0.0
  9
$PLIMCHECK
 70
     0
  9
$PEXTMIN
 10
0.0
 20
0.0
 30
0.0
  9
$PEXTMAX
 10
1682.0
 20
2378.0
 30
0.0
  9
$PLIMMIN
 10
0.0
 20
0.0
  9
$PLIMMAX
 10
1682.0
 20
2378.0
  9
$UNITMODE
 70
     0
  9
$VISRETAIN
 70
     1
  9
$PLINEGEN
 70
     0
  9
$PSLTSCALE
 70
     1
  9
$TREEDEPTH
 70
  3020
  9
$CMLSTYLE
  2
Standard
  9
$CMLJUST
 70
     0
  9
$CMLSCALE
 40
20.0
  9
$PROXYGRAPHICS
 70
     1
  9
$MEASUREMENT
 70
     1
  9
$CELWEIGHT
370
    -1
  9
$ENDCAPS
280
     0
  9
$JOINSTYLE
280
     0
  9
$LWDISPLAY
290
     0
  9
$INSUNITS
 70
     4
  9
$HYPERLINKBASE
  1

  9
$STYLESHEET
  1

  9
$XEDIT
290
     1
  9
$CEPSNTYPE
380
     0
  9
$PSTYLEMODE
290
     1
  9
$FINGERPRINTGUID
  2
{009F12EE-51EE-44BD-977B-E6567422248C}
  9
$VERSIONGUID
  2
{FAEB1C32-E019-11D5-929B-00C0DF256EC4}
  9
$EXTNAMES
290
     1
  9
$PSVPSCALE
 40
0.0
  9
$OLESTARTUP
290
     0
  0
ENDSEC
  0
SECTION
  2
CLASSES
  0
CLASS
  1
ACDBDICTIONARYWDFLT
  2
AcDbDictionaryWithDefault
  3
ObjectDBX Classes
 90
        0
280
     0
281
     0
  0
CLASS
  1
VISUALSTYLE
  2
AcDbVisualStyle
  3
ObjectDBX Classes
 90
     4095
280
     0
281
     0
  0
CLASS
  1
SCALE
  2
AcDbScale
  3
ObjectDBX Classes
 90
     1153
280
     0
281
     0
  0
CLASS
  1
DICTIONARYVAR
  2
AcDbDictionaryVar
  3
ObjectDBX Classes
 90
        0
280
     0
281
     0
  0
CLASS
  1
ACDBPLACEHOLDER
  2
AcDbPlaceHolder
  3
ObjectDBX Classes
 90
        0
280
     0
281
     0
  0
CLASS
  1
LAYOUT
  2
AcDbLayout
  3
ObjectDBX Classes
 90
        0
280
     0
281
     0
  0
ENDSEC
  0
SECTION
  2
TABLES
  0
TABLE
  2
VPORT
  5
8
330
0
100
AcDbSymbolTable
 70
     1
  0
VPORT
  5
29
330
8
100
AcDbSymbolTableRecord
100
AcDbViewportTableRecord
  2
*Active
 70
     0
 10
0.0
 20
0.0
 11
1.0
 21
1.0
 12
344.1869158879
 22
148.5
 13
0.0
 23
0.0
 14
10.0
 24
10.0
 15
10.0
 25
10.0
 16
0.0
 26
0.0
 36
1.0
 17
0.0
 27
0.0
 37
0.0
 40
297.0
 41
1.9729729729
 42
50.0
 43
0.0
 44
0.0
 50
0.0
 51
0.0
 71
     0
 72
   100
 73
     1
 74
     3
 75
     0
 76
     0
 77
     0
 78
     0
281
     0
 65
     1
110
0.0
120
0.0
130
0.0
111
1.0
121
0.0
131
0.0
112
0.0
122
1.0
132
0.0
 79
     0
146
0.0
  0
ENDTAB
  0
TABLE
  2
LTYPE
  5
5
330
0
100
AcDbSymbolTable
 70
     1
  0
LTYPE
  5
14
330
5
100
AcDbSymbolTableRecord
100
AcDbLinetypeTableRecord
  2
ByBlock
 70
     0
  3

 72
    65
 73
     0
 40
0.0
  0
LTYPE
  5
15
330
5
100
AcDbSymbolTableRecord
100
AcDbLinetypeTableRecord
  2
ByLayer
 70
     0
  3

 72
    65
 73
     0
 40
0.0
  0
LTYPE
  5
16
330
5
100
AcDbSymbolTableRecord
100
AcDbLinetypeTableRecord
  2
Continuous
 70
     0
  3
Solid line
 72
    65
 73
     0
 40
0.0
  0
ENDTAB
  0
TABLE
  2
LAYER
  5
2
330
0
100
AcDbSymbolTable
 70
    10
  0
LAYER
  5
10
330
2
100
AcDbSymbolTableRecord
100
AcDbLayerTableRecord
  2
0
 70
     0
 62
     7
  6
Continuous
370
    -3
390
F
  0
LAYER
  5
5D
330
2
100
AcDbSymbolTableRecord
100
AcDbLayerTableRecord
  2
Default
 70
     0
 62
     7
  6
Continuous
370
    -3
390
F
  0
LAYER
  5
60
330
2
100
AcDbSymbolTableRecord
100
AcDbLayerTableRecord
  2
$DDT_AUDIT_GENERATED_(60)
 70
     0
 62
     7
  6
Continuous
370
    -3
390
F
  0
LAYER
  5
95
330
2
100
AcDbSymbolTableRecord
100
AcDbLayerTableRecord
  2
$DDT_AUDIT_GENERATED_(95)
 70
     0
 62
     7
  6
Continuous
370
    -3
390
F
  0
LAYER
  5
98
330
2
100
AcDbSymbolTableRecord
100
AcDbLayerTableRecord
  2
02636038_GEHÄUSE
 70
     0
 62
     7
  6
Continuous
370
    -3
390
F
  0
LAYER
  5
AA
330
2
100
AcDbSymbolTableRecord
100
AcDbLayerTableRecord
  2
$DDT_AUDIT_GENERATED_(AA)
 70
     0
 62
     7
  6
Continuous
370
    -3
390
F
  0
LAYER
  5
D2
330
2
100
AcDbSymbolTableRecord
100
AcDbLayerTableRecord
  2
$DDT_AUDIT_GENERATED_(D2)
 70
     0
 62
     7
  6
Continuous
370
    -3
390
F
  0
LAYER
  5
F1
330
2
100
AcDbSymbolTableRecord
100
AcDbLayerTableRecord
  2
$DDT_AUDIT_GENERATED_(F1)
 70
     0
 62
     7
  6
Continuous
370
    -3
390
F
  0
LAYER
  5
FB
330
2
100
AcDbSymbolTableRecord
100
AcDbLayerTableRecord
  2
$DDT_AUDIT_GENERATED_(FB)
 70
     0
 62
     7
  6
Continuous
370
    -3
390
F
  0
LAYER
  5
125
330
2
100
AcDbSymbolTableRecord
100
AcDbLayerTableRecord
  2
$DDT_AUDIT_GENERATED_(125)
 70
     0
 62
     7
  6
Continuous
370
    -3
390
F
  0
ENDTAB
  0
TABLE
  2
STYLE
  5
3
330
0
100
AcDbSymbolTable
 70
     2
  0
STYLE
  5
11
330
3
100
AcDbSymbolTableRecord
100
AcDbTextStyleTableRecord
  2
Standard
 70
     0
 40
0.0
 41
1.0
 50
0.0
 71
     0
 42
2.5
  3
txt
  4

  0
STYLE
  5
13F
330
3
100
AcDbSymbolTableRecord
100
AcDbTextStyleTableRecord
  2
SEACAD_seiso_ttf
 70
     0
 40
0.0
 41
1.0
 50
0.0
 71
     0
 42
0.2
  3
seiso.ttf
  4

  0
ENDTAB
  0
TABLE
  2
VIEW
  5
6
330
0
100
AcDbSymbolTable
 70
     0
  0
ENDTAB
  0
TABLE
  2
UCS
  5
7
330
0
100
AcDbSymbolTable
 70
     0
  0
ENDTAB
  0
TABLE
  2
APPID
  5
9
330
0
100
AcDbSymbolTable
 70
     1
  0
APPID
  5
12
330
9
100
AcDbSymbolTableRecord
100
AcDbRegAppTableRecord
  2
ACAD
 70
     0
  0
ENDTAB
  0
TABLE
  2
DIMSTYLE
  5
A
330
0
100
AcDbSymbolTable
 70
     1
100
AcDbDimStyleTable
  0
DIMSTYLE
105
27
330
A
100
AcDbSymbolTableRecord
100
AcDbDimStyleTableRecord
  2
ISO-25
 70
     0
 41
2.5
 42
0.625
 43
3.75
 44
1.25
 73
     0
 74
     0
 77
     1
 78
     8
140
2.5
141
2.5
143
0.0393700787
147
0.625
171
     3
172
     1
271
     2
272
     2
274
     3
278
    44
283
     0
284
     8
340
11
  0
ENDTAB
  0
TABLE
  2
BLOCK_RECORD
  5
1
330
0
100
AcDbSymbolTable
 70
     4
  0
BLOCK_RECORD
  5
1F
330
1
100
AcDbSymbolTableRecord
100
AcDbBlockTableRecord
  2
*Model_Space
340
22
  0
BLOCK_RECORD
  5
1B
330
1
100
AcDbSymbolTableRecord
100
AcDbBlockTableRecord
  2
*Paper_Space
340
1E
  0
BLOCK_RECORD
  5
5E
330
1
100
AcDbSymbolTableRecord
100
AcDbBlockTableRecord
  2
SE
340
0
102
{BLKREFS
331
5F
102
}
  0
BLOCK_RECORD
  5
D7
330
1
100
AcDbSymbolTableRecord
100
AcDbBlockTableRecord
  2
SE1
340
0
102
{BLKREFS
331
D8
102
}
  0
BLOCK_RECORD
  5
119
330
1
100
AcDbSymbolTableRecord
100
AcDbBlockTableRecord
  2
SE2
340
0
102
{BLKREFS
331
11A
102
}
  0
ENDTAB
  0
ENDSEC
  0
SECTION
  2
BLOCKS
  0
BLOCK
  5
20
330
1F
100
AcDbEntity
  8
0
100
AcDbBlockBegin
  2
*Model_Space
 70
     0
 10
0.0
 20
0.0
 30
0.0
  3
*Model_Space
  1

  0
ENDBLK
  5
21
330
1F
100
AcDbEntity
  8
0
100
AcDbBlockEnd
  0
BLOCK
  5
1C
330
1B
100
AcDbEntity
 67
     1
  8
0
100
AcDbBlockBegin
  2
*Paper_Space
 70
     0
 10
0.0
 20
0.0
 30
0.0
  3
*Paper_Space
  1

  0
ENDBLK
  5
1D
330
1B
100
AcDbEntity
 67
     1
  8
0
100
AcDbBlockEnd
  0
BLOCK
  5
D5
330
5E
100
AcDbEntity
  8
0
100
AcDbBlockBegin
  2
SE
 70
     0
 10
0.0
 20
0.0
 30
0.0
  3
SE
  1

  0
LINE
  5
61
330
5E
100
AcDbEntity
  8
$DDT_AUDIT_GENERATED_(60)
  6
Continuous
 62
     7
100
AcDbLine
 10
56.3609607734
 20
362.2742651725
 30
0.0
 11
56.3609607734
 21
272.2695673827
 31
0.0
  0
ELLIPSE
  5
62
330
5E
100
AcDbEntity
  8
$DDT_AUDIT_GENERATED_(60)
  6
Continuous
 62
     7
100
AcDbEllipse
 10
6.8691084228
 20
371.769567384
 30
0.0
 11
0.3537285797375264
 21
-0.3536225539037957
 31
0.0
210
0.0
220
0.0
230
1.0
 40
0.9993091709
 41
2.356390132714928
 42
2.67189796373895
  0
ARC
  5
63
330
5E
100
AcDbEntity
  8
$DDT_AUDIT_GENERATED_(60)
  6
Continuous
 62
     7
100
AcDbCircle
 10
55.8609607892
 20
371.7695930636
 30
0.0
 40
0.4999743204067708
100
AcDbArc
 50
71.9237356303
 51
90.0
  0
LINE
  5
64
330
5E
100
AcDbEntity
  8
$DDT_AUDIT_GENERATED_(60)
  6
Continuous
 62
     7
100
AcDbLine
 10
6.3739718758
 20
362.2742651724
 30
0.0
 11
6.3674064394
 21
362.2742651724
 31
0.0
  0
SPLINE
  5
65
330
5E
100
AcDbEntity
  8
$DDT_AUDIT_GENERATED_(60)
  6
Continuous
 62
     7
100
AcDbSpline
210
0.0
220
0.0
230
1.0
 70
     8
 71
     3
 72
    24
 73
    20
 74
     0
 42
0.0000000002204928
 43
0.0000000001
 40
0.0
 40
0.0
 40
0.0
 40
0.0
 40
0.0201451760622891
 40
0.04042529546944
 40
0.0609493000352605
 40
0.0818223492314022
 40
0.1031445398493846
 40
0.1250099593470764
 40
0.184478428753331
 40
0.249934283401572
 40
0.3093684045571971
 40
0.3749242443971772
 40
0.4998811000095312
 40
0.6248947006140004
 40
0.6561541422238946
 40
0.6874139049141472
 40
0.7499314193615089
 40
0.8802689285489875
 40
1.0
 40
1.0
 40
1.0
 40
1.0
 10
31.3648618390605
 20
327.2694844009596
 30
0.0
 10
31.03955194893807
 20
327.2768298438019
 30
0.0
 10
30.38675306613513
 20
327.2915699332574
 30
0.0
 10
29.40985877364758
 20
327.4104142463787
 30
0.0
 10
28.43574710036002
 20
327.5999420288614
 30
0.0
 10
27.46636738254858
 20
327.8671530929162
 30
0.0
 10
26.50357727902251
 20
328.2100676751182
 30
0.0
 10
25.01234352554652
 20
328.8649021552858
 30
0.0
 10
23.0279408917894
 20
330.0568781432822
 30
0.0
 10
20.84039179413008
 20
331.8950391644032
 30
0.0
 10
18.86350521754111
 20
334.034021625969
 30
0.0
 10
16.58779898306731
 20
337.0614718247331
 30
0.0
 10
14.23362771307976
 20
341.182570030719
 30
0.0
 10
12.57895289735553
 20
345.0367206679609
 30
0.0
 10
11.62572758128497
 20
347.6593953503301
 30
0.0
 10
11.02393076953771
 20
349.4175817028093
 30
0.0
 10
10.01436783244439
 20
352.5722638055906
 30
0.0
 10
8.786952277552603
 20
356.9814714153561
 30
0.0
 10
8.093433702190016
 20
360.5606024811992
 30
0.0
 10
7.761381903057144
 20
362.2742651743806
 30
0.0
  0
SPLINE
  5
66
330
5E
100
AcDbEntity
  8
$DDT_AUDIT_GENERATED_(60)
  6
Continuous
 62
     7
100
AcDbSpline
210
0.0
220
0.0
230
1.0
 70
     8
 71
     3
 72
    23
 73
    19
 74
     0
 42
0.0000000002204452
 43
0.0000000001
 40
0.0
 40
0.0
 40
0.0
 40
0.0
 40
0.0586739368940803
 40
0.1199415643517019
 40
0.1837689743278198
 40
0.2501186653410289
 40
0.3126334793871873
 40
0.3438931750564925
 40
0.3751552668729729
 40
0.5001942496265888
 40
0.6251415995778776
 40
0.6906683630450542
 40
0.7501592435917773
 40
0.8156307267381878
 40
0.8750816261050982
 40
0.9182517632069281
 40
0.9596180170963199
 40
1.0
 40
1.0
 40
1.0
 40
1.0
 10
54.96834201698755
 20
362.2742651743806
 30
0.0
 10
54.81313403355131
 20
361.4328963825872
 30
0.0
 10
54.49585707354945
 20
359.7129659598754
 30
0.0
 10
53.90846284421044
 20
357.0988294374351
 30
0.0
 10
53.21646268537778
 20
354.3875176932433
 30
0.0
 10
52.42831767155545
 20
351.6712112753219
 30
0.0
 10
51.70556741647005
 20
349.4177926040166
 30
0.0
 10
51.10399909183621
 20
347.659712493448
 30
0.0
 10
50.15108511838211
 20
345.036476578904
 30
0.0
 10
48.49610976037698
 20
341.1827125336957
 30
0.0
 10
46.14203363360719
 20
337.0622928778336
 30
0.0
 10
43.86668843674509
 20
334.0345673415806
 30
0.0
 10
41.88942411655022
 20
331.895355990794
 30
0.0
 10
39.70117932258441
 20
330.0571342821212
 30
0.0
 10
37.43004436108762
 20
328.6906287675034
 30
0.0
 10
35.29751086193864
 20
327.8426249803871
 30
0.0
 10
33.33861316877712
 20
327.3595831742161
 30
0.0
 10
32.01747666813915
 20
327.2992752842505
 30
0.0
 10
31.3648618390605
 20
327.2694844009596
 30
0.0
  0
LINE
  5
67
330
5E
100
AcDbEntity
  8
$DDT_AUDIT_GENERATED_(60)
  6
Continuous
 62
     7
100
AcDbLine
 10
56.3623172387
 20
362.2742651724
 30
0.0
 11
56.3557518023
 21
362.2742651724
 31
0.0
  0
LINE
  5
68
330
5E
100
AcDbEntity
  8
$DDT_AUDIT_GENERATED_(60)
  6
Continuous
 62
     7
100
AcDbLine
 10
15.9903845571
 20
272.269567383
 30
0.0
 11
46.739339121
 21
272.2695673827
 31
0.0
  0
LINE
  5
69
330
5E
100
AcDbEntity
  8
$DDT_AUDIT_GENERATED_(60)
  6
Continuous
 62
     7
100
AcDbLine
 10
56.3623172227
 20
371.7695673841
 30
0.0
 11
56.3459963641
 21
371.7695673841
 31
0.0
  0
ELLIPSE
  5
6A
330
5E
100
AcDbEntity
  8
$DDT_AUDIT_GENERATED_(60)
  6
Continuous
 62
     7
100
AcDbEllipse
 10
55.8609735513
 20
371.769567384
 30
0.0
 11
0.0
 21
0.4999987816108456
 31
0.0
210
0.0
220
0.0
230
1.0
 40
1.0
 41
-0.3119176187136841
 42
0.0000001510282885
  0
LINE
  5
6B
330
5E
100
AcDbEntity
  8
$DDT_AUDIT_GENERATED_(60)
  6
Continuous
 62
     7
100
AcDbLine
 10
54.4986477536
 20
372.269567384
 30
0.0
 11
55.8616098802
 21
372.269567384
 31
0.0
  0
LINE
  5
6C
330
5E
100
AcDbEntity
  8
$DDT_AUDIT_GENERATED_(60)
  6
Continuous
 62
     7
100
AcDbLine
 10
49.9975579606
 20
372.269567384
 30
0.0
 11
54.4986477536
 21
372.269567384
 31
0.0
  0
LINE
  5
6D
330
5E
100
AcDbEntity
  8
$DDT_AUDIT_GENERATED_(60)
  6
Continuous
 62
     7
100
AcDbLine
 10
12.7742011899
 20
372.269567384
 30
0.0
 11
49.9555224882
 21
372.269567384
 31
0.0
  0
LINE
  5
6E
330
5E
100
AcDbEntity
  8
$DDT_AUDIT_GENERATED_(60)
  6
Continuous
 62
     7
100
AcDbLine
 10
8.2310761616
 20
372.269567384
 30
0.0
 11
12.7323245608
 21
372.269567384
 31
0.0
  0
LINE
  5
6F
330
5E
100
AcDbEntity
  8
$DDT_AUDIT_GENERATED_(60)
  6
Continuous
 62
     7
100
AcDbLine
 10
6.8678439329
 20
372.269567384
 30
0.0
 11
8.2310761616
 21
372.269567384
 31
0.0
  0
ELLIPSE
  5
70
330
5E
100
AcDbEntity
  8
$DDT_AUDIT_GENERATED_(60)
  6
Continuous
 62
     7
100
AcDbEllipse
 10
6.8687501268
 20
371.769567384
 30
0.0
 11
-0.001486444622271488
 21
-0.4999977905907199
 31
0.0
210
0.0
220
0.0
230
0.9999999999999997
 40
0.9999745947
 41
3.144565471666122
 42
3.456546679272866
  0
LINE
  5
71
330
5E
100
AcDbEntity
  8
$DDT_AUDIT_GENERATED_(60)
  6
Continuous
 62
     7
100
AcDbLine
 10
6.3837581352
 20
371.7695673834
 30
0.0
 11
6.3674064554
 21
371.7695673833
 31
0.0
  0
ARC
  5
72
330
5E
100
AcDbEntity
  8
$DDT_AUDIT_GENERATED_(60)
  6
Continuous
 62
     7
100
AcDbCircle
 10
53.9690561448
 20
336.5326503344
 30
0.0
 40
25.74431046868056
100
AcDbArc
 50
98.235911504
 51
98.2614217822
  0
LINE
  5
73
330
5E
100
AcDbEntity
  8
$DDT_AUDIT_GENERATED_(60)
  6
Continuous
 62
     7
100
AcDbLine
 10
6.3687872153
 20
272.2695673827
 30
0.0
 11
6.3688147679
 21
272.2695673827
 31
0.0
  0
LINE
  5
74
330
5E
100
AcDbEntity
  8
$DDT_AUDIT_GENERATED_(60)
  6
Continuous
 62
     7
100
AcDbLine
 10
15.9903845571
 20
272.269567383
 30
0.0
 11
6.373913725
 21
272.2695673827
 31
0.0
  0
LINE
  5
75
330
5E
100
AcDbEntity
  8
$DDT_AUDIT_GENERATED_(60)
  6
Continuous
 62
     7
100
AcDbLine
 10
56.3558099582
 20
272.2695673827
 30
0.0
 11
46.739339121
 21
272.2695673827
 31
0.0
  0
LINE
  5
76
330
5E
100
AcDbEntity
  8
$DDT_AUDIT_GENERATED_(60)
  6
Continuous
 62
     7
100
AcDbLine
 10
56.3609094112
 20
272.2695673827
 30
0.0
 11
56.3609367042
 21
272.2695673825
 31
0.0
  0
LINE
  5
77
330
5E
100
AcDbEntity
  8
$DDT_AUDIT_GENERATED_(60)
  6
Continuous
 62
     7
100
AcDbLine
 10
50.4554974482
 20
371.769567384
 30
0.0
 11
50.4657371131
 21
371.769567384
 31
0.0
  0
SPLINE
  5
78
330
5E
100
AcDbEntity
  8
$DDT_AUDIT_GENERATED_(60)
  6
Continuous
 62
     7
100
AcDbSpline
210
0.0
220
0.0
230
1.0
 70
    12
 71
     2
 72
     6
 73
     3
 74
     0
 42
0.00000001
 43
0.0000000001
 40
0.0
 40
0.0
 40
0.0
 40
1.0
 40
1.0
 40
1.0
 10
49.955522488158
 20
372.2695673840406
 30
0.0
 41
1.0
 10
50.45552248815799
 20
372.2695673840407
 30
0.0
 41
0.707106781186548
 10
50.455522488158
 20
371.7695673840406
 30
0.0
 41
1.0
  0
SPLINE
  5
79
330
5E
100
AcDbEntity
  8
$DDT_AUDIT_GENERATED_(60)
  6
Continuous
 62
     7
100
AcDbSpline
210
0.0
220
0.0
230
1.0
 70
    12
 71
     2
 72
     6
 73
     3
 74
     0
 42
0.00000001
 43
0.0000000001
 40
0.0
 40
0.0
 40
0.0
 40
1.0
 40
1.0
 40
1.0
 10
12.7742011899332
 20
372.2695673840406
 30
0.0
 41
1.0
 10
12.2742011899331
 20
372.2695673840407
 30
0.0
 41
0.70710678118641
 10
12.27420118993315
 20
371.7695673840405
 30
0.0
 41
1.0
  0
ELLIPSE
  5
7A
330
5E
100
AcDbEntity
  8
$DDT_AUDIT_GENERATED_(60)
  6
Continuous
 62
     7
100
AcDbEllipse
 10
8.2310761616
 20
371.769567384
 30
0.0
 11
0.0
 21
0.5
 31
0.0
210
0.0
220
0.0
230
1.0
 40
1.0
 41
0.0
 42
1.570796326794897
  0
ARC
  5
7B
330
5E
100
AcDbEntity
  8
$DDT_AUDIT_GENERATED_(60)
  6
Continuous
 62
     7
100
AcDbCircle
 10
53.3576918374
 20
375.7288807145
 30
0.0
 40
13.4567349611674
100
AcDbArc
 50
257.5454224553
 51
257.5989524917
  0
ARC
  5
7C
330
5E
100
AcDbEntity
  8
$DDT_AUDIT_GENERATED_(60)
  6
Continuous
 62
     7
100
AcDbCircle
 10
53.3576918374
 20
375.7288807145
 30
0.0
 40
13.4567349611674
100
AcDbArc
 50
257.5423803355
 51
257.5439773629
  0
LINE
  5
7D
330
5E
100
AcDbEntity
  8
$DDT_AUDIT_GENERATED_(60)
  6
Continuous
 62
     7
100
AcDbLine
 10
54.968342017
 20
362.2742651744
 30
0.0
 11
54.968342017
 21
371.769567384
 31
0.0
  0
LINE
  5
7E
330
5E
100
AcDbEntity
  8
$DDT_AUDIT_GENERATED_(60)
  6
Continuous
 62
     7
100
AcDbLine
 10
53.596514954
 20
362.2742651743
 30
0.0
 11
54.968342017
 21
362.2742651744
 31
0.0
  0
LINE
  5
7F
330
5E
100
AcDbEntity
  8
$DDT_AUDIT_GENERATED_(60)
  6
Continuous
 62
     7
100
AcDbLine
 10
50.4555224882
 20
371.769567384
 30
0.0
 11
50.4555224882
 21
362.5903411717
 31
0.0
  0
LINE
  5
80
330
5E
100
AcDbEntity
  8
$DDT_AUDIT_GENERATED_(60)
  6
Continuous
 62
     7
100
AcDbLine
 10
12.2742011899
 20
371.769567384
 30
0.0
 11
12.2742011899
 21
362.5903225614
 31
0.0
  0
LINE
  5
81
330
5E
100
AcDbEntity
  8
$DDT_AUDIT_GENERATED_(60)
  6
Continuous
 62
     7
100
AcDbLine
 10
7.761381903
 20
371.769567384
 30
0.0
 11
7.761381903
 21
362.2742651744
 31
0.0
  0
LINE
  5
82
330
5E
100
AcDbEntity
  8
$DDT_AUDIT_GENERATED_(60)
  6
Continuous
 62
     7
100
AcDbLine
 10
7.7613819031
 20
362.2742651744
 30
0.0
 11
9.1313202222
 21
362.2742651743
 31
0.0
  0
SPLINE
  5
83
330
5E
100
AcDbEntity
  8
$DDT_AUDIT_GENERATED_(60)
  6
Continuous
 62
     7
100
AcDbSpline
210
0.0
220
0.0
230
1.0
 70
    12
 71
     6
 72
    15
 73
     8
 74
     0
 42
0.0000000010183809
 43
0.0000000001
 40
0.3310860251248199
 40
0.3310860251248199
 40
0.3310860251248199
 40
0.3310860251248199
 40
0.3310860251248199
 40
0.3310860251248199
 40
0.3310860251248199
 40
0.3902655746700215
 40
0.7446463944328552
 40
0.7446463944328552
 40
0.7446463944328552
 40
0.7446463944328552
 40
0.7446463944328552
 40
0.7446463944328552
 40
0.7446463944328552
 10
14.30284757005653
 20
359.7415605240712
 30
0.0
 41
1.0
 10
14.36507907699393
 20
359.6741374090382
 30
0.0
 41
1.0
 10
14.80377322436077
 20
359.2033472964469
 30
0.0
 41
1.0
 10
15.26911187297683
 20
358.7355699259658
 30
0.0
 41
1.0
 10
15.7612716178763
 20
358.273497741459
 30
0.0
 41
1.0
 10
16.27934758930241
 20
357.8204904984186
 30
0.0
 41
1.0
 10
16.8215024900384
 20
357.3801146761007
 30
0.0
 41
1.0
 10
17.30217884521454
 20
357.0141456875155
 30
0.0
 41
1.0
  0
SPLINE
  5
84
330
5E
100
AcDbEntity
  8
$DDT_AUDIT_GENERATED_(60)
  6
Continuous
 62
     7
100
AcDbSpline
210
0.0
220
0.0
230
1.0
 70
    12
 71
     6
 72
    15
 73
     8
 74
     0
 42
0.000000001018385
 43
0.0000000001
 40
0.2553494836037291
 40
0.2553494836037291
 40
0.2553494836037291
 40
0.2553494836037291
 40
0.2553494836037291
 40
0.2553494836037291
 40
0.2553494836037291
 40
0.6097317173846706
 40
0.6689115210928817
 40
0.6689115210928817
 40
0.6689115210928817
 40
0.6689115210928817
 40
0.6689115210928817
 40
0.6689115210928817
 40
0.6689115210928817
 10
45.42754474106874
 20
357.0141456176167
 30
0.0
 41
1.0
 10
45.90822111389484
 20
357.3801146158755
 30
0.0
 41
1.0
 10
46.45037605793676
 20
357.8204904698433
 30
0.0
 41
1.0
 10
46.96845206922811
 20
358.2734977467393
 30
0.0
 41
1.0
 10
47.46061185008551
 20
358.7355699664971
 30
0.0
 41
1.0
 10
47.92595053056064
 20
359.2033473728621
 30
0.0
 41
1.0
 10
48.36464470582729
 20
359.674137521429
 30
0.0
 41
1.0
 10
48.4268762335477
 20
359.7415606586874
 30
0.0
 41
1.0
  0
SPLINE
  5
85
330
5E
100
AcDbEntity
  8
$DDT_AUDIT_GENERATED_(60)
  6
Continuous
 62
     7
100
AcDbSpline
210
0.0
220
0.0
230
1.0
 70
    12
 71
     6
 72
    14
 73
     7
 74
     0
 42
0.0000000011282652
 43
0.0000000001
 40
0.7746093991208197
 40
0.7746093991208197
 40
0.7746093991208197
 40
0.7746093991208197
 40
0.7746093991208197
 40
0.7746093991208197
 40
0.7746093991208197
 40
0.8696456506637606
 40
0.8696456506637606
 40
0.8696456506637606
 40
0.8696456506637606
 40
0.8696456506637606
 40
0.8696456506637606
 40
0.8696456506637606
 10
49.06788563102226
 20
360.4658649307534
 30
0.0
 41
1.0
 10
49.16010283979425
 20
360.5745594093985
 30
0.0
 41
1.0
 10
49.25095540841193
 20
360.6832719139598
 30
0.0
 41
1.0
 10
49.34045712557194
 20
360.7919797539658
 30
0.0
 41
1.0
 10
49.42862455779229
 20
360.9006633967029
 30
0.0
 41
1.0
 10
49.51547685099541
 20
361.0093070255121
 30
0.0
 41
1.0
 10
49.60103536267167
 20
361.1178992497605
 30
0.0
 41
1.0
  0
SPLINE
  5
86
330
5E
100
AcDbEntity
  8
$DDT_AUDIT_GENERATED_(60)
  6
Continuous
 62
     7
100
AcDbSpline
210
0.0
220
0.0
230
1.0
 70
    12
 71
     6
 72
    14
 73
     7
 74
     0
 42
0.0000000011877457
 43
0.0000000001
 40
0.9732101218581417
 40
0.9732101218581417
 40
0.9732101218581417
 40
0.9732101218581417
 40
0.9732101218581417
 40
0.9732101218581417
 40
0.9732101218581417
 40
1.0
 40
1.0
 40
1.0
 40
1.0
 40
1.0
 40
1.0
 40
1.0
 10
50.13800265213232
 20
361.8268106572638
 30
0.0
 41
1.0
 10
50.16021243244966
 20
361.8573223822455
 30
0.0
 41
1.0
 10
50.1823278850278
 20
361.8878288920444
 30
0.0
 41
1.0
 10
50.20434961595807
 20
361.9183303166822
 30
0.0
 41
1.0
 10
50.22627823896384
 20
361.9488268250352
 30
0.0
 41
1.0
 10
50.24811437441712
 20
361.9793186263932
 30
0.0
 41
1.0
 10
50.2698586482703
 20
362.0098059720929
 30
0.0
 41
1.0
  0
ARC
  5
87
330
5E
100
AcDbEntity
  8
$DDT_AUDIT_GENERATED_(60)
  6
Continuous
 62
     7
100
AcDbCircle
 10
31.3566495894
 20
375.4227324526
 30
0.0
 40
23.15707964082439
100
AcDbArc
 50
239.1802263176
 51
239.3593367331
  0
SPLINE
  5
88
330
5E
100
AcDbEntity
  8
$DDT_AUDIT_GENERATED_(60)
  6
Continuous
 62
     7
100
AcDbSpline
210
0.0
220
0.0
230
1.0
 70
     8
 71
     3
 72
    20
 73
    16
 74
     0
 42
0.0000000007431985
 43
0.0000000001
 40
0.0
 40
0.0
 40
0.0
 40
0.0
 40
0.1249999999999996
 40
0.1249999999999996
 40
0.2499999999999991
 40
0.2499999999999991
 40
0.4999999999999982
 40
0.4999999999999982
 40
0.6249999999999986
 40
0.6249999999999986
 40
0.749999999999999
 40
0.749999999999999
 40
0.8749999999999994
 40
0.8749999999999994
 40
1.0
 40
1.0
 40
1.0
 40
1.0
 10
43.23735706591668
 20
355.5358446255084
 30
0.0
 10
43.46709347107598
 20
355.6723175867726
 30
0.0
 10
43.59091996239323
 20
355.8289647797228
 30
0.0
 10
43.63256895189077
 20
356.148786694115
 30
0.0
 10
43.54671251949276
 20
356.3177777174473
 30
0.0
 10
42.98284448196497
 20
356.8042143906175
 30
0.0
 10
42.18516935430798
 20
357.106480172989
 30
0.0
 10
40.48729590453533
 20
357.457350100019
 30
0.0
 10
39.827279507083
 20
357.5601317617387
 30
0.0
 10
38.39307367331019
 20
357.7260435712961
 30
0.0
 10
37.61341429145894
 20
357.7911671142097
 30
0.0
 10
35.92953196978758
 20
357.8764338455841
 30
0.0
 10
35.05644876460374
 20
357.8918570082246
 30
0.0
 10
33.2489228357062
 20
357.8843595703743
 30
0.0
 10
32.30676875952691
 20
357.8738056726367
 30
0.0
 10
31.36497513998634
 20
357.8737909935676
 30
0.0
  0
SPLINE
  5
89
330
5E
100
AcDbEntity
  8
$DDT_AUDIT_GENERATED_(60)
  6
Continuous
 62
     7
100
AcDbSpline
210
0.0
220
0.0
230
1.0
 70
     8
 71
     3
 72
    16
 73
    12
 74
     0
 42
0.0000000007347604
 43
0.0000000001
 40
0.0
 40
0.0
 40
0.0
 40
0.0
 40
0.25
 40
0.25
 40
0.375
 40
0.375
 40
0.5
 40
0.5
 40
0.75
 40
0.75
 40
1.0
 40
1.0
 40
1.0
 40
1.0
 10
31.36497513998634
 20
357.8737909935676
 30
0.0
 10
29.48348040767283
 20
357.8738445180221
 30
0.0
 10
27.62747965401682
 20
357.9180358456917
 30
0.0
 10
25.13412624429521
 20
357.7922130804478
 30
0.0
 10
24.33925044592702
 20
357.7263246675662
 30
0.0
 10
22.90147870263948
 20
357.5600397799791
 30
0.0
 10
22.25629469712903
 20
357.4598584876537
 30
0.0
 10
20.54417258603316
 20
357.1071072820138
 30
0.0
 10
19.74942725370304
 20
356.8056969837547
 30
0.0
 10
18.99467746487799
 20
356.1560198461694
 30
0.0
 10
19.03315459887373
 20
355.8088600013468
 30
0.0
 10
19.49236819379679
 20
355.5358230784315
 30
0.0
  0
ARC
  5
8A
330
5E
100
AcDbEntity
  8
$DDT_AUDIT_GENERATED_(60)
  6
Continuous
 62
     7
100
AcDbCircle
 10
31.3733572602
 20
375.4215784167
 30
0.0
 40
23.15592580325884
100
AcDbArc
 50
300.642502553
 51
300.8206656166
  0
ELLIPSE
  5
8B
330
5E
100
AcDbEntity
  8
$DDT_AUDIT_GENERATED_(60)
  6
Continuous
 62
     7
100
AcDbEllipse
 10
31.364861839
 20
357.0984988161
 30
0.0
 11
-12.25
 21
0.0
 31
0.0
210
0.0
220
0.0
230
1.0
 40
0.2940403252
 41
-3.413481710702588
 42
-3.327472384479998
  0
ELLIPSE
  5
8C
330
5E
100
AcDbEntity
  8
$DDT_AUDIT_GENERATED_(60)
  6
Continuous
 62
     7
100
AcDbEllipse
 10
31.364861839
 20
357.0984988161
 30
0.0
 11
-12.25
 21
0.0
 31
0.0
210
0.0
220
0.0
230
1.0
 40
0.2940403252
 41
0.1831770096613414
 42
0.2718890571128416
  0
ELLIPSE
  5
8D
330
5E
100
AcDbEntity
  8
$DDT_AUDIT_GENERATED_(60)
  6
Continuous
 62
     7
100
AcDbEllipse
 10
31.364861839
 20
357.0984988161
 30
0.0
 11
12.0085
 21
0.0
 31
0.0
210
0.0
220
0.0
230
1.0
 40
0.2940403252
 41
-0.1866182159288421
 42
-0.149793454042725
  0
ELLIPSE
  5
8E
330
5E
100
AcDbEntity
  8
$DDT_AUDIT_GENERATED_(60)
  6
Continuous
 62
     7
100
AcDbEllipse
 10
31.364861839
 20
357.0984988161
 30
0.0
 11
12.0085
 21
0.0
 31
0.0
210
0.0
220
0.0
230
1.0
 40
0.2940403252
 41
3.291148133051221
 42
3.328210869518706
  0
LINE
  5
8F
330
5E
100
AcDbEntity
  8
$DDT_AUDIT_GENERATED_(60)
  6
Continuous
 62
     7
100
AcDbLine
 10
6.3739720101
 20
362.2742651726
 30
0.0
 11
6.3739720101
 21
272.2695673817
 31
0.0
  0
LINE
  5
90
330
5E
100
AcDbEntity
  8
$DDT_AUDIT_GENERATED_(60)
  6
Continuous
 62
     7
100
AcDbLine
 10
56.355751668
 20
272.2695673817
 30
0.0
 11
56.355751668
 21
362.2742651726
 31
0.0
  0
SPLINE
  5
91
330
5E
100
AcDbEntity
  8
$DDT_AUDIT_GENERATED_(60)
  6
Continuous
 62
     7
100
AcDbSpline
210
0.0
220
0.0
230
1.0
 70
     8
 71
     3
 72
    20
 73
    16
 74
     0
 42
0.0000000010531524
 43
0.0000000001
 40
0.0
 40
0.0
 40
0.0
 40
0.0
 40
0.0479282434495127
 40
0.1253731316475429
 40
0.2203866456910827
 40
0.3306673630206203
 40
0.4482080320909436
 40
0.5647745743084036
 40
0.6729838256168
 40
0.7664954772343601
 40
0.8444223095704341
 40
0.9079623972531141
 40
0.9583197962068701
 40
0.996702120845094
 40
1.0
 40
1.0
 40
1.0
 40
1.0
 10
56.36175134960869
 20
362.2742651768946
 30
0.0
 10
56.36173175616316
 20
362.4411197458455
 30
0.0
 10
56.36168882318171
 20
362.8112196463389
 30
0.0
 10
56.36165417168878
 20
363.5249280844377
 30
0.0
 10
56.36163791570098
 20
364.4137498917347
 30
0.0
 10
56.36164214366854
 20
365.4376930839128
 30
0.0
 10
56.36164712780582
 20
366.5271941116077
 30
0.0
 10
56.36164094241014
 20
367.6109410620045
 30
0.0
 10
56.36163924114647
 20
368.6183248034799
 30
0.0
 10
56.3616588170449
 20
369.5037552113209
 30
0.0
 10
56.36170215218144
 20
370.2468600869498
 30
0.0
 10
56.36176291954551
 20
370.8558264047407
 30
0.0
 10
56.36184470953968
 20
371.3328350491068
 30
0.0
 10
56.36190754974718
 20
371.6335592397514
 30
0.0
 10
56.36195418987263
 20
371.7581152992324
 30
0.0
 10
56.36195848130116
 20
371.7695673858854
 30
0.0
  0
SPLINE
  5
92
330
5E
100
AcDbEntity
  8
$DDT_AUDIT_GENERATED_(60)
  6
Continuous
 62
     7
100
AcDbSpline
210
0.0
220
0.0
230
1.0
 70
     8
 71
     3
 72
    20
 73
    16
 74
     0
 42
0.0000000010531524
 43
0.0000000001
 40
0.0
 40
0.0
 40
0.0
 40
0.0
 40
0.0479282321214404
 40
0.1253731218792382
 40
0.2203866381235186
 40
0.3306673586955005
 40
0.4482080316447657
 40
0.5647745777485583
 40
0.6729838323461265
 40
0.7664954863475507
 40
0.844422320426636
 40
0.9079624092664322
 40
0.9583198088406182
 40
0.9967021336122637
 40
1.0
 40
1.0
 40
1.0
 40
1.0
 10
6.367972328506721
 20
371.7695673794697
 30
0.0
 10
6.367991921948195
 20
371.6027128499613
 30
0.0
 10
6.368034854927853
 20
371.2326129771655
 30
0.0
 10
6.368069506420285
 20
370.5189045621713
 30
0.0
 10
6.368085762410918
 20
369.6300827334326
 30
0.0
 10
6.368081534443421
 20
368.606139511524
 30
0.0
 10
6.368076550306041
 20
367.5166384490936
 30
0.0
 10
6.368082735701885
 20
366.4328914637056
 30
0.0
 10
6.36808443696505
 20
365.4255076920262
 30
0.0
 10
6.36806486106465
 20
364.540077260662
 30
0.0
 10
6.368021525924892
 20
363.79697236853
 30
0.0
 10
6.367960758558583
 20
363.1880060390743
 30
0.0
 10
6.367878968557211
 20
362.7109973900754
 30
0.0
 10
6.367816128361448
 20
362.4102732361127
 30
0.0
 10
6.36776948824894
 20
362.2857172127855
 30
0.0
 10
6.367765196836982
 20
362.2742651704675
 30
0.0
  0
ARC
  5
93
330
5E
100
AcDbEntity
  8
$DDT_AUDIT_GENERATED_(60)
  6
Continuous
 62
     7
100
AcDbCircle
 10
55.8814699143
 20
371.799376936
 30
0.0
 40
0.4654789330306769
100
AcDbArc
 50
356.3282309857
 51
73.5469428779
  0
ARC
  5
94
330
5E
100
AcDbEntity
  8
$DDT_AUDIT_GENERATED_(60)
  6
Continuous
 62
     7
100
AcDbCircle
 10
6.8482146071
 20
371.7994335888
 30
0.0
 40
0.4654128637288054
100
AcDbArc
 50
106.453947783
 51
183.6792797236
  0
LINE
  5
96
330
5E
100
AcDbEntity
  8
$DDT_AUDIT_GENERATED_(95)
  6
Continuous
 62
     7
100
AcDbLine
 10
53.6956660294
 20
272.2595673827
 30
0.0
 11
34.7764294941
 21
272.2595673827
 31
0.0
  0
LINE
  5
97
330
5E
100
AcDbEntity
  8
$DDT_AUDIT_GENERATED_(95)
  6
Continuous
 62
     7
100
AcDbLine
 10
31.3233478052
 20
272.2595673827
 30
0.0
 11
9.0294398582
 21
272.2595673827
 31
0.0
  0
ELLIPSE
  5
99
330
5E
100
AcDbEntity
  8
02636038_GEHÄUSE
  6
Continuous
 62
     7
100
AcDbEllipse
 10
31.364861839
 20
348.7830995874
 30
0.0
 11
-10.75000000000001
 21
0.0
 31
0.0
210
0.0
220
0.0
230
1.0
 40
0.2940403252
 41
0.0
 42
6.283185307179586
  0
LINE
  5
9A
330
5E
100
AcDbEntity
  8
02636038_GEHÄUSE
  6
Continuous
 62
     7
100
AcDbLine
 10
42.364861839
 20
348.3260683221
 30
0.0
 11
42.364861839
 21
349.8471409424
 31
0.0
  0
ELLIPSE
  5
9B
330
5E
100
AcDbEntity
  8
02636038_GEHÄUSE
  6
Continuous
 62
     7
100
AcDbEllipse
 10
31.364861839
 20
351.6504786318
 30
0.0
 11
-11.79999999999997
 21
0.0
 31
0.0
210
0.0
220
0.0
230
1.0
 40
0.2940403252
 41
2.771250021498072
 42
3.511935285681508
  0
LINE
  5
9C
330
5E
100
AcDbEntity
  8
02636038_GEHÄUSE
  6
Continuous
 62
     7
100
AcDbLine
 10
42.364861839
 20
348.3260683221
 30
0.0
 11
42.364861839
 21
348.2445492355
 31
0.0
  0
LINE
  5
9D
330
5E
100
AcDbEntity
  8
02636038_GEHÄUSE
  6
Continuous
 62
     7
100
AcDbLine
 10
42.364861839
 20
349.8471409424
 30
0.0
 11
42.364861839
 21
351.1701422885
 31
0.0
  0
LINE
  5
9E
330
5E
100
AcDbEntity
  8
02636038_GEHÄUSE
  6
Continuous
 62
     7
100
AcDbLine
 10
42.364861839
 20
351.1701422885
 30
0.0
 11
42.364861839
 21
352.9062752565
 31
0.0
  0
LINE
  5
9F
330
5E
100
AcDbEntity
  8
02636038_GEHÄUSE
  6
Continuous
 62
     7
100
AcDbLine
 10
20.364861839
 20
349.8471409424
 30
0.0
 11
20.364861839
 21
348.3260683221
 31
0.0
  0
ELLIPSE
  5
A0
330
5E
100
AcDbEntity
  8
02636038_GEHÄUSE
  6
Continuous
 62
     7
100
AcDbEllipse
 10
31.364861839
 20
351.6504786318
 30
0.0
 11
11.80000000000033
 21
0.0
 31
0.0
210
0.0
220
0.0
230
1.0
 40
0.2940403252
 41
2.771250021498084
 42
3.511935285681508
  0
LINE
  5
A1
330
5E
100
AcDbEntity
  8
02636038_GEHÄUSE
  6
Continuous
 62
     7
100
AcDbLine
 10
20.364861839
 20
352.9062752565
 30
0.0
 11
20.364861839
 21
351.1701422885
 31
0.0
  0
LINE
  5
A2
330
5E
100
AcDbEntity
  8
02636038_GEHÄUSE
  6
Continuous
 62
     7
100
AcDbLine
 10
20.364861839
 20
351.1701422885
 30
0.0
 11
20.364861839
 21
349.8471409424
 31
0.0
  0
LINE
  5
A3
330
5E
100
AcDbEntity
  8
02636038_GEHÄUSE
  6
Continuous
 62
     7
100
AcDbLine
 10
20.364861839
 20
348.2445124796
 30
0.0
 11
20.364861839
 21
348.3260683221
 31
0.0
  0
LINE
  5
A4
330
5E
100
AcDbEntity
  8
02636038_GEHÄUSE
  6
Continuous
 62
     7
100
AcDbLine
 10
21.8026807338
 20
347.3161328577
 30
0.0
 11
22.2680966283
 21
347.0988012178
 31
0.0
  0
LINE
  5
A5
330
5E
100
AcDbEntity
  8
02636038_GEHÄUSE
  6
Continuous
 62
     7
100
AcDbLine
 10
40.4616270498
 20
347.0988012178
 30
0.0
 11
40.9270429443
 21
347.3161328577
 31
0.0
  0
ARC
  5
A6
330
5E
100
AcDbEntity
  8
02636038_GEHÄUSE
  6
Continuous
 62
     7
100
AcDbCircle
 10
38.7355444655
 20
352.2779681253
 30
0.0
 40
5.424244251253696
100
AcDbArc
 50
292.7665884241
 51
311.9816260872
  0
ARC
  5
A7
330
5E
100
AcDbEntity
  8
02636038_GEHÄUSE
  6
Continuous
 62
     7
100
AcDbCircle
 10
24.085250572
 20
352.4069982143
 30
0.0
 40
5.582001218541442
100
AcDbArc
 50
228.1463613066
 51
246.5124867459
  0
LINE
  5
A8
330
5E
100
AcDbEntity
  8
02636038_GEHÄUSE
  6
Continuous
 62
     7
100
AcDbLine
 10
19.564861839
 20
356.6155302669
 30
0.0
 11
19.564861839
 21
351.6504786318
 31
0.0
  0
LINE
  5
A9
330
5E
100
AcDbEntity
  8
02636038_GEHÄUSE
  6
Continuous
 62
     7
100
AcDbLine
 10
43.164861839
 20
351.6504786318
 30
0.0
 11
43.164861839
 21
356.608047218
 31
0.0
  0
SPLINE
  5
AB
330
5E
100
AcDbEntity
  8
$DDT_AUDIT_GENERATED_(AA)
  6
Continuous
 62
     7
100
AcDbSpline
210
0.0
220
0.0
230
1.0
 70
     8
 71
     3
 72
    10
 73
     6
 74
     0
 42
0.0000000014493389
 43
0.0000000001
 40
0.9339302051760574
 40
0.9339302051760574
 40
0.9339302051760574
 40
0.9339302051760574
 40
0.9374016646776866
 40
0.9686972914875559
 40
0.9696382484805802
 40
0.9696382484805802
 40
0.9696382484805802
 40
0.9696382484805802
 10
50.1003041219925
 20
406.0818837548609
 30
0.0
 10
50.10228559851473
 20
406.0897667852677
 30
0.0
 10
50.12102431302626
 20
406.1687225881742
 30
0.0
 10
50.12883746283281
 20
406.2498527898875
 30
0.0
 10
50.12703987971823
 20
406.3232784939676
 30
0.0
 10
50.12697978978908
 20
406.325421851946
 30
0.0
  0
SPLINE
  5
AC
330
5E
100
AcDbEntity
  8
$DDT_AUDIT_GENERATED_(AA)
  6
Continuous
 62
     7
100
AcDbSpline
210
0.0
220
0.0
230
1.0
 70
     8
 71
     3
 72
    11
 73
     7
 74
     0
 42
0.0000000014504681
 43
0.0000000001
 40
0.029672344095751
 40
0.029672344095751
 40
0.029672344095751
 40
0.029672344095751
 40
0.0312907383128727
 40
0.0385599113359119
 40
0.0625715745752731
 40
0.0664182754741231
 40
0.0664182754741231
 40
0.0664182754741231
 40
0.0664182754741231
 10
12.60248142036563
 20
406.3300111317562
 30
0.0
 10
12.60229270691489
 20
406.3263284678382
 30
0.0
 10
12.60142755118894
 20
406.3061037159897
 30
0.0
 10
12.60189461865589
 20
406.2312148664373
 30
0.0
 10
12.61167243097165
 20
406.1513287571693
 30
0.0
 10
12.62650810267799
 20
406.08801804603
 30
0.0
 10
12.6286913236726
 20
406.0792771831002
 30
0.0
  0
ARC
  5
AD
330
5E
100
AcDbEntity
  8
$DDT_AUDIT_GENERATED_(AA)
  6
Continuous
 62
     7
100
AcDbCircle
 10
13.8041912397
 20
376.1307758057
 30
0.0
 40
6.610399648517189
100
AcDbArc
 50
169.2490887523
 51
180.2890424669
  0
ARC
  5
AE
330
5E
100
AcDbEntity
  8
$DDT_AUDIT_GENERATED_(AA)
  6
Continuous
 62
     7
100
AcDbCircle
 10
48.9248048843
 20
376.1306894669
 30
0.0
 40
6.61113052468199
100
AcDbArc
 50
359.7130892593
 51
10.7504538484
  0
ELLIPSE
  5
AF
330
5E
100
AcDbEntity
  8
$DDT_AUDIT_GENERATED_(AA)
  6
Continuous
 62
     7
100
AcDbEllipse
 10
54.9091275787
 20
374.9868817068
 30
0.0
 11
0.0
 21
0.3000000000035357
 31
0.0
210
0.0
220
0.0
230
1.0
 40
1.0
 41
3.141592653589793
 42
3.336671149505087
  0
ARC
  5
B0
330
5E
100
AcDbEntity
  8
$DDT_AUDIT_GENERATED_(AA)
  6
Continuous
 62
     7
100
AcDbCircle
 10
31.398984005
 20
640.7273787291
 30
0.0
 40
232.6877058595639
100
AcDbArc
 50
265.5073320483
 51
269.991707543
  0
ARC
  5
B1
330
5E
100
AcDbEntity
  8
$DDT_AUDIT_GENERATED_(AA)
  6
Continuous
 62
     7
100
AcDbCircle
 10
31.3959676398
 20
639.2119576562
 30
0.0
 40
231.1722843828747
100
AcDbArc
 50
269.9924007854
 51
274.5061417341
  0
SPLINE
  5
B2
330
5E
100
AcDbEntity
  8
$DDT_AUDIT_GENERATED_(AA)
  6
Continuous
 62
     7
100
AcDbSpline
210
0.0
220
0.0
230
1.0
 70
     8
 71
     3
 72
     8
 73
     4
 74
     0
 42
0.0000000014454487
 43
0.0000000001
 40
0.0
 40
0.0
 40
0.0
 40
0.0
 40
0.0047475909730392
 40
0.0047475909730392
 40
0.0047475909730392
 40
0.0047475909730392
 10
12.82449934880409
 20
415.6133627241446
 30
0.0
 10
12.82455794903326
 20
415.6242623298261
 30
0.0
 10
12.82532660903904
 20
415.6351691003271
 30
0.0
 10
12.82680199501836
 20
415.6460813287071
 30
0.0
  0
SPLINE
  5
B3
330
5E
100
AcDbEntity
  8
$DDT_AUDIT_GENERATED_(AA)
  6
Continuous
 62
     7
100
AcDbSpline
210
0.0
220
0.0
230
1.0
 70
     8
 71
     3
 72
     8
 73
     4
 74
     0
 42
0.0000000014457442
 43
0.0000000001
 40
0.9965449596270833
 40
0.9965449596270833
 40
0.9965449596270833
 40
0.9965449596270833
 40
1.0
 40
1.0
 40
1.0
 40
1.0
 10
49.90545258065148
 20
415.6442918788167
 30
0.0
 10
49.90624715263311
 20
415.6363400060766
 30
0.0
 10
49.90666711727813
 20
415.6283907242434
 30
0.0
 10
49.90671120063414
 20
415.6204446799879
 30
0.0
  0
ARC
  5
B4
330
5E
100
AcDbEntity
  8
$DDT_AUDIT_GENERATED_(AA)
  6
Continuous
 62
     7
100
AcDbCircle
 10
49.4152154236
 20
415.5477100176
 30
0.0
 40
0.4968484979453227
100
AcDbArc
 50
0.9648582446
 51
8.4178971298
  0
ARC
  5
B5
330
5E
100
AcDbEntity
  8
$DDT_AUDIT_GENERATED_(AA)
  6
Continuous
 62
     7
100
AcDbCircle
 10
13.316005516
 20
415.5406230416
 30
0.0
 40
0.4968595111892826
100
AcDbArc
 50
171.5817055994
 51
178.9069012295
  0
LINE
  5
B6
330
5E
100
AcDbEntity
  8
$DDT_AUDIT_GENERATED_(AA)
  6
Continuous
 62
     7
100
AcDbLine
 10
49.5412799921
 20
418.0776477332
 30
0.0
 11
49.9067112006
 21
415.62044468
 31
0.0
  0
SPLINE
  5
B7
330
5E
100
AcDbEntity
  8
$DDT_AUDIT_GENERATED_(AA)
  6
Continuous
 62
     7
100
AcDbSpline
210
0.0
220
0.0
230
1.0
 70
     8
 71
     3
 72
     8
 73
     4
 74
     0
 42
0.0000000014263053
 43
0.0000000001
 40
0.0000020928600833
 40
0.0000020928600833
 40
0.0000020928600833
 40
0.0000020928600833
 40
0.0055760582361694
 40
0.0055760582361694
 40
0.0055760582361694
 40
0.0055760582361694
 10
49.54127798130054
 20
418.0776623655913
 30
0.0
 10
49.53949285551194
 20
418.0906525540231
 30
0.0
 10
49.53772360913602
 20
418.103535066184
 30
0.0
 10
49.53561092355154
 20
418.1163258020148
 30
0.0
  0
LINE
  5
B8
330
5E
100
AcDbEntity
  8
$DDT_AUDIT_GENERATED_(AA)
  6
Continuous
 62
     7
100
AcDbLine
 10
10.0585605689
 20
374.6868817068
 30
0.0
 11
52.6839452958
 21
374.6868817068
 31
0.0
  0
LINE
  5
B9
330
5E
100
AcDbEntity
  8
$DDT_AUDIT_GENERATED_(AA)
  6
Continuous
 62
     7
100
AcDbLine
 10
52.6839452958
 20
374.6868817068
 30
0.0
 11
54.9091275787
 21
374.6868817068
 31
0.0
  0
SPLINE
  5
BA
330
5E
100
AcDbEntity
  8
$DDT_AUDIT_GENERATED_(AA)
  6
Continuous
 62
     7
100
AcDbSpline
210
0.0
220
0.0
230
1.0
 70
     8
 71
     3
 72
     8
 73
     4
 74
     0
 42
0.0000000296556333
 43
0.0000000001
 40
0.6946647514096393
 40
0.6946647514096393
 40
0.6946647514096393
 40
0.6946647514096393
 40
0.7281557107663572
 40
0.7281557107663572
 40
0.7281557107663572
 40
0.7281557107663572
 10
7.555795672841647
 20
374.7577416447131
 30
0.0
 10
7.558957197918253
 20
374.755810836359
 30
0.0
 10
7.562243877030344
 20
374.7539789411996
 30
0.0
 10
7.565654218726597
 20
374.7522444716971
 30
0.0
  0
ARC
  5
BB
330
5E
100
AcDbEntity
  8
$DDT_AUDIT_GENERATED_(AA)
  6
Continuous
 62
     7
100
AcDbCircle
 10
9.7940869377
 20
427.990342944
 30
0.0
 40
53.3041173472036
100
AcDbArc
 50
268.9247576435
 51
270.2841652183
  0
ARC
  5
BC
330
5E
100
AcDbEntity
  8
$DDT_AUDIT_GENERATED_(AA)
  6
Continuous
 62
     7
100
AcDbCircle
 10
7.7713229243
 20
374.8932307067
 30
0.0
 40
0.1922057189715235
100
AcDbArc
 50
263.8485918445
 51
272.3900467531
  0
LINE
  5
BD
330
5E
100
AcDbEntity
  8
$DDT_AUDIT_GENERATED_(AA)
  6
Continuous
 62
     7
100
AcDbLine
 10
55.4656398654
 20
377.0706216852
 30
0.0
 11
55.4602921724
 21
377.1267040743
 31
0.0
  0
ARC
  5
BE
330
5E
100
AcDbEntity
  8
$DDT_AUDIT_GENERATED_(AA)
  6
Continuous
 62
     7
100
AcDbCircle
 10
48.8386950264
 20
376.0586189626
 30
0.0
 40
6.703771133397928
100
AcDbArc
 50
355.2234962422
 51
8.682576434
  0
SPLINE
  5
BF
330
5E
100
AcDbEntity
  8
$DDT_AUDIT_GENERATED_(AA)
  6
Continuous
 62
     7
100
AcDbSpline
210
0.0
220
0.0
230
1.0
 70
     8
 71
     3
 72
    11
 73
     7
 74
     0
 42
0.0000000092359783
 43
0.0000000001
 40
0.0
 40
0.0
 40
0.0
 40
0.0
 40
0.2059697832660457
 40
0.4412659467864378
 40
0.707064182803951
 40
1.0
 40
1.0
 40
1.0
 40
1.0
 10
54.96721982858092
 20
374.6928797410172
 30
0.0
 10
55.03822809758718
 20
374.7062668499219
 30
0.0
 10
55.16543996702225
 20
374.7337383337448
 30
0.0
 10
55.33737567905401
 20
374.8825307978309
 30
0.0
 10
55.4667450114074
 20
375.1340634535403
 30
0.0
 10
55.5006216136637
 20
375.3587678954914
 30
0.0
 10
55.51918455546162
 20
375.5004012761333
 30
0.0
  0
SPLINE
  5
C0
330
5E
100
AcDbEntity
  8
$DDT_AUDIT_GENERATED_(AA)
  6
Continuous
 62
     7
100
AcDbSpline
210
0.0
220
0.0
230
1.0
 70
     8
 71
     3
 72
    11
 73
     7
 74
     0
 42
0.0000000113704434
 43
0.0000000001
 40
0.0
 40
0.0
 40
0.0
 40
0.0
 40
0.292113146572151
 40
0.6000887242561252
 40
0.928315071565917
 40
1.0
 40
1.0
 40
1.0
 40
1.0
 10
7.210552185277445
 20
375.5003959849872
 30
0.0
 10
7.222919873522939
 20
375.3921080812598
 30
0.0
 10
7.246874504051114
 20
375.2052295949792
 30
0.0
 10
7.34791392244408
 20
374.9544384473036
 30
0.0
 10
7.466080055056445
 20
374.7943701658872
 30
0.0
 10
7.554962893231619
 20
374.7662874699141
 30
0.0
 10
7.573614077699176
 20
374.7605273785642
 30
0.0
  0
ARC
  5
C1
330
5E
100
AcDbEntity
  8
$DDT_AUDIT_GENERATED_(AA)
  6
Continuous
 62
     7
100
AcDbCircle
 10
13.8918952442
 20
376.0587091191
 30
0.0
 40
6.704629641262653
100
AcDbArc
 50
171.3159892737
 51
184.7767101666
  0
LINE
  5
C2
330
5E
100
AcDbEntity
  8
$DDT_AUDIT_GENERATED_(AA)
  6
Continuous
 62
     7
100
AcDbLine
 10
7.2694433999
 20
377.1267580618
 30
0.0
 11
7.2641270749
 21
377.0710073563
 31
0.0
  0
ARC
  5
C3
330
5E
100
AcDbEntity
  8
$DDT_AUDIT_GENERATED_(AA)
  6
Continuous
 62
     7
100
AcDbCircle
 10
11.4403143129
 20
406.6018921654
 30
0.0
 40
1.191550232411891
100
AcDbArc
 50
346.8279150004
 51
1.0925753396
  0
ARC
  5
C4
330
5E
100
AcDbEntity
  8
$DDT_AUDIT_GENERATED_(AA)
  6
Continuous
 62
     7
100
AcDbCircle
 10
51.0857021763
 20
406.585112953
 30
0.0
 40
0.9908863544810663
100
AcDbArc
 50
176.2436196624
 51
195.1425485353
  0
LINE
  5
C5
330
5E
100
AcDbEntity
  8
$DDT_AUDIT_GENERATED_(AA)
  6
Continuous
 62
     7
100
AcDbLine
 10
13.2229891832
 20
418.2074061044
 30
0.0
 11
12.8574447976
 21
415.7424488041
 31
0.0
  0
LINE
  5
C6
330
5E
100
AcDbEntity
  8
$DDT_AUDIT_GENERATED_(AA)
  6
Continuous
 62
     7
100
AcDbLine
 10
49.8737158704
 20
415.7498881427
 30
0.0
 11
49.5093110694
 21
418.2071837134
 31
0.0
  0
ARC
  5
C7
330
5E
100
AcDbEntity
  8
$DDT_AUDIT_GENERATED_(AA)
  6
Continuous
 62
     7
100
AcDbCircle
 10
114.6405429429
 20
410.7231426839
 30
0.0
 40
64.67594477347745
100
AcDbArc
 50
181.3057382223
 51
183.6497804492
  0
ARC
  5
C8
330
5E
100
AcDbEntity
  8
$DDT_AUDIT_GENERATED_(AA)
  6
Continuous
 62
     7
100
AcDbCircle
 10
3198.5489034529
 20
445.5516999917
 30
0.0
 40
3148.777145920695
100
AcDbArc
 50
180.5460720922
 51
180.6605485541
  0
LINE
  5
C9
330
5E
100
AcDbEntity
  8
$DDT_AUDIT_GENERATED_(AA)
  6
Continuous
 62
     7
100
AcDbLine
 10
49.9120528901
 20
415.545386856
 30
0.0
 11
49.911941007
 21
415.5555699251
 31
0.0
  0
LINE
  5
CA
330
5E
100
AcDbEntity
  8
$DDT_AUDIT_GENERATED_(AA)
  6
Continuous
 62
     7
100
AcDbLine
 10
12.8194613467
 20
415.5495891678
 30
0.0
 11
12.8192985318
 21
415.539118191
 31
0.0
  0
ARC
  5
CB
330
5E
100
AcDbEntity
  8
$DDT_AUDIT_GENERATED_(AA)
  6
Continuous
 62
     7
100
AcDbCircle
 10
-2139.9915657427
 20
437.0217880588
 30
0.0
 40
2152.917415038301
100
AcDbArc
 50
359.2610456414
 51
359.4281507957
  0
ARC
  5
CC
330
5E
100
AcDbEntity
  8
$DDT_AUDIT_GENERATED_(AA)
  6
Continuous
 62
     7
100
AcDbCircle
 10
-54.0613257246
 20
410.8409924643
 30
0.0
 40
66.82943539475468
100
AcDbArc
 50
356.3684716429
 51
358.6367590142
  0
SPLINE
  5
CD
330
5E
100
AcDbEntity
  8
$DDT_AUDIT_GENERATED_(AA)
  6
Continuous
 62
     7
100
AcDbSpline
210
0.0
220
0.0
230
1.0
 70
     8
 71
     3
 72
    72
 73
    68
 74
     0
 42
0.0000000002614626
 43
0.0000000001
 40
0.0
 40
0.0
 40
0.0
 40
0.0
 40
0.0121228762382508
 40
0.0233728160543904
 40
0.033935138917047
 40
0.0436127495434896
 40
0.0563429715015595
 40
0.0670162515308453
 40
0.0763777234501524
 40
0.0855036552777571
 40
0.0944169425252069
 40
0.1034230788067158
 40
0.1139592781002724
 40
0.1261915200295259
 40
0.1378746786618348
 40
0.1485443910698284
 40
0.1572340901509756
 40
0.1639710075885201
 40
0.1693743547148476
 40
0.1750802328244611
 40
0.1811785222136211
 40
0.1933707999765165
 40
0.2068008822234793
 40
0.2213128089357577
 40
0.239101531305149
 40
0.2582647171197601
 40
0.2787980972913144
 40
0.3007011982385038
 40
0.3239760825468519
 40
0.3486234067061461
 40
0.3739511797511501
 40
0.3992455269661967
 40
0.4244989415084015
 40
0.4497026310324337
 40
0.4748468278768556
 40
0.4999187002456277
 40
0.5249016424359066
 40
0.5497772972659655
 40
0.574528648186461
 40
0.5991432044347987
 40
0.6236163051131487
 40
0.6475303740322185
 40
0.6699194438432412
 40
0.6907913125989105
 40
0.7101891523288677
 40
0.7281460308421912
 40
0.7446844771249883
 40
0.7598176181317796
 40
0.7718456722410334
 40
0.7848239531697915
 40
0.7992543856585039
 40
0.8151643681292685
 40
0.8322801044787127
 40
0.8495144127057654
 40
0.866787918005258
 40
0.8817772706556719
 40
0.8962285037586766
 40
0.909864607932503
 40
0.9213695526062801
 40
0.9262493970122456
 40
0.9318149635796674
 40
0.9389905360626736
 40
0.9478161265185312
 40
0.9583388884214686
 40
0.9705799242530969
 40
0.9844554019001207
 40
0.9869304310179352
 40
0.9869304310179352
 40
0.9869304310179352
 40
0.9869304310179352
 10
49.53820646329032
 20
418.1160722128005
 30
0.0
 10
49.51833727045611
 20
418.230893432173
 30
0.0
 10
49.48592040336205
 20
418.414608843881
 30
0.0
 10
49.38380118429682
 20
418.6066641103271
 30
0.0
 10
49.29168480140217
 20
418.7156874354554
 30
0.0
 10
49.17821905181643
 20
418.8216718473587
 30
0.0
 10
49.04027991442565
 20
418.9217068376935
 30
0.0
 10
48.8862499365349
 20
419.0125397261259
 30
0.0
 10
48.73872853036521
 20
419.0880619796198
 30
0.0
 10
48.58431755676843
 20
419.1585592855301
 30
0.0
 10
48.41891284624458
 20
419.2266629199275
 30
0.0
 10
48.23133851691563
 20
419.2970284650476
 30
0.0
 10
48.00693030139496
 20
419.3736969477753
 30
0.0
 10
47.7433453442484
 20
419.4551173080775
 30
0.0
 10
47.45719232658804
 20
419.5351100305107
 30
0.0
 10
47.18154218138073
 20
419.6055687716531
 30
0.0
 10
46.93631039493871
 20
419.6636940169952
 30
0.0
 10
46.73227813988063
 20
419.7092858942142
 30
0.0
 10
46.55247489325107
 20
419.747675955179
 30
0.0
 10
46.37421208276829
 20
419.7842060659461
 30
0.0
 10
46.11852576078849
 20
419.8343900103362
 30
0.0
 10
45.76607185208776
 20
419.8991592999979
 30
0.0
 10
45.29533718543156
 20
419.9781692324715
 30
0.0
 10
44.72924778505655
 20
420.0643392637673
 30
0.0
 10
44.05508012577854
 20
420.1559945293849
 30
0.0
 10
43.25688687444669
 20
420.2511529804277
 30
0.0
 10
42.35229663628838
 20
420.3443674882939
 30
0.0
 10
41.33471668724002
 20
420.4334068591904
 30
0.0
 10
40.19896775474199
 20
420.5159875740529
 30
0.0
 10
38.95374546167218
 20
420.5892157957452
 30
0.0
 10
37.62494645737125
 20
420.6503947212744
 30
0.0
 10
36.24424310499277
 20
420.6982626781686
 30
0.0
 10
34.83377390600936
 20
420.733024562672
 30
0.0
 10
33.4033248470739
 20
420.7555084527261
 30
0.0
 10
31.96293732398644
 20
420.7663951210261
 30
0.0
 10
30.52288322282481
 20
420.766015431226
 30
0.0
 10
29.09347362502928
 20
420.7543341736394
 30
0.0
 10
27.68480429553153
 20
420.7310640020898
 30
0.0
 10
26.30647659028638
 20
420.695767229423
 30
0.0
 10
24.96733357692043
 20
420.6479573151464
 30
0.0
 10
23.68274346362895
 20
420.5875348972062
 30
0.0
 10
22.48257596525434
 20
420.5158827861507
 30
0.0
 10
21.39116974983089
 20
420.4358045708115
 30
0.0
 10
20.41973727918469
 20
420.3506554843316
 30
0.0
 10
19.56109966547837
 20
420.2627128434885
 30
0.0
 10
18.80695422690266
 20
420.1740440054282
 30
0.0
 10
18.14897981992324
 20
420.0865189539406
 30
0.0
 10
17.60040318932284
 20
420.0049601806455
 30
0.0
 10
17.12175728661405
 20
419.926734169336
 30
0.0
 10
16.67417380665992
 20
419.8468953239899
 30
0.0
 10
16.21122483283575
 20
419.7559027429215
 30
0.0
 10
15.74035198474493
 20
419.6526007498805
 30
0.0
 10
15.28516361667493
 20
419.5395511529199
 30
0.0
 10
14.86256880736925
 20
419.4191926531337
 30
0.0
 10
14.50251073925009
 20
419.3000263008349
 30
0.0
 10
14.20349071223374
 20
419.1843611615535
 30
0.0
 10
13.96170386290604
 20
419.074402456073
 30
0.0
 10
13.77038152507432
 20
418.9705239399158
 30
0.0
 10
13.6425405343727
 20
418.886649766425
 30
0.0
 10
13.55632051727364
 20
418.8205663516565
 30
0.0
 10
13.48943051782139
 20
418.7629432856836
 30
0.0
 10
13.41549348305953
 20
418.6876885272351
 30
0.0
 10
13.33968472322433
 20
418.5893537034465
 30
0.0
 10
13.27243575613675
 20
418.4647669861954
 30
0.0
 10
13.22661966288642
 20
418.3116533486334
 30
0.0
 10
13.21367866645922
 20
418.1798247817478
 30
0.0
 10
13.20706162027721
 20
418.1067733269991
 30
0.0
 10
13.20607558937424
 20
418.0957068117755
 30
0.0
  0
LINE
  5
CE
330
5E
100
AcDbEntity
  8
$DDT_AUDIT_GENERATED_(AA)
  6
Continuous
 62
     7
100
AcDbLine
 10
12.6291926254
 20
406.0800344026
 30
0.0
 11
7.1947934841
 21
376.099939024
 31
0.0
  0
LINE
  5
CF
330
5E
100
AcDbEntity
  8
$DDT_AUDIT_GENERATED_(AA)
  6
Continuous
 62
     7
100
AcDbLine
 10
55.5348712404
 20
376.1001067721
 30
0.0
 11
50.0995971798
 21
406.0825030508
 31
0.0
  0
ARC
  5
D0
330
5E
100
AcDbEntity
  8
$DDT_AUDIT_GENERATED_(AA)
  6
Continuous
 62
     7
100
AcDbCircle
 10
8.2500693207
 20
346.3493192226
 30
0.0
 40
28.35871475406655
100
AcDbArc
 50
88.7997778946
 51
90.9511847705
  0
ARC
  5
D1
330
5E
100
AcDbEntity
  8
$DDT_AUDIT_GENERATED_(AA)
  6
Continuous
 62
     7
100
AcDbCircle
 10
7.7680809895
 20
375.1100621064
 30
0.0
 40
0.4069699000387623
100
AcDbArc
 50
239.1867763867
 51
266.0240130317
  0
ARC
  5
D3
330
5E
100
AcDbEntity
  8
$DDT_AUDIT_GENERATED_(D2)
  6
Continuous
 62
     7
100
AcDbCircle
 10
31.364861839
 20
365.869567384
 30
0.0
 40
24.5
100
AcDbArc
 50
158.8445227471
 51
164.8572685595
  0
ARC
  5
D4
330
5E
100
AcDbEntity
  8
$DDT_AUDIT_GENERATED_(D2)
  6
Continuous
 62
     7
100
AcDbCircle
 10
31.364861839
 20
365.869567384
 30
0.0
 40
24.5
100
AcDbArc
 50
15.1427314405
 51
21.1124062185
  0
ENDBLK
  5
D6
330
5E
100
AcDbEntity
  8
0
100
AcDbBlockEnd
  0
BLOCK
  5
117
330
D7
100
AcDbEntity
  8
0
100
AcDbBlockBegin
  2
SE1
 70
     0
 10
0.0
 20
0.0
 30
0.0
  3
SE1
  1

  0
LINE
  5
D9
330
D7
100
AcDbEntity
  8
$DDT_AUDIT_GENERATED_(60)
  6
Continuous
 62
     7
100
AcDbLine
 10
119.5355317294
 20
372.269567384
 30
0.0
 11
144.0356574609
 21
372.269567384
 31
0.0
  0
LINE
  5
DA
330
D7
100
AcDbEntity
  8
$DDT_AUDIT_GENERATED_(60)
  6
Continuous
 62
     7
100
AcDbLine
 10
163.9015874117
 20
272.269567383
 30
0.0
 11
169.0322845991
 21
272.2695673821
 31
0.0
  0
LINE
  5
DB
330
D7
100
AcDbEntity
  8
$DDT_AUDIT_GENERATED_(60)
  6
Continuous
 62
     7
100
AcDbLine
 10
228.3222019921
 20
372.269567384
 30
0.0
 11
246.9128594963
 21
372.269567384
 31
0.0
  0
LINE
  5
DC
330
D7
100
AcDbEntity
  8
$DDT_AUDIT_GENERATED_(60)
  6
Continuous
 62
     7
100
AcDbLine
 10
152.4797107605
 20
372.269567384
 30
0.0
 11
228.3222019921
 21
372.269567384
 31
0.0
  0
LINE
  5
DD
330
D7
100
AcDbEntity
  8
$DDT_AUDIT_GENERATED_(60)
  6
Continuous
 62
     7
100
AcDbLine
 10
145.0390957523
 20
372.269567384
 30
0.0
 11
152.4797107605
 21
372.269567384
 31
0.0
  0
LINE
  5
DE
330
D7
100
AcDbEntity
  8
$DDT_AUDIT_GENERATED_(60)
  6
Continuous
 62
     7
100
AcDbLine
 10
144.0356574608
 20
372.269567384
 30
0.0
 11
145.0390957523
 21
372.269567384
 31
0.0
  0
SPLINE
  5
DF
330
D7
100
AcDbEntity
  8
$DDT_AUDIT_GENERATED_(60)
  6
Continuous
 62
     7
100
AcDbSpline
210
0.0
220
0.0
230
1.0
 70
    12
 71
     6
 72
    14
 73
     7
 74
     0
 42
0.0000000001452337
 43
0.0000000001
 40
0.0
 40
0.0
 40
0.0
 40
0.0
 40
0.0
 40
0.0
 40
0.0
 40
1.0
 40
1.0
 40
1.0
 40
1.0
 40
1.0
 40
1.0
 40
1.0
 10
169.0322807724514
 20
327.2694844009596
 30
0.0
 41
1.0
 10
169.0322830781959
 20
334.4164675626116
 30
0.0
 41
1.0
 10
169.0323306607269
 20
341.0603388616885
 30
0.0
 41
1.0
 10
173.7466878117031
 20
347.5079514675653
 30
0.0
 41
1.0
 10
180.7427809641006
 20
351.6322751631365
 30
0.0
 41
1.0
 10
186.5168613397681
 20
352.2111787622583
 30
0.0
 41
1.0
 10
219.6689078528994
 20
352.2656542211106
 30
0.0
 41
1.0
  0
LINE
  5
E0
330
D7
100
AcDbEntity
  8
$DDT_AUDIT_GENERATED_(60)
  6
Continuous
 62
     7
100
AcDbLine
 10
125.9176529274
 20
272.2695673827
 30
0.0
 11
119.0355317291
 21
272.2695673827
 31
0.0
  0
LINE
  5
E1
330
D7
100
AcDbEntity
  8
$DDT_AUDIT_GENERATED_(60)
  6
Continuous
 62
     7
100
AcDbLine
 10
140.1167988184
 20
272.2695673827
 30
0.0
 11
125.9176529274
 21
272.2695673827
 31
0.0
  0
LINE
  5
E2
330
D7
100
AcDbEntity
  8
$DDT_AUDIT_GENERATED_(60)
  6
Continuous
 62
     7
100
AcDbLine
 10
144.0355317671
 20
272.2695673827
 30
0.0
 11
140.1167988184
 21
272.2695673827
 31
0.0
  0
LINE
  5
E3
330
D7
100
AcDbEntity
  8
$DDT_AUDIT_GENERATED_(60)
  6
Continuous
 62
     7
100
AcDbLine
 10
145.0356584414
 20
272.2695673827
 30
0.0
 11
144.0355315559
 21
272.2695673827
 31
0.0
  0
LINE
  5
E4
330
D7
100
AcDbEntity
  8
$DDT_AUDIT_GENERATED_(60)
  6
Continuous
 62
     7
100
AcDbLine
 10
163.9015874117
 20
272.269567383
 30
0.0
 11
145.0357218
 21
272.2695673827
 31
0.0
  0
ARC
  5
E5
330
D7
100
AcDbEntity
  8
$DDT_AUDIT_GENERATED_(60)
  6
Continuous
 62
     7
100
AcDbCircle
 10
207.0702516649
 20
-3076.4202946712
 30
0.0
 40
3439.076281622616
100
AcDbArc
 50
89.6459355064
 51
90.8536782397
  0
ARC
  5
E6
330
D7
100
AcDbEntity
  8
$DDT_AUDIT_GENERATED_(60)
  6
Continuous
 62
     7
100
AcDbCircle
 10
236.3244160504
 20
-254.4504885644
 30
0.0
 40
617.0926980817079
100
AcDbArc
 50
88.9704052784
 51
90.743009847
  0
ARC
  5
E7
330
D7
100
AcDbEntity
  8
$DDT_AUDIT_GENERATED_(60)
  6
Continuous
 62
     7
100
AcDbCircle
 10
246.4128626488
 20
362.5425781534
 30
0.0
 40
0.9999999918325342
100
AcDbArc
 50
329.2310461653
 51
0.0
  0
ARC
  5
E8
330
D7
100
AcDbEntity
  8
$DDT_AUDIT_GENERATED_(60)
  6
Continuous
 62
     7
100
AcDbCircle
 10
233.1038029619
 20
370.9041273491
 30
0.0
 40
16.71744633401483
100
AcDbArc
 50
308.7901768218
 51
327.9424740413
  0
ARC
  5
E9
330
D7
100
AcDbEntity
  8
$DDT_AUDIT_GENERATED_(60)
  6
Continuous
 62
     7
100
AcDbCircle
 10
232.2095027915
 20
332.1655591971
 30
0.0
 40
23.69135583684659
100
AcDbArc
 50
99.4438506933
 51
121.960338051
  0
SPLINE
  5
EA
330
D7
100
AcDbEntity
  8
$DDT_AUDIT_GENERATED_(60)
  6
Continuous
 62
     7
100
AcDbSpline
210
0.0
220
0.0
230
1.0
 70
     8
 71
     3
 72
    16
 73
    12
 74
     0
 42
0.0000000006471818
 43
0.0000000001
 40
0.0
 40
0.0
 40
0.0
 40
0.0
 40
0.25
 40
0.25
 40
0.375
 40
0.375
 40
0.5
 40
0.5
 40
0.75
 40
0.75
 40
1.0
 40
1.0
 40
1.0
 40
1.0
 10
243.5767846955318
 20
357.8737909935676
 30
0.0
 10
243.5768357546079
 20
357.8738445180221
 30
0.0
 10
243.1049346135735
 20
357.9180358456917
 30
0.0
 10
241.8626167237217
 20
357.7922130804478
 30
0.0
 10
241.3495925957224
 20
357.7263246675662
 30
0.0
 10
240.1733306157779
 20
357.5600397799791
 30
0.0
 10
239.5128409008487
 20
357.4598584876537
 30
0.0
 10
237.31209669446
 20
357.1071072820138
 30
0.0
 10
235.5976014415335
 20
356.8056969837547
 30
0.0
 10
232.0048325181103
 20
356.1560198461694
 30
0.0
 10
230.1284145390894
 20
355.8088600013468
 30
0.0
 10
228.3222019920629
 20
355.5358230784315
 30
0.0
  0
LINE
  5
EB
330
D7
100
AcDbEntity
  8
$DDT_AUDIT_GENERATED_(60)
  6
Continuous
 62
     7
100
AcDbLine
 10
119.0355317291
 20
371.769567384
 30
0.0
 11
119.0355317291
 21
272.2695673827
 31
0.0
  0
ARC
  5
EC
330
D7
100
AcDbEntity
  8
$DDT_AUDIT_GENERATED_(60)
  6
Continuous
 62
     7
100
AcDbCircle
 10
119.5355317292
 20
371.7695673839
 30
0.0
 40
0.5000000001089224
100
AcDbArc
 50
89.9999999841
 51
179.9999999875
  0
LINE
  5
ED
330
D7
100
AcDbEntity
  8
$DDT_AUDIT_GENERATED_(60)
  6
Continuous
 62
     7
100
AcDbLine
 10
169.0322845991
 20
272.2695673815
 30
0.0
 11
169.032284599
 21
327.2694843876
 31
0.0
  0
ARC
  5
EE
330
D7
100
AcDbEntity
  8
$DDT_AUDIT_GENERATED_(60)
  6
Continuous
 62
     7
100
AcDbCircle
 10
246.9127622088
 20
371.7695671569
 30
0.0
 40
0.5000002271438484
100
AcDbArc
 50
0.000026031
 51
90.0000712279
  0
LINE
  5
EF
330
D7
100
AcDbEntity
  8
$DDT_AUDIT_GENERATED_(60)
  6
Continuous
 62
     7
100
AcDbLine
 10
247.4128626412
 20
362.5425787187
 30
0.0
 11
247.4128626412
 21
371.769567384
 31
0.0
  0
LINE
  5
F0
330
D7
100
AcDbEntity
  8
$DDT_AUDIT_GENERATED_(95)
  6
Continuous
 62
     7
100
AcDbLine
 10
167.1466765106
 20
272.2595673827
 30
0.0
 11
144.1365465813
 21
272.2595673827
 31
0.0
  0
LINE
  5
F2
330
D7
100
AcDbEntity
  8
$DDT_AUDIT_GENERATED_(F1)
  6
Continuous
 62
     7
100
AcDbLine
 10
165.5527206465
 20
392.8916301619
 30
0.0
 11
165.6652909378
 21
388.592744174
 31
0.0
  0
LINE
  5
F3
330
D7
100
AcDbEntity
  8
$DDT_AUDIT_GENERATED_(F1)
  6
Continuous
 62
     7
100
AcDbLine
 10
165.5527206465
 20
392.8916301619
 30
0.0
 11
165.0465083086
 21
393.1223244151
 31
0.0
  0
LINE
  5
F4
330
D7
100
AcDbEntity
  8
02636038_GEHÄUSE
  6
Continuous
 62
     7
100
AcDbLine
 10
243.8316389313
 20
351.9440330836
 30
0.0
 11
223.2820891131
 21
345.6221660911
 31
0.0
  0
LINE
  5
F5
330
D7
100
AcDbEntity
  8
02636038_GEHÄUSE
  6
Continuous
 62
     7
100
AcDbLine
 10
222.6630326115
 20
345.7639489571
 30
0.0
 11
223.2820891131
 21
345.6221660911
 31
0.0
  0
LINE
  5
F6
330
D7
100
AcDbEntity
  8
02636038_GEHÄUSE
  6
Continuous
 62
     7
100
AcDbLine
 10
243.8316389313
 20
351.9440330836
 30
0.0
 11
244.2639547459
 21
352.4092603074
 31
0.0
  0
ARC
  5
F7
330
D7
100
AcDbEntity
  8
02636038_GEHÄUSE
  6
Continuous
 62
     7
100
AcDbCircle
 10
243.5314118471
 20
353.0899811764
 30
0.0
 40
0.999999999999989
100
AcDbArc
 50
317.1
 51
17.1
  0
ARC
  5
F8
330
D7
100
AcDbEntity
  8
02636038_GEHÄUSE
  6
Continuous
 62
     7
100
AcDbCircle
 10
222.8862827275
 20
346.7387101513
 30
0.0
 40
1.00000000000001
100
AcDbArc
 50
197.1
 51
257.1
  0
LINE
  5
F9
330
D7
100
AcDbEntity
  8
02636038_GEHÄUSE
  6
Continuous
 62
     7
100
AcDbLine
 10
220.0680086393
 20
352.4987591716
 30
0.0
 11
221.9304897127
 21
346.4446698261
 31
0.0
  0
LINE
  5
FA
330
D7
100
AcDbEntity
  8
02636038_GEHÄUSE
  6
Continuous
 62
     7
100
AcDbLine
 10
244.4872048619
 20
353.3840215016
 30
0.0
 11
243.1017965991
 21
357.8873614403
 31
0.0
  0
LINE
  5
FC
330
D7
100
AcDbEntity
  8
$DDT_AUDIT_GENERATED_(FB)
  6
Continuous
 62
     7
100
AcDbLine
 10
242.2766172855
 20
351.0471453085
 30
0.0
 11
225.0723430191
 21
345.7544194543
 31
0.0
  0
LINE
  5
FD
330
D7
100
AcDbEntity
  8
$DDT_AUDIT_GENERATED_(FB)
  6
Continuous
 62
     7
100
AcDbLine
 10
224.954726889
 20
346.1367366603
 30
0.0
 11
225.0723430191
 21
345.7544194543
 31
0.0
  0
LINE
  5
FE
330
D7
100
AcDbEntity
  8
$DDT_AUDIT_GENERATED_(FB)
  6
Continuous
 62
     7
100
AcDbLine
 10
242.2766172855
 20
351.0471453085
 30
0.0
 11
242.1590011554
 21
351.4294625144
 31
0.0
  0
SPLINE
  5
FF
330
D7
100
AcDbEntity
  8
$DDT_AUDIT_GENERATED_(AA)
  6
Continuous
 62
     7
100
AcDbSpline
210
0.0
220
0.0
230
1.0
 70
     8
 71
     3
 72
    10
 73
     6
 74
     0
 42
0.0000000011312406
 43
0.0000000001
 40
0.4329998223879644
 40
0.4329998223879644
 40
0.4329998223879644
 40
0.4329998223879644
 40
0.4363786918301353
 40
0.5000553786525825
 40
0.5001170919339232
 40
0.5001170919339232
 40
0.5001170919339232
 40
0.5001170919339232
 10
122.7403285274074
 20
388.5075982302139
 30
0.0
 10
122.7228156485215
 20
388.5167776190073
 30
0.0
 10
122.3837936021341
 20
388.6944731895032
 30
0.0
 10
122.2149247539532
 20
388.7829178273201
 30
0.0
 10
122.2150466162675
 20
388.7828552682848
 30
0.0
 10
122.2150468847051
 20
388.7828551289181
 30
0.0
  0
LINE
  5
100
330
D7
100
AcDbEntity
  8
$DDT_AUDIT_GENERATED_(AA)
  6
Continuous
 62
     7
100
AcDbLine
 10
147.1731983828
 20
375.2721437425
 30
0.0
 11
147.6891449302
 21
375.0343627361
 31
0.0
  0
LINE
  5
101
330
D7
100
AcDbEntity
  8
$DDT_AUDIT_GENERATED_(AA)
  6
Continuous
 62
     7
100
AcDbLine
 10
143.8386979711
 20
377.0451290613
 30
0.0
 11
147.1731983828
 21
375.2721437425
 31
0.0
  0
SPLINE
  5
102
330
D7
100
AcDbEntity
  8
$DDT_AUDIT_GENERATED_(AA)
  6
Continuous
 62
     7
100
AcDbSpline
210
0.0
220
0.0
230
1.0
 70
     8
 71
     5
 72
    12
 73
     6
 74
     0
 42
0.0000000009474974
 43
0.0000000001
 40
0.0
 40
0.0
 40
0.0
 40
0.0
 40
0.0
 40
0.0
 40
1.0
 40
1.0
 40
1.0
 40
1.0
 40
1.0
 40
1.0
 10
168.4105648628102
 20
408.0396753066095
 30
0.0
 10
166.030903708466
 20
407.7468602437448
 30
0.0
 10
164.161292398702
 20
407.5170283581339
 30
0.0
 10
162.641752136389
 20
406.3299733572639
 30
0.0
 10
162.954094291024
 20
404.6522717296529
 30
0.0
 10
163.4368460889931
 20
402.0587604843303
 30
0.0
  0
LINE
  5
103
330
D7
100
AcDbEntity
  8
$DDT_AUDIT_GENERATED_(AA)
  6
Continuous
 62
     7
100
AcDbLine
 10
143.8387014689
 20
377.0451272015
 30
0.0
 11
122.3687291186
 21
388.4609139976
 31
0.0
  0
LINE
  5
104
330
D7
100
AcDbEntity
  8
$DDT_AUDIT_GENERATED_(AA)
  6
Continuous
 62
     7
100
AcDbLine
 10
168.1683101142
 20
374.6868817068
 30
0.0
 11
155.4278853604
 21
374.6868817068
 31
0.0
  0
ARC
  5
105
330
D7
100
AcDbEntity
  8
$DDT_AUDIT_GENERATED_(AA)
  6
Continuous
 62
     7
100
AcDbCircle
 10
149.5210597167
 20
380.3649114942
 30
0.0
 40
5.636547403749731
100
AcDbArc
 50
251.0340375367
 51
270.3508861055
  0
ARC
  5
106
330
D7
100
AcDbEntity
  8
$DDT_AUDIT_GENERATED_(AA)
  6
Continuous
 62
     7
100
AcDbCircle
 10
155.8224306367
 20
845.0079296321
 30
0.0
 40
470.3212134142818
100
AcDbArc
 50
269.2519946471
 51
269.9519127284
  0
ARC
  5
107
330
D7
100
AcDbEntity
  8
$DDT_AUDIT_GENERATED_(AA)
  6
Continuous
 62
     7
100
AcDbCircle
 10
197.433470708
 20
394.9669458938
 30
0.0
 40
32.40065791155133
100
AcDbArc
 50
183.0666041959
 51
198.0115085057
  0
LINE
  5
108
330
D7
100
AcDbEntity
  8
$DDT_AUDIT_GENERATED_(AA)
  6
Continuous
 62
     7
100
AcDbLine
 10
125.8020972816
 20
407.2988181243
 30
0.0
 11
122.2150323621
 21
388.78278219
 31
0.0
  0
ARC
  5
109
330
D7
100
AcDbEntity
  8
$DDT_AUDIT_GENERATED_(AA)
  6
Continuous
 62
     7
100
AcDbCircle
 10
168.1683101143
 20
374.9868817069
 30
0.0
 40
0.3000000000562673
100
AcDbArc
 50
269.9999999822
 51
10.5354679005
  0
ARC
  5
10A
330
D7
100
AcDbEntity
  8
$DDT_AUDIT_GENERATED_(AA)
  6
Continuous
 62
     7
100
AcDbCircle
 10
218.9584972684
 20
412.5295053078
 30
0.0
 40
56.50025356274139
100
AcDbArc
 50
189.946625326
 51
190.6641623024
  0
LINE
  5
10B
330
D7
100
AcDbEntity
  8
$DDT_AUDIT_GENERATED_(AA)
  6
Continuous
 62
     7
100
AcDbLine
 10
168.4110131894
 20
408.040021535
 30
0.0
 11
213.8570030761
 21
413.6257109377
 31
0.0
  0
LINE
  5
10C
330
D7
100
AcDbEntity
  8
$DDT_AUDIT_GENERATED_(AA)
  6
Continuous
 62
     7
100
AcDbLine
 10
232.2673076113
 20
417.8156950612
 30
0.0
 11
231.9655557931
 21
420.3019297485
 31
0.0
  0
ARC
  5
10D
330
D7
100
AcDbEntity
  8
$DDT_AUDIT_GENERATED_(AA)
  6
Continuous
 62
     7
100
AcDbCircle
 10
199.3728705007
 20
531.6597923963
 30
0.0
 40
118.9194451883772
100
AcDbArc
 50
276.9958413266
 51
285.877080646
  0
ARC
  5
10E
330
D7
100
AcDbEntity
  8
$DDT_AUDIT_GENERATED_(AA)
  6
Continuous
 62
     7
100
AcDbCircle
 10
231.787049795
 20
417.7411469912
 30
0.0
 40
0.4796905623187833
100
AcDbArc
 50
296.795913988
 51
8.9128517506
  0
ARC
  5
10F
330
D7
100
AcDbEntity
  8
$DDT_AUDIT_GENERATED_(AA)
  6
Continuous
 62
     7
100
AcDbCircle
 10
393.9485367268
 20
-1337.0998031437
 30
0.0
 40
1765.355566003984
100
AcDbArc
 50
95.2897041417
 51
98.716845406
  0
SPLINE
  5
110
330
D7
100
AcDbEntity
  8
$DDT_AUDIT_GENERATED_(AA)
  6
Continuous
 62
     7
100
AcDbSpline
210
0.0
220
0.0
230
1.0
 70
     8
 71
     3
 72
    13
 73
     9
 74
     0
 42
0.0000000108319325
 43
0.0000000001
 40
0.0
 40
0.0
 40
0.0
 40
0.0
 40
0.2748632800192888
 40
0.3926682204574781
 40
0.4999909011648733
 40
0.6072914798974016
 40
0.725063219417252
 40
1.0
 40
1.0
 40
1.0
 40
1.0
 10
126.3905187838911
 20
407.8643266832871
 30
0.0
 10
126.2986861457685
 20
407.851636837821
 30
0.0
 10
126.1892509456048
 20
407.8330411213147
 30
0.0
 10
126.0434032723532
 20
407.7792122402211
 30
0.0
 10
125.9595288052017
 20
407.7201445107861
 30
0.0
 10
125.8975726006254
 20
407.6384276853604
 30
0.0
 10
125.8388703888289
 20
407.4945853590411
 30
0.0
 10
125.8167690463584
 20
407.385910001205
 30
0.0
 10
125.8011479479433
 20
407.2946078482998
 30
0.0
  0
SPLINE
  5
111
330
D7
100
AcDbEntity
  8
$DDT_AUDIT_GENERATED_(AA)
  6
Continuous
 62
     7
100
AcDbSpline
210
0.0
220
0.0
230
1.0
 70
     8
 71
     3
 72
    13
 73
     9
 74
     0
 42
0.0000000116537648
 43
0.0000000001
 40
0.0
 40
0.0
 40
0.0
 40
0.0
 40
0.2667152657383027
 40
0.3869800437538896
 40
0.5000769033247504
 40
0.6131509100921387
 40
0.7333649410552741
 40
1.0
 40
1.0
 40
1.0
 40
1.0
 10
231.9657397555921
 20
420.300965762034
 30
0.0
 10
231.9571336093705
 20
420.3835986208635
 30
0.0
 10
231.9430119809574
 20
420.4845910222343
 30
0.0
 10
231.8839597696906
 20
420.6165104480112
 30
0.0
 10
231.8184130400431
 20
420.691253139395
 30
0.0
 10
231.7323573095699
 20
420.7410345426143
 30
0.0
 10
231.5914475528077
 20
420.7732919182488
 30
0.0
 10
231.4896034321761
 20
420.7674288710337
 30
0.0
 10
231.4068536981198
 20
420.7597372955962
 30
0.0
  0
LINE
  5
112
330
D7
100
AcDbEntity
  8
$DDT_AUDIT_GENERATED_(AA)
  6
Continuous
 62
     7
100
AcDbLine
 10
165.0784474899
 20
393.2334846198
 30
0.0
 11
163.4364101806
 21
402.0587138997
 31
0.0
  0
LINE
  5
113
330
D7
100
AcDbEntity
  8
$DDT_AUDIT_GENERATED_(AA)
  6
Continuous
 62
     7
100
AcDbLine
 10
168.4632359998
 20
375.0417331331
 30
0.0
 11
166.6129738944
 21
384.9860792303
 31
0.0
  0
LINE
  5
114
330
D7
100
AcDbEntity
  8
$DDT_AUDIT_GENERATED_(AA)
  6
Continuous
 62
     7
100
AcDbLine
 10
149.5309799191
 20
374.6999111897
 30
0.0
 11
149.6558408587
 21
374.7000420927
 31
0.0
  0
ARC
  5
115
330
D7
100
AcDbEntity
  8
$DDT_AUDIT_GENERATED_(D2)
  6
Continuous
 62
     7
100
AcDbCircle
 10
144.0355317291
 20
365.869567384
 30
0.0
 40
24.5
100
AcDbArc
 50
15.1427314405
 51
21.1275392353
  0
ARC
  5
116
330
D7
100
AcDbEntity
  8
$DDT_AUDIT_GENERATED_(D2)
  6
Continuous
 62
     7
100
AcDbCircle
 10
144.0355317291
 20
365.869567384
 30
0.0
 40
24.5
100
AcDbArc
 50
128.4855267209
 51
164.8572685595
  0
ENDBLK
  5
118
330
D7
100
AcDbEntity
  8
0
100
AcDbBlockEnd
  0
BLOCK
  5
13D
330
119
100
AcDbEntity
  8
0
100
AcDbBlockBegin
  2
SE2
 70
     0
 10
0.0
 20
0.0
 30
0.0
  3
SE2
  1

  0
SPLINE
  5
11B
330
119
100
AcDbEntity
  8
$DDT_AUDIT_GENERATED_(60)
  6
Continuous
 62
     7
100
AcDbSpline
210
0.0
220
0.0
230
1.0
 70
    12
 71
     6
 72
    22
 73
    15
 74
     0
 42
0.000000000123742
 43
0.0000000001
 40
0.0
 40
0.0
 40
0.0
 40
0.0
 40
0.0
 40
0.0
 40
0.0
 40
0.2783843883585438
 40
0.4999998048736058
 40
0.4999998048736058
 40
0.4999998048736058
 40
0.4999998048736058
 40
0.4999998048736058
 40
0.7216152213886684
 40
0.9432306379037287
 40
1.0
 40
1.0
 40
1.0
 40
1.0
 40
1.0
 40
1.0
 40
1.0
 10
6.369108438636396
 20
209.786327539424
 30
0.0
 41
1.0
 10
6.36957933581785
 20
212.9708579872533
 30
0.0
 41
1.0
 10
7.245002184214855
 20
218.7958340197802
 30
0.0
 41
1.0
 10
9.79667098559826
 20
224.5465164214961
 30
0.0
 41
1.0
 10
14.13928088089641
 20
229.6666899553707
 30
0.0
 41
1.0
 10
20.32908242353913
 20
233.4195850591225
 30
0.0
 41
1.0
 10
27.814469087875
 20
234.786327521035
 30
0.0
 41
1.0
 10
34.915254590218
 20
234.786327521035
 30
0.0
 41
1.0
 10
41.550765513315
 20
233.574762248356
 30
0.0
 41
1.0
 10
47.88767012994061
 20
230.0927833969058
 30
0.0
 41
1.0
 10
52.44000860858185
 20
225.1278428723962
 30
0.0
 41
1.0
 10
55.19501660303527
 20
219.4487416315677
 30
0.0
 41
1.0
 10
56.26075392068242
 20
213.6321958867299
 30
0.0
 41
1.0
 10
56.36079747348931
 20
210.4357254551934
 30
0.0
 41
1.0
 10
56.3609350924469
 20
209.7863276457998
 30
0.0
 41
1.0
  0
LINE
  5
11C
330
119
100
AcDbEntity
  8
$DDT_AUDIT_GENERATED_(60)
  6
Continuous
 62
     7
100
AcDbLine
 10
56.3609094115
 20
209.7863277706
 30
0.0
 11
56.3609610755
 21
208.7863275232
 31
0.0
  0
LINE
  5
11D
330
119
100
AcDbEntity
  8
$DDT_AUDIT_GENERATED_(60)
  6
Continuous
 62
     7
100
AcDbLine
 10
6.3687626026
 20
208.7863275233
 30
0.0
 11
6.3688147676
 21
209.7863277728
 31
0.0
  0
SPLINE
  5
11E
330
119
100
AcDbEntity
  8
$DDT_AUDIT_GENERATED_(60)
  6
Continuous
 62
     7
100
AcDbSpline
210
0.0
220
0.0
230
1.0
 70
    12
 71
     5
 72
    12
 73
     6
 74
     0
 42
0.0000000012796184
 43
0.0000000001
 40
0.0
 40
0.0
 40
0.0
 40
0.0
 40
0.0
 40
0.0
 40
1.0
 40
1.0
 40
1.0
 40
1.0
 40
1.0
 40
1.0
 10
56.3609608488877
 20
208.7863275215658
 30
0.0
 41
1.0
 10
56.364685525078
 20
208.263792053205
 30
0.0
 41
1.0
 10
56.37972367631999
 20
207.14499941145
 30
0.0
 41
1.0
 10
56.23452918131899
 20
205.476080492615
 30
0.0
 41
1.0
 10
55.789954888953
 20
203.421862676484
 30
0.0
 41
1.0
 10
54.968342016999
 20
201.170721898321
 30
0.0
 41
1.0
  0
SPLINE
  5
11F
330
119
100
AcDbEntity
  8
$DDT_AUDIT_GENERATED_(60)
  6
Continuous
 62
     7
100
AcDbSpline
210
0.0
220
0.0
230
1.0
 70
     8
 71
     3
 72
    21
 73
    17
 74
     0
 42
0.0000000001306885
 43
0.0000000001
 40
0.0
 40
0.0
 40
0.0
 40
0.0
 40
0.0155123164677468
 40
0.0311186643508069
 40
0.0389459155504578
 40
0.0467754452832249
 40
0.0623952313277663
 40
0.0779163429980249
 40
0.0933471283137812
 40
0.124133252518368
 40
0.1861753650833538
 40
0.2487867832839529
 40
0.3740016632837573
 40
0.4991985490142564
 40
0.749597033411441
 40
1.0
 40
1.0
 40
1.0
 40
1.0
 10
8.231076161589947
 20
201.3421484896149
 30
0.0
 10
8.37214336199121
 20
200.9725044718114
 30
0.0
 10
8.655132873540115
 20
200.2309757553727
 30
0.0
 10
9.063001789568329
 20
199.3250206343612
 30
0.0
 10
9.398196928249538
 20
198.6017440320604
 30
0.0
 10
9.73518052575806
 20
197.878873914578
 30
0.0
 10
10.14572515808563
 20
196.9737463863891
 30
0.0
 10
10.58824960743187
 20
195.8710513648838
 30
0.0
 10
11.085722192082
 20
194.3762904159415
 30
0.0
 10
11.71111511153171
 20
191.6816279783507
 30
0.0
 10
12.13765842554201
 20
187.7327425763615
 30
0.0
 10
12.48463488780941
 20
181.3712316627254
 30
0.0
 10
12.64499663261544
 20
173.3886128105172
 30
0.0
 10
12.75446793532957
 20
160.6189041844797
 30
0.0
 10
12.77362782706628
 20
144.6554169314874
 30
0.0
 10
12.7740100678372
 20
131.8849485812732
 30
0.0
 10
12.7742011899332
 20
125.4996572580855
 30
0.0
  0
SPLINE
  5
120
330
119
100
AcDbEntity
  8
$DDT_AUDIT_GENERATED_(60)
  6
Continuous
 62
     7
100
AcDbSpline
210
0.0
220
0.0
230
1.0
 70
    12
 71
     5
 72
    12
 73
     6
 74
     0
 42
0.0000000012796183
 43
0.0000000001
 40
0.0
 40
0.0
 40
0.0
 40
0.0
 40
0.0
 40
0.0
 40
1.0
 40
1.0
 40
1.0
 40
1.0
 40
1.0
 40
1.0
 10
7.761381903045743
 20
201.1707212353914
 30
0.0
 41
1.0
 10
6.939768893875996
 20
203.421862192534
 30
0.0
 41
1.0
 10
6.495194522427497
 20
205.476080197731
 30
0.0
 41
1.0
 10
6.349999999999998
 20
207.144999279662
 30
0.0
 41
1.0
 10
6.365038152794
 20
208.263792022429
 30
0.0
 41
1.0
 10
6.368762829204598
 20
208.7863275216134
 30
0.0
 41
1.0
  0
SPLINE
  5
121
330
119
100
AcDbEntity
  8
$DDT_AUDIT_GENERATED_(60)
  6
Continuous
 62
     7
100
AcDbSpline
210
0.0
220
0.0
230
1.0
 70
    12
 71
     3
 72
    21
 73
    17
 74
     0
 42
0.0000000001309949
 43
0.0000000001
 40
0.0
 40
0.0
 40
0.0
 40
0.0
 40
0.2499999999999997
 40
0.5000000000000007
 40
0.6249999999999998
 40
0.6875000000000001
 40
0.7500000000000003
 40
0.8125000000000007
 40
0.84375
 40
0.8749999999999994
 40
0.8749999999999994
 40
0.9062500000000003
 40
0.9374999999999998
 40
0.9374999999999998
 40
0.9687500000000006
 40
1.0
 40
1.0
 40
1.0
 40
1.0
 10
50.455522488158
 20
125.499657258085
 30
0.0
 41
1.0
 10
50.4555224881578
 20
131.8736123413932
 30
0.0
 41
1.0
 10
50.45440432703539
 20
144.6214457625356
 30
0.0
 41
1.0
 10
50.4766045639935
 20
160.5550716502439
 30
0.0
 41
1.0
 10
50.56791799526609
 20
171.7049519789206
 30
0.0
 41
1.0
 10
50.68278523502639
 20
178.071679262603
 30
0.0
 41
1.0
 10
50.82677386497979
 20
182.8424192975439
 30
0.0
 41
1.0
 10
51.0388780286325
 20
186.8063050849014
 30
0.0
 41
1.0
 10
51.338391496356
 20
189.9526240866646
 30
0.0
 41
1.0
 10
51.56334419933349
 20
191.5124147698414
 30
0.0
 41
1.0
 10
51.8500890211416
 20
193.0536404978552
 30
0.0
 41
1.0
 10
52.19908601384859
 20
194.5691017242382
 30
0.0
 41
1.0
 10
52.732339118225
 20
196.0239261175666
 30
0.0
 41
1.0
 10
53.3479870558355
 20
197.468955167358
 30
0.0
 41
1.0
 10
54.03734450363329
 20
198.9026219288204
 30
0.0
 41
1.0
 10
54.6877342486892
 20
200.4018834204014
 30
0.0
 41
1.0
 10
54.968342016999
 20
201.170721898321
 30
0.0
 41
1.0
  0
SPLINE
  5
122
330
119
100
AcDbEntity
  8
$DDT_AUDIT_GENERATED_(60)
  6
Continuous
 62
     7
100
AcDbSpline
210
0.0
220
0.0
230
1.0
 70
    12
 71
     3
 72
    44
 73
    40
 74
     0
 42
0.0000000001659061
 43
0.0000000001
 40
0.0
 40
0.0
 40
0.0
 40
0.0
 40
0.0312499999999999
 40
0.0312499999999999
 40
0.0625
 40
0.09375
 40
0.09375
 40
0.1250000000000001
 40
0.1250000000000001
 40
0.1875000000000007
 40
0.2187499999999994
 40
0.2187499999999994
 40
0.2499999999999999
 40
0.2499999999999999
 40
0.3125000000000008
 40
0.3437499999999995
 40
0.3437499999999995
 40
0.4062500000000003
 40
0.4375000000000008
 40
0.4375000000000008
 40
0.4999999999999999
 40
0.5312500000000003
 40
0.5625000000000009
 40
0.5625000000000009
 40
0.6406250000000001
 40
0.6562500000000004
 40
0.6562500000000004
 40
0.6874999999999991
 40
0.75
 40
0.7656250000000001
 40
0.7812500000000004
 40
0.8125000000000009
 40
0.8593749999999998
 40
0.875
 40
0.875
 40
0.9374999999999991
 40
0.9687499999999996
 40
0.9687499999999996
 40
1.0
 40
1.0
 40
1.0
 40
1.0
 10
12.27420118993315
 20
125.4996572580854
 30
0.0
 41
1.0
 10
12.27420118993309
 20
124.8855851222465
 30
0.0
 41
1.0
 10
12.2797791978742
 20
124.2585402236361
 30
0.0
 41
1.0
 10
12.3618817824158
 20
123.0116225676607
 30
0.0
 41
1.0
 10
12.5085801724724
 20
121.7703031890467
 30
0.0
 41
1.0
 10
12.7951199812863
 20
120.5519777607818
 30
0.0
 41
1.0
 10
13.149442470255
 20
119.3450005309222
 30
0.0
 41
1.0
 10
13.36237987543089
 20
118.74381043725
 30
0.0
 41
1.0
 10
14.0862752361707
 20
116.9979961197411
 30
0.0
 41
1.0
 10
14.9796425714243
 20
115.3528408719833
 30
0.0
 41
1.0
 10
16.1092569187653
 20
113.8457300608681
 30
0.0
 41
1.0
 10
16.9172985010951
 20
112.8729160176697
 30
0.0
 41
1.0
 10
17.343081509164
 20
112.4091223894671
 30
0.0
 41
1.0
 10
18.67840830573979
 20
111.0891530907848
 30
0.0
 41
1.0
 10
20.132325699735
 20
109.9069871954975
 30
0.0
 41
1.0
 10
21.76898286677705
 20
108.935967053437
 30
0.0
 41
1.0
 10
23.43381055867784
 20
108.057120289153
 30
0.0
 41
1.0
 10
25.16683526681529
 20
107.350401317785
 30
0.0
 41
1.0
 10
27.00167515889063
 20
106.894034733564
 30
0.0
 41
1.0
 10
28.85905467403541
 20
106.529662943069
 30
0.0
 41
1.0
 10
30.72421674947443
 20
106.35
 30
0.0
 41
1.0
 10
33.22643026480702
 20
106.467414502362
 30
0.0
 41
1.0
 10
34.48191045956145
 20
106.649978952943
 30
0.0
 41
1.0
 10
36.63452111862009
 20
107.070861872996
 30
0.0
 41
1.0
 10
38.41425596040771
 20
107.648582120325
 30
0.0
 41
1.0
 10
40.11543723580889
 20
108.489983610206
 30
0.0
 41
1.0
 10
40.95229358681932
 20
108.931033923662
 30
0.0
 41
1.0
 10
42.57042543835039
 20
109.888907677364
 30
0.0
 41
1.0
 10
44.26945781859789
 20
111.2633840264647
 30
0.0
 41
1.0
 10
45.588787395149
 20
112.629063729595
 30
0.0
 41
1.0
 10
46.4158644420741
 20
113.5749183621527
 30
0.0
 41
1.0
 10
47.5425803727527
 20
115.0715675019948
 30
0.0
 41
1.0
 10
48.4804910785301
 20
116.6978558705122
 30
0.0
 41
1.0
 10
48.999137409398
 20
117.8565216760165
 30
0.0
 41
1.0
 10
49.6044881073443
 20
119.3129639615788
 30
0.0
 41
1.0
 10
50.1385536833269
 20
121.1108562889761
 30
0.0
 41
1.0
 10
50.3655744504604
 20
122.9863907741869
 30
0.0
 41
1.0
 10
50.44989511281969
 20
124.2488369704031
 30
0.0
 41
1.0
 10
50.455522488158
 20
124.8830513613812
 30
0.0
 41
1.0
 10
50.455522488158
 20
125.499657258085
 30
0.0
 41
1.0
  0
SPLINE
  5
123
330
119
100
AcDbEntity
  8
$DDT_AUDIT_GENERATED_(60)
  6
Continuous
 62
     7
100
AcDbSpline
210
0.0
220
0.0
230
1.0
 70
    12
 71
     3
 72
    19
 73
    15
 74
     0
 42
0.0000000001309887
 43
0.0000000001
 40
0.0
 40
0.0
 40
0.0
 40
0.0
 40
0.0312500000000036
 40
0.0625000000000073
 40
0.0937500000000109
 40
0.1250000000000019
 40
0.1562500000000055
 40
0.1875000000000092
 40
0.2500000000000034
 40
0.3125000000000107
 40
0.3750000000000048
 40
0.5000000000000068
 40
0.7500000000000101
 40
1.0
 40
1.0
 40
1.0
 40
1.0
 10
7.761381903045743
 20
201.1707212353914
 30
0.0
 41
1.0
 10
8.043342408098797
 20
200.3861388977976
 30
0.0
 41
1.0
 10
8.709560316121998
 20
198.8655339029714
 30
0.0
 41
1.0
 10
9.7654133515807
 20
196.6744221645333
 30
0.0
 41
1.0
 10
10.5558215396994
 20
194.4820678942816
 30
0.0
 41
1.0
 10
11.0659594257369
 20
192.2209425420345
 30
0.0
 41
1.0
 10
11.3963892230416
 20
189.9046870931568
 30
0.0
 41
1.0
 10
11.6929140934812
 20
186.7730806575669
 30
0.0
 41
1.0
 10
11.9042591419315
 20
182.8085892533847
 30
0.0
 41
1.0
 10
12.0476525111152
 20
178.0400803301772
 30
0.0
 41
1.0
 10
12.1621106049106
 20
171.6765905934064
 30
0.0
 41
1.0
 10
12.2531551542067
 20
160.5337789880395
 30
0.0
 41
1.0
 10
12.2753161599936
 20
144.6099201347092
 30
0.0
 41
1.0
 10
12.2742011899336
 20
131.8697664337679
 30
0.0
 41
1.0
 10
12.27420118993315
 20
125.4996572580854
 30
0.0
 41
1.0
  0
LINE
  5
124
330
119
100
AcDbEntity
  8
$DDT_AUDIT_GENERATED_(60)
  6
Continuous
 62
     7
100
AcDbLine
 10
8.2310761616
 20
201.3421484896
 30
0.0
 11
7.761381903
 21
201.1707212354
 31
0.0
  0
LINE
  5
126
330
119
100
AcDbEntity
  8
$DDT_AUDIT_GENERATED_(125)
  6
Continuous
 62
     7
100
AcDbLine
 10
6.364861839
 20
207.286327521
 30
0.0
 11
6.364861839
 21
220.786327521
 31
0.0
  0
LINE
  5
127
330
119
100
AcDbEntity
  8
$DDT_AUDIT_GENERATED_(125)
  6
Continuous
 62
     7
100
AcDbLine
 10
6.364861839
 20
220.786327521
 30
0.0
 11
8.9368503593
 21
220.786327521
 31
0.0
  0
LINE
  5
128
330
119
100
AcDbEntity
  8
$DDT_AUDIT_GENERATED_(125)
  6
Continuous
 62
     7
100
AcDbLine
 10
56.364861839
 20
220.786327521
 30
0.0
 11
56.364861839
 21
207.286327521
 31
0.0
  0
ARC
  5
129
330
119
100
AcDbEntity
  8
$DDT_AUDIT_GENERATED_(125)
  6
Continuous
 62
     7
100
AcDbCircle
 10
31.364861839
 20
207.286327521
 30
0.0
 40
25.0
100
AcDbArc
 50
325.147298072
 51
0.0
  0
ARC
  5
12A
330
119
100
AcDbEntity
  8
$DDT_AUDIT_GENERATED_(125)
  6
Continuous
 62
     7
100
AcDbCircle
 10
31.364861839
 20
207.286327521
 30
0.0
 40
25.0
100
AcDbArc
 50
180.0
 51
214.8940610724
  0
LINE
  5
12B
330
119
100
AcDbEntity
  8
$DDT_AUDIT_GENERATED_(125)
  6
Continuous
 62
     7
100
AcDbLine
 10
53.7928777226
 20
220.786327521
 30
0.0
 11
56.364861839
 21
220.786327521
 31
0.0
  0
LINE
  5
12C
330
119
100
AcDbEntity
  8
$DDT_AUDIT_GENERATED_(AA)
  6
Continuous
 62
     7
100
AcDbLine
 10
55.2010994692
 20
204.2323652904
 30
0.0
 11
55.1963833569
 21
204.2334788162
 31
0.0
  0
ARC
  5
12D
330
119
100
AcDbEntity
  8
$DDT_AUDIT_GENERATED_(AA)
  6
Continuous
 62
     7
100
AcDbCircle
 10
9.4866220391
 20
196.3434341867
 30
0.0
 40
8.127921338437465
100
AcDbArc
 50
103.9043582776
 51
103.9279607019
  0
ARC
  5
12E
330
119
100
AcDbEntity
  8
$DDT_AUDIT_GENERATED_(AA)
  6
Continuous
 62
     7
100
AcDbCircle
 10
31.7324897277
 20
207.4962650595
 30
0.0
 40
23.80854776264944
100
AcDbArc
 50
357.6214769456
 51
5.7558913123
  0
ARC
  5
12F
330
119
100
AcDbEntity
  8
$DDT_AUDIT_GENERATED_(AA)
  6
Continuous
 62
     7
100
AcDbCircle
 10
43.3751674245
 20
207.060556948
 30
0.0
 40
12.15791250807361
100
AcDbArc
 50
346.5502125265
 51
357.3959695923
  0
ARC
  5
130
330
119
100
AcDbEntity
  8
$DDT_AUDIT_GENERATED_(AA)
  6
Continuous
 62
     7
100
AcDbCircle
 10
31.3648920552
 20
209.8392787203
 30
0.0
 40
24.48527628854219
100
AcDbArc
 50
193.2368764941
 51
220.4368633335
  0
ARC
  5
131
330
119
100
AcDbEntity
  8
$DDT_AUDIT_GENERATED_(AA)
  6
Continuous
 62
     7
100
AcDbCircle
 10
31.3648920552
 20
209.8392787203
 30
0.0
 40
24.48527628854219
100
AcDbArc
 50
319.5272906122
 51
346.763140871
  0
ARC
  5
132
330
119
100
AcDbEntity
  8
$DDT_AUDIT_GENERATED_(AA)
  6
Continuous
 62
     7
100
AcDbCircle
 10
19.380256423
 20
207.0644300459
 30
0.0
 40
12.18375013328447
100
AcDbArc
 50
182.6167578601
 51
193.4394918418
  0
ARC
  5
133
330
119
100
AcDbEntity
  8
$DDT_AUDIT_GENERATED_(AA)
  6
Continuous
 62
     7
100
AcDbCircle
 10
30.9971334655
 20
207.4963556101
 30
0.0
 40
23.80843881416403
100
AcDbArc
 50
174.2443008512
 51
182.3787625289
  0
ARC
  5
134
330
119
100
AcDbEntity
  8
$DDT_AUDIT_GENERATED_(AA)
  6
Continuous
 62
     7
100
AcDbCircle
 10
31.3648617733
 20
207.4306668718
 30
0.0
 40
24.18091788817462
100
AcDbArc
 50
5.8231773007
 51
174.1768224375
  0
ARC
  5
135
330
119
100
AcDbEntity
  8
$DDT_AUDIT_GENERATED_(AA)
  6
Continuous
 62
     7
100
AcDbCircle
 10
2405.7266319536
 20
184.816969993
 30
0.0
 40
2355.75438945393
100
AcDbArc
 50
179.419426518
 51
179.8433088586
  0
SPLINE
  5
136
330
119
100
AcDbEntity
  8
$DDT_AUDIT_GENERATED_(AA)
  6
Continuous
 62
     7
100
AcDbSpline
210
0.0
220
0.0
230
1.0
 70
     8
 71
     3
 72
     8
 73
     4
 74
     0
 42
0.0000000001951788
 43
0.0000000001
 40
0.0
 40
0.0
 40
0.0
 40
0.0
 40
1.0
 40
1.0
 40
1.0
 40
1.0
 10
49.91262045015251
 20
140.0246049011025
 30
0.0
 10
49.91555734803557
 20
144.07932916997
 30
0.0
 10
49.93950044454839
 20
161.1576721228043
 30
0.0
 10
49.98444973969097
 20
191.2596337596056
 30
0.0
  0
LINE
  5
137
330
119
100
AcDbEntity
  8
$DDT_AUDIT_GENERATED_(AA)
  6
Continuous
 62
     7
100
AcDbLine
 10
49.9117938717
 20
139.9440715745
 30
0.0
 11
49.9119498121
 21
140.0249162113
 31
0.0
  0
ARC
  5
138
330
119
100
AcDbEntity
  8
$DDT_AUDIT_GENERATED_(AA)
  6
Continuous
 62
     7
100
AcDbCircle
 10
31.3665912246
 20
140.1102962923
 30
0.0
 40
18.54738588448149
100
AcDbArc
 50
180.5147205069
 51
359.4846255862
  0
LINE
  5
139
330
119
100
AcDbEntity
  8
$DDT_AUDIT_GENERATED_(AA)
  6
Continuous
 62
     7
100
AcDbLine
 10
12.8189812239
 20
140.0237713989
 30
0.0
 11
12.8190795717
 21
139.9439927137
 31
0.0
  0
SPLINE
  5
13A
330
119
100
AcDbEntity
  8
$DDT_AUDIT_GENERATED_(AA)
  6
Continuous
 62
     7
100
AcDbSpline
210
0.0
220
0.0
230
1.0
 70
     8
 71
     3
 72
     8
 73
     4
 74
     0
 42
0.0000000001951815
 43
0.0000000001
 40
0.0
 40
0.0
 40
0.0
 40
0.0
 40
1.0
 40
1.0
 40
1.0
 40
1.0
 10
12.75006645748978
 20
191.2580304647844
 30
0.0
 10
12.75380244555228
 20
189.6751236373758
 30
0.0
 10
12.77594209322341
 20
172.5970191390898
 30
0.0
 10
12.81648540050315
 20
140.0237169699263
 30
0.0
  0
ARC
  5
13B
330
119
100
AcDbEntity
  8
$DDT_AUDIT_GENERATED_(AA)
  6
Continuous
 62
     7
100
AcDbCircle
 10
-2307.6756016539
 20
184.9912022421
 30
0.0
 40
2320.433330807985
100
AcDbArc
 50
0.1547221523
 51
0.5853006027
  0
ARC
  5
13C
330
119
100
AcDbEntity
  8
$DDT_AUDIT_GENERATED_(D2)
  6
Continuous
 62
     7
100
AcDbCircle
 10
31.364861839
 20
209.786327521
 30
0.0
 40
23.64931288642442
100
AcDbArc
 50
10.8074319055
 51
169.2178582566
  0
ENDBLK
  5
13E
330
119
100
AcDbEntity
  8
0
100
AcDbBlockEnd
  0
ENDSEC
  0
SECTION
  2
ENTITIES
  0
INSERT
  5
5F
330
1F
100
AcDbEntity
  8
Default
100
AcDbBlockReference
  2
SE
 10
0.0
 20
0.0
 30
0.0
  0
INSERT
  5
D8
330
1F
100
AcDbEntity
  8
Default
100
AcDbBlockReference
  2
SE1
 10
0.0
 20
0.0
 30
0.0
  0
INSERT
  5
11A
330
1F
100
AcDbEntity
  8
Default
100
AcDbBlockReference
  2
SE2
 10
0.0
 20
0.0
 30
0.0
  0
TEXT
  5
140
330
1F
100
AcDbEntity
  8
Default
  6
Continuous
 62
     7
100
AcDbText
 10
5.9362635081
 20
53.4225120485
 30
0.0
 40
10.0
  1
Grohe AG^J
  7
SEACAD_seiso_ttf
 11
5.9362635081
 21
63.4225120485
 31
0.0
100
AcDbText
 73
     3
  0
TEXT
  5
141
330
1F
100
AcDbEntity
  8
Default
  6
Continuous
 62
     7
100
AcDbText
 10
5.9362635081
 20
37.0588756849
 30
0.0
 40
10.0
  1
 
  7
SEACAD_seiso_ttf
 11
5.9362635081
 21
47.0588756849
 31
0.0
100
AcDbText
 73
     3
  0
TEXT
  5
142
330
1F
100
AcDbEntity
  8
Default
  6
Continuous
 62
     7
100
AcDbText
 10
5.9362635081
 20
20.6952393213
 30
0.0
 40
10.0
  1
ecn: 
  7
SEACAD_seiso_ttf
 11
5.9362635081
 21
30.6952393213
 31
0.0
100
AcDbText
 73
     3
  0
TEXT
  5
143
330
1F
100
AcDbEntity
  8
Default
  6
Continuous
 62
     7
100
AcDbText
 10
5.9362635081
 20
4.3316029576
 30
0.0
 40
10.0
  1
unit: mm
  7
SEACAD_seiso_ttf
 11
5.9362635081
 21
14.3316029576
 31
0.0
100
AcDbText
 73
     3
  0
LINE
  5
144
330
1F
100
AcDbEntity
  8
Default
  6
Continuous
 62
     7
100
AcDbLine
 10
0.0
 20
0.0
 30
0.0
 11
100.0
 21
0.0
 31
0.0
  0
LINE
  5
145
330
1F
100
AcDbEntity
  8
Default
  6
Continuous
 62
     7
100
AcDbLine
 10
0.0
 20
0.0
 30
0.0
 11
0.0
 21
100.0
 31
0.0
  0
TEXT
  5
146
330
1F
100
AcDbEntity
  8
Default
  6
Continuous
 62
     7
100
AcDbText
 10
24.3923665681
 20
-18.2375342018
 30
0.0
 40
10.0
  1
100 mm
  7
SEACAD_seiso_ttf
 11
24.3923665681
 21
-8.2375342018
 31
0.0
100
AcDbText
 73
     3
  0
TEXT
  5
147
330
1F
100
AcDbEntity
  8
Default
  6
Continuous
 62
     7
100
AcDbText
 10
-7.6150308803
 20
24.6231930421
 30
0.0
 40
10.0
  1
100 mm
 50
90.0
  7
SEACAD_seiso_ttf
 11
-17.6150308803
 21
24.6231930421
 31
0.0
100
AcDbText
 73
     3
  0
TEXT
  5
148
330
1F
100
AcDbEntity
  8
Default
  6
Continuous
 62
     7
100
AcDbText
 10
28.4878128572
 20
20.0907663715
 30
0.0
 40
10.0
  1
216815
  7
SEACAD_seiso_ttf
 11
28.4878128572
 21
30.0907663715
 31
0.0
100
AcDbText
 73
     3
  0
TEXT
  5
149
330
1F
100
AcDbEntity
  8
Default
  6
Continuous
 62
     7
100
AcDbText
 10
5.9012241913
 20
36.7242780188
 30
0.0
 40
10.0
  1
32829000
  7
SEACAD_seiso_ttf
 11
5.9012241913
 21
46.7242780188
 31
0.0
100
AcDbText
 73
     3
  0
ENDSEC
  0
SECTION
  2
OBJECTS
  0
DICTIONARY
  5
C
330
0
100
AcDbDictionary
281
     1
  3
ACAD_GROUP
350
D
  3
ACAD_LAYOUT
350
1A
  3
ACAD_MLEADERSTYLE
350
14D
  3
ACAD_MLINESTYLE
350
17
  3
ACAD_PLOTSETTINGS
350
19
  3
ACAD_PLOTSTYLENAME
350
E
  3
ACAD_SCALELIST
350
3B
  3
ACAD_TABLESTYLE
350
14C
  3
ACAD_VISUALSTYLE
350
2A
  3
AcDbVariableDictionary
350
14A
  0
DICTIONARY
  5
D
102
{ACAD_REACTORS
330
C
102
}
330
C
100
AcDbDictionary
281
     1
  0
DICTIONARY
  5
1A
102
{ACAD_REACTORS
330
C
102
}
330
C
100
AcDbDictionary
281
     1
  3
Layout1
350
1E
  3
Model
350
22
  0
DICTIONARY
  5
14D
102
{ACAD_REACTORS
330
C
102
}
330
C
100
AcDbDictionary
281
     1
  0
DICTIONARY
  5
17
102
{ACAD_REACTORS
330
C
102
}
330
C
100
AcDbDictionary
281
     1
  3
Standard
350
18
  0
DICTIONARY
  5
19
102
{ACAD_REACTORS
330
C
102
}
330
C
100
AcDbDictionary
281
     1
  0
ACDBDICTIONARYWDFLT
  5
E
102
{ACAD_REACTORS
330
C
102
}
330
C
100
AcDbDictionary
281
     1
  3
Normal
350
F
100
AcDbDictionaryWithDefault
340
F
  0
DICTIONARY
  5
3B
102
{ACAD_REACTORS
330
C
102
}
330
C
100
AcDbDictionary
281
     1
  3
A0
350
3C
  3
A1
350
3D
  3
A2
350
3E
  3
A3
350
3F
  3
A4
350
40
  3
A5
350
41
  3
A6
350
42
  3
A7
350
43
  3
A8
350
44
  3
A9
350
45
  3
B0
350
46
  3
B1
350
47
  3
B2
350
48
  3
B3
350
49
  3
B4
350
4A
  3
B5
350
4B
  3
B6
350
4C
  3
B7
350
4D
  3
B8
350
4E
  3
B9
350
4F
  3
C0
350
50
  3
C1
350
51
  3
C2
350
52
  3
C3
350
53
  3
C4
350
54
  3
C5
350
55
  3
C6
350
56
  3
C7
350
57
  3
C8
350
58
  3
C9
350
59
  3
D0
350
5A
  3
D1
350
5B
  3
D2
350
5C
  0
DICTIONARY
  5
14C
102
{ACAD_REACTORS
330
C
102
}
330
C
100
AcDbDictionary
281
     1
  0
DICTIONARY
  5
2A
102
{ACAD_REACTORS
330
C
102
}
330
C
100
AcDbDictionary
281
     1
  3
2dWireframe
350
2F
  3
3D Hidden
350
31
  3
3dWireframe
350
30
  3
Basic
350
32
  3
Brighten
350
36
  3
ColorChange
350
3A
  3
Conceptual
350
34
  3
Dim
350
35
  3
Facepattern
350
39
  3
Flat
350
2B
  3
FlatWithEdges
350
2C
  3
Gouraud
350
2D
  3
GouraudWithEdges
350
2E
  3
Linepattern
350
38
  3
Realistic
350
33
  3
Thicken
350
37
  0
DICTIONARY
  5
14A
102
{ACAD_REACTORS
330
C
102
}
330
C
100
AcDbDictionary
281
     1
  3
CANNOSCALE
350
14B
  3
PSOLHEIGHT
350
14F
  3
PSOLWIDTH
350
14E
  0
LAYOUT
  5
1E
102
{ACAD_REACTORS
330
1A
102
}
330
1A
100
AcDbPlotSettings
  1

  2
none_device
  4

  6

 40
0.0
 41
0.0
 42
0.0
 43
0.0
 44
0.0
 45
0.0
 46
0.0
 47
0.0
 48
0.0
 49
0.0
140
0.0
141
0.0
142
1.0
143
1.0
 70
   688
 72
     0
 73
     0
 74
     5
  7

 75
    16
147
1.0
148
0.0
149
0.0
100
AcDbLayout
  1
Layout1
 70
     1
 71
     1
 10
0.0
 20
0.0
 11
1682.0
 21
2378.0
 12
0.0
 22
0.0
 32
0.0
 14
0.0
 24
0.0
 34
0.0
 15
1682.0
 25
2378.0
 35
0.0
146
0.0
 13
0.0
 23
0.0
 33
0.0
 16
1.0
 26
0.0
 36
0.0
 17
0.0
 27
1.0
 37
0.0
 76
     0
330
1B
  0
LAYOUT
  5
22
102
{ACAD_REACTORS
330
1A
102
}
330
1A
100
AcDbPlotSettings
  1

  2
none_device
  4

  6

 40
0.0
 41
0.0
 42
0.0
 43
0.0
 44
0.0
 45
0.0
 46
0.0
 47
0.0
 48
0.0
 49
0.0
140
0.0
141
0.0
142
1.0
143
1.0
 70
  1712
 72
     0
 73
     0
 74
     0
  7

 75
     0
147
1.0
148
0.0
149
0.0
100
AcDbLayout
  1
Model
 70
     1
 71
     0
 10
0.0
 20
0.0
 11
1682.0
 21
2378.0
 12
0.0
 22
0.0
 32
0.0
 14
0.0
 24
0.0
 34
0.0
 15
1682.0
 25
2378.0
 35
0.0
146
0.0
 13
0.0
 23
0.0
 33
0.0
 16
1.0
 26
0.0
 36
0.0
 17
0.0
 27
1.0
 37
0.0
 76
     0
330
1F
331
29
  0
MLINESTYLE
  5
18
102
{ACAD_REACTORS
330
17
102
}
330
17
100
AcDbMlineStyle
  2
Standard
 70
     0
  3

 62
   256
 51
90.0
 52
90.0
 71
     2
 49
0.5
 62
   256
  6
BYLAYER
 49
-0.5
 62
   256
  6
BYLAYER
  0
ACDBPLACEHOLDER
  5
F
102
{ACAD_REACTORS
330
E
102
}
330
E
  0
SCALE
  5
3C
102
{ACAD_REACTORS
330
3B
102
}
330
3B
100
AcDbScale
 70
     0
300
1:1
140
1.0
141
1.0
290
     1
  0
SCALE
  5
3D
102
{ACAD_REACTORS
330
3B
102
}
330
3B
100
AcDbScale
 70
     0
300
1:2
140
1.0
141
2.0
290
     0
  0
SCALE
  5
3E
102
{ACAD_REACTORS
330
3B
102
}
330
3B
100
AcDbScale
 70
     0
300
1:4
140
1.0
141
4.0
290
     0
  0
SCALE
  5
3F
102
{ACAD_REACTORS
330
3B
102
}
330
3B
100
AcDbScale
 70
     0
300
1:5
140
1.0
141
5.0
290
     0
  0
SCALE
  5
40
102
{ACAD_REACTORS
330
3B
102
}
330
3B
100
AcDbScale
 70
     0
300
1:8
140
1.0
141
8.0
290
     0
  0
SCALE
  5
41
102
{ACAD_REACTORS
330
3B
102
}
330
3B
100
AcDbScale
 70
     0
300
1:10
140
1.0
141
10.0
290
     0
  0
SCALE
  5
42
102
{ACAD_REACTORS
330
3B
102
}
330
3B
100
AcDbScale
 70
     0
300
1:16
140
1.0
141
16.0
290
     0
  0
SCALE
  5
43
102
{ACAD_REACTORS
330
3B
102
}
330
3B
100
AcDbScale
 70
     0
300
1:20
140
1.0
141
20.0
290
     0
  0
SCALE
  5
44
102
{ACAD_REACTORS
330
3B
102
}
330
3B
100
AcDbScale
 70
     0
300
1:30
140
1.0
141
30.0
290
     0
  0
SCALE
  5
45
102
{ACAD_REACTORS
330
3B
102
}
330
3B
100
AcDbScale
 70
     0
300
1:40
140
1.0
141
40.0
290
     0
  0
SCALE
  5
46
102
{ACAD_REACTORS
330
3B
102
}
330
3B
100
AcDbScale
 70
     0
300
1:50
140
1.0
141
50.0
290
     0
  0
SCALE
  5
47
102
{ACAD_REACTORS
330
3B
102
}
330
3B
100
AcDbScale
 70
     0
300
1:100
140
1.0
141
100.0
290
     0
  0
SCALE
  5
48
102
{ACAD_REACTORS
330
3B
102
}
330
3B
100
AcDbScale
 70
     0
300
2:1
140
2.0
141
1.0
290
     0
  0
SCALE
  5
49
102
{ACAD_REACTORS
330
3B
102
}
330
3B
100
AcDbScale
 70
     0
300
4:1
140
4.0
141
1.0
290
     0
  0
SCALE
  5
4A
102
{ACAD_REACTORS
330
3B
102
}
330
3B
100
AcDbScale
 70
     0
300
8:1
140
8.0
141
1.0
290
     0
  0
SCALE
  5
4B
102
{ACAD_REACTORS
330
3B
102
}
330
3B
100
AcDbScale
 70
     0
300
10:1
140
10.0
141
1.0
290
     0
  0
SCALE
  5
4C
102
{ACAD_REACTORS
330
3B
102
}
330
3B
100
AcDbScale
 70
     0
300
100:1
140
100.0
141
1.0
290
     0
  0
SCALE
  5
4D
102
{ACAD_REACTORS
330
3B
102
}
330
3B
100
AcDbScale
 70
     0
300
1/128" = 1'-0"
140
0.0078125
141
12.0
290
     0
  0
SCALE
  5
4E
102
{ACAD_REACTORS
330
3B
102
}
330
3B
100
AcDbScale
 70
     0
300
1/64" = 1'-0"
140
0.015625
141
12.0
290
     0
  0
SCALE
  5
4F
102
{ACAD_REACTORS
330
3B
102
}
330
3B
100
AcDbScale
 70
     0
300
1/32" = 1'-0"
140
0.03125
141
12.0
290
     0
  0
SCALE
  5
50
102
{ACAD_REACTORS
330
3B
102
}
330
3B
100
AcDbScale
 70
     0
300
1/16" = 1'-0"
140
0.0625
141
12.0
290
     0
  0
SCALE
  5
51
102
{ACAD_REACTORS
330
3B
102
}
330
3B
100
AcDbScale
 70
     0
300
3/32" = 1'-0"
140
0.09375
141
12.0
290
     0
  0
SCALE
  5
52
102
{ACAD_REACTORS
330
3B
102
}
330
3B
100
AcDbScale
 70
     0
300
1/8" = 1'-0"
140
0.125
141
12.0
290
     0
  0
SCALE
  5
53
102
{ACAD_REACTORS
330
3B
102
}
330
3B
100
AcDbScale
 70
     0
300
3/16" = 1'-0"
140
0.1875
141
12.0
290
     0
  0
SCALE
  5
54
102
{ACAD_REACTORS
330
3B
102
}
330
3B
100
AcDbScale
 70
     0
300
1/4" = 1'-0"
140
0.25
141
12.0
290
     0
  0
SCALE
  5
55
102
{ACAD_REACTORS
330
3B
102
}
330
3B
100
AcDbScale
 70
     0
300
3/8" = 1'-0"
140
0.375
141
12.0
290
     0
  0
SCALE
  5
56
102
{ACAD_REACTORS
330
3B
102
}
330
3B
100
AcDbScale
 70
     0
300
1/2" = 1'-0"
140
0.5
141
12.0
290
     0
  0
SCALE
  5
57
102
{ACAD_REACTORS
330
3B
102
}
330
3B
100
AcDbScale
 70
     0
300
3/4" = 1'-0"
140
0.75
141
12.0
290
     0
  0
SCALE
  5
58
102
{ACAD_REACTORS
330
3B
102
}
330
3B
100
AcDbScale
 70
     0
300
1" = 1'-0"
140
1.0
141
12.0
290
     0
  0
SCALE
  5
59
102
{ACAD_REACTORS
330
3B
102
}
330
3B
100
AcDbScale
 70
     0
300
1-1/2" = 1'-0"
140
1.5
141
12.0
290
     0
  0
SCALE
  5
5A
102
{ACAD_REACTORS
330
3B
102
}
330
3B
100
AcDbScale
 70
     0
300
3" = 1'-0"
140
3.0
141
12.0
290
     0
  0
SCALE
  5
5B
102
{ACAD_REACTORS
330
3B
102
}
330
3B
100
AcDbScale
 70
     0
300
6" = 1'-0"
140
6.0
141
12.0
290
     0
  0
SCALE
  5
5C
102
{ACAD_REACTORS
330
3B
102
}
330
3B
100
AcDbScale
 70
     0
300
1'-0" = 1'-0"
140
12.0
141
12.0
290
     0
  0
VISUALSTYLE
  5
2F
102
{ACAD_REACTORS
330
2A
102
}
330
2A
100
AcDbVisualStyle
  2
2dWireframe
 70
     4
 71
     0
 72
     2
 73
     0
 90
        0
 40
-0.6
 41
-30.0
 62
     5
 63
     7
 74
     1
 91
        4
 64
     7
 65
   257
 75
     1
175
     1
 42
1.0
 92
        0
 66
   257
 43
1.0
 76
     1
 77
     6
 78
     2
 67
     7
 79
     5
170
     0
171
     0
290
     0
174
     0
 93
        1
 44
0.0
173
     0
291
     0
 45
0.0
1001
ACAD
1000
AcDbSavedByObjectVersion
1070
     0
  0
VISUALSTYLE
  5
31
102
{ACAD_REACTORS
330
2A
102
}
330
2A
100
AcDbVisualStyle
  2
3D Hidden
 70
     6
 71
     1
 72
     2
 73
     2
 90
        0
 40
-0.6
 41
-30.0
 62
     5
 63
     7
 74
     2
 91
        2
 64
     7
 65
   257
 75
     2
175
     1
 42
40.0
 92
        0
 66
   257
 43
1.0
 76
     1
 77
     6
 78
     2
 67
     7
 79
     3
170
     0
171
     0
290
     0
174
     0
 93
        1
 44
0.0
173
     0
291
     0
 45
0.0
1001
ACAD
1000
AcDbSavedByObjectVersion
1070
     0
  0
VISUALSTYLE
  5
30
102
{ACAD_REACTORS
330
2A
102
}
330
2A
100
AcDbVisualStyle
  2
3dWireframe
 70
     5
 71
     0
 72
     2
 73
     0
 90
        0
 40
-0.6
 41
-30.0
 62
     5
 63
     7
 74
     1
 91
        4
 64
     7
 65
   257
 75
     1
175
     1
 42
1.0
 92
        0
 66
   257
 43
1.0
 76
     1
 77
     6
 78
     2
 67
     7
 79
     5
170
     0
171
     0
290
     0
174
     0
 93
        1
 44
0.0
173
     0
291
     0
 45
0.0
1001
ACAD
1000
AcDbSavedByObjectVersion
1070
     0
  0
VISUALSTYLE
  5
32
102
{ACAD_REACTORS
330
2A
102
}
330
2A
100
AcDbVisualStyle
  2
Basic
 70
     7
 71
     1
 72
     0
 73
     1
 90
        0
 40
-0.6
 41
-30.0
 62
     5
 63
     7
 74
     0
 91
        4
 64
     7
 65
   257
 75
     1
175
     1
 42
1.0
 92
        8
 66
     7
 43
1.0
 76
     1
 77
     6
 78
     2
 67
     7
 79
     5
170
     0
171
     0
290
     0
174
     0
 93
        1
 44
0.0
173
     0
291
     1
 45
0.0
1001
ACAD
1000
AcDbSavedByObjectVersion
1070
     0
  0
VISUALSTYLE
  5
36
102
{ACAD_REACTORS
330
2A
102
}
330
2A
100
AcDbVisualStyle
  2
Brighten
 70
    12
 71
     2
 72
     2
 73
     0
 90
        0
 40
-0.6
 41
-30.0
 62
     5
 63
     7
 74
     1
 91
        4
 64
     7
 65
   257
 75
     1
175
     1
 42
1.0
 92
        8
 66
     7
 43
1.0
 76
     1
 77
     6
 78
     2
 67
     7
 79
     5
170
     0
171
     0
290
     0
174
     0
 93
        1
 44
50.0
173
     0
291
     1
 45
0.0
1001
ACAD
1000
AcDbSavedByObjectVersion
1070
     0
  0
VISUALSTYLE
  5
3A
102
{ACAD_REACTORS
330
2A
102
}
330
2A
100
AcDbVisualStyle
  2
ColorChange
 70
    16
 71
     2
 72
     2
 73
     3
 90
        0
 40
-0.6
 41
-30.0
 62
     5
 63
     8
 74
     1
 91
        4
 64
     7
 65
   257
 75
     1
175
     1
 42
1.0
 92
        8
 66
     8
 43
1.0
 76
     1
 77
     6
 78
     2
 67
     7
 79
     5
170
     0
171
     0
290
     0
174
     0
 93
        1
 44
0.0
173
     0
291
     1
 45
0.0
1001
ACAD
1000
AcDbSavedByObjectVersion
1070
     0
  0
VISUALSTYLE
  5
34
102
{ACAD_REACTORS
330
2A
102
}
330
2A
100
AcDbVisualStyle
  2
Conceptual
 70
     9
 71
     3
 72
     2
 73
     0
 90
        0
 40
-0.6
 41
-30.0
 62
     5
 63
     7
 74
     2
 91
        2
 64
     7
 65
   257
 75
     1
175
     1
 42
40.0
 92
        8
 66
     7
 43
1.0
 76
     1
 77
     6
 78
     2
 67
     7
 79
     3
170
     0
171
     0
290
     0
174
     0
 93
        1
 44
0.0
173
     0
291
     0
 45
0.0
1001
ACAD
1000
AcDbSavedByObjectVersion
1070
     0
  0
VISUALSTYLE
  5
35
102
{ACAD_REACTORS
330
2A
102
}
330
2A
100
AcDbVisualStyle
  2
Dim
 70
    11
 71
     2
 72
     2
 73
     0
 90
        0
 40
-0.6
 41
-30.0
 62
     5
 63
     7
 74
     1
 91
        4
 64
     7
 65
   257
 75
     1
175
     1
 42
1.0
 92
        8
 66
     7
 43
1.0
 76
     1
 77
     6
 78
     2
 67
     7
 79
     5
170
     0
171
     0
290
     0
174
     0
 93
        1
 44
-50.0
173
     0
291
     1
 45
0.0
1001
ACAD
1000
AcDbSavedByObjectVersion
1070
     0
  0
VISUALSTYLE
  5
39
102
{ACAD_REACTORS
330
2A
102
}
330
2A
100
AcDbVisualStyle
  2
Facepattern
 70
    15
 71
     2
 72
     2
 73
     0
 90
        0
 40
-0.6
 41
-30.0
 62
     5
 63
     7
 74
     1
 91
        4
 64
     7
 65
   257
 75
     1
175
     1
 42
1.0
 92
        8
 66
     7
 43
1.0
 76
     1
 77
     6
 78
     2
 67
     7
 79
     5
170
     0
171
     0
290
     0
174
     0
 93
        1
 44
0.0
173
     0
291
     1
 45
0.0
1001
ACAD
1000
AcDbSavedByObjectVersion
1070
     0
  0
VISUALSTYLE
  5
2B
102
{ACAD_REACTORS
330
2A
102
}
330
2A
100
AcDbVisualStyle
  2
Flat
 70
     0
 71
     2
 72
     1
 73
     1
 90
        2
 40
-0.6
 41
30.0
 62
     5
 63
     7
 74
     0
 91
        4
 64
     7
 65
   257
 75
     1
175
     1
 42
1.0
 92
        8
 66
     7
 43
1.0
 76
     1
 77
     6
 78
     2
 67
     7
 79
     5
170
     0
171
     0
290
     0
174
     0
 93
       13
 44
0.0
173
     0
291
     1
 45
0.0
1001
ACAD
1000
AcDbSavedByObjectVersion
1070
     0
  0
VISUALSTYLE
  5
2C
102
{ACAD_REACTORS
330
2A
102
}
330
2A
100
AcDbVisualStyle
  2
FlatWithEdges
 70
     1
 71
     2
 72
     1
 73
     1
 90
        2
 40
-0.6
 41
30.0
 62
     5
 63
     7
 74
     1
 91
        4
 64
     7
 65
   257
 75
     1
175
     1
 42
1.0
 92
        0
 66
   257
 43
1.0
 76
     1
 77
     6
 78
     2
 67
     7
 79
     5
170
     0
171
     0
290
     0
174
     0
 93
       13
 44
0.0
173
     0
291
     1
 45
0.0
1001
ACAD
1000
AcDbSavedByObjectVersion
1070
     0
  0
VISUALSTYLE
  5
2D
102
{ACAD_REACTORS
330
2A
102
}
330
2A
100
AcDbVisualStyle
  2
Gouraud
 70
     2
 71
     2
 72
     2
 73
     1
 90
        2
 40
-0.6
 41
30.0
 62
     5
 63
     7
 74
     0
 91
        4
 64
     7
 65
   257
 75
     1
175
     1
 42
1.0
 92
        0
 66
     7
 43
1.0
 76
     1
 77
     6
 78
     2
 67
     7
 79
     5
170
     0
171
     0
290
     0
174
     0
 93
       13
 44
0.0
173
     0
291
     1
 45
0.0
1001
ACAD
1000
AcDbSavedByObjectVersion
1070
     0
  0
VISUALSTYLE
  5
2E
102
{ACAD_REACTORS
330
2A
102
}
330
2A
100
AcDbVisualStyle
  2
GouraudWithEdges
 70
     3
 71
     2
 72
     2
 73
     1
 90
        2
 40
-0.6
 41
30.0
 62
     5
 63
     7
 74
     1
 91
        4
 64
     7
 65
   257
 75
     1
175
     1
 42
1.0
 92
        0
 66
   257
 43
1.0
 76
     1
 77
     6
 78
     2
 67
     7
 79
     5
170
     0
171
     0
290
     0
174
     0
 93
       13
 44
0.0
173
     0
291
     1
 45
0.0
1001
ACAD
1000
AcDbSavedByObjectVersion
1070
     0
  0
VISUALSTYLE
  5
38
102
{ACAD_REACTORS
330
2A
102
}
330
2A
100
AcDbVisualStyle
  2
Linepattern
 70
    14
 71
     2
 72
     2
 73
     0
 90
        0
 40
-0.6
 41
-30.0
 62
     5
 63
     7
 74
     1
 91
        4
 64
     7
 65
   257
 75
     7
175
     7
 42
1.0
 92
        8
 66
     7
 43
1.0
 76
     1
 77
     6
 78
     2
 67
     7
 79
     5
170
     0
171
     0
290
     0
174
     0
 93
        1
 44
0.0
173
     0
291
     1
 45
0.0
1001
ACAD
1000
AcDbSavedByObjectVersion
1070
     0
  0
VISUALSTYLE
  5
33
102
{ACAD_REACTORS
330
2A
102
}
330
2A
100
AcDbVisualStyle
  2
Realistic
 70
     8
 71
     2
 72
     2
 73
     0
 90
        0
 40
-0.6
 41
-30.0
 62
     5
 63
     7
 74
     1
 91
        0
 64
     7
 65
   257
 75
     1
175
     1
 42
1.0
 92
        8
 66
     8
 43
1.0
 76
     1
 77
     6
 78
     2
 67
     7
 79
     5
170
     0
171
     0
290
     0
174
     0
 93
       13
 44
0.0
173
     0
291
     0
 45
0.0
1001
ACAD
1000
AcDbSavedByObjectVersion
1070
     0
  0
VISUALSTYLE
  5
37
102
{ACAD_REACTORS
330
2A
102
}
330
2A
100
AcDbVisualStyle
  2
Thicken
 70
    13
 71
     2
 72
     2
 73
     0
 90
        0
 40
-0.6
 41
-30.0
 62
     5
 63
     7
 74
     1
 91
        4
 64
     7
 65
   257
 75
     1
175
     1
 42
1.0
 92
       12
 66
     7
 43
1.0
 76
     1
 77
     6
 78
     2
 67
     7
 79
     5
170
     0
171
     0
290
     0
174
     0
 93
        1
 44
0.0
173
     0
291
     1
 45
0.0
1001
ACAD
1000
AcDbSavedByObjectVersion
1070
     0
  0
DICTIONARYVAR
  5
14B
102
{ACAD_REACTORS
330
14A
102
}
330
14A
100
DictionaryVariables
280
     0
  1
1:1
  0
DICTIONARYVAR
  5
14F
102
{ACAD_REACTORS
330
14A
102
}
330
14A
100
DictionaryVariables
280
     0
  1
80.000000
  0
DICTIONARYVAR
  5
14E
102
{ACAD_REACTORS
330
14A
102
}
330
14A
100
DictionaryVariables
280
     0
  1
5.000000
  0
ENDSEC
  0
EOF
