  0
SECTION
  2
HEADER
  9
$ACADVER
  1
AC1009
  9
$DWGCODEPAGE
  3
ansi_1252
  9
$INSBASE
 10
0.0
 20
0.0
 30
0.0
  9
$EXTMIN
 10
1.000000000000000E+20
 20
1.000000000000000E+20
 30
1.000000000000000E+20
  9
$EXTMAX
 10
-1.000000000000000E+20
 20
-1.000000000000000E+20
 30
-1.000000000000000E+20
  9
$LIMMIN
 10
0.0
 20
0.0
  9
$LIMMAX
 10
12.0
 20
9.0
  9
$ORTHOMODE
 70
     0
  9
$REGENMODE
 70
     1
  9
$FILLMODE
 70
     1
  9
$QTEXTMODE
 70
     0
  9
$MIRRTEXT
 70
     1
  9
$DRAGMODE
 70
     2
  9
$LTSCALE
 40
1.0
  9
$OSMODE
 70
    37
  9
$ATTMODE
 70
     1
  9
$TEXTSIZE
 40
0.2
  9
$TRACEWID
 40
0.05
  9
$TEXTSTYLE
  7
STANDARD
  9
$CLAYER
  8
0
  9
$CELTYPE
  6
BYLAYER
  9
$CECOLOR
 62
   256
  9
$DIMSCALE
 40
1.0
  9
$DIMASZ
 40
0.18
  9
$DIMEXO
 40
0.0625
  9
$DIMDLI
 40
0.38
  9
$DIMRND
 40
0.0
  9
$DIMDLE
 40
0.0
  9
$DIMEXE
 40
0.18
  9
$DIMTP
 40
0.0
  9
$DIMTM
 40
0.0
  9
$DIMTXT
 40
0.18
  9
$DIMCEN
 40
0.09
  9
$DIMTSZ
 40
0.0
  9
$DIMTOL
 70
     0
  9
$DIMLIM
 70
     0
  9
$DIMTIH
 70
     1
  9
$DIMTOH
 70
     1
  9
$DIMSE1
 70
     0
  9
$DIMSE2
 70
     0
  9
$DIMTAD
 70
     0
  9
$DIMZIN
 70
     0
  9
$DIMBLK
  1

  9
$DIMASO
 70
     1
  9
$DIMSHO
 70
     1
  9
$DIMPOST
  1

  9
$DIMAPOST
  1

  9
$DIMALT
 70
     0
  9
$DIMALTD
 70
     2
  9
$DIMALTF
 40
25.4
  9
$DIMLFAC
 40
1.0
  9
$DIMTOFL
 70
     0
  9
$DIMTVP
 40
0.0
  9
$DIMTIX
 70
     0
  9
$DIMSOXD
 70
     0
  9
$DIMSAH
 70
     0
  9
$DIMBLK1
  1

  9
$DIMBLK2
  1

  9
$DIMSTYLE
  2
STANDARD
  9
$DIMCLRD
 70
     0
  9
$DIMCLRE
 70
     0
  9
$DIMCLRT
 70
     0
  9
$DIMTFAC
 40
1.0
  9
$DIMGAP
 40
0.09
  9
$LUNITS
 70
     2
  9
$LUPREC
 70
     4
  9
$SKETCHINC
 40
0.1
  9
$FILLETRAD
 40
0.5
  9
$AUNITS
 70
     0
  9
$AUPREC
 70
     0
  9
$MENU
  1
.
  9
$ELEVATION
 40
0.0
  9
$PELEVATION
 40
0.0
  9
$THICKNESS
 40
0.0
  9
$LIMCHECK
 70
     0
  9
$CHAMFERA
 40
0.5
  9
$CHAMFERB
 40
0.5
  9
$SKPOLY
 70
     0
  9
$TDCREATE
 40
2455267.453604491
  9
$TDUPDATE
 40
2455267.453604491
  9
$TDINDWG
 40
0.0000000116
  9
$TDUSRTIMER
 40
0.0000000116
  9
$USRTIMER
 70
     1
  9
$ANGBASE
 50
0.0
  9
$ANGDIR
 70
     0
  9
$PDMODE
 70
     0
  9
$PDSIZE
 40
0.0
  9
$PLINEWID
 40
0.0
  9
$COORDS
 70
     1
  9
$SPLFRAME
 70
     0
  9
$SPLINETYPE
 70
     6
  9
$SPLINESEGS
 70
     8
  9
$ATTDIA
 70
     0
  9
$ATTREQ
 70
     1
  9
$HANDLING
 70
     1
  9
$HANDSEED
  5
BF7
  9
$SURFTAB1
 70
     6
  9
$SURFTAB2
 70
     6
  9
$SURFTYPE
 70
     6
  9
$SURFU
 70
     6
  9
$SURFV
 70
     6
  9
$UCSNAME
  2

  9
$UCSORG
 10
0.0
 20
0.0
 30
0.0
  9
$UCSXDIR
 10
1.0
 20
0.0
 30
0.0
  9
$UCSYDIR
 10
0.0
 20
1.0
 30
0.0
  9
$PUCSNAME
  2

  9
$PUCSORG
 10
0.0
 20
0.0
 30
0.0
  9
$PUCSXDIR
 10
1.0
 20
0.0
 30
0.0
  9
$PUCSYDIR
 10
0.0
 20
1.0
 30
0.0
  9
$USERI1
 70
     0
  9
$USERI2
 70
     0
  9
$USERI3
 70
     0
  9
$USERI4
 70
     0
  9
$USERI5
 70
     0
  9
$USERR1
 40
0.0
  9
$USERR2
 40
0.0
  9
$USERR3
 40
0.0
  9
$USERR4
 40
0.0
  9
$USERR5
 40
0.0
  9
$WORLDVIEW
 70
     1
  9
$SHADEDGE
 70
     3
  9
$SHADEDIF
 70
    70
  9
$TILEMODE
 70
     1
  9
$MAXACTVP
 70
    64
  9
$PLIMCHECK
 70
     0
  9
$PEXTMIN
 10
1.000000000000000E+20
 20
1.000000000000000E+20
 30
1.000000000000000E+20
  9
$PEXTMAX
 10
-1.000000000000000E+20
 20
-1.000000000000000E+20
 30
-1.000000000000000E+20
  9
$PLIMMIN
 10
0.0
 20
0.0
  9
$PLIMMAX
 10
12.0
 20
9.0
  9
$UNITMODE
 70
     0
  9
$VISRETAIN
 70
     1
  9
$PLINEGEN
 70
     0
  9
$PSLTSCALE
 70
     1
  0
ENDSEC
  0
SECTION
  2
TABLES
  0
TABLE
  2
VPORT
 70
     1
  0
VPORT
  2
*ACTIVE
 70
     0
 10
0.0
 20
0.0
 11
1.0
 21
1.0
 12
0.0
 22
0.0
 13
0.0
 23
0.0
 14
0.5
 24
0.5
 15
0.5
 25
0.5
 16
336.0152893066406
 26
-313.3395080566406
 36
131.7430267333984
 17
5.829986572265625
 27
-54.0
 37
0.0
 40
282.6259715634804
 41
1.972972972850329
 42
50.0
 43
0.0
 44
0.0
 50
0.0
 51
0.0
 71
     0
 72
   100
 73
     1
 74
     3
 75
     0
 76
     0
 77
     0
 78
     0
  0
ENDTAB
  0
TABLE
  2
LTYPE
 70
     1
  0
LTYPE
  2
CONTINUOUS
 70
     0
  3
Solid line
 72
    65
 73
     0
 40
0.0
  0
ENDTAB
  0
TABLE
  2
LAYER
 70
     2
  0
LAYER
  2
0
 70
     0
 62
     7
  6
CONTINUOUS
  0
LAYER
  2
LAYER_1
 70
     0
 62
     7
  6
CONTINUOUS
  0
ENDTAB
  0
TABLE
  2
STYLE
 70
     1
  0
STYLE
  2
STANDARD
 70
     0
 40
0.0
 41
1.0
 50
0.0
 71
     0
 42
0.2
  3
txt
  4

  0
ENDTAB
  0
TABLE
  2
VIEW
 70
     0
  0
ENDTAB
  0
TABLE
  2
UCS
 70
     0
  0
ENDTAB
  0
TABLE
  2
APPID
 70
     1
  0
APPID
  2
ACAD
 70
     0
  0
ENDTAB
  0
TABLE
  2
DIMSTYLE
 70
     1
  0
DIMSTYLE
  2
STANDARD
 70
     0
  3

  4

  5

  6

  7

 40
1.0
 41
0.18
 42
0.0625
 43
0.38
 44
0.18
 45
0.0
 46
0.0
 47
0.0
 48
0.0
140
0.18
141
0.09
142
0.0
143
25.4
144
1.0
145
0.0
146
1.0
147
0.09
 71
     0
 72
     0
 73
     1
 74
     1
 75
     0
 76
     0
 77
     0
 78
     0
170
     0
171
     2
172
     0
173
     0
174
     0
175
     0
176
     0
177
     0
178
     0
  0
ENDTAB
  0
ENDSEC
  0
SECTION
  2
BLOCKS
  0
BLOCK
  8
0
  2
$MODEL_SPACE
 70
     0
 10
0.0
 20
0.0
 30
0.0
  3
$MODEL_SPACE
  1

  0
ENDBLK
  5
21
  8
0
  0
BLOCK
 67
     1
  8
0
  2
$PAPER_SPACE
 70
     0
 10
0.0
 20
0.0
 30
0.0
  3
$PAPER_SPACE
  1

  0
ENDBLK
  5
1D
 67
     1
  8
0
  0
BLOCK
  8
0
  2
E3_NODE
 70
     0
 10
0.0
 20
0.0
 30
0.0
  3
E3_NODE
  1

  0
POLYLINE
  5
3C
  8
0
 62
     9
 66
     1
 10
0.0
 20
0.0
 30
0.0
 70
    64
 71
     5
 72
     3
  0
VERTEX
  5
3D
  8
0
 10
1.776000022888184
 20
-105.2539978027344
 30
-1.539999961853027
 70
   192
  0
VERTEX
  5
3E
  8
0
 10
4.820000171661377
 20
-105.2369995117188
 30
-1.805999994277954
 70
   192
  0
VERTEX
  5
3F
  8
0
 10
4.820000171661377
 20
-105.2509994506836
 30
-1.805999994277954
 70
   192
  0
VERTEX
  5
40
  8
0
 10
1.776000022888184
 20
-106.7570037841797
 30
-1.539999961853027
 70
   192
  0
VERTEX
  5
41
  8
0
 10
4.820000171661377
 20
-106.7399978637695
 30
-1.805999994277954
 70
   192
  0
VERTEX
  5
42
  8
0
 62
     9
 10
0.0
 20
0.0
 30
0.0
 70
   128
 71
     3
 72
     2
 73
     1
  0
VERTEX
  5
43
  8
0
 62
     9
 10
0.0
 20
0.0
 30
0.0
 70
   128
 71
     1
 72
     4
 73
     3
  0
VERTEX
  5
44
  8
0
 62
     9
 10
0.0
 20
0.0
 30
0.0
 70
   128
 71
     4
 72
     5
 73
     3
  0
SEQEND
  5
45
  8
0
 62
     9
  0
ENDBLK
  5
49
  8
0
  0
BLOCK
  8
0
  2
E3_NODE_1_
 70
     0
 10
0.0
 20
0.0
 30
0.0
  3
E3_NODE_1_
  1

  0
POLYLINE
  5
4B
  8
0
 62
     9
 66
     1
 10
0.0
 20
0.0
 30
0.0
 70
    64
 71
    89
 72
    87
  0
VERTEX
  5
4C
  8
0
 10
4.820000171661377
 20
-79.5
 30
-27.29999923706055
 70
   192
  0
VERTEX
  5
4D
  8
0
 10
11.54800033569336
 20
-80.34600067138672
 30
-27.28700065612793
 70
   192
  0
VERTEX
  5
4E
  8
0
 10
11.53800010681152
 20
-82.36900329589844
 30
-27.14900016784668
 70
   192
  0
VERTEX
  5
4F
  8
0
 10
11.55200004577637
 20
-79.5
 30
-27.29999923706055
 70
   192
  0
VERTEX
  5
50
  8
0
 10
4.820000171661377
 20
-84.82599639892578
 30
-26.77499961853027
 70
   192
  0
VERTEX
  5
51
  8
0
 10
11.53299999237061
 20
-83.44999694824219
 30
-27.01300048828125
 70
   192
  0
VERTEX
  5
52
  8
0
 10
4.820000171661377
 20
-89.9469985961914
 30
-25.22200012207031
 70
   192
  0
VERTEX
  5
53
  8
0
 10
11.51399993896484
 20
-87.3949966430664
 30
-26.13299942016602
 70
   192
  0
VERTEX
  5
54
  8
0
 10
11.52299976348877
 20
-85.44000244140625
 30
-26.64599990844727
 70
   192
  0
VERTEX
  5
55
  8
0
 10
11.52600002288818
 20
-84.822998046875
 30
-26.76000022888184
 70
   192
  0
VERTEX
  5
56
  8
0
 10
11.50500011444092
 20
-89.31400299072266
 30
-25.47500038146973
 70
   192
  0
VERTEX
  5
57
  8
0
 10
4.820000171661377
 20
-94.66699981689453
 30
-22.69899940490723
 70
   192
  0
VERTEX
  5
58
  8
0
 10
11.49100017547607
 20
-92.16899871826172
 30
-24.18199920654297
 70
   192
  0
VERTEX
  5
59
  8
0
 10
11.49499988555908
 20
-91.19300079345703
 30
-24.66900062561035
 70
   192
  0
VERTEX
  5
5A
  8
0
 10
11.5019998550415
 20
-89.94100189208984
 30
-25.20599937438965
 70
   192
  0
VERTEX
  5
5B
  8
0
 10
11.48200035095215
 20
-93.92500305175781
 30
-23.17799949645996
 70
   192
  0
VERTEX
  5
5C
  8
0
 10
4.820000171661377
 20
-98.80400085449219
 30
-19.30400085449219
 70
   192
  0
VERTEX
  5
5D
  8
0
 10
11.46599960327148
 20
-97.19300079345703
 30
-20.79000091552734
 70
   192
  0
VERTEX
  5
5E
  8
0
 10
11.45899963378906
 20
-98.69999694824219
 30
-19.40800094604492
 70
   192
  0
VERTEX
  5
5F
  8
0
 10
11.47399997711182
 20
-95.5999984741211
 30
-22.04700088500977
 70
   192
  0
VERTEX
  5
60
  8
0
 10
11.47900009155273
 20
-94.65699768066406
 30
-22.68400001525879
 70
   192
  0
VERTEX
  5
61
  8
0
 10
11.45499992370605
 20
-99.45899963378906
 30
-18.62599945068359
 70
   192
  0
VERTEX
  5
62
  8
0
 10
11.44900035858154
 20
-100.7839965820312
 30
-17.09700012207031
 70
   192
  0
VERTEX
  5
63
  8
0
 10
11.45800018310547
 20
-98.802001953125
 30
-19.30200004577637
 70
   192
  0
VERTEX
  5
64
  8
0
 10
4.820000171661377
 20
-102.1989974975586
 30
-15.16699981689453
 70
   192
  0
VERTEX
  5
65
  8
0
 10
11.44299983978271
 20
-101.9899978637695
 30
-15.47500038146973
 70
   192
  0
VERTEX
  5
66
  8
0
 10
4.820000171661377
 20
-104.7220001220703
 30
-10.44699954986572
 70
   192
  0
VERTEX
  5
67
  8
0
 10
11.43299961090088
 20
-104.0410003662109
 30
-11.95899963378906
 70
   192
  0
VERTEX
  5
68
  8
0
 10
11.43099975585938
 20
-104.4990005493164
 30
-10.9689998626709
 70
   192
  0
VERTEX
  5
69
  8
0
 10
11.4370002746582
 20
-103.0780029296875
 30
-13.76200008392334
 70
   192
  0
VERTEX
  5
6A
  8
0
 10
11.44200038909912
 20
-102.1900024414062
 30
-15.16100025177002
 70
   192
  0
VERTEX
  5
6B
  8
0
 10
11.42700004577637
 20
-105.2429962158203
 30
-9.088000297546387
 70
   192
  0
VERTEX
  5
6C
  8
0
 10
11.42399978637695
 20
-105.8450012207031
 30
-7.157999992370605
 70
   192
  0
VERTEX
  5
6D
  8
0
 10
11.43000030517578
 20
-104.7080001831055
 30
-10.44200038909912
 70
   192
  0
VERTEX
  5
6E
  8
0
 10
4.820000171661377
 20
-106.2750015258789
 30
-5.326000213623047
 70
   192
  0
VERTEX
  5
6F
  8
0
 10
4.820000171661377
 20
-106.7399978637695
 30
-1.805999994277954
 70
   192
  0
VERTEX
  5
70
  8
0
 10
11.42000007629395
 20
-106.6159973144531
 30
-3.16100001335144
 70
   192
  0
VERTEX
  5
71
  8
0
 10
11.42000007629395
 20
-106.7210006713867
 30
-2.075999975204468
 70
   192
  0
VERTEX
  5
72
  8
0
 10
11.42199993133545
 20
-106.3040008544922
 30
-5.182000160217285
 70
   192
  0
VERTEX
  5
73
  8
0
 10
11.41899967193604
 20
-106.8000030517578
 30
-0.0549999997019768
 70
   192
  0
VERTEX
  5
74
  8
0
 10
11.42199993133545
 20
-106.2710037231445
 30
-5.324999809265137
 70
   192
  0
VERTEX
  5
75
  8
0
 10
1.320000052452087
 20
-106.8000030517578
 30
0.0
 70
   192
  0
VERTEX
  5
76
  8
0
 10
1.776000022888184
 20
-106.7570037841797
 30
-1.539999961853027
 70
   192
  0
VERTEX
  5
77
  8
0
 10
1.320000052452087
 20
-106.7799987792969
 30
-1.04200005531311
 70
   192
  0
VERTEX
  5
78
  8
0
 10
1.554999947547913
 20
-106.7610015869141
 30
-1.465999960899353
 70
   192
  0
VERTEX
  5
79
  8
0
 10
11.41899967193604
 20
-106.7979965209961
 30
0.0
 70
   192
  0
VERTEX
  5
7A
  8
0
 10
4.820000171661377
 20
-84.82599639892578
 30
26.77499961853027
 70
   192
  0
VERTEX
  5
7B
  8
0
 10
11.53299999237061
 20
-83.55899810791016
 30
26.99699974060059
 70
   192
  0
VERTEX
  5
7C
  8
0
 10
11.54199981689453
 20
-81.54299926757812
 30
27.22299957275391
 70
   192
  0
VERTEX
  5
7D
  8
0
 10
11.52600002288818
 20
-84.822998046875
 30
26.75799942016602
 70
   192
  0
VERTEX
  5
7E
  8
0
 10
4.820000171661377
 20
-79.5
 30
27.29999923706055
 70
   192
  0
VERTEX
  5
7F
  8
0
 10
4.820000171661377
 20
-89.9469985961914
 30
25.22200012207031
 70
   192
  0
VERTEX
  5
80
  8
0
 10
11.51299953460693
 20
-87.5009994506836
 30
26.10099983215332
 70
   192
  0
VERTEX
  5
81
  8
0
 10
11.50800037384033
 20
-88.53700256347656
 30
25.76099967956543
 70
   192
  0
VERTEX
  5
82
  8
0
 10
11.5019998550415
 20
-89.94200134277344
 30
25.20800018310547
 70
   192
  0
VERTEX
  5
83
  8
0
 10
11.52299976348877
 20
-85.5459976196289
 30
26.62199974060059
 70
   192
  0
VERTEX
  5
84
  8
0
 10
4.820000171661377
 20
-94.66699981689453
 30
22.69899940490723
 70
   192
  0
VERTEX
  5
85
  8
0
 10
11.48200035095215
 20
-94.01699829101562
 30
23.1200008392334
 70
   192
  0
VERTEX
  5
86
  8
0
 10
11.48999977111816
 20
-92.26699829101562
 30
24.13100051879883
 70
   192
  0
VERTEX
  5
87
  8
0
 10
11.47900009155273
 20
-94.65699768066406
 30
22.68400001525879
 70
   192
  0
VERTEX
  5
88
  8
0
 10
11.49899959564209
 20
-90.43900299072266
 30
25.01199913024902
 70
   192
  0
VERTEX
  5
89
  8
0
 10
11.4689998626709
 20
-96.55400085449219
 30
21.31800079345703
 70
   192
  0
VERTEX
  5
8A
  8
0
 10
11.47399997711182
 20
-95.69000244140625
 30
21.98200035095215
 70
   192
  0
VERTEX
  5
8B
  8
0
 10
4.820000171661377
 20
-98.80400085449219
 30
19.30400085449219
 70
   192
  0
VERTEX
  5
8C
  8
0
 10
11.46199989318848
 20
-98.10199737548828
 30
19.98100090026855
 70
   192
  0
VERTEX
  5
8D
  8
0
 10
11.45800018310547
 20
-98.79100036621094
 30
19.29100036621094
 70
   192
  0
VERTEX
  5
8E
  8
0
 10
4.820000171661377
 20
-102.1989974975586
 30
15.16699981689453
 70
   192
  0
VERTEX
  5
8F
  8
0
 10
11.44799995422363
 20
-100.8519973754883
 30
17.01099967956543
 70
   192
  0
VERTEX
  5
90
  8
0
 10
11.44200038909912
 20
-102.1959991455078
 30
15.16499996185303
 70
   192
  0
VERTEX
  5
91
  8
0
 10
11.44200038909912
 20
-102.0530014038086
 30
15.38399982452393
 70
   192
  0
VERTEX
  5
92
  8
0
 10
11.45499992370605
 20
-99.53399658203125
 30
18.54500007629395
 70
   192
  0
VERTEX
  5
93
  8
0
 10
4.820000171661377
 20
-104.7220001220703
 30
10.44699954986572
 70
   192
  0
VERTEX
  5
94
  8
0
 10
11.4350004196167
 20
-103.6669998168945
 30
12.69799995422363
 70
   192
  0
VERTEX
  5
95
  8
0
 10
11.4399995803833
 20
-102.6490020751953
 30
14.4709997177124
 70
   192
  0
VERTEX
  5
96
  8
0
 10
11.43000030517578
 20
-104.5439987182617
 30
10.86800003051758
 70
   192
  0
VERTEX
  5
97
  8
0
 10
11.43000030517578
 20
-104.7099990844727
 30
10.44200038909912
 70
   192
  0
VERTEX
  5
98
  8
0
 10
4.820000171661377
 20
-106.2750015258789
 30
5.326000213623047
 70
   192
  0
VERTEX
  5
99
  8
0
 10
11.42399978637695
 20
-105.8740005493164
 30
7.051000118255615
 70
   192
  0
VERTEX
  5
9A
  8
0
 10
11.42300033569336
 20
-106.1340026855469
 30
5.993000030517578
 70
   192
  0
VERTEX
  5
9B
  8
0
 10
11.42199993133545
 20
-106.2590026855469
 30
5.322999954223633
 70
   192
  0
VERTEX
  5
9C
  8
0
 10
11.42700004577637
 20
-105.2789993286133
 30
8.984999656677246
 70
   192
  0
VERTEX
  5
9D
  8
0
 10
1.325000047683716
 20
-106.7770004272461
 30
1.108999967575073
 70
   192
  0
VERTEX
  5
9E
  8
0
 10
4.820000171661377
 20
-106.7399978637695
 30
1.805999994277954
 70
   192
  0
VERTEX
  5
9F
  8
0
 10
1.776000022888184
 20
-106.7570037841797
 30
1.539999961853027
 70
   192
  0
VERTEX
  5
A0
  8
0
 10
1.375
 20
-106.7699966430664
 30
1.269000053405762
 70
   192
  0
VERTEX
  5
A1
  8
0
 10
1.320000052452087
 20
-106.7799987792969
 30
1.04200005531311
 70
   192
  0
VERTEX
  5
A2
  8
0
 10
11.42000007629395
 20
-106.7289962768555
 30
1.965999960899353
 70
   192
  0
VERTEX
  5
A3
  8
0
 10
11.42099952697754
 20
-106.5080032348633
 30
3.982000112533569
 70
   192
  0
VERTEX
  5
A4
  8
0
 10
11.55200004577637
 20
-79.5
 30
27.29999923706055
 70
   192
  0
VERTEX
  5
A5
  8
0
 62
     9
 10
0.0
 20
0.0
 30
0.0
 70
   128
 71
     3
 72
     2
 73
     1
  0
VERTEX
  5
A6
  8
0
 62
     9
 10
0.0
 20
0.0
 30
0.0
 70
   128
 71
     2
 72
     4
 73
     1
  0
VERTEX
  5
A7
  8
0
 62
     9
 10
0.0
 20
0.0
 30
0.0
 70
   128
 71
     1
 72
     5
 73
     3
  0
VERTEX
  5
A8
  8
0
 62
     9
 10
0.0
 20
0.0
 30
0.0
 70
   128
 71
     5
 72
     6
 73
     3
  0
VERTEX
  5
A9
  8
0
 62
     9
 10
0.0
 20
0.0
 30
0.0
 70
   128
 71
     8
 72
     5
 73
     7
  0
VERTEX
  5
AA
  8
0
 62
     9
 10
0.0
 20
0.0
 30
0.0
 70
   128
 71
     8
 72
     9
 73
     5
  0
VERTEX
  5
AB
  8
0
 62
     9
 10
0.0
 20
0.0
 30
0.0
 70
   128
 71
     9
 72
    10
 73
     5
  0
VERTEX
  5
AC
  8
0
 62
     9
 10
0.0
 20
0.0
 30
0.0
 70
   128
 71
     7
 72
    11
 73
     8
  0
VERTEX
  5
AD
  8
0
 62
     9
 10
0.0
 20
0.0
 30
0.0
 70
   128
 71
    13
 72
     7
 73
    12
  0
VERTEX
  5
AE
  8
0
 62
     9
 10
0.0
 20
0.0
 30
0.0
 70
   128
 71
    13
 72
    14
 73
     7
  0
VERTEX
  5
AF
  8
0
 62
     9
 10
0.0
 20
0.0
 30
0.0
 70
   128
 71
    14
 72
    15
 73
     7
  0
VERTEX
  5
B0
  8
0
 62
     9
 10
0.0
 20
0.0
 30
0.0
 70
   128
 71
    12
 72
    16
 73
    13
  0
VERTEX
  5
B1
  8
0
 62
     9
 10
0.0
 20
0.0
 30
0.0
 70
   128
 71
    19
 72
    18
 73
    17
  0
VERTEX
  5
B2
  8
0
 62
     9
 10
0.0
 20
0.0
 30
0.0
 70
   128
 71
    18
 72
    20
 73
    12
  0
VERTEX
  5
B3
  8
0
 62
     9
 10
0.0
 20
0.0
 30
0.0
 70
   128
 71
    20
 72
    21
 73
    12
  0
VERTEX
  5
B4
  8
0
 62
     9
 10
0.0
 20
0.0
 30
0.0
 70
   128
 71
    12
 72
    17
 73
    18
  0
VERTEX
  5
B5
  8
0
 62
     9
 10
0.0
 20
0.0
 30
0.0
 70
   128
 71
    23
 72
    22
 73
    17
  0
VERTEX
  5
B6
  8
0
 62
     9
 10
0.0
 20
0.0
 30
0.0
 70
   128
 71
    22
 72
    24
 73
    17
  0
VERTEX
  5
B7
  8
0
 62
     9
 10
0.0
 20
0.0
 30
0.0
 70
   128
 71
    17
 72
    25
 73
    23
  0
VERTEX
  5
B8
  8
0
 62
     9
 10
0.0
 20
0.0
 30
0.0
 70
   128
 71
    25
 72
    26
 73
    23
  0
VERTEX
  5
B9
  8
0
 62
     9
 10
0.0
 20
0.0
 30
0.0
 70
   128
 71
    29
 72
    28
 73
    27
  0
VERTEX
  5
BA
  8
0
 62
     9
 10
0.0
 20
0.0
 30
0.0
 70
   128
 71
    28
 72
    30
 73
    25
  0
VERTEX
  5
BB
  8
0
 62
     9
 10
0.0
 20
0.0
 30
0.0
 70
   128
 71
    25
 72
    27
 73
    28
  0
VERTEX
  5
BC
  8
0
 62
     9
 10
0.0
 20
0.0
 30
0.0
 70
   128
 71
    30
 72
    31
 73
    25
  0
VERTEX
  5
BD
  8
0
 62
     9
 10
0.0
 20
0.0
 30
0.0
 70
   128
 71
    33
 72
    32
 73
    27
  0
VERTEX
  5
BE
  8
0
 62
     9
 10
0.0
 20
0.0
 30
0.0
 70
   128
 71
    32
 72
    34
 73
    27
  0
VERTEX
  5
BF
  8
0
 62
     9
 10
0.0
 20
0.0
 30
0.0
 70
   128
 71
    27
 72
    35
 73
    33
  0
VERTEX
  5
C0
  8
0
 62
     9
 10
0.0
 20
0.0
 30
0.0
 70
   128
 71
    38
 72
    37
 73
    36
  0
VERTEX
  5
C1
  8
0
 62
     9
 10
0.0
 20
0.0
 30
0.0
 70
   128
 71
    37
 72
    39
 73
    35
  0
VERTEX
  5
C2
  8
0
 62
     9
 10
0.0
 20
0.0
 30
0.0
 70
   128
 71
    35
 72
    36
 73
    37
  0
VERTEX
  5
C3
  8
0
 62
     9
 10
0.0
 20
0.0
 30
0.0
 70
   128
 71
    36
 72
    40
 73
    38
  0
VERTEX
  5
C4
  8
0
 62
     9
 10
0.0
 20
0.0
 30
0.0
 70
   128
 71
    39
 72
    41
 73
    35
  0
VERTEX
  5
C5
  8
0
 62
     9
 10
0.0
 20
0.0
 30
0.0
 70
   128
 71
    36
 72
    43
 73
    42
  0
VERTEX
  5
C6
  8
0
 62
     9
 10
0.0
 20
0.0
 30
0.0
 70
   128
 71
    44
 72
    42
 73
    43
  0
VERTEX
  5
C7
  8
0
 62
     9
 10
0.0
 20
0.0
 30
0.0
 70
   128
 71
    43
 72
    45
 73
    44
  0
VERTEX
  5
C8
  8
0
 62
     9
 10
0.0
 20
0.0
 30
0.0
 70
   128
 71
    42
 72
    46
 73
    36
  0
VERTEX
  5
C9
  8
0
 62
     9
 10
0.0
 20
0.0
 30
0.0
 70
   128
 71
    49
 72
    48
 73
    47
  0
VERTEX
  5
CA
  8
0
 62
     9
 10
0.0
 20
0.0
 30
0.0
 70
   128
 71
    48
 72
    50
 73
    47
  0
VERTEX
  5
CB
  8
0
 62
     9
 10
0.0
 20
0.0
 30
0.0
 70
   128
 71
    47
 72
    51
 73
    49
  0
VERTEX
  5
CC
  8
0
 62
     9
 10
0.0
 20
0.0
 30
0.0
 70
   128
 71
    53
 72
    52
 73
    47
  0
VERTEX
  5
CD
  8
0
 62
     9
 10
0.0
 20
0.0
 30
0.0
 70
   128
 71
    53
 72
    54
 73
    52
  0
VERTEX
  5
CE
  8
0
 62
     9
 10
0.0
 20
0.0
 30
0.0
 70
   128
 71
    54
 72
    55
 73
    52
  0
VERTEX
  5
CF
  8
0
 62
     9
 10
0.0
 20
0.0
 30
0.0
 70
   128
 71
    47
 72
    56
 73
    53
  0
VERTEX
  5
D0
  8
0
 62
     9
 10
0.0
 20
0.0
 30
0.0
 70
   128
 71
    59
 72
    58
 73
    57
  0
VERTEX
  5
D1
  8
0
 62
     9
 10
0.0
 20
0.0
 30
0.0
 70
   128
 71
    57
 72
    52
 73
    59
  0
VERTEX
  5
D2
  8
0
 62
     9
 10
0.0
 20
0.0
 30
0.0
 70
   128
 71
    58
 72
    60
 73
    57
  0
VERTEX
  5
D3
  8
0
 62
     9
 10
0.0
 20
0.0
 30
0.0
 70
   128
 71
    52
 72
    61
 73
    59
  0
VERTEX
  5
D4
  8
0
 62
     9
 10
0.0
 20
0.0
 30
0.0
 70
   128
 71
    63
 72
    62
 73
    57
  0
VERTEX
  5
D5
  8
0
 62
     9
 10
0.0
 20
0.0
 30
0.0
 70
   128
 71
    62
 72
    65
 73
    64
  0
VERTEX
  5
D6
  8
0
 62
     9
 10
0.0
 20
0.0
 30
0.0
 70
   128
 71
    64
 72
    57
 73
    62
  0
VERTEX
  5
D7
  8
0
 62
     9
 10
0.0
 20
0.0
 30
0.0
 70
   128
 71
    65
 72
    66
 73
    64
  0
VERTEX
  5
D8
  8
0
 62
     9
 10
0.0
 20
0.0
 30
0.0
 70
   128
 71
    68
 72
    67
 73
    64
  0
VERTEX
  5
D9
  8
0
 62
     9
 10
0.0
 20
0.0
 30
0.0
 70
   128
 71
    70
 72
    69
 73
    67
  0
VERTEX
  5
DA
  8
0
 62
     9
 10
0.0
 20
0.0
 30
0.0
 70
   128
 71
    67
 72
    68
 73
    70
  0
VERTEX
  5
DB
  8
0
 62
     9
 10
0.0
 20
0.0
 30
0.0
 70
   128
 71
    64
 72
    71
 73
    68
  0
VERTEX
  5
DC
  8
0
 62
     9
 10
0.0
 20
0.0
 30
0.0
 70
   128
 71
    73
 72
    72
 73
    67
  0
VERTEX
  5
DD
  8
0
 62
     9
 10
0.0
 20
0.0
 30
0.0
 70
   128
 71
    67
 72
    74
 73
    73
  0
VERTEX
  5
DE
  8
0
 62
     9
 10
0.0
 20
0.0
 30
0.0
 70
   128
 71
    73
 72
    75
 73
    72
  0
VERTEX
  5
DF
  8
0
 62
     9
 10
0.0
 20
0.0
 30
0.0
 70
   128
 71
    75
 72
    76
 73
    72
  0
VERTEX
  5
E0
  8
0
 62
     9
 10
0.0
 20
0.0
 30
0.0
 70
   128
 71
    78
 72
    77
 73
    72
  0
VERTEX
  5
E1
  8
0
 62
     9
 10
0.0
 20
0.0
 30
0.0
 70
   128
 71
    78
 72
    79
 73
    77
  0
VERTEX
  5
E2
  8
0
 62
     9
 10
0.0
 20
0.0
 30
0.0
 70
   128
 71
    79
 72
    80
 73
    77
  0
VERTEX
  5
E3
  8
0
 62
     9
 10
0.0
 20
0.0
 30
0.0
 70
   128
 71
    72
 72
    81
 73
    78
  0
VERTEX
  5
E4
  8
0
 62
     9
 10
0.0
 20
0.0
 30
0.0
 70
   128
 71
    84
 72
    83
 73
    82
  0
VERTEX
  5
E5
  8
0
 62
     9
 10
0.0
 20
0.0
 30
0.0
 70
   128
 71
    83
 72
    46
 73
    82
  0
VERTEX
  5
E6
  8
0
 62
     9
 10
0.0
 20
0.0
 30
0.0
 70
   128
 71
    82
 72
    85
 73
    84
  0
VERTEX
  5
E7
  8
0
 62
     9
 10
0.0
 20
0.0
 30
0.0
 70
   128
 71
    46
 72
    86
 73
    82
  0
VERTEX
  5
E8
  8
0
 62
     9
 10
0.0
 20
0.0
 30
0.0
 70
   128
 71
    88
 72
    87
 73
    83
  0
VERTEX
  5
E9
  8
0
 62
     9
 10
0.0
 20
0.0
 30
0.0
 70
   128
 71
    83
 72
    87
 73
    46
  0
VERTEX
  5
EA
  8
0
 62
     9
 10
0.0
 20
0.0
 30
0.0
 70
   128
 71
    83
 72
    77
 73
    88
  0
VERTEX
  5
EB
  8
0
 62
     9
 10
0.0
 20
0.0
 30
0.0
 70
   128
 71
    77
 72
    80
 73
    88
  0
VERTEX
  5
EC
  8
0
 62
     9
 10
0.0
 20
0.0
 30
0.0
 70
   128
 71
    46
 72
    42
 73
    86
  0
VERTEX
  5
ED
  8
0
 62
     9
 10
0.0
 20
0.0
 30
0.0
 70
   128
 71
    72
 72
    76
 73
    81
  0
VERTEX
  5
EE
  8
0
 62
     9
 10
0.0
 20
0.0
 30
0.0
 70
   128
 71
    67
 72
    69
 73
    74
  0
VERTEX
  5
EF
  8
0
 62
     9
 10
0.0
 20
0.0
 30
0.0
 70
   128
 71
    64
 72
    66
 73
    71
  0
VERTEX
  5
F0
  8
0
 62
     9
 10
0.0
 20
0.0
 30
0.0
 70
   128
 71
    57
 72
    60
 73
    63
  0
VERTEX
  5
F1
  8
0
 62
     9
 10
0.0
 20
0.0
 30
0.0
 70
   128
 71
    52
 72
    55
 73
    61
  0
VERTEX
  5
F2
  8
0
 62
     9
 10
0.0
 20
0.0
 30
0.0
 70
   128
 71
    47
 72
    50
 73
    56
  0
VERTEX
  5
F3
  8
0
 62
     9
 10
0.0
 20
0.0
 30
0.0
 70
   128
 71
    51
 72
    89
 73
    49
  0
VERTEX
  5
F4
  8
0
 62
     9
 10
0.0
 20
0.0
 30
0.0
 70
   128
 71
    36
 72
    46
 73
    40
  0
VERTEX
  5
F5
  8
0
 62
     9
 10
0.0
 20
0.0
 30
0.0
 70
   128
 71
    35
 72
    41
 73
    33
  0
VERTEX
  5
F6
  8
0
 62
     9
 10
0.0
 20
0.0
 30
0.0
 70
   128
 71
    27
 72
    34
 73
    29
  0
VERTEX
  5
F7
  8
0
 62
     9
 10
0.0
 20
0.0
 30
0.0
 70
   128
 71
    25
 72
    31
 73
    26
  0
VERTEX
  5
F8
  8
0
 62
     9
 10
0.0
 20
0.0
 30
0.0
 70
   128
 71
    17
 72
    24
 73
    19
  0
VERTEX
  5
F9
  8
0
 62
     9
 10
0.0
 20
0.0
 30
0.0
 70
   128
 71
    12
 72
    21
 73
    16
  0
VERTEX
  5
FA
  8
0
 62
     9
 10
0.0
 20
0.0
 30
0.0
 70
   128
 71
     7
 72
    15
 73
    11
  0
VERTEX
  5
FB
  8
0
 62
     9
 10
0.0
 20
0.0
 30
0.0
 70
   128
 71
     5
 72
    10
 73
     6
  0
SEQEND
  5
FC
  8
0
 62
     9
  0
ENDBLK
  5
FF
  8
0
  0
BLOCK
  8
0
  2
E3_NODE_2_
 70
     0
 10
0.0
 20
0.0
 30
0.0
  3
E3_NODE_2_
  1

  0
POLYLINE
  5
101
  8
0
 62
     9
 66
     1
 10
0.0
 20
0.0
 30
0.0
 70
    64
 71
     5
 72
     3
  0
VERTEX
  5
102
  8
0
 10
1.776000022888184
 20
-105.2539978027344
 30
1.539999961853027
 70
   192
  0
VERTEX
  5
103
  8
0
 10
1.776000022888184
 20
-106.7570037841797
 30
1.539999961853027
 70
   192
  0
VERTEX
  5
104
  8
0
 10
4.820000171661377
 20
-106.7399978637695
 30
1.805999994277954
 70
   192
  0
VERTEX
  5
105
  8
0
 10
4.820000171661377
 20
-105.2509994506836
 30
1.805999994277954
 70
   192
  0
VERTEX
  5
106
  8
0
 10
4.820000171661377
 20
-105.2369995117188
 30
1.805999994277954
 70
   192
  0
VERTEX
  5
107
  8
0
 62
     9
 10
0.0
 20
0.0
 30
0.0
 70
   128
 71
     3
 72
     2
 73
     1
  0
VERTEX
  5
108
  8
0
 62
     9
 10
0.0
 20
0.0
 30
0.0
 70
   128
 71
     1
 72
     4
 73
     3
  0
VERTEX
  5
109
  8
0
 62
     9
 10
0.0
 20
0.0
 30
0.0
 70
   128
 71
     1
 72
     5
 73
     4
  0
SEQEND
  5
10A
  8
0
 62
     9
  0
ENDBLK
  5
10D
  8
0
  0
BLOCK
  8
0
  2
E3_NODE_3_
 70
     0
 10
0.0
 20
0.0
 30
0.0
  3
E3_NODE_3_
  1

  0
POLYLINE
  5
10F
  8
0
 62
     9
 66
     1
 10
0.0
 20
0.0
 30
0.0
 70
    64
 71
    73
 72
    73
  0
VERTEX
  5
110
  8
0
 10
11.65999984741211
 20
-70.53800201416016
 30
0.0
 70
   192
  0
VERTEX
  5
111
  8
0
 10
11.42199993133545
 20
-106.2590026855469
 30
5.322999954223633
 70
   192
  0
VERTEX
  5
112
  8
0
 10
11.42099952697754
 20
-106.5080032348633
 30
3.982000112533569
 70
   192
  0
VERTEX
  5
113
  8
0
 10
11.42000007629395
 20
-106.7289962768555
 30
1.965999960899353
 70
   192
  0
VERTEX
  5
114
  8
0
 10
11.42399978637695
 20
-105.8740005493164
 30
7.051000118255615
 70
   192
  0
VERTEX
  5
115
  8
0
 10
11.42300033569336
 20
-106.1340026855469
 30
5.993000030517578
 70
   192
  0
VERTEX
  5
116
  8
0
 10
11.43000030517578
 20
-104.7099990844727
 30
10.44200038909912
 70
   192
  0
VERTEX
  5
117
  8
0
 10
11.42700004577637
 20
-105.2789993286133
 30
8.984999656677246
 70
   192
  0
VERTEX
  5
118
  8
0
 10
11.4399995803833
 20
-102.6490020751953
 30
14.4709997177124
 70
   192
  0
VERTEX
  5
119
  8
0
 10
11.4350004196167
 20
-103.6669998168945
 30
12.69799995422363
 70
   192
  0
VERTEX
  5
11A
  8
0
 10
11.43000030517578
 20
-104.5439987182617
 30
10.86800003051758
 70
   192
  0
VERTEX
  5
11B
  8
0
 10
11.44200038909912
 20
-102.1959991455078
 30
15.16499996185303
 70
   192
  0
VERTEX
  5
11C
  8
0
 10
11.45800018310547
 20
-98.79100036621094
 30
19.29100036621094
 70
   192
  0
VERTEX
  5
11D
  8
0
 10
11.45499992370605
 20
-99.53399658203125
 30
18.54500007629395
 70
   192
  0
VERTEX
  5
11E
  8
0
 10
11.44799995422363
 20
-100.8519973754883
 30
17.01099967956543
 70
   192
  0
VERTEX
  5
11F
  8
0
 10
11.44200038909912
 20
-102.0530014038086
 30
15.38399982452393
 70
   192
  0
VERTEX
  5
120
  8
0
 10
11.4689998626709
 20
-96.55400085449219
 30
21.31800079345703
 70
   192
  0
VERTEX
  5
121
  8
0
 10
11.46199989318848
 20
-98.10199737548828
 30
19.98100090026855
 70
   192
  0
VERTEX
  5
122
  8
0
 10
11.47399997711182
 20
-95.69000244140625
 30
21.98200035095215
 70
   192
  0
VERTEX
  5
123
  8
0
 10
11.47900009155273
 20
-94.65699768066406
 30
22.68400001525879
 70
   192
  0
VERTEX
  5
124
  8
0
 10
11.5019998550415
 20
-89.94200134277344
 30
25.20800018310547
 70
   192
  0
VERTEX
  5
125
  8
0
 10
11.49899959564209
 20
-90.43900299072266
 30
25.01199913024902
 70
   192
  0
VERTEX
  5
126
  8
0
 10
11.48999977111816
 20
-92.26699829101562
 30
24.13100051879883
 70
   192
  0
VERTEX
  5
127
  8
0
 10
11.48200035095215
 20
-94.01699829101562
 30
23.1200008392334
 70
   192
  0
VERTEX
  5
128
  8
0
 10
11.51299953460693
 20
-87.5009994506836
 30
26.10099983215332
 70
   192
  0
VERTEX
  5
129
  8
0
 10
11.50800037384033
 20
-88.53700256347656
 30
25.76099967956543
 70
   192
  0
VERTEX
  5
12A
  8
0
 10
11.52600002288818
 20
-84.822998046875
 30
26.75799942016602
 70
   192
  0
VERTEX
  5
12B
  8
0
 10
11.52299976348877
 20
-85.5459976196289
 30
26.62199974060059
 70
   192
  0
VERTEX
  5
12C
  8
0
 10
11.55200004577637
 20
-79.5
 30
27.29999923706055
 70
   192
  0
VERTEX
  5
12D
  8
0
 10
11.54199981689453
 20
-81.54299926757812
 30
27.22299957275391
 70
   192
  0
VERTEX
  5
12E
  8
0
 10
11.53299999237061
 20
-83.55899810791016
 30
26.99699974060059
 70
   192
  0
VERTEX
  5
12F
  8
0
 10
11.58100032806396
 20
-70.53900146484375
 30
27.29999923706055
 70
   192
  0
VERTEX
  5
130
  8
0
 10
11.41899967193604
 20
-106.8000030517578
 30
-0.0549999997019768
 70
   192
  0
VERTEX
  5
131
  8
0
 10
11.42000007629395
 20
-106.7210006713867
 30
-2.075999975204468
 70
   192
  0
VERTEX
  5
132
  8
0
 10
11.42000007629395
 20
-106.7590026855469
 30
-1.037999987602234
 70
   192
  0
VERTEX
  5
133
  8
0
 10
11.53299999237061
 20
-83.44999694824219
 30
-27.01300048828125
 70
   192
  0
VERTEX
  5
134
  8
0
 10
11.53800010681152
 20
-82.36900329589844
 30
-27.14900016784668
 70
   192
  0
VERTEX
  5
135
  8
0
 10
11.52600002288818
 20
-84.822998046875
 30
-26.76000022888184
 70
   192
  0
VERTEX
  5
136
  8
0
 10
11.54800033569336
 20
-80.34600067138672
 30
-27.28700065612793
 70
   192
  0
VERTEX
  5
137
  8
0
 10
11.55200004577637
 20
-79.5
 30
-27.29999923706055
 70
   192
  0
VERTEX
  5
138
  8
0
 10
11.5019998550415
 20
-89.94100189208984
 30
-25.20599937438965
 70
   192
  0
VERTEX
  5
139
  8
0
 10
11.50500011444092
 20
-89.31400299072266
 30
-25.47500038146973
 70
   192
  0
VERTEX
  5
13A
  8
0
 10
11.51399993896484
 20
-87.3949966430664
 30
-26.13299942016602
 70
   192
  0
VERTEX
  5
13B
  8
0
 10
11.52299976348877
 20
-85.44000244140625
 30
-26.64599990844727
 70
   192
  0
VERTEX
  5
13C
  8
0
 10
11.49100017547607
 20
-92.16899871826172
 30
-24.18199920654297
 70
   192
  0
VERTEX
  5
13D
  8
0
 10
11.49499988555908
 20
-91.19300079345703
 30
-24.66900062561035
 70
   192
  0
VERTEX
  5
13E
  8
0
 10
11.47900009155273
 20
-94.65699768066406
 30
-22.68400001525879
 70
   192
  0
VERTEX
  5
13F
  8
0
 10
11.48200035095215
 20
-93.92500305175781
 30
-23.17799949645996
 70
   192
  0
VERTEX
  5
140
  8
0
 10
11.45899963378906
 20
-98.69999694824219
 30
-19.40800094604492
 70
   192
  0
VERTEX
  5
141
  8
0
 10
11.46599960327148
 20
-97.19300079345703
 30
-20.79000091552734
 70
   192
  0
VERTEX
  5
142
  8
0
 10
11.47399997711182
 20
-95.5999984741211
 30
-22.04700088500977
 70
   192
  0
VERTEX
  5
143
  8
0
 10
11.45800018310547
 20
-98.802001953125
 30
-19.30200004577637
 70
   192
  0
VERTEX
  5
144
  8
0
 10
11.44200038909912
 20
-102.1900024414062
 30
-15.16100025177002
 70
   192
  0
VERTEX
  5
145
  8
0
 10
11.44299983978271
 20
-101.9899978637695
 30
-15.47500038146973
 70
   192
  0
VERTEX
  5
146
  8
0
 10
11.44900035858154
 20
-100.7839965820312
 30
-17.09700012207031
 70
   192
  0
VERTEX
  5
147
  8
0
 10
11.45499992370605
 20
-99.45899963378906
 30
-18.62599945068359
 70
   192
  0
VERTEX
  5
148
  8
0
 10
11.43299961090088
 20
-104.0410003662109
 30
-11.95899963378906
 70
   192
  0
VERTEX
  5
149
  8
0
 10
11.4370002746582
 20
-103.0780029296875
 30
-13.76200008392334
 70
   192
  0
VERTEX
  5
14A
  8
0
 10
11.43099975585938
 20
-104.4990005493164
 30
-10.9689998626709
 70
   192
  0
VERTEX
  5
14B
  8
0
 10
11.43000030517578
 20
-104.7080001831055
 30
-10.44200038909912
 70
   192
  0
VERTEX
  5
14C
  8
0
 10
11.42199993133545
 20
-106.2710037231445
 30
-5.324999809265137
 70
   192
  0
VERTEX
  5
14D
  8
0
 10
11.42399978637695
 20
-105.8450012207031
 30
-7.157999992370605
 70
   192
  0
VERTEX
  5
14E
  8
0
 10
11.42700004577637
 20
-105.2429962158203
 30
-9.088000297546387
 70
   192
  0
VERTEX
  5
14F
  8
0
 10
11.42000007629395
 20
-106.6159973144531
 30
-3.16100001335144
 70
   192
  0
VERTEX
  5
150
  8
0
 10
11.42199993133545
 20
-106.3040008544922
 30
-5.182000160217285
 70
   192
  0
VERTEX
  5
151
  8
0
 10
11.41899967193604
 20
-106.7979965209961
 30
0.0
 70
   192
  0
VERTEX
  5
152
  8
0
 10
11.57199954986572
 20
-70.53900146484375
 30
-27.29999923706055
 70
   192
  0
VERTEX
  5
153
  8
0
 10
11.61400032043457
 20
-51.44699859619141
 30
-27.29999923706055
 70
   192
  0
VERTEX
  5
154
  8
0
 10
11.64599990844727
 20
-34.09999847412109
 30
0.0
 70
   192
  0
VERTEX
  5
155
  8
0
 10
11.64799976348877
 20
-34.09999847412109
 30
0.7509999871253967
 70
   192
  0
VERTEX
  5
156
  8
0
 10
11.57699966430664
 20
-34.09999847412109
 30
27.29999923706055
 70
   192
  0
VERTEX
  5
157
  8
0
 10
11.60799980163574
 20
-62.15299987792969
 30
27.29999923706055
 70
   192
  0
VERTEX
  5
158
  8
0
 10
11.57699966430664
 20
-34.09999847412109
 30
-27.29999923706055
 70
   192
  0
VERTEX
  5
159
  8
0
 62
     9
 10
0.0
 20
0.0
 30
0.0
 70
   128
 71
     3
 72
     2
 73
     1
  0
VERTEX
  5
15A
  8
0
 62
     9
 10
0.0
 20
0.0
 30
0.0
 70
   128
 71
     1
 72
     4
 73
     3
  0
VERTEX
  5
15B
  8
0
 62
     9
 10
0.0
 20
0.0
 30
0.0
 70
   128
 71
     6
 72
     5
 73
     1
  0
VERTEX
  5
15C
  8
0
 62
     9
 10
0.0
 20
0.0
 30
0.0
 70
   128
 71
     8
 72
     7
 73
     1
  0
VERTEX
  5
15D
  8
0
 62
     9
 10
0.0
 20
0.0
 30
0.0
 70
   128
 71
     1
 72
     5
 73
     8
  0
VERTEX
  5
15E
  8
0
 62
     9
 10
0.0
 20
0.0
 30
0.0
 70
   128
 71
     1
 72
     2
 73
     6
  0
VERTEX
  5
15F
  8
0
 62
     9
 10
0.0
 20
0.0
 30
0.0
 70
   128
 71
    10
 72
     9
 73
     1
  0
VERTEX
  5
160
  8
0
 62
     9
 10
0.0
 20
0.0
 30
0.0
 70
   128
 71
     1
 72
    11
 73
    10
  0
VERTEX
  5
161
  8
0
 62
     9
 10
0.0
 20
0.0
 30
0.0
 70
   128
 71
     9
 72
    12
 73
     1
  0
VERTEX
  5
162
  8
0
 62
     9
 10
0.0
 20
0.0
 30
0.0
 70
   128
 71
     1
 72
     7
 73
    11
  0
VERTEX
  5
163
  8
0
 62
     9
 10
0.0
 20
0.0
 30
0.0
 70
   128
 71
    14
 72
    13
 73
     1
  0
VERTEX
  5
164
  8
0
 62
     9
 10
0.0
 20
0.0
 30
0.0
 70
   128
 71
     1
 72
    15
 73
    14
  0
VERTEX
  5
165
  8
0
 62
     9
 10
0.0
 20
0.0
 30
0.0
 70
   128
 71
     1
 72
    16
 73
    15
  0
VERTEX
  5
166
  8
0
 62
     9
 10
0.0
 20
0.0
 30
0.0
 70
   128
 71
    18
 72
    17
 73
     1
  0
VERTEX
  5
167
  8
0
 62
     9
 10
0.0
 20
0.0
 30
0.0
 70
   128
 71
    17
 72
    19
 73
     1
  0
VERTEX
  5
168
  8
0
 62
     9
 10
0.0
 20
0.0
 30
0.0
 70
   128
 71
    19
 72
    20
 73
     1
  0
VERTEX
  5
169
  8
0
 62
     9
 10
0.0
 20
0.0
 30
0.0
 70
   128
 71
    22
 72
    21
 73
     1
  0
VERTEX
  5
16A
  8
0
 62
     9
 10
0.0
 20
0.0
 30
0.0
 70
   128
 71
     1
 72
    23
 73
    22
  0
VERTEX
  5
16B
  8
0
 62
     9
 10
0.0
 20
0.0
 30
0.0
 70
   128
 71
     1
 72
    24
 73
    23
  0
VERTEX
  5
16C
  8
0
 62
     9
 10
0.0
 20
0.0
 30
0.0
 70
   128
 71
     1
 72
    20
 73
    24
  0
VERTEX
  5
16D
  8
0
 62
     9
 10
0.0
 20
0.0
 30
0.0
 70
   128
 71
    26
 72
    25
 73
     1
  0
VERTEX
  5
16E
  8
0
 62
     9
 10
0.0
 20
0.0
 30
0.0
 70
   128
 71
    28
 72
    27
 73
     1
  0
VERTEX
  5
16F
  8
0
 62
     9
 10
0.0
 20
0.0
 30
0.0
 70
   128
 71
     1
 72
    25
 73
    28
  0
VERTEX
  5
170
  8
0
 62
     9
 10
0.0
 20
0.0
 30
0.0
 70
   128
 71
     1
 72
    21
 73
    26
  0
VERTEX
  5
171
  8
0
 62
     9
 10
0.0
 20
0.0
 30
0.0
 70
   128
 71
     1
 72
    13
 73
    18
  0
VERTEX
  5
172
  8
0
 62
     9
 10
0.0
 20
0.0
 30
0.0
 70
   128
 71
    30
 72
    29
 73
     1
  0
VERTEX
  5
173
  8
0
 62
     9
 10
0.0
 20
0.0
 30
0.0
 70
   128
 71
     1
 72
    31
 73
    30
  0
VERTEX
  5
174
  8
0
 62
     9
 10
0.0
 20
0.0
 30
0.0
 70
   128
 71
    29
 72
    32
 73
     1
  0
VERTEX
  5
175
  8
0
 62
     9
 10
0.0
 20
0.0
 30
0.0
 70
   128
 71
     1
 72
    27
 73
    31
  0
VERTEX
  5
176
  8
0
 62
     9
 10
0.0
 20
0.0
 30
0.0
 70
   128
 71
     1
 72
    12
 73
    16
  0
VERTEX
  5
177
  8
0
 62
     9
 10
0.0
 20
0.0
 30
0.0
 70
   128
 71
    35
 72
    34
 73
    33
  0
VERTEX
  5
178
  8
0
 62
     9
 10
0.0
 20
0.0
 30
0.0
 70
   128
 71
    37
 72
    36
 73
     1
  0
VERTEX
  5
179
  8
0
 62
     9
 10
0.0
 20
0.0
 30
0.0
 70
   128
 71
    36
 72
    38
 73
     1
  0
VERTEX
  5
17A
  8
0
 62
     9
 10
0.0
 20
0.0
 30
0.0
 70
   128
 71
     1
 72
    39
 73
    37
  0
VERTEX
  5
17B
  8
0
 62
     9
 10
0.0
 20
0.0
 30
0.0
 70
   128
 71
     1
 72
    40
 73
    39
  0
VERTEX
  5
17C
  8
0
 62
     9
 10
0.0
 20
0.0
 30
0.0
 70
   128
 71
    42
 72
    41
 73
     1
  0
VERTEX
  5
17D
  8
0
 62
     9
 10
0.0
 20
0.0
 30
0.0
 70
   128
 71
     1
 72
    43
 73
    42
  0
VERTEX
  5
17E
  8
0
 62
     9
 10
0.0
 20
0.0
 30
0.0
 70
   128
 71
     1
 72
    44
 73
    43
  0
VERTEX
  5
17F
  8
0
 62
     9
 10
0.0
 20
0.0
 30
0.0
 70
   128
 71
     1
 72
    38
 73
    44
  0
VERTEX
  5
180
  8
0
 62
     9
 10
0.0
 20
0.0
 30
0.0
 70
   128
 71
    46
 72
    45
 73
     1
  0
VERTEX
  5
181
  8
0
 62
     9
 10
0.0
 20
0.0
 30
0.0
 70
   128
 71
    48
 72
    47
 73
     1
  0
VERTEX
  5
182
  8
0
 62
     9
 10
0.0
 20
0.0
 30
0.0
 70
   128
 71
     1
 72
    45
 73
    48
  0
VERTEX
  5
183
  8
0
 62
     9
 10
0.0
 20
0.0
 30
0.0
 70
   128
 71
     1
 72
    41
 73
    46
  0
VERTEX
  5
184
  8
0
 62
     9
 10
0.0
 20
0.0
 30
0.0
 70
   128
 71
    50
 72
    49
 73
     1
  0
VERTEX
  5
185
  8
0
 62
     9
 10
0.0
 20
0.0
 30
0.0
 70
   128
 71
     1
 72
    51
 73
    50
  0
VERTEX
  5
186
  8
0
 62
     9
 10
0.0
 20
0.0
 30
0.0
 70
   128
 71
    49
 72
    52
 73
     1
  0
VERTEX
  5
187
  8
0
 62
     9
 10
0.0
 20
0.0
 30
0.0
 70
   128
 71
     1
 72
    47
 73
    51
  0
VERTEX
  5
188
  8
0
 62
     9
 10
0.0
 20
0.0
 30
0.0
 70
   128
 71
    54
 72
    53
 73
     1
  0
VERTEX
  5
189
  8
0
 62
     9
 10
0.0
 20
0.0
 30
0.0
 70
   128
 71
     1
 72
    55
 73
    54
  0
VERTEX
  5
18A
  8
0
 62
     9
 10
0.0
 20
0.0
 30
0.0
 70
   128
 71
     1
 72
    56
 73
    55
  0
VERTEX
  5
18B
  8
0
 62
     9
 10
0.0
 20
0.0
 30
0.0
 70
   128
 71
    58
 72
    57
 73
     1
  0
VERTEX
  5
18C
  8
0
 62
     9
 10
0.0
 20
0.0
 30
0.0
 70
   128
 71
    57
 72
    59
 73
     1
  0
VERTEX
  5
18D
  8
0
 62
     9
 10
0.0
 20
0.0
 30
0.0
 70
   128
 71
    59
 72
    60
 73
     1
  0
VERTEX
  5
18E
  8
0
 62
     9
 10
0.0
 20
0.0
 30
0.0
 70
   128
 71
     1
 72
    53
 73
    58
  0
VERTEX
  5
18F
  8
0
 62
     9
 10
0.0
 20
0.0
 30
0.0
 70
   128
 71
    62
 72
    61
 73
     1
  0
VERTEX
  5
190
  8
0
 62
     9
 10
0.0
 20
0.0
 30
0.0
 70
   128
 71
     1
 72
    63
 73
    62
  0
VERTEX
  5
191
  8
0
 62
     9
 10
0.0
 20
0.0
 30
0.0
 70
   128
 71
    65
 72
    64
 73
     1
  0
VERTEX
  5
192
  8
0
 62
     9
 10
0.0
 20
0.0
 30
0.0
 70
   128
 71
    34
 72
    35
 73
     1
  0
VERTEX
  5
193
  8
0
 62
     9
 10
0.0
 20
0.0
 30
0.0
 70
   128
 71
     1
 72
    64
 73
    34
  0
VERTEX
  5
194
  8
0
 62
     9
 10
0.0
 20
0.0
 30
0.0
 70
   128
 71
     1
 72
    61
 73
    65
  0
VERTEX
  5
195
  8
0
 62
     9
 10
0.0
 20
0.0
 30
0.0
 70
   128
 71
     1
 72
    60
 73
    63
  0
VERTEX
  5
196
  8
0
 62
     9
 10
0.0
 20
0.0
 30
0.0
 70
   128
 71
     1
 72
    52
 73
    56
  0
VERTEX
  5
197
  8
0
 62
     9
 10
0.0
 20
0.0
 30
0.0
 70
   128
 71
     1
 72
    35
 73
    66
  0
VERTEX
  5
198
  8
0
 62
     9
 10
0.0
 20
0.0
 30
0.0
 70
   128
 71
     1
 72
    67
 73
    40
  0
VERTEX
  5
199
  8
0
 62
     9
 10
0.0
 20
0.0
 30
0.0
 70
   128
 71
    33
 72
    66
 73
    35
  0
VERTEX
  5
19A
  8
0
 62
     9
 10
0.0
 20
0.0
 30
0.0
 70
   128
 71
    68
 72
    67
 73
     1
  0
VERTEX
  5
19B
  8
0
 62
     9
 10
0.0
 20
0.0
 30
0.0
 70
   128
 71
     1
 72
    69
 73
    68
  0
VERTEX
  5
19C
  8
0
 62
     9
 10
0.0
 20
0.0
 30
0.0
 70
   128
 71
    72
 72
    71
 73
    70
  0
VERTEX
  5
19D
  8
0
 62
     9
 10
0.0
 20
0.0
 30
0.0
 70
   128
 71
    70
 72
    69
 73
     1
  0
VERTEX
  5
19E
  8
0
 62
     9
 10
0.0
 20
0.0
 30
0.0
 70
   128
 71
    70
 72
     1
 73
    72
  0
VERTEX
  5
19F
  8
0
 62
     9
 10
0.0
 20
0.0
 30
0.0
 70
   128
 71
     1
 72
    32
 73
    72
  0
VERTEX
  5
1A0
  8
0
 62
     9
 10
0.0
 20
0.0
 30
0.0
 70
   128
 71
    69
 72
    73
 73
    68
  0
VERTEX
  5
1A1
  8
0
 62
     9
 10
0.0
 20
0.0
 30
0.0
 70
   128
 71
     1
 72
    66
 73
     4
  0
SEQEND
  5
1A2
  8
0
 62
     9
  0
ENDBLK
  5
1A5
  8
0
  0
BLOCK
  8
0
  2
E3_NODE_4_
 70
     0
 10
0.0
 20
0.0
 30
0.0
  3
E3_NODE_4_
  1

  0
POLYLINE
  5
1A7
  8
0
 62
     9
 66
     1
 10
0.0
 20
0.0
 30
0.0
 70
    64
 71
     6
 72
     4
  0
VERTEX
  5
1A8
  8
0
 10
4.820000171661377
 20
-34.09999847412109
 30
27.29999923706055
 70
   192
  0
VERTEX
  5
1A9
  8
0
 10
4.820000171661377
 20
-79.5
 30
27.29999923706055
 70
   192
  0
VERTEX
  5
1AA
  8
0
 10
11.60799980163574
 20
-62.15299987792969
 30
27.29999923706055
 70
   192
  0
VERTEX
  5
1AB
  8
0
 10
11.58100032806396
 20
-70.53900146484375
 30
27.29999923706055
 70
   192
  0
VERTEX
  5
1AC
  8
0
 10
11.55200004577637
 20
-79.5
 30
27.29999923706055
 70
   192
  0
VERTEX
  5
1AD
  8
0
 10
11.57699966430664
 20
-34.09999847412109
 30
27.29999923706055
 70
   192
  0
VERTEX
  5
1AE
  8
0
 62
     9
 10
0.0
 20
0.0
 30
0.0
 70
   128
 71
     3
 72
     2
 73
     1
  0
VERTEX
  5
1AF
  8
0
 62
     9
 10
0.0
 20
0.0
 30
0.0
 70
   128
 71
     3
 72
     4
 73
     2
  0
VERTEX
  5
1B0
  8
0
 62
     9
 10
0.0
 20
0.0
 30
0.0
 70
   128
 71
     4
 72
     5
 73
     2
  0
VERTEX
  5
1B1
  8
0
 62
     9
 10
0.0
 20
0.0
 30
0.0
 70
   128
 71
     1
 72
     6
 73
     3
  0
SEQEND
  5
1B2
  8
0
 62
     9
  0
ENDBLK
  5
1B5
  8
0
  0
BLOCK
  8
0
  2
E3_NODE_5_
 70
     0
 10
0.0
 20
0.0
 30
0.0
  3
E3_NODE_5_
  1

  0
POLYLINE
  5
1B7
  8
0
 62
     9
 66
     1
 10
0.0
 20
0.0
 30
0.0
 70
    64
 71
     6
 72
     4
  0
VERTEX
  5
1B8
  8
0
 10
4.820000171661377
 20
-34.09999847412109
 30
-27.29999923706055
 70
   192
  0
VERTEX
  5
1B9
  8
0
 10
4.820000171661377
 20
-34.09999847412109
 30
27.29999923706055
 70
   192
  0
VERTEX
  5
1BA
  8
0
 10
11.64599990844727
 20
-34.09999847412109
 30
0.0
 70
   192
  0
VERTEX
  5
1BB
  8
0
 10
11.57699966430664
 20
-34.09999847412109
 30
27.29999923706055
 70
   192
  0
VERTEX
  5
1BC
  8
0
 10
11.64799976348877
 20
-34.09999847412109
 30
0.7509999871253967
 70
   192
  0
VERTEX
  5
1BD
  8
0
 10
11.57699966430664
 20
-34.09999847412109
 30
-27.29999923706055
 70
   192
  0
VERTEX
  5
1BE
  8
0
 62
     9
 10
0.0
 20
0.0
 30
0.0
 70
   128
 71
     3
 72
     2
 73
     1
  0
VERTEX
  5
1BF
  8
0
 62
     9
 10
0.0
 20
0.0
 30
0.0
 70
   128
 71
     5
 72
     4
 73
     2
  0
VERTEX
  5
1C0
  8
0
 62
     9
 10
0.0
 20
0.0
 30
0.0
 70
   128
 71
     2
 72
     3
 73
     5
  0
VERTEX
  5
1C1
  8
0
 62
     9
 10
0.0
 20
0.0
 30
0.0
 70
   128
 71
     1
 72
     6
 73
     3
  0
SEQEND
  5
1C2
  8
0
 62
     9
  0
ENDBLK
  5
1C5
  8
0
  0
BLOCK
  8
0
  2
E3_NODE_6_
 70
     0
 10
0.0
 20
0.0
 30
0.0
  3
E3_NODE_6_
  1

  0
POLYLINE
  5
1C7
  8
0
 62
     9
 66
     1
 10
0.0
 20
0.0
 30
0.0
 70
    64
 71
     6
 72
     4
  0
VERTEX
  5
1C8
  8
0
 10
4.820000171661377
 20
-79.5
 30
-27.29999923706055
 70
   192
  0
VERTEX
  5
1C9
  8
0
 10
4.820000171661377
 20
-34.09999847412109
 30
-27.29999923706055
 70
   192
  0
VERTEX
  5
1CA
  8
0
 10
11.61400032043457
 20
-51.44699859619141
 30
-27.29999923706055
 70
   192
  0
VERTEX
  5
1CB
  8
0
 10
11.57699966430664
 20
-34.09999847412109
 30
-27.29999923706055
 70
   192
  0
VERTEX
  5
1CC
  8
0
 10
11.57199954986572
 20
-70.53900146484375
 30
-27.29999923706055
 70
   192
  0
VERTEX
  5
1CD
  8
0
 10
11.55200004577637
 20
-79.5
 30
-27.29999923706055
 70
   192
  0
VERTEX
  5
1CE
  8
0
 62
     9
 10
0.0
 20
0.0
 30
0.0
 70
   128
 71
     3
 72
     2
 73
     1
  0
VERTEX
  5
1CF
  8
0
 62
     9
 10
0.0
 20
0.0
 30
0.0
 70
   128
 71
     3
 72
     4
 73
     2
  0
VERTEX
  5
1D0
  8
0
 62
     9
 10
0.0
 20
0.0
 30
0.0
 70
   128
 71
     1
 72
     5
 73
     3
  0
VERTEX
  5
1D1
  8
0
 62
     9
 10
0.0
 20
0.0
 30
0.0
 70
   128
 71
     1
 72
     6
 73
     5
  0
SEQEND
  5
1D2
  8
0
 62
     9
  0
ENDBLK
  5
1D5
  8
0
  0
BLOCK
  8
0
  2
E3_NODE_7_
 70
     0
 10
0.0
 20
0.0
 30
0.0
  3
E3_NODE_7_
  1

  0
POLYLINE
  5
1D7
  8
0
 62
     9
 66
     1
 10
0.0
 20
0.0
 30
0.0
 70
    64
 71
     5
 72
     3
  0
VERTEX
  5
1D8
  8
0
 10
1.776000022888184
 20
-2.746000051498413
 30
1.539999961853027
 70
   192
  0
VERTEX
  5
1D9
  8
0
 10
4.820000171661377
 20
-2.763000011444092
 30
1.805999994277954
 70
   192
  0
VERTEX
  5
1DA
  8
0
 10
4.820000171661377
 20
-2.749000072479248
 30
1.805999994277954
 70
   192
  0
VERTEX
  5
1DB
  8
0
 10
1.776000022888184
 20
-1.243000030517578
 30
1.539999961853027
 70
   192
  0
VERTEX
  5
1DC
  8
0
 10
4.820000171661377
 20
-1.259999990463257
 30
1.805999994277954
 70
   192
  0
VERTEX
  5
1DD
  8
0
 62
     9
 10
0.0
 20
0.0
 30
0.0
 70
   128
 71
     3
 72
     2
 73
     1
  0
VERTEX
  5
1DE
  8
0
 62
     9
 10
0.0
 20
0.0
 30
0.0
 70
   128
 71
     1
 72
     4
 73
     3
  0
VERTEX
  5
1DF
  8
0
 62
     9
 10
0.0
 20
0.0
 30
0.0
 70
   128
 71
     4
 72
     5
 73
     3
  0
SEQEND
  5
1E0
  8
0
 62
     9
  0
ENDBLK
  5
1E3
  8
0
  0
BLOCK
  8
0
  2
E3_NODE_8_
 70
     0
 10
0.0
 20
0.0
 30
0.0
  3
E3_NODE_8_
  1

  0
POLYLINE
  5
1E5
  8
0
 62
     9
 66
     1
 10
0.0
 20
0.0
 30
0.0
 70
    64
 71
    92
 72
    90
  0
VERTEX
  5
1E6
  8
0
 10
4.820000171661377
 20
-28.5
 30
27.29999923706055
 70
   192
  0
VERTEX
  5
1E7
  8
0
 10
11.54699993133545
 20
-27.48699951171875
 30
27.2810001373291
 70
   192
  0
VERTEX
  5
1E8
  8
0
 10
11.53800010681152
 20
-25.63100051879883
 30
27.14900016784668
 70
   192
  0
VERTEX
  5
1E9
  8
0
 10
11.55200004577637
 20
-28.5
 30
27.29999923706055
 70
   192
  0
VERTEX
  5
1EA
  8
0
 10
4.820000171661377
 20
-23.48399925231934
 30
26.83499908447266
 70
   192
  0
VERTEX
  5
1EB
  8
0
 10
11.52999973297119
 20
-23.88899993896484
 30
26.90800094604492
 70
   192
  0
VERTEX
  5
1EC
  8
0
 10
11.52099990844727
 20
-22.07200050354004
 30
26.53300094604492
 70
   192
  0
VERTEX
  5
1ED
  8
0
 10
11.51200008392334
 20
-20.28499984741211
 30
26.03499984741211
 70
   192
  0
VERTEX
  5
1EE
  8
0
 10
11.52799987792969
 20
-23.48600006103516
 30
26.82500076293945
 70
   192
  0
VERTEX
  5
1EF
  8
0
 10
4.820000171661377
 20
-18.63800048828125
 30
25.45599937438965
 70
   192
  0
VERTEX
  5
1F0
  8
0
 10
4.820000171661377
 20
-14.12800025939941
 30
23.21100044250488
 70
   192
  0
VERTEX
  5
1F1
  8
0
 10
11.49499988555908
 20
-16.80699920654297
 30
24.66900062561035
 70
   192
  0
VERTEX
  5
1F2
  8
0
 10
11.48799991607666
 20
-15.24199962615967
 30
23.86400032043457
 70
   192
  0
VERTEX
  5
1F3
  8
0
 10
11.50399971008301
 20
-18.52899932861328
 30
25.41399955749512
 70
   192
  0
VERTEX
  5
1F4
  8
0
 10
11.50399971008301
 20
-18.63899993896484
 30
25.45299911499023
 70
   192
  0
VERTEX
  5
1F5
  8
0
 10
4.820000171661377
 20
-10.10799980163574
 30
20.17499923706055
 70
   192
  0
VERTEX
  5
1F6
  8
0
 10
11.47200012207031
 20
-12.13099956512451
 30
21.84799957275391
 70
   192
  0
VERTEX
  5
1F7
  8
0
 10
11.47999954223633
 20
-13.65200042724609
 30
22.90900039672852
 70
   192
  0
VERTEX
  5
1F8
  8
0
 10
11.48200035095215
 20
-14.13500022888184
 30
23.20000076293945
 70
   192
  0
VERTEX
  5
1F9
  8
0
 10
11.46500015258789
 20
-10.67899990081787
 30
20.68099975585938
 70
   192
  0
VERTEX
  5
1FA
  8
0
 10
11.45899963378906
 20
-9.300000190734863
 30
19.40800094604492
 70
   192
  0
VERTEX
  5
1FB
  8
0
 10
11.45300006866455
 20
-8.09000015258789
 30
18.13100051879883
 70
   192
  0
VERTEX
  5
1FC
  8
0
 10
4.820000171661377
 20
-6.714000225067139
 30
16.45199966430664
 70
   192
  0
VERTEX
  5
1FD
  8
0
 10
11.46300029754639
 20
-10.11900043487549
 30
20.16399955749512
 70
   192
  0
VERTEX
  5
1FE
  8
0
 10
11.44699954986572
 20
-6.906000137329102
 30
16.70299911499023
 70
   192
  0
VERTEX
  5
1FF
  8
0
 10
11.44200038909912
 20
-5.822000026702881
 30
15.19799995422363
 70
   192
  0
VERTEX
  5
200
  8
0
 10
11.4370002746582
 20
-4.837999820709229
 30
13.61600017547607
 70
   192
  0
VERTEX
  5
201
  8
0
 10
11.44600009918213
 20
-6.721000194549561
 30
16.44700050354004
 70
   192
  0
VERTEX
  5
202
  8
0
 10
4.820000171661377
 20
-4.061999797821045
 30
12.16899967193604
 70
   192
  0
VERTEX
  5
203
  8
0
 10
4.820000171661377
 20
-2.242000102996826
 30
7.471000194549561
 70
   192
  0
VERTEX
  5
204
  8
0
 10
11.42899990081787
 20
-3.239000082015991
 30
10.35299968719482
 70
   192
  0
VERTEX
  5
205
  8
0
 10
11.43299961090088
 20
-3.959000110626221
 30
11.95899963378906
 70
   192
  0
VERTEX
  5
206
  8
0
 10
11.43299961090088
 20
-4.067999839782715
 30
12.16499996185303
 70
   192
  0
VERTEX
  5
207
  8
0
 10
11.42599964141846
 20
-2.595000028610229
 30
8.61400032043457
 70
   192
  0
VERTEX
  5
208
  8
0
 10
4.820000171661377
 20
-1.315999984741211
 30
2.519000053405762
 70
   192
  0
VERTEX
  5
209
  8
0
 10
11.42099952697754
 20
-1.664999961853027
 30
5.017000198364258
 70
   192
  0
VERTEX
  5
20A
  8
0
 10
11.42000007629395
 20
-1.383999943733215
 30
3.16100001335144
 70
   192
  0
VERTEX
  5
20B
  8
0
 10
11.42399978637695
 20
-2.25600004196167
 30
7.467000007629395
 70
   192
  0
VERTEX
  5
20C
  8
0
 10
11.42300033569336
 20
-2.069000005722046
 30
6.835000038146973
 70
   192
  0
VERTEX
  5
20D
  8
0
 10
4.820000171661377
 20
-23.48399925231934
 30
-26.83499908447266
 70
   192
  0
VERTEX
  5
20E
  8
0
 10
11.53400039672852
 20
-24.77199935913086
 30
-27.04400062561035
 70
   192
  0
VERTEX
  5
20F
  8
0
 10
11.54300022125244
 20
-26.625
 30
-27.23600006103516
 70
   192
  0
VERTEX
  5
210
  8
0
 10
11.52799987792969
 20
-23.48600006103516
 30
-26.82200050354004
 70
   192
  0
VERTEX
  5
211
  8
0
 10
4.820000171661377
 20
-28.5
 30
-27.29999923706055
 70
   192
  0
VERTEX
  5
212
  8
0
 10
4.820000171661377
 20
-18.63800048828125
 30
-25.45599937438965
 70
   192
  0
VERTEX
  5
213
  8
0
 10
11.50800037384033
 20
-19.46299934387207
 30
-25.76099967956543
 70
   192
  0
VERTEX
  5
214
  8
0
 10
11.51599979400635
 20
-21.14200019836426
 30
-26.29000091552734
 70
   192
  0
VERTEX
  5
215
  8
0
 10
11.50399971008301
 20
-18.64399909973145
 30
-25.4419994354248
 70
   192
  0
VERTEX
  5
216
  8
0
 10
11.52499961853027
 20
-22.94400024414062
 30
-26.72900009155273
 70
   192
  0
VERTEX
  5
217
  8
0
 10
4.820000171661377
 20
-14.12800025939941
 30
-23.21100044250488
 70
   192
  0
VERTEX
  5
218
  8
0
 10
11.49100017547607
 20
-16.03000068664551
 30
-24.2859992980957
 70
   192
  0
VERTEX
  5
219
  8
0
 10
11.48400020599365
 20
-14.40900039672852
 30
-23.38299942016602
 70
   192
  0
VERTEX
  5
21A
  8
0
 10
11.48200035095215
 20
-14.13300037384033
 30
-23.20299911499023
 70
   192
  0
VERTEX
  5
21B
  8
0
 10
11.5
 20
-17.71500015258789
 30
-25.07900047302246
 70
   192
  0
VERTEX
  5
21C
  8
0
 10
4.820000171661377
 20
-10.10799980163574
 30
-20.17499923706055
 70
   192
  0
VERTEX
  5
21D
  8
0
 10
11.4689998626709
 20
-11.44600009918213
 30
-21.31800079345703
 70
   192
  0
VERTEX
  5
21E
  8
0
 10
11.47599983215332
 20
-12.85400009155273
 30
-22.37199974060059
 70
   192
  0
VERTEX
  5
21F
  8
0
 10
11.46300029754639
 20
-10.11100006103516
 30
-20.17200088500977
 70
   192
  0
VERTEX
  5
220
  8
0
 10
4.820000171661377
 20
-6.714000225067139
 30
-16.45199966430664
 70
   192
  0
VERTEX
  5
221
  8
0
 10
11.44999980926514
 20
-7.464000225067139
 30
-17.39999961853027
 70
   192
  0
VERTEX
  5
222
  8
0
 10
11.45600032806396
 20
-8.694000244140625
 30
-18.78899955749512
 70
   192
  0
VERTEX
  5
223
  8
0
 10
11.44600009918213
 20
-6.724999904632568
 30
-16.44300079345703
 70
   192
  0
VERTEX
  5
224
  8
0
 10
11.46199989318848
 20
-10.02200031280518
 30
-20.09600067138672
 70
   192
  0
VERTEX
  5
225
  8
0
 10
11.43900012969971
 20
-5.35099983215332
 30
-14.4709997177124
 70
   192
  0
VERTEX
  5
226
  8
0
 10
11.44400024414062
 20
-6.330999851226807
 30
-15.93200016021729
 70
   192
  0
VERTEX
  5
227
  8
0
 10
4.820000171661377
 20
-4.061999797821045
 30
-12.16899967193604
 70
   192
  0
VERTEX
  5
228
  8
0
 10
11.4350004196167
 20
-4.410999774932861
 30
-12.8459997177124
 70
   192
  0
VERTEX
  5
229
  8
0
 10
11.43299961090088
 20
-4.076000213623047
 30
-12.16199970245361
 70
   192
  0
VERTEX
  5
22A
  8
0
 10
4.820000171661377
 20
-2.242000102996826
 30
-7.471000194549561
 70
   192
  0
VERTEX
  5
22B
  8
0
 10
11.42700004577637
 20
-2.890000104904175
 30
-9.456000328063965
 70
   192
  0
VERTEX
  5
22C
  8
0
 10
11.42399978637695
 20
-2.247999906539917
 30
-7.468999862670898
 70
   192
  0
VERTEX
  5
22D
  8
0
 10
11.42500019073486
 20
-2.306999921798706
 30
-7.696000099182129
 70
   192
  0
VERTEX
  5
22E
  8
0
 10
11.43099975585938
 20
-3.591000080108643
 30
-11.17399978637695
 70
   192
  0
VERTEX
  5
22F
  8
0
 10
4.820000171661377
 20
-1.315999984741211
 30
-2.519000053405762
 70
   192
  0
VERTEX
  5
230
  8
0
 10
11.42099952697754
 20
-1.516999959945679
 30
-4.14900016784668
 70
   192
  0
VERTEX
  5
231
  8
0
 10
11.42199993133545
 20
-1.866000056266785
 30
-5.993000030517578
 70
   192
  0
VERTEX
  5
232
  8
0
 10
11.42000007629395
 20
-1.322999954223633
 30
-2.517999887466431
 70
   192
  0
VERTEX
  5
233
  8
0
 10
4.820000171661377
 20
-1.259999990463257
 30
1.805999994277954
 70
   192
  0
VERTEX
  5
234
  8
0
 10
11.41899967193604
 20
-1.235999941825867
 30
1.407999992370605
 70
   192
  0
VERTEX
  5
235
  8
0
 10
11.41899967193604
 20
-1.212000012397766
 30
0.0
 70
   192
  0
VERTEX
  5
236
  8
0
 10
11.42000007629395
 20
-1.330000042915344
 30
2.517999887466431
 70
   192
  0
VERTEX
  5
237
  8
0
 10
11.41899967193604
 20
-1.203999996185303
 30
-0.4460000097751617
 70
   192
  0
VERTEX
  5
238
  8
0
 10
11.42000007629395
 20
-1.297000050544739
 30
-2.299000024795532
 70
   192
  0
VERTEX
  5
239
  8
0
 10
1.320000052452087
 20
-1.220000028610229
 30
1.04200005531311
 70
   192
  0
VERTEX
  5
23A
  8
0
 10
1.429999947547913
 20
-1.233999967575073
 30
1.353999972343445
 70
   192
  0
VERTEX
  5
23B
  8
0
 10
1.776000022888184
 20
-1.243000030517578
 30
1.539999961853027
 70
   192
  0
VERTEX
  5
23C
  8
0
 10
4.820000171661377
 20
-1.259999990463257
 30
-1.805999994277954
 70
   192
  0
VERTEX
  5
23D
  8
0
 10
1.320000052452087
 20
-1.220000028610229
 30
-1.04200005531311
 70
   192
  0
VERTEX
  5
23E
  8
0
 10
1.776000022888184
 20
-1.243000030517578
 30
-1.539999961853027
 70
   192
  0
VERTEX
  5
23F
  8
0
 10
1.475000023841858
 20
-1.235999941825867
 30
-1.404000043869019
 70
   192
  0
VERTEX
  5
240
  8
0
 10
1.325000047683716
 20
-1.223000049591064
 30
-1.108999967575073
 70
   192
  0
VERTEX
  5
241
  8
0
 10
11.55200004577637
 20
-28.5
 30
-27.29999923706055
 70
   192
  0
VERTEX
  5
242
  8
0
 62
     9
 10
0.0
 20
0.0
 30
0.0
 70
   128
 71
     3
 72
     2
 73
     1
  0
VERTEX
  5
243
  8
0
 62
     9
 10
0.0
 20
0.0
 30
0.0
 70
   128
 71
     2
 72
     4
 73
     1
  0
VERTEX
  5
244
  8
0
 62
     9
 10
0.0
 20
0.0
 30
0.0
 70
   128
 71
     1
 72
     5
 73
     3
  0
VERTEX
  5
245
  8
0
 62
     9
 10
0.0
 20
0.0
 30
0.0
 70
   128
 71
     5
 72
     6
 73
     3
  0
VERTEX
  5
246
  8
0
 62
     9
 10
0.0
 20
0.0
 30
0.0
 70
   128
 71
     8
 72
     7
 73
     5
  0
VERTEX
  5
247
  8
0
 62
     9
 10
0.0
 20
0.0
 30
0.0
 70
   128
 71
     7
 72
     9
 73
     5
  0
VERTEX
  5
248
  8
0
 62
     9
 10
0.0
 20
0.0
 30
0.0
 70
   128
 71
     5
 72
    10
 73
     8
  0
VERTEX
  5
249
  8
0
 62
     9
 10
0.0
 20
0.0
 30
0.0
 70
   128
 71
    12
 72
    10
 73
    11
  0
VERTEX
  5
24A
  8
0
 62
     9
 10
0.0
 20
0.0
 30
0.0
 70
   128
 71
    11
 72
    13
 73
    12
  0
VERTEX
  5
24B
  8
0
 62
     9
 10
0.0
 20
0.0
 30
0.0
 70
   128
 71
    12
 72
    14
 73
    10
  0
VERTEX
  5
24C
  8
0
 62
     9
 10
0.0
 20
0.0
 30
0.0
 70
   128
 71
    14
 72
    15
 73
    10
  0
VERTEX
  5
24D
  8
0
 62
     9
 10
0.0
 20
0.0
 30
0.0
 70
   128
 71
    17
 72
    11
 73
    16
  0
VERTEX
  5
24E
  8
0
 62
     9
 10
0.0
 20
0.0
 30
0.0
 70
   128
 71
    17
 72
    18
 73
    11
  0
VERTEX
  5
24F
  8
0
 62
     9
 10
0.0
 20
0.0
 30
0.0
 70
   128
 71
    18
 72
    19
 73
    11
  0
VERTEX
  5
250
  8
0
 62
     9
 10
0.0
 20
0.0
 30
0.0
 70
   128
 71
    16
 72
    20
 73
    17
  0
VERTEX
  5
251
  8
0
 62
     9
 10
0.0
 20
0.0
 30
0.0
 70
   128
 71
    22
 72
    21
 73
    16
  0
VERTEX
  5
252
  8
0
 62
     9
 10
0.0
 20
0.0
 30
0.0
 70
   128
 71
    16
 72
    23
 73
    22
  0
VERTEX
  5
253
  8
0
 62
     9
 10
0.0
 20
0.0
 30
0.0
 70
   128
 71
    21
 72
    24
 73
    16
  0
VERTEX
  5
254
  8
0
 62
     9
 10
0.0
 20
0.0
 30
0.0
 70
   128
 71
    23
 72
    25
 73
    22
  0
VERTEX
  5
255
  8
0
 62
     9
 10
0.0
 20
0.0
 30
0.0
 70
   128
 71
    27
 72
    26
 73
    23
  0
VERTEX
  5
256
  8
0
 62
     9
 10
0.0
 20
0.0
 30
0.0
 70
   128
 71
    26
 72
    28
 73
    23
  0
VERTEX
  5
257
  8
0
 62
     9
 10
0.0
 20
0.0
 30
0.0
 70
   128
 71
    23
 72
    29
 73
    27
  0
VERTEX
  5
258
  8
0
 62
     9
 10
0.0
 20
0.0
 30
0.0
 70
   128
 71
    31
 72
    29
 73
    30
  0
VERTEX
  5
259
  8
0
 62
     9
 10
0.0
 20
0.0
 30
0.0
 70
   128
 71
    31
 72
    32
 73
    29
  0
VERTEX
  5
25A
  8
0
 62
     9
 10
0.0
 20
0.0
 30
0.0
 70
   128
 71
    32
 72
    33
 73
    29
  0
VERTEX
  5
25B
  8
0
 62
     9
 10
0.0
 20
0.0
 30
0.0
 70
   128
 71
    30
 72
    34
 73
    31
  0
VERTEX
  5
25C
  8
0
 62
     9
 10
0.0
 20
0.0
 30
0.0
 70
   128
 71
    36
 72
    30
 73
    35
  0
VERTEX
  5
25D
  8
0
 62
     9
 10
0.0
 20
0.0
 30
0.0
 70
   128
 71
    35
 72
    37
 73
    36
  0
VERTEX
  5
25E
  8
0
 62
     9
 10
0.0
 20
0.0
 30
0.0
 70
   128
 71
    39
 72
    38
 73
    30
  0
VERTEX
  5
25F
  8
0
 62
     9
 10
0.0
 20
0.0
 30
0.0
 70
   128
 71
    30
 72
    36
 73
    39
  0
VERTEX
  5
260
  8
0
 62
     9
 10
0.0
 20
0.0
 30
0.0
 70
   128
 71
    42
 72
    41
 73
    40
  0
VERTEX
  5
261
  8
0
 62
     9
 10
0.0
 20
0.0
 30
0.0
 70
   128
 71
    41
 72
    43
 73
    40
  0
VERTEX
  5
262
  8
0
 62
     9
 10
0.0
 20
0.0
 30
0.0
 70
   128
 71
    40
 72
    44
 73
    42
  0
VERTEX
  5
263
  8
0
 62
     9
 10
0.0
 20
0.0
 30
0.0
 70
   128
 71
    47
 72
    46
 73
    45
  0
VERTEX
  5
264
  8
0
 62
     9
 10
0.0
 20
0.0
 30
0.0
 70
   128
 71
    45
 72
    40
 73
    47
  0
VERTEX
  5
265
  8
0
 62
     9
 10
0.0
 20
0.0
 30
0.0
 70
   128
 71
    46
 72
    48
 73
    45
  0
VERTEX
  5
266
  8
0
 62
     9
 10
0.0
 20
0.0
 30
0.0
 70
   128
 71
    40
 72
    49
 73
    47
  0
VERTEX
  5
267
  8
0
 62
     9
 10
0.0
 20
0.0
 30
0.0
 70
   128
 71
    51
 72
    50
 73
    45
  0
VERTEX
  5
268
  8
0
 62
     9
 10
0.0
 20
0.0
 30
0.0
 70
   128
 71
    51
 72
    52
 73
    50
  0
VERTEX
  5
269
  8
0
 62
     9
 10
0.0
 20
0.0
 30
0.0
 70
   128
 71
    52
 72
    53
 73
    50
  0
VERTEX
  5
26A
  8
0
 62
     9
 10
0.0
 20
0.0
 30
0.0
 70
   128
 71
    45
 72
    54
 73
    51
  0
VERTEX
  5
26B
  8
0
 62
     9
 10
0.0
 20
0.0
 30
0.0
 70
   128
 71
    56
 72
    55
 73
    50
  0
VERTEX
  5
26C
  8
0
 62
     9
 10
0.0
 20
0.0
 30
0.0
 70
   128
 71
    50
 72
    57
 73
    56
  0
VERTEX
  5
26D
  8
0
 62
     9
 10
0.0
 20
0.0
 30
0.0
 70
   128
 71
    56
 72
    58
 73
    55
  0
VERTEX
  5
26E
  8
0
 62
     9
 10
0.0
 20
0.0
 30
0.0
 70
   128
 71
    61
 72
    60
 73
    59
  0
VERTEX
  5
26F
  8
0
 62
     9
 10
0.0
 20
0.0
 30
0.0
 70
   128
 71
    60
 72
    62
 73
    59
  0
VERTEX
  5
270
  8
0
 62
     9
 10
0.0
 20
0.0
 30
0.0
 70
   128
 71
    59
 72
    55
 73
    61
  0
VERTEX
  5
271
  8
0
 62
     9
 10
0.0
 20
0.0
 30
0.0
 70
   128
 71
    55
 72
    63
 73
    61
  0
VERTEX
  5
272
  8
0
 62
     9
 10
0.0
 20
0.0
 30
0.0
 70
   128
 71
    65
 72
    64
 73
    59
  0
VERTEX
  5
273
  8
0
 62
     9
 10
0.0
 20
0.0
 30
0.0
 70
   128
 71
    64
 72
    67
 73
    66
  0
VERTEX
  5
274
  8
0
 62
     9
 10
0.0
 20
0.0
 30
0.0
 70
   128
 71
    66
 72
    59
 73
    64
  0
VERTEX
  5
275
  8
0
 62
     9
 10
0.0
 20
0.0
 30
0.0
 70
   128
 71
    67
 72
    68
 73
    66
  0
VERTEX
  5
276
  8
0
 62
     9
 10
0.0
 20
0.0
 30
0.0
 70
   128
 71
    70
 72
    69
 73
    66
  0
VERTEX
  5
277
  8
0
 62
     9
 10
0.0
 20
0.0
 30
0.0
 70
   128
 71
    72
 72
    71
 73
    69
  0
VERTEX
  5
278
  8
0
 62
     9
 10
0.0
 20
0.0
 30
0.0
 70
   128
 71
    69
 72
    70
 73
    72
  0
VERTEX
  5
279
  8
0
 62
     9
 10
0.0
 20
0.0
 30
0.0
 70
   128
 71
    66
 72
    73
 73
    70
  0
VERTEX
  5
27A
  8
0
 62
     9
 10
0.0
 20
0.0
 30
0.0
 70
   128
 71
    75
 72
    74
 73
    69
  0
VERTEX
  5
27B
  8
0
 62
     9
 10
0.0
 20
0.0
 30
0.0
 70
   128
 71
    69
 72
    76
 73
    75
  0
VERTEX
  5
27C
  8
0
 62
     9
 10
0.0
 20
0.0
 30
0.0
 70
   128
 71
    75
 72
    77
 73
    74
  0
VERTEX
  5
27D
  8
0
 62
     9
 10
0.0
 20
0.0
 30
0.0
 70
   128
 71
    80
 72
    79
 73
    78
  0
VERTEX
  5
27E
  8
0
 62
     9
 10
0.0
 20
0.0
 30
0.0
 70
   128
 71
    78
 72
    79
 73
    81
  0
VERTEX
  5
27F
  8
0
 62
     9
 10
0.0
 20
0.0
 30
0.0
 70
   128
 71
    81
 72
    35
 73
    78
  0
VERTEX
  5
280
  8
0
 62
     9
 10
0.0
 20
0.0
 30
0.0
 70
   128
 71
    78
 72
    82
 73
    80
  0
VERTEX
  5
281
  8
0
 62
     9
 10
0.0
 20
0.0
 30
0.0
 70
   128
 71
    78
 72
    83
 73
    82
  0
VERTEX
  5
282
  8
0
 62
     9
 10
0.0
 20
0.0
 30
0.0
 70
   128
 71
    86
 72
    85
 73
    84
  0
VERTEX
  5
283
  8
0
 62
     9
 10
0.0
 20
0.0
 30
0.0
 70
   128
 71
    88
 72
    87
 73
    78
  0
VERTEX
  5
284
  8
0
 62
     9
 10
0.0
 20
0.0
 30
0.0
 70
   128
 71
    78
 72
    84
 73
    88
  0
VERTEX
  5
285
  8
0
 62
     9
 10
0.0
 20
0.0
 30
0.0
 70
   128
 71
    91
 72
    90
 73
    89
  0
VERTEX
  5
286
  8
0
 62
     9
 10
0.0
 20
0.0
 30
0.0
 70
   128
 71
    89
 72
    87
 73
    88
  0
VERTEX
  5
287
  8
0
 62
     9
 10
0.0
 20
0.0
 30
0.0
 70
   128
 71
    89
 72
    88
 73
    91
  0
VERTEX
  5
288
  8
0
 62
     9
 10
0.0
 20
0.0
 30
0.0
 70
   128
 71
    87
 72
    74
 73
    77
  0
VERTEX
  5
289
  8
0
 62
     9
 10
0.0
 20
0.0
 30
0.0
 70
   128
 71
    77
 72
    78
 73
    87
  0
VERTEX
  5
28A
  8
0
 62
     9
 10
0.0
 20
0.0
 30
0.0
 70
   128
 71
    84
 72
    78
 73
    86
  0
VERTEX
  5
28B
  8
0
 62
     9
 10
0.0
 20
0.0
 30
0.0
 70
   128
 71
    78
 72
    77
 73
    83
  0
VERTEX
  5
28C
  8
0
 62
     9
 10
0.0
 20
0.0
 30
0.0
 70
   128
 71
    69
 72
    71
 73
    76
  0
VERTEX
  5
28D
  8
0
 62
     9
 10
0.0
 20
0.0
 30
0.0
 70
   128
 71
    66
 72
    68
 73
    73
  0
VERTEX
  5
28E
  8
0
 62
     9
 10
0.0
 20
0.0
 30
0.0
 70
   128
 71
    59
 72
    62
 73
    65
  0
VERTEX
  5
28F
  8
0
 62
     9
 10
0.0
 20
0.0
 30
0.0
 70
   128
 71
    55
 72
    58
 73
    63
  0
VERTEX
  5
290
  8
0
 62
     9
 10
0.0
 20
0.0
 30
0.0
 70
   128
 71
    50
 72
    53
 73
    57
  0
VERTEX
  5
291
  8
0
 62
     9
 10
0.0
 20
0.0
 30
0.0
 70
   128
 71
    45
 72
    48
 73
    54
  0
VERTEX
  5
292
  8
0
 62
     9
 10
0.0
 20
0.0
 30
0.0
 70
   128
 71
    40
 72
    43
 73
    49
  0
VERTEX
  5
293
  8
0
 62
     9
 10
0.0
 20
0.0
 30
0.0
 70
   128
 71
    44
 72
    92
 73
    42
  0
VERTEX
  5
294
  8
0
 62
     9
 10
0.0
 20
0.0
 30
0.0
 70
   128
 71
    35
 72
    81
 73
    37
  0
VERTEX
  5
295
  8
0
 62
     9
 10
0.0
 20
0.0
 30
0.0
 70
   128
 71
    30
 72
    38
 73
    34
  0
VERTEX
  5
296
  8
0
 62
     9
 10
0.0
 20
0.0
 30
0.0
 70
   128
 71
    29
 72
    33
 73
    27
  0
VERTEX
  5
297
  8
0
 62
     9
 10
0.0
 20
0.0
 30
0.0
 70
   128
 71
    23
 72
    28
 73
    25
  0
VERTEX
  5
298
  8
0
 62
     9
 10
0.0
 20
0.0
 30
0.0
 70
   128
 71
    16
 72
    24
 73
    20
  0
VERTEX
  5
299
  8
0
 62
     9
 10
0.0
 20
0.0
 30
0.0
 70
   128
 71
    11
 72
    19
 73
    13
  0
VERTEX
  5
29A
  8
0
 62
     9
 10
0.0
 20
0.0
 30
0.0
 70
   128
 71
    10
 72
    15
 73
     8
  0
VERTEX
  5
29B
  8
0
 62
     9
 10
0.0
 20
0.0
 30
0.0
 70
   128
 71
     5
 72
     9
 73
     6
  0
SEQEND
  5
29C
  8
0
 62
     9
  0
ENDBLK
  5
29F
  8
0
  0
BLOCK
  8
0
  2
E3_NODE_9_
 70
     0
 10
0.0
 20
0.0
 30
0.0
  3
E3_NODE_9_
  1

  0
POLYLINE
  5
2A1
  8
0
 62
     9
 66
     1
 10
0.0
 20
0.0
 30
0.0
 70
    64
 71
     5
 72
     3
  0
VERTEX
  5
2A2
  8
0
 10
1.776000022888184
 20
-2.746000051498413
 30
-1.539999961853027
 70
   192
  0
VERTEX
  5
2A3
  8
0
 10
1.776000022888184
 20
-1.243000030517578
 30
-1.539999961853027
 70
   192
  0
VERTEX
  5
2A4
  8
0
 10
4.820000171661377
 20
-1.259999990463257
 30
-1.805999994277954
 70
   192
  0
VERTEX
  5
2A5
  8
0
 10
4.820000171661377
 20
-2.749000072479248
 30
-1.805999994277954
 70
   192
  0
VERTEX
  5
2A6
  8
0
 10
4.820000171661377
 20
-2.763000011444092
 30
-1.805999994277954
 70
   192
  0
VERTEX
  5
2A7
  8
0
 62
     9
 10
0.0
 20
0.0
 30
0.0
 70
   128
 71
     3
 72
     2
 73
     1
  0
VERTEX
  5
2A8
  8
0
 62
     9
 10
0.0
 20
0.0
 30
0.0
 70
   128
 71
     1
 72
     4
 73
     3
  0
VERTEX
  5
2A9
  8
0
 62
     9
 10
0.0
 20
0.0
 30
0.0
 70
   128
 71
     1
 72
     5
 73
     4
  0
SEQEND
  5
2AA
  8
0
 62
     9
  0
ENDBLK
  5
2AD
  8
0
  0
BLOCK
  8
0
  2
E3_NODE_10_
 70
     0
 10
0.0
 20
0.0
 30
0.0
  3
E3_NODE_10_
  1

  0
POLYLINE
  5
2AF
  8
0
 62
     9
 66
     1
 10
0.0
 20
0.0
 30
0.0
 70
    64
 71
    70
 72
    68
  0
VERTEX
  5
2B0
  8
0
 10
11.64200019836426
 20
-33.40000152587891
 30
0.0
 70
   192
  0
VERTEX
  5
2B1
  8
0
 10
11.42000007629395
 20
-1.322999954223633
 30
-2.517999887466431
 70
   192
  0
VERTEX
  5
2B2
  8
0
 10
11.42000007629395
 20
-1.297000050544739
 30
-2.299000024795532
 70
   192
  0
VERTEX
  5
2B3
  8
0
 10
11.41899967193604
 20
-1.203999996185303
 30
-0.4460000097751617
 70
   192
  0
VERTEX
  5
2B4
  8
0
 10
11.42199993133545
 20
-1.866000056266785
 30
-5.993000030517578
 70
   192
  0
VERTEX
  5
2B5
  8
0
 10
11.42099952697754
 20
-1.516999959945679
 30
-4.14900016784668
 70
   192
  0
VERTEX
  5
2B6
  8
0
 10
11.42399978637695
 20
-2.247999906539917
 30
-7.468999862670898
 70
   192
  0
VERTEX
  5
2B7
  8
0
 10
11.43299961090088
 20
-4.076000213623047
 30
-12.16199970245361
 70
   192
  0
VERTEX
  5
2B8
  8
0
 10
11.43099975585938
 20
-3.591000080108643
 30
-11.17399978637695
 70
   192
  0
VERTEX
  5
2B9
  8
0
 10
11.42700004577637
 20
-2.890000104904175
 30
-9.456000328063965
 70
   192
  0
VERTEX
  5
2BA
  8
0
 10
11.42500019073486
 20
-2.306999921798706
 30
-7.696000099182129
 70
   192
  0
VERTEX
  5
2BB
  8
0
 10
11.43900012969971
 20
-5.35099983215332
 30
-14.4709997177124
 70
   192
  0
VERTEX
  5
2BC
  8
0
 10
11.4350004196167
 20
-4.410999774932861
 30
-12.8459997177124
 70
   192
  0
VERTEX
  5
2BD
  8
0
 10
11.44400024414062
 20
-6.330999851226807
 30
-15.93200016021729
 70
   192
  0
VERTEX
  5
2BE
  8
0
 10
11.44600009918213
 20
-6.724999904632568
 30
-16.44300079345703
 70
   192
  0
VERTEX
  5
2BF
  8
0
 10
11.46300029754639
 20
-10.11100006103516
 30
-20.17200088500977
 70
   192
  0
VERTEX
  5
2C0
  8
0
 10
11.46199989318848
 20
-10.02200031280518
 30
-20.09600067138672
 70
   192
  0
VERTEX
  5
2C1
  8
0
 10
11.45600032806396
 20
-8.694000244140625
 30
-18.78899955749512
 70
   192
  0
VERTEX
  5
2C2
  8
0
 10
11.44999980926514
 20
-7.464000225067139
 30
-17.39999961853027
 70
   192
  0
VERTEX
  5
2C3
  8
0
 10
11.47599983215332
 20
-12.85400009155273
 30
-22.37199974060059
 70
   192
  0
VERTEX
  5
2C4
  8
0
 10
11.4689998626709
 20
-11.44600009918213
 30
-21.31800079345703
 70
   192
  0
VERTEX
  5
2C5
  8
0
 10
11.48200035095215
 20
-14.13300037384033
 30
-23.20299911499023
 70
   192
  0
VERTEX
  5
2C6
  8
0
 10
11.50399971008301
 20
-18.64399909973145
 30
-25.4419994354248
 70
   192
  0
VERTEX
  5
2C7
  8
0
 10
11.5
 20
-17.71500015258789
 30
-25.07900047302246
 70
   192
  0
VERTEX
  5
2C8
  8
0
 10
11.49100017547607
 20
-16.03000068664551
 30
-24.2859992980957
 70
   192
  0
VERTEX
  5
2C9
  8
0
 10
11.48400020599365
 20
-14.40900039672852
 30
-23.38299942016602
 70
   192
  0
VERTEX
  5
2CA
  8
0
 10
11.51599979400635
 20
-21.14200019836426
 30
-26.29000091552734
 70
   192
  0
VERTEX
  5
2CB
  8
0
 10
11.50800037384033
 20
-19.46299934387207
 30
-25.76099967956543
 70
   192
  0
VERTEX
  5
2CC
  8
0
 10
11.52799987792969
 20
-23.48600006103516
 30
-26.82200050354004
 70
   192
  0
VERTEX
  5
2CD
  8
0
 10
11.52499961853027
 20
-22.94400024414062
 30
-26.72900009155273
 70
   192
  0
VERTEX
  5
2CE
  8
0
 10
11.58899974822998
 20
-33.40000152587891
 30
-24.16900062561035
 70
   192
  0
VERTEX
  5
2CF
  8
0
 10
11.55200004577637
 20
-28.5
 30
-27.29999923706055
 70
   192
  0
VERTEX
  5
2D0
  8
0
 10
11.54300022125244
 20
-26.625
 30
-27.23600006103516
 70
   192
  0
VERTEX
  5
2D1
  8
0
 10
11.53400039672852
 20
-24.77199935913086
 30
-27.04400062561035
 70
   192
  0
VERTEX
  5
2D2
  8
0
 10
11.57400035858154
 20
-33.40000152587891
 30
-27.29999923706055
 70
   192
  0
VERTEX
  5
2D3
  8
0
 10
11.64500045776367
 20
-33.40000152587891
 30
1.565000057220459
 70
   192
  0
VERTEX
  5
2D4
  8
0
 10
11.52999973297119
 20
-23.88899993896484
 30
26.90800094604492
 70
   192
  0
VERTEX
  5
2D5
  8
0
 10
11.53800010681152
 20
-25.63100051879883
 30
27.14900016784668
 70
   192
  0
VERTEX
  5
2D6
  8
0
 10
11.52799987792969
 20
-23.48600006103516
 30
26.82500076293945
 70
   192
  0
VERTEX
  5
2D7
  8
0
 10
11.54699993133545
 20
-27.48699951171875
 30
27.2810001373291
 70
   192
  0
VERTEX
  5
2D8
  8
0
 10
11.55200004577637
 20
-28.5
 30
27.29999923706055
 70
   192
  0
VERTEX
  5
2D9
  8
0
 10
11.57400035858154
 20
-33.40000152587891
 30
27.29999923706055
 70
   192
  0
VERTEX
  5
2DA
  8
0
 10
11.50399971008301
 20
-18.63899993896484
 30
25.45299911499023
 70
   192
  0
VERTEX
  5
2DB
  8
0
 10
11.51200008392334
 20
-20.28499984741211
 30
26.03499984741211
 70
   192
  0
VERTEX
  5
2DC
  8
0
 10
11.52099990844727
 20
-22.07200050354004
 30
26.53300094604492
 70
   192
  0
VERTEX
  5
2DD
  8
0
 10
11.49499988555908
 20
-16.80699920654297
 30
24.66900062561035
 70
   192
  0
VERTEX
  5
2DE
  8
0
 10
11.50399971008301
 20
-18.52899932861328
 30
25.41399955749512
 70
   192
  0
VERTEX
  5
2DF
  8
0
 10
11.48799991607666
 20
-15.24199962615967
 30
23.86400032043457
 70
   192
  0
VERTEX
  5
2E0
  8
0
 10
11.48200035095215
 20
-14.13500022888184
 30
23.20000076293945
 70
   192
  0
VERTEX
  5
2E1
  8
0
 10
11.46300029754639
 20
-10.11900043487549
 30
20.16399955749512
 70
   192
  0
VERTEX
  5
2E2
  8
0
 10
11.46500015258789
 20
-10.67899990081787
 30
20.68099975585938
 70
   192
  0
VERTEX
  5
2E3
  8
0
 10
11.47200012207031
 20
-12.13099956512451
 30
21.84799957275391
 70
   192
  0
VERTEX
  5
2E4
  8
0
 10
11.47999954223633
 20
-13.65200042724609
 30
22.90900039672852
 70
   192
  0
VERTEX
  5
2E5
  8
0
 10
11.45300006866455
 20
-8.09000015258789
 30
18.13100051879883
 70
   192
  0
VERTEX
  5
2E6
  8
0
 10
11.45899963378906
 20
-9.300000190734863
 30
19.40800094604492
 70
   192
  0
VERTEX
  5
2E7
  8
0
 10
11.44600009918213
 20
-6.721000194549561
 30
16.44700050354004
 70
   192
  0
VERTEX
  5
2E8
  8
0
 10
11.44699954986572
 20
-6.906000137329102
 30
16.70299911499023
 70
   192
  0
VERTEX
  5
2E9
  8
0
 10
11.43299961090088
 20
-4.067999839782715
 30
12.16499996185303
 70
   192
  0
VERTEX
  5
2EA
  8
0
 10
11.4370002746582
 20
-4.837999820709229
 30
13.61600017547607
 70
   192
  0
VERTEX
  5
2EB
  8
0
 10
11.44200038909912
 20
-5.822000026702881
 30
15.19799995422363
 70
   192
  0
VERTEX
  5
2EC
  8
0
 10
11.42899990081787
 20
-3.239000082015991
 30
10.35299968719482
 70
   192
  0
VERTEX
  5
2ED
  8
0
 10
11.43299961090088
 20
-3.959000110626221
 30
11.95899963378906
 70
   192
  0
VERTEX
  5
2EE
  8
0
 10
11.42399978637695
 20
-2.25600004196167
 30
7.467000007629395
 70
   192
  0
VERTEX
  5
2EF
  8
0
 10
11.42599964141846
 20
-2.595000028610229
 30
8.61400032043457
 70
   192
  0
VERTEX
  5
2F0
  8
0
 10
11.42000007629395
 20
-1.383999943733215
 30
3.16100001335144
 70
   192
  0
VERTEX
  5
2F1
  8
0
 10
11.42099952697754
 20
-1.664999961853027
 30
5.017000198364258
 70
   192
  0
VERTEX
  5
2F2
  8
0
 10
11.42300033569336
 20
-2.069000005722046
 30
6.835000038146973
 70
   192
  0
VERTEX
  5
2F3
  8
0
 10
11.42000007629395
 20
-1.330000042915344
 30
2.517999887466431
 70
   192
  0
VERTEX
  5
2F4
  8
0
 10
11.41899967193604
 20
-1.212000012397766
 30
0.0
 70
   192
  0
VERTEX
  5
2F5
  8
0
 10
11.41899967193604
 20
-1.235999941825867
 30
1.407999992370605
 70
   192
  0
VERTEX
  5
2F6
  8
0
 62
     9
 10
0.0
 20
0.0
 30
0.0
 70
   128
 71
     3
 72
     2
 73
     1
  0
VERTEX
  5
2F7
  8
0
 62
     9
 10
0.0
 20
0.0
 30
0.0
 70
   128
 71
     1
 72
     4
 73
     3
  0
VERTEX
  5
2F8
  8
0
 62
     9
 10
0.0
 20
0.0
 30
0.0
 70
   128
 71
     6
 72
     5
 73
     1
  0
VERTEX
  5
2F9
  8
0
 62
     9
 10
0.0
 20
0.0
 30
0.0
 70
   128
 71
     5
 72
     7
 73
     1
  0
VERTEX
  5
2FA
  8
0
 62
     9
 10
0.0
 20
0.0
 30
0.0
 70
   128
 71
     9
 72
     8
 73
     1
  0
VERTEX
  5
2FB
  8
0
 62
     9
 10
0.0
 20
0.0
 30
0.0
 70
   128
 71
     1
 72
    10
 73
     9
  0
VERTEX
  5
2FC
  8
0
 62
     9
 10
0.0
 20
0.0
 30
0.0
 70
   128
 71
     1
 72
    11
 73
    10
  0
VERTEX
  5
2FD
  8
0
 62
     9
 10
0.0
 20
0.0
 30
0.0
 70
   128
 71
    13
 72
    12
 73
     1
  0
VERTEX
  5
2FE
  8
0
 62
     9
 10
0.0
 20
0.0
 30
0.0
 70
   128
 71
    12
 72
    14
 73
     1
  0
VERTEX
  5
2FF
  8
0
 62
     9
 10
0.0
 20
0.0
 30
0.0
 70
   128
 71
    14
 72
    15
 73
     1
  0
VERTEX
  5
300
  8
0
 62
     9
 10
0.0
 20
0.0
 30
0.0
 70
   128
 71
     1
 72
     8
 73
    13
  0
VERTEX
  5
301
  8
0
 62
     9
 10
0.0
 20
0.0
 30
0.0
 70
   128
 71
     1
 72
     7
 73
    11
  0
VERTEX
  5
302
  8
0
 62
     9
 10
0.0
 20
0.0
 30
0.0
 70
   128
 71
    17
 72
    16
 73
     1
  0
VERTEX
  5
303
  8
0
 62
     9
 10
0.0
 20
0.0
 30
0.0
 70
   128
 71
     1
 72
    18
 73
    17
  0
VERTEX
  5
304
  8
0
 62
     9
 10
0.0
 20
0.0
 30
0.0
 70
   128
 71
     1
 72
    19
 73
    18
  0
VERTEX
  5
305
  8
0
 62
     9
 10
0.0
 20
0.0
 30
0.0
 70
   128
 71
    21
 72
    20
 73
     1
  0
VERTEX
  5
306
  8
0
 62
     9
 10
0.0
 20
0.0
 30
0.0
 70
   128
 71
    20
 72
    22
 73
     1
  0
VERTEX
  5
307
  8
0
 62
     9
 10
0.0
 20
0.0
 30
0.0
 70
   128
 71
     1
 72
    16
 73
    21
  0
VERTEX
  5
308
  8
0
 62
     9
 10
0.0
 20
0.0
 30
0.0
 70
   128
 71
     1
 72
    15
 73
    19
  0
VERTEX
  5
309
  8
0
 62
     9
 10
0.0
 20
0.0
 30
0.0
 70
   128
 71
    24
 72
    23
 73
     1
  0
VERTEX
  5
30A
  8
0
 62
     9
 10
0.0
 20
0.0
 30
0.0
 70
   128
 71
     1
 72
    25
 73
    24
  0
VERTEX
  5
30B
  8
0
 62
     9
 10
0.0
 20
0.0
 30
0.0
 70
   128
 71
     1
 72
    26
 73
    25
  0
VERTEX
  5
30C
  8
0
 62
     9
 10
0.0
 20
0.0
 30
0.0
 70
   128
 71
     1
 72
    22
 73
    26
  0
VERTEX
  5
30D
  8
0
 62
     9
 10
0.0
 20
0.0
 30
0.0
 70
   128
 71
    28
 72
    27
 73
     1
  0
VERTEX
  5
30E
  8
0
 62
     9
 10
0.0
 20
0.0
 30
0.0
 70
   128
 71
    30
 72
    29
 73
     1
  0
VERTEX
  5
30F
  8
0
 62
     9
 10
0.0
 20
0.0
 30
0.0
 70
   128
 71
     1
 72
    27
 73
    30
  0
VERTEX
  5
310
  8
0
 62
     9
 10
0.0
 20
0.0
 30
0.0
 70
   128
 71
    33
 72
    32
 73
    31
  0
VERTEX
  5
311
  8
0
 62
     9
 10
0.0
 20
0.0
 30
0.0
 70
   128
 71
    31
 72
    34
 73
    33
  0
VERTEX
  5
312
  8
0
 62
     9
 10
0.0
 20
0.0
 30
0.0
 70
   128
 71
    32
 72
    35
 73
    31
  0
VERTEX
  5
313
  8
0
 62
     9
 10
0.0
 20
0.0
 30
0.0
 70
   128
 71
    31
 72
     1
 73
    29
  0
VERTEX
  5
314
  8
0
 62
     9
 10
0.0
 20
0.0
 30
0.0
 70
   128
 71
    31
 72
    29
 73
    34
  0
VERTEX
  5
315
  8
0
 62
     9
 10
0.0
 20
0.0
 30
0.0
 70
   128
 71
     1
 72
    23
 73
    28
  0
VERTEX
  5
316
  8
0
 62
     9
 10
0.0
 20
0.0
 30
0.0
 70
   128
 71
     1
 72
     2
 73
     6
  0
VERTEX
  5
317
  8
0
 62
     9
 10
0.0
 20
0.0
 30
0.0
 70
   128
 71
    38
 72
    37
 73
    36
  0
VERTEX
  5
318
  8
0
 62
     9
 10
0.0
 20
0.0
 30
0.0
 70
   128
 71
    37
 72
    39
 73
    36
  0
VERTEX
  5
319
  8
0
 62
     9
 10
0.0
 20
0.0
 30
0.0
 70
   128
 71
    36
 72
    40
 73
    38
  0
VERTEX
  5
31A
  8
0
 62
     9
 10
0.0
 20
0.0
 30
0.0
 70
   128
 71
    36
 72
    41
 73
    40
  0
VERTEX
  5
31B
  8
0
 62
     9
 10
0.0
 20
0.0
 30
0.0
 70
   128
 71
    36
 72
    42
 73
    41
  0
VERTEX
  5
31C
  8
0
 62
     9
 10
0.0
 20
0.0
 30
0.0
 70
   128
 71
    44
 72
    43
 73
     1
  0
VERTEX
  5
31D
  8
0
 62
     9
 10
0.0
 20
0.0
 30
0.0
 70
   128
 71
     1
 72
    45
 73
    44
  0
VERTEX
  5
31E
  8
0
 62
     9
 10
0.0
 20
0.0
 30
0.0
 70
   128
 71
    47
 72
    46
 73
     1
  0
VERTEX
  5
31F
  8
0
 62
     9
 10
0.0
 20
0.0
 30
0.0
 70
   128
 71
    46
 72
    48
 73
     1
  0
VERTEX
  5
320
  8
0
 62
     9
 10
0.0
 20
0.0
 30
0.0
 70
   128
 71
    48
 72
    49
 73
     1
  0
VERTEX
  5
321
  8
0
 62
     9
 10
0.0
 20
0.0
 30
0.0
 70
   128
 71
     1
 72
    43
 73
    47
  0
VERTEX
  5
322
  8
0
 62
     9
 10
0.0
 20
0.0
 30
0.0
 70
   128
 71
     1
 72
    39
 73
    45
  0
VERTEX
  5
323
  8
0
 62
     9
 10
0.0
 20
0.0
 30
0.0
 70
   128
 71
    51
 72
    50
 73
     1
  0
VERTEX
  5
324
  8
0
 62
     9
 10
0.0
 20
0.0
 30
0.0
 70
   128
 71
     1
 72
    52
 73
    51
  0
VERTEX
  5
325
  8
0
 62
     9
 10
0.0
 20
0.0
 30
0.0
 70
   128
 71
     1
 72
    53
 73
    52
  0
VERTEX
  5
326
  8
0
 62
     9
 10
0.0
 20
0.0
 30
0.0
 70
   128
 71
    55
 72
    54
 73
     1
  0
VERTEX
  5
327
  8
0
 62
     9
 10
0.0
 20
0.0
 30
0.0
 70
   128
 71
    57
 72
    56
 73
     1
  0
VERTEX
  5
328
  8
0
 62
     9
 10
0.0
 20
0.0
 30
0.0
 70
   128
 71
     1
 72
    54
 73
    57
  0
VERTEX
  5
329
  8
0
 62
     9
 10
0.0
 20
0.0
 30
0.0
 70
   128
 71
    59
 72
    58
 73
     1
  0
VERTEX
  5
32A
  8
0
 62
     9
 10
0.0
 20
0.0
 30
0.0
 70
   128
 71
     1
 72
    60
 73
    59
  0
VERTEX
  5
32B
  8
0
 62
     9
 10
0.0
 20
0.0
 30
0.0
 70
   128
 71
     1
 72
    56
 73
    60
  0
VERTEX
  5
32C
  8
0
 62
     9
 10
0.0
 20
0.0
 30
0.0
 70
   128
 71
     1
 72
    50
 73
    55
  0
VERTEX
  5
32D
  8
0
 62
     9
 10
0.0
 20
0.0
 30
0.0
 70
   128
 71
     1
 72
    49
 73
    53
  0
VERTEX
  5
32E
  8
0
 62
     9
 10
0.0
 20
0.0
 30
0.0
 70
   128
 71
    62
 72
    61
 73
     1
  0
VERTEX
  5
32F
  8
0
 62
     9
 10
0.0
 20
0.0
 30
0.0
 70
   128
 71
    64
 72
    63
 73
     1
  0
VERTEX
  5
330
  8
0
 62
     9
 10
0.0
 20
0.0
 30
0.0
 70
   128
 71
     1
 72
    61
 73
    64
  0
VERTEX
  5
331
  8
0
 62
     9
 10
0.0
 20
0.0
 30
0.0
 70
   128
 71
    66
 72
    65
 73
     1
  0
VERTEX
  5
332
  8
0
 62
     9
 10
0.0
 20
0.0
 30
0.0
 70
   128
 71
     1
 72
    67
 73
    66
  0
VERTEX
  5
333
  8
0
 62
     9
 10
0.0
 20
0.0
 30
0.0
 70
   128
 71
    65
 72
    68
 73
     1
  0
VERTEX
  5
334
  8
0
 62
     9
 10
0.0
 20
0.0
 30
0.0
 70
   128
 71
     1
 72
    63
 73
    67
  0
VERTEX
  5
335
  8
0
 62
     9
 10
0.0
 20
0.0
 30
0.0
 70
   128
 71
    70
 72
    69
 73
     1
  0
VERTEX
  5
336
  8
0
 62
     9
 10
0.0
 20
0.0
 30
0.0
 70
   128
 71
     1
 72
    68
 73
    70
  0
VERTEX
  5
337
  8
0
 62
     9
 10
0.0
 20
0.0
 30
0.0
 70
   128
 71
     1
 72
    58
 73
    62
  0
VERTEX
  5
338
  8
0
 62
     9
 10
0.0
 20
0.0
 30
0.0
 70
   128
 71
    39
 72
     1
 73
    36
  0
VERTEX
  5
339
  8
0
 62
     9
 10
0.0
 20
0.0
 30
0.0
 70
   128
 71
     1
 72
    69
 73
     4
  0
SEQEND
  5
33A
  8
0
 62
     9
  0
ENDBLK
  5
33D
  8
0
  0
BLOCK
  8
0
  2
E3_NODE_11_
 70
     0
 10
0.0
 20
0.0
 30
0.0
  3
E3_NODE_11_
  1

  0
POLYLINE
  5
33F
  8
0
 62
     9
 66
     1
 10
0.0
 20
0.0
 30
0.0
 70
    64
 71
     4
 72
     2
  0
VERTEX
  5
340
  8
0
 10
4.820000171661377
 20
-33.40000152587891
 30
27.29999923706055
 70
   192
  0
VERTEX
  5
341
  8
0
 10
11.57400035858154
 20
-33.40000152587891
 30
27.29999923706055
 70
   192
  0
VERTEX
  5
342
  8
0
 10
11.55200004577637
 20
-28.5
 30
27.29999923706055
 70
   192
  0
VERTEX
  5
343
  8
0
 10
4.820000171661377
 20
-28.5
 30
27.29999923706055
 70
   192
  0
VERTEX
  5
344
  8
0
 62
     9
 10
0.0
 20
0.0
 30
0.0
 70
   128
 71
     3
 72
     2
 73
     1
  0
VERTEX
  5
345
  8
0
 62
     9
 10
0.0
 20
0.0
 30
0.0
 70
   128
 71
     1
 72
     4
 73
     3
  0
SEQEND
  5
346
  8
0
 62
     9
  0
ENDBLK
  5
349
  8
0
  0
BLOCK
  8
0
  2
E3_NODE_12_
 70
     0
 10
0.0
 20
0.0
 30
0.0
  3
E3_NODE_12_
  1

  0
POLYLINE
  5
34B
  8
0
 62
     9
 66
     1
 10
0.0
 20
0.0
 30
0.0
 70
    64
 71
     4
 72
     2
  0
VERTEX
  5
34C
  8
0
 10
4.820000171661377
 20
-33.40000152587891
 30
-27.29999923706055
 70
   192
  0
VERTEX
  5
34D
  8
0
 10
4.820000171661377
 20
-28.5
 30
-27.29999923706055
 70
   192
  0
VERTEX
  5
34E
  8
0
 10
11.55200004577637
 20
-28.5
 30
-27.29999923706055
 70
   192
  0
VERTEX
  5
34F
  8
0
 10
11.57400035858154
 20
-33.40000152587891
 30
-27.29999923706055
 70
   192
  0
VERTEX
  5
350
  8
0
 62
     9
 10
0.0
 20
0.0
 30
0.0
 70
   128
 71
     3
 72
     2
 73
     1
  0
VERTEX
  5
351
  8
0
 62
     9
 10
0.0
 20
0.0
 30
0.0
 70
   128
 71
     1
 72
     4
 73
     3
  0
SEQEND
  5
352
  8
0
 62
     9
  0
ENDBLK
  5
355
  8
0
  0
BLOCK
  8
0
  2
E3_NODE_13_
 70
     0
 10
0.0
 20
0.0
 30
0.0
  3
E3_NODE_13_
  1

  0
POLYLINE
  5
357
  8
0
 62
     9
 66
     1
 10
0.0
 20
0.0
 30
0.0
 70
    64
 71
     7
 72
     5
  0
VERTEX
  5
358
  8
0
 10
4.820000171661377
 20
-33.40000152587891
 30
-27.29999923706055
 70
   192
  0
VERTEX
  5
359
  8
0
 10
11.58899974822998
 20
-33.40000152587891
 30
-24.16900062561035
 70
   192
  0
VERTEX
  5
35A
  8
0
 10
11.64200019836426
 20
-33.40000152587891
 30
0.0
 70
   192
  0
VERTEX
  5
35B
  8
0
 10
4.820000171661377
 20
-33.40000152587891
 30
27.29999923706055
 70
   192
  0
VERTEX
  5
35C
  8
0
 10
11.64500045776367
 20
-33.40000152587891
 30
1.565000057220459
 70
   192
  0
VERTEX
  5
35D
  8
0
 10
11.57400035858154
 20
-33.40000152587891
 30
-27.29999923706055
 70
   192
  0
VERTEX
  5
35E
  8
0
 10
11.57400035858154
 20
-33.40000152587891
 30
27.29999923706055
 70
   192
  0
VERTEX
  5
35F
  8
0
 62
     9
 10
0.0
 20
0.0
 30
0.0
 70
   128
 71
     3
 72
     2
 73
     1
  0
VERTEX
  5
360
  8
0
 62
     9
 10
0.0
 20
0.0
 30
0.0
 70
   128
 71
     5
 72
     3
 73
     4
  0
VERTEX
  5
361
  8
0
 62
     9
 10
0.0
 20
0.0
 30
0.0
 70
   128
 71
     2
 72
     6
 73
     1
  0
VERTEX
  5
362
  8
0
 62
     9
 10
0.0
 20
0.0
 30
0.0
 70
   128
 71
     1
 72
     4
 73
     3
  0
VERTEX
  5
363
  8
0
 62
     9
 10
0.0
 20
0.0
 30
0.0
 70
   128
 71
     4
 72
     7
 73
     5
  0
SEQEND
  5
364
  8
0
 62
     9
  0
ENDBLK
  5
367
  8
0
  0
BLOCK
  8
0
  2
E3_NODE_14_
 70
     0
 10
0.0
 20
0.0
 30
0.0
  3
E3_NODE_14_
  1

  0
POLYLINE
  5
369
  8
0
 62
     9
 66
     1
 10
0.0
 20
0.0
 30
0.0
 70
    64
 71
     6
 72
     4
  0
VERTEX
  5
36A
  8
0
 10
0.1000000014901161
 20
-28.5
 30
-28.0
 70
   192
  0
VERTEX
  5
36B
  8
0
 10
7.185999870300293
 20
-54.0
 30
-28.0
 70
   192
  0
VERTEX
  5
36C
  8
0
 10
7.189000129699707
 20
-52.34400177001953
 30
-28.0
 70
   192
  0
VERTEX
  5
36D
  8
0
 10
0.1000000014901161
 20
-79.5
 30
-28.0
 70
   192
  0
VERTEX
  5
36E
  8
0
 10
7.126999855041504
 20
-79.5
 30
-28.0
 70
   192
  0
VERTEX
  5
36F
  8
0
 10
7.127999782562256
 20
-28.5
 30
-28.0
 70
   192
  0
VERTEX
  5
370
  8
0
 62
     9
 10
0.0
 20
0.0
 30
0.0
 70
   128
 71
     3
 72
     2
 73
     1
  0
VERTEX
  5
371
  8
0
 62
     9
 10
0.0
 20
0.0
 30
0.0
 70
   128
 71
     2
 72
     5
 73
     4
  0
VERTEX
  5
372
  8
0
 62
     9
 10
0.0
 20
0.0
 30
0.0
 70
   128
 71
     4
 72
     1
 73
     2
  0
VERTEX
  5
373
  8
0
 62
     9
 10
0.0
 20
0.0
 30
0.0
 70
   128
 71
     1
 72
     6
 73
     3
  0
SEQEND
  5
374
  8
0
 62
     9
  0
ENDBLK
  5
377
  8
0
  0
BLOCK
  8
0
  2
E3_NODE_15_
 70
     0
 10
0.0
 20
0.0
 30
0.0
  3
E3_NODE_15_
  1

  0
POLYLINE
  5
379
  8
0
 62
     9
 66
     1
 10
0.0
 20
0.0
 30
0.0
 70
    64
 71
    40
 72
    38
  0
VERTEX
  5
37A
  8
0
 10
0.1000000014901161
 20
-80.19400024414062
 30
27.99099922180176
 70
   192
  0
VERTEX
  5
37B
  8
0
 10
0.1000000014901161
 20
-102.015998840332
 30
-16.64500045776367
 70
   192
  0
VERTEX
  5
37C
  8
0
 10
0.1000000014901161
 20
-98.63400268554688
 30
-20.44300079345703
 70
   192
  0
VERTEX
  5
37D
  8
0
 10
0.1000000014901161
 20
-104.6549987792969
 30
-12.29800033569336
 70
   192
  0
VERTEX
  5
37E
  8
0
 10
0.1000000014901161
 20
-107.3840026855469
 30
2.542999982833862
 70
   192
  0
VERTEX
  5
37F
  8
0
 10
0.1000000014901161
 20
-107.3840026855469
 30
-2.542999982833862
 70
   192
  0
VERTEX
  5
380
  8
0
 10
0.1000000014901161
 20
-0.6159999966621399
 30
2.542999982833862
 70
   192
  0
VERTEX
  5
381
  8
0
 10
0.1000000014901161
 20
-13.38000011444092
 30
23.56599998474121
 70
   192
  0
VERTEX
  5
382
  8
0
 10
0.1000000014901161
 20
-17.89200019836426
 30
25.91300010681152
 70
   192
  0
VERTEX
  5
383
  8
0
 10
0.1000000014901161
 20
-5.984000205993652
 30
16.64500045776367
 70
   192
  0
VERTEX
  5
384
  8
0
 10
0.1000000014901161
 20
-9.366000175476074
 30
20.44300079345703
 70
   192
  0
VERTEX
  5
385
  8
0
 10
0.1000000014901161
 20
-1.53600001335144
 30
7.545000076293945
 70
   192
  0
VERTEX
  5
386
  8
0
 10
0.1000000014901161
 20
-3.345000028610229
 30
12.29800033569336
 70
   192
  0
VERTEX
  5
387
  8
0
 10
0.1000000014901161
 20
-27.80599975585938
 30
27.99099922180176
 70
   192
  0
VERTEX
  5
388
  8
0
 10
0.1000000014901161
 20
-3.345000028610229
 30
-12.29800033569336
 70
   192
  0
VERTEX
  5
389
  8
0
 10
0.1000000014901161
 20
-1.53600001335144
 30
-7.545000076293945
 70
   192
  0
VERTEX
  5
38A
  8
0
 10
0.1000000014901161
 20
-17.89200019836426
 30
-25.91300010681152
 70
   192
  0
VERTEX
  5
38B
  8
0
 10
0.1000000014901161
 20
-13.38000011444092
 30
-23.56599998474121
 70
   192
  0
VERTEX
  5
38C
  8
0
 10
0.1000000014901161
 20
-106.463996887207
 30
7.545000076293945
 70
   192
  0
VERTEX
  5
38D
  8
0
 10
0.1000000014901161
 20
-102.015998840332
 30
16.64500045776367
 70
   192
  0
VERTEX
  5
38E
  8
0
 10
0.1000000014901161
 20
-104.6549987792969
 30
12.29800033569336
 70
   192
  0
VERTEX
  5
38F
  8
0
 10
0.1000000014901161
 20
-22.75399971008301
 30
27.40399932861328
 70
   192
  0
VERTEX
  5
390
  8
0
 10
0.1000000014901161
 20
-5.984000205993652
 30
-16.64500045776367
 70
   192
  0
VERTEX
  5
391
  8
0
 10
0.1000000014901161
 20
-9.366000175476074
 30
-20.44300079345703
 70
   192
  0
VERTEX
  5
392
  8
0
 10
0.1000000014901161
 20
-94.62000274658203
 30
-23.56599998474121
 70
   192
  0
VERTEX
  5
393
  8
0
 10
0.1000000014901161
 20
-94.62000274658203
 30
23.56599998474121
 70
   192
  0
VERTEX
  5
394
  8
0
 10
0.1000000014901161
 20
-98.63400268554688
 30
20.44300079345703
 70
   192
  0
VERTEX
  5
395
  8
0
 10
0.1000000014901161
 20
-85.24600219726562
 30
27.40399932861328
 70
   192
  0
VERTEX
  5
396
  8
0
 10
0.1000000014901161
 20
-90.10800170898438
 30
25.91300010681152
 70
   192
  0
VERTEX
  5
397
  8
0
 10
0.1000000014901161
 20
-0.6159999966621399
 30
-2.542999982833862
 70
   192
  0
VERTEX
  5
398
  8
0
 10
0.1000000014901161
 20
-22.75399971008301
 30
-27.40399932861328
 70
   192
  0
VERTEX
  5
399
  8
0
 10
0.1000000014901161
 20
-90.10800170898438
 30
-25.91300010681152
 70
   192
  0
VERTEX
  5
39A
  8
0
 10
0.1000000014901161
 20
-27.80599975585938
 30
-27.99099922180176
 70
   192
  0
VERTEX
  5
39B
  8
0
 10
0.1000000014901161
 20
-85.24600219726562
 30
-27.40399932861328
 70
   192
  0
VERTEX
  5
39C
  8
0
 10
0.1000000014901161
 20
-106.463996887207
 30
-7.545000076293945
 70
   192
  0
VERTEX
  5
39D
  8
0
 10
0.1000000014901161
 20
-28.5
 30
-28.0
 70
   192
  0
VERTEX
  5
39E
  8
0
 10
0.1000000014901161
 20
-80.19400024414062
 30
-27.99099922180176
 70
   192
  0
VERTEX
  5
39F
  8
0
 10
0.1000000014901161
 20
-79.5
 30
28.0
 70
   192
  0
VERTEX
  5
3A0
  8
0
 10
0.1000000014901161
 20
-79.5
 30
-28.0
 70
   192
  0
VERTEX
  5
3A1
  8
0
 10
0.1000000014901161
 20
-28.5
 30
28.0
 70
   192
  0
VERTEX
  5
3A2
  8
0
 62
     9
 10
0.0
 20
0.0
 30
0.0
 70
   128
 71
     3
 72
     2
 73
     1
  0
VERTEX
  5
3A3
  8
0
 62
     9
 10
0.0
 20
0.0
 30
0.0
 70
   128
 71
     6
 72
     5
 73
     4
  0
VERTEX
  5
3A4
  8
0
 62
     9
 10
0.0
 20
0.0
 30
0.0
 70
   128
 71
     9
 72
     8
 73
     7
  0
VERTEX
  5
3A5
  8
0
 62
     9
 10
0.0
 20
0.0
 30
0.0
 70
   128
 71
    11
 72
    10
 73
     7
  0
VERTEX
  5
3A6
  8
0
 62
     9
 10
0.0
 20
0.0
 30
0.0
 70
   128
 71
    13
 72
    12
 73
     7
  0
VERTEX
  5
3A7
  8
0
 62
     9
 10
0.0
 20
0.0
 30
0.0
 70
   128
 71
    16
 72
    15
 73
    14
  0
VERTEX
  5
3A8
  8
0
 62
     9
 10
0.0
 20
0.0
 30
0.0
 70
   128
 71
    18
 72
    17
 73
    14
  0
VERTEX
  5
3A9
  8
0
 62
     9
 10
0.0
 20
0.0
 30
0.0
 70
   128
 71
     2
 72
     4
 73
     1
  0
VERTEX
  5
3AA
  8
0
 62
     9
 10
0.0
 20
0.0
 30
0.0
 70
   128
 71
     5
 72
    19
 73
     4
  0
VERTEX
  5
3AB
  8
0
 62
     9
 10
0.0
 20
0.0
 30
0.0
 70
   128
 71
    21
 72
    20
 73
     4
  0
VERTEX
  5
3AC
  8
0
 62
     9
 10
0.0
 20
0.0
 30
0.0
 70
   128
 71
     7
 72
    22
 73
     9
  0
VERTEX
  5
3AD
  8
0
 62
     9
 10
0.0
 20
0.0
 30
0.0
 70
   128
 71
     7
 72
    10
 73
    13
  0
VERTEX
  5
3AE
  8
0
 62
     9
 10
0.0
 20
0.0
 30
0.0
 70
   128
 71
    15
 72
    23
 73
    14
  0
VERTEX
  5
3AF
  8
0
 62
     9
 10
0.0
 20
0.0
 30
0.0
 70
   128
 71
    14
 72
    24
 73
    18
  0
VERTEX
  5
3B0
  8
0
 62
     9
 10
0.0
 20
0.0
 30
0.0
 70
   128
 71
     1
 72
    25
 73
     3
  0
VERTEX
  5
3B1
  8
0
 62
     9
 10
0.0
 20
0.0
 30
0.0
 70
   128
 71
     4
 72
    19
 73
    21
  0
VERTEX
  5
3B2
  8
0
 62
     9
 10
0.0
 20
0.0
 30
0.0
 70
   128
 71
    27
 72
    26
 73
     4
  0
VERTEX
  5
3B3
  8
0
 62
     9
 10
0.0
 20
0.0
 30
0.0
 70
   128
 71
    29
 72
    28
 73
     4
  0
VERTEX
  5
3B4
  8
0
 62
     9
 10
0.0
 20
0.0
 30
0.0
 70
   128
 71
     7
 72
     8
 73
    11
  0
VERTEX
  5
3B5
  8
0
 62
     9
 10
0.0
 20
0.0
 30
0.0
 70
   128
 71
    14
 72
    30
 73
    16
  0
VERTEX
  5
3B6
  8
0
 62
     9
 10
0.0
 20
0.0
 30
0.0
 70
   128
 71
    17
 72
    31
 73
    14
  0
VERTEX
  5
3B7
  8
0
 62
     9
 10
0.0
 20
0.0
 30
0.0
 70
   128
 71
     1
 72
    32
 73
    25
  0
VERTEX
  5
3B8
  8
0
 62
     9
 10
0.0
 20
0.0
 30
0.0
 70
   128
 71
     4
 72
    20
 73
    27
  0
VERTEX
  5
3B9
  8
0
 62
     9
 10
0.0
 20
0.0
 30
0.0
 70
   128
 71
    28
 72
     1
 73
     4
  0
VERTEX
  5
3BA
  8
0
 62
     9
 10
0.0
 20
0.0
 30
0.0
 70
   128
 71
    14
 72
     7
 73
    30
  0
VERTEX
  5
3BB
  8
0
 62
     9
 10
0.0
 20
0.0
 30
0.0
 70
   128
 71
    31
 72
    33
 73
    14
  0
VERTEX
  5
3BC
  8
0
 62
     9
 10
0.0
 20
0.0
 30
0.0
 70
   128
 71
     1
 72
    34
 73
    32
  0
VERTEX
  5
3BD
  8
0
 62
     9
 10
0.0
 20
0.0
 30
0.0
 70
   128
 71
     4
 72
    26
 73
    29
  0
VERTEX
  5
3BE
  8
0
 62
     9
 10
0.0
 20
0.0
 30
0.0
 70
   128
 71
    14
 72
    23
 73
    24
  0
VERTEX
  5
3BF
  8
0
 62
     9
 10
0.0
 20
0.0
 30
0.0
 70
   128
 71
     4
 72
    35
 73
     6
  0
VERTEX
  5
3C0
  8
0
 62
     9
 10
0.0
 20
0.0
 30
0.0
 70
   128
 71
    33
 72
    36
 73
    14
  0
VERTEX
  5
3C1
  8
0
 62
     9
 10
0.0
 20
0.0
 30
0.0
 70
   128
 71
     1
 72
    38
 73
    37
  0
VERTEX
  5
3C2
  8
0
 62
     9
 10
0.0
 20
0.0
 30
0.0
 70
   128
 71
     7
 72
    14
 73
    22
  0
VERTEX
  5
3C3
  8
0
 62
     9
 10
0.0
 20
0.0
 30
0.0
 70
   128
 71
    40
 72
    36
 73
    39
  0
VERTEX
  5
3C4
  8
0
 62
     9
 10
0.0
 20
0.0
 30
0.0
 70
   128
 71
     1
 72
    37
 73
    34
  0
VERTEX
  5
3C5
  8
0
 62
     9
 10
0.0
 20
0.0
 30
0.0
 70
   128
 71
    39
 72
    38
 73
    40
  0
VERTEX
  5
3C6
  8
0
 62
     9
 10
0.0
 20
0.0
 30
0.0
 70
   128
 71
    36
 72
    40
 73
    14
  0
VERTEX
  5
3C7
  8
0
 62
     9
 10
0.0
 20
0.0
 30
0.0
 70
   128
 71
    38
 72
    39
 73
    37
  0
SEQEND
  5
3C8
  8
0
 62
     9
  0
ENDBLK
  5
3CB
  8
0
  0
BLOCK
  8
0
  2
E3_NODE_16_
 70
     0
 10
0.0
 20
0.0
 30
0.0
  3
E3_NODE_16_
  1

  0
POLYLINE
  5
3CD
  8
0
 62
     9
 66
     1
 10
0.0
 20
0.0
 30
0.0
 70
    64
 71
   109
 72
   107
  0
VERTEX
  5
3CE
  8
0
 10
0.1000000014901161
 20
-79.5
 30
28.0
 70
   192
  0
VERTEX
  5
3CF
  8
0
 10
7.126999855041504
 20
-79.5
 30
28.0
 70
   192
  0
VERTEX
  5
3D0
  8
0
 10
7.126999855041504
 20
-79.53299713134766
 30
27.99900054931641
 70
   192
  0
VERTEX
  5
3D1
  8
0
 10
0.1000000014901161
 20
-80.19400024414062
 30
27.99099922180176
 70
   192
  0
VERTEX
  5
3D2
  8
0
 10
7.124000072479248
 20
-80.19400024414062
 30
27.97500038146973
 70
   192
  0
VERTEX
  5
3D3
  8
0
 10
7.117000102996826
 20
-81.47899627685547
 30
27.93000030517578
 70
   192
  0
VERTEX
  5
3D4
  8
0
 10
7.107999801635742
 20
-83.06700134277344
 30
27.76099967956543
 70
   192
  0
VERTEX
  5
3D5
  8
0
 10
0.1000000014901161
 20
-85.24600219726562
 30
27.40399932861328
 70
   192
  0
VERTEX
  5
3D6
  8
0
 10
7.105999946594238
 20
-83.4260025024414
 30
27.72299957275391
 70
   192
  0
VERTEX
  5
3D7
  8
0
 10
0.1000000014901161
 20
-90.10800170898438
 30
25.91300010681152
 70
   192
  0
VERTEX
  5
3D8
  8
0
 10
7.077000141143799
 20
-89.10700225830078
 30
26.29999923706055
 70
   192
  0
VERTEX
  5
3D9
  8
0
 10
7.072999954223633
 20
-89.83999633789062
 30
26.00300025939941
 70
   192
  0
VERTEX
  5
3DA
  8
0
 10
7.085999965667725
 20
-87.2490005493164
 30
26.9060001373291
 70
   192
  0
VERTEX
  5
3DB
  8
0
 10
7.096000194549561
 20
-85.35199737548828
 30
27.38199996948242
 70
   192
  0
VERTEX
  5
3DC
  8
0
 10
7.090000152587891
 20
-86.51300048828125
 30
27.09099960327148
 70
   192
  0
VERTEX
  5
3DD
  8
0
 10
7.097000122070312
 20
-85.24500274658203
 30
27.40099906921387
 70
   192
  0
VERTEX
  5
3DE
  8
0
 10
0.1000000014901161
 20
-94.62000274658203
 30
23.56599998474121
 70
   192
  0
VERTEX
  5
3DF
  8
0
 10
7.058000087738037
 20
-92.6709976196289
 30
24.70899963378906
 70
   192
  0
VERTEX
  5
3E0
  8
0
 10
7.056000232696533
 20
-93.03099822998047
 30
24.5
 70
   192
  0
VERTEX
  5
3E1
  8
0
 10
7.048999786376953
 20
-94.35900115966797
 30
23.73200035095215
 70
   192
  0
VERTEX
  5
3E2
  8
0
 10
7.066999912261963
 20
-90.91699981689453
 30
25.5669994354248
 70
   192
  0
VERTEX
  5
3E3
  8
0
 10
7.071000099182129
 20
-90.10199737548828
 30
25.89699935913086
 70
   192
  0
VERTEX
  5
3E4
  8
0
 10
7.040999889373779
 20
-95.9739990234375
 30
22.64100074768066
 70
   192
  0
VERTEX
  5
3E5
  8
0
 10
7.040999889373779
 20
-95.99199676513672
 30
22.62599945068359
 70
   192
  0
VERTEX
  5
3E6
  8
0
 10
0.1000000014901161
 20
-98.63400268554688
 30
20.44300079345703
 70
   192
  0
VERTEX
  5
3E7
  8
0
 10
7.032999992370605
 20
-97.50800323486328
 30
21.44099998474121
 70
   192
  0
VERTEX
  5
3E8
  8
0
 10
7.047999858856201
 20
-94.61499786376953
 30
23.55900001525879
 70
   192
  0
VERTEX
  5
3E9
  8
0
 10
0.1000000014901161
 20
-102.015998840332
 30
16.64500045776367
 70
   192
  0
VERTEX
  5
3EA
  8
0
 10
7.01800012588501
 20
-100.3050003051758
 30
18.73999977111816
 70
   192
  0
VERTEX
  5
3EB
  8
0
 10
7.013000011444092
 20
-101.0950012207031
 30
17.79800033569336
 70
   192
  0
VERTEX
  5
3EC
  8
0
 10
7.011000156402588
 20
-101.5540008544922
 30
17.25200080871582
 70
   192
  0
VERTEX
  5
3ED
  8
0
 10
7.025000095367432
 20
-98.9540023803711
 30
20.13800048828125
 70
   192
  0
VERTEX
  5
3EE
  8
0
 10
7.026999950408936
 20
-98.6259994506836
 30
20.43400001525879
 70
   192
  0
VERTEX
  5
3EF
  8
0
 10
7.026000022888184
 20
-98.68900299072266
 30
20.37700080871582
 70
   192
  0
VERTEX
  5
3F0
  8
0
 10
0.1000000014901161
 20
-104.6549987792969
 30
12.29800033569336
 70
   192
  0
VERTEX
  5
3F1
  8
0
 10
7.001999855041504
 20
-103.1449966430664
 30
14.96700000762939
 70
   192
  0
VERTEX
  5
3F2
  8
0
 10
7.004000186920166
 20
-102.6949996948242
 30
15.68400001525879
 70
   192
  0
VERTEX
  5
3F3
  8
0
 10
7.007999897003174
 20
-102.0029983520508
 30
16.63500022888184
 70
   192
  0
VERTEX
  5
3F4
  8
0
 10
6.998000144958496
 20
-103.7249984741211
 30
14.04199981689453
 70
   192
  0
VERTEX
  5
3F5
  8
0
 10
6.993000030517578
 20
-104.6370010375977
 30
12.33500003814697
 70
   192
  0
VERTEX
  5
3F6
  8
0
 10
0.1000000014901161
 20
-106.463996887207
 30
7.545000076293945
 70
   192
  0
VERTEX
  5
3F7
  8
0
 10
6.984000205993652
 20
-106.0940017700195
 30
8.76200008392334
 70
   192
  0
VERTEX
  5
3F8
  8
0
 10
6.982999801635742
 20
-106.1370010375977
 30
8.61400032043457
 70
   192
  0
VERTEX
  5
3F9
  8
0
 10
6.98799991607666
 20
-105.427001953125
 30
10.57199954986572
 70
   192
  0
VERTEX
  5
3FA
  8
0
 10
6.993000030517578
 20
-104.6539993286133
 30
12.29699993133545
 70
   192
  0
VERTEX
  5
3FB
  8
0
 10
6.992000102996826
 20
-104.8410034179688
 30
11.88000011444092
 70
   192
  0
VERTEX
  5
3FC
  8
0
 10
6.97700023651123
 20
-107.0029983520508
 30
5.222000122070312
 70
   192
  0
VERTEX
  5
3FD
  8
0
 10
6.97700023651123
 20
-107.0429992675781
 30
5.035999774932861
 70
   192
  0
VERTEX
  5
3FE
  8
0
 10
6.980000019073486
 20
-106.6330032348633
 30
6.913000106811523
 70
   192
  0
VERTEX
  5
3FF
  8
0
 10
6.980999946594238
 20
-106.4499969482422
 30
7.539999961853027
 70
   192
  0
VERTEX
  5
400
  8
0
 10
0.1000000014901161
 20
-107.3840026855469
 30
2.542999982833862
 70
   192
  0
VERTEX
  5
401
  8
0
 10
6.974999904632568
 20
-107.322998046875
 30
3.140000104904175
 70
   192
  0
VERTEX
  5
402
  8
0
 10
0.1000000014901161
 20
-107.3840026855469
 30
-2.542999982833862
 70
   192
  0
VERTEX
  5
403
  8
0
 10
6.973999977111816
 20
-107.4919967651367
 30
-0.6809999942779541
 70
   192
  0
VERTEX
  5
404
  8
0
 10
6.973999977111816
 20
-107.4250030517578
 30
-1.781000018119812
 70
   192
  0
VERTEX
  5
405
  8
0
 10
6.973999977111816
 20
-107.4729995727539
 30
1.235000014305115
 70
   192
  0
VERTEX
  5
406
  8
0
 10
6.974999904632568
 20
-107.370002746582
 30
2.54200005531311
 70
   192
  0
VERTEX
  5
407
  8
0
 10
6.973999977111816
 20
-107.4349975585938
 30
1.720000028610229
 70
   192
  0
VERTEX
  5
408
  8
0
 10
6.97700023651123
 20
-107.0899963378906
 30
-4.77299976348877
 70
   192
  0
VERTEX
  5
409
  8
0
 10
6.978000164031982
 20
-106.9869995117188
 30
-5.26200008392334
 70
   192
  0
VERTEX
  5
40A
  8
0
 10
0.1000000014901161
 20
-106.463996887207
 30
-7.545000076293945
 70
   192
  0
VERTEX
  5
40B
  8
0
 10
6.980000019073486
 20
-106.6630020141602
 30
-6.796999931335449
 70
   192
  0
VERTEX
  5
40C
  8
0
 10
6.974999904632568
 20
-107.3679962158203
 30
-2.716000080108643
 70
   192
  0
VERTEX
  5
40D
  8
0
 10
6.974999904632568
 20
-107.3789978027344
 30
-2.54200005531311
 70
   192
  0
VERTEX
  5
40E
  8
0
 10
0.1000000014901161
 20
-104.6549987792969
 30
-12.29800033569336
 70
   192
  0
VERTEX
  5
40F
  8
0
 10
6.98799991607666
 20
-105.3720016479492
 30
-10.70600032806396
 70
   192
  0
VERTEX
  5
410
  8
0
 10
6.992000102996826
 20
-104.8130035400391
 30
-11.92899990081787
 70
   192
  0
VERTEX
  5
411
  8
0
 10
6.984000205993652
 20
-106.088996887207
 30
-8.777999877929688
 70
   192
  0
VERTEX
  5
412
  8
0
 10
6.980999946594238
 20
-106.4469985961914
 30
-7.539999961853027
 70
   192
  0
VERTEX
  5
413
  8
0
 10
6.984000205993652
 20
-106.1169967651367
 30
-8.680000305175781
 70
   192
  0
VERTEX
  5
414
  8
0
 10
0.1000000014901161
 20
-102.015998840332
 30
-16.64500045776367
 70
   192
  0
VERTEX
  5
415
  8
0
 10
6.999000072479248
 20
-103.5329971313477
 30
-14.36800003051758
 70
   192
  0
VERTEX
  5
416
  8
0
 10
7.001999855041504
 20
-103.1159973144531
 30
-15.01099967956543
 70
   192
  0
VERTEX
  5
417
  8
0
 10
7.00600004196167
 20
-102.4199981689453
 30
-16.08300018310547
 70
   192
  0
VERTEX
  5
418
  8
0
 10
6.99399995803833
 20
-104.5189971923828
 30
-12.57199954986572
 70
   192
  0
VERTEX
  5
419
  8
0
 10
6.993000030517578
 20
-104.6460037231445
 30
-12.29399967193604
 70
   192
  0
VERTEX
  5
41A
  8
0
 10
0.1000000014901161
 20
-98.63400268554688
 30
-20.44300079345703
 70
   192
  0
VERTEX
  5
41B
  8
0
 10
7.019999980926514
 20
-99.84100341796875
 30
-19.24200057983398
 70
   192
  0
VERTEX
  5
41C
  8
0
 10
7.026999950408936
 20
-98.65599822998047
 30
-20.4069995880127
 70
   192
  0
VERTEX
  5
41D
  8
0
 10
7.013999938964844
 20
-101.0540008544922
 30
-17.86199951171875
 70
   192
  0
VERTEX
  5
41E
  8
0
 10
7.013000011444092
 20
-101.1869964599609
 30
-17.71100044250488
 70
   192
  0
VERTEX
  5
41F
  8
0
 10
7.007999897003174
 20
-102.0019989013672
 30
-16.63500022888184
 70
   192
  0
VERTEX
  5
420
  8
0
 10
0.1000000014901161
 20
-94.62000274658203
 30
-23.56599998474121
 70
   192
  0
VERTEX
  5
421
  8
0
 10
7.035999774932861
 20
-96.83799743652344
 30
-21.98600006103516
 70
   192
  0
VERTEX
  5
422
  8
0
 10
7.040999889373779
 20
-95.93199920654297
 30
-22.64900016784668
 70
   192
  0
VERTEX
  5
423
  8
0
 10
7.026999950408936
 20
-98.6259994506836
 30
-20.43600082397461
 70
   192
  0
VERTEX
  5
424
  8
0
 10
7.027999877929688
 20
-98.38899993896484
 30
-20.66900062561035
 70
   192
  0
VERTEX
  5
425
  8
0
 10
7.045000076293945
 20
-95.197998046875
 30
-23.18600082397461
 70
   192
  0
VERTEX
  5
426
  8
0
 10
0.1000000014901161
 20
-90.10800170898438
 30
-25.91300010681152
 70
   192
  0
VERTEX
  5
427
  8
0
 10
7.056000232696533
 20
-92.97599792480469
 30
-24.52700042724609
 70
   192
  0
VERTEX
  5
428
  8
0
 10
7.053999900817871
 20
-93.47699737548828
 30
-24.26199913024902
 70
   192
  0
VERTEX
  5
429
  8
0
 10
7.047999858856201
 20
-94.61100006103516
 30
-23.55200004577637
 70
   192
  0
VERTEX
  5
42A
  8
0
 10
7.063000202178955
 20
-91.68399810791016
 30
-25.20999908447266
 70
   192
  0
VERTEX
  5
42B
  8
0
 10
0.1000000014901161
 20
-85.24600219726562
 30
-27.40399932861328
 70
   192
  0
VERTEX
  5
42C
  8
0
 10
7.083000183105469
 20
-87.91999816894531
 30
-26.70400047302246
 70
   192
  0
VERTEX
  5
42D
  8
0
 10
7.090000152587891
 20
-86.447998046875
 30
-27.11000061035156
 70
   192
  0
VERTEX
  5
42E
  8
0
 10
7.072999954223633
 20
-89.8290023803711
 30
-26.02499961853027
 70
   192
  0
VERTEX
  5
42F
  8
0
 10
7.072999954223633
 20
-89.80699920654297
 30
-26.03300094604492
 70
   192
  0
VERTEX
  5
430
  8
0
 10
7.071000099182129
 20
-90.10399627685547
 30
-25.90399932861328
 70
   192
  0
VERTEX
  5
431
  8
0
 10
7.092999935150146
 20
-85.97000122070312
 30
-27.24200057983398
 70
   192
  0
VERTEX
  5
432
  8
0
 10
0.1000000014901161
 20
-80.19400024414062
 30
-27.99099922180176
 70
   192
  0
VERTEX
  5
433
  8
0
 10
7.107999801635742
 20
-83.01100158691406
 30
-27.76099967956543
 70
   192
  0
VERTEX
  5
434
  8
0
 10
7.103000164031982
 20
-83.98600006103516
 30
-27.63800048828125
 70
   192
  0
VERTEX
  5
435
  8
0
 10
7.097000122070312
 20
-85.24299621582031
 30
-27.38699913024902
 70
   192
  0
VERTEX
  5
436
  8
0
 10
7.113999843597412
 20
-81.9800033569336
 30
-27.88999938964844
 70
   192
  0
VERTEX
  5
437
  8
0
 10
0.1000000014901161
 20
-79.5
 30
-28.0
 70
   192
  0
VERTEX
  5
438
  8
0
 10
7.124000072479248
 20
-80.10399627685547
 30
-27.99300003051758
 70
   192
  0
VERTEX
  5
439
  8
0
 10
7.124000072479248
 20
-80.19400024414062
 30
-27.98900032043457
 70
   192
  0
VERTEX
  5
43A
  8
0
 10
7.126999855041504
 20
-79.5
 30
-28.0
 70
   192
  0
VERTEX
  5
43B
  8
0
 62
     9
 10
0.0
 20
0.0
 30
0.0
 70
   128
 71
     3
 72
     2
 73
     1
  0
VERTEX
  5
43C
  8
0
 62
     9
 10
0.0
 20
0.0
 30
0.0
 70
   128
 71
     1
 72
     4
 73
     3
  0
VERTEX
  5
43D
  8
0
 62
     9
 10
0.0
 20
0.0
 30
0.0
 70
   128
 71
     4
 72
     5
 73
     3
  0
VERTEX
  5
43E
  8
0
 62
     9
 10
0.0
 20
0.0
 30
0.0
 70
   128
 71
     7
 72
     6
 73
     4
  0
VERTEX
  5
43F
  8
0
 62
     9
 10
0.0
 20
0.0
 30
0.0
 70
   128
 71
     4
 72
     8
 73
     7
  0
VERTEX
  5
440
  8
0
 62
     9
 10
0.0
 20
0.0
 30
0.0
 70
   128
 71
     8
 72
     9
 73
     7
  0
VERTEX
  5
441
  8
0
 62
     9
 10
0.0
 20
0.0
 30
0.0
 70
   128
 71
     6
 72
     5
 73
     4
  0
VERTEX
  5
442
  8
0
 62
     9
 10
0.0
 20
0.0
 30
0.0
 70
   128
 71
    12
 72
    11
 73
    10
  0
VERTEX
  5
443
  8
0
 62
     9
 10
0.0
 20
0.0
 30
0.0
 70
   128
 71
    13
 72
     8
 73
    10
  0
VERTEX
  5
444
  8
0
 62
     9
 10
0.0
 20
0.0
 30
0.0
 70
   128
 71
    10
 72
    11
 73
    13
  0
VERTEX
  5
445
  8
0
 62
     9
 10
0.0
 20
0.0
 30
0.0
 70
   128
 71
    15
 72
    14
 73
     8
  0
VERTEX
  5
446
  8
0
 62
     9
 10
0.0
 20
0.0
 30
0.0
 70
   128
 71
     8
 72
    13
 73
    15
  0
VERTEX
  5
447
  8
0
 62
     9
 10
0.0
 20
0.0
 30
0.0
 70
   128
 71
    14
 72
    16
 73
     8
  0
VERTEX
  5
448
  8
0
 62
     9
 10
0.0
 20
0.0
 30
0.0
 70
   128
 71
    19
 72
    18
 73
    17
  0
VERTEX
  5
449
  8
0
 62
     9
 10
0.0
 20
0.0
 30
0.0
 70
   128
 71
    17
 72
    20
 73
    19
  0
VERTEX
  5
44A
  8
0
 62
     9
 10
0.0
 20
0.0
 30
0.0
 70
   128
 71
    18
 72
    21
 73
    10
  0
VERTEX
  5
44B
  8
0
 62
     9
 10
0.0
 20
0.0
 30
0.0
 70
   128
 71
    10
 72
    17
 73
    18
  0
VERTEX
  5
44C
  8
0
 62
     9
 10
0.0
 20
0.0
 30
0.0
 70
   128
 71
    21
 72
    22
 73
    10
  0
VERTEX
  5
44D
  8
0
 62
     9
 10
0.0
 20
0.0
 30
0.0
 70
   128
 71
    24
 72
    23
 73
    17
  0
VERTEX
  5
44E
  8
0
 62
     9
 10
0.0
 20
0.0
 30
0.0
 70
   128
 71
    17
 72
    25
 73
    24
  0
VERTEX
  5
44F
  8
0
 62
     9
 10
0.0
 20
0.0
 30
0.0
 70
   128
 71
    25
 72
    26
 73
    24
  0
VERTEX
  5
450
  8
0
 62
     9
 10
0.0
 20
0.0
 30
0.0
 70
   128
 71
    23
 72
    27
 73
    17
  0
VERTEX
  5
451
  8
0
 62
     9
 10
0.0
 20
0.0
 30
0.0
 70
   128
 71
    29
 72
    25
 73
    28
  0
VERTEX
  5
452
  8
0
 62
     9
 10
0.0
 20
0.0
 30
0.0
 70
   128
 71
    28
 72
    30
 73
    29
  0
VERTEX
  5
453
  8
0
 62
     9
 10
0.0
 20
0.0
 30
0.0
 70
   128
 71
    28
 72
    31
 73
    30
  0
VERTEX
  5
454
  8
0
 62
     9
 10
0.0
 20
0.0
 30
0.0
 70
   128
 71
    29
 72
    32
 73
    25
  0
VERTEX
  5
455
  8
0
 62
     9
 10
0.0
 20
0.0
 30
0.0
 70
   128
 71
    34
 72
    33
 73
    25
  0
VERTEX
  5
456
  8
0
 62
     9
 10
0.0
 20
0.0
 30
0.0
 70
   128
 71
    25
 72
    32
 73
    34
  0
VERTEX
  5
457
  8
0
 62
     9
 10
0.0
 20
0.0
 30
0.0
 70
   128
 71
    36
 72
    28
 73
    35
  0
VERTEX
  5
458
  8
0
 62
     9
 10
0.0
 20
0.0
 30
0.0
 70
   128
 71
    36
 72
    37
 73
    28
  0
VERTEX
  5
459
  8
0
 62
     9
 10
0.0
 20
0.0
 30
0.0
 70
   128
 71
    37
 72
    38
 73
    28
  0
VERTEX
  5
45A
  8
0
 62
     9
 10
0.0
 20
0.0
 30
0.0
 70
   128
 71
    35
 72
    39
 73
    36
  0
VERTEX
  5
45B
  8
0
 62
     9
 10
0.0
 20
0.0
 30
0.0
 70
   128
 71
    35
 72
    40
 73
    39
  0
VERTEX
  5
45C
  8
0
 62
     9
 10
0.0
 20
0.0
 30
0.0
 70
   128
 71
    43
 72
    42
 73
    41
  0
VERTEX
  5
45D
  8
0
 62
     9
 10
0.0
 20
0.0
 30
0.0
 70
   128
 71
    44
 72
    35
 73
    41
  0
VERTEX
  5
45E
  8
0
 62
     9
 10
0.0
 20
0.0
 30
0.0
 70
   128
 71
    46
 72
    45
 73
    35
  0
VERTEX
  5
45F
  8
0
 62
     9
 10
0.0
 20
0.0
 30
0.0
 70
   128
 71
    35
 72
    44
 73
    46
  0
VERTEX
  5
460
  8
0
 62
     9
 10
0.0
 20
0.0
 30
0.0
 70
   128
 71
    41
 72
    42
 73
    44
  0
VERTEX
  5
461
  8
0
 62
     9
 10
0.0
 20
0.0
 30
0.0
 70
   128
 71
    48
 72
    47
 73
    41
  0
VERTEX
  5
462
  8
0
 62
     9
 10
0.0
 20
0.0
 30
0.0
 70
   128
 71
    47
 72
    49
 73
    41
  0
VERTEX
  5
463
  8
0
 62
     9
 10
0.0
 20
0.0
 30
0.0
 70
   128
 71
    49
 72
    50
 73
    41
  0
VERTEX
  5
464
  8
0
 62
     9
 10
0.0
 20
0.0
 30
0.0
 70
   128
 71
    41
 72
    51
 73
    48
  0
VERTEX
  5
465
  8
0
 62
     9
 10
0.0
 20
0.0
 30
0.0
 70
   128
 71
    51
 72
    52
 73
    48
  0
VERTEX
  5
466
  8
0
 62
     9
 10
0.0
 20
0.0
 30
0.0
 70
   128
 71
    55
 72
    54
 73
    53
  0
VERTEX
  5
467
  8
0
 62
     9
 10
0.0
 20
0.0
 30
0.0
 70
   128
 71
    54
 72
    56
 73
    51
  0
VERTEX
  5
468
  8
0
 62
     9
 10
0.0
 20
0.0
 30
0.0
 70
   128
 71
    58
 72
    57
 73
    51
  0
VERTEX
  5
469
  8
0
 62
     9
 10
0.0
 20
0.0
 30
0.0
 70
   128
 71
    51
 72
    56
 73
    58
  0
VERTEX
  5
46A
  8
0
 62
     9
 10
0.0
 20
0.0
 30
0.0
 70
   128
 71
    51
 72
    53
 73
    54
  0
VERTEX
  5
46B
  8
0
 62
     9
 10
0.0
 20
0.0
 30
0.0
 70
   128
 71
    60
 72
    59
 73
    53
  0
VERTEX
  5
46C
  8
0
 62
     9
 10
0.0
 20
0.0
 30
0.0
 70
   128
 71
    53
 72
    61
 73
    60
  0
VERTEX
  5
46D
  8
0
 62
     9
 10
0.0
 20
0.0
 30
0.0
 70
   128
 71
    61
 72
    62
 73
    60
  0
VERTEX
  5
46E
  8
0
 62
     9
 10
0.0
 20
0.0
 30
0.0
 70
   128
 71
    59
 72
    63
 73
    53
  0
VERTEX
  5
46F
  8
0
 62
     9
 10
0.0
 20
0.0
 30
0.0
 70
   128
 71
    63
 72
    64
 73
    53
  0
VERTEX
  5
470
  8
0
 62
     9
 10
0.0
 20
0.0
 30
0.0
 70
   128
 71
    67
 72
    66
 73
    65
  0
VERTEX
  5
471
  8
0
 62
     9
 10
0.0
 20
0.0
 30
0.0
 70
   128
 71
    66
 72
    68
 73
    61
  0
VERTEX
  5
472
  8
0
 62
     9
 10
0.0
 20
0.0
 30
0.0
 70
   128
 71
    61
 72
    65
 73
    66
  0
VERTEX
  5
473
  8
0
 62
     9
 10
0.0
 20
0.0
 30
0.0
 70
   128
 71
    70
 72
    69
 73
    61
  0
VERTEX
  5
474
  8
0
 62
     9
 10
0.0
 20
0.0
 30
0.0
 70
   128
 71
    61
 72
    68
 73
    70
  0
VERTEX
  5
475
  8
0
 62
     9
 10
0.0
 20
0.0
 30
0.0
 70
   128
 71
    72
 72
    65
 73
    71
  0
VERTEX
  5
476
  8
0
 62
     9
 10
0.0
 20
0.0
 30
0.0
 70
   128
 71
    71
 72
    73
 73
    72
  0
VERTEX
  5
477
  8
0
 62
     9
 10
0.0
 20
0.0
 30
0.0
 70
   128
 71
    71
 72
    74
 73
    73
  0
VERTEX
  5
478
  8
0
 62
     9
 10
0.0
 20
0.0
 30
0.0
 70
   128
 71
    72
 72
    75
 73
    65
  0
VERTEX
  5
479
  8
0
 62
     9
 10
0.0
 20
0.0
 30
0.0
 70
   128
 71
    75
 72
    76
 73
    65
  0
VERTEX
  5
47A
  8
0
 62
     9
 10
0.0
 20
0.0
 30
0.0
 70
   128
 71
    79
 72
    78
 73
    77
  0
VERTEX
  5
47B
  8
0
 62
     9
 10
0.0
 20
0.0
 30
0.0
 70
   128
 71
    78
 72
    80
 73
    71
  0
VERTEX
  5
47C
  8
0
 62
     9
 10
0.0
 20
0.0
 30
0.0
 70
   128
 71
    80
 72
    81
 73
    71
  0
VERTEX
  5
47D
  8
0
 62
     9
 10
0.0
 20
0.0
 30
0.0
 70
   128
 71
    81
 72
    82
 73
    71
  0
VERTEX
  5
47E
  8
0
 62
     9
 10
0.0
 20
0.0
 30
0.0
 70
   128
 71
    71
 72
    77
 73
    78
  0
VERTEX
  5
47F
  8
0
 62
     9
 10
0.0
 20
0.0
 30
0.0
 70
   128
 71
    84
 72
    77
 73
    83
  0
VERTEX
  5
480
  8
0
 62
     9
 10
0.0
 20
0.0
 30
0.0
 70
   128
 71
    83
 72
    85
 73
    84
  0
VERTEX
  5
481
  8
0
 62
     9
 10
0.0
 20
0.0
 30
0.0
 70
   128
 71
    87
 72
    86
 73
    77
  0
VERTEX
  5
482
  8
0
 62
     9
 10
0.0
 20
0.0
 30
0.0
 70
   128
 71
    77
 72
    84
 73
    87
  0
VERTEX
  5
483
  8
0
 62
     9
 10
0.0
 20
0.0
 30
0.0
 70
   128
 71
    83
 72
    88
 73
    85
  0
VERTEX
  5
484
  8
0
 62
     9
 10
0.0
 20
0.0
 30
0.0
 70
   128
 71
    90
 72
    83
 73
    89
  0
VERTEX
  5
485
  8
0
 62
     9
 10
0.0
 20
0.0
 30
0.0
 70
   128
 71
    90
 72
    91
 73
    83
  0
VERTEX
  5
486
  8
0
 62
     9
 10
0.0
 20
0.0
 30
0.0
 70
   128
 71
    91
 72
    92
 73
    83
  0
VERTEX
  5
487
  8
0
 62
     9
 10
0.0
 20
0.0
 30
0.0
 70
   128
 71
    89
 72
    93
 73
    90
  0
VERTEX
  5
488
  8
0
 62
     9
 10
0.0
 20
0.0
 30
0.0
 70
   128
 71
    95
 72
    89
 73
    94
  0
VERTEX
  5
489
  8
0
 62
     9
 10
0.0
 20
0.0
 30
0.0
 70
   128
 71
    94
 72
    96
 73
    95
  0
VERTEX
  5
48A
  8
0
 62
     9
 10
0.0
 20
0.0
 30
0.0
 70
   128
 71
    98
 72
    97
 73
    89
  0
VERTEX
  5
48B
  8
0
 62
     9
 10
0.0
 20
0.0
 30
0.0
 70
   128
 71
    97
 72
    99
 73
    89
  0
VERTEX
  5
48C
  8
0
 62
     9
 10
0.0
 20
0.0
 30
0.0
 70
   128
 71
    89
 72
    95
 73
    98
  0
VERTEX
  5
48D
  8
0
 62
     9
 10
0.0
 20
0.0
 30
0.0
 70
   128
 71
    94
 72
   100
 73
    96
  0
VERTEX
  5
48E
  8
0
 62
     9
 10
0.0
 20
0.0
 30
0.0
 70
   128
 71
   102
 72
    94
 73
   101
  0
VERTEX
  5
48F
  8
0
 62
     9
 10
0.0
 20
0.0
 30
0.0
 70
   128
 71
   102
 72
   103
 73
    94
  0
VERTEX
  5
490
  8
0
 62
     9
 10
0.0
 20
0.0
 30
0.0
 70
   128
 71
   103
 72
   104
 73
    94
  0
VERTEX
  5
491
  8
0
 62
     9
 10
0.0
 20
0.0
 30
0.0
 70
   128
 71
   101
 72
   105
 73
   102
  0
VERTEX
  5
492
  8
0
 62
     9
 10
0.0
 20
0.0
 30
0.0
 70
   128
 71
   107
 72
   101
 73
   106
  0
VERTEX
  5
493
  8
0
 62
     9
 10
0.0
 20
0.0
 30
0.0
 70
   128
 71
   107
 72
   108
 73
   101
  0
VERTEX
  5
494
  8
0
 62
     9
 10
0.0
 20
0.0
 30
0.0
 70
   128
 71
   106
 72
   109
 73
   107
  0
VERTEX
  5
495
  8
0
 62
     9
 10
0.0
 20
0.0
 30
0.0
 70
   128
 71
   101
 72
   108
 73
   105
  0
VERTEX
  5
496
  8
0
 62
     9
 10
0.0
 20
0.0
 30
0.0
 70
   128
 71
    94
 72
   104
 73
   100
  0
VERTEX
  5
497
  8
0
 62
     9
 10
0.0
 20
0.0
 30
0.0
 70
   128
 71
    89
 72
    99
 73
    93
  0
VERTEX
  5
498
  8
0
 62
     9
 10
0.0
 20
0.0
 30
0.0
 70
   128
 71
    83
 72
    92
 73
    88
  0
VERTEX
  5
499
  8
0
 62
     9
 10
0.0
 20
0.0
 30
0.0
 70
   128
 71
    77
 72
    86
 73
    79
  0
VERTEX
  5
49A
  8
0
 62
     9
 10
0.0
 20
0.0
 30
0.0
 70
   128
 71
    71
 72
    82
 73
    74
  0
VERTEX
  5
49B
  8
0
 62
     9
 10
0.0
 20
0.0
 30
0.0
 70
   128
 71
    65
 72
    76
 73
    67
  0
VERTEX
  5
49C
  8
0
 62
     9
 10
0.0
 20
0.0
 30
0.0
 70
   128
 71
    61
 72
    69
 73
    62
  0
VERTEX
  5
49D
  8
0
 62
     9
 10
0.0
 20
0.0
 30
0.0
 70
   128
 71
    53
 72
    64
 73
    55
  0
VERTEX
  5
49E
  8
0
 62
     9
 10
0.0
 20
0.0
 30
0.0
 70
   128
 71
    51
 72
    57
 73
    52
  0
VERTEX
  5
49F
  8
0
 62
     9
 10
0.0
 20
0.0
 30
0.0
 70
   128
 71
    41
 72
    50
 73
    43
  0
VERTEX
  5
4A0
  8
0
 62
     9
 10
0.0
 20
0.0
 30
0.0
 70
   128
 71
    35
 72
    45
 73
    40
  0
VERTEX
  5
4A1
  8
0
 62
     9
 10
0.0
 20
0.0
 30
0.0
 70
   128
 71
    28
 72
    38
 73
    31
  0
VERTEX
  5
4A2
  8
0
 62
     9
 10
0.0
 20
0.0
 30
0.0
 70
   128
 71
    25
 72
    33
 73
    26
  0
VERTEX
  5
4A3
  8
0
 62
     9
 10
0.0
 20
0.0
 30
0.0
 70
   128
 71
    17
 72
    27
 73
    20
  0
VERTEX
  5
4A4
  8
0
 62
     9
 10
0.0
 20
0.0
 30
0.0
 70
   128
 71
    10
 72
    22
 73
    12
  0
VERTEX
  5
4A5
  8
0
 62
     9
 10
0.0
 20
0.0
 30
0.0
 70
   128
 71
     8
 72
    16
 73
     9
  0
SEQEND
  5
4A6
  8
0
 62
     9
  0
ENDBLK
  5
4A9
  8
0
  0
BLOCK
  8
0
  2
E3_NODE_17_
 70
     0
 10
0.0
 20
0.0
 30
0.0
  3
E3_NODE_17_
  1

  0
POLYLINE
  5
4AB
  8
0
 62
     9
 66
     1
 10
0.0
 20
0.0
 30
0.0
 70
    64
 71
    11
 72
     9
  0
VERTEX
  5
4AC
  8
0
 10
0.1000000014901161
 20
-28.5
 30
28.0
 70
   192
  0
VERTEX
  5
4AD
  8
0
 10
7.196000099182129
 20
-41.55199813842773
 30
28.0
 70
   192
  0
VERTEX
  5
4AE
  8
0
 10
7.269000053405762
 20
-55.4010009765625
 30
28.0
 70
   192
  0
VERTEX
  5
4AF
  8
0
 10
0.1000000014901161
 20
-79.5
 30
28.0
 70
   192
  0
VERTEX
  5
4B0
  8
0
 10
7.190000057220459
 20
-68.90299987792969
 30
28.0
 70
   192
  0
VERTEX
  5
4B1
  8
0
 10
7.14799976348877
 20
-75.98999786376953
 30
28.0
 70
   192
  0
VERTEX
  5
4B2
  8
0
 10
7.127999782562256
 20
-28.5
 30
28.0
 70
   192
  0
VERTEX
  5
4B3
  8
0
 10
7.138999938964844
 20
-30.64200019836426
 30
28.0
 70
   192
  0
VERTEX
  5
4B4
  8
0
 10
7.179999828338623
 20
-38.44400024414062
 30
28.0
 70
   192
  0
VERTEX
  5
4B5
  8
0
 10
7.157999992370605
 20
-34.27899932861328
 30
28.0
 70
   192
  0
VERTEX
  5
4B6
  8
0
 10
7.126999855041504
 20
-79.5
 30
28.0
 70
   192
  0
VERTEX
  5
4B7
  8
0
 62
     9
 10
0.0
 20
0.0
 30
0.0
 70
   128
 71
     3
 72
     2
 73
     1
  0
VERTEX
  5
4B8
  8
0
 62
     9
 10
0.0
 20
0.0
 30
0.0
 70
   128
 71
     6
 72
     5
 73
     4
  0
VERTEX
  5
4B9
  8
0
 62
     9
 10
0.0
 20
0.0
 30
0.0
 70
   128
 71
     1
 72
     4
 73
     3
  0
VERTEX
  5
4BA
  8
0
 62
     9
 10
0.0
 20
0.0
 30
0.0
 70
   128
 71
     4
 72
     5
 73
     3
  0
VERTEX
  5
4BB
  8
0
 62
     9
 10
0.0
 20
0.0
 30
0.0
 70
   128
 71
     8
 72
     7
 73
     1
  0
VERTEX
  5
4BC
  8
0
 62
     9
 10
0.0
 20
0.0
 30
0.0
 70
   128
 71
     2
 72
     9
 73
     1
  0
VERTEX
  5
4BD
  8
0
 62
     9
 10
0.0
 20
0.0
 30
0.0
 70
   128
 71
     1
 72
    10
 73
     8
  0
VERTEX
  5
4BE
  8
0
 62
     9
 10
0.0
 20
0.0
 30
0.0
 70
   128
 71
     1
 72
     9
 73
    10
  0
VERTEX
  5
4BF
  8
0
 62
     9
 10
0.0
 20
0.0
 30
0.0
 70
   128
 71
     4
 72
    11
 73
     6
  0
SEQEND
  5
4C0
  8
0
 62
     9
  0
ENDBLK
  5
4C3
  8
0
  0
BLOCK
  8
0
  2
E3_NODE_18_
 70
     0
 10
0.0
 20
0.0
 30
0.0
  3
E3_NODE_18_
  1

  0
POLYLINE
  5
4C5
  8
0
 62
     9
 66
     1
 10
0.0
 20
0.0
 30
0.0
 70
    64
 71
   108
 72
   106
  0
VERTEX
  5
4C6
  8
0
 10
0.1000000014901161
 20
-28.5
 30
-28.0
 70
   192
  0
VERTEX
  5
4C7
  8
0
 10
7.127999782562256
 20
-28.5
 30
-28.0
 70
   192
  0
VERTEX
  5
4C8
  8
0
 10
7.124000072479248
 20
-27.80599975585938
 30
-27.97500038146973
 70
   192
  0
VERTEX
  5
4C9
  8
0
 10
0.1000000014901161
 20
-27.80599975585938
 30
-27.99099922180176
 70
   192
  0
VERTEX
  5
4CA
  8
0
 10
7.117000102996826
 20
-26.52099990844727
 30
-27.93000030517578
 70
   192
  0
VERTEX
  5
4CB
  8
0
 10
7.107999801635742
 20
-24.87899971008301
 30
-27.75600051879883
 70
   192
  0
VERTEX
  5
4CC
  8
0
 10
0.1000000014901161
 20
-22.75399971008301
 30
-27.40399932861328
 70
   192
  0
VERTEX
  5
4CD
  8
0
 10
7.105999946594238
 20
-24.57399940490723
 30
-27.72299957275391
 70
   192
  0
VERTEX
  5
4CE
  8
0
 10
0.1000000014901161
 20
-17.89200019836426
 30
-25.91300010681152
 70
   192
  0
VERTEX
  5
4CF
  8
0
 10
7.077000141143799
 20
-18.89299964904785
 30
-26.29999923706055
 70
   192
  0
VERTEX
  5
4D0
  8
0
 10
7.072000026702881
 20
-17.95000076293945
 30
-25.91799926757812
 70
   192
  0
VERTEX
  5
4D1
  8
0
 10
7.085999965667725
 20
-20.75099945068359
 30
-26.9060001373291
 70
   192
  0
VERTEX
  5
4D2
  8
0
 10
7.096000194549561
 20
-22.64800071716309
 30
-27.38199996948242
 70
   192
  0
VERTEX
  5
4D3
  8
0
 10
7.089000225067139
 20
-21.35300064086914
 30
-27.05699920654297
 70
   192
  0
VERTEX
  5
4D4
  8
0
 10
7.097000122070312
 20
-22.7549991607666
 30
-27.40099906921387
 70
   192
  0
VERTEX
  5
4D5
  8
0
 10
0.1000000014901161
 20
-13.38000011444092
 30
-23.56599998474121
 70
   192
  0
VERTEX
  5
4D6
  8
0
 10
7.058000087738037
 20
-15.32900047302246
 30
-24.70899963378906
 70
   192
  0
VERTEX
  5
4D7
  8
0
 10
7.054999828338623
 20
-14.69799995422363
 30
-24.3439998626709
 70
   192
  0
VERTEX
  5
4D8
  8
0
 10
7.048999786376953
 20
-13.64099979400635
 30
-23.73200035095215
 70
   192
  0
VERTEX
  5
4D9
  8
0
 10
7.066999912261963
 20
-17.08300018310547
 30
-25.5669994354248
 70
   192
  0
VERTEX
  5
4DA
  8
0
 10
7.072000026702881
 20
-17.89800071716309
 30
-25.89699935913086
 70
   192
  0
VERTEX
  5
4DB
  8
0
 10
0.1000000014901161
 20
-9.366000175476074
 30
-20.44300079345703
 70
   192
  0
VERTEX
  5
4DC
  8
0
 10
7.039000034332275
 20
-11.69499969482422
 30
-22.38199996948242
 70
   192
  0
VERTEX
  5
4DD
  8
0
 10
7.040999889373779
 20
-12.02600002288818
 30
-22.64100074768066
 70
   192
  0
VERTEX
  5
4DE
  8
0
 10
7.032999992370605
 20
-10.49199962615967
 30
-21.44099998474121
 70
   192
  0
VERTEX
  5
4DF
  8
0
 10
7.047999858856201
 20
-13.38500022888184
 30
-23.55900001525879
 70
   192
  0
VERTEX
  5
4E0
  8
0
 10
0.1000000014901161
 20
-5.984000205993652
 30
-16.64500045776367
 70
   192
  0
VERTEX
  5
4E1
  8
0
 10
7.01800012588501
 20
-7.695000171661377
 30
-18.73999977111816
 70
   192
  0
VERTEX
  5
4E2
  8
0
 10
7.011000156402588
 20
-6.539000034332275
 30
-17.36300086975098
 70
   192
  0
VERTEX
  5
4E3
  8
0
 10
7.011000156402588
 20
-6.446000099182129
 30
-17.25200080871582
 70
   192
  0
VERTEX
  5
4E4
  8
0
 10
7.025000095367432
 20
-9.045999526977539
 30
-20.13800048828125
 70
   192
  0
VERTEX
  5
4E5
  8
0
 10
7.025000095367432
 20
-8.954999923706055
 30
-20.04400062561035
 70
   192
  0
VERTEX
  5
4E6
  8
0
 10
7.026999950408936
 20
-9.37399959564209
 30
-20.43400001525879
 70
   192
  0
VERTEX
  5
4E7
  8
0
 10
7.005000114440918
 20
-5.304999828338623
 30
-15.68400001525879
 70
   192
  0
VERTEX
  5
4E8
  8
0
 10
7.0
 20
-4.506999969482422
 30
-14.41100025177002
 70
   192
  0
VERTEX
  5
4E9
  8
0
 10
0.1000000014901161
 20
-3.345000028610229
 30
-12.29800033569336
 70
   192
  0
VERTEX
  5
4EA
  8
0
 10
7.007999897003174
 20
-5.997000217437744
 30
-16.63500022888184
 70
   192
  0
VERTEX
  5
4EB
  8
0
 10
6.999000072479248
 20
-4.275000095367432
 30
-14.04199981689453
 70
   192
  0
VERTEX
  5
4EC
  8
0
 10
6.993000030517578
 20
-3.36299991607666
 30
-12.33500003814697
 70
   192
  0
VERTEX
  5
4ED
  8
0
 10
0.1000000014901161
 20
-1.53600001335144
 30
-7.545000076293945
 70
   192
  0
VERTEX
  5
4EE
  8
0
 10
6.984000205993652
 20
-1.906000018119812
 30
-8.76200008392334
 70
   192
  0
VERTEX
  5
4EF
  8
0
 10
6.98199987411499
 20
-1.631999969482422
 30
-7.822000026702881
 70
   192
  0
VERTEX
  5
4F0
  8
0
 10
6.98799991607666
 20
-2.572999954223633
 30
-10.57199954986572
 70
   192
  0
VERTEX
  5
4F1
  8
0
 10
6.993000030517578
 20
-3.345999956130981
 30
-12.29699993133545
 70
   192
  0
VERTEX
  5
4F2
  8
0
 10
6.989999771118164
 20
-2.854000091552734
 30
-11.19900035858154
 70
   192
  0
VERTEX
  5
4F3
  8
0
 10
0.1000000014901161
 20
-0.6159999966621399
 30
-2.542999982833862
 70
   192
  0
VERTEX
  5
4F4
  8
0
 10
6.97700023651123
 20
-0.9570000171661377
 30
-5.035999774932861
 70
   192
  0
VERTEX
  5
4F5
  8
0
 10
6.97700023651123
 20
-0.8500000238418579
 30
-4.316999912261963
 70
   192
  0
VERTEX
  5
4F6
  8
0
 10
6.980000019073486
 20
-1.366999983787537
 30
-6.913000106811523
 70
   192
  0
VERTEX
  5
4F7
  8
0
 10
6.98199987411499
 20
-1.549999952316284
 30
-7.539999961853027
 70
   192
  0
VERTEX
  5
4F8
  8
0
 10
6.974999904632568
 20
-0.6769999861717224
 30
-3.140000104904175
 70
   192
  0
VERTEX
  5
4F9
  8
0
 10
6.973999977111816
 20
-0.5220000147819519
 30
-0.718999981880188
 70
   192
  0
VERTEX
  5
4FA
  8
0
 10
6.973999977111816
 20
-0.5080000162124634
 30
0.6809999942779541
 70
   192
  0
VERTEX
  5
4FB
  8
0
 10
6.973999977111816
 20
-0.5270000100135803
 30
-1.235000014305115
 70
   192
  0
VERTEX
  5
4FC
  8
0
 10
6.974999904632568
 20
-0.6299999952316284
 30
-2.54200005531311
 70
   192
  0
VERTEX
  5
4FD
  8
0
 10
0.1000000014901161
 20
-0.6159999966621399
 30
2.542999982833862
 70
   192
  0
VERTEX
  5
4FE
  8
0
 10
0.1000000014901161
 20
-1.53600001335144
 30
7.545000076293945
 70
   192
  0
VERTEX
  5
4FF
  8
0
 10
6.97700023651123
 20
-0.9100000262260437
 30
4.77299976348877
 70
   192
  0
VERTEX
  5
500
  8
0
 10
6.980000019073486
 20
-1.258000016212463
 30
6.419000148773193
 70
   192
  0
VERTEX
  5
501
  8
0
 10
6.980000019073486
 20
-1.337000012397766
 30
6.796999931335449
 70
   192
  0
VERTEX
  5
502
  8
0
 10
6.974999904632568
 20
-0.6320000290870667
 30
2.716000080108643
 70
   192
  0
VERTEX
  5
503
  8
0
 10
6.974999904632568
 20
-0.6520000100135803
 30
2.859999895095825
 70
   192
  0
VERTEX
  5
504
  8
0
 10
6.974999904632568
 20
-0.6209999918937683
 30
2.54200005531311
 70
   192
  0
VERTEX
  5
505
  8
0
 10
0.1000000014901161
 20
-3.345000028610229
 30
12.29800033569336
 70
   192
  0
VERTEX
  5
506
  8
0
 10
6.986999988555908
 20
-2.313999891281128
 30
9.861000061035156
 70
   192
  0
VERTEX
  5
507
  8
0
 10
6.984000205993652
 20
-1.91100001335144
 30
8.777999877929688
 70
   192
  0
VERTEX
  5
508
  8
0
 10
6.988999843597412
 20
-2.628000020980835
 30
10.70600032806396
 70
   192
  0
VERTEX
  5
509
  8
0
 10
6.98199987411499
 20
-1.552999973297119
 30
7.539999961853027
 70
   192
  0
VERTEX
  5
50A
  8
0
 10
0.1000000014901161
 20
-5.984000205993652
 30
16.64500045776367
 70
   192
  0
VERTEX
  5
50B
  8
0
 10
7.00600004196167
 20
-5.579999923706055
 30
16.08300018310547
 70
   192
  0
VERTEX
  5
50C
  8
0
 10
7.006999969482422
 20
-5.677999973297119
 30
16.21299934387207
 70
   192
  0
VERTEX
  5
50D
  8
0
 10
7.0
 20
-4.467000007629395
 30
14.36800003051758
 70
   192
  0
VERTEX
  5
50E
  8
0
 10
6.99399995803833
 20
-3.480999946594238
 30
12.57199954986572
 70
   192
  0
VERTEX
  5
50F
  8
0
 10
6.995999813079834
 20
-3.788000106811523
 30
13.13099956512451
 70
   192
  0
VERTEX
  5
510
  8
0
 10
6.993000030517578
 20
-3.354000091552734
 30
12.29399967193604
 70
   192
  0
VERTEX
  5
511
  8
0
 10
7.013000011444092
 20
-6.813000202178955
 30
17.71100044250488
 70
   192
  0
VERTEX
  5
512
  8
0
 10
7.019000053405762
 20
-7.942999839782715
 30
18.99600028991699
 70
   192
  0
VERTEX
  5
513
  8
0
 10
0.1000000014901161
 20
-9.366000175476074
 30
20.44300079345703
 70
   192
  0
VERTEX
  5
514
  8
0
 10
7.007999897003174
 20
-5.998000144958496
 30
16.63500022888184
 70
   192
  0
VERTEX
  5
515
  8
0
 10
7.019999980926514
 20
-8.159000396728516
 30
19.24200057983398
 70
   192
  0
VERTEX
  5
516
  8
0
 10
0.1000000014901161
 20
-13.38000011444092
 30
23.56599998474121
 70
   192
  0
VERTEX
  5
517
  8
0
 10
7.035999774932861
 20
-11.16199970245361
 30
21.98600006103516
 70
   192
  0
VERTEX
  5
518
  8
0
 10
7.027999877929688
 20
-9.611000061035156
 30
20.66900062561035
 70
   192
  0
VERTEX
  5
519
  8
0
 10
7.032999992370605
 20
-10.55399990081787
 30
21.4689998626709
 70
   192
  0
VERTEX
  5
51A
  8
0
 10
7.026999950408936
 20
-9.37399959564209
 30
20.43600082397461
 70
   192
  0
VERTEX
  5
51B
  8
0
 10
7.045000076293945
 20
-12.80200004577637
 30
23.18600082397461
 70
   192
  0
VERTEX
  5
51C
  8
0
 10
0.1000000014901161
 20
-17.89200019836426
 30
25.91300010681152
 70
   192
  0
VERTEX
  5
51D
  8
0
 10
7.063000202178955
 20
-16.31599998474121
 30
25.20999908447266
 70
   192
  0
VERTEX
  5
51E
  8
0
 10
7.065000057220459
 20
-16.59900093078613
 30
25.33399963378906
 70
   192
  0
VERTEX
  5
51F
  8
0
 10
7.053999900817871
 20
-14.52299976348877
 30
24.26199913024902
 70
   192
  0
VERTEX
  5
520
  8
0
 10
7.047999858856201
 20
-13.38899993896484
 30
23.55200004577637
 70
   192
  0
VERTEX
  5
521
  8
0
 10
7.048999786376953
 20
-13.46399974822998
 30
23.60000038146973
 70
   192
  0
VERTEX
  5
522
  8
0
 10
0.1000000014901161
 20
-22.75399971008301
 30
27.40399932861328
 70
   192
  0
VERTEX
  5
523
  8
0
 10
7.083000183105469
 20
-20.07999992370605
 30
26.70400047302246
 70
   192
  0
VERTEX
  5
524
  8
0
 10
7.072999954223633
 20
-18.17099952697754
 30
26.02499961853027
 70
   192
  0
VERTEX
  5
525
  8
0
 10
7.081999778747559
 20
-19.95700073242188
 30
26.65999984741211
 70
   192
  0
VERTEX
  5
526
  8
0
 10
7.071000099182129
 20
-17.89599990844727
 30
25.90399932861328
 70
   192
  0
VERTEX
  5
527
  8
0
 10
7.092999935150146
 20
-22.03000068664551
 30
27.24200057983398
 70
   192
  0
VERTEX
  5
528
  8
0
 10
0.1000000014901161
 20
-27.80599975585938
 30
27.99099922180176
 70
   192
  0
VERTEX
  5
529
  8
0
 10
7.113999843597412
 20
-26.02000045776367
 30
27.88999938964844
 70
   192
  0
VERTEX
  5
52A
  8
0
 10
7.11899995803833
 20
-27.01300048828125
 30
27.94499969482422
 70
   192
  0
VERTEX
  5
52B
  8
0
 10
7.103000164031982
 20
-24.01399993896484
 30
27.63800048828125
 70
   192
  0
VERTEX
  5
52C
  8
0
 10
7.097000122070312
 20
-22.75699996948242
 30
27.38699913024902
 70
   192
  0
VERTEX
  5
52D
  8
0
 10
7.099999904632568
 20
-23.44899940490723
 30
27.52599906921387
 70
   192
  0
VERTEX
  5
52E
  8
0
 10
0.1000000014901161
 20
-28.5
 30
28.0
 70
   192
  0
VERTEX
  5
52F
  8
0
 10
7.124000072479248
 20
-27.89599990844727
 30
27.99300003051758
 70
   192
  0
VERTEX
  5
530
  8
0
 10
7.124000072479248
 20
-27.80599975585938
 30
27.98900032043457
 70
   192
  0
VERTEX
  5
531
  8
0
 10
7.127999782562256
 20
-28.5
 30
28.0
 70
   192
  0
VERTEX
  5
532
  8
0
 62
     9
 10
0.0
 20
0.0
 30
0.0
 70
   128
 71
     3
 72
     2
 73
     1
  0
VERTEX
  5
533
  8
0
 62
     9
 10
0.0
 20
0.0
 30
0.0
 70
   128
 71
     6
 72
     5
 73
     4
  0
VERTEX
  5
534
  8
0
 62
     9
 10
0.0
 20
0.0
 30
0.0
 70
   128
 71
     4
 72
     7
 73
     6
  0
VERTEX
  5
535
  8
0
 62
     9
 10
0.0
 20
0.0
 30
0.0
 70
   128
 71
     7
 72
     8
 73
     6
  0
VERTEX
  5
536
  8
0
 62
     9
 10
0.0
 20
0.0
 30
0.0
 70
   128
 71
     5
 72
     3
 73
     4
  0
VERTEX
  5
537
  8
0
 62
     9
 10
0.0
 20
0.0
 30
0.0
 70
   128
 71
    11
 72
    10
 73
     9
  0
VERTEX
  5
538
  8
0
 62
     9
 10
0.0
 20
0.0
 30
0.0
 70
   128
 71
    12
 72
     7
 73
     9
  0
VERTEX
  5
539
  8
0
 62
     9
 10
0.0
 20
0.0
 30
0.0
 70
   128
 71
     9
 72
    10
 73
    12
  0
VERTEX
  5
53A
  8
0
 62
     9
 10
0.0
 20
0.0
 30
0.0
 70
   128
 71
    14
 72
    13
 73
     7
  0
VERTEX
  5
53B
  8
0
 62
     9
 10
0.0
 20
0.0
 30
0.0
 70
   128
 71
     7
 72
    12
 73
    14
  0
VERTEX
  5
53C
  8
0
 62
     9
 10
0.0
 20
0.0
 30
0.0
 70
   128
 71
    13
 72
    15
 73
     7
  0
VERTEX
  5
53D
  8
0
 62
     9
 10
0.0
 20
0.0
 30
0.0
 70
   128
 71
    18
 72
    17
 73
    16
  0
VERTEX
  5
53E
  8
0
 62
     9
 10
0.0
 20
0.0
 30
0.0
 70
   128
 71
    16
 72
    19
 73
    18
  0
VERTEX
  5
53F
  8
0
 62
     9
 10
0.0
 20
0.0
 30
0.0
 70
   128
 71
    17
 72
    20
 73
     9
  0
VERTEX
  5
540
  8
0
 62
     9
 10
0.0
 20
0.0
 30
0.0
 70
   128
 71
     9
 72
    16
 73
    17
  0
VERTEX
  5
541
  8
0
 62
     9
 10
0.0
 20
0.0
 30
0.0
 70
   128
 71
    20
 72
    21
 73
     9
  0
VERTEX
  5
542
  8
0
 62
     9
 10
0.0
 20
0.0
 30
0.0
 70
   128
 71
    23
 72
    16
 73
    22
  0
VERTEX
  5
543
  8
0
 62
     9
 10
0.0
 20
0.0
 30
0.0
 70
   128
 71
    23
 72
    24
 73
    16
  0
VERTEX
  5
544
  8
0
 62
     9
 10
0.0
 20
0.0
 30
0.0
 70
   128
 71
    22
 72
    25
 73
    23
  0
VERTEX
  5
545
  8
0
 62
     9
 10
0.0
 20
0.0
 30
0.0
 70
   128
 71
    24
 72
    26
 73
    16
  0
VERTEX
  5
546
  8
0
 62
     9
 10
0.0
 20
0.0
 30
0.0
 70
   128
 71
    28
 72
    22
 73
    27
  0
VERTEX
  5
547
  8
0
 62
     9
 10
0.0
 20
0.0
 30
0.0
 70
   128
 71
    27
 72
    29
 73
    28
  0
VERTEX
  5
548
  8
0
 62
     9
 10
0.0
 20
0.0
 30
0.0
 70
   128
 71
    27
 72
    30
 73
    29
  0
VERTEX
  5
549
  8
0
 62
     9
 10
0.0
 20
0.0
 30
0.0
 70
   128
 71
    32
 72
    31
 73
    22
  0
VERTEX
  5
54A
  8
0
 62
     9
 10
0.0
 20
0.0
 30
0.0
 70
   128
 71
    22
 72
    28
 73
    32
  0
VERTEX
  5
54B
  8
0
 62
     9
 10
0.0
 20
0.0
 30
0.0
 70
   128
 71
    31
 72
    33
 73
    22
  0
VERTEX
  5
54C
  8
0
 62
     9
 10
0.0
 20
0.0
 30
0.0
 70
   128
 71
    35
 72
    34
 73
    27
  0
VERTEX
  5
54D
  8
0
 62
     9
 10
0.0
 20
0.0
 30
0.0
 70
   128
 71
    27
 72
    36
 73
    35
  0
VERTEX
  5
54E
  8
0
 62
     9
 10
0.0
 20
0.0
 30
0.0
 70
   128
 71
    34
 72
    37
 73
    27
  0
VERTEX
  5
54F
  8
0
 62
     9
 10
0.0
 20
0.0
 30
0.0
 70
   128
 71
    36
 72
    38
 73
    35
  0
VERTEX
  5
550
  8
0
 62
     9
 10
0.0
 20
0.0
 30
0.0
 70
   128
 71
    36
 72
    39
 73
    38
  0
VERTEX
  5
551
  8
0
 62
     9
 10
0.0
 20
0.0
 30
0.0
 70
   128
 71
    42
 72
    41
 73
    40
  0
VERTEX
  5
552
  8
0
 62
     9
 10
0.0
 20
0.0
 30
0.0
 70
   128
 71
    43
 72
    36
 73
    40
  0
VERTEX
  5
553
  8
0
 62
     9
 10
0.0
 20
0.0
 30
0.0
 70
   128
 71
    45
 72
    44
 73
    36
  0
VERTEX
  5
554
  8
0
 62
     9
 10
0.0
 20
0.0
 30
0.0
 70
   128
 71
    36
 72
    43
 73
    45
  0
VERTEX
  5
555
  8
0
 62
     9
 10
0.0
 20
0.0
 30
0.0
 70
   128
 71
    40
 72
    41
 73
    43
  0
VERTEX
  5
556
  8
0
 62
     9
 10
0.0
 20
0.0
 30
0.0
 70
   128
 71
    48
 72
    47
 73
    46
  0
VERTEX
  5
557
  8
0
 62
     9
 10
0.0
 20
0.0
 30
0.0
 70
   128
 71
    47
 72
    49
 73
    40
  0
VERTEX
  5
558
  8
0
 62
     9
 10
0.0
 20
0.0
 30
0.0
 70
   128
 71
    49
 72
    50
 73
    40
  0
VERTEX
  5
559
  8
0
 62
     9
 10
0.0
 20
0.0
 30
0.0
 70
   128
 71
    40
 72
    46
 73
    47
  0
VERTEX
  5
55A
  8
0
 62
     9
 10
0.0
 20
0.0
 30
0.0
 70
   128
 71
    46
 72
    51
 73
    48
  0
VERTEX
  5
55B
  8
0
 62
     9
 10
0.0
 20
0.0
 30
0.0
 70
   128
 71
    53
 72
    52
 73
    46
  0
VERTEX
  5
55C
  8
0
 62
     9
 10
0.0
 20
0.0
 30
0.0
 70
   128
 71
    52
 72
    54
 73
    46
  0
VERTEX
  5
55D
  8
0
 62
     9
 10
0.0
 20
0.0
 30
0.0
 70
   128
 71
    54
 72
    55
 73
    46
  0
VERTEX
  5
55E
  8
0
 62
     9
 10
0.0
 20
0.0
 30
0.0
 70
   128
 71
    46
 72
    56
 73
    53
  0
VERTEX
  5
55F
  8
0
 62
     9
 10
0.0
 20
0.0
 30
0.0
 70
   128
 71
    58
 72
    56
 73
    57
  0
VERTEX
  5
560
  8
0
 62
     9
 10
0.0
 20
0.0
 30
0.0
 70
   128
 71
    57
 72
    59
 73
    58
  0
VERTEX
  5
561
  8
0
 62
     9
 10
0.0
 20
0.0
 30
0.0
 70
   128
 71
    57
 72
    60
 73
    59
  0
VERTEX
  5
562
  8
0
 62
     9
 10
0.0
 20
0.0
 30
0.0
 70
   128
 71
    62
 72
    61
 73
    56
  0
VERTEX
  5
563
  8
0
 62
     9
 10
0.0
 20
0.0
 30
0.0
 70
   128
 71
    56
 72
    58
 73
    62
  0
VERTEX
  5
564
  8
0
 62
     9
 10
0.0
 20
0.0
 30
0.0
 70
   128
 71
    61
 72
    63
 73
    56
  0
VERTEX
  5
565
  8
0
 62
     9
 10
0.0
 20
0.0
 30
0.0
 70
   128
 71
    65
 72
    57
 73
    64
  0
VERTEX
  5
566
  8
0
 62
     9
 10
0.0
 20
0.0
 30
0.0
 70
   128
 71
    65
 72
    66
 73
    57
  0
VERTEX
  5
567
  8
0
 62
     9
 10
0.0
 20
0.0
 30
0.0
 70
   128
 71
    64
 72
    67
 73
    65
  0
VERTEX
  5
568
  8
0
 62
     9
 10
0.0
 20
0.0
 30
0.0
 70
   128
 71
    66
 72
    68
 73
    57
  0
VERTEX
  5
569
  8
0
 62
     9
 10
0.0
 20
0.0
 30
0.0
 70
   128
 71
    71
 72
    70
 73
    69
  0
VERTEX
  5
56A
  8
0
 62
     9
 10
0.0
 20
0.0
 30
0.0
 70
   128
 71
    72
 72
    64
 73
    69
  0
VERTEX
  5
56B
  8
0
 62
     9
 10
0.0
 20
0.0
 30
0.0
 70
   128
 71
    69
 72
    70
 73
    72
  0
VERTEX
  5
56C
  8
0
 62
     9
 10
0.0
 20
0.0
 30
0.0
 70
   128
 71
    74
 72
    73
 73
    64
  0
VERTEX
  5
56D
  8
0
 62
     9
 10
0.0
 20
0.0
 30
0.0
 70
   128
 71
    64
 72
    72
 73
    74
  0
VERTEX
  5
56E
  8
0
 62
     9
 10
0.0
 20
0.0
 30
0.0
 70
   128
 71
    73
 72
    75
 73
    64
  0
VERTEX
  5
56F
  8
0
 62
     9
 10
0.0
 20
0.0
 30
0.0
 70
   128
 71
    77
 72
    76
 73
    69
  0
VERTEX
  5
570
  8
0
 62
     9
 10
0.0
 20
0.0
 30
0.0
 70
   128
 71
    69
 72
    78
 73
    77
  0
VERTEX
  5
571
  8
0
 62
     9
 10
0.0
 20
0.0
 30
0.0
 70
   128
 71
    76
 72
    79
 73
    69
  0
VERTEX
  5
572
  8
0
 62
     9
 10
0.0
 20
0.0
 30
0.0
 70
   128
 71
    78
 72
    80
 73
    77
  0
VERTEX
  5
573
  8
0
 62
     9
 10
0.0
 20
0.0
 30
0.0
 70
   128
 71
    82
 72
    78
 73
    81
  0
VERTEX
  5
574
  8
0
 62
     9
 10
0.0
 20
0.0
 30
0.0
 70
   128
 71
    84
 72
    83
 73
    78
  0
VERTEX
  5
575
  8
0
 62
     9
 10
0.0
 20
0.0
 30
0.0
 70
   128
 71
    83
 72
    85
 73
    78
  0
VERTEX
  5
576
  8
0
 62
     9
 10
0.0
 20
0.0
 30
0.0
 70
   128
 71
    78
 72
    82
 73
    84
  0
VERTEX
  5
577
  8
0
 62
     9
 10
0.0
 20
0.0
 30
0.0
 70
   128
 71
    81
 72
    86
 73
    82
  0
VERTEX
  5
578
  8
0
 62
     9
 10
0.0
 20
0.0
 30
0.0
 70
   128
 71
    89
 72
    88
 73
    87
  0
VERTEX
  5
579
  8
0
 62
     9
 10
0.0
 20
0.0
 30
0.0
 70
   128
 71
    88
 72
    90
 73
    81
  0
VERTEX
  5
57A
  8
0
 62
     9
 10
0.0
 20
0.0
 30
0.0
 70
   128
 71
    92
 72
    91
 73
    81
  0
VERTEX
  5
57B
  8
0
 62
     9
 10
0.0
 20
0.0
 30
0.0
 70
   128
 71
    81
 72
    90
 73
    92
  0
VERTEX
  5
57C
  8
0
 62
     9
 10
0.0
 20
0.0
 30
0.0
 70
   128
 71
    81
 72
    87
 73
    88
  0
VERTEX
  5
57D
  8
0
 62
     9
 10
0.0
 20
0.0
 30
0.0
 70
   128
 71
    94
 72
    87
 73
    93
  0
VERTEX
  5
57E
  8
0
 62
     9
 10
0.0
 20
0.0
 30
0.0
 70
   128
 71
    96
 72
    95
 73
    87
  0
VERTEX
  5
57F
  8
0
 62
     9
 10
0.0
 20
0.0
 30
0.0
 70
   128
 71
    95
 72
    97
 73
    87
  0
VERTEX
  5
580
  8
0
 62
     9
 10
0.0
 20
0.0
 30
0.0
 70
   128
 71
    87
 72
    94
 73
    96
  0
VERTEX
  5
581
  8
0
 62
     9
 10
0.0
 20
0.0
 30
0.0
 70
   128
 71
    93
 72
    98
 73
    94
  0
VERTEX
  5
582
  8
0
 62
     9
 10
0.0
 20
0.0
 30
0.0
 70
   128
 71
   101
 72
   100
 73
    99
  0
VERTEX
  5
583
  8
0
 62
     9
 10
0.0
 20
0.0
 30
0.0
 70
   128
 71
   100
 72
   102
 73
    93
  0
VERTEX
  5
584
  8
0
 62
     9
 10
0.0
 20
0.0
 30
0.0
 70
   128
 71
   104
 72
   103
 73
    93
  0
VERTEX
  5
585
  8
0
 62
     9
 10
0.0
 20
0.0
 30
0.0
 70
   128
 71
    93
 72
   102
 73
   104
  0
VERTEX
  5
586
  8
0
 62
     9
 10
0.0
 20
0.0
 30
0.0
 70
   128
 71
    93
 72
    99
 73
   100
  0
VERTEX
  5
587
  8
0
 62
     9
 10
0.0
 20
0.0
 30
0.0
 70
   128
 71
   106
 72
    99
 73
   105
  0
VERTEX
  5
588
  8
0
 62
     9
 10
0.0
 20
0.0
 30
0.0
 70
   128
 71
   106
 72
   107
 73
    99
  0
VERTEX
  5
589
  8
0
 62
     9
 10
0.0
 20
0.0
 30
0.0
 70
   128
 71
   105
 72
   108
 73
   106
  0
VERTEX
  5
58A
  8
0
 62
     9
 10
0.0
 20
0.0
 30
0.0
 70
   128
 71
    99
 72
   107
 73
   101
  0
VERTEX
  5
58B
  8
0
 62
     9
 10
0.0
 20
0.0
 30
0.0
 70
   128
 71
    93
 72
   103
 73
    98
  0
VERTEX
  5
58C
  8
0
 62
     9
 10
0.0
 20
0.0
 30
0.0
 70
   128
 71
    87
 72
    97
 73
    89
  0
VERTEX
  5
58D
  8
0
 62
     9
 10
0.0
 20
0.0
 30
0.0
 70
   128
 71
    81
 72
    91
 73
    86
  0
VERTEX
  5
58E
  8
0
 62
     9
 10
0.0
 20
0.0
 30
0.0
 70
   128
 71
    78
 72
    85
 73
    80
  0
VERTEX
  5
58F
  8
0
 62
     9
 10
0.0
 20
0.0
 30
0.0
 70
   128
 71
    69
 72
    79
 73
    71
  0
VERTEX
  5
590
  8
0
 62
     9
 10
0.0
 20
0.0
 30
0.0
 70
   128
 71
    64
 72
    75
 73
    67
  0
VERTEX
  5
591
  8
0
 62
     9
 10
0.0
 20
0.0
 30
0.0
 70
   128
 71
    57
 72
    68
 73
    60
  0
VERTEX
  5
592
  8
0
 62
     9
 10
0.0
 20
0.0
 30
0.0
 70
   128
 71
    56
 72
    63
 73
    53
  0
VERTEX
  5
593
  8
0
 62
     9
 10
0.0
 20
0.0
 30
0.0
 70
   128
 71
    46
 72
    55
 73
    51
  0
VERTEX
  5
594
  8
0
 62
     9
 10
0.0
 20
0.0
 30
0.0
 70
   128
 71
    40
 72
    50
 73
    42
  0
VERTEX
  5
595
  8
0
 62
     9
 10
0.0
 20
0.0
 30
0.0
 70
   128
 71
    36
 72
    44
 73
    39
  0
VERTEX
  5
596
  8
0
 62
     9
 10
0.0
 20
0.0
 30
0.0
 70
   128
 71
    27
 72
    37
 73
    30
  0
VERTEX
  5
597
  8
0
 62
     9
 10
0.0
 20
0.0
 30
0.0
 70
   128
 71
    22
 72
    33
 73
    25
  0
VERTEX
  5
598
  8
0
 62
     9
 10
0.0
 20
0.0
 30
0.0
 70
   128
 71
    16
 72
    26
 73
    19
  0
VERTEX
  5
599
  8
0
 62
     9
 10
0.0
 20
0.0
 30
0.0
 70
   128
 71
     9
 72
    21
 73
    11
  0
VERTEX
  5
59A
  8
0
 62
     9
 10
0.0
 20
0.0
 30
0.0
 70
   128
 71
     7
 72
    15
 73
     8
  0
VERTEX
  5
59B
  8
0
 62
     9
 10
0.0
 20
0.0
 30
0.0
 70
   128
 71
     1
 72
     4
 73
     3
  0
SEQEND
  5
59C
  8
0
 62
     9
  0
ENDBLK
  5
59F
  8
0
  0
BLOCK
  8
0
  2
E3_NODE_19_
 70
     0
 10
0.0
 20
0.0
 30
0.0
  3
E3_NODE_19_
  1

  0
POLYLINE
  5
5A1
  8
0
 62
     9
 66
     1
 10
0.0
 20
0.0
 30
0.0
 70
    64
 71
   180
 72
   178
  0
VERTEX
  5
5A2
  8
0
 10
7.126999855041504
 20
-79.53299713134766
 30
27.99900054931641
 70
   192
  0
VERTEX
  5
5A3
  8
0
 10
10.60900020599365
 20
-79.55400085449219
 30
31.48299980163574
 70
   192
  0
VERTEX
  5
5A4
  8
0
 10
10.60700035095215
 20
-79.86499786376953
 30
31.48200035095215
 70
   192
  0
VERTEX
  5
5A5
  8
0
 10
10.59700012207031
 20
-81.8489990234375
 30
31.39699935913086
 70
   192
  0
VERTEX
  5
5A6
  8
0
 10
7.117000102996826
 20
-81.47899627685547
 30
27.93000030517578
 70
   192
  0
VERTEX
  5
5A7
  8
0
 10
7.124000072479248
 20
-80.19400024414062
 30
27.97500038146973
 70
   192
  0
VERTEX
  5
5A8
  8
0
 10
10.58899974822998
 20
-83.52899932861328
 30
31.2189998626709
 70
   192
  0
VERTEX
  5
5A9
  8
0
 10
7.107999801635742
 20
-83.06700134277344
 30
27.76099967956543
 70
   192
  0
VERTEX
  5
5AA
  8
0
 10
7.105999946594238
 20
-83.4260025024414
 30
27.72299957275391
 70
   192
  0
VERTEX
  5
5AB
  8
0
 10
10.58500003814697
 20
-84.45899963378906
 30
31.0930004119873
 70
   192
  0
VERTEX
  5
5AC
  8
0
 10
10.57499980926514
 20
-86.41400146484375
 30
30.7189998626709
 70
   192
  0
VERTEX
  5
5AD
  8
0
 10
7.097000122070312
 20
-85.24500274658203
 30
27.40099906921387
 70
   192
  0
VERTEX
  5
5AE
  8
0
 10
10.58800029754639
 20
-83.83000183105469
 30
31.1870002746582
 70
   192
  0
VERTEX
  5
5AF
  8
0
 10
7.096000194549561
 20
-85.35199737548828
 30
27.38199996948242
 70
   192
  0
VERTEX
  5
5B0
  8
0
 10
7.090000152587891
 20
-86.51300048828125
 30
27.09099960327148
 70
   192
  0
VERTEX
  5
5B1
  8
0
 10
10.56999969482422
 20
-87.40299987792969
 30
30.4640007019043
 70
   192
  0
VERTEX
  5
5B2
  8
0
 10
10.56599998474121
 20
-88.34100341796875
 30
30.22200012207031
 70
   192
  0
VERTEX
  5
5B3
  8
0
 10
7.085999965667725
 20
-87.2490005493164
 30
26.9060001373291
 70
   192
  0
VERTEX
  5
5B4
  8
0
 10
10.55599975585938
 20
-90.23400115966797
 30
29.60300064086914
 70
   192
  0
VERTEX
  5
5B5
  8
0
 10
7.077000141143799
 20
-89.10700225830078
 30
26.29999923706055
 70
   192
  0
VERTEX
  5
5B6
  8
0
 10
10.55200004577637
 20
-91.1449966430664
 30
29.24099922180176
 70
   192
  0
VERTEX
  5
5B7
  8
0
 10
7.072999954223633
 20
-89.83999633789062
 30
26.00300025939941
 70
   192
  0
VERTEX
  5
5B8
  8
0
 10
10.54699993133545
 20
-92.09300231933594
 30
28.86300086975098
 70
   192
  0
VERTEX
  5
5B9
  8
0
 10
7.066999912261963
 20
-90.91699981689453
 30
25.5669994354248
 70
   192
  0
VERTEX
  5
5BA
  8
0
 10
7.071000099182129
 20
-90.10199737548828
 30
25.89699935913086
 70
   192
  0
VERTEX
  5
5BB
  8
0
 10
10.53800010681152
 20
-93.91300201416016
 30
27.99900054931641
 70
   192
  0
VERTEX
  5
5BC
  8
0
 10
7.058000087738037
 20
-92.6709976196289
 30
24.70899963378906
 70
   192
  0
VERTEX
  5
5BD
  8
0
 10
10.53600025177002
 20
-94.46800231933594
 30
27.70700073242188
 70
   192
  0
VERTEX
  5
5BE
  8
0
 10
10.53400039672852
 20
-94.73400115966797
 30
27.55299949645996
 70
   192
  0
VERTEX
  5
5BF
  8
0
 10
7.056000232696533
 20
-93.03099822998047
 30
24.5
 70
   192
  0
VERTEX
  5
5C0
  8
0
 10
7.040999889373779
 20
-95.9739990234375
 30
22.64100074768066
 70
   192
  0
VERTEX
  5
5C1
  8
0
 10
7.047999858856201
 20
-94.61499786376953
 30
23.55900001525879
 70
   192
  0
VERTEX
  5
5C2
  8
0
 10
7.048999786376953
 20
-94.35900115966797
 30
23.73200035095215
 70
   192
  0
VERTEX
  5
5C3
  8
0
 10
10.51799964904785
 20
-98.05699920654297
 30
25.43600082397461
 70
   192
  0
VERTEX
  5
5C4
  8
0
 10
7.040999889373779
 20
-95.99199676513672
 30
22.62599945068359
 70
   192
  0
VERTEX
  5
5C5
  8
0
 10
10.52700042724609
 20
-96.19200134277344
 30
26.70499992370605
 70
   192
  0
VERTEX
  5
5C6
  8
0
 10
10.51900005340576
 20
-97.84600067138672
 30
25.59799957275391
 70
   192
  0
VERTEX
  5
5C7
  8
0
 10
10.51099967956543
 20
-99.43000030517578
 30
24.38699913024902
 70
   192
  0
VERTEX
  5
5C8
  8
0
 10
10.50399971008301
 20
-100.9390029907227
 30
23.07200050354004
 70
   192
  0
VERTEX
  5
5C9
  8
0
 10
7.026999950408936
 20
-98.6259994506836
 30
20.43400001525879
 70
   192
  0
VERTEX
  5
5CA
  8
0
 10
7.032999992370605
 20
-97.50800323486328
 30
21.44099998474121
 70
   192
  0
VERTEX
  5
5CB
  8
0
 10
10.50300025939941
 20
-101.0970001220703
 30
22.91600036621094
 70
   192
  0
VERTEX
  5
5CC
  8
0
 10
7.026000022888184
 20
-98.68900299072266
 30
20.37700080871582
 70
   192
  0
VERTEX
  5
5CD
  8
0
 10
7.025000095367432
 20
-98.9540023803711
 30
20.13800048828125
 70
   192
  0
VERTEX
  5
5CE
  8
0
 10
10.49699974060059
 20
-102.3720016479492
 30
21.65399932861328
 70
   192
  0
VERTEX
  5
5CF
  8
0
 10
7.01800012588501
 20
-100.3050003051758
 30
18.73999977111816
 70
   192
  0
VERTEX
  5
5D0
  8
0
 10
10.48999977111816
 20
-103.8040008544922
 30
20.01700019836426
 70
   192
  0
VERTEX
  5
5D1
  8
0
 10
7.013000011444092
 20
-101.0950012207031
 30
17.79800033569336
 70
   192
  0
VERTEX
  5
5D2
  8
0
 10
10.49499988555908
 20
-102.8000030517578
 30
21.1919994354248
 70
   192
  0
VERTEX
  5
5D3
  8
0
 10
10.48900032043457
 20
-104.0940017700195
 30
19.67700004577637
 70
   192
  0
VERTEX
  5
5D4
  8
0
 10
10.48299980163574
 20
-105.2880020141602
 30
18.08499908447266
 70
   192
  0
VERTEX
  5
5D5
  8
0
 10
7.007999897003174
 20
-102.0029983520508
 30
16.63500022888184
 70
   192
  0
VERTEX
  5
5D6
  8
0
 10
7.004000186920166
 20
-102.6949996948242
 30
15.68400001525879
 70
   192
  0
VERTEX
  5
5D7
  8
0
 10
10.47900009155273
 20
-106.109001159668
 30
16.83300018310547
 70
   192
  0
VERTEX
  5
5D8
  8
0
 10
7.001999855041504
 20
-103.1449966430664
 30
14.96700000762939
 70
   192
  0
VERTEX
  5
5D9
  8
0
 10
7.011000156402588
 20
-101.5540008544922
 30
17.25200080871582
 70
   192
  0
VERTEX
  5
5DA
  8
0
 10
10.47700023651123
 20
-106.379997253418
 30
16.42000007629395
 70
   192
  0
VERTEX
  5
5DB
  8
0
 10
10.47299957275391
 20
-107.3679962158203
 30
14.68000030517578
 70
   192
  0
VERTEX
  5
5DC
  8
0
 10
6.993000030517578
 20
-104.6370010375977
 30
12.33500003814697
 70
   192
  0
VERTEX
  5
5DD
  8
0
 10
6.998000144958496
 20
-103.7249984741211
 30
14.04199981689453
 70
   192
  0
VERTEX
  5
5DE
  8
0
 10
10.47000026702881
 20
-108.0120010375977
 30
13.35799980163574
 70
   192
  0
VERTEX
  5
5DF
  8
0
 10
6.992000102996826
 20
-104.8410034179688
 30
11.88000011444092
 70
   192
  0
VERTEX
  5
5E0
  8
0
 10
6.993000030517578
 20
-104.6539993286133
 30
12.29699993133545
 70
   192
  0
VERTEX
  5
5E1
  8
0
 10
6.98799991607666
 20
-105.427001953125
 30
10.57199954986572
 70
   192
  0
VERTEX
  5
5E2
  8
0
 10
10.4680004119873
 20
-108.2509994506836
 30
12.86800003051758
 70
   192
  0
VERTEX
  5
5E3
  8
0
 10
10.46399974822998
 20
-109.2210006713867
 30
10.43599987030029
 70
   192
  0
VERTEX
  5
5E4
  8
0
 10
6.984000205993652
 20
-106.0940017700195
 30
8.76200008392334
 70
   192
  0
VERTEX
  5
5E5
  8
0
 10
10.46700000762939
 20
-108.5019989013672
 30
12.29199981689453
 70
   192
  0
VERTEX
  5
5E6
  8
0
 10
10.46199989318848
 20
-109.4589996337891
 30
9.682000160217285
 70
   192
  0
VERTEX
  5
5E7
  8
0
 10
6.982999801635742
 20
-106.1370010375977
 30
8.61400032043457
 70
   192
  0
VERTEX
  5
5E8
  8
0
 10
10.46100044250488
 20
-109.8199996948242
 30
8.539999961853027
 70
   192
  0
VERTEX
  5
5E9
  8
0
 10
6.980999946594238
 20
-106.4499969482422
 30
7.539999961853027
 70
   192
  0
VERTEX
  5
5EA
  8
0
 10
6.980000019073486
 20
-106.6330032348633
 30
6.913000106811523
 70
   192
  0
VERTEX
  5
5EB
  8
0
 10
10.45800018310547
 20
-110.2990036010742
 30
6.60699987411499
 70
   192
  0
VERTEX
  5
5EC
  8
0
 10
6.97700023651123
 20
-107.0029983520508
 30
5.222000122070312
 70
   192
  0
VERTEX
  5
5ED
  8
0
 10
10.45800018310547
 20
-110.4329986572266
 30
5.869999885559082
 70
   192
  0
VERTEX
  5
5EE
  8
0
 10
6.974999904632568
 20
-107.322998046875
 30
3.140000104904175
 70
   192
  0
VERTEX
  5
5EF
  8
0
 10
6.97700023651123
 20
-107.0429992675781
 30
5.035999774932861
 70
   192
  0
VERTEX
  5
5F0
  8
0
 10
10.45699977874756
 20
-110.6569976806641
 30
4.639999866485596
 70
   192
  0
VERTEX
  5
5F1
  8
0
 10
10.45600032806396
 20
-110.7919998168945
 30
3.476000070571899
 70
   192
  0
VERTEX
  5
5F2
  8
0
 10
10.45499992370605
 20
-110.8899993896484
 30
2.638000011444092
 70
   192
  0
VERTEX
  5
5F3
  8
0
 10
6.974999904632568
 20
-107.370002746582
 30
2.54200005531311
 70
   192
  0
VERTEX
  5
5F4
  8
0
 10
6.973999977111816
 20
-107.4349975585938
 30
1.720000028610229
 70
   192
  0
VERTEX
  5
5F5
  8
0
 10
10.45499992370605
 20
-110.9369964599609
 30
2.0
 70
   192
  0
VERTEX
  5
5F6
  8
0
 10
10.45499992370605
 20
-110.9390029907227
 30
1.934999942779541
 70
   192
  0
VERTEX
  5
5F7
  8
0
 10
10.45499992370605
 20
-111.0009994506836
 30
0.0189999993890524
 70
   192
  0
VERTEX
  5
5F8
  8
0
 10
6.973999977111816
 20
-107.4919967651367
 30
-0.6809999942779541
 70
   192
  0
VERTEX
  5
5F9
  8
0
 10
6.973999977111816
 20
-107.4729995727539
 30
1.235000014305115
 70
   192
  0
VERTEX
  5
5FA
  8
0
 10
10.45499992370605
 20
-110.9390029907227
 30
-1.968999981880188
 70
   192
  0
VERTEX
  5
5FB
  8
0
 10
6.973999977111816
 20
-107.4250030517578
 30
-1.781000018119812
 70
   192
  0
VERTEX
  5
5FC
  8
0
 10
10.45499992370605
 20
-110.9359970092773
 30
-2.003999948501587
 70
   192
  0
VERTEX
  5
5FD
  8
0
 10
10.45600032806396
 20
-110.7519989013672
 30
-3.953000068664551
 70
   192
  0
VERTEX
  5
5FE
  8
0
 10
6.974999904632568
 20
-107.3679962158203
 30
-2.716000080108643
 70
   192
  0
VERTEX
  5
5FF
  8
0
 10
6.974999904632568
 20
-107.3789978027344
 30
-2.54200005531311
 70
   192
  0
VERTEX
  5
600
  8
0
 10
10.45800018310547
 20
-110.4390029907227
 30
-5.920000076293945
 70
   192
  0
VERTEX
  5
601
  8
0
 10
6.97700023651123
 20
-107.0899963378906
 30
-4.77299976348877
 70
   192
  0
VERTEX
  5
602
  8
0
 10
6.978000164031982
 20
-106.9869995117188
 30
-5.26200008392334
 70
   192
  0
VERTEX
  5
603
  8
0
 10
10.45800018310547
 20
-110.4369964599609
 30
-5.928999900817871
 70
   192
  0
VERTEX
  5
604
  8
0
 10
10.46000003814697
 20
-109.995002746582
 30
-7.894999980926514
 70
   192
  0
VERTEX
  5
605
  8
0
 10
6.980000019073486
 20
-106.6630020141602
 30
-6.796999931335449
 70
   192
  0
VERTEX
  5
606
  8
0
 10
6.980999946594238
 20
-106.4469985961914
 30
-7.539999961853027
 70
   192
  0
VERTEX
  5
607
  8
0
 10
10.46100044250488
 20
-109.8290023803711
 30
-8.508000373840332
 70
   192
  0
VERTEX
  5
608
  8
0
 10
10.46300029754639
 20
-109.4359970092773
 30
-9.756999969482422
 70
   192
  0
VERTEX
  5
609
  8
0
 10
6.984000205993652
 20
-106.1169967651367
 30
-8.680000305175781
 70
   192
  0
VERTEX
  5
60A
  8
0
 10
6.98799991607666
 20
-105.3720016479492
 30
-10.70600032806396
 70
   192
  0
VERTEX
  5
60B
  8
0
 10
6.984000205993652
 20
-106.088996887207
 30
-8.777999877929688
 70
   192
  0
VERTEX
  5
60C
  8
0
 10
10.46399974822998
 20
-109.2289962768555
 30
-10.41100025177002
 70
   192
  0
VERTEX
  5
60D
  8
0
 10
6.992000102996826
 20
-104.8130035400391
 30
-11.92899990081787
 70
   192
  0
VERTEX
  5
60E
  8
0
 10
10.46700000762939
 20
-108.5120010375977
 30
-12.26799964904785
 70
   192
  0
VERTEX
  5
60F
  8
0
 10
10.47000026702881
 20
-107.984001159668
 30
-13.41399955749512
 70
   192
  0
VERTEX
  5
610
  8
0
 10
10.4709997177124
 20
-107.6780014038086
 30
-14.07800006866455
 70
   192
  0
VERTEX
  5
611
  8
0
 10
6.99399995803833
 20
-104.5189971923828
 30
-12.57199954986572
 70
   192
  0
VERTEX
  5
612
  8
0
 10
6.993000030517578
 20
-104.6460037231445
 30
-12.29399967193604
 70
   192
  0
VERTEX
  5
613
  8
0
 10
10.47599983215332
 20
-106.7259979248047
 30
-15.83899974822998
 70
   192
  0
VERTEX
  5
614
  8
0
 10
10.47900009155273
 20
-106.0739974975586
 30
-16.88100051879883
 70
   192
  0
VERTEX
  5
615
  8
0
 10
7.001999855041504
 20
-103.1159973144531
 30
-15.01099967956543
 70
   192
  0
VERTEX
  5
616
  8
0
 10
6.999000072479248
 20
-103.5329971313477
 30
-14.36800003051758
 70
   192
  0
VERTEX
  5
617
  8
0
 10
10.48099994659424
 20
-105.6569976806641
 30
-17.54800033569336
 70
   192
  0
VERTEX
  5
618
  8
0
 10
7.00600004196167
 20
-102.4199981689453
 30
-16.08300018310547
 70
   192
  0
VERTEX
  5
619
  8
0
 10
10.48900032043457
 20
-104.1169967651367
 30
-19.64900016784668
 70
   192
  0
VERTEX
  5
61A
  8
0
 10
7.013000011444092
 20
-101.1869964599609
 30
-17.71100044250488
 70
   192
  0
VERTEX
  5
61B
  8
0
 10
7.007999897003174
 20
-102.0019989013672
 30
-16.63500022888184
 70
   192
  0
VERTEX
  5
61C
  8
0
 10
10.48299980163574
 20
-105.3099975585938
 30
-18.05299949645996
 70
   192
  0
VERTEX
  5
61D
  8
0
 10
10.48999977111816
 20
-103.7490005493164
 30
-20.08099937438965
 70
   192
  0
VERTEX
  5
61E
  8
0
 10
7.013999938964844
 20
-101.0540008544922
 30
-17.86199951171875
 70
   192
  0
VERTEX
  5
61F
  8
0
 10
10.49499988555908
 20
-102.8259963989258
 30
-21.16399955749512
 70
   192
  0
VERTEX
  5
620
  8
0
 10
10.5019998550415
 20
-101.4400024414062
 30
-22.59700012207031
 70
   192
  0
VERTEX
  5
621
  8
0
 10
7.026999950408936
 20
-98.65599822998047
 30
-20.4069995880127
 70
   192
  0
VERTEX
  5
622
  8
0
 10
7.019999980926514
 20
-99.84100341796875
 30
-19.24200057983398
 70
   192
  0
VERTEX
  5
623
  8
0
 10
10.50300025939941
 20
-101.0559997558594
 30
-22.94599914550781
 70
   192
  0
VERTEX
  5
624
  8
0
 10
7.027999877929688
 20
-98.38899993896484
 30
-20.66900062561035
 70
   192
  0
VERTEX
  5
625
  8
0
 10
7.026999950408936
 20
-98.6259994506836
 30
-20.43600082397461
 70
   192
  0
VERTEX
  5
626
  8
0
 10
10.50899982452393
 20
-99.95999908447266
 30
-23.94300079345703
 70
   192
  0
VERTEX
  5
627
  8
0
 10
10.51700019836426
 20
-98.38600158691406
 30
-25.20199966430664
 70
   192
  0
VERTEX
  5
628
  8
0
 10
7.035999774932861
 20
-96.83799743652344
 30
-21.98600006103516
 70
   192
  0
VERTEX
  5
629
  8
0
 10
7.040999889373779
 20
-95.93199920654297
 30
-22.64900016784668
 70
   192
  0
VERTEX
  5
62A
  8
0
 10
10.51799964904785
 20
-97.99800109863281
 30
-25.47299957275391
 70
   192
  0
VERTEX
  5
62B
  8
0
 10
10.52499961853027
 20
-96.64099884033203
 30
-26.41900062561035
 70
   192
  0
VERTEX
  5
62C
  8
0
 10
7.045000076293945
 20
-95.197998046875
 30
-23.18600082397461
 70
   192
  0
VERTEX
  5
62D
  8
0
 10
10.53299999237061
 20
-94.94000244140625
 30
-27.44700050354004
 70
   192
  0
VERTEX
  5
62E
  8
0
 10
7.053999900817871
 20
-93.47699737548828
 30
-24.26199913024902
 70
   192
  0
VERTEX
  5
62F
  8
0
 10
7.047999858856201
 20
-94.61100006103516
 30
-23.55200004577637
 70
   192
  0
VERTEX
  5
630
  8
0
 10
7.056000232696533
 20
-92.97599792480469
 30
-24.52700042724609
 70
   192
  0
VERTEX
  5
631
  8
0
 10
10.53499984741211
 20
-94.6729965209961
 30
-27.58600044250488
 70
   192
  0
VERTEX
  5
632
  8
0
 10
10.54199981689453
 20
-93.17500305175781
 30
-28.36700057983398
 70
   192
  0
VERTEX
  5
633
  8
0
 10
7.063000202178955
 20
-91.68399810791016
 30
-25.20999908447266
 70
   192
  0
VERTEX
  5
634
  8
0
 10
7.072999954223633
 20
-89.8290023803711
 30
-26.02499961853027
 70
   192
  0
VERTEX
  5
635
  8
0
 10
7.071000099182129
 20
-90.10399627685547
 30
-25.90399932861328
 70
   192
  0
VERTEX
  5
636
  8
0
 10
10.55200004577637
 20
-91.10399627685547
 30
-29.26600074768066
 70
   192
  0
VERTEX
  5
637
  8
0
 10
7.072999954223633
 20
-89.80699920654297
 30
-26.03300094604492
 70
   192
  0
VERTEX
  5
638
  8
0
 10
10.55099964141846
 20
-91.3479995727539
 30
-29.17600059509277
 70
   192
  0
VERTEX
  5
639
  8
0
 10
10.5600004196167
 20
-89.45999908447266
 30
-29.87199974060059
 70
   192
  0
VERTEX
  5
63A
  8
0
 10
10.56999969482422
 20
-87.4280014038086
 30
-30.47299957275391
 70
   192
  0
VERTEX
  5
63B
  8
0
 10
7.090000152587891
 20
-86.447998046875
 30
-27.11000061035156
 70
   192
  0
VERTEX
  5
63C
  8
0
 10
7.083000183105469
 20
-87.91999816894531
 30
-26.70400047302246
 70
   192
  0
VERTEX
  5
63D
  8
0
 10
10.57100009918213
 20
-87.33300018310547
 30
-30.4950008392334
 70
   192
  0
VERTEX
  5
63E
  8
0
 10
10.57999992370605
 20
-85.48999786376953
 30
-30.91200065612793
 70
   192
  0
VERTEX
  5
63F
  8
0
 10
7.097000122070312
 20
-85.24299621582031
 30
-27.38699913024902
 70
   192
  0
VERTEX
  5
640
  8
0
 10
7.092999935150146
 20
-85.97000122070312
 30
-27.24200057983398
 70
   192
  0
VERTEX
  5
641
  8
0
 10
7.103000164031982
 20
-83.98600006103516
 30
-27.63800048828125
 70
   192
  0
VERTEX
  5
642
  8
0
 10
10.58899974822998
 20
-83.52200317382812
 30
-31.22800064086914
 70
   192
  0
VERTEX
  5
643
  8
0
 10
7.107999801635742
 20
-83.01100158691406
 30
-27.76099967956543
 70
   192
  0
VERTEX
  5
644
  8
0
 10
10.58899974822998
 20
-83.46800231933594
 30
-31.23299980163574
 70
   192
  0
VERTEX
  5
645
  8
0
 10
10.59899997711182
 20
-81.53099822998047
 30
-31.41900062561035
 70
   192
  0
VERTEX
  5
646
  8
0
 10
7.113999843597412
 20
-81.9800033569336
 30
-27.88999938964844
 70
   192
  0
VERTEX
  5
647
  8
0
 10
10.60900020599365
 20
-79.51699829101562
 30
-31.48399925231934
 70
   192
  0
VERTEX
  5
648
  8
0
 10
7.124000072479248
 20
-80.19400024414062
 30
-27.98900032043457
 70
   192
  0
VERTEX
  5
649
  8
0
 10
7.124000072479248
 20
-80.10399627685547
 30
-27.99300003051758
 70
   192
  0
VERTEX
  5
64A
  8
0
 10
7.126999855041504
 20
-79.5
 30
-28.0
 70
   192
  0
VERTEX
  5
64B
  8
0
 10
10.60900020599365
 20
-79.51699829101562
 30
31.48399925231934
 70
   192
  0
VERTEX
  5
64C
  8
0
 10
7.126999855041504
 20
-79.5
 30
28.0
 70
   192
  0
VERTEX
  5
64D
  8
0
 10
7.14799976348877
 20
-75.98999786376953
 30
28.0
 70
   192
  0
VERTEX
  5
64E
  8
0
 10
10.62399959564209
 20
-75.57099914550781
 30
31.47800064086914
 70
   192
  0
VERTEX
  5
64F
  8
0
 10
7.190000057220459
 20
-68.90299987792969
 30
28.0
 70
   192
  0
VERTEX
  5
650
  8
0
 10
10.64799976348877
 20
-69.572998046875
 30
31.46999931335449
 70
   192
  0
VERTEX
  5
651
  8
0
 10
10.63099956512451
 20
-73.9469985961914
 30
31.47599983215332
 70
   192
  0
VERTEX
  5
652
  8
0
 10
10.65100002288818
 20
-67.60900115966797
 30
31.46299934387207
 70
   192
  0
VERTEX
  5
653
  8
0
 10
7.269000053405762
 20
-55.4010009765625
 30
28.0
 70
   192
  0
VERTEX
  5
654
  8
0
 10
9.795000076293945
 20
-55.5260009765625
 30
30.53899955749512
 70
   192
  0
VERTEX
  5
655
  8
0
 10
10.67099952697754
 20
-55.56900024414062
 30
31.41900062561035
 70
   192
  0
VERTEX
  5
656
  8
0
 62
     9
 10
0.0
 20
0.0
 30
0.0
 70
   128
 71
     3
 72
     2
 73
     1
  0
VERTEX
  5
657
  8
0
 62
     9
 10
0.0
 20
0.0
 30
0.0
 70
   128
 71
     6
 72
     5
 73
     4
  0
VERTEX
  5
658
  8
0
 62
     9
 10
0.0
 20
0.0
 30
0.0
 70
   128
 71
     4
 72
     3
 73
     6
  0
VERTEX
  5
659
  8
0
 62
     9
 10
0.0
 20
0.0
 30
0.0
 70
   128
 71
     8
 72
     7
 73
     4
  0
VERTEX
  5
65A
  8
0
 62
     9
 10
0.0
 20
0.0
 30
0.0
 70
   128
 71
     4
 72
     5
 73
     8
  0
VERTEX
  5
65B
  8
0
 62
     9
 10
0.0
 20
0.0
 30
0.0
 70
   128
 71
     7
 72
     8
 73
     9
  0
VERTEX
  5
65C
  8
0
 62
     9
 10
0.0
 20
0.0
 30
0.0
 70
   128
 71
    12
 72
    11
 73
    10
  0
VERTEX
  5
65D
  8
0
 62
     9
 10
0.0
 20
0.0
 30
0.0
 70
   128
 71
    10
 72
    13
 73
     9
  0
VERTEX
  5
65E
  8
0
 62
     9
 10
0.0
 20
0.0
 30
0.0
 70
   128
 71
    12
 72
    14
 73
    11
  0
VERTEX
  5
65F
  8
0
 62
     9
 10
0.0
 20
0.0
 30
0.0
 70
   128
 71
    11
 72
    14
 73
    15
  0
VERTEX
  5
660
  8
0
 62
     9
 10
0.0
 20
0.0
 30
0.0
 70
   128
 71
    15
 72
    16
 73
    11
  0
VERTEX
  5
661
  8
0
 62
     9
 10
0.0
 20
0.0
 30
0.0
 70
   128
 71
    10
 72
     9
 73
    12
  0
VERTEX
  5
662
  8
0
 62
     9
 10
0.0
 20
0.0
 30
0.0
 70
   128
 71
    18
 72
    17
 73
    16
  0
VERTEX
  5
663
  8
0
 62
     9
 10
0.0
 20
0.0
 30
0.0
 70
   128
 71
    20
 72
    19
 73
    17
  0
VERTEX
  5
664
  8
0
 62
     9
 10
0.0
 20
0.0
 30
0.0
 70
   128
 71
    20
 72
    22
 73
    21
  0
VERTEX
  5
665
  8
0
 62
     9
 10
0.0
 20
0.0
 30
0.0
 70
   128
 71
    21
 72
    19
 73
    20
  0
VERTEX
  5
666
  8
0
 62
     9
 10
0.0
 20
0.0
 30
0.0
 70
   128
 71
    17
 72
    18
 73
    20
  0
VERTEX
  5
667
  8
0
 62
     9
 10
0.0
 20
0.0
 30
0.0
 70
   128
 71
    25
 72
    24
 73
    23
  0
VERTEX
  5
668
  8
0
 62
     9
 10
0.0
 20
0.0
 30
0.0
 70
   128
 71
    23
 72
    21
 73
    25
  0
VERTEX
  5
669
  8
0
 62
     9
 10
0.0
 20
0.0
 30
0.0
 70
   128
 71
    24
 72
    27
 73
    26
  0
VERTEX
  5
66A
  8
0
 62
     9
 10
0.0
 20
0.0
 30
0.0
 70
   128
 71
    26
 72
    23
 73
    24
  0
VERTEX
  5
66B
  8
0
 62
     9
 10
0.0
 20
0.0
 30
0.0
 70
   128
 71
    29
 72
    28
 73
    27
  0
VERTEX
  5
66C
  8
0
 62
     9
 10
0.0
 20
0.0
 30
0.0
 70
   128
 71
    27
 72
    30
 73
    29
  0
VERTEX
  5
66D
  8
0
 62
     9
 10
0.0
 20
0.0
 30
0.0
 70
   128
 71
    27
 72
    28
 73
    26
  0
VERTEX
  5
66E
  8
0
 62
     9
 10
0.0
 20
0.0
 30
0.0
 70
   128
 71
    32
 72
    31
 73
    29
  0
VERTEX
  5
66F
  8
0
 62
     9
 10
0.0
 20
0.0
 30
0.0
 70
   128
 71
    29
 72
    33
 73
    32
  0
VERTEX
  5
670
  8
0
 62
     9
 10
0.0
 20
0.0
 30
0.0
 70
   128
 71
    31
 72
    35
 73
    34
  0
VERTEX
  5
671
  8
0
 62
     9
 10
0.0
 20
0.0
 30
0.0
 70
   128
 71
    36
 72
    29
 73
    31
  0
VERTEX
  5
672
  8
0
 62
     9
 10
0.0
 20
0.0
 30
0.0
 70
   128
 71
    31
 72
    37
 73
    36
  0
VERTEX
  5
673
  8
0
 62
     9
 10
0.0
 20
0.0
 30
0.0
 70
   128
 71
    34
 72
    37
 73
    31
  0
VERTEX
  5
674
  8
0
 62
     9
 10
0.0
 20
0.0
 30
0.0
 70
   128
 71
    29
 72
    30
 73
    33
  0
VERTEX
  5
675
  8
0
 62
     9
 10
0.0
 20
0.0
 30
0.0
 70
   128
 71
    38
 72
    34
 73
    35
  0
VERTEX
  5
676
  8
0
 62
     9
 10
0.0
 20
0.0
 30
0.0
 70
   128
 71
    41
 72
    40
 73
    39
  0
VERTEX
  5
677
  8
0
 62
     9
 10
0.0
 20
0.0
 30
0.0
 70
   128
 71
    42
 72
    39
 73
    40
  0
VERTEX
  5
678
  8
0
 62
     9
 10
0.0
 20
0.0
 30
0.0
 70
   128
 71
    40
 72
    43
 73
    42
  0
VERTEX
  5
679
  8
0
 62
     9
 10
0.0
 20
0.0
 30
0.0
 70
   128
 71
    39
 72
    38
 73
    41
  0
VERTEX
  5
67A
  8
0
 62
     9
 10
0.0
 20
0.0
 30
0.0
 70
   128
 71
    45
 72
    42
 73
    44
  0
VERTEX
  5
67B
  8
0
 62
     9
 10
0.0
 20
0.0
 30
0.0
 70
   128
 71
    44
 72
    46
 73
    45
  0
VERTEX
  5
67C
  8
0
 62
     9
 10
0.0
 20
0.0
 30
0.0
 70
   128
 71
    46
 72
    48
 73
    47
  0
VERTEX
  5
67D
  8
0
 62
     9
 10
0.0
 20
0.0
 30
0.0
 70
   128
 71
    47
 72
    49
 73
    46
  0
VERTEX
  5
67E
  8
0
 62
     9
 10
0.0
 20
0.0
 30
0.0
 70
   128
 71
    46
 72
    49
 73
    45
  0
VERTEX
  5
67F
  8
0
 62
     9
 10
0.0
 20
0.0
 30
0.0
 70
   128
 71
    50
 72
    47
 73
    48
  0
VERTEX
  5
680
  8
0
 62
     9
 10
0.0
 20
0.0
 30
0.0
 70
   128
 71
    52
 72
    51
 73
    50
  0
VERTEX
  5
681
  8
0
 62
     9
 10
0.0
 20
0.0
 30
0.0
 70
   128
 71
    52
 72
    53
 73
    51
  0
VERTEX
  5
682
  8
0
 62
     9
 10
0.0
 20
0.0
 30
0.0
 70
   128
 71
    53
 72
    55
 73
    54
  0
VERTEX
  5
683
  8
0
 62
     9
 10
0.0
 20
0.0
 30
0.0
 70
   128
 71
    54
 72
    51
 73
    53
  0
VERTEX
  5
684
  8
0
 62
     9
 10
0.0
 20
0.0
 30
0.0
 70
   128
 71
    50
 72
    56
 73
    52
  0
VERTEX
  5
685
  8
0
 62
     9
 10
0.0
 20
0.0
 30
0.0
 70
   128
 71
    57
 72
    54
 73
    55
  0
VERTEX
  5
686
  8
0
 62
     9
 10
0.0
 20
0.0
 30
0.0
 70
   128
 71
    60
 72
    59
 73
    58
  0
VERTEX
  5
687
  8
0
 62
     9
 10
0.0
 20
0.0
 30
0.0
 70
   128
 71
    58
 72
    57
 73
    60
  0
VERTEX
  5
688
  8
0
 62
     9
 10
0.0
 20
0.0
 30
0.0
 70
   128
 71
    63
 72
    62
 73
    61
  0
VERTEX
  5
689
  8
0
 62
     9
 10
0.0
 20
0.0
 30
0.0
 70
   128
 71
    61
 72
    59
 73
    63
  0
VERTEX
  5
68A
  8
0
 62
     9
 10
0.0
 20
0.0
 30
0.0
 70
   128
 71
    59
 72
    61
 73
    58
  0
VERTEX
  5
68B
  8
0
 62
     9
 10
0.0
 20
0.0
 30
0.0
 70
   128
 71
    65
 72
    62
 73
    64
  0
VERTEX
  5
68C
  8
0
 62
     9
 10
0.0
 20
0.0
 30
0.0
 70
   128
 71
    65
 72
    61
 73
    62
  0
VERTEX
  5
68D
  8
0
 62
     9
 10
0.0
 20
0.0
 30
0.0
 70
   128
 71
    64
 72
    67
 73
    66
  0
VERTEX
  5
68E
  8
0
 62
     9
 10
0.0
 20
0.0
 30
0.0
 70
   128
 71
    66
 72
    68
 73
    64
  0
VERTEX
  5
68F
  8
0
 62
     9
 10
0.0
 20
0.0
 30
0.0
 70
   128
 71
    67
 72
    70
 73
    69
  0
VERTEX
  5
690
  8
0
 62
     9
 10
0.0
 20
0.0
 30
0.0
 70
   128
 71
    67
 72
    69
 73
    66
  0
VERTEX
  5
691
  8
0
 62
     9
 10
0.0
 20
0.0
 30
0.0
 70
   128
 71
    70
 72
    72
 73
    71
  0
VERTEX
  5
692
  8
0
 62
     9
 10
0.0
 20
0.0
 30
0.0
 70
   128
 71
    72
 72
    73
 73
    71
  0
VERTEX
  5
693
  8
0
 62
     9
 10
0.0
 20
0.0
 30
0.0
 70
   128
 71
    73
 72
    75
 73
    74
  0
VERTEX
  5
694
  8
0
 62
     9
 10
0.0
 20
0.0
 30
0.0
 70
   128
 71
    74
 72
    71
 73
    73
  0
VERTEX
  5
695
  8
0
 62
     9
 10
0.0
 20
0.0
 30
0.0
 70
   128
 71
    75
 72
    76
 73
    74
  0
VERTEX
  5
696
  8
0
 62
     9
 10
0.0
 20
0.0
 30
0.0
 70
   128
 71
    79
 72
    78
 73
    77
  0
VERTEX
  5
697
  8
0
 62
     9
 10
0.0
 20
0.0
 30
0.0
 70
   128
 71
    79
 72
    76
 73
    78
  0
VERTEX
  5
698
  8
0
 62
     9
 10
0.0
 20
0.0
 30
0.0
 70
   128
 71
    82
 72
    81
 73
    80
  0
VERTEX
  5
699
  8
0
 62
     9
 10
0.0
 20
0.0
 30
0.0
 70
   128
 71
    81
 72
    82
 73
    83
  0
VERTEX
  5
69A
  8
0
 62
     9
 10
0.0
 20
0.0
 30
0.0
 70
   128
 71
    83
 72
    84
 73
    81
  0
VERTEX
  5
69B
  8
0
 62
     9
 10
0.0
 20
0.0
 30
0.0
 70
   128
 71
    83
 72
    85
 73
    84
  0
VERTEX
  5
69C
  8
0
 62
     9
 10
0.0
 20
0.0
 30
0.0
 70
   128
 71
    80
 72
    77
 73
    82
  0
VERTEX
  5
69D
  8
0
 62
     9
 10
0.0
 20
0.0
 30
0.0
 70
   128
 71
    77
 72
    80
 73
    79
  0
VERTEX
  5
69E
  8
0
 62
     9
 10
0.0
 20
0.0
 30
0.0
 70
   128
 71
    88
 72
    87
 73
    86
  0
VERTEX
  5
69F
  8
0
 62
     9
 10
0.0
 20
0.0
 30
0.0
 70
   128
 71
    86
 72
    85
 73
    88
  0
VERTEX
  5
6A0
  8
0
 62
     9
 10
0.0
 20
0.0
 30
0.0
 70
   128
 71
    87
 72
    90
 73
    89
  0
VERTEX
  5
6A1
  8
0
 62
     9
 10
0.0
 20
0.0
 30
0.0
 70
   128
 71
    89
 72
    86
 73
    87
  0
VERTEX
  5
6A2
  8
0
 62
     9
 10
0.0
 20
0.0
 30
0.0
 70
   128
 71
    90
 72
    91
 73
    89
  0
VERTEX
  5
6A3
  8
0
 62
     9
 10
0.0
 20
0.0
 30
0.0
 70
   128
 71
    93
 72
    92
 73
    91
  0
VERTEX
  5
6A4
  8
0
 62
     9
 10
0.0
 20
0.0
 30
0.0
 70
   128
 71
    91
 72
    94
 73
    93
  0
VERTEX
  5
6A5
  8
0
 62
     9
 10
0.0
 20
0.0
 30
0.0
 70
   128
 71
    96
 72
    95
 73
    92
  0
VERTEX
  5
6A6
  8
0
 62
     9
 10
0.0
 20
0.0
 30
0.0
 70
   128
 71
    92
 72
    93
 73
    96
  0
VERTEX
  5
6A7
  8
0
 62
     9
 10
0.0
 20
0.0
 30
0.0
 70
   128
 71
    96
 72
    97
 73
    95
  0
VERTEX
  5
6A8
  8
0
 62
     9
 10
0.0
 20
0.0
 30
0.0
 70
   128
 71
   100
 72
    99
 73
    98
  0
VERTEX
  5
6A9
  8
0
 62
     9
 10
0.0
 20
0.0
 30
0.0
 70
   128
 71
    98
 72
    95
 73
    97
  0
VERTEX
  5
6AA
  8
0
 62
     9
 10
0.0
 20
0.0
 30
0.0
 70
   128
 71
    99
 72
   100
 73
   101
  0
VERTEX
  5
6AB
  8
0
 62
     9
 10
0.0
 20
0.0
 30
0.0
 70
   128
 71
   104
 72
   103
 73
   102
  0
VERTEX
  5
6AC
  8
0
 62
     9
 10
0.0
 20
0.0
 30
0.0
 70
   128
 71
   102
 72
   101
 73
   104
  0
VERTEX
  5
6AD
  8
0
 62
     9
 10
0.0
 20
0.0
 30
0.0
 70
   128
 71
   101
 72
   102
 73
    99
  0
VERTEX
  5
6AE
  8
0
 62
     9
 10
0.0
 20
0.0
 30
0.0
 70
   128
 71
   107
 72
   106
 73
   105
  0
VERTEX
  5
6AF
  8
0
 62
     9
 10
0.0
 20
0.0
 30
0.0
 70
   128
 71
   107
 72
   103
 73
   106
  0
VERTEX
  5
6B0
  8
0
 62
     9
 10
0.0
 20
0.0
 30
0.0
 70
   128
 71
   109
 72
   105
 73
   108
  0
VERTEX
  5
6B1
  8
0
 62
     9
 10
0.0
 20
0.0
 30
0.0
 70
   128
 71
   108
 72
   110
 73
   109
  0
VERTEX
  5
6B2
  8
0
 62
     9
 10
0.0
 20
0.0
 30
0.0
 70
   128
 71
   105
 72
   109
 73
   107
  0
VERTEX
  5
6B3
  8
0
 62
     9
 10
0.0
 20
0.0
 30
0.0
 70
   128
 71
   113
 72
   112
 73
   111
  0
VERTEX
  5
6B4
  8
0
 62
     9
 10
0.0
 20
0.0
 30
0.0
 70
   128
 71
   111
 72
   110
 73
   113
  0
VERTEX
  5
6B5
  8
0
 62
     9
 10
0.0
 20
0.0
 30
0.0
 70
   128
 71
   114
 72
   111
 73
   112
  0
VERTEX
  5
6B6
  8
0
 62
     9
 10
0.0
 20
0.0
 30
0.0
 70
   128
 71
   117
 72
   116
 73
   115
  0
VERTEX
  5
6B7
  8
0
 62
     9
 10
0.0
 20
0.0
 30
0.0
 70
   128
 71
   115
 72
   114
 73
   117
  0
VERTEX
  5
6B8
  8
0
 62
     9
 10
0.0
 20
0.0
 30
0.0
 70
   128
 71
   112
 72
   117
 73
   114
  0
VERTEX
  5
6B9
  8
0
 62
     9
 10
0.0
 20
0.0
 30
0.0
 70
   128
 71
   118
 72
   115
 73
   116
  0
VERTEX
  5
6BA
  8
0
 62
     9
 10
0.0
 20
0.0
 30
0.0
 70
   128
 71
   116
 72
   119
 73
   118
  0
VERTEX
  5
6BB
  8
0
 62
     9
 10
0.0
 20
0.0
 30
0.0
 70
   128
 71
   122
 72
   121
 73
   120
  0
VERTEX
  5
6BC
  8
0
 62
     9
 10
0.0
 20
0.0
 30
0.0
 70
   128
 71
   120
 72
   123
 73
   122
  0
VERTEX
  5
6BD
  8
0
 62
     9
 10
0.0
 20
0.0
 30
0.0
 70
   128
 71
   121
 72
   124
 73
   120
  0
VERTEX
  5
6BE
  8
0
 62
     9
 10
0.0
 20
0.0
 30
0.0
 70
   128
 71
   121
 72
   125
 73
   124
  0
VERTEX
  5
6BF
  8
0
 62
     9
 10
0.0
 20
0.0
 30
0.0
 70
   128
 71
   123
 72
   119
 73
   122
  0
VERTEX
  5
6C0
  8
0
 62
     9
 10
0.0
 20
0.0
 30
0.0
 70
   128
 71
   126
 72
   124
 73
   125
  0
VERTEX
  5
6C1
  8
0
 62
     9
 10
0.0
 20
0.0
 30
0.0
 70
   128
 71
   129
 72
   128
 73
   127
  0
VERTEX
  5
6C2
  8
0
 62
     9
 10
0.0
 20
0.0
 30
0.0
 70
   128
 71
   127
 72
   126
 73
   129
  0
VERTEX
  5
6C3
  8
0
 62
     9
 10
0.0
 20
0.0
 30
0.0
 70
   128
 71
   128
 72
   130
 73
   127
  0
VERTEX
  5
6C4
  8
0
 62
     9
 10
0.0
 20
0.0
 30
0.0
 70
   128
 71
   132
 72
   131
 73
   130
  0
VERTEX
  5
6C5
  8
0
 62
     9
 10
0.0
 20
0.0
 30
0.0
 70
   128
 71
   135
 72
   134
 73
   133
  0
VERTEX
  5
6C6
  8
0
 62
     9
 10
0.0
 20
0.0
 30
0.0
 70
   128
 71
   133
 72
   130
 73
   131
  0
VERTEX
  5
6C7
  8
0
 62
     9
 10
0.0
 20
0.0
 30
0.0
 70
   128
 71
   134
 72
   135
 73
   136
  0
VERTEX
  5
6C8
  8
0
 62
     9
 10
0.0
 20
0.0
 30
0.0
 70
   128
 71
   136
 72
   137
 73
   134
  0
VERTEX
  5
6C9
  8
0
 62
     9
 10
0.0
 20
0.0
 30
0.0
 70
   128
 71
   133
 72
   131
 73
   135
  0
VERTEX
  5
6CA
  8
0
 62
     9
 10
0.0
 20
0.0
 30
0.0
 70
   128
 71
   139
 72
   138
 73
   137
  0
VERTEX
  5
6CB
  8
0
 62
     9
 10
0.0
 20
0.0
 30
0.0
 70
   128
 71
   141
 72
   140
 73
   138
  0
VERTEX
  5
6CC
  8
0
 62
     9
 10
0.0
 20
0.0
 30
0.0
 70
   128
 71
   138
 72
   142
 73
   141
  0
VERTEX
  5
6CD
  8
0
 62
     9
 10
0.0
 20
0.0
 30
0.0
 70
   128
 71
   140
 72
   141
 73
   143
  0
VERTEX
  5
6CE
  8
0
 62
     9
 10
0.0
 20
0.0
 30
0.0
 70
   128
 71
   143
 72
   144
 73
   140
  0
VERTEX
  5
6CF
  8
0
 62
     9
 10
0.0
 20
0.0
 30
0.0
 70
   128
 71
   138
 72
   139
 73
   142
  0
VERTEX
  5
6D0
  8
0
 62
     9
 10
0.0
 20
0.0
 30
0.0
 70
   128
 71
   146
 72
   145
 73
   144
  0
VERTEX
  5
6D1
  8
0
 62
     9
 10
0.0
 20
0.0
 30
0.0
 70
   128
 71
   148
 72
   147
 73
   145
  0
VERTEX
  5
6D2
  8
0
 62
     9
 10
0.0
 20
0.0
 30
0.0
 70
   128
 71
   147
 72
   150
 73
   149
  0
VERTEX
  5
6D3
  8
0
 62
     9
 10
0.0
 20
0.0
 30
0.0
 70
   128
 71
   151
 72
   145
 73
   147
  0
VERTEX
  5
6D4
  8
0
 62
     9
 10
0.0
 20
0.0
 30
0.0
 70
   128
 71
   149
 72
   151
 73
   147
  0
VERTEX
  5
6D5
  8
0
 62
     9
 10
0.0
 20
0.0
 30
0.0
 70
   128
 71
   145
 72
   146
 73
   148
  0
VERTEX
  5
6D6
  8
0
 62
     9
 10
0.0
 20
0.0
 30
0.0
 70
   128
 71
   152
 72
   149
 73
   150
  0
VERTEX
  5
6D7
  8
0
 62
     9
 10
0.0
 20
0.0
 30
0.0
 70
   128
 71
   155
 72
   154
 73
   153
  0
VERTEX
  5
6D8
  8
0
 62
     9
 10
0.0
 20
0.0
 30
0.0
 70
   128
 71
   153
 72
   152
 73
   155
  0
VERTEX
  5
6D9
  8
0
 62
     9
 10
0.0
 20
0.0
 30
0.0
 70
   128
 71
   154
 72
   156
 73
   153
  0
VERTEX
  5
6DA
  8
0
 62
     9
 10
0.0
 20
0.0
 30
0.0
 70
   128
 71
   159
 72
   158
 73
   157
  0
VERTEX
  5
6DB
  8
0
 62
     9
 10
0.0
 20
0.0
 30
0.0
 70
   128
 71
   158
 72
   160
 73
   157
  0
VERTEX
  5
6DC
  8
0
 62
     9
 10
0.0
 20
0.0
 30
0.0
 70
   128
 71
   160
 72
   162
 73
   161
  0
VERTEX
  5
6DD
  8
0
 62
     9
 10
0.0
 20
0.0
 30
0.0
 70
   128
 71
   161
 72
   157
 73
   160
  0
VERTEX
  5
6DE
  8
0
 62
     9
 10
0.0
 20
0.0
 30
0.0
 70
   128
 71
   162
 72
   163
 73
   161
  0
VERTEX
  5
6DF
  8
0
 62
     9
 10
0.0
 20
0.0
 30
0.0
 70
   128
 71
   157
 72
   156
 73
   159
  0
VERTEX
  5
6E0
  8
0
 62
     9
 10
0.0
 20
0.0
 30
0.0
 70
   128
 71
   165
 72
   164
 73
   163
  0
VERTEX
  5
6E1
  8
0
 62
     9
 10
0.0
 20
0.0
 30
0.0
 70
   128
 71
   167
 72
   166
 73
   164
  0
VERTEX
  5
6E2
  8
0
 62
     9
 10
0.0
 20
0.0
 30
0.0
 70
   128
 71
   167
 72
   168
 73
   166
  0
VERTEX
  5
6E3
  8
0
 62
     9
 10
0.0
 20
0.0
 30
0.0
 70
   128
 71
   168
 72
   169
 73
   166
  0
VERTEX
  5
6E4
  8
0
 62
     9
 10
0.0
 20
0.0
 30
0.0
 70
   128
 71
   164
 72
   165
 73
   167
  0
VERTEX
  5
6E5
  8
0
 62
     9
 10
0.0
 20
0.0
 30
0.0
 70
   128
 71
   172
 72
   171
 73
   170
  0
VERTEX
  5
6E6
  8
0
 62
     9
 10
0.0
 20
0.0
 30
0.0
 70
   128
 71
   170
 72
   173
 73
   172
  0
VERTEX
  5
6E7
  8
0
 62
     9
 10
0.0
 20
0.0
 30
0.0
 70
   128
 71
   171
 72
     1
 73
     2
  0
VERTEX
  5
6E8
  8
0
 62
     9
 10
0.0
 20
0.0
 30
0.0
 70
   128
 71
   176
 72
   175
 73
   174
  0
VERTEX
  5
6E9
  8
0
 62
     9
 10
0.0
 20
0.0
 30
0.0
 70
   128
 71
   175
 72
   177
 73
   174
  0
VERTEX
  5
6EA
  8
0
 62
     9
 10
0.0
 20
0.0
 30
0.0
 70
   128
 71
   174
 72
   172
 73
   176
  0
VERTEX
  5
6EB
  8
0
 62
     9
 10
0.0
 20
0.0
 30
0.0
 70
   128
 71
   177
 72
   179
 73
   178
  0
VERTEX
  5
6EC
  8
0
 62
     9
 10
0.0
 20
0.0
 30
0.0
 70
   128
 71
   178
 72
   174
 73
   177
  0
VERTEX
  5
6ED
  8
0
 62
     9
 10
0.0
 20
0.0
 30
0.0
 70
   128
 71
   177
 72
   180
 73
   179
  0
VERTEX
  5
6EE
  8
0
 62
     9
 10
0.0
 20
0.0
 30
0.0
 70
   128
 71
   172
 72
   173
 73
   176
  0
VERTEX
  5
6EF
  8
0
 62
     9
 10
0.0
 20
0.0
 30
0.0
 70
   128
 71
   171
 72
     2
 73
   170
  0
VERTEX
  5
6F0
  8
0
 62
     9
 10
0.0
 20
0.0
 30
0.0
 70
   128
 71
   163
 72
   162
 73
   165
  0
VERTEX
  5
6F1
  8
0
 62
     9
 10
0.0
 20
0.0
 30
0.0
 70
   128
 71
   156
 72
   154
 73
   159
  0
VERTEX
  5
6F2
  8
0
 62
     9
 10
0.0
 20
0.0
 30
0.0
 70
   128
 71
   150
 72
   155
 73
   152
  0
VERTEX
  5
6F3
  8
0
 62
     9
 10
0.0
 20
0.0
 30
0.0
 70
   128
 71
   144
 72
   143
 73
   146
  0
VERTEX
  5
6F4
  8
0
 62
     9
 10
0.0
 20
0.0
 30
0.0
 70
   128
 71
   137
 72
   136
 73
   139
  0
VERTEX
  5
6F5
  8
0
 62
     9
 10
0.0
 20
0.0
 30
0.0
 70
   128
 71
   130
 72
   128
 73
   132
  0
VERTEX
  5
6F6
  8
0
 62
     9
 10
0.0
 20
0.0
 30
0.0
 70
   128
 71
   125
 72
   129
 73
   126
  0
VERTEX
  5
6F7
  8
0
 62
     9
 10
0.0
 20
0.0
 30
0.0
 70
   128
 71
   119
 72
   123
 73
   118
  0
VERTEX
  5
6F8
  8
0
 62
     9
 10
0.0
 20
0.0
 30
0.0
 70
   128
 71
   110
 72
   108
 73
   113
  0
VERTEX
  5
6F9
  8
0
 62
     9
 10
0.0
 20
0.0
 30
0.0
 70
   128
 71
   103
 72
   104
 73
   106
  0
VERTEX
  5
6FA
  8
0
 62
     9
 10
0.0
 20
0.0
 30
0.0
 70
   128
 71
    98
 72
    97
 73
   100
  0
VERTEX
  5
6FB
  8
0
 62
     9
 10
0.0
 20
0.0
 30
0.0
 70
   128
 71
    91
 72
    90
 73
    94
  0
VERTEX
  5
6FC
  8
0
 62
     9
 10
0.0
 20
0.0
 30
0.0
 70
   128
 71
    85
 72
    83
 73
    88
  0
VERTEX
  5
6FD
  8
0
 62
     9
 10
0.0
 20
0.0
 30
0.0
 70
   128
 71
    76
 72
    75
 73
    78
  0
VERTEX
  5
6FE
  8
0
 62
     9
 10
0.0
 20
0.0
 30
0.0
 70
   128
 71
    71
 72
    69
 73
    70
  0
VERTEX
  5
6FF
  8
0
 62
     9
 10
0.0
 20
0.0
 30
0.0
 70
   128
 71
    64
 72
    68
 73
    65
  0
VERTEX
  5
700
  8
0
 62
     9
 10
0.0
 20
0.0
 30
0.0
 70
   128
 71
    55
 72
    60
 73
    57
  0
VERTEX
  5
701
  8
0
 62
     9
 10
0.0
 20
0.0
 30
0.0
 70
   128
 71
    48
 72
    56
 73
    50
  0
VERTEX
  5
702
  8
0
 62
     9
 10
0.0
 20
0.0
 30
0.0
 70
   128
 71
    42
 72
    43
 73
    44
  0
VERTEX
  5
703
  8
0
 62
     9
 10
0.0
 20
0.0
 30
0.0
 70
   128
 71
    35
 72
    41
 73
    38
  0
VERTEX
  5
704
  8
0
 62
     9
 10
0.0
 20
0.0
 30
0.0
 70
   128
 71
    21
 72
    22
 73
    25
  0
VERTEX
  5
705
  8
0
 62
     9
 10
0.0
 20
0.0
 30
0.0
 70
   128
 71
    16
 72
    15
 73
    18
  0
VERTEX
  5
706
  8
0
 62
     9
 10
0.0
 20
0.0
 30
0.0
 70
   128
 71
     9
 72
    13
 73
     7
  0
VERTEX
  5
707
  8
0
 62
     9
 10
0.0
 20
0.0
 30
0.0
 70
   128
 71
     1
 72
     6
 73
     3
  0
SEQEND
  5
708
  8
0
 62
     9
  0
ENDBLK
  5
70B
  8
0
  0
BLOCK
  8
0
  2
E3_NODE_20_
 70
     0
 10
0.0
 20
0.0
 30
0.0
  3
E3_NODE_20_
  1

  0
POLYLINE
  5
70D
  8
0
 62
     9
 66
     1
 10
0.0
 20
0.0
 30
0.0
 70
    64
 71
   181
 72
   179
  0
VERTEX
  5
70E
  8
0
 10
7.127999782562256
 20
-28.5
 30
-28.0
 70
   192
  0
VERTEX
  5
70F
  8
0
 10
10.60900020599365
 20
-28.48299980163574
 30
-31.48399925231934
 70
   192
  0
VERTEX
  5
710
  8
0
 10
10.60700035095215
 20
-28.13400077819824
 30
-31.48200035095215
 70
   192
  0
VERTEX
  5
711
  8
0
 10
10.59700012207031
 20
-26.15099906921387
 30
-31.39699935913086
 70
   192
  0
VERTEX
  5
712
  8
0
 10
7.117000102996826
 20
-26.52099990844727
 30
-27.93000030517578
 70
   192
  0
VERTEX
  5
713
  8
0
 10
7.124000072479248
 20
-27.80599975585938
 30
-27.97500038146973
 70
   192
  0
VERTEX
  5
714
  8
0
 10
10.58899974822998
 20
-24.4109992980957
 30
-31.21199989318848
 70
   192
  0
VERTEX
  5
715
  8
0
 10
7.107999801635742
 20
-24.87899971008301
 30
-27.75600051879883
 70
   192
  0
VERTEX
  5
716
  8
0
 10
7.105999946594238
 20
-24.57399940490723
 30
-27.72299957275391
 70
   192
  0
VERTEX
  5
717
  8
0
 10
10.58500003814697
 20
-23.54100036621094
 30
-31.0930004119873
 70
   192
  0
VERTEX
  5
718
  8
0
 10
10.57499980926514
 20
-21.58600044250488
 30
-30.7189998626709
 70
   192
  0
VERTEX
  5
719
  8
0
 10
7.097000122070312
 20
-22.7549991607666
 30
-27.40099906921387
 70
   192
  0
VERTEX
  5
71A
  8
0
 10
10.58800029754639
 20
-24.17000007629395
 30
-31.1870002746582
 70
   192
  0
VERTEX
  5
71B
  8
0
 10
7.096000194549561
 20
-22.64800071716309
 30
-27.38199996948242
 70
   192
  0
VERTEX
  5
71C
  8
0
 10
7.089000225067139
 20
-21.35300064086914
 30
-27.05699920654297
 70
   192
  0
VERTEX
  5
71D
  8
0
 10
10.56999969482422
 20
-20.44599914550781
 30
-30.42499923706055
 70
   192
  0
VERTEX
  5
71E
  8
0
 10
10.56599998474121
 20
-19.65900039672852
 30
-30.22200012207031
 70
   192
  0
VERTEX
  5
71F
  8
0
 10
7.085999965667725
 20
-20.75099945068359
 30
-26.9060001373291
 70
   192
  0
VERTEX
  5
720
  8
0
 10
10.55599975585938
 20
-17.76600074768066
 30
-29.60300064086914
 70
   192
  0
VERTEX
  5
721
  8
0
 10
7.077000141143799
 20
-18.89299964904785
 30
-26.29999923706055
 70
   192
  0
VERTEX
  5
722
  8
0
 10
10.55099964141846
 20
-16.61899948120117
 30
-29.14599990844727
 70
   192
  0
VERTEX
  5
723
  8
0
 10
7.072000026702881
 20
-17.95000076293945
 30
-25.91799926757812
 70
   192
  0
VERTEX
  5
724
  8
0
 10
7.072000026702881
 20
-17.89800071716309
 30
-25.89699935913086
 70
   192
  0
VERTEX
  5
725
  8
0
 10
10.54699993133545
 20
-15.9069995880127
 30
-28.86300086975098
 70
   192
  0
VERTEX
  5
726
  8
0
 10
7.066999912261963
 20
-17.08300018310547
 30
-25.5669994354248
 70
   192
  0
VERTEX
  5
727
  8
0
 10
10.53899955749512
 20
-14.08699989318848
 30
-27.99900054931641
 70
   192
  0
VERTEX
  5
728
  8
0
 10
7.058000087738037
 20
-15.32900047302246
 30
-24.70899963378906
 70
   192
  0
VERTEX
  5
729
  8
0
 10
10.53600025177002
 20
-13.5319995880127
 30
-27.70700073242188
 70
   192
  0
VERTEX
  5
72A
  8
0
 10
10.53299999237061
 20
-12.96199989318848
 30
-27.37599945068359
 70
   192
  0
VERTEX
  5
72B
  8
0
 10
7.054999828338623
 20
-14.69799995422363
 30
-24.3439998626709
 70
   192
  0
VERTEX
  5
72C
  8
0
 10
10.52700042724609
 20
-11.80799961090088
 30
-26.70499992370605
 70
   192
  0
VERTEX
  5
72D
  8
0
 10
7.048999786376953
 20
-13.64099979400635
 30
-23.73200035095215
 70
   192
  0
VERTEX
  5
72E
  8
0
 10
10.51900005340576
 20
-10.1540002822876
 30
-25.59799957275391
 70
   192
  0
VERTEX
  5
72F
  8
0
 10
7.040999889373779
 20
-12.02600002288818
 30
-22.64100074768066
 70
   192
  0
VERTEX
  5
730
  8
0
 10
7.047999858856201
 20
-13.38500022888184
 30
-23.55900001525879
 70
   192
  0
VERTEX
  5
731
  8
0
 10
10.51700019836426
 20
-9.58899974822998
 30
-25.16600036621094
 70
   192
  0
VERTEX
  5
732
  8
0
 10
7.039000034332275
 20
-11.69499969482422
 30
-22.38199996948242
 70
   192
  0
VERTEX
  5
733
  8
0
 10
10.51200008392334
 20
-8.569999694824219
 30
-24.38599967956543
 70
   192
  0
VERTEX
  5
734
  8
0
 10
10.50399971008301
 20
-7.060999870300293
 30
-23.07200050354004
 70
   192
  0
VERTEX
  5
735
  8
0
 10
7.026999950408936
 20
-9.37399959564209
 30
-20.43400001525879
 70
   192
  0
VERTEX
  5
736
  8
0
 10
7.032999992370605
 20
-10.49199962615967
 30
-21.44099998474121
 70
   192
  0
VERTEX
  5
737
  8
0
 10
10.5019998550415
 20
-6.513999938964844
 30
-22.53000068664551
 70
   192
  0
VERTEX
  5
738
  8
0
 10
7.025000095367432
 20
-9.045999526977539
 30
-20.13800048828125
 70
   192
  0
VERTEX
  5
739
  8
0
 10
7.025000095367432
 20
-8.954999923706055
 30
-20.04400062561035
 70
   192
  0
VERTEX
  5
73A
  8
0
 10
10.49699974060059
 20
-5.627999782562256
 30
-21.65399932861328
 70
   192
  0
VERTEX
  5
73B
  8
0
 10
7.01800012588501
 20
-7.695000171661377
 30
-18.73999977111816
 70
   192
  0
VERTEX
  5
73C
  8
0
 10
10.48900032043457
 20
-3.905999898910522
 30
-19.67700004577637
 70
   192
  0
VERTEX
  5
73D
  8
0
 10
7.011000156402588
 20
-6.539000034332275
 30
-17.36300086975098
 70
   192
  0
VERTEX
  5
73E
  8
0
 10
10.49499988555908
 20
-5.199999809265137
 30
-21.1919994354248
 70
   192
  0
VERTEX
  5
73F
  8
0
 10
10.48799991607666
 20
-3.790999889373779
 30
-19.52300071716309
 70
   192
  0
VERTEX
  5
740
  8
0
 10
10.48299980163574
 20
-2.711999893188477
 30
-18.08499908447266
 70
   192
  0
VERTEX
  5
741
  8
0
 10
7.007999897003174
 20
-5.997000217437744
 30
-16.63500022888184
 70
   192
  0
VERTEX
  5
742
  8
0
 10
7.005000114440918
 20
-5.304999828338623
 30
-15.68400001525879
 70
   192
  0
VERTEX
  5
743
  8
0
 10
10.47799968719482
 20
-1.620000004768372
 30
-16.42000007629395
 70
   192
  0
VERTEX
  5
744
  8
0
 10
7.0
 20
-4.506999969482422
 30
-14.41100025177002
 70
   192
  0
VERTEX
  5
745
  8
0
 10
10.47700023651123
 20
-1.5
 30
-16.20800018310547
 70
   192
  0
VERTEX
  5
746
  8
0
 10
7.011000156402588
 20
-6.446000099182129
 30
-17.25200080871582
 70
   192
  0
VERTEX
  5
747
  8
0
 10
6.999000072479248
 20
-4.275000095367432
 30
-14.04199981689453
 70
   192
  0
VERTEX
  5
748
  8
0
 10
10.47299957275391
 20
-0.6320000290870667
 30
-14.68000030517578
 70
   192
  0
VERTEX
  5
749
  8
0
 10
10.4689998626709
 20
0.2509999871253967
 30
-12.86800003051758
 70
   192
  0
VERTEX
  5
74A
  8
0
 10
6.993000030517578
 20
-3.345999956130981
 30
-12.29699993133545
 70
   192
  0
VERTEX
  5
74B
  8
0
 10
6.993000030517578
 20
-3.36299991607666
 30
-12.33500003814697
 70
   192
  0
VERTEX
  5
74C
  8
0
 10
6.989999771118164
 20
-2.854000091552734
 30
-11.19900035858154
 70
   192
  0
VERTEX
  5
74D
  8
0
 10
10.4680004119873
 20
0.3680000007152557
 30
-12.59899997711182
 70
   192
  0
VERTEX
  5
74E
  8
0
 10
10.46700000762939
 20
0.5019999742507935
 30
-12.29199981689453
 70
   192
  0
VERTEX
  5
74F
  8
0
 10
10.46399974822998
 20
1.220999956130981
 30
-10.43599987030029
 70
   192
  0
VERTEX
  5
750
  8
0
 10
6.984000205993652
 20
-1.906000018119812
 30
-8.76200008392334
 70
   192
  0
VERTEX
  5
751
  8
0
 10
6.98799991607666
 20
-2.572999954223633
 30
-10.57199954986572
 70
   192
  0
VERTEX
  5
752
  8
0
 10
10.46100044250488
 20
1.738999962806702
 30
-8.79800033569336
 70
   192
  0
VERTEX
  5
753
  8
0
 10
6.98199987411499
 20
-1.631999969482422
 30
-7.822000026702881
 70
   192
  0
VERTEX
  5
754
  8
0
 10
6.98199987411499
 20
-1.549999952316284
 30
-7.539999961853027
 70
   192
  0
VERTEX
  5
755
  8
0
 10
10.46100044250488
 20
1.820000052452087
 30
-8.539999961853027
 70
   192
  0
VERTEX
  5
756
  8
0
 10
6.980000019073486
 20
-1.366999983787537
 30
-6.913000106811523
 70
   192
  0
VERTEX
  5
757
  8
0
 10
10.45899963378906
 20
2.299000024795532
 30
-6.60699987411499
 70
   192
  0
VERTEX
  5
758
  8
0
 10
6.97700023651123
 20
-0.9570000171661377
 30
-5.035999774932861
 70
   192
  0
VERTEX
  5
759
  8
0
 10
10.45699977874756
 20
2.618000030517578
 30
-4.855999946594238
 70
   192
  0
VERTEX
  5
75A
  8
0
 10
6.97700023651123
 20
-0.8500000238418579
 30
-4.316999912261963
 70
   192
  0
VERTEX
  5
75B
  8
0
 10
10.45699977874756
 20
2.657000064849854
 30
-4.639999866485596
 70
   192
  0
VERTEX
  5
75C
  8
0
 10
10.45600032806396
 20
2.890000104904175
 30
-2.638000011444092
 70
   192
  0
VERTEX
  5
75D
  8
0
 10
6.974999904632568
 20
-0.6769999861717224
 30
-3.140000104904175
 70
   192
  0
VERTEX
  5
75E
  8
0
 10
6.974999904632568
 20
-0.6299999952316284
 30
-2.54200005531311
 70
   192
  0
VERTEX
  5
75F
  8
0
 10
10.45499992370605
 20
2.937000036239624
 30
-2.0
 70
   192
  0
VERTEX
  5
760
  8
0
 10
6.973999977111816
 20
-0.5270000100135803
 30
-1.235000014305115
 70
   192
  0
VERTEX
  5
761
  8
0
 10
10.45499992370605
 20
2.974999904632568
 30
-0.8080000281333923
 70
   192
  0
VERTEX
  5
762
  8
0
 10
6.973999977111816
 20
-0.5220000147819519
 30
-0.718999981880188
 70
   192
  0
VERTEX
  5
763
  8
0
 10
10.45499992370605
 20
3.000999927520752
 30
-0.0189999993890524
 70
   192
  0
VERTEX
  5
764
  8
0
 10
10.45499992370605
 20
2.938999891281128
 30
1.968999981880188
 70
   192
  0
VERTEX
  5
765
  8
0
 10
6.974999904632568
 20
-0.6209999918937683
 30
2.54200005531311
 70
   192
  0
VERTEX
  5
766
  8
0
 10
6.973999977111816
 20
-0.5080000162124634
 30
0.6809999942779541
 70
   192
  0
VERTEX
  5
767
  8
0
 10
10.45600032806396
 20
2.821000099182129
 30
3.214999914169312
 70
   192
  0
VERTEX
  5
768
  8
0
 10
6.974999904632568
 20
-0.6320000290870667
 30
2.716000080108643
 70
   192
  0
VERTEX
  5
769
  8
0
 10
6.974999904632568
 20
-0.6520000100135803
 30
2.859999895095825
 70
   192
  0
VERTEX
  5
76A
  8
0
 10
10.45600032806396
 20
2.752000093460083
 30
3.953000068664551
 70
   192
  0
VERTEX
  5
76B
  8
0
 10
10.45800018310547
 20
2.437000036239624
 30
5.928999900817871
 70
   192
  0
VERTEX
  5
76C
  8
0
 10
6.97700023651123
 20
-0.9100000262260437
 30
4.77299976348877
 70
   192
  0
VERTEX
  5
76D
  8
0
 10
10.45600032806396
 20
2.796999931335449
 30
3.476000070571899
 70
   192
  0
VERTEX
  5
76E
  8
0
 10
6.980000019073486
 20
-1.258000016212463
 30
6.419000148773193
 70
   192
  0
VERTEX
  5
76F
  8
0
 10
10.45899963378906
 20
2.147000074386597
 30
7.217000007629395
 70
   192
  0
VERTEX
  5
770
  8
0
 10
10.46000003814697
 20
1.995000004768372
 30
7.894999980926514
 70
   192
  0
VERTEX
  5
771
  8
0
 10
6.980000019073486
 20
-1.337000012397766
 30
6.796999931335449
 70
   192
  0
VERTEX
  5
772
  8
0
 10
6.98199987411499
 20
-1.552999973297119
 30
7.539999961853027
 70
   192
  0
VERTEX
  5
773
  8
0
 10
10.46100044250488
 20
1.828999996185303
 30
8.508000373840332
 70
   192
  0
VERTEX
  5
774
  8
0
 10
10.46399974822998
 20
1.228999972343445
 30
10.41100025177002
 70
   192
  0
VERTEX
  5
775
  8
0
 10
6.984000205993652
 20
-1.91100001335144
 30
8.777999877929688
 70
   192
  0
VERTEX
  5
776
  8
0
 10
6.986999988555908
 20
-2.313999891281128
 30
9.861000061035156
 70
   192
  0
VERTEX
  5
777
  8
0
 10
10.46500015258789
 20
0.9670000076293945
 30
11.09000015258789
 70
   192
  0
VERTEX
  5
778
  8
0
 10
10.46700000762939
 20
0.5120000243186951
 30
12.26799964904785
 70
   192
  0
VERTEX
  5
779
  8
0
 10
6.988999843597412
 20
-2.628000020980835
 30
10.70600032806396
 70
   192
  0
VERTEX
  5
77A
  8
0
 10
10.4709997177124
 20
-0.3219999969005585
 30
14.07800006866455
 70
   192
  0
VERTEX
  5
77B
  8
0
 10
6.993000030517578
 20
-3.354000091552734
 30
12.29399967193604
 70
   192
  0
VERTEX
  5
77C
  8
0
 10
6.99399995803833
 20
-3.480999946594238
 30
12.57199954986572
 70
   192
  0
VERTEX
  5
77D
  8
0
 10
10.47299957275391
 20
-0.6940000057220459
 30
14.76599979400635
 70
   192
  0
VERTEX
  5
77E
  8
0
 10
6.995999813079834
 20
-3.788000106811523
 30
13.13099956512451
 70
   192
  0
VERTEX
  5
77F
  8
0
 10
10.47599983215332
 20
-1.27400004863739
 30
15.83899974822998
 70
   192
  0
VERTEX
  5
780
  8
0
 10
10.48099994659424
 20
-2.342999935150146
 30
17.54800033569336
 70
   192
  0
VERTEX
  5
781
  8
0
 10
7.00600004196167
 20
-5.579999923706055
 30
16.08300018310547
 70
   192
  0
VERTEX
  5
782
  8
0
 10
7.0
 20
-4.467000007629395
 30
14.36800003051758
 70
   192
  0
VERTEX
  5
783
  8
0
 10
10.48400020599365
 20
-2.822000026702881
 30
18.22999954223633
 70
   192
  0
VERTEX
  5
784
  8
0
 10
7.006999969482422
 20
-5.677999973297119
 30
16.21299934387207
 70
   192
  0
VERTEX
  5
785
  8
0
 10
10.48299980163574
 20
-2.690000057220459
 30
18.05299949645996
 70
   192
  0
VERTEX
  5
786
  8
0
 10
10.48900032043457
 20
-3.882999897003174
 30
19.64900016784668
 70
   192
  0
VERTEX
  5
787
  8
0
 10
7.013000011444092
 20
-6.813000202178955
 30
17.71100044250488
 70
   192
  0
VERTEX
  5
788
  8
0
 10
7.007999897003174
 20
-5.998000144958496
 30
16.63500022888184
 70
   192
  0
VERTEX
  5
789
  8
0
 10
10.49499988555908
 20
-5.173999786376953
 30
21.16399955749512
 70
   192
  0
VERTEX
  5
78A
  8
0
 10
7.019000053405762
 20
-7.942999839782715
 30
18.99600028991699
 70
   192
  0
VERTEX
  5
78B
  8
0
 10
10.49600028991699
 20
-5.364999771118164
 30
21.36199951171875
 70
   192
  0
VERTEX
  5
78C
  8
0
 10
10.5019998550415
 20
-6.559999942779541
 30
22.59700012207031
 70
   192
  0
VERTEX
  5
78D
  8
0
 10
7.026999950408936
 20
-9.37399959564209
 30
20.43600082397461
 70
   192
  0
VERTEX
  5
78E
  8
0
 10
7.019999980926514
 20
-8.159000396728516
 30
19.24200057983398
 70
   192
  0
VERTEX
  5
78F
  8
0
 10
7.027999877929688
 20
-9.611000061035156
 30
20.66900062561035
 70
   192
  0
VERTEX
  5
790
  8
0
 10
10.50899982452393
 20
-8.039999961853027
 30
23.94300079345703
 70
   192
  0
VERTEX
  5
791
  8
0
 10
7.032999992370605
 20
-10.55399990081787
 30
21.4689998626709
 70
   192
  0
VERTEX
  5
792
  8
0
 10
10.51000022888184
 20
-8.29699993133545
 30
24.14900016784668
 70
   192
  0
VERTEX
  5
793
  8
0
 10
10.51700019836426
 20
-9.61400032043457
 30
25.20299911499023
 70
   192
  0
VERTEX
  5
794
  8
0
 10
7.035999774932861
 20
-11.16199970245361
 30
21.98600006103516
 70
   192
  0
VERTEX
  5
795
  8
0
 10
10.52499961853027
 20
-11.35900020599365
 30
26.41900062561035
 70
   192
  0
VERTEX
  5
796
  8
0
 10
7.045000076293945
 20
-12.80200004577637
 30
23.18600082397461
 70
   192
  0
VERTEX
  5
797
  8
0
 10
7.047999858856201
 20
-13.38899993896484
 30
23.55200004577637
 70
   192
  0
VERTEX
  5
798
  8
0
 10
10.52600002288818
 20
-11.56999969482422
 30
26.54700088500977
 70
   192
  0
VERTEX
  5
799
  8
0
 10
7.048999786376953
 20
-13.46399974822998
 30
23.60000038146973
 70
   192
  0
VERTEX
  5
79A
  8
0
 10
10.53400039672852
 20
-13.0600004196167
 30
27.44700050354004
 70
   192
  0
VERTEX
  5
79B
  8
0
 10
7.053999900817871
 20
-14.52299976348877
 30
24.26199913024902
 70
   192
  0
VERTEX
  5
79C
  8
0
 10
7.063000202178955
 20
-16.31599998474121
 30
25.20999908447266
 70
   192
  0
VERTEX
  5
79D
  8
0
 10
10.54300022125244
 20
-15.10000038146973
 30
28.48900032043457
 70
   192
  0
VERTEX
  5
79E
  8
0
 10
7.065000057220459
 20
-16.59900093078613
 30
25.33399963378906
 70
   192
  0
VERTEX
  5
79F
  8
0
 10
10.54199981689453
 20
-14.82499980926514
 30
28.36700057983398
 70
   192
  0
VERTEX
  5
7A0
  8
0
 10
10.55099964141846
 20
-16.65200042724609
 30
29.17600059509277
 70
   192
  0
VERTEX
  5
7A1
  8
0
 10
7.071000099182129
 20
-17.89599990844727
 30
25.90399932861328
 70
   192
  0
VERTEX
  5
7A2
  8
0
 10
7.072999954223633
 20
-18.17099952697754
 30
26.02499961853027
 70
   192
  0
VERTEX
  5
7A3
  8
0
 10
10.5600004196167
 20
-18.54000091552734
 30
29.87199974060059
 70
   192
  0
VERTEX
  5
7A4
  8
0
 10
7.081999778747559
 20
-19.95700073242188
 30
26.65999984741211
 70
   192
  0
VERTEX
  5
7A5
  8
0
 10
10.5620002746582
 20
-18.87800025939941
 30
29.97200012207031
 70
   192
  0
VERTEX
  5
7A6
  8
0
 10
7.083000183105469
 20
-20.07999992370605
 30
26.70400047302246
 70
   192
  0
VERTEX
  5
7A7
  8
0
 10
10.56999969482422
 20
-20.57200050354004
 30
30.47299957275391
 70
   192
  0
VERTEX
  5
7A8
  8
0
 10
10.57999992370605
 20
-22.51000022888184
 30
30.91200065612793
 70
   192
  0
VERTEX
  5
7A9
  8
0
 10
7.097000122070312
 20
-22.75699996948242
 30
27.38699913024902
 70
   192
  0
VERTEX
  5
7AA
  8
0
 10
7.092999935150146
 20
-22.03000068664551
 30
27.24200057983398
 70
   192
  0
VERTEX
  5
7AB
  8
0
 10
7.099999904632568
 20
-23.44899940490723
 30
27.52599906921387
 70
   192
  0
VERTEX
  5
7AC
  8
0
 10
10.58100032806396
 20
-22.80200004577637
 30
30.95899963378906
 70
   192
  0
VERTEX
  5
7AD
  8
0
 10
10.58899974822998
 20
-24.47800064086914
 30
31.22800064086914
 70
   192
  0
VERTEX
  5
7AE
  8
0
 10
10.59899997711182
 20
-26.46999931335449
 30
31.41900062561035
 70
   192
  0
VERTEX
  5
7AF
  8
0
 10
7.113999843597412
 20
-26.02000045776367
 30
27.88999938964844
 70
   192
  0
VERTEX
  5
7B0
  8
0
 10
7.103000164031982
 20
-24.01399993896484
 30
27.63800048828125
 70
   192
  0
VERTEX
  5
7B1
  8
0
 10
7.11899995803833
 20
-27.01300048828125
 30
27.94499969482422
 70
   192
  0
VERTEX
  5
7B2
  8
0
 10
10.60099983215332
 20
-26.80999946594238
 30
31.43000030517578
 70
   192
  0
VERTEX
  5
7B3
  8
0
 10
10.60900020599365
 20
-28.48299980163574
 30
31.48399925231934
 70
   192
  0
VERTEX
  5
7B4
  8
0
 10
7.124000072479248
 20
-27.89599990844727
 30
27.99300003051758
 70
   192
  0
VERTEX
  5
7B5
  8
0
 10
7.124000072479248
 20
-27.80599975585938
 30
27.98900032043457
 70
   192
  0
VERTEX
  5
7B6
  8
0
 10
10.61900043487549
 20
-30.89200019836426
 30
31.48299980163574
 70
   192
  0
VERTEX
  5
7B7
  8
0
 10
7.138999938964844
 20
-30.64200019836426
 30
28.0
 70
   192
  0
VERTEX
  5
7B8
  8
0
 10
7.127999782562256
 20
-28.5
 30
28.0
 70
   192
  0
VERTEX
  5
7B9
  8
0
 10
10.63199996948242
 20
-33.91400146484375
 30
31.48200035095215
 70
   192
  0
VERTEX
  5
7BA
  8
0
 10
7.157999992370605
 20
-34.27899932861328
 30
28.0
 70
   192
  0
VERTEX
  5
7BB
  8
0
 10
10.63300037384033
 20
-34.06900024414062
 30
31.48200035095215
 70
   192
  0
VERTEX
  5
7BC
  8
0
 10
10.64900016784668
 20
-43.14500045776367
 30
31.45499992370605
 70
   192
  0
VERTEX
  5
7BD
  8
0
 10
7.196000099182129
 20
-41.55199813842773
 30
28.0
 70
   192
  0
VERTEX
  5
7BE
  8
0
 10
7.179999828338623
 20
-38.44400024414062
 30
28.0
 70
   192
  0
VERTEX
  5
7BF
  8
0
 10
10.63399982452393
 20
-34.97999954223633
 30
31.47900009155273
 70
   192
  0
VERTEX
  5
7C0
  8
0
 10
7.269000053405762
 20
-55.4010009765625
 30
28.0
 70
   192
  0
VERTEX
  5
7C1
  8
0
 10
10.67099952697754
 20
-55.56900024414062
 30
31.41900062561035
 70
   192
  0
VERTEX
  5
7C2
  8
0
 10
9.795000076293945
 20
-55.5260009765625
 30
30.53899955749512
 70
   192
  0
VERTEX
  5
7C3
  8
0
 62
     9
 10
0.0
 20
0.0
 30
0.0
 70
   128
 71
     3
 72
     2
 73
     1
  0
VERTEX
  5
7C4
  8
0
 62
     9
 10
0.0
 20
0.0
 30
0.0
 70
   128
 71
     6
 72
     5
 73
     4
  0
VERTEX
  5
7C5
  8
0
 62
     9
 10
0.0
 20
0.0
 30
0.0
 70
   128
 71
     4
 72
     3
 73
     6
  0
VERTEX
  5
7C6
  8
0
 62
     9
 10
0.0
 20
0.0
 30
0.0
 70
   128
 71
     8
 72
     7
 73
     4
  0
VERTEX
  5
7C7
  8
0
 62
     9
 10
0.0
 20
0.0
 30
0.0
 70
   128
 71
     4
 72
     5
 73
     8
  0
VERTEX
  5
7C8
  8
0
 62
     9
 10
0.0
 20
0.0
 30
0.0
 70
   128
 71
     7
 72
     8
 73
     9
  0
VERTEX
  5
7C9
  8
0
 62
     9
 10
0.0
 20
0.0
 30
0.0
 70
   128
 71
    12
 72
    11
 73
    10
  0
VERTEX
  5
7CA
  8
0
 62
     9
 10
0.0
 20
0.0
 30
0.0
 70
   128
 71
    10
 72
    13
 73
     9
  0
VERTEX
  5
7CB
  8
0
 62
     9
 10
0.0
 20
0.0
 30
0.0
 70
   128
 71
    12
 72
    14
 73
    11
  0
VERTEX
  5
7CC
  8
0
 62
     9
 10
0.0
 20
0.0
 30
0.0
 70
   128
 71
    11
 72
    14
 73
    15
  0
VERTEX
  5
7CD
  8
0
 62
     9
 10
0.0
 20
0.0
 30
0.0
 70
   128
 71
    15
 72
    16
 73
    11
  0
VERTEX
  5
7CE
  8
0
 62
     9
 10
0.0
 20
0.0
 30
0.0
 70
   128
 71
    10
 72
     9
 73
    12
  0
VERTEX
  5
7CF
  8
0
 62
     9
 10
0.0
 20
0.0
 30
0.0
 70
   128
 71
    18
 72
    17
 73
    16
  0
VERTEX
  5
7D0
  8
0
 62
     9
 10
0.0
 20
0.0
 30
0.0
 70
   128
 71
    20
 72
    19
 73
    17
  0
VERTEX
  5
7D1
  8
0
 62
     9
 10
0.0
 20
0.0
 30
0.0
 70
   128
 71
    20
 72
    22
 73
    21
  0
VERTEX
  5
7D2
  8
0
 62
     9
 10
0.0
 20
0.0
 30
0.0
 70
   128
 71
    21
 72
    19
 73
    20
  0
VERTEX
  5
7D3
  8
0
 62
     9
 10
0.0
 20
0.0
 30
0.0
 70
   128
 71
    17
 72
    18
 73
    20
  0
VERTEX
  5
7D4
  8
0
 62
     9
 10
0.0
 20
0.0
 30
0.0
 70
   128
 71
    24
 72
    21
 73
    23
  0
VERTEX
  5
7D5
  8
0
 62
     9
 10
0.0
 20
0.0
 30
0.0
 70
   128
 71
    23
 72
    25
 73
    24
  0
VERTEX
  5
7D6
  8
0
 62
     9
 10
0.0
 20
0.0
 30
0.0
 70
   128
 71
    25
 72
    27
 73
    26
  0
VERTEX
  5
7D7
  8
0
 62
     9
 10
0.0
 20
0.0
 30
0.0
 70
   128
 71
    26
 72
    24
 73
    25
  0
VERTEX
  5
7D8
  8
0
 62
     9
 10
0.0
 20
0.0
 30
0.0
 70
   128
 71
    29
 72
    28
 73
    27
  0
VERTEX
  5
7D9
  8
0
 62
     9
 10
0.0
 20
0.0
 30
0.0
 70
   128
 71
    27
 72
    30
 73
    29
  0
VERTEX
  5
7DA
  8
0
 62
     9
 10
0.0
 20
0.0
 30
0.0
 70
   128
 71
    27
 72
    28
 73
    26
  0
VERTEX
  5
7DB
  8
0
 62
     9
 10
0.0
 20
0.0
 30
0.0
 70
   128
 71
    32
 72
    31
 73
    29
  0
VERTEX
  5
7DC
  8
0
 62
     9
 10
0.0
 20
0.0
 30
0.0
 70
   128
 71
    35
 72
    34
 73
    33
  0
VERTEX
  5
7DD
  8
0
 62
     9
 10
0.0
 20
0.0
 30
0.0
 70
   128
 71
    33
 72
    31
 73
    35
  0
VERTEX
  5
7DE
  8
0
 62
     9
 10
0.0
 20
0.0
 30
0.0
 70
   128
 71
    34
 72
    37
 73
    36
  0
VERTEX
  5
7DF
  8
0
 62
     9
 10
0.0
 20
0.0
 30
0.0
 70
   128
 71
    36
 72
    33
 73
    34
  0
VERTEX
  5
7E0
  8
0
 62
     9
 10
0.0
 20
0.0
 30
0.0
 70
   128
 71
    31
 72
    32
 73
    35
  0
VERTEX
  5
7E1
  8
0
 62
     9
 10
0.0
 20
0.0
 30
0.0
 70
   128
 71
    38
 72
    36
 73
    37
  0
VERTEX
  5
7E2
  8
0
 62
     9
 10
0.0
 20
0.0
 30
0.0
 70
   128
 71
    41
 72
    40
 73
    39
  0
VERTEX
  5
7E3
  8
0
 62
     9
 10
0.0
 20
0.0
 30
0.0
 70
   128
 71
    43
 72
    42
 73
    39
  0
VERTEX
  5
7E4
  8
0
 62
     9
 10
0.0
 20
0.0
 30
0.0
 70
   128
 71
    39
 72
    40
 73
    43
  0
VERTEX
  5
7E5
  8
0
 62
     9
 10
0.0
 20
0.0
 30
0.0
 70
   128
 71
    39
 72
    38
 73
    41
  0
VERTEX
  5
7E6
  8
0
 62
     9
 10
0.0
 20
0.0
 30
0.0
 70
   128
 71
    43
 72
    44
 73
    42
  0
VERTEX
  5
7E7
  8
0
 62
     9
 10
0.0
 20
0.0
 30
0.0
 70
   128
 71
    45
 72
    42
 73
    44
  0
VERTEX
  5
7E8
  8
0
 62
     9
 10
0.0
 20
0.0
 30
0.0
 70
   128
 71
    44
 72
    46
 73
    45
  0
VERTEX
  5
7E9
  8
0
 62
     9
 10
0.0
 20
0.0
 30
0.0
 70
   128
 71
    46
 72
    48
 73
    47
  0
VERTEX
  5
7EA
  8
0
 62
     9
 10
0.0
 20
0.0
 30
0.0
 70
   128
 71
    47
 72
    49
 73
    46
  0
VERTEX
  5
7EB
  8
0
 62
     9
 10
0.0
 20
0.0
 30
0.0
 70
   128
 71
    48
 72
    50
 73
    47
  0
VERTEX
  5
7EC
  8
0
 62
     9
 10
0.0
 20
0.0
 30
0.0
 70
   128
 71
    52
 72
    51
 73
    50
  0
VERTEX
  5
7ED
  8
0
 62
     9
 10
0.0
 20
0.0
 30
0.0
 70
   128
 71
    52
 72
    53
 73
    51
  0
VERTEX
  5
7EE
  8
0
 62
     9
 10
0.0
 20
0.0
 30
0.0
 70
   128
 71
    53
 72
    55
 73
    54
  0
VERTEX
  5
7EF
  8
0
 62
     9
 10
0.0
 20
0.0
 30
0.0
 70
   128
 71
    54
 72
    51
 73
    53
  0
VERTEX
  5
7F0
  8
0
 62
     9
 10
0.0
 20
0.0
 30
0.0
 70
   128
 71
    55
 72
    56
 73
    54
  0
VERTEX
  5
7F1
  8
0
 62
     9
 10
0.0
 20
0.0
 30
0.0
 70
   128
 71
    50
 72
    57
 73
    52
  0
VERTEX
  5
7F2
  8
0
 62
     9
 10
0.0
 20
0.0
 30
0.0
 70
   128
 71
    59
 72
    56
 73
    58
  0
VERTEX
  5
7F3
  8
0
 62
     9
 10
0.0
 20
0.0
 30
0.0
 70
   128
 71
    62
 72
    61
 73
    60
  0
VERTEX
  5
7F4
  8
0
 62
     9
 10
0.0
 20
0.0
 30
0.0
 70
   128
 71
    60
 72
    61
 73
    63
  0
VERTEX
  5
7F5
  8
0
 62
     9
 10
0.0
 20
0.0
 30
0.0
 70
   128
 71
    63
 72
    64
 73
    60
  0
VERTEX
  5
7F6
  8
0
 62
     9
 10
0.0
 20
0.0
 30
0.0
 70
   128
 71
    60
 72
    59
 73
    62
  0
VERTEX
  5
7F7
  8
0
 62
     9
 10
0.0
 20
0.0
 30
0.0
 70
   128
 71
    58
 72
    62
 73
    59
  0
VERTEX
  5
7F8
  8
0
 62
     9
 10
0.0
 20
0.0
 30
0.0
 70
   128
 71
    65
 72
    64
 73
    63
  0
VERTEX
  5
7F9
  8
0
 62
     9
 10
0.0
 20
0.0
 30
0.0
 70
   128
 71
    68
 72
    67
 73
    66
  0
VERTEX
  5
7FA
  8
0
 62
     9
 10
0.0
 20
0.0
 30
0.0
 70
   128
 71
    67
 72
    70
 73
    69
  0
VERTEX
  5
7FB
  8
0
 62
     9
 10
0.0
 20
0.0
 30
0.0
 70
   128
 71
    69
 72
    66
 73
    67
  0
VERTEX
  5
7FC
  8
0
 62
     9
 10
0.0
 20
0.0
 30
0.0
 70
   128
 71
    66
 72
    65
 73
    68
  0
VERTEX
  5
7FD
  8
0
 62
     9
 10
0.0
 20
0.0
 30
0.0
 70
   128
 71
    69
 72
    70
 73
    71
  0
VERTEX
  5
7FE
  8
0
 62
     9
 10
0.0
 20
0.0
 30
0.0
 70
   128
 71
    71
 72
    73
 73
    72
  0
VERTEX
  5
7FF
  8
0
 62
     9
 10
0.0
 20
0.0
 30
0.0
 70
   128
 71
    73
 72
    75
 73
    74
  0
VERTEX
  5
800
  8
0
 62
     9
 10
0.0
 20
0.0
 30
0.0
 70
   128
 71
    74
 72
    72
 73
    73
  0
VERTEX
  5
801
  8
0
 62
     9
 10
0.0
 20
0.0
 30
0.0
 70
   128
 71
    75
 72
    77
 73
    76
  0
VERTEX
  5
802
  8
0
 62
     9
 10
0.0
 20
0.0
 30
0.0
 70
   128
 71
    75
 72
    76
 73
    74
  0
VERTEX
  5
803
  8
0
 62
     9
 10
0.0
 20
0.0
 30
0.0
 70
   128
 71
    80
 72
    79
 73
    78
  0
VERTEX
  5
804
  8
0
 62
     9
 10
0.0
 20
0.0
 30
0.0
 70
   128
 71
    78
 72
    76
 73
    77
  0
VERTEX
  5
805
  8
0
 62
     9
 10
0.0
 20
0.0
 30
0.0
 70
   128
 71
    82
 72
    79
 73
    81
  0
VERTEX
  5
806
  8
0
 62
     9
 10
0.0
 20
0.0
 30
0.0
 70
   128
 71
    81
 72
    83
 73
    82
  0
VERTEX
  5
807
  8
0
 62
     9
 10
0.0
 20
0.0
 30
0.0
 70
   128
 71
    83
 72
    84
 73
    82
  0
VERTEX
  5
808
  8
0
 62
     9
 10
0.0
 20
0.0
 30
0.0
 70
   128
 71
    83
 72
    85
 73
    84
  0
VERTEX
  5
809
  8
0
 62
     9
 10
0.0
 20
0.0
 30
0.0
 70
   128
 71
    79
 72
    80
 73
    81
  0
VERTEX
  5
80A
  8
0
 62
     9
 10
0.0
 20
0.0
 30
0.0
 70
   128
 71
    86
 72
    84
 73
    85
  0
VERTEX
  5
80B
  8
0
 62
     9
 10
0.0
 20
0.0
 30
0.0
 70
   128
 71
    89
 72
    88
 73
    87
  0
VERTEX
  5
80C
  8
0
 62
     9
 10
0.0
 20
0.0
 30
0.0
 70
   128
 71
    87
 72
    86
 73
    89
  0
VERTEX
  5
80D
  8
0
 62
     9
 10
0.0
 20
0.0
 30
0.0
 70
   128
 71
    88
 72
    91
 73
    90
  0
VERTEX
  5
80E
  8
0
 62
     9
 10
0.0
 20
0.0
 30
0.0
 70
   128
 71
    88
 72
    90
 73
    87
  0
VERTEX
  5
80F
  8
0
 62
     9
 10
0.0
 20
0.0
 30
0.0
 70
   128
 71
    91
 72
    92
 73
    90
  0
VERTEX
  5
810
  8
0
 62
     9
 10
0.0
 20
0.0
 30
0.0
 70
   128
 71
    95
 72
    94
 73
    93
  0
VERTEX
  5
811
  8
0
 62
     9
 10
0.0
 20
0.0
 30
0.0
 70
   128
 71
    93
 72
    96
 73
    92
  0
VERTEX
  5
812
  8
0
 62
     9
 10
0.0
 20
0.0
 30
0.0
 70
   128
 71
    96
 72
    90
 73
    92
  0
VERTEX
  5
813
  8
0
 62
     9
 10
0.0
 20
0.0
 30
0.0
 70
   128
 71
    94
 72
    95
 73
    97
  0
VERTEX
  5
814
  8
0
 62
     9
 10
0.0
 20
0.0
 30
0.0
 70
   128
 71
    97
 72
    98
 73
    94
  0
VERTEX
  5
815
  8
0
 62
     9
 10
0.0
 20
0.0
 30
0.0
 70
   128
 71
   100
 72
    99
 73
    98
  0
VERTEX
  5
816
  8
0
 62
     9
 10
0.0
 20
0.0
 30
0.0
 70
   128
 71
    99
 72
   100
 73
   101
  0
VERTEX
  5
817
  8
0
 62
     9
 10
0.0
 20
0.0
 30
0.0
 70
   128
 71
   104
 72
   103
 73
   102
  0
VERTEX
  5
818
  8
0
 62
     9
 10
0.0
 20
0.0
 30
0.0
 70
   128
 71
   102
 72
   101
 73
   104
  0
VERTEX
  5
819
  8
0
 62
     9
 10
0.0
 20
0.0
 30
0.0
 70
   128
 71
   103
 72
   104
 73
   105
  0
VERTEX
  5
81A
  8
0
 62
     9
 10
0.0
 20
0.0
 30
0.0
 70
   128
 71
   105
 72
   106
 73
   103
  0
VERTEX
  5
81B
  8
0
 62
     9
 10
0.0
 20
0.0
 30
0.0
 70
   128
 71
   101
 72
   102
 73
    99
  0
VERTEX
  5
81C
  8
0
 62
     9
 10
0.0
 20
0.0
 30
0.0
 70
   128
 71
   108
 72
   107
 73
   106
  0
VERTEX
  5
81D
  8
0
 62
     9
 10
0.0
 20
0.0
 30
0.0
 70
   128
 71
   110
 72
   109
 73
   107
  0
VERTEX
  5
81E
  8
0
 62
     9
 10
0.0
 20
0.0
 30
0.0
 70
   128
 71
   110
 72
   111
 73
   109
  0
VERTEX
  5
81F
  8
0
 62
     9
 10
0.0
 20
0.0
 30
0.0
 70
   128
 71
   111
 72
   113
 73
   112
  0
VERTEX
  5
820
  8
0
 62
     9
 10
0.0
 20
0.0
 30
0.0
 70
   128
 71
   112
 72
   109
 73
   111
  0
VERTEX
  5
821
  8
0
 62
     9
 10
0.0
 20
0.0
 30
0.0
 70
   128
 71
   107
 72
   108
 73
   110
  0
VERTEX
  5
822
  8
0
 62
     9
 10
0.0
 20
0.0
 30
0.0
 70
   128
 71
   114
 72
   112
 73
   113
  0
VERTEX
  5
823
  8
0
 62
     9
 10
0.0
 20
0.0
 30
0.0
 70
   128
 71
   117
 72
   116
 73
   115
  0
VERTEX
  5
824
  8
0
 62
     9
 10
0.0
 20
0.0
 30
0.0
 70
   128
 71
   115
 72
   114
 73
   117
  0
VERTEX
  5
825
  8
0
 62
     9
 10
0.0
 20
0.0
 30
0.0
 70
   128
 71
   116
 72
   119
 73
   118
  0
VERTEX
  5
826
  8
0
 62
     9
 10
0.0
 20
0.0
 30
0.0
 70
   128
 71
   118
 72
   120
 73
   116
  0
VERTEX
  5
827
  8
0
 62
     9
 10
0.0
 20
0.0
 30
0.0
 70
   128
 71
   116
 72
   120
 73
   115
  0
VERTEX
  5
828
  8
0
 62
     9
 10
0.0
 20
0.0
 30
0.0
 70
   128
 71
   123
 72
   122
 73
   121
  0
VERTEX
  5
829
  8
0
 62
     9
 10
0.0
 20
0.0
 30
0.0
 70
   128
 71
   121
 72
   118
 73
   123
  0
VERTEX
  5
82A
  8
0
 62
     9
 10
0.0
 20
0.0
 30
0.0
 70
   128
 71
   122
 72
   125
 73
   124
  0
VERTEX
  5
82B
  8
0
 62
     9
 10
0.0
 20
0.0
 30
0.0
 70
   128
 71
   124
 72
   121
 73
   122
  0
VERTEX
  5
82C
  8
0
 62
     9
 10
0.0
 20
0.0
 30
0.0
 70
   128
 71
   125
 72
   126
 73
   124
  0
VERTEX
  5
82D
  8
0
 62
     9
 10
0.0
 20
0.0
 30
0.0
 70
   128
 71
   129
 72
   128
 73
   127
  0
VERTEX
  5
82E
  8
0
 62
     9
 10
0.0
 20
0.0
 30
0.0
 70
   128
 71
   128
 72
   130
 73
   127
  0
VERTEX
  5
82F
  8
0
 62
     9
 10
0.0
 20
0.0
 30
0.0
 70
   128
 71
   130
 72
   132
 73
   131
  0
VERTEX
  5
830
  8
0
 62
     9
 10
0.0
 20
0.0
 30
0.0
 70
   128
 71
   131
 72
   127
 73
   130
  0
VERTEX
  5
831
  8
0
 62
     9
 10
0.0
 20
0.0
 30
0.0
 70
   128
 71
   132
 72
   133
 73
   131
  0
VERTEX
  5
832
  8
0
 62
     9
 10
0.0
 20
0.0
 30
0.0
 70
   128
 71
   127
 72
   126
 73
   129
  0
VERTEX
  5
833
  8
0
 62
     9
 10
0.0
 20
0.0
 30
0.0
 70
   128
 71
   135
 72
   134
 73
   133
  0
VERTEX
  5
834
  8
0
 62
     9
 10
0.0
 20
0.0
 30
0.0
 70
   128
 71
   137
 72
   136
 73
   134
  0
VERTEX
  5
835
  8
0
 62
     9
 10
0.0
 20
0.0
 30
0.0
 70
   128
 71
   136
 72
   137
 73
   138
  0
VERTEX
  5
836
  8
0
 62
     9
 10
0.0
 20
0.0
 30
0.0
 70
   128
 71
   138
 72
   140
 73
   139
  0
VERTEX
  5
837
  8
0
 62
     9
 10
0.0
 20
0.0
 30
0.0
 70
   128
 71
   138
 72
   139
 73
   136
  0
VERTEX
  5
838
  8
0
 62
     9
 10
0.0
 20
0.0
 30
0.0
 70
   128
 71
   134
 72
   135
 73
   137
  0
VERTEX
  5
839
  8
0
 62
     9
 10
0.0
 20
0.0
 30
0.0
 70
   128
 71
   142
 72
   141
 73
   139
  0
VERTEX
  5
83A
  8
0
 62
     9
 10
0.0
 20
0.0
 30
0.0
 70
   128
 71
   141
 72
   142
 73
   143
  0
VERTEX
  5
83B
  8
0
 62
     9
 10
0.0
 20
0.0
 30
0.0
 70
   128
 71
   143
 72
   145
 73
   144
  0
VERTEX
  5
83C
  8
0
 62
     9
 10
0.0
 20
0.0
 30
0.0
 70
   128
 71
   144
 72
   146
 73
   143
  0
VERTEX
  5
83D
  8
0
 62
     9
 10
0.0
 20
0.0
 30
0.0
 70
   128
 71
   143
 72
   146
 73
   141
  0
VERTEX
  5
83E
  8
0
 62
     9
 10
0.0
 20
0.0
 30
0.0
 70
   128
 71
   148
 72
   147
 73
   144
  0
VERTEX
  5
83F
  8
0
 62
     9
 10
0.0
 20
0.0
 30
0.0
 70
   128
 71
   148
 72
   149
 73
   147
  0
VERTEX
  5
840
  8
0
 62
     9
 10
0.0
 20
0.0
 30
0.0
 70
   128
 71
   149
 72
   151
 73
   150
  0
VERTEX
  5
841
  8
0
 62
     9
 10
0.0
 20
0.0
 30
0.0
 70
   128
 71
   150
 72
   147
 73
   149
  0
VERTEX
  5
842
  8
0
 62
     9
 10
0.0
 20
0.0
 30
0.0
 70
   128
 71
   151
 72
   152
 73
   150
  0
VERTEX
  5
843
  8
0
 62
     9
 10
0.0
 20
0.0
 30
0.0
 70
   128
 71
   154
 72
   152
 73
   153
  0
VERTEX
  5
844
  8
0
 62
     9
 10
0.0
 20
0.0
 30
0.0
 70
   128
 71
   157
 72
   156
 73
   155
  0
VERTEX
  5
845
  8
0
 62
     9
 10
0.0
 20
0.0
 30
0.0
 70
   128
 71
   155
 72
   156
 73
   158
  0
VERTEX
  5
846
  8
0
 62
     9
 10
0.0
 20
0.0
 30
0.0
 70
   128
 71
   158
 72
   159
 73
   155
  0
VERTEX
  5
847
  8
0
 62
     9
 10
0.0
 20
0.0
 30
0.0
 70
   128
 71
   155
 72
   154
 73
   157
  0
VERTEX
  5
848
  8
0
 62
     9
 10
0.0
 20
0.0
 30
0.0
 70
   128
 71
   153
 72
   157
 73
   154
  0
VERTEX
  5
849
  8
0
 62
     9
 10
0.0
 20
0.0
 30
0.0
 70
   128
 71
   162
 72
   161
 73
   160
  0
VERTEX
  5
84A
  8
0
 62
     9
 10
0.0
 20
0.0
 30
0.0
 70
   128
 71
   160
 72
   159
 73
   163
  0
VERTEX
  5
84B
  8
0
 62
     9
 10
0.0
 20
0.0
 30
0.0
 70
   128
 71
   161
 72
   162
 73
   164
  0
VERTEX
  5
84C
  8
0
 62
     9
 10
0.0
 20
0.0
 30
0.0
 70
   128
 71
   164
 72
   165
 73
   161
  0
VERTEX
  5
84D
  8
0
 62
     9
 10
0.0
 20
0.0
 30
0.0
 70
   128
 71
   160
 72
   163
 73
   162
  0
VERTEX
  5
84E
  8
0
 62
     9
 10
0.0
 20
0.0
 30
0.0
 70
   128
 71
   167
 72
   166
 73
   165
  0
VERTEX
  5
84F
  8
0
 62
     9
 10
0.0
 20
0.0
 30
0.0
 70
   128
 71
   165
 72
   168
 73
   167
  0
VERTEX
  5
850
  8
0
 62
     9
 10
0.0
 20
0.0
 30
0.0
 70
   128
 71
   170
 72
   169
 73
   166
  0
VERTEX
  5
851
  8
0
 62
     9
 10
0.0
 20
0.0
 30
0.0
 70
   128
 71
   166
 72
   171
 73
   170
  0
VERTEX
  5
852
  8
0
 62
     9
 10
0.0
 20
0.0
 30
0.0
 70
   128
 71
   166
 72
   167
 73
   171
  0
VERTEX
  5
853
  8
0
 62
     9
 10
0.0
 20
0.0
 30
0.0
 70
   128
 71
   172
 72
   169
 73
   170
  0
VERTEX
  5
854
  8
0
 62
     9
 10
0.0
 20
0.0
 30
0.0
 70
   128
 71
   170
 72
   173
 73
   172
  0
VERTEX
  5
855
  8
0
 62
     9
 10
0.0
 20
0.0
 30
0.0
 70
   128
 71
   173
 72
   174
 73
   172
  0
VERTEX
  5
856
  8
0
 62
     9
 10
0.0
 20
0.0
 30
0.0
 70
   128
 71
   177
 72
   176
 73
   175
  0
VERTEX
  5
857
  8
0
 62
     9
 10
0.0
 20
0.0
 30
0.0
 70
   128
 71
   175
 72
   178
 73
   177
  0
VERTEX
  5
858
  8
0
 62
     9
 10
0.0
 20
0.0
 30
0.0
 70
   128
 71
   175
 72
   176
 73
   179
  0
VERTEX
  5
859
  8
0
 62
     9
 10
0.0
 20
0.0
 30
0.0
 70
   128
 71
   181
 72
   180
 73
   175
  0
VERTEX
  5
85A
  8
0
 62
     9
 10
0.0
 20
0.0
 30
0.0
 70
   128
 71
   179
 72
   181
 73
   175
  0
VERTEX
  5
85B
  8
0
 62
     9
 10
0.0
 20
0.0
 30
0.0
 70
   128
 71
   178
 72
   173
 73
   177
  0
VERTEX
  5
85C
  8
0
 62
     9
 10
0.0
 20
0.0
 30
0.0
 70
   128
 71
   173
 72
   178
 73
   174
  0
VERTEX
  5
85D
  8
0
 62
     9
 10
0.0
 20
0.0
 30
0.0
 70
   128
 71
   165
 72
   164
 73
   168
  0
VERTEX
  5
85E
  8
0
 62
     9
 10
0.0
 20
0.0
 30
0.0
 70
   128
 71
   159
 72
   158
 73
   163
  0
VERTEX
  5
85F
  8
0
 62
     9
 10
0.0
 20
0.0
 30
0.0
 70
   128
 71
   152
 72
   151
 73
   153
  0
VERTEX
  5
860
  8
0
 62
     9
 10
0.0
 20
0.0
 30
0.0
 70
   128
 71
   144
 72
   145
 73
   148
  0
VERTEX
  5
861
  8
0
 62
     9
 10
0.0
 20
0.0
 30
0.0
 70
   128
 71
   139
 72
   140
 73
   142
  0
VERTEX
  5
862
  8
0
 62
     9
 10
0.0
 20
0.0
 30
0.0
 70
   128
 71
   133
 72
   132
 73
   135
  0
VERTEX
  5
863
  8
0
 62
     9
 10
0.0
 20
0.0
 30
0.0
 70
   128
 71
   126
 72
   125
 73
   129
  0
VERTEX
  5
864
  8
0
 62
     9
 10
0.0
 20
0.0
 30
0.0
 70
   128
 71
   118
 72
   119
 73
   123
  0
VERTEX
  5
865
  8
0
 62
     9
 10
0.0
 20
0.0
 30
0.0
 70
   128
 71
   113
 72
   117
 73
   114
  0
VERTEX
  5
866
  8
0
 62
     9
 10
0.0
 20
0.0
 30
0.0
 70
   128
 71
   106
 72
   105
 73
   108
  0
VERTEX
  5
867
  8
0
 62
     9
 10
0.0
 20
0.0
 30
0.0
 70
   128
 71
    98
 72
    97
 73
   100
  0
VERTEX
  5
868
  8
0
 62
     9
 10
0.0
 20
0.0
 30
0.0
 70
   128
 71
    93
 72
    92
 73
    95
  0
VERTEX
  5
869
  8
0
 62
     9
 10
0.0
 20
0.0
 30
0.0
 70
   128
 71
    85
 72
    89
 73
    86
  0
VERTEX
  5
86A
  8
0
 62
     9
 10
0.0
 20
0.0
 30
0.0
 70
   128
 71
    78
 72
    77
 73
    80
  0
VERTEX
  5
86B
  8
0
 62
     9
 10
0.0
 20
0.0
 30
0.0
 70
   128
 71
    71
 72
    72
 73
    69
  0
VERTEX
  5
86C
  8
0
 62
     9
 10
0.0
 20
0.0
 30
0.0
 70
   128
 71
    63
 72
    68
 73
    65
  0
VERTEX
  5
86D
  8
0
 62
     9
 10
0.0
 20
0.0
 30
0.0
 70
   128
 71
    56
 72
    55
 73
    58
  0
VERTEX
  5
86E
  8
0
 62
     9
 10
0.0
 20
0.0
 30
0.0
 70
   128
 71
    50
 72
    48
 73
    57
  0
VERTEX
  5
86F
  8
0
 62
     9
 10
0.0
 20
0.0
 30
0.0
 70
   128
 71
    46
 72
    49
 73
    45
  0
VERTEX
  5
870
  8
0
 62
     9
 10
0.0
 20
0.0
 30
0.0
 70
   128
 71
    37
 72
    41
 73
    38
  0
VERTEX
  5
871
  8
0
 62
     9
 10
0.0
 20
0.0
 30
0.0
 70
   128
 71
    29
 72
    30
 73
    32
  0
VERTEX
  5
872
  8
0
 62
     9
 10
0.0
 20
0.0
 30
0.0
 70
   128
 71
    21
 72
    22
 73
    23
  0
VERTEX
  5
873
  8
0
 62
     9
 10
0.0
 20
0.0
 30
0.0
 70
   128
 71
    16
 72
    15
 73
    18
  0
VERTEX
  5
874
  8
0
 62
     9
 10
0.0
 20
0.0
 30
0.0
 70
   128
 71
     9
 72
    13
 73
     7
  0
VERTEX
  5
875
  8
0
 62
     9
 10
0.0
 20
0.0
 30
0.0
 70
   128
 71
     1
 72
     6
 73
     3
  0
SEQEND
  5
876
  8
0
 62
     9
  0
ENDBLK
  5
879
  8
0
  0
BLOCK
  8
0
  2
E3_NODE_21_
 70
     0
 10
0.0
 20
0.0
 30
0.0
  3
E3_NODE_21_
  1

  0
POLYLINE
  5
87B
  8
0
 62
     9
 66
     1
 10
0.0
 20
0.0
 30
0.0
 70
    64
 71
    10
 72
     8
  0
VERTEX
  5
87C
  8
0
 10
7.189000129699707
 20
-52.34400177001953
 30
-28.0
 70
   192
  0
VERTEX
  5
87D
  8
0
 10
10.67000007629395
 20
-54.0
 30
-31.48399925231934
 70
   192
  0
VERTEX
  5
87E
  8
0
 10
10.62199974060059
 20
-34.06900024414062
 30
-31.48399925231934
 70
   192
  0
VERTEX
  5
87F
  8
0
 10
7.127999782562256
 20
-28.5
 30
-28.0
 70
   192
  0
VERTEX
  5
880
  8
0
 10
10.60900020599365
 20
-28.48299980163574
 30
-31.48399925231934
 70
   192
  0
VERTEX
  5
881
  8
0
 10
7.185999870300293
 20
-54.0
 30
-28.0
 70
   192
  0
VERTEX
  5
882
  8
0
 10
7.126999855041504
 20
-79.5
 30
-28.0
 70
   192
  0
VERTEX
  5
883
  8
0
 10
10.6230001449585
 20
-73.9469985961914
 30
-31.48399925231934
 70
   192
  0
VERTEX
  5
884
  8
0
 10
10.67099952697754
 20
-54.50099945068359
 30
-31.48399925231934
 70
   192
  0
VERTEX
  5
885
  8
0
 10
10.60900020599365
 20
-79.51699829101562
 30
-31.48399925231934
 70
   192
  0
VERTEX
  5
886
  8
0
 62
     9
 10
0.0
 20
0.0
 30
0.0
 70
   128
 71
     3
 72
     2
 73
     1
  0
VERTEX
  5
887
  8
0
 62
     9
 10
0.0
 20
0.0
 30
0.0
 70
   128
 71
     1
 72
     4
 73
     3
  0
VERTEX
  5
888
  8
0
 62
     9
 10
0.0
 20
0.0
 30
0.0
 70
   128
 71
     4
 72
     5
 73
     3
  0
VERTEX
  5
889
  8
0
 62
     9
 10
0.0
 20
0.0
 30
0.0
 70
   128
 71
     8
 72
     7
 73
     6
  0
VERTEX
  5
88A
  8
0
 62
     9
 10
0.0
 20
0.0
 30
0.0
 70
   128
 71
     6
 72
     9
 73
     8
  0
VERTEX
  5
88B
  8
0
 62
     9
 10
0.0
 20
0.0
 30
0.0
 70
   128
 71
     8
 72
    10
 73
     7
  0
VERTEX
  5
88C
  8
0
 62
     9
 10
0.0
 20
0.0
 30
0.0
 70
   128
 71
     6
 72
     2
 73
     9
  0
VERTEX
  5
88D
  8
0
 62
     9
 10
0.0
 20
0.0
 30
0.0
 70
   128
 71
     2
 72
     6
 73
     1
  0
SEQEND
  5
88E
  8
0
 62
     9
  0
ENDBLK
  5
891
  8
0
  0
BLOCK
  8
0
  2
E3_NODE_22_
 70
     0
 10
0.0
 20
0.0
 30
0.0
  3
E3_NODE_22_
  1

  0
POLYLINE
  5
893
  8
0
 62
     9
 66
     1
 10
0.0
 20
0.0
 30
0.0
 70
    64
 71
   269
 72
   279
  0
VERTEX
  5
894
  8
0
 10
10.29100036621094
 20
5.809000015258789
 30
-37.26300048828125
 70
   192
  0
VERTEX
  5
895
  8
0
 10
10.59500026702881
 20
-34.06800079345703
 30
-37.26300048828125
 70
   192
  0
VERTEX
  5
896
  8
0
 10
10.14599990844727
 20
-34.0620002746582
 30
-78.0
 70
   192
  0
VERTEX
  5
897
  8
0
 10
10.59500026702881
 20
-73.9469985961914
 30
-37.26300048828125
 70
   192
  0
VERTEX
  5
898
  8
0
 10
10.14599990844727
 20
-73.93599700927734
 30
-78.0
 70
   192
  0
VERTEX
  5
899
  8
0
 10
10.29100036621094
 20
-113.8239974975586
 30
-37.26300048828125
 70
   192
  0
VERTEX
  5
89A
  8
0
 10
9.840999603271484
 20
-113.8099975585938
 30
-78.0
 70
   192
  0
VERTEX
  5
89B
  8
0
 10
10.23700046539307
 20
5.809000015258789
 30
44.2140007019043
 70
   192
  0
VERTEX
  5
89C
  8
0
 10
9.842000007629395
 20
5.811999797821045
 30
78.0
 70
   192
  0
VERTEX
  5
89D
  8
0
 10
10.14599990844727
 20
-34.0620002746582
 30
78.0
 70
   192
  0
VERTEX
  5
89E
  8
0
 10
10.54100036621094
 20
-34.06800079345703
 30
44.2140007019043
 70
   192
  0
VERTEX
  5
89F
  8
0
 10
10.14599990844727
 20
-73.93599700927734
 30
78.0
 70
   192
  0
VERTEX
  5
8A0
  8
0
 10
10.54100036621094
 20
-73.94499969482422
 30
44.2140007019043
 70
   192
  0
VERTEX
  5
8A1
  8
0
 10
9.840999603271484
 20
-113.8099975585938
 30
78.0
 70
   192
  0
VERTEX
  5
8A2
  8
0
 10
10.67000007629395
 20
-54.0
 30
-31.48399925231934
 70
   192
  0
VERTEX
  5
8A3
  8
0
 10
10.67099952697754
 20
-54.50099945068359
 30
-31.48399925231934
 70
   192
  0
VERTEX
  5
8A4
  8
0
 10
10.62199974060059
 20
-34.06900024414062
 30
-31.48399925231934
 70
   192
  0
VERTEX
  5
8A5
  8
0
 10
10.42199993133545
 20
-113.8280029296875
 30
3.476000070571899
 70
   192
  0
VERTEX
  5
8A6
  8
0
 10
10.45499992370605
 20
-111.0009994506836
 30
0.0189999993890524
 70
   192
  0
VERTEX
  5
8A7
  8
0
 10
10.45499992370605
 20
-110.9390029907227
 30
1.934999942779541
 70
   192
  0
VERTEX
  5
8A8
  8
0
 10
10.45499992370605
 20
-110.9369964599609
 30
2.0
 70
   192
  0
VERTEX
  5
8A9
  8
0
 10
10.45499992370605
 20
-110.8899993896484
 30
2.638000011444092
 70
   192
  0
VERTEX
  5
8AA
  8
0
 10
10.45600032806396
 20
-110.7519989013672
 30
-3.953000068664551
 70
   192
  0
VERTEX
  5
8AB
  8
0
 10
10.45499992370605
 20
-110.9359970092773
 30
-2.003999948501587
 70
   192
  0
VERTEX
  5
8AC
  8
0
 10
10.45499992370605
 20
-110.9390029907227
 30
-1.968999981880188
 70
   192
  0
VERTEX
  5
8AD
  8
0
 10
10.45800018310547
 20
-110.4369964599609
 30
-5.928999900817871
 70
   192
  0
VERTEX
  5
8AE
  8
0
 10
10.45800018310547
 20
-110.4390029907227
 30
-5.920000076293945
 70
   192
  0
VERTEX
  5
8AF
  8
0
 10
10.46399974822998
 20
-109.2289962768555
 30
-10.41100025177002
 70
   192
  0
VERTEX
  5
8B0
  8
0
 10
10.46300029754639
 20
-109.4359970092773
 30
-9.756999969482422
 70
   192
  0
VERTEX
  5
8B1
  8
0
 10
10.46100044250488
 20
-109.8290023803711
 30
-8.508000373840332
 70
   192
  0
VERTEX
  5
8B2
  8
0
 10
10.46000003814697
 20
-109.995002746582
 30
-7.894999980926514
 70
   192
  0
VERTEX
  5
8B3
  8
0
 10
10.46700000762939
 20
-108.5120010375977
 30
-12.26799964904785
 70
   192
  0
VERTEX
  5
8B4
  8
0
 10
10.4709997177124
 20
-107.6780014038086
 30
-14.07800006866455
 70
   192
  0
VERTEX
  5
8B5
  8
0
 10
10.47000026702881
 20
-107.984001159668
 30
-13.41399955749512
 70
   192
  0
VERTEX
  5
8B6
  8
0
 10
10.47599983215332
 20
-106.7259979248047
 30
-15.83899974822998
 70
   192
  0
VERTEX
  5
8B7
  8
0
 10
10.48099994659424
 20
-105.6569976806641
 30
-17.54800033569336
 70
   192
  0
VERTEX
  5
8B8
  8
0
 10
10.47900009155273
 20
-106.0739974975586
 30
-16.88100051879883
 70
   192
  0
VERTEX
  5
8B9
  8
0
 10
10.48900032043457
 20
-104.1169967651367
 30
-19.64900016784668
 70
   192
  0
VERTEX
  5
8BA
  8
0
 10
10.48299980163574
 20
-105.3099975585938
 30
-18.05299949645996
 70
   192
  0
VERTEX
  5
8BB
  8
0
 10
10.49499988555908
 20
-102.8259963989258
 30
-21.16399955749512
 70
   192
  0
VERTEX
  5
8BC
  8
0
 10
10.48999977111816
 20
-103.7490005493164
 30
-20.08099937438965
 70
   192
  0
VERTEX
  5
8BD
  8
0
 10
10.5019998550415
 20
-101.4400024414062
 30
-22.59700012207031
 70
   192
  0
VERTEX
  5
8BE
  8
0
 10
10.50899982452393
 20
-99.95999908447266
 30
-23.94300079345703
 70
   192
  0
VERTEX
  5
8BF
  8
0
 10
10.50300025939941
 20
-101.0559997558594
 30
-22.94599914550781
 70
   192
  0
VERTEX
  5
8C0
  8
0
 10
10.51700019836426
 20
-98.38600158691406
 30
-25.20199966430664
 70
   192
  0
VERTEX
  5
8C1
  8
0
 10
10.52499961853027
 20
-96.64099884033203
 30
-26.41900062561035
 70
   192
  0
VERTEX
  5
8C2
  8
0
 10
10.51799964904785
 20
-97.99800109863281
 30
-25.47299957275391
 70
   192
  0
VERTEX
  5
8C3
  8
0
 10
10.54199981689453
 20
-93.17500305175781
 30
-28.36700057983398
 70
   192
  0
VERTEX
  5
8C4
  8
0
 10
10.53499984741211
 20
-94.6729965209961
 30
-27.58600044250488
 70
   192
  0
VERTEX
  5
8C5
  8
0
 10
10.53299999237061
 20
-94.94000244140625
 30
-27.44700050354004
 70
   192
  0
VERTEX
  5
8C6
  8
0
 10
10.55099964141846
 20
-91.3479995727539
 30
-29.17600059509277
 70
   192
  0
VERTEX
  5
8C7
  8
0
 10
10.5600004196167
 20
-89.45999908447266
 30
-29.87199974060059
 70
   192
  0
VERTEX
  5
8C8
  8
0
 10
10.55200004577637
 20
-91.10399627685547
 30
-29.26600074768066
 70
   192
  0
VERTEX
  5
8C9
  8
0
 10
10.57999992370605
 20
-85.48999786376953
 30
-30.91200065612793
 70
   192
  0
VERTEX
  5
8CA
  8
0
 10
10.57100009918213
 20
-87.33300018310547
 30
-30.4950008392334
 70
   192
  0
VERTEX
  5
8CB
  8
0
 10
10.58899974822998
 20
-83.52200317382812
 30
-31.22800064086914
 70
   192
  0
VERTEX
  5
8CC
  8
0
 10
10.59899997711182
 20
-81.53099822998047
 30
-31.41900062561035
 70
   192
  0
VERTEX
  5
8CD
  8
0
 10
10.58899974822998
 20
-83.46800231933594
 30
-31.23299980163574
 70
   192
  0
VERTEX
  5
8CE
  8
0
 10
10.6230001449585
 20
-73.9469985961914
 30
-31.48399925231934
 70
   192
  0
VERTEX
  5
8CF
  8
0
 10
10.60900020599365
 20
-79.51699829101562
 30
-31.48399925231934
 70
   192
  0
VERTEX
  5
8D0
  8
0
 10
10.56999969482422
 20
-87.4280014038086
 30
-30.47299957275391
 70
   192
  0
VERTEX
  5
8D1
  8
0
 10
10.60900020599365
 20
-79.51699829101562
 30
31.48399925231934
 70
   192
  0
VERTEX
  5
8D2
  8
0
 10
10.62399959564209
 20
-75.57099914550781
 30
31.47800064086914
 70
   192
  0
VERTEX
  5
8D3
  8
0
 10
10.60700035095215
 20
-79.86499786376953
 30
31.48200035095215
 70
   192
  0
VERTEX
  5
8D4
  8
0
 10
10.60900020599365
 20
-79.55400085449219
 30
31.48299980163574
 70
   192
  0
VERTEX
  5
8D5
  8
0
 10
10.59700012207031
 20
-81.8489990234375
 30
31.39699935913086
 70
   192
  0
VERTEX
  5
8D6
  8
0
 10
10.58800029754639
 20
-83.83000183105469
 30
31.1870002746582
 70
   192
  0
VERTEX
  5
8D7
  8
0
 10
10.58899974822998
 20
-83.52899932861328
 30
31.2189998626709
 70
   192
  0
VERTEX
  5
8D8
  8
0
 10
10.58500003814697
 20
-84.45899963378906
 30
31.0930004119873
 70
   192
  0
VERTEX
  5
8D9
  8
0
 10
10.23600006103516
 20
-113.8219985961914
 30
44.2140007019043
 70
   192
  0
VERTEX
  5
8DA
  8
0
 10
10.57499980926514
 20
-86.41400146484375
 30
30.7189998626709
 70
   192
  0
VERTEX
  5
8DB
  8
0
 10
10.56599998474121
 20
-88.34100341796875
 30
30.22200012207031
 70
   192
  0
VERTEX
  5
8DC
  8
0
 10
10.56999969482422
 20
-87.40299987792969
 30
30.4640007019043
 70
   192
  0
VERTEX
  5
8DD
  8
0
 10
10.54699993133545
 20
-92.09300231933594
 30
28.86300086975098
 70
   192
  0
VERTEX
  5
8DE
  8
0
 10
10.55200004577637
 20
-91.1449966430664
 30
29.24099922180176
 70
   192
  0
VERTEX
  5
8DF
  8
0
 10
10.55599975585938
 20
-90.23400115966797
 30
29.60300064086914
 70
   192
  0
VERTEX
  5
8E0
  8
0
 10
10.52700042724609
 20
-96.19200134277344
 30
26.70499992370605
 70
   192
  0
VERTEX
  5
8E1
  8
0
 10
10.53400039672852
 20
-94.73400115966797
 30
27.55299949645996
 70
   192
  0
VERTEX
  5
8E2
  8
0
 10
10.53600025177002
 20
-94.46800231933594
 30
27.70700073242188
 70
   192
  0
VERTEX
  5
8E3
  8
0
 10
10.53800010681152
 20
-93.91300201416016
 30
27.99900054931641
 70
   192
  0
VERTEX
  5
8E4
  8
0
 10
10.51099967956543
 20
-99.43000030517578
 30
24.38699913024902
 70
   192
  0
VERTEX
  5
8E5
  8
0
 10
10.51799964904785
 20
-98.05699920654297
 30
25.43600082397461
 70
   192
  0
VERTEX
  5
8E6
  8
0
 10
10.51900005340576
 20
-97.84600067138672
 30
25.59799957275391
 70
   192
  0
VERTEX
  5
8E7
  8
0
 10
10.50399971008301
 20
-100.9390029907227
 30
23.07200050354004
 70
   192
  0
VERTEX
  5
8E8
  8
0
 10
10.49699974060059
 20
-102.3720016479492
 30
21.65399932861328
 70
   192
  0
VERTEX
  5
8E9
  8
0
 10
10.50300025939941
 20
-101.0970001220703
 30
22.91600036621094
 70
   192
  0
VERTEX
  5
8EA
  8
0
 10
10.48900032043457
 20
-104.0940017700195
 30
19.67700004577637
 70
   192
  0
VERTEX
  5
8EB
  8
0
 10
10.48999977111816
 20
-103.8040008544922
 30
20.01700019836426
 70
   192
  0
VERTEX
  5
8EC
  8
0
 10
10.49499988555908
 20
-102.8000030517578
 30
21.1919994354248
 70
   192
  0
VERTEX
  5
8ED
  8
0
 10
10.47700023651123
 20
-106.379997253418
 30
16.42000007629395
 70
   192
  0
VERTEX
  5
8EE
  8
0
 10
10.47900009155273
 20
-106.109001159668
 30
16.83300018310547
 70
   192
  0
VERTEX
  5
8EF
  8
0
 10
10.48299980163574
 20
-105.2880020141602
 30
18.08499908447266
 70
   192
  0
VERTEX
  5
8F0
  8
0
 10
10.4680004119873
 20
-108.2509994506836
 30
12.86800003051758
 70
   192
  0
VERTEX
  5
8F1
  8
0
 10
10.47000026702881
 20
-108.0120010375977
 30
13.35799980163574
 70
   192
  0
VERTEX
  5
8F2
  8
0
 10
10.46399974822998
 20
-109.2210006713867
 30
10.43599987030029
 70
   192
  0
VERTEX
  5
8F3
  8
0
 10
10.46700000762939
 20
-108.5019989013672
 30
12.29199981689453
 70
   192
  0
VERTEX
  5
8F4
  8
0
 10
10.46100044250488
 20
-109.8199996948242
 30
8.539999961853027
 70
   192
  0
VERTEX
  5
8F5
  8
0
 10
10.46199989318848
 20
-109.4589996337891
 30
9.682000160217285
 70
   192
  0
VERTEX
  5
8F6
  8
0
 10
10.45800018310547
 20
-110.2990036010742
 30
6.60699987411499
 70
   192
  0
VERTEX
  5
8F7
  8
0
 10
10.45699977874756
 20
-110.6569976806641
 30
4.639999866485596
 70
   192
  0
VERTEX
  5
8F8
  8
0
 10
10.45800018310547
 20
-110.4329986572266
 30
5.869999885559082
 70
   192
  0
VERTEX
  5
8F9
  8
0
 10
10.47299957275391
 20
-107.3679962158203
 30
14.68000030517578
 70
   192
  0
VERTEX
  5
8FA
  8
0
 10
10.45600032806396
 20
-110.7919998168945
 30
3.476000070571899
 70
   192
  0
VERTEX
  5
8FB
  8
0
 10
10.64900016784668
 20
-43.14500045776367
 30
31.45499992370605
 70
   192
  0
VERTEX
  5
8FC
  8
0
 10
10.63399982452393
 20
-34.97999954223633
 30
31.47900009155273
 70
   192
  0
VERTEX
  5
8FD
  8
0
 10
10.67099952697754
 20
-55.56900024414062
 30
31.41900062561035
 70
   192
  0
VERTEX
  5
8FE
  8
0
 10
10.65100002288818
 20
-67.60900115966797
 30
31.46299934387207
 70
   192
  0
VERTEX
  5
8FF
  8
0
 10
10.64799976348877
 20
-69.572998046875
 30
31.46999931335449
 70
   192
  0
VERTEX
  5
900
  8
0
 10
10.63099956512451
 20
-73.9469985961914
 30
31.47599983215332
 70
   192
  0
VERTEX
  5
901
  8
0
 10
10.42300033569336
 20
5.807000160217285
 30
3.476000070571899
 70
   192
  0
VERTEX
  5
902
  8
0
 10
10.45800018310547
 20
2.437000036239624
 30
5.928999900817871
 70
   192
  0
VERTEX
  5
903
  8
0
 10
10.45600032806396
 20
2.752000093460083
 30
3.953000068664551
 70
   192
  0
VERTEX
  5
904
  8
0
 10
10.46000003814697
 20
1.995000004768372
 30
7.894999980926514
 70
   192
  0
VERTEX
  5
905
  8
0
 10
10.45899963378906
 20
2.147000074386597
 30
7.217000007629395
 70
   192
  0
VERTEX
  5
906
  8
0
 10
10.46100044250488
 20
1.828999996185303
 30
8.508000373840332
 70
   192
  0
VERTEX
  5
907
  8
0
 10
10.46399974822998
 20
1.228999972343445
 30
10.41100025177002
 70
   192
  0
VERTEX
  5
908
  8
0
 10
10.46700000762939
 20
0.5120000243186951
 30
12.26799964904785
 70
   192
  0
VERTEX
  5
909
  8
0
 10
10.46500015258789
 20
0.9670000076293945
 30
11.09000015258789
 70
   192
  0
VERTEX
  5
90A
  8
0
 10
10.4709997177124
 20
-0.3219999969005585
 30
14.07800006866455
 70
   192
  0
VERTEX
  5
90B
  8
0
 10
10.47599983215332
 20
-1.27400004863739
 30
15.83899974822998
 70
   192
  0
VERTEX
  5
90C
  8
0
 10
10.47299957275391
 20
-0.6940000057220459
 30
14.76599979400635
 70
   192
  0
VERTEX
  5
90D
  8
0
 10
10.48900032043457
 20
-3.882999897003174
 30
19.64900016784668
 70
   192
  0
VERTEX
  5
90E
  8
0
 10
10.48400020599365
 20
-2.822000026702881
 30
18.22999954223633
 70
   192
  0
VERTEX
  5
90F
  8
0
 10
10.48299980163574
 20
-2.690000057220459
 30
18.05299949645996
 70
   192
  0
VERTEX
  5
910
  8
0
 10
10.48099994659424
 20
-2.342999935150146
 30
17.54800033569336
 70
   192
  0
VERTEX
  5
911
  8
0
 10
10.5019998550415
 20
-6.559999942779541
 30
22.59700012207031
 70
   192
  0
VERTEX
  5
912
  8
0
 10
10.49600028991699
 20
-5.364999771118164
 30
21.36199951171875
 70
   192
  0
VERTEX
  5
913
  8
0
 10
10.49499988555908
 20
-5.173999786376953
 30
21.16399955749512
 70
   192
  0
VERTEX
  5
914
  8
0
 10
10.51700019836426
 20
-9.61400032043457
 30
25.20299911499023
 70
   192
  0
VERTEX
  5
915
  8
0
 10
10.51000022888184
 20
-8.29699993133545
 30
24.14900016784668
 70
   192
  0
VERTEX
  5
916
  8
0
 10
10.50899982452393
 20
-8.039999961853027
 30
23.94300079345703
 70
   192
  0
VERTEX
  5
917
  8
0
 10
10.53400039672852
 20
-13.0600004196167
 30
27.44700050354004
 70
   192
  0
VERTEX
  5
918
  8
0
 10
10.52600002288818
 20
-11.56999969482422
 30
26.54700088500977
 70
   192
  0
VERTEX
  5
919
  8
0
 10
10.54199981689453
 20
-14.82499980926514
 30
28.36700057983398
 70
   192
  0
VERTEX
  5
91A
  8
0
 10
10.55099964141846
 20
-16.65200042724609
 30
29.17600059509277
 70
   192
  0
VERTEX
  5
91B
  8
0
 10
10.54300022125244
 20
-15.10000038146973
 30
28.48900032043457
 70
   192
  0
VERTEX
  5
91C
  8
0
 10
10.5600004196167
 20
-18.54000091552734
 30
29.87199974060059
 70
   192
  0
VERTEX
  5
91D
  8
0
 10
10.52499961853027
 20
-11.35900020599365
 30
26.41900062561035
 70
   192
  0
VERTEX
  5
91E
  8
0
 10
10.56999969482422
 20
-20.57200050354004
 30
30.47299957275391
 70
   192
  0
VERTEX
  5
91F
  8
0
 10
10.5620002746582
 20
-18.87800025939941
 30
29.97200012207031
 70
   192
  0
VERTEX
  5
920
  8
0
 10
10.57999992370605
 20
-22.51000022888184
 30
30.91200065612793
 70
   192
  0
VERTEX
  5
921
  8
0
 10
10.58899974822998
 20
-24.47800064086914
 30
31.22800064086914
 70
   192
  0
VERTEX
  5
922
  8
0
 10
10.58100032806396
 20
-22.80200004577637
 30
30.95899963378906
 70
   192
  0
VERTEX
  5
923
  8
0
 10
10.59899997711182
 20
-26.46999931335449
 30
31.41900062561035
 70
   192
  0
VERTEX
  5
924
  8
0
 10
10.60900020599365
 20
-28.48299980163574
 30
31.48399925231934
 70
   192
  0
VERTEX
  5
925
  8
0
 10
10.60099983215332
 20
-26.80999946594238
 30
31.43000030517578
 70
   192
  0
VERTEX
  5
926
  8
0
 10
10.63199996948242
 20
-33.91400146484375
 30
31.48200035095215
 70
   192
  0
VERTEX
  5
927
  8
0
 10
10.61900043487549
 20
-30.89200019836426
 30
31.48299980163574
 70
   192
  0
VERTEX
  5
928
  8
0
 10
10.63300037384033
 20
-34.06900024414062
 30
31.48200035095215
 70
   192
  0
VERTEX
  5
929
  8
0
 10
10.60700035095215
 20
-28.13400077819824
 30
-31.48200035095215
 70
   192
  0
VERTEX
  5
92A
  8
0
 10
10.60900020599365
 20
-28.48299980163574
 30
-31.48399925231934
 70
   192
  0
VERTEX
  5
92B
  8
0
 10
10.59700012207031
 20
-26.15099906921387
 30
-31.39699935913086
 70
   192
  0
VERTEX
  5
92C
  8
0
 10
10.58800029754639
 20
-24.17000007629395
 30
-31.1870002746582
 70
   192
  0
VERTEX
  5
92D
  8
0
 10
10.58899974822998
 20
-24.4109992980957
 30
-31.21199989318848
 70
   192
  0
VERTEX
  5
92E
  8
0
 10
10.58500003814697
 20
-23.54100036621094
 30
-31.0930004119873
 70
   192
  0
VERTEX
  5
92F
  8
0
 10
10.57499980926514
 20
-21.58600044250488
 30
-30.7189998626709
 70
   192
  0
VERTEX
  5
930
  8
0
 10
10.56599998474121
 20
-19.65900039672852
 30
-30.22200012207031
 70
   192
  0
VERTEX
  5
931
  8
0
 10
10.56999969482422
 20
-20.44599914550781
 30
-30.42499923706055
 70
   192
  0
VERTEX
  5
932
  8
0
 10
10.54699993133545
 20
-15.9069995880127
 30
-28.86300086975098
 70
   192
  0
VERTEX
  5
933
  8
0
 10
10.55099964141846
 20
-16.61899948120117
 30
-29.14599990844727
 70
   192
  0
VERTEX
  5
934
  8
0
 10
10.55599975585938
 20
-17.76600074768066
 30
-29.60300064086914
 70
   192
  0
VERTEX
  5
935
  8
0
 10
10.52700042724609
 20
-11.80799961090088
 30
-26.70499992370605
 70
   192
  0
VERTEX
  5
936
  8
0
 10
10.53299999237061
 20
-12.96199989318848
 30
-27.37599945068359
 70
   192
  0
VERTEX
  5
937
  8
0
 10
10.53600025177002
 20
-13.5319995880127
 30
-27.70700073242188
 70
   192
  0
VERTEX
  5
938
  8
0
 10
10.53899955749512
 20
-14.08699989318848
 30
-27.99900054931641
 70
   192
  0
VERTEX
  5
939
  8
0
 10
10.51200008392334
 20
-8.569999694824219
 30
-24.38599967956543
 70
   192
  0
VERTEX
  5
93A
  8
0
 10
10.51700019836426
 20
-9.58899974822998
 30
-25.16600036621094
 70
   192
  0
VERTEX
  5
93B
  8
0
 10
10.51900005340576
 20
-10.1540002822876
 30
-25.59799957275391
 70
   192
  0
VERTEX
  5
93C
  8
0
 10
10.50399971008301
 20
-7.060999870300293
 30
-23.07200050354004
 70
   192
  0
VERTEX
  5
93D
  8
0
 10
10.49699974060059
 20
-5.627999782562256
 30
-21.65399932861328
 70
   192
  0
VERTEX
  5
93E
  8
0
 10
10.5019998550415
 20
-6.513999938964844
 30
-22.53000068664551
 70
   192
  0
VERTEX
  5
93F
  8
0
 10
10.48900032043457
 20
-3.905999898910522
 30
-19.67700004577637
 70
   192
  0
VERTEX
  5
940
  8
0
 10
10.49499988555908
 20
-5.199999809265137
 30
-21.1919994354248
 70
   192
  0
VERTEX
  5
941
  8
0
 10
10.48299980163574
 20
-2.711999893188477
 30
-18.08499908447266
 70
   192
  0
VERTEX
  5
942
  8
0
 10
10.48799991607666
 20
-3.790999889373779
 30
-19.52300071716309
 70
   192
  0
VERTEX
  5
943
  8
0
 10
10.47799968719482
 20
-1.620000004768372
 30
-16.42000007629395
 70
   192
  0
VERTEX
  5
944
  8
0
 10
10.47299957275391
 20
-0.6320000290870667
 30
-14.68000030517578
 70
   192
  0
VERTEX
  5
945
  8
0
 10
10.47700023651123
 20
-1.5
 30
-16.20800018310547
 70
   192
  0
VERTEX
  5
946
  8
0
 10
10.46700000762939
 20
0.5019999742507935
 30
-12.29199981689453
 70
   192
  0
VERTEX
  5
947
  8
0
 10
10.4680004119873
 20
0.3680000007152557
 30
-12.59899997711182
 70
   192
  0
VERTEX
  5
948
  8
0
 10
10.46399974822998
 20
1.220999956130981
 30
-10.43599987030029
 70
   192
  0
VERTEX
  5
949
  8
0
 10
10.4689998626709
 20
0.2509999871253967
 30
-12.86800003051758
 70
   192
  0
VERTEX
  5
94A
  8
0
 10
10.46100044250488
 20
1.820000052452087
 30
-8.539999961853027
 70
   192
  0
VERTEX
  5
94B
  8
0
 10
10.46100044250488
 20
1.738999962806702
 30
-8.79800033569336
 70
   192
  0
VERTEX
  5
94C
  8
0
 10
10.45899963378906
 20
2.299000024795532
 30
-6.60699987411499
 70
   192
  0
VERTEX
  5
94D
  8
0
 10
10.45699977874756
 20
2.657000064849854
 30
-4.639999866485596
 70
   192
  0
VERTEX
  5
94E
  8
0
 10
10.45699977874756
 20
2.618000030517578
 30
-4.855999946594238
 70
   192
  0
VERTEX
  5
94F
  8
0
 10
10.45600032806396
 20
2.890000104904175
 30
-2.638000011444092
 70
   192
  0
VERTEX
  5
950
  8
0
 10
10.45499992370605
 20
3.000999927520752
 30
-0.0189999993890524
 70
   192
  0
VERTEX
  5
951
  8
0
 10
10.45499992370605
 20
2.974999904632568
 30
-0.8080000281333923
 70
   192
  0
VERTEX
  5
952
  8
0
 10
10.45499992370605
 20
2.937000036239624
 30
-2.0
 70
   192
  0
VERTEX
  5
953
  8
0
 10
10.45600032806396
 20
2.796999931335449
 30
3.476000070571899
 70
   192
  0
VERTEX
  5
954
  8
0
 10
10.45600032806396
 20
2.821000099182129
 30
3.214999914169312
 70
   192
  0
VERTEX
  5
955
  8
0
 10
10.45499992370605
 20
2.938999891281128
 30
1.968999981880188
 70
   192
  0
VERTEX
  5
956
  8
0
 10
9.29800033569336
 20
44.19200134277344
 30
-75.52899932861328
 70
   192
  0
VERTEX
  5
957
  8
0
 10
9.29800033569336
 20
44.21500015258789
 30
-75.48400115966797
 70
   192
  0
VERTEX
  5
958
  8
0
 10
9.303000450134277
 20
44.40200042724609
 30
-74.87899780273438
 70
   192
  0
VERTEX
  5
959
  8
0
 10
9.312000274658203
 20
44.49599838256836
 30
-74.1729965209961
 70
   192
  0
VERTEX
  5
95A
  8
0
 10
9.314000129699707
 20
44.5
 30
-74.0
 70
   192
  0
VERTEX
  5
95B
  8
0
 10
9.295000076293945
 20
43.51399993896484
 30
-76.62999725341797
 70
   192
  0
VERTEX
  5
95C
  8
0
 10
9.295000076293945
 20
43.89199829101562
 30
-76.12100219726562
 70
   192
  0
VERTEX
  5
95D
  8
0
 10
9.295000076293945
 20
43.31800079345703
 30
-76.81800079345703
 70
   192
  0
VERTEX
  5
95E
  8
0
 10
9.300999641418457
 20
42.4739990234375
 30
-77.47899627685547
 70
   192
  0
VERTEX
  5
95F
  8
0
 10
9.29699993133545
 20
42.99900054931641
 30
-77.1240005493164
 70
   192
  0
VERTEX
  5
960
  8
0
 10
9.307000160217285
 20
42.02500152587891
 30
-77.68299865722656
 70
   192
  0
VERTEX
  5
961
  8
0
 10
9.317999839782715
 20
41.21099853515625
 30
-77.93599700927734
 70
   192
  0
VERTEX
  5
962
  8
0
 10
9.309000015258789
 20
41.82400131225586
 30
-77.7750015258789
 70
   192
  0
VERTEX
  5
963
  8
0
 10
9.329999923706055
 20
40.5
 30
-78.0
 70
   192
  0
VERTEX
  5
964
  8
0
 10
9.842000007629395
 20
5.811999797821045
 30
-78.0
 70
   192
  0
VERTEX
  5
965
  8
0
 10
9.614999771118164
 20
44.5
 30
-48.27199935913086
 70
   192
  0
VERTEX
  5
966
  8
0
 10
9.692000389099121
 20
44.5
 30
-38.99800109863281
 70
   192
  0
VERTEX
  5
967
  8
0
 10
9.701000213623047
 20
44.5
 30
-37.26300048828125
 70
   192
  0
VERTEX
  5
968
  8
0
 10
9.821000099182129
 20
44.5
 30
-13.26799964904785
 70
   192
  0
VERTEX
  5
969
  8
0
 10
9.838000297546387
 20
44.5
 30
0.0070000002160668
 70
   192
  0
VERTEX
  5
96A
  8
0
 10
9.829000473022461
 20
44.5
 30
3.476000070571899
 70
   192
  0
VERTEX
  5
96B
  8
0
 10
9.77400016784668
 20
44.5
 30
25.73699951171875
 70
   192
  0
VERTEX
  5
96C
  8
0
 10
9.305999755859375
 20
42.02899932861328
 30
77.69200134277344
 70
   192
  0
VERTEX
  5
96D
  8
0
 10
9.307000160217285
 20
41.98400115966797
 30
77.71399688720703
 70
   192
  0
VERTEX
  5
96E
  8
0
 10
9.3149995803833
 20
41.37900161743164
 30
77.9020004272461
 70
   192
  0
VERTEX
  5
96F
  8
0
 10
9.32699966430664
 20
40.67300033569336
 30
77.99600219726562
 70
   192
  0
VERTEX
  5
970
  8
0
 10
9.329999923706055
 20
40.5
 30
78.0
 70
   192
  0
VERTEX
  5
971
  8
0
 10
9.295000076293945
 20
43.31800079345703
 30
76.81800079345703
 70
   192
  0
VERTEX
  5
972
  8
0
 10
9.295999526977539
 20
43.13000106811523
 30
77.01399993896484
 70
   192
  0
VERTEX
  5
973
  8
0
 10
9.300000190734863
 20
42.62099838256836
 30
77.39099884033203
 70
   192
  0
VERTEX
  5
974
  8
0
 10
9.295000076293945
 20
43.97900009155273
 30
75.9739990234375
 70
   192
  0
VERTEX
  5
975
  8
0
 10
9.293999671936035
 20
43.62400054931641
 30
76.49800109863281
 70
   192
  0
VERTEX
  5
976
  8
0
 10
9.29800033569336
 20
44.18299865722656
 30
75.5250015258789
 70
   192
  0
VERTEX
  5
977
  8
0
 10
9.305000305175781
 20
44.43600082397461
 30
74.71099853515625
 70
   192
  0
VERTEX
  5
978
  8
0
 10
9.298999786376953
 20
44.27500152587891
 30
75.3239974975586
 70
   192
  0
VERTEX
  5
979
  8
0
 10
9.314000129699707
 20
44.5
 30
74.0
 70
   192
  0
VERTEX
  5
97A
  8
0
 10
9.583999633789062
 20
44.5
 30
51.46599960327148
 70
   192
  0
VERTEX
  5
97B
  8
0
 10
9.637999534606934
 20
44.5
 30
44.2140007019043
 70
   192
  0
VERTEX
  5
97C
  8
0
 10
9.29699993133545
 20
-152.1920013427734
 30
75.52899932861328
 70
   192
  0
VERTEX
  5
97D
  8
0
 10
9.29800033569336
 20
-152.2149963378906
 30
75.48400115966797
 70
   192
  0
VERTEX
  5
97E
  8
0
 10
9.303000450134277
 20
-152.4019927978516
 30
74.87899780273438
 70
   192
  0
VERTEX
  5
97F
  8
0
 10
9.310999870300293
 20
-152.4960021972656
 30
74.1729965209961
 70
   192
  0
VERTEX
  5
980
  8
0
 10
9.314000129699707
 20
-152.5
 30
74.0
 70
   192
  0
VERTEX
  5
981
  8
0
 10
9.293999671936035
 20
-151.5140075683594
 30
76.62999725341797
 70
   192
  0
VERTEX
  5
982
  8
0
 10
9.293999671936035
 20
-151.8919982910156
 30
76.12100219726562
 70
   192
  0
VERTEX
  5
983
  8
0
 10
9.295000076293945
 20
-151.3179931640625
 30
76.81800079345703
 70
   192
  0
VERTEX
  5
984
  8
0
 10
9.300999641418457
 20
-150.4739990234375
 30
77.47899627685547
 70
   192
  0
VERTEX
  5
985
  8
0
 10
9.295999526977539
 20
-150.9989929199219
 30
77.1240005493164
 70
   192
  0
VERTEX
  5
986
  8
0
 10
9.305999755859375
 20
-150.0249938964844
 30
77.68299865722656
 70
   192
  0
VERTEX
  5
987
  8
0
 10
9.317000389099121
 20
-149.2109985351562
 30
77.93599700927734
 70
   192
  0
VERTEX
  5
988
  8
0
 10
9.307999610900879
 20
-149.8240051269531
 30
77.7750015258789
 70
   192
  0
VERTEX
  5
989
  8
0
 10
9.329000473022461
 20
-148.5
 30
78.0
 70
   192
  0
VERTEX
  5
98A
  8
0
 10
9.614999771118164
 20
-152.5
 30
48.27199935913086
 70
   192
  0
VERTEX
  5
98B
  8
0
 10
9.692000389099121
 20
-152.5
 30
38.99800109863281
 70
   192
  0
VERTEX
  5
98C
  8
0
 10
9.821000099182129
 20
-152.5
 30
13.26799964904785
 70
   192
  0
VERTEX
  5
98D
  8
0
 10
9.64799976348877
 20
-152.5
 30
44.2140007019043
 70
   192
  0
VERTEX
  5
98E
  8
0
 10
9.836999893188477
 20
-152.5
 30
-0.0070000002160668
 70
   192
  0
VERTEX
  5
98F
  8
0
 10
9.77400016784668
 20
-152.5
 30
-25.73699951171875
 70
   192
  0
VERTEX
  5
990
  8
0
 10
9.833000183105469
 20
-152.5
 30
3.476000070571899
 70
   192
  0
VERTEX
  5
991
  8
0
 10
9.305999755859375
 20
-150.0290069580078
 30
-77.69200134277344
 70
   192
  0
VERTEX
  5
992
  8
0
 10
9.305999755859375
 20
-149.9839935302734
 30
-77.71399688720703
 70
   192
  0
VERTEX
  5
993
  8
0
 10
9.3149995803833
 20
-149.3789978027344
 30
-77.9020004272461
 70
   192
  0
VERTEX
  5
994
  8
0
 10
9.326000213623047
 20
-148.6730041503906
 30
-77.99600219726562
 70
   192
  0
VERTEX
  5
995
  8
0
 10
9.329000473022461
 20
-148.5
 30
-78.0
 70
   192
  0
VERTEX
  5
996
  8
0
 10
9.295000076293945
 20
-151.3179931640625
 30
-76.81800079345703
 70
   192
  0
VERTEX
  5
997
  8
0
 10
9.295999526977539
 20
-151.1300048828125
 30
-77.01399993896484
 70
   192
  0
VERTEX
  5
998
  8
0
 10
9.298999786376953
 20
-150.6210021972656
 30
-77.39099884033203
 70
   192
  0
VERTEX
  5
999
  8
0
 10
9.295000076293945
 20
-151.97900390625
 30
-75.9739990234375
 70
   192
  0
VERTEX
  5
99A
  8
0
 10
9.293999671936035
 20
-151.6239929199219
 30
-76.49800109863281
 70
   192
  0
VERTEX
  5
99B
  8
0
 10
9.29800033569336
 20
-152.1829986572266
 30
-75.5250015258789
 70
   192
  0
VERTEX
  5
99C
  8
0
 10
9.305000305175781
 20
-152.4360046386719
 30
-74.71099853515625
 70
   192
  0
VERTEX
  5
99D
  8
0
 10
9.298999786376953
 20
-152.2749938964844
 30
-75.3239974975586
 70
   192
  0
VERTEX
  5
99E
  8
0
 10
9.314000129699707
 20
-152.5
 30
-74.0
 70
   192
  0
VERTEX
  5
99F
  8
0
 10
9.583999633789062
 20
-152.5
 30
-51.46599960327148
 70
   192
  0
VERTEX
  5
9A0
  8
0
 10
9.689000129699707
 20
-152.5
 30
-37.26300048828125
 70
   192
  0
VERTEX
  5
9A1
  8
0
 62
     9
 10
0.0
 20
0.0
 30
0.0
 70
   128
 71
     3
 72
     2
 73
     1
  0
VERTEX
  5
9A2
  8
0
 62
     9
 10
0.0
 20
0.0
 30
0.0
 70
   128
 71
     5
 72
     4
 73
     2
  0
VERTEX
  5
9A3
  8
0
 62
     9
 10
0.0
 20
0.0
 30
0.0
 70
   128
 71
     7
 72
     6
 73
     4
  0
VERTEX
  5
9A4
  8
0
 62
     9
 10
0.0
 20
0.0
 30
0.0
 70
   128
 71
    10
 72
     9
 73
     8
  0
VERTEX
  5
9A5
  8
0
 62
     9
 10
0.0
 20
0.0
 30
0.0
 70
   128
 71
    12
 72
    10
 73
    11
  0
VERTEX
  5
9A6
  8
0
 62
     9
 10
0.0
 20
0.0
 30
0.0
 70
   128
 71
    14
 72
    12
 73
    13
  0
VERTEX
  5
9A7
  8
0
 62
     9
 10
0.0
 20
0.0
 30
0.0
 70
   128
 71
    15
 72
     2
 73
     4
  0
VERTEX
  5
9A8
  8
0
 62
     9
 10
0.0
 20
0.0
 30
0.0
 70
   128
 71
     4
 72
    16
 73
    15
  0
VERTEX
  5
9A9
  8
0
 62
     9
 10
0.0
 20
0.0
 30
0.0
 70
   128
 71
    15
 72
    17
 73
     2
  0
VERTEX
  5
9AA
  8
0
 62
     9
 10
0.0
 20
0.0
 30
0.0
 70
   128
 71
    20
 72
    19
 73
    18
  0
VERTEX
  5
9AB
  8
0
 62
     9
 10
0.0
 20
0.0
 30
0.0
 70
   128
 71
    18
 72
    21
 73
    20
  0
VERTEX
  5
9AC
  8
0
 62
     9
 10
0.0
 20
0.0
 30
0.0
 70
   128
 71
    18
 72
    22
 73
    21
  0
VERTEX
  5
9AD
  8
0
 62
     9
 10
0.0
 20
0.0
 30
0.0
 70
   128
 71
    24
 72
    23
 73
    18
  0
VERTEX
  5
9AE
  8
0
 62
     9
 10
0.0
 20
0.0
 30
0.0
 70
   128
 71
    18
 72
    25
 73
    24
  0
VERTEX
  5
9AF
  8
0
 62
     9
 10
0.0
 20
0.0
 30
0.0
 70
   128
 71
    18
 72
    19
 73
    25
  0
VERTEX
  5
9B0
  8
0
 62
     9
 10
0.0
 20
0.0
 30
0.0
 70
   128
 71
    27
 72
    26
 73
     6
  0
VERTEX
  5
9B1
  8
0
 62
     9
 10
0.0
 20
0.0
 30
0.0
 70
   128
 71
     6
 72
    18
 73
    27
  0
VERTEX
  5
9B2
  8
0
 62
     9
 10
0.0
 20
0.0
 30
0.0
 70
   128
 71
    18
 72
    23
 73
    27
  0
VERTEX
  5
9B3
  8
0
 62
     9
 10
0.0
 20
0.0
 30
0.0
 70
   128
 71
    29
 72
    28
 73
     6
  0
VERTEX
  5
9B4
  8
0
 62
     9
 10
0.0
 20
0.0
 30
0.0
 70
   128
 71
     6
 72
    30
 73
    29
  0
VERTEX
  5
9B5
  8
0
 62
     9
 10
0.0
 20
0.0
 30
0.0
 70
   128
 71
     6
 72
    31
 73
    30
  0
VERTEX
  5
9B6
  8
0
 62
     9
 10
0.0
 20
0.0
 30
0.0
 70
   128
 71
    28
 72
    32
 73
     6
  0
VERTEX
  5
9B7
  8
0
 62
     9
 10
0.0
 20
0.0
 30
0.0
 70
   128
 71
    34
 72
    33
 73
     6
  0
VERTEX
  5
9B8
  8
0
 62
     9
 10
0.0
 20
0.0
 30
0.0
 70
   128
 71
     6
 72
    32
 73
    34
  0
VERTEX
  5
9B9
  8
0
 62
     9
 10
0.0
 20
0.0
 30
0.0
 70
   128
 71
    33
 72
    35
 73
     6
  0
VERTEX
  5
9BA
  8
0
 62
     9
 10
0.0
 20
0.0
 30
0.0
 70
   128
 71
     6
 72
    26
 73
    31
  0
VERTEX
  5
9BB
  8
0
 62
     9
 10
0.0
 20
0.0
 30
0.0
 70
   128
 71
    37
 72
    36
 73
     6
  0
VERTEX
  5
9BC
  8
0
 62
     9
 10
0.0
 20
0.0
 30
0.0
 70
   128
 71
    39
 72
    38
 73
     6
  0
VERTEX
  5
9BD
  8
0
 62
     9
 10
0.0
 20
0.0
 30
0.0
 70
   128
 71
     6
 72
    36
 73
    39
  0
VERTEX
  5
9BE
  8
0
 62
     9
 10
0.0
 20
0.0
 30
0.0
 70
   128
 71
    41
 72
    40
 73
     6
  0
VERTEX
  5
9BF
  8
0
 62
     9
 10
0.0
 20
0.0
 30
0.0
 70
   128
 71
    40
 72
    42
 73
     6
  0
VERTEX
  5
9C0
  8
0
 62
     9
 10
0.0
 20
0.0
 30
0.0
 70
   128
 71
     6
 72
    38
 73
    41
  0
VERTEX
  5
9C1
  8
0
 62
     9
 10
0.0
 20
0.0
 30
0.0
 70
   128
 71
     6
 72
    35
 73
    37
  0
VERTEX
  5
9C2
  8
0
 62
     9
 10
0.0
 20
0.0
 30
0.0
 70
   128
 71
    44
 72
    43
 73
     6
  0
VERTEX
  5
9C3
  8
0
 62
     9
 10
0.0
 20
0.0
 30
0.0
 70
   128
 71
    43
 72
    45
 73
     6
  0
VERTEX
  5
9C4
  8
0
 62
     9
 10
0.0
 20
0.0
 30
0.0
 70
   128
 71
     6
 72
    42
 73
    44
  0
VERTEX
  5
9C5
  8
0
 62
     9
 10
0.0
 20
0.0
 30
0.0
 70
   128
 71
    47
 72
    46
 73
     6
  0
VERTEX
  5
9C6
  8
0
 62
     9
 10
0.0
 20
0.0
 30
0.0
 70
   128
 71
    49
 72
    48
 73
     6
  0
VERTEX
  5
9C7
  8
0
 62
     9
 10
0.0
 20
0.0
 30
0.0
 70
   128
 71
     6
 72
    50
 73
    49
  0
VERTEX
  5
9C8
  8
0
 62
     9
 10
0.0
 20
0.0
 30
0.0
 70
   128
 71
    48
 72
    51
 73
     6
  0
VERTEX
  5
9C9
  8
0
 62
     9
 10
0.0
 20
0.0
 30
0.0
 70
   128
 71
    53
 72
    52
 73
     6
  0
VERTEX
  5
9CA
  8
0
 62
     9
 10
0.0
 20
0.0
 30
0.0
 70
   128
 71
     6
 72
    51
 73
    53
  0
VERTEX
  5
9CB
  8
0
 62
     9
 10
0.0
 20
0.0
 30
0.0
 70
   128
 71
     6
 72
    46
 73
    50
  0
VERTEX
  5
9CC
  8
0
 62
     9
 10
0.0
 20
0.0
 30
0.0
 70
   128
 71
    55
 72
    54
 73
     6
  0
VERTEX
  5
9CD
  8
0
 62
     9
 10
0.0
 20
0.0
 30
0.0
 70
   128
 71
    54
 72
    56
 73
     4
  0
VERTEX
  5
9CE
  8
0
 62
     9
 10
0.0
 20
0.0
 30
0.0
 70
   128
 71
     4
 72
     6
 73
    54
  0
VERTEX
  5
9CF
  8
0
 62
     9
 10
0.0
 20
0.0
 30
0.0
 70
   128
 71
    58
 72
    57
 73
     4
  0
VERTEX
  5
9D0
  8
0
 62
     9
 10
0.0
 20
0.0
 30
0.0
 70
   128
 71
     4
 72
    56
 73
    58
  0
VERTEX
  5
9D1
  8
0
 62
     9
 10
0.0
 20
0.0
 30
0.0
 70
   128
 71
    60
 72
    59
 73
     4
  0
VERTEX
  5
9D2
  8
0
 62
     9
 10
0.0
 20
0.0
 30
0.0
 70
   128
 71
     4
 72
    57
 73
    60
  0
VERTEX
  5
9D3
  8
0
 62
     9
 10
0.0
 20
0.0
 30
0.0
 70
   128
 71
     6
 72
    61
 73
    55
  0
VERTEX
  5
9D4
  8
0
 62
     9
 10
0.0
 20
0.0
 30
0.0
 70
   128
 71
     6
 72
    52
 73
    61
  0
VERTEX
  5
9D5
  8
0
 62
     9
 10
0.0
 20
0.0
 30
0.0
 70
   128
 71
     6
 72
    45
 73
    47
  0
VERTEX
  5
9D6
  8
0
 62
     9
 10
0.0
 20
0.0
 30
0.0
 70
   128
 71
    63
 72
    62
 73
    13
  0
VERTEX
  5
9D7
  8
0
 62
     9
 10
0.0
 20
0.0
 30
0.0
 70
   128
 71
    65
 72
    64
 73
    13
  0
VERTEX
  5
9D8
  8
0
 62
     9
 10
0.0
 20
0.0
 30
0.0
 70
   128
 71
    13
 72
    62
 73
    65
  0
VERTEX
  5
9D9
  8
0
 62
     9
 10
0.0
 20
0.0
 30
0.0
 70
   128
 71
    64
 72
    66
 73
    13
  0
VERTEX
  5
9DA
  8
0
 62
     9
 10
0.0
 20
0.0
 30
0.0
 70
   128
 71
    68
 72
    67
 73
    13
  0
VERTEX
  5
9DB
  8
0
 62
     9
 10
0.0
 20
0.0
 30
0.0
 70
   128
 71
    67
 72
    69
 73
    13
  0
VERTEX
  5
9DC
  8
0
 62
     9
 10
0.0
 20
0.0
 30
0.0
 70
   128
 71
    71
 72
    70
 73
    13
  0
VERTEX
  5
9DD
  8
0
 62
     9
 10
0.0
 20
0.0
 30
0.0
 70
   128
 71
    13
 72
    69
 73
    71
  0
VERTEX
  5
9DE
  8
0
 62
     9
 10
0.0
 20
0.0
 30
0.0
 70
   128
 71
    73
 72
    72
 73
    70
  0
VERTEX
  5
9DF
  8
0
 62
     9
 10
0.0
 20
0.0
 30
0.0
 70
   128
 71
    70
 72
    71
 73
    73
  0
VERTEX
  5
9E0
  8
0
 62
     9
 10
0.0
 20
0.0
 30
0.0
 70
   128
 71
    13
 72
    66
 73
    68
  0
VERTEX
  5
9E1
  8
0
 62
     9
 10
0.0
 20
0.0
 30
0.0
 70
   128
 71
    75
 72
    74
 73
    70
  0
VERTEX
  5
9E2
  8
0
 62
     9
 10
0.0
 20
0.0
 30
0.0
 70
   128
 71
    70
 72
    76
 73
    75
  0
VERTEX
  5
9E3
  8
0
 62
     9
 10
0.0
 20
0.0
 30
0.0
 70
   128
 71
    70
 72
    72
 73
    76
  0
VERTEX
  5
9E4
  8
0
 62
     9
 10
0.0
 20
0.0
 30
0.0
 70
   128
 71
    78
 72
    77
 73
    70
  0
VERTEX
  5
9E5
  8
0
 62
     9
 10
0.0
 20
0.0
 30
0.0
 70
   128
 71
    70
 72
    79
 73
    78
  0
VERTEX
  5
9E6
  8
0
 62
     9
 10
0.0
 20
0.0
 30
0.0
 70
   128
 71
    70
 72
    80
 73
    79
  0
VERTEX
  5
9E7
  8
0
 62
     9
 10
0.0
 20
0.0
 30
0.0
 70
   128
 71
    82
 72
    81
 73
    70
  0
VERTEX
  5
9E8
  8
0
 62
     9
 10
0.0
 20
0.0
 30
0.0
 70
   128
 71
    70
 72
    83
 73
    82
  0
VERTEX
  5
9E9
  8
0
 62
     9
 10
0.0
 20
0.0
 30
0.0
 70
   128
 71
    81
 72
    84
 73
    70
  0
VERTEX
  5
9EA
  8
0
 62
     9
 10
0.0
 20
0.0
 30
0.0
 70
   128
 71
    70
 72
    77
 73
    83
  0
VERTEX
  5
9EB
  8
0
 62
     9
 10
0.0
 20
0.0
 30
0.0
 70
   128
 71
    86
 72
    85
 73
    70
  0
VERTEX
  5
9EC
  8
0
 62
     9
 10
0.0
 20
0.0
 30
0.0
 70
   128
 71
    88
 72
    87
 73
    70
  0
VERTEX
  5
9ED
  8
0
 62
     9
 10
0.0
 20
0.0
 30
0.0
 70
   128
 71
    70
 72
    89
 73
    88
  0
VERTEX
  5
9EE
  8
0
 62
     9
 10
0.0
 20
0.0
 30
0.0
 70
   128
 71
    70
 72
    85
 73
    89
  0
VERTEX
  5
9EF
  8
0
 62
     9
 10
0.0
 20
0.0
 30
0.0
 70
   128
 71
    91
 72
    90
 73
    70
  0
VERTEX
  5
9F0
  8
0
 62
     9
 10
0.0
 20
0.0
 30
0.0
 70
   128
 71
    70
 72
    92
 73
    91
  0
VERTEX
  5
9F1
  8
0
 62
     9
 10
0.0
 20
0.0
 30
0.0
 70
   128
 71
    70
 72
    87
 73
    92
  0
VERTEX
  5
9F2
  8
0
 62
     9
 10
0.0
 20
0.0
 30
0.0
 70
   128
 71
    94
 72
    93
 73
    70
  0
VERTEX
  5
9F3
  8
0
 62
     9
 10
0.0
 20
0.0
 30
0.0
 70
   128
 71
    96
 72
    95
 73
    70
  0
VERTEX
  5
9F4
  8
0
 62
     9
 10
0.0
 20
0.0
 30
0.0
 70
   128
 71
    70
 72
    93
 73
    96
  0
VERTEX
  5
9F5
  8
0
 62
     9
 10
0.0
 20
0.0
 30
0.0
 70
   128
 71
    97
 72
    18
 73
    70
  0
VERTEX
  5
9F6
  8
0
 62
     9
 10
0.0
 20
0.0
 30
0.0
 70
   128
 71
    70
 72
    98
 73
    97
  0
VERTEX
  5
9F7
  8
0
 62
     9
 10
0.0
 20
0.0
 30
0.0
 70
   128
 71
    70
 72
    95
 73
    98
  0
VERTEX
  5
9F8
  8
0
 62
     9
 10
0.0
 20
0.0
 30
0.0
 70
   128
 71
    97
 72
    99
 73
    18
  0
VERTEX
  5
9F9
  8
0
 62
     9
 10
0.0
 20
0.0
 30
0.0
 70
   128
 71
   101
 72
   100
 73
    18
  0
VERTEX
  5
9FA
  8
0
 62
     9
 10
0.0
 20
0.0
 30
0.0
 70
   128
 71
    18
 72
    99
 73
   101
  0
VERTEX
  5
9FB
  8
0
 62
     9
 10
0.0
 20
0.0
 30
0.0
 70
   128
 71
    70
 72
   102
 73
    94
  0
VERTEX
  5
9FC
  8
0
 62
     9
 10
0.0
 20
0.0
 30
0.0
 70
   128
 71
    70
 72
    90
 73
   102
  0
VERTEX
  5
9FD
  8
0
 62
     9
 10
0.0
 20
0.0
 30
0.0
 70
   128
 71
    70
 72
    84
 73
    86
  0
VERTEX
  5
9FE
  8
0
 62
     9
 10
0.0
 20
0.0
 30
0.0
 70
   128
 71
    70
 72
    74
 73
    80
  0
VERTEX
  5
9FF
  8
0
 62
     9
 10
0.0
 20
0.0
 30
0.0
 70
   128
 71
   100
 72
   103
 73
    18
  0
VERTEX
  5
A00
  8
0
 62
     9
 10
0.0
 20
0.0
 30
0.0
 70
   128
 71
   105
 72
   104
 73
    11
  0
VERTEX
  5
A01
  8
0
 62
     9
 10
0.0
 20
0.0
 30
0.0
 70
   128
 71
   106
 72
    13
 73
    11
  0
VERTEX
  5
A02
  8
0
 62
     9
 10
0.0
 20
0.0
 30
0.0
 70
   128
 71
   106
 72
   107
 73
    13
  0
VERTEX
  5
A03
  8
0
 62
     9
 10
0.0
 20
0.0
 30
0.0
 70
   128
 71
   107
 72
   108
 73
    13
  0
VERTEX
  5
A04
  8
0
 62
     9
 10
0.0
 20
0.0
 30
0.0
 70
   128
 71
    11
 72
   104
 73
   106
  0
VERTEX
  5
A05
  8
0
 62
     9
 10
0.0
 20
0.0
 30
0.0
 70
   128
 71
   108
 72
   109
 73
    13
  0
VERTEX
  5
A06
  8
0
 62
     9
 10
0.0
 20
0.0
 30
0.0
 70
   128
 71
   112
 72
   111
 73
   110
  0
VERTEX
  5
A07
  8
0
 62
     9
 10
0.0
 20
0.0
 30
0.0
 70
   128
 71
   114
 72
   113
 73
   110
  0
VERTEX
  5
A08
  8
0
 62
     9
 10
0.0
 20
0.0
 30
0.0
 70
   128
 71
   115
 72
     8
 73
   110
  0
VERTEX
  5
A09
  8
0
 62
     9
 10
0.0
 20
0.0
 30
0.0
 70
   128
 71
   115
 72
   116
 73
     8
  0
VERTEX
  5
A0A
  8
0
 62
     9
 10
0.0
 20
0.0
 30
0.0
 70
   128
 71
   110
 72
   113
 73
   115
  0
VERTEX
  5
A0B
  8
0
 62
     9
 10
0.0
 20
0.0
 30
0.0
 70
   128
 71
   118
 72
   117
 73
     8
  0
VERTEX
  5
A0C
  8
0
 62
     9
 10
0.0
 20
0.0
 30
0.0
 70
   128
 71
     8
 72
   116
 73
   118
  0
VERTEX
  5
A0D
  8
0
 62
     9
 10
0.0
 20
0.0
 30
0.0
 70
   128
 71
   117
 72
   119
 73
     8
  0
VERTEX
  5
A0E
  8
0
 62
     9
 10
0.0
 20
0.0
 30
0.0
 70
   128
 71
   121
 72
   120
 73
     8
  0
VERTEX
  5
A0F
  8
0
 62
     9
 10
0.0
 20
0.0
 30
0.0
 70
   128
 71
     8
 72
   119
 73
   121
  0
VERTEX
  5
A10
  8
0
 62
     9
 10
0.0
 20
0.0
 30
0.0
 70
   128
 71
   110
 72
   111
 73
   114
  0
VERTEX
  5
A11
  8
0
 62
     9
 10
0.0
 20
0.0
 30
0.0
 70
   128
 71
   123
 72
   122
 73
     8
  0
VERTEX
  5
A12
  8
0
 62
     9
 10
0.0
 20
0.0
 30
0.0
 70
   128
 71
     8
 72
   124
 73
   123
  0
VERTEX
  5
A13
  8
0
 62
     9
 10
0.0
 20
0.0
 30
0.0
 70
   128
 71
     8
 72
   125
 73
   124
  0
VERTEX
  5
A14
  8
0
 62
     9
 10
0.0
 20
0.0
 30
0.0
 70
   128
 71
   127
 72
   126
 73
     8
  0
VERTEX
  5
A15
  8
0
 62
     9
 10
0.0
 20
0.0
 30
0.0
 70
   128
 71
     8
 72
   128
 73
   127
  0
VERTEX
  5
A16
  8
0
 62
     9
 10
0.0
 20
0.0
 30
0.0
 70
   128
 71
     8
 72
   122
 73
   128
  0
VERTEX
  5
A17
  8
0
 62
     9
 10
0.0
 20
0.0
 30
0.0
 70
   128
 71
     8
 72
   120
 73
   125
  0
VERTEX
  5
A18
  8
0
 62
     9
 10
0.0
 20
0.0
 30
0.0
 70
   128
 71
   130
 72
   129
 73
     8
  0
VERTEX
  5
A19
  8
0
 62
     9
 10
0.0
 20
0.0
 30
0.0
 70
   128
 71
     8
 72
   131
 73
   130
  0
VERTEX
  5
A1A
  8
0
 62
     9
 10
0.0
 20
0.0
 30
0.0
 70
   128
 71
     8
 72
   126
 73
   131
  0
VERTEX
  5
A1B
  8
0
 62
     9
 10
0.0
 20
0.0
 30
0.0
 70
   128
 71
   133
 72
   132
 73
     8
  0
VERTEX
  5
A1C
  8
0
 62
     9
 10
0.0
 20
0.0
 30
0.0
 70
   128
 71
   132
 72
   134
 73
     8
  0
VERTEX
  5
A1D
  8
0
 62
     9
 10
0.0
 20
0.0
 30
0.0
 70
   128
 71
   136
 72
   135
 73
     8
  0
VERTEX
  5
A1E
  8
0
 62
     9
 10
0.0
 20
0.0
 30
0.0
 70
   128
 71
     8
 72
   134
 73
   136
  0
VERTEX
  5
A1F
  8
0
 62
     9
 10
0.0
 20
0.0
 30
0.0
 70
   128
 71
   135
 72
   137
 73
     8
  0
VERTEX
  5
A20
  8
0
 62
     9
 10
0.0
 20
0.0
 30
0.0
 70
   128
 71
     8
 72
   138
 73
   133
  0
VERTEX
  5
A21
  8
0
 62
     9
 10
0.0
 20
0.0
 30
0.0
 70
   128
 71
   140
 72
   139
 73
     8
  0
VERTEX
  5
A22
  8
0
 62
     9
 10
0.0
 20
0.0
 30
0.0
 70
   128
 71
   141
 72
    11
 73
     8
  0
VERTEX
  5
A23
  8
0
 62
     9
 10
0.0
 20
0.0
 30
0.0
 70
   128
 71
   143
 72
   142
 73
    11
  0
VERTEX
  5
A24
  8
0
 62
     9
 10
0.0
 20
0.0
 30
0.0
 70
   128
 71
    11
 72
   141
 73
   143
  0
VERTEX
  5
A25
  8
0
 62
     9
 10
0.0
 20
0.0
 30
0.0
 70
   128
 71
   142
 72
   144
 73
    11
  0
VERTEX
  5
A26
  8
0
 62
     9
 10
0.0
 20
0.0
 30
0.0
 70
   128
 71
   146
 72
   145
 73
    11
  0
VERTEX
  5
A27
  8
0
 62
     9
 10
0.0
 20
0.0
 30
0.0
 70
   128
 71
   148
 72
   147
 73
    11
  0
VERTEX
  5
A28
  8
0
 62
     9
 10
0.0
 20
0.0
 30
0.0
 70
   128
 71
   147
 72
   149
 73
    11
  0
VERTEX
  5
A29
  8
0
 62
     9
 10
0.0
 20
0.0
 30
0.0
 70
   128
 71
    11
 72
   145
 73
   148
  0
VERTEX
  5
A2A
  8
0
 62
     9
 10
0.0
 20
0.0
 30
0.0
 70
   128
 71
    11
 72
   144
 73
   146
  0
VERTEX
  5
A2B
  8
0
 62
     9
 10
0.0
 20
0.0
 30
0.0
 70
   128
 71
     8
 72
   139
 73
   141
  0
VERTEX
  5
A2C
  8
0
 62
     9
 10
0.0
 20
0.0
 30
0.0
 70
   128
 71
     8
 72
   137
 73
   140
  0
VERTEX
  5
A2D
  8
0
 62
     9
 10
0.0
 20
0.0
 30
0.0
 70
   128
 71
     8
 72
   129
 73
   138
  0
VERTEX
  5
A2E
  8
0
 62
     9
 10
0.0
 20
0.0
 30
0.0
 70
   128
 71
   151
 72
   150
 73
     2
  0
VERTEX
  5
A2F
  8
0
 62
     9
 10
0.0
 20
0.0
 30
0.0
 70
   128
 71
   150
 72
   152
 73
     2
  0
VERTEX
  5
A30
  8
0
 62
     9
 10
0.0
 20
0.0
 30
0.0
 70
   128
 71
   154
 72
   153
 73
     2
  0
VERTEX
  5
A31
  8
0
 62
     9
 10
0.0
 20
0.0
 30
0.0
 70
   128
 71
   155
 72
     1
 73
     2
  0
VERTEX
  5
A32
  8
0
 62
     9
 10
0.0
 20
0.0
 30
0.0
 70
   128
 71
     2
 72
   153
 73
   155
  0
VERTEX
  5
A33
  8
0
 62
     9
 10
0.0
 20
0.0
 30
0.0
 70
   128
 71
   155
 72
   156
 73
     1
  0
VERTEX
  5
A34
  8
0
 62
     9
 10
0.0
 20
0.0
 30
0.0
 70
   128
 71
   158
 72
   157
 73
     1
  0
VERTEX
  5
A35
  8
0
 62
     9
 10
0.0
 20
0.0
 30
0.0
 70
   128
 71
     1
 72
   156
 73
   158
  0
VERTEX
  5
A36
  8
0
 62
     9
 10
0.0
 20
0.0
 30
0.0
 70
   128
 71
     2
 72
   152
 73
   154
  0
VERTEX
  5
A37
  8
0
 62
     9
 10
0.0
 20
0.0
 30
0.0
 70
   128
 71
   160
 72
   159
 73
     1
  0
VERTEX
  5
A38
  8
0
 62
     9
 10
0.0
 20
0.0
 30
0.0
 70
   128
 71
     1
 72
   161
 73
   160
  0
VERTEX
  5
A39
  8
0
 62
     9
 10
0.0
 20
0.0
 30
0.0
 70
   128
 71
     1
 72
   157
 73
   161
  0
VERTEX
  5
A3A
  8
0
 62
     9
 10
0.0
 20
0.0
 30
0.0
 70
   128
 71
   163
 72
   162
 73
     1
  0
VERTEX
  5
A3B
  8
0
 62
     9
 10
0.0
 20
0.0
 30
0.0
 70
   128
 71
     1
 72
   164
 73
   163
  0
VERTEX
  5
A3C
  8
0
 62
     9
 10
0.0
 20
0.0
 30
0.0
 70
   128
 71
     1
 72
   165
 73
   164
  0
VERTEX
  5
A3D
  8
0
 62
     9
 10
0.0
 20
0.0
 30
0.0
 70
   128
 71
   167
 72
   166
 73
     1
  0
VERTEX
  5
A3E
  8
0
 62
     9
 10
0.0
 20
0.0
 30
0.0
 70
   128
 71
     1
 72
   168
 73
   167
  0
VERTEX
  5
A3F
  8
0
 62
     9
 10
0.0
 20
0.0
 30
0.0
 70
   128
 71
   166
 72
   169
 73
     1
  0
VERTEX
  5
A40
  8
0
 62
     9
 10
0.0
 20
0.0
 30
0.0
 70
   128
 71
     1
 72
   162
 73
   168
  0
VERTEX
  5
A41
  8
0
 62
     9
 10
0.0
 20
0.0
 30
0.0
 70
   128
 71
   171
 72
   170
 73
     1
  0
VERTEX
  5
A42
  8
0
 62
     9
 10
0.0
 20
0.0
 30
0.0
 70
   128
 71
   173
 72
   172
 73
     1
  0
VERTEX
  5
A43
  8
0
 62
     9
 10
0.0
 20
0.0
 30
0.0
 70
   128
 71
     1
 72
   170
 73
   173
  0
VERTEX
  5
A44
  8
0
 62
     9
 10
0.0
 20
0.0
 30
0.0
 70
   128
 71
   175
 72
   174
 73
     1
  0
VERTEX
  5
A45
  8
0
 62
     9
 10
0.0
 20
0.0
 30
0.0
 70
   128
 71
   174
 72
   176
 73
     1
  0
VERTEX
  5
A46
  8
0
 62
     9
 10
0.0
 20
0.0
 30
0.0
 70
   128
 71
     1
 72
   172
 73
   175
  0
VERTEX
  5
A47
  8
0
 62
     9
 10
0.0
 20
0.0
 30
0.0
 70
   128
 71
   178
 72
   177
 73
     1
  0
VERTEX
  5
A48
  8
0
 62
     9
 10
0.0
 20
0.0
 30
0.0
 70
   128
 71
   180
 72
   179
 73
     1
  0
VERTEX
  5
A49
  8
0
 62
     9
 10
0.0
 20
0.0
 30
0.0
 70
   128
 71
   179
 72
   181
 73
     1
  0
VERTEX
  5
A4A
  8
0
 62
     9
 10
0.0
 20
0.0
 30
0.0
 70
   128
 71
     1
 72
   182
 73
   180
  0
VERTEX
  5
A4B
  8
0
 62
     9
 10
0.0
 20
0.0
 30
0.0
 70
   128
 71
   184
 72
   183
 73
     1
  0
VERTEX
  5
A4C
  8
0
 62
     9
 10
0.0
 20
0.0
 30
0.0
 70
   128
 71
     1
 72
   181
 73
   184
  0
VERTEX
  5
A4D
  8
0
 62
     9
 10
0.0
 20
0.0
 30
0.0
 70
   128
 71
   183
 72
   185
 73
     1
  0
VERTEX
  5
A4E
  8
0
 62
     9
 10
0.0
 20
0.0
 30
0.0
 70
   128
 71
   187
 72
   186
 73
     1
  0
VERTEX
  5
A4F
  8
0
 62
     9
 10
0.0
 20
0.0
 30
0.0
 70
   128
 71
     1
 72
   185
 73
   187
  0
VERTEX
  5
A50
  8
0
 62
     9
 10
0.0
 20
0.0
 30
0.0
 70
   128
 71
     1
 72
   177
 73
   182
  0
VERTEX
  5
A51
  8
0
 62
     9
 10
0.0
 20
0.0
 30
0.0
 70
   128
 71
     1
 72
   176
 73
   178
  0
VERTEX
  5
A52
  8
0
 62
     9
 10
0.0
 20
0.0
 30
0.0
 70
   128
 71
     1
 72
   169
 73
   171
  0
VERTEX
  5
A53
  8
0
 62
     9
 10
0.0
 20
0.0
 30
0.0
 70
   128
 71
   186
 72
   188
 73
   110
  0
VERTEX
  5
A54
  8
0
 62
     9
 10
0.0
 20
0.0
 30
0.0
 70
   128
 71
   190
 72
   189
 73
   110
  0
VERTEX
  5
A55
  8
0
 62
     9
 10
0.0
 20
0.0
 30
0.0
 70
   128
 71
   110
 72
   191
 73
   190
  0
VERTEX
  5
A56
  8
0
 62
     9
 10
0.0
 20
0.0
 30
0.0
 70
   128
 71
   110
 72
   188
 73
   191
  0
VERTEX
  5
A57
  8
0
 62
     9
 10
0.0
 20
0.0
 30
0.0
 70
   128
 71
   193
 72
   192
 73
   110
  0
VERTEX
  5
A58
  8
0
 62
     9
 10
0.0
 20
0.0
 30
0.0
 70
   128
 71
   110
 72
   194
 73
   193
  0
VERTEX
  5
A59
  8
0
 62
     9
 10
0.0
 20
0.0
 30
0.0
 70
   128
 71
   110
 72
   189
 73
   194
  0
VERTEX
  5
A5A
  8
0
 62
     9
 10
0.0
 20
0.0
 30
0.0
 70
   128
 71
   110
 72
     1
 73
   186
  0
VERTEX
  5
A5B
  8
0
 62
     9
 10
0.0
 20
0.0
 30
0.0
 70
   128
 71
     1
 72
   159
 73
   165
  0
VERTEX
  5
A5C
  8
0
 62
     9
 10
0.0
 20
0.0
 30
0.0
 70
   128
 71
   196
 72
   195
 73
     1
  0
VERTEX
  5
A5D
  8
0
 62
     9
 10
0.0
 20
0.0
 30
0.0
 70
   128
 71
     1
 72
   197
 73
   196
  0
VERTEX
  5
A5E
  8
0
 62
     9
 10
0.0
 20
0.0
 30
0.0
 70
   128
 71
     1
 72
   198
 73
   197
  0
VERTEX
  5
A5F
  8
0
 62
     9
 10
0.0
 20
0.0
 30
0.0
 70
   128
 71
     1
 72
   199
 73
   198
  0
VERTEX
  5
A60
  8
0
 62
     9
 10
0.0
 20
0.0
 30
0.0
 70
   128
 71
   201
 72
   200
 73
     1
  0
VERTEX
  5
A61
  8
0
 62
     9
 10
0.0
 20
0.0
 30
0.0
 70
   128
 71
   200
 72
   202
 73
     1
  0
VERTEX
  5
A62
  8
0
 62
     9
 10
0.0
 20
0.0
 30
0.0
 70
   128
 71
   204
 72
   203
 73
     1
  0
VERTEX
  5
A63
  8
0
 62
     9
 10
0.0
 20
0.0
 30
0.0
 70
   128
 71
   203
 72
   205
 73
     1
  0
VERTEX
  5
A64
  8
0
 62
     9
 10
0.0
 20
0.0
 30
0.0
 70
   128
 71
     1
 72
   202
 73
   204
  0
VERTEX
  5
A65
  8
0
 62
     9
 10
0.0
 20
0.0
 30
0.0
 70
   128
 71
   207
 72
   206
 73
     1
  0
VERTEX
  5
A66
  8
0
 62
     9
 10
0.0
 20
0.0
 30
0.0
 70
   128
 71
   206
 72
   208
 73
     1
  0
VERTEX
  5
A67
  8
0
 62
     9
 10
0.0
 20
0.0
 30
0.0
 70
   128
 71
   208
 72
   209
 73
     1
  0
VERTEX
  5
A68
  8
0
 62
     9
 10
0.0
 20
0.0
 30
0.0
 70
   128
 71
     1
 72
   205
 73
   207
  0
VERTEX
  5
A69
  8
0
 62
     9
 10
0.0
 20
0.0
 30
0.0
 70
   128
 71
     1
 72
   195
 73
   201
  0
VERTEX
  5
A6A
  8
0
 62
     9
 10
0.0
 20
0.0
 30
0.0
 70
   128
 71
     1
 72
   210
 73
   199
  0
VERTEX
  5
A6B
  8
0
 62
     9
 10
0.0
 20
0.0
 30
0.0
 70
   128
 71
     1
 72
   211
 73
   210
  0
VERTEX
  5
A6C
  8
0
 62
     9
 10
0.0
 20
0.0
 30
0.0
 70
   128
 71
   213
 72
   212
 73
     1
  0
VERTEX
  5
A6D
  8
0
 62
     9
 10
0.0
 20
0.0
 30
0.0
 70
   128
 71
     1
 72
   110
 73
   213
  0
VERTEX
  5
A6E
  8
0
 62
     9
 10
0.0
 20
0.0
 30
0.0
 70
   128
 71
   110
 72
   214
 73
   213
  0
VERTEX
  5
A6F
  8
0
 62
     9
 10
0.0
 20
0.0
 30
0.0
 70
   128
 71
   216
 72
   215
 73
   110
  0
VERTEX
  5
A70
  8
0
 62
     9
 10
0.0
 20
0.0
 30
0.0
 70
   128
 71
   110
 72
     8
 73
   216
  0
VERTEX
  5
A71
  8
0
 62
     9
 10
0.0
 20
0.0
 30
0.0
 70
   128
 71
   218
 72
   217
 73
     8
  0
VERTEX
  5
A72
  8
0
 62
     9
 10
0.0
 20
0.0
 30
0.0
 70
   128
 71
     8
 72
   219
 73
   218
  0
VERTEX
  5
A73
  8
0
 62
     9
 10
0.0
 20
0.0
 30
0.0
 70
   128
 71
     8
 72
   220
 73
   219
  0
VERTEX
  5
A74
  8
0
 62
     9
 10
0.0
 20
0.0
 30
0.0
 70
   128
 71
     8
 72
   221
 73
   220
  0
VERTEX
  5
A75
  8
0
 62
     9
 10
0.0
 20
0.0
 30
0.0
 70
   128
 71
   223
 72
   222
 73
     8
  0
VERTEX
  5
A76
  8
0
 62
     9
 10
0.0
 20
0.0
 30
0.0
 70
   128
 71
     8
 72
   224
 73
   223
  0
VERTEX
  5
A77
  8
0
 62
     9
 10
0.0
 20
0.0
 30
0.0
 70
   128
 71
     8
 72
   217
 73
   224
  0
VERTEX
  5
A78
  8
0
 62
     9
 10
0.0
 20
0.0
 30
0.0
 70
   128
 71
   226
 72
   225
 73
     8
  0
VERTEX
  5
A79
  8
0
 62
     9
 10
0.0
 20
0.0
 30
0.0
 70
   128
 71
   225
 72
   227
 73
     8
  0
VERTEX
  5
A7A
  8
0
 62
     9
 10
0.0
 20
0.0
 30
0.0
 70
   128
 71
     8
 72
   222
 73
   226
  0
VERTEX
  5
A7B
  8
0
 62
     9
 10
0.0
 20
0.0
 30
0.0
 70
   128
 71
   229
 72
   228
 73
     8
  0
VERTEX
  5
A7C
  8
0
 62
     9
 10
0.0
 20
0.0
 30
0.0
 70
   128
 71
   228
 72
   230
 73
     8
  0
VERTEX
  5
A7D
  8
0
 62
     9
 10
0.0
 20
0.0
 30
0.0
 70
   128
 71
   230
 72
   231
 73
     8
  0
VERTEX
  5
A7E
  8
0
 62
     9
 10
0.0
 20
0.0
 30
0.0
 70
   128
 71
     8
 72
   227
 73
   229
  0
VERTEX
  5
A7F
  8
0
 62
     9
 10
0.0
 20
0.0
 30
0.0
 70
   128
 71
   231
 72
   232
 73
     8
  0
VERTEX
  5
A80
  8
0
 62
     9
 10
0.0
 20
0.0
 30
0.0
 70
   128
 71
   234
 72
   233
 73
    70
  0
VERTEX
  5
A81
  8
0
 62
     9
 10
0.0
 20
0.0
 30
0.0
 70
   128
 71
    70
 72
   235
 73
   234
  0
VERTEX
  5
A82
  8
0
 62
     9
 10
0.0
 20
0.0
 30
0.0
 70
   128
 71
    70
 72
   236
 73
   235
  0
VERTEX
  5
A83
  8
0
 62
     9
 10
0.0
 20
0.0
 30
0.0
 70
   128
 71
    70
 72
   237
 73
   236
  0
VERTEX
  5
A84
  8
0
 62
     9
 10
0.0
 20
0.0
 30
0.0
 70
   128
 71
   239
 72
   238
 73
    70
  0
VERTEX
  5
A85
  8
0
 62
     9
 10
0.0
 20
0.0
 30
0.0
 70
   128
 71
   238
 72
   240
 73
    70
  0
VERTEX
  5
A86
  8
0
 62
     9
 10
0.0
 20
0.0
 30
0.0
 70
   128
 71
   242
 72
   241
 73
    70
  0
VERTEX
  5
A87
  8
0
 62
     9
 10
0.0
 20
0.0
 30
0.0
 70
   128
 71
   241
 72
   243
 73
    70
  0
VERTEX
  5
A88
  8
0
 62
     9
 10
0.0
 20
0.0
 30
0.0
 70
   128
 71
   245
 72
   244
 73
    70
  0
VERTEX
  5
A89
  8
0
 62
     9
 10
0.0
 20
0.0
 30
0.0
 70
   128
 71
   244
 72
   246
 73
    70
  0
VERTEX
  5
A8A
  8
0
 62
     9
 10
0.0
 20
0.0
 30
0.0
 70
   128
 71
   246
 72
    14
 73
    70
  0
VERTEX
  5
A8B
  8
0
 62
     9
 10
0.0
 20
0.0
 30
0.0
 70
   128
 71
    70
 72
   243
 73
   245
  0
VERTEX
  5
A8C
  8
0
 62
     9
 10
0.0
 20
0.0
 30
0.0
 70
   128
 71
    70
 72
   240
 73
   242
  0
VERTEX
  5
A8D
  8
0
 62
     9
 10
0.0
 20
0.0
 30
0.0
 70
   128
 71
    70
 72
   233
 73
   239
  0
VERTEX
  5
A8E
  8
0
 62
     9
 10
0.0
 20
0.0
 30
0.0
 70
   128
 71
    70
 72
   247
 73
   237
  0
VERTEX
  5
A8F
  8
0
 62
     9
 10
0.0
 20
0.0
 30
0.0
 70
   128
 71
   249
 72
   248
 73
    70
  0
VERTEX
  5
A90
  8
0
 62
     9
 10
0.0
 20
0.0
 30
0.0
 70
   128
 71
   248
 72
   250
 73
    70
  0
VERTEX
  5
A91
  8
0
 62
     9
 10
0.0
 20
0.0
 30
0.0
 70
   128
 71
    70
 72
    18
 73
   249
  0
VERTEX
  5
A92
  8
0
 62
     9
 10
0.0
 20
0.0
 30
0.0
 70
   128
 71
   252
 72
   251
 73
    18
  0
VERTEX
  5
A93
  8
0
 62
     9
 10
0.0
 20
0.0
 30
0.0
 70
   128
 71
   251
 72
   253
 73
    18
  0
VERTEX
  5
A94
  8
0
 62
     9
 10
0.0
 20
0.0
 30
0.0
 70
   128
 71
    18
 72
     6
 73
   252
  0
VERTEX
  5
A95
  8
0
 62
     9
 10
0.0
 20
0.0
 30
0.0
 70
   128
 71
   255
 72
   254
 73
     6
  0
VERTEX
  5
A96
  8
0
 62
     9
 10
0.0
 20
0.0
 30
0.0
 70
   128
 71
     6
 72
   256
 73
   255
  0
VERTEX
  5
A97
  8
0
 62
     9
 10
0.0
 20
0.0
 30
0.0
 70
   128
 71
     6
 72
   257
 73
   256
  0
VERTEX
  5
A98
  8
0
 62
     9
 10
0.0
 20
0.0
 30
0.0
 70
   128
 71
     6
 72
   258
 73
   257
  0
VERTEX
  5
A99
  8
0
 62
     9
 10
0.0
 20
0.0
 30
0.0
 70
   128
 71
   260
 72
   259
 73
     6
  0
VERTEX
  5
A9A
  8
0
 62
     9
 10
0.0
 20
0.0
 30
0.0
 70
   128
 71
     6
 72
   261
 73
   260
  0
VERTEX
  5
A9B
  8
0
 62
     9
 10
0.0
 20
0.0
 30
0.0
 70
   128
 71
   263
 72
   262
 73
     6
  0
VERTEX
  5
A9C
  8
0
 62
     9
 10
0.0
 20
0.0
 30
0.0
 70
   128
 71
   262
 72
   264
 73
     6
  0
VERTEX
  5
A9D
  8
0
 62
     9
 10
0.0
 20
0.0
 30
0.0
 70
   128
 71
     6
 72
   259
 73
   263
  0
VERTEX
  5
A9E
  8
0
 62
     9
 10
0.0
 20
0.0
 30
0.0
 70
   128
 71
     6
 72
   254
 73
   261
  0
VERTEX
  5
A9F
  8
0
 62
     9
 10
0.0
 20
0.0
 30
0.0
 70
   128
 71
   266
 72
   265
 73
     6
  0
VERTEX
  5
AA0
  8
0
 62
     9
 10
0.0
 20
0.0
 30
0.0
 70
   128
 71
   265
 72
   267
 73
     6
  0
VERTEX
  5
AA1
  8
0
 62
     9
 10
0.0
 20
0.0
 30
0.0
 70
   128
 71
   267
 72
   268
 73
     6
  0
VERTEX
  5
AA2
  8
0
 62
     9
 10
0.0
 20
0.0
 30
0.0
 70
   128
 71
     6
 72
   264
 73
   266
  0
VERTEX
  5
AA3
  8
0
 62
     9
 10
0.0
 20
0.0
 30
0.0
 70
   128
 71
   268
 72
   269
 73
     6
  0
VERTEX
  5
AA4
  8
0
 62
     9
 10
0.0
 20
0.0
 30
0.0
 70
   128
 71
     6
 72
     7
 73
   258
  0
VERTEX
  5
AA5
  8
0
 62
     9
 10
0.0
 20
0.0
 30
0.0
 70
   128
 71
     6
 72
   269
 73
   252
  0
VERTEX
  5
AA6
  8
0
 62
     9
 10
0.0
 20
0.0
 30
0.0
 70
   128
 71
    18
 72
   253
 73
   249
  0
VERTEX
  5
AA7
  8
0
 62
     9
 10
0.0
 20
0.0
 30
0.0
 70
   128
 71
    70
 72
   250
 73
   247
  0
VERTEX
  5
AA8
  8
0
 62
     9
 10
0.0
 20
0.0
 30
0.0
 70
   128
 71
     8
 72
     9
 73
   221
  0
VERTEX
  5
AA9
  8
0
 62
     9
 10
0.0
 20
0.0
 30
0.0
 70
   128
 71
     8
 72
   232
 73
   216
  0
VERTEX
  5
AAA
  8
0
 62
     9
 10
0.0
 20
0.0
 30
0.0
 70
   128
 71
   110
 72
   215
 73
   214
  0
VERTEX
  5
AAB
  8
0
 62
     9
 10
0.0
 20
0.0
 30
0.0
 70
   128
 71
     1
 72
   212
 73
   211
  0
VERTEX
  5
AAC
  8
0
 62
     9
 10
0.0
 20
0.0
 30
0.0
 70
   128
 71
     2
 72
    17
 73
   151
  0
VERTEX
  5
AAD
  8
0
 62
     9
 10
0.0
 20
0.0
 30
0.0
 70
   128
 71
   110
 72
   192
 73
   112
  0
VERTEX
  5
AAE
  8
0
 62
     9
 10
0.0
 20
0.0
 30
0.0
 70
   128
 71
    11
 72
   149
 73
   105
  0
VERTEX
  5
AAF
  8
0
 62
     9
 10
0.0
 20
0.0
 30
0.0
 70
   128
 71
    13
 72
   109
 73
    63
  0
VERTEX
  5
AB0
  8
0
 62
     9
 10
0.0
 20
0.0
 30
0.0
 70
   128
 71
    18
 72
   103
 73
    22
  0
VERTEX
  5
AB1
  8
0
 62
     9
 10
0.0
 20
0.0
 30
0.0
 70
   128
 71
     4
 72
    59
 73
    16
  0
VERTEX
  5
AB2
  8
0
 62
     9
 10
0.0
 20
0.0
 30
0.0
 70
   128
 71
    13
 72
    70
 73
    14
  0
VERTEX
  5
AB3
  8
0
 62
     9
 10
0.0
 20
0.0
 30
0.0
 70
   128
 71
    11
 72
    13
 73
    12
  0
VERTEX
  5
AB4
  8
0
 62
     9
 10
0.0
 20
0.0
 30
0.0
 70
   128
 71
     8
 72
    11
 73
    10
  0
VERTEX
  5
AB5
  8
0
 62
     9
 10
0.0
 20
0.0
 30
0.0
 70
   128
 71
     4
 72
     5
 73
     7
  0
VERTEX
  5
AB6
  8
0
 62
     9
 10
0.0
 20
0.0
 30
0.0
 70
   128
 71
     2
 72
     3
 73
     5
  0
VERTEX
  5
AB7
  8
0
 62
     9
 10
0.0
 20
0.0
 30
0.0
 70
   128
 71
     1
 72
   209
 73
     3
  0
SEQEND
  5
AB8
  8
0
 62
     9
  0
ENDBLK
  5
ABB
  8
0
  0
BLOCK
  8
0
  2
E3_NODE_23_
 70
     0
 10
0.0
 20
0.0
 30
0.0
  3
E3_NODE_23_
  1

  0
POLYLINE
  5
ABD
  8
0
 62
     9
 66
     1
 10
0.0
 20
0.0
 30
0.0
 70
    64
 71
     8
 72
     6
  0
VERTEX
  5
ABE
  8
0
 10
0.0
 20
40.5
 30
-78.0
 70
   192
  0
VERTEX
  5
ABF
  8
0
 10
10.14599990844727
 20
-34.0620002746582
 30
-78.0
 70
   192
  0
VERTEX
  5
AC0
  8
0
 10
10.14599990844727
 20
-73.93599700927734
 30
-78.0
 70
   192
  0
VERTEX
  5
AC1
  8
0
 10
9.842000007629395
 20
5.811999797821045
 30
-78.0
 70
   192
  0
VERTEX
  5
AC2
  8
0
 10
0.0
 20
-148.5
 30
-78.0
 70
   192
  0
VERTEX
  5
AC3
  8
0
 10
9.840999603271484
 20
-113.8099975585938
 30
-78.0
 70
   192
  0
VERTEX
  5
AC4
  8
0
 10
9.329999923706055
 20
40.5
 30
-78.0
 70
   192
  0
VERTEX
  5
AC5
  8
0
 10
9.329000473022461
 20
-148.5
 30
-78.0
 70
   192
  0
VERTEX
  5
AC6
  8
0
 62
     9
 10
0.0
 20
0.0
 30
0.0
 70
   128
 71
     3
 72
     2
 73
     1
  0
VERTEX
  5
AC7
  8
0
 62
     9
 10
0.0
 20
0.0
 30
0.0
 70
   128
 71
     2
 72
     4
 73
     1
  0
VERTEX
  5
AC8
  8
0
 62
     9
 10
0.0
 20
0.0
 30
0.0
 70
   128
 71
     1
 72
     5
 73
     3
  0
VERTEX
  5
AC9
  8
0
 62
     9
 10
0.0
 20
0.0
 30
0.0
 70
   128
 71
     5
 72
     6
 73
     3
  0
VERTEX
  5
ACA
  8
0
 62
     9
 10
0.0
 20
0.0
 30
0.0
 70
   128
 71
     4
 72
     7
 73
     1
  0
VERTEX
  5
ACB
  8
0
 62
     9
 10
0.0
 20
0.0
 30
0.0
 70
   128
 71
     5
 72
     8
 73
     6
  0
SEQEND
  5
ACC
  8
0
 62
     9
  0
ENDBLK
  5
ACF
  8
0
  0
BLOCK
  8
0
  2
E3_NODE_24_
 70
     0
 10
0.0
 20
0.0
 30
0.0
  3
E3_NODE_24_
  1

  0
POLYLINE
  5
AD1
  8
0
 62
     9
 66
     1
 10
0.0
 20
0.0
 30
0.0
 70
    64
 71
    20
 72
    18
  0
VERTEX
  5
AD2
  8
0
 10
0.0
 20
-148.5
 30
78.0
 70
   192
  0
VERTEX
  5
AD3
  8
0
 10
0.0
 20
-152.5
 30
74.0
 70
   192
  0
VERTEX
  5
AD4
  8
0
 10
0.0
 20
-152.1959991455078
 30
75.53099822998047
 70
   192
  0
VERTEX
  5
AD5
  8
0
 10
0.0
 20
-152.5
 30
-74.0
 70
   192
  0
VERTEX
  5
AD6
  8
0
 10
0.0
 20
-150.031005859375
 30
-77.69599914550781
 70
   192
  0
VERTEX
  5
AD7
  8
0
 10
0.0
 20
-151.3280029296875
 30
-76.8280029296875
 70
   192
  0
VERTEX
  5
AD8
  8
0
 10
0.0
 20
44.5
 30
74.0
 70
   192
  0
VERTEX
  5
AD9
  8
0
 10
0.0
 20
40.5
 30
78.0
 70
   192
  0
VERTEX
  5
ADA
  8
0
 10
0.0
 20
42.03099822998047
 30
77.69599914550781
 70
   192
  0
VERTEX
  5
ADB
  8
0
 10
0.0
 20
-151.3280029296875
 30
76.8280029296875
 70
   192
  0
VERTEX
  5
ADC
  8
0
 10
0.0
 20
-148.5
 30
-78.0
 70
   192
  0
VERTEX
  5
ADD
  8
0
 10
0.0
 20
44.5
 30
-74.0
 70
   192
  0
VERTEX
  5
ADE
  8
0
 10
0.0
 20
40.5
 30
-78.0
 70
   192
  0
VERTEX
  5
ADF
  8
0
 10
0.0
 20
44.19599914550781
 30
-75.53099822998047
 70
   192
  0
VERTEX
  5
AE0
  8
0
 10
0.0
 20
43.32799911499023
 30
-76.8280029296875
 70
   192
  0
VERTEX
  5
AE1
  8
0
 10
0.0
 20
43.32799911499023
 30
76.8280029296875
 70
   192
  0
VERTEX
  5
AE2
  8
0
 10
0.0
 20
-150.031005859375
 30
77.69599914550781
 70
   192
  0
VERTEX
  5
AE3
  8
0
 10
0.0
 20
42.03099822998047
 30
-77.69599914550781
 70
   192
  0
VERTEX
  5
AE4
  8
0
 10
0.0
 20
44.19599914550781
 30
75.53099822998047
 70
   192
  0
VERTEX
  5
AE5
  8
0
 10
0.0
 20
-152.1959991455078
 30
-75.53099822998047
 70
   192
  0
VERTEX
  5
AE6
  8
0
 62
     9
 10
0.0
 20
0.0
 30
0.0
 70
   128
 71
     3
 72
     2
 73
     1
  0
VERTEX
  5
AE7
  8
0
 62
     9
 10
0.0
 20
0.0
 30
0.0
 70
   128
 71
     6
 72
     5
 73
     4
  0
VERTEX
  5
AE8
  8
0
 62
     9
 10
0.0
 20
0.0
 30
0.0
 70
   128
 71
     9
 72
     8
 73
     7
  0
VERTEX
  5
AE9
  8
0
 62
     9
 10
0.0
 20
0.0
 30
0.0
 70
   128
 71
     1
 72
     2
 73
     7
  0
VERTEX
  5
AEA
  8
0
 62
     9
 10
0.0
 20
0.0
 30
0.0
 70
   128
 71
     1
 72
    10
 73
     3
  0
VERTEX
  5
AEB
  8
0
 62
     9
 10
0.0
 20
0.0
 30
0.0
 70
   128
 71
     5
 72
    11
 73
     4
  0
VERTEX
  5
AEC
  8
0
 62
     9
 10
0.0
 20
0.0
 30
0.0
 70
   128
 71
    11
 72
    13
 73
    12
  0
VERTEX
  5
AED
  8
0
 62
     9
 10
0.0
 20
0.0
 30
0.0
 70
   128
 71
    15
 72
    14
 73
    12
  0
VERTEX
  5
AEE
  8
0
 62
     9
 10
0.0
 20
0.0
 30
0.0
 70
   128
 71
     7
 72
    16
 73
     9
  0
VERTEX
  5
AEF
  8
0
 62
     9
 10
0.0
 20
0.0
 30
0.0
 70
   128
 71
     1
 72
    17
 73
    10
  0
VERTEX
  5
AF0
  8
0
 62
     9
 10
0.0
 20
0.0
 30
0.0
 70
   128
 71
    12
 72
     4
 73
    11
  0
VERTEX
  5
AF1
  8
0
 62
     9
 10
0.0
 20
0.0
 30
0.0
 70
   128
 71
    12
 72
    18
 73
    15
  0
VERTEX
  5
AF2
  8
0
 62
     9
 10
0.0
 20
0.0
 30
0.0
 70
   128
 71
     7
 72
     2
 73
     4
  0
VERTEX
  5
AF3
  8
0
 62
     9
 10
0.0
 20
0.0
 30
0.0
 70
   128
 71
     7
 72
     8
 73
     1
  0
VERTEX
  5
AF4
  8
0
 62
     9
 10
0.0
 20
0.0
 30
0.0
 70
   128
 71
    12
 72
    13
 73
    18
  0
VERTEX
  5
AF5
  8
0
 62
     9
 10
0.0
 20
0.0
 30
0.0
 70
   128
 71
     7
 72
    19
 73
    16
  0
VERTEX
  5
AF6
  8
0
 62
     9
 10
0.0
 20
0.0
 30
0.0
 70
   128
 71
     4
 72
    12
 73
     7
  0
VERTEX
  5
AF7
  8
0
 62
     9
 10
0.0
 20
0.0
 30
0.0
 70
   128
 71
     4
 72
    20
 73
     6
  0
SEQEND
  5
AF8
  8
0
 62
     9
  0
ENDBLK
  5
AFB
  8
0
  0
BLOCK
  8
0
  2
E3_NODE_25_
 70
     0
 10
0.0
 20
0.0
 30
0.0
  3
E3_NODE_25_
  1

  0
POLYLINE
  5
AFD
  8
0
 62
     9
 66
     1
 10
0.0
 20
0.0
 30
0.0
 70
    64
 71
    13
 72
    11
  0
VERTEX
  5
AFE
  8
0
 10
0.0
 20
44.5
 30
74.0
 70
   192
  0
VERTEX
  5
AFF
  8
0
 10
9.829000473022461
 20
44.5
 30
3.476000070571899
 70
   192
  0
VERTEX
  5
B00
  8
0
 10
9.838000297546387
 20
44.5
 30
0.0070000002160668
 70
   192
  0
VERTEX
  5
B01
  8
0
 10
0.0
 20
44.5
 30
-74.0
 70
   192
  0
VERTEX
  5
B02
  8
0
 10
9.701000213623047
 20
44.5
 30
-37.26300048828125
 70
   192
  0
VERTEX
  5
B03
  8
0
 10
9.692000389099121
 20
44.5
 30
-38.99800109863281
 70
   192
  0
VERTEX
  5
B04
  8
0
 10
9.821000099182129
 20
44.5
 30
-13.26799964904785
 70
   192
  0
VERTEX
  5
B05
  8
0
 10
9.637999534606934
 20
44.5
 30
44.2140007019043
 70
   192
  0
VERTEX
  5
B06
  8
0
 10
9.77400016784668
 20
44.5
 30
25.73699951171875
 70
   192
  0
VERTEX
  5
B07
  8
0
 10
9.614999771118164
 20
44.5
 30
-48.27199935913086
 70
   192
  0
VERTEX
  5
B08
  8
0
 10
9.314000129699707
 20
44.5
 30
74.0
 70
   192
  0
VERTEX
  5
B09
  8
0
 10
9.583999633789062
 20
44.5
 30
51.46599960327148
 70
   192
  0
VERTEX
  5
B0A
  8
0
 10
9.314000129699707
 20
44.5
 30
-74.0
 70
   192
  0
VERTEX
  5
B0B
  8
0
 62
     9
 10
0.0
 20
0.0
 30
0.0
 70
   128
 71
     3
 72
     2
 73
     1
  0
VERTEX
  5
B0C
  8
0
 62
     9
 10
0.0
 20
0.0
 30
0.0
 70
   128
 71
     1
 72
     4
 73
     3
  0
VERTEX
  5
B0D
  8
0
 62
     9
 10
0.0
 20
0.0
 30
0.0
 70
   128
 71
     6
 72
     5
 73
     4
  0
VERTEX
  5
B0E
  8
0
 62
     9
 10
0.0
 20
0.0
 30
0.0
 70
   128
 71
     4
 72
     7
 73
     3
  0
VERTEX
  5
B0F
  8
0
 62
     9
 10
0.0
 20
0.0
 30
0.0
 70
   128
 71
     9
 72
     8
 73
     1
  0
VERTEX
  5
B10
  8
0
 62
     9
 10
0.0
 20
0.0
 30
0.0
 70
   128
 71
     4
 72
    10
 73
     6
  0
VERTEX
  5
B11
  8
0
 62
     9
 10
0.0
 20
0.0
 30
0.0
 70
   128
 71
     1
 72
     2
 73
     9
  0
VERTEX
  5
B12
  8
0
 62
     9
 10
0.0
 20
0.0
 30
0.0
 70
   128
 71
     4
 72
     5
 73
     7
  0
VERTEX
  5
B13
  8
0
 62
     9
 10
0.0
 20
0.0
 30
0.0
 70
   128
 71
    12
 72
    11
 73
     1
  0
VERTEX
  5
B14
  8
0
 62
     9
 10
0.0
 20
0.0
 30
0.0
 70
   128
 71
     1
 72
     8
 73
    12
  0
VERTEX
  5
B15
  8
0
 62
     9
 10
0.0
 20
0.0
 30
0.0
 70
   128
 71
     4
 72
    13
 73
    10
  0
SEQEND
  5
B16
  8
0
 62
     9
  0
ENDBLK
  5
B19
  8
0
  0
BLOCK
  8
0
  2
E3_NODE_26_
 70
     0
 10
0.0
 20
0.0
 30
0.0
  3
E3_NODE_26_
  1

  0
POLYLINE
  5
B1B
  8
0
 62
     9
 66
     1
 10
0.0
 20
0.0
 30
0.0
 70
    64
 71
     8
 72
     6
  0
VERTEX
  5
B1C
  8
0
 10
0.0
 20
40.5
 30
78.0
 70
   192
  0
VERTEX
  5
B1D
  8
0
 10
0.0
 20
-148.5
 30
78.0
 70
   192
  0
VERTEX
  5
B1E
  8
0
 10
10.14599990844727
 20
-73.93599700927734
 30
78.0
 70
   192
  0
VERTEX
  5
B1F
  8
0
 10
10.14599990844727
 20
-34.0620002746582
 30
78.0
 70
   192
  0
VERTEX
  5
B20
  8
0
 10
9.840999603271484
 20
-113.8099975585938
 30
78.0
 70
   192
  0
VERTEX
  5
B21
  8
0
 10
9.329000473022461
 20
-148.5
 30
78.0
 70
   192
  0
VERTEX
  5
B22
  8
0
 10
9.842000007629395
 20
5.811999797821045
 30
78.0
 70
   192
  0
VERTEX
  5
B23
  8
0
 10
9.329999923706055
 20
40.5
 30
78.0
 70
   192
  0
VERTEX
  5
B24
  8
0
 62
     9
 10
0.0
 20
0.0
 30
0.0
 70
   128
 71
     3
 72
     2
 73
     1
  0
VERTEX
  5
B25
  8
0
 62
     9
 10
0.0
 20
0.0
 30
0.0
 70
   128
 71
     1
 72
     4
 73
     3
  0
VERTEX
  5
B26
  8
0
 62
     9
 10
0.0
 20
0.0
 30
0.0
 70
   128
 71
     3
 72
     5
 73
     2
  0
VERTEX
  5
B27
  8
0
 62
     9
 10
0.0
 20
0.0
 30
0.0
 70
   128
 71
     5
 72
     6
 73
     2
  0
VERTEX
  5
B28
  8
0
 62
     9
 10
0.0
 20
0.0
 30
0.0
 70
   128
 71
     1
 72
     7
 73
     4
  0
VERTEX
  5
B29
  8
0
 62
     9
 10
0.0
 20
0.0
 30
0.0
 70
   128
 71
     1
 72
     8
 73
     7
  0
SEQEND
  5
B2A
  8
0
 62
     9
  0
ENDBLK
  5
B2D
  8
0
  0
BLOCK
  8
0
  2
E3_NODE_27_
 70
     0
 10
0.0
 20
0.0
 30
0.0
  3
E3_NODE_27_
  1

  0
POLYLINE
  5
B2F
  8
0
 62
     9
 66
     1
 10
0.0
 20
0.0
 30
0.0
 70
    64
 71
    13
 72
    11
  0
VERTEX
  5
B30
  8
0
 10
0.0
 20
-152.5
 30
-74.0
 70
   192
  0
VERTEX
  5
B31
  8
0
 10
9.77400016784668
 20
-152.5
 30
-25.73699951171875
 70
   192
  0
VERTEX
  5
B32
  8
0
 10
9.836999893188477
 20
-152.5
 30
-0.0070000002160668
 70
   192
  0
VERTEX
  5
B33
  8
0
 10
0.0
 20
-152.5
 30
74.0
 70
   192
  0
VERTEX
  5
B34
  8
0
 10
9.833000183105469
 20
-152.5
 30
3.476000070571899
 70
   192
  0
VERTEX
  5
B35
  8
0
 10
9.821000099182129
 20
-152.5
 30
13.26799964904785
 70
   192
  0
VERTEX
  5
B36
  8
0
 10
9.689000129699707
 20
-152.5
 30
-37.26300048828125
 70
   192
  0
VERTEX
  5
B37
  8
0
 10
9.692000389099121
 20
-152.5
 30
38.99800109863281
 70
   192
  0
VERTEX
  5
B38
  8
0
 10
9.64799976348877
 20
-152.5
 30
44.2140007019043
 70
   192
  0
VERTEX
  5
B39
  8
0
 10
9.614999771118164
 20
-152.5
 30
48.27199935913086
 70
   192
  0
VERTEX
  5
B3A
  8
0
 10
9.314000129699707
 20
-152.5
 30
-74.0
 70
   192
  0
VERTEX
  5
B3B
  8
0
 10
9.583999633789062
 20
-152.5
 30
-51.46599960327148
 70
   192
  0
VERTEX
  5
B3C
  8
0
 10
9.314000129699707
 20
-152.5
 30
74.0
 70
   192
  0
VERTEX
  5
B3D
  8
0
 62
     9
 10
0.0
 20
0.0
 30
0.0
 70
   128
 71
     3
 72
     2
 73
     1
  0
VERTEX
  5
B3E
  8
0
 62
     9
 10
0.0
 20
0.0
 30
0.0
 70
   128
 71
     6
 72
     5
 73
     4
  0
VERTEX
  5
B3F
  8
0
 62
     9
 10
0.0
 20
0.0
 30
0.0
 70
   128
 71
     2
 72
     7
 73
     1
  0
VERTEX
  5
B40
  8
0
 62
     9
 10
0.0
 20
0.0
 30
0.0
 70
   128
 71
     4
 72
     8
 73
     6
  0
VERTEX
  5
B41
  8
0
 62
     9
 10
0.0
 20
0.0
 30
0.0
 70
   128
 71
     1
 72
     4
 73
     3
  0
VERTEX
  5
B42
  8
0
 62
     9
 10
0.0
 20
0.0
 30
0.0
 70
   128
 71
    10
 72
     9
 73
     4
  0
VERTEX
  5
B43
  8
0
 62
     9
 10
0.0
 20
0.0
 30
0.0
 70
   128
 71
     4
 72
     5
 73
     3
  0
VERTEX
  5
B44
  8
0
 62
     9
 10
0.0
 20
0.0
 30
0.0
 70
   128
 71
     4
 72
     9
 73
     8
  0
VERTEX
  5
B45
  8
0
 62
     9
 10
0.0
 20
0.0
 30
0.0
 70
   128
 71
    12
 72
    11
 73
     1
  0
VERTEX
  5
B46
  8
0
 62
     9
 10
0.0
 20
0.0
 30
0.0
 70
   128
 71
     1
 72
     7
 73
    12
  0
VERTEX
  5
B47
  8
0
 62
     9
 10
0.0
 20
0.0
 30
0.0
 70
   128
 71
     4
 72
    13
 73
    10
  0
SEQEND
  5
B48
  8
0
 62
     9
  0
ENDBLK
  5
B4B
  8
0
  0
BLOCK
  8
0
  2
E3_NODE_28_
 70
     0
 10
0.0
 20
0.0
 30
0.0
  3
E3_NODE_28_
  1

  0
POLYLINE
  5
B4D
  8
0
 62
     9
 66
     1
 10
0.0
 20
0.0
 30
0.0
 70
    64
 71
    19
 72
    17
  0
VERTEX
  5
B4E
  8
0
 10
0.0
 20
42.03099822998047
 30
77.69599914550781
 70
   192
  0
VERTEX
  5
B4F
  8
0
 10
0.0
 20
40.5
 30
78.0
 70
   192
  0
VERTEX
  5
B50
  8
0
 10
9.3149995803833
 20
41.37900161743164
 30
77.9020004272461
 70
   192
  0
VERTEX
  5
B51
  8
0
 10
9.329999923706055
 20
40.5
 30
78.0
 70
   192
  0
VERTEX
  5
B52
  8
0
 10
9.32699966430664
 20
40.67300033569336
 30
77.99600219726562
 70
   192
  0
VERTEX
  5
B53
  8
0
 10
9.307000160217285
 20
41.98400115966797
 30
77.71399688720703
 70
   192
  0
VERTEX
  5
B54
  8
0
 10
0.0
 20
43.32799911499023
 30
76.8280029296875
 70
   192
  0
VERTEX
  5
B55
  8
0
 10
9.300000190734863
 20
42.62099838256836
 30
77.39099884033203
 70
   192
  0
VERTEX
  5
B56
  8
0
 10
9.305999755859375
 20
42.02899932861328
 30
77.69200134277344
 70
   192
  0
VERTEX
  5
B57
  8
0
 10
9.295999526977539
 20
43.13000106811523
 30
77.01399993896484
 70
   192
  0
VERTEX
  5
B58
  8
0
 10
9.293999671936035
 20
43.62400054931641
 30
76.49800109863281
 70
   192
  0
VERTEX
  5
B59
  8
0
 10
9.295000076293945
 20
43.97900009155273
 30
75.9739990234375
 70
   192
  0
VERTEX
  5
B5A
  8
0
 10
0.0
 20
44.19599914550781
 30
75.53099822998047
 70
   192
  0
VERTEX
  5
B5B
  8
0
 10
9.295000076293945
 20
43.31800079345703
 30
76.81800079345703
 70
   192
  0
VERTEX
  5
B5C
  8
0
 10
9.298999786376953
 20
44.27500152587891
 30
75.3239974975586
 70
   192
  0
VERTEX
  5
B5D
  8
0
 10
9.305000305175781
 20
44.43600082397461
 30
74.71099853515625
 70
   192
  0
VERTEX
  5
B5E
  8
0
 10
0.0
 20
44.5
 30
74.0
 70
   192
  0
VERTEX
  5
B5F
  8
0
 10
9.29800033569336
 20
44.18299865722656
 30
75.5250015258789
 70
   192
  0
VERTEX
  5
B60
  8
0
 10
9.314000129699707
 20
44.5
 30
74.0
 70
   192
  0
VERTEX
  5
B61
  8
0
 62
     9
 10
0.0
 20
0.0
 30
0.0
 70
   128
 71
     3
 72
     2
 73
     1
  0
VERTEX
  5
B62
  8
0
 62
     9
 10
0.0
 20
0.0
 30
0.0
 70
   128
 71
     5
 72
     4
 73
     2
  0
VERTEX
  5
B63
  8
0
 62
     9
 10
0.0
 20
0.0
 30
0.0
 70
   128
 71
     2
 72
     3
 73
     5
  0
VERTEX
  5
B64
  8
0
 62
     9
 10
0.0
 20
0.0
 30
0.0
 70
   128
 71
     1
 72
     6
 73
     3
  0
VERTEX
  5
B65
  8
0
 62
     9
 10
0.0
 20
0.0
 30
0.0
 70
   128
 71
     8
 72
     1
 73
     7
  0
VERTEX
  5
B66
  8
0
 62
     9
 10
0.0
 20
0.0
 30
0.0
 70
   128
 71
     8
 72
     9
 73
     1
  0
VERTEX
  5
B67
  8
0
 62
     9
 10
0.0
 20
0.0
 30
0.0
 70
   128
 71
     7
 72
    10
 73
     8
  0
VERTEX
  5
B68
  8
0
 62
     9
 10
0.0
 20
0.0
 30
0.0
 70
   128
 71
    12
 72
    11
 73
     7
  0
VERTEX
  5
B69
  8
0
 62
     9
 10
0.0
 20
0.0
 30
0.0
 70
   128
 71
     7
 72
    13
 73
    12
  0
VERTEX
  5
B6A
  8
0
 62
     9
 10
0.0
 20
0.0
 30
0.0
 70
   128
 71
    11
 72
    14
 73
     7
  0
VERTEX
  5
B6B
  8
0
 62
     9
 10
0.0
 20
0.0
 30
0.0
 70
   128
 71
    16
 72
    15
 73
    13
  0
VERTEX
  5
B6C
  8
0
 62
     9
 10
0.0
 20
0.0
 30
0.0
 70
   128
 71
    13
 72
    17
 73
    16
  0
VERTEX
  5
B6D
  8
0
 62
     9
 10
0.0
 20
0.0
 30
0.0
 70
   128
 71
    15
 72
    18
 73
    13
  0
VERTEX
  5
B6E
  8
0
 62
     9
 10
0.0
 20
0.0
 30
0.0
 70
   128
 71
    17
 72
    19
 73
    16
  0
VERTEX
  5
B6F
  8
0
 62
     9
 10
0.0
 20
0.0
 30
0.0
 70
   128
 71
    13
 72
    18
 73
    12
  0
VERTEX
  5
B70
  8
0
 62
     9
 10
0.0
 20
0.0
 30
0.0
 70
   128
 71
     7
 72
    14
 73
    10
  0
VERTEX
  5
B71
  8
0
 62
     9
 10
0.0
 20
0.0
 30
0.0
 70
   128
 71
     1
 72
     9
 73
     6
  0
SEQEND
  5
B72
  8
0
 62
     9
  0
ENDBLK
  5
B75
  8
0
  0
BLOCK
  8
0
  2
E3_NODE_29_
 70
     0
 10
0.0
 20
0.0
 30
0.0
  3
E3_NODE_29_
  1

  0
POLYLINE
  5
B77
  8
0
 62
     9
 66
     1
 10
0.0
 20
0.0
 30
0.0
 70
    64
 71
    19
 72
    17
  0
VERTEX
  5
B78
  8
0
 10
0.0
 20
-150.031005859375
 30
-77.69599914550781
 70
   192
  0
VERTEX
  5
B79
  8
0
 10
0.0
 20
-148.5
 30
-78.0
 70
   192
  0
VERTEX
  5
B7A
  8
0
 10
9.3149995803833
 20
-149.3789978027344
 30
-77.9020004272461
 70
   192
  0
VERTEX
  5
B7B
  8
0
 10
9.329000473022461
 20
-148.5
 30
-78.0
 70
   192
  0
VERTEX
  5
B7C
  8
0
 10
9.326000213623047
 20
-148.6730041503906
 30
-77.99600219726562
 70
   192
  0
VERTEX
  5
B7D
  8
0
 10
9.305999755859375
 20
-149.9839935302734
 30
-77.71399688720703
 70
   192
  0
VERTEX
  5
B7E
  8
0
 10
0.0
 20
-151.3280029296875
 30
-76.8280029296875
 70
   192
  0
VERTEX
  5
B7F
  8
0
 10
9.298999786376953
 20
-150.6210021972656
 30
-77.39099884033203
 70
   192
  0
VERTEX
  5
B80
  8
0
 10
9.305999755859375
 20
-150.0290069580078
 30
-77.69200134277344
 70
   192
  0
VERTEX
  5
B81
  8
0
 10
9.295999526977539
 20
-151.1300048828125
 30
-77.01399993896484
 70
   192
  0
VERTEX
  5
B82
  8
0
 10
9.293999671936035
 20
-151.6239929199219
 30
-76.49800109863281
 70
   192
  0
VERTEX
  5
B83
  8
0
 10
9.295000076293945
 20
-151.97900390625
 30
-75.9739990234375
 70
   192
  0
VERTEX
  5
B84
  8
0
 10
0.0
 20
-152.1959991455078
 30
-75.53099822998047
 70
   192
  0
VERTEX
  5
B85
  8
0
 10
9.295000076293945
 20
-151.3179931640625
 30
-76.81800079345703
 70
   192
  0
VERTEX
  5
B86
  8
0
 10
9.298999786376953
 20
-152.2749938964844
 30
-75.3239974975586
 70
   192
  0
VERTEX
  5
B87
  8
0
 10
9.305000305175781
 20
-152.4360046386719
 30
-74.71099853515625
 70
   192
  0
VERTEX
  5
B88
  8
0
 10
0.0
 20
-152.5
 30
-74.0
 70
   192
  0
VERTEX
  5
B89
  8
0
 10
9.29800033569336
 20
-152.1829986572266
 30
-75.5250015258789
 70
   192
  0
VERTEX
  5
B8A
  8
0
 10
9.314000129699707
 20
-152.5
 30
-74.0
 70
   192
  0
VERTEX
  5
B8B
  8
0
 62
     9
 10
0.0
 20
0.0
 30
0.0
 70
   128
 71
     3
 72
     2
 73
     1
  0
VERTEX
  5
B8C
  8
0
 62
     9
 10
0.0
 20
0.0
 30
0.0
 70
   128
 71
     5
 72
     4
 73
     2
  0
VERTEX
  5
B8D
  8
0
 62
     9
 10
0.0
 20
0.0
 30
0.0
 70
   128
 71
     2
 72
     3
 73
     5
  0
VERTEX
  5
B8E
  8
0
 62
     9
 10
0.0
 20
0.0
 30
0.0
 70
   128
 71
     1
 72
     6
 73
     3
  0
VERTEX
  5
B8F
  8
0
 62
     9
 10
0.0
 20
0.0
 30
0.0
 70
   128
 71
     8
 72
     1
 73
     7
  0
VERTEX
  5
B90
  8
0
 62
     9
 10
0.0
 20
0.0
 30
0.0
 70
   128
 71
     8
 72
     9
 73
     1
  0
VERTEX
  5
B91
  8
0
 62
     9
 10
0.0
 20
0.0
 30
0.0
 70
   128
 71
     7
 72
    10
 73
     8
  0
VERTEX
  5
B92
  8
0
 62
     9
 10
0.0
 20
0.0
 30
0.0
 70
   128
 71
    12
 72
    11
 73
     7
  0
VERTEX
  5
B93
  8
0
 62
     9
 10
0.0
 20
0.0
 30
0.0
 70
   128
 71
     7
 72
    13
 73
    12
  0
VERTEX
  5
B94
  8
0
 62
     9
 10
0.0
 20
0.0
 30
0.0
 70
   128
 71
    11
 72
    14
 73
     7
  0
VERTEX
  5
B95
  8
0
 62
     9
 10
0.0
 20
0.0
 30
0.0
 70
   128
 71
    16
 72
    15
 73
    13
  0
VERTEX
  5
B96
  8
0
 62
     9
 10
0.0
 20
0.0
 30
0.0
 70
   128
 71
    13
 72
    17
 73
    16
  0
VERTEX
  5
B97
  8
0
 62
     9
 10
0.0
 20
0.0
 30
0.0
 70
   128
 71
    15
 72
    18
 73
    13
  0
VERTEX
  5
B98
  8
0
 62
     9
 10
0.0
 20
0.0
 30
0.0
 70
   128
 71
    17
 72
    19
 73
    16
  0
VERTEX
  5
B99
  8
0
 62
     9
 10
0.0
 20
0.0
 30
0.0
 70
   128
 71
    13
 72
    18
 73
    12
  0
VERTEX
  5
B9A
  8
0
 62
     9
 10
0.0
 20
0.0
 30
0.0
 70
   128
 71
     7
 72
    14
 73
    10
  0
VERTEX
  5
B9B
  8
0
 62
     9
 10
0.0
 20
0.0
 30
0.0
 70
   128
 71
     1
 72
     9
 73
     6
  0
SEQEND
  5
B9C
  8
0
 62
     9
  0
ENDBLK
  5
B9F
  8
0
  0
BLOCK
  8
0
  2
E3_NODE_30_
 70
     0
 10
0.0
 20
0.0
 30
0.0
  3
E3_NODE_30_
  1

  0
POLYLINE
  5
BA1
  8
0
 62
     9
 66
     1
 10
0.0
 20
0.0
 30
0.0
 70
    64
 71
    19
 72
    17
  0
VERTEX
  5
BA2
  8
0
 10
0.0
 20
-152.5
 30
74.0
 70
   192
  0
VERTEX
  5
BA3
  8
0
 10
9.310999870300293
 20
-152.4960021972656
 30
74.1729965209961
 70
   192
  0
VERTEX
  5
BA4
  8
0
 10
9.303000450134277
 20
-152.4019927978516
 30
74.87899780273438
 70
   192
  0
VERTEX
  5
BA5
  8
0
 10
9.314000129699707
 20
-152.5
 30
74.0
 70
   192
  0
VERTEX
  5
BA6
  8
0
 10
0.0
 20
-152.1959991455078
 30
75.53099822998047
 70
   192
  0
VERTEX
  5
BA7
  8
0
 10
9.29800033569336
 20
-152.2149963378906
 30
75.48400115966797
 70
   192
  0
VERTEX
  5
BA8
  8
0
 10
0.0
 20
-151.3280029296875
 30
76.8280029296875
 70
   192
  0
VERTEX
  5
BA9
  8
0
 10
9.293999671936035
 20
-151.8919982910156
 30
76.12100219726562
 70
   192
  0
VERTEX
  5
BAA
  8
0
 10
9.29699993133545
 20
-152.1920013427734
 30
75.52899932861328
 70
   192
  0
VERTEX
  5
BAB
  8
0
 10
9.293999671936035
 20
-151.5140075683594
 30
76.62999725341797
 70
   192
  0
VERTEX
  5
BAC
  8
0
 10
0.0
 20
-150.031005859375
 30
77.69599914550781
 70
   192
  0
VERTEX
  5
BAD
  8
0
 10
9.295999526977539
 20
-150.9989929199219
 30
77.1240005493164
 70
   192
  0
VERTEX
  5
BAE
  8
0
 10
9.300999641418457
 20
-150.4739990234375
 30
77.47899627685547
 70
   192
  0
VERTEX
  5
BAF
  8
0
 10
9.295000076293945
 20
-151.3179931640625
 30
76.81800079345703
 70
   192
  0
VERTEX
  5
BB0
  8
0
 10
9.307999610900879
 20
-149.8240051269531
 30
77.7750015258789
 70
   192
  0
VERTEX
  5
BB1
  8
0
 10
9.317000389099121
 20
-149.2109985351562
 30
77.93599700927734
 70
   192
  0
VERTEX
  5
BB2
  8
0
 10
0.0
 20
-148.5
 30
78.0
 70
   192
  0
VERTEX
  5
BB3
  8
0
 10
9.305999755859375
 20
-150.0249938964844
 30
77.68299865722656
 70
   192
  0
VERTEX
  5
BB4
  8
0
 10
9.329000473022461
 20
-148.5
 30
78.0
 70
   192
  0
VERTEX
  5
BB5
  8
0
 62
     9
 10
0.0
 20
0.0
 30
0.0
 70
   128
 71
     3
 72
     2
 73
     1
  0
VERTEX
  5
BB6
  8
0
 62
     9
 10
0.0
 20
0.0
 30
0.0
 70
   128
 71
     2
 72
     4
 73
     1
  0
VERTEX
  5
BB7
  8
0
 62
     9
 10
0.0
 20
0.0
 30
0.0
 70
   128
 71
     1
 72
     5
 73
     3
  0
VERTEX
  5
BB8
  8
0
 62
     9
 10
0.0
 20
0.0
 30
0.0
 70
   128
 71
     5
 72
     6
 73
     3
  0
VERTEX
  5
BB9
  8
0
 62
     9
 10
0.0
 20
0.0
 30
0.0
 70
   128
 71
     8
 72
     5
 73
     7
  0
VERTEX
  5
BBA
  8
0
 62
     9
 10
0.0
 20
0.0
 30
0.0
 70
   128
 71
     8
 72
     9
 73
     5
  0
VERTEX
  5
BBB
  8
0
 62
     9
 10
0.0
 20
0.0
 30
0.0
 70
   128
 71
     7
 72
    10
 73
     8
  0
VERTEX
  5
BBC
  8
0
 62
     9
 10
0.0
 20
0.0
 30
0.0
 70
   128
 71
    12
 72
     7
 73
    11
  0
VERTEX
  5
BBD
  8
0
 62
     9
 10
0.0
 20
0.0
 30
0.0
 70
   128
 71
    11
 72
    13
 73
    12
  0
VERTEX
  5
BBE
  8
0
 62
     9
 10
0.0
 20
0.0
 30
0.0
 70
   128
 71
    12
 72
    14
 73
     7
  0
VERTEX
  5
BBF
  8
0
 62
     9
 10
0.0
 20
0.0
 30
0.0
 70
   128
 71
    16
 72
    15
 73
    11
  0
VERTEX
  5
BC0
  8
0
 62
     9
 10
0.0
 20
0.0
 30
0.0
 70
   128
 71
    11
 72
    17
 73
    16
  0
VERTEX
  5
BC1
  8
0
 62
     9
 10
0.0
 20
0.0
 30
0.0
 70
   128
 71
    15
 72
    18
 73
    11
  0
VERTEX
  5
BC2
  8
0
 62
     9
 10
0.0
 20
0.0
 30
0.0
 70
   128
 71
    17
 72
    19
 73
    16
  0
VERTEX
  5
BC3
  8
0
 62
     9
 10
0.0
 20
0.0
 30
0.0
 70
   128
 71
    11
 72
    18
 73
    13
  0
VERTEX
  5
BC4
  8
0
 62
     9
 10
0.0
 20
0.0
 30
0.0
 70
   128
 71
     7
 72
    14
 73
    10
  0
VERTEX
  5
BC5
  8
0
 62
     9
 10
0.0
 20
0.0
 30
0.0
 70
   128
 71
     5
 72
     9
 73
     6
  0
SEQEND
  5
BC6
  8
0
 62
     9
  0
ENDBLK
  5
BC9
  8
0
  0
BLOCK
  8
0
  2
E3_NODE_31_
 70
     0
 10
0.0
 20
0.0
 30
0.0
  3
E3_NODE_31_
  1

  0
POLYLINE
  5
BCB
  8
0
 62
     9
 66
     1
 10
0.0
 20
0.0
 30
0.0
 70
    64
 71
    19
 72
    17
  0
VERTEX
  5
BCC
  8
0
 10
0.0
 20
44.5
 30
-74.0
 70
   192
  0
VERTEX
  5
BCD
  8
0
 10
9.312000274658203
 20
44.49599838256836
 30
-74.1729965209961
 70
   192
  0
VERTEX
  5
BCE
  8
0
 10
9.303000450134277
 20
44.40200042724609
 30
-74.87899780273438
 70
   192
  0
VERTEX
  5
BCF
  8
0
 10
9.314000129699707
 20
44.5
 30
-74.0
 70
   192
  0
VERTEX
  5
BD0
  8
0
 10
0.0
 20
44.19599914550781
 30
-75.53099822998047
 70
   192
  0
VERTEX
  5
BD1
  8
0
 10
9.29800033569336
 20
44.21500015258789
 30
-75.48400115966797
 70
   192
  0
VERTEX
  5
BD2
  8
0
 10
0.0
 20
43.32799911499023
 30
-76.8280029296875
 70
   192
  0
VERTEX
  5
BD3
  8
0
 10
9.295000076293945
 20
43.89199829101562
 30
-76.12100219726562
 70
   192
  0
VERTEX
  5
BD4
  8
0
 10
9.29800033569336
 20
44.19200134277344
 30
-75.52899932861328
 70
   192
  0
VERTEX
  5
BD5
  8
0
 10
9.295000076293945
 20
43.51399993896484
 30
-76.62999725341797
 70
   192
  0
VERTEX
  5
BD6
  8
0
 10
0.0
 20
42.03099822998047
 30
-77.69599914550781
 70
   192
  0
VERTEX
  5
BD7
  8
0
 10
9.29699993133545
 20
42.99900054931641
 30
-77.1240005493164
 70
   192
  0
VERTEX
  5
BD8
  8
0
 10
9.300999641418457
 20
42.4739990234375
 30
-77.47899627685547
 70
   192
  0
VERTEX
  5
BD9
  8
0
 10
9.295000076293945
 20
43.31800079345703
 30
-76.81800079345703
 70
   192
  0
VERTEX
  5
BDA
  8
0
 10
9.309000015258789
 20
41.82400131225586
 30
-77.7750015258789
 70
   192
  0
VERTEX
  5
BDB
  8
0
 10
9.317999839782715
 20
41.21099853515625
 30
-77.93599700927734
 70
   192
  0
VERTEX
  5
BDC
  8
0
 10
0.0
 20
40.5
 30
-78.0
 70
   192
  0
VERTEX
  5
BDD
  8
0
 10
9.307000160217285
 20
42.02500152587891
 30
-77.68299865722656
 70
   192
  0
VERTEX
  5
BDE
  8
0
 10
9.329999923706055
 20
40.5
 30
-78.0
 70
   192
  0
VERTEX
  5
BDF
  8
0
 62
     9
 10
0.0
 20
0.0
 30
0.0
 70
   128
 71
     3
 72
     2
 73
     1
  0
VERTEX
  5
BE0
  8
0
 62
     9
 10
0.0
 20
0.0
 30
0.0
 70
   128
 71
     2
 72
     4
 73
     1
  0
VERTEX
  5
BE1
  8
0
 62
     9
 10
0.0
 20
0.0
 30
0.0
 70
   128
 71
     1
 72
     5
 73
     3
  0
VERTEX
  5
BE2
  8
0
 62
     9
 10
0.0
 20
0.0
 30
0.0
 70
   128
 71
     5
 72
     6
 73
     3
  0
VERTEX
  5
BE3
  8
0
 62
     9
 10
0.0
 20
0.0
 30
0.0
 70
   128
 71
     8
 72
     5
 73
     7
  0
VERTEX
  5
BE4
  8
0
 62
     9
 10
0.0
 20
0.0
 30
0.0
 70
   128
 71
     8
 72
     9
 73
     5
  0
VERTEX
  5
BE5
  8
0
 62
     9
 10
0.0
 20
0.0
 30
0.0
 70
   128
 71
     7
 72
    10
 73
     8
  0
VERTEX
  5
BE6
  8
0
 62
     9
 10
0.0
 20
0.0
 30
0.0
 70
   128
 71
    12
 72
     7
 73
    11
  0
VERTEX
  5
BE7
  8
0
 62
     9
 10
0.0
 20
0.0
 30
0.0
 70
   128
 71
    11
 72
    13
 73
    12
  0
VERTEX
  5
BE8
  8
0
 62
     9
 10
0.0
 20
0.0
 30
0.0
 70
   128
 71
    12
 72
    14
 73
     7
  0
VERTEX
  5
BE9
  8
0
 62
     9
 10
0.0
 20
0.0
 30
0.0
 70
   128
 71
    16
 72
    15
 73
    11
  0
VERTEX
  5
BEA
  8
0
 62
     9
 10
0.0
 20
0.0
 30
0.0
 70
   128
 71
    11
 72
    17
 73
    16
  0
VERTEX
  5
BEB
  8
0
 62
     9
 10
0.0
 20
0.0
 30
0.0
 70
   128
 71
    15
 72
    18
 73
    11
  0
VERTEX
  5
BEC
  8
0
 62
     9
 10
0.0
 20
0.0
 30
0.0
 70
   128
 71
    17
 72
    19
 73
    16
  0
VERTEX
  5
BED
  8
0
 62
     9
 10
0.0
 20
0.0
 30
0.0
 70
   128
 71
    11
 72
    18
 73
    13
  0
VERTEX
  5
BEE
  8
0
 62
     9
 10
0.0
 20
0.0
 30
0.0
 70
   128
 71
     7
 72
    14
 73
    10
  0
VERTEX
  5
BEF
  8
0
 62
     9
 10
0.0
 20
0.0
 30
0.0
 70
   128
 71
     5
 72
     9
 73
     6
  0
SEQEND
  5
BF0
  8
0
 62
     9
  0
ENDBLK
  5
BF3
  8
0
  0
ENDSEC
  0
SECTION
  2
ENTITIES
  0
INSERT
  5
46
  8
LAYER_1
  2
E3_NODE
 10
0.0
 20
0.0
 30
0.0
  0
INSERT
  5
FD
  8
LAYER_1
  2
E3_NODE_1_
 10
0.0
 20
0.0
 30
0.0
  0
INSERT
  5
10B
  8
LAYER_1
  2
E3_NODE_2_
 10
0.0
 20
0.0
 30
0.0
  0
INSERT
  5
1A3
  8
LAYER_1
  2
E3_NODE_3_
 10
0.0
 20
0.0
 30
0.0
  0
INSERT
  5
1B3
  8
LAYER_1
  2
E3_NODE_4_
 10
0.0
 20
0.0
 30
0.0
  0
INSERT
  5
1C3
  8
LAYER_1
  2
E3_NODE_5_
 10
0.0
 20
0.0
 30
0.0
  0
INSERT
  5
1D3
  8
LAYER_1
  2
E3_NODE_6_
 10
0.0
 20
0.0
 30
0.0
  0
INSERT
  5
1E1
  8
LAYER_1
  2
E3_NODE_7_
 10
0.0
 20
0.0
 30
0.0
  0
INSERT
  5
29D
  8
LAYER_1
  2
E3_NODE_8_
 10
0.0
 20
0.0
 30
0.0
  0
INSERT
  5
2AB
  8
LAYER_1
  2
E3_NODE_9_
 10
0.0
 20
0.0
 30
0.0
  0
INSERT
  5
33B
  8
LAYER_1
  2
E3_NODE_10_
 10
0.0
 20
0.0
 30
0.0
  0
INSERT
  5
347
  8
LAYER_1
  2
E3_NODE_11_
 10
0.0
 20
0.0
 30
0.0
  0
INSERT
  5
353
  8
LAYER_1
  2
E3_NODE_12_
 10
0.0
 20
0.0
 30
0.0
  0
INSERT
  5
365
  8
LAYER_1
  2
E3_NODE_13_
 10
0.0
 20
0.0
 30
0.0
  0
INSERT
  5
375
  8
LAYER_1
  2
E3_NODE_14_
 10
0.0
 20
0.0
 30
0.0
  0
INSERT
  5
3C9
  8
LAYER_1
  2
E3_NODE_15_
 10
0.0
 20
0.0
 30
0.0
  0
INSERT
  5
4A7
  8
LAYER_1
  2
E3_NODE_16_
 10
0.0
 20
0.0
 30
0.0
  0
INSERT
  5
4C1
  8
LAYER_1
  2
E3_NODE_17_
 10
0.0
 20
0.0
 30
0.0
  0
INSERT
  5
59D
  8
LAYER_1
  2
E3_NODE_18_
 10
0.0
 20
0.0
 30
0.0
  0
INSERT
  5
709
  8
LAYER_1
  2
E3_NODE_19_
 10
0.0
 20
0.0
 30
0.0
  0
INSERT
  5
877
  8
LAYER_1
  2
E3_NODE_20_
 10
0.0
 20
0.0
 30
0.0
  0
INSERT
  5
88F
  8
LAYER_1
  2
E3_NODE_21_
 10
0.0
 20
0.0
 30
0.0
  0
INSERT
  5
AB9
  8
LAYER_1
  2
E3_NODE_22_
 10
0.0
 20
0.0
 30
0.0
  0
INSERT
  5
ACD
  8
LAYER_1
  2
E3_NODE_23_
 10
0.0
 20
0.0
 30
0.0
  0
INSERT
  5
AF9
  8
LAYER_1
  2
E3_NODE_24_
 10
0.0
 20
0.0
 30
0.0
  0
INSERT
  5
B17
  8
LAYER_1
  2
E3_NODE_25_
 10
0.0
 20
0.0
 30
0.0
  0
INSERT
  5
B2B
  8
LAYER_1
  2
E3_NODE_26_
 10
0.0
 20
0.0
 30
0.0
  0
INSERT
  5
B49
  8
LAYER_1
  2
E3_NODE_27_
 10
0.0
 20
0.0
 30
0.0
  0
INSERT
  5
B73
  8
LAYER_1
  2
E3_NODE_28_
 10
0.0
 20
0.0
 30
0.0
  0
INSERT
  5
B9D
  8
LAYER_1
  2
E3_NODE_29_
 10
0.0
 20
0.0
 30
0.0
  0
INSERT
  5
BC7
  8
LAYER_1
  2
E3_NODE_30_
 10
0.0
 20
0.0
 30
0.0
  0
INSERT
  5
BF1
  8
LAYER_1
  2
E3_NODE_31_
 10
0.0
 20
0.0
 30
0.0
  0
ENDSEC
  0
EOF
