  0
SECTION
  2
HEADER
  9
$ACADVER
  1
AC1009
  9
$DWGCODEPAGE
  3
ansi_1252
  9
$INSBASE
 10
0.0
 20
0.0
 30
0.0
  9
$EXTMIN
 10
1.000000000000000E+20
 20
1.000000000000000E+20
 30
1.000000000000000E+20
  9
$EXTMAX
 10
-1.000000000000000E+20
 20
-1.000000000000000E+20
 30
-1.000000000000000E+20
  9
$LIMMIN
 10
0.0
 20
0.0
  9
$LIMMAX
 10
12.0
 20
9.0
  9
$ORTHOMODE
 70
     0
  9
$REGENMODE
 70
     1
  9
$FILLMODE
 70
     1
  9
$QTEXTMODE
 70
     0
  9
$MIRRTEXT
 70
     1
  9
$DRAGMODE
 70
     2
  9
$LTSCALE
 40
1.0
  9
$OSMODE
 70
    37
  9
$ATTMODE
 70
     1
  9
$TEXTSIZE
 40
0.2
  9
$TRACEWID
 40
0.05
  9
$TEXTSTYLE
  7
STANDARD
  9
$CLAYER
  8
0
  9
$CELTYPE
  6
BYLAYER
  9
$CECOLOR
 62
   256
  9
$DIMSCALE
 40
1.0
  9
$DIMASZ
 40
0.18
  9
$DIMEXO
 40
0.0625
  9
$DIMDLI
 40
0.38
  9
$DIMRND
 40
0.0
  9
$DIMDLE
 40
0.0
  9
$DIMEXE
 40
0.18
  9
$DIMTP
 40
0.0
  9
$DIMTM
 40
0.0
  9
$DIMTXT
 40
0.18
  9
$DIMCEN
 40
0.09
  9
$DIMTSZ
 40
0.0
  9
$DIMTOL
 70
     0
  9
$DIMLIM
 70
     0
  9
$DIMTIH
 70
     1
  9
$DIMTOH
 70
     1
  9
$DIMSE1
 70
     0
  9
$DIMSE2
 70
     0
  9
$DIMTAD
 70
     0
  9
$DIMZIN
 70
     0
  9
$DIMBLK
  1

  9
$DIMASO
 70
     1
  9
$DIMSHO
 70
     1
  9
$DIMPOST
  1

  9
$DIMAPOST
  1

  9
$DIMALT
 70
     0
  9
$DIMALTD
 70
     2
  9
$DIMALTF
 40
25.4
  9
$DIMLFAC
 40
1.0
  9
$DIMTOFL
 70
     0
  9
$DIMTVP
 40
0.0
  9
$DIMTIX
 70
     0
  9
$DIMSOXD
 70
     0
  9
$DIMSAH
 70
     0
  9
$DIMBLK1
  1

  9
$DIMBLK2
  1

  9
$DIMSTYLE
  2
STANDARD
  9
$DIMCLRD
 70
     0
  9
$DIMCLRE
 70
     0
  9
$DIMCLRT
 70
     0
  9
$DIMTFAC
 40
1.0
  9
$DIMGAP
 40
0.09
  9
$LUNITS
 70
     2
  9
$LUPREC
 70
     4
  9
$SKETCHINC
 40
0.1
  9
$FILLETRAD
 40
0.5
  9
$AUNITS
 70
     0
  9
$AUPREC
 70
     0
  9
$MENU
  1
.
  9
$ELEVATION
 40
0.0
  9
$PELEVATION
 40
0.0
  9
$THICKNESS
 40
0.0
  9
$LIMCHECK
 70
     0
  9
$CHAMFERA
 40
0.5
  9
$CHAMFERB
 40
0.5
  9
$SKPOLY
 70
     0
  9
$TDCREATE
 40
2455267.453021111
  9
$TDUPDATE
 40
2455267.453021111
  9
$TDINDWG
 40
0.0000000116
  9
$TDUSRTIMER
 40
0.0000000116
  9
$USRTIMER
 70
     1
  9
$ANGBASE
 50
0.0
  9
$ANGDIR
 70
     0
  9
$PDMODE
 70
     0
  9
$PDSIZE
 40
0.0
  9
$PLINEWID
 40
0.0
  9
$COORDS
 70
     1
  9
$SPLFRAME
 70
     0
  9
$SPLINETYPE
 70
     6
  9
$SPLINESEGS
 70
     8
  9
$ATTDIA
 70
     0
  9
$ATTREQ
 70
     1
  9
$HANDLING
 70
     1
  9
$HANDSEED
  5
D30
  9
$SURFTAB1
 70
     6
  9
$SURFTAB2
 70
     6
  9
$SURFTYPE
 70
     6
  9
$SURFU
 70
     6
  9
$SURFV
 70
     6
  9
$UCSNAME
  2

  9
$UCSORG
 10
0.0
 20
0.0
 30
0.0
  9
$UCSXDIR
 10
1.0
 20
0.0
 30
0.0
  9
$UCSYDIR
 10
0.0
 20
1.0
 30
0.0
  9
$PUCSNAME
  2

  9
$PUCSORG
 10
0.0
 20
0.0
 30
0.0
  9
$PUCSXDIR
 10
1.0
 20
0.0
 30
0.0
  9
$PUCSYDIR
 10
0.0
 20
1.0
 30
0.0
  9
$USERI1
 70
     0
  9
$USERI2
 70
     0
  9
$USERI3
 70
     0
  9
$USERI4
 70
     0
  9
$USERI5
 70
     0
  9
$USERR1
 40
0.0
  9
$USERR2
 40
0.0
  9
$USERR3
 40
0.0
  9
$USERR4
 40
0.0
  9
$USERR5
 40
0.0
  9
$WORLDVIEW
 70
     1
  9
$SHADEDGE
 70
     3
  9
$SHADEDIF
 70
    70
  9
$TILEMODE
 70
     1
  9
$MAXACTVP
 70
    64
  9
$PLIMCHECK
 70
     0
  9
$PEXTMIN
 10
1.000000000000000E+20
 20
1.000000000000000E+20
 30
1.000000000000000E+20
  9
$PEXTMAX
 10
-1.000000000000000E+20
 20
-1.000000000000000E+20
 30
-1.000000000000000E+20
  9
$PLIMMIN
 10
0.0
 20
0.0
  9
$PLIMMAX
 10
12.0
 20
9.0
  9
$UNITMODE
 70
     0
  9
$VISRETAIN
 70
     1
  9
$PLINEGEN
 70
     0
  9
$PSLTSCALE
 70
     1
  0
ENDSEC
  0
SECTION
  2
TABLES
  0
TABLE
  2
VPORT
 70
     1
  0
VPORT
  2
*ACTIVE
 70
     0
 10
0.0
 20
0.0
 11
1.0
 21
1.0
 12
0.0
 22
0.0
 13
0.0
 23
0.0
 14
0.5
 24
0.5
 15
0.5
 25
0.5
 16
247.492919921875
 26
-230.7910003662109
 36
97.03566741943359
 17
5.785003662109375
 27
0.0
 37
0.0
 40
208.1688667322253
 41
1.972972972850329
 42
50.0
 43
0.0
 44
0.0
 50
0.0
 51
0.0
 71
     0
 72
   100
 73
     1
 74
     3
 75
     0
 76
     0
 77
     0
 78
     0
  0
ENDTAB
  0
TABLE
  2
LTYPE
 70
     1
  0
LTYPE
  2
CONTINUOUS
 70
     0
  3
Solid line
 72
    65
 73
     0
 40
0.0
  0
ENDTAB
  0
TABLE
  2
LAYER
 70
     2
  0
LAYER
  2
0
 70
     0
 62
     7
  6
CONTINUOUS
  0
LAYER
  2
LAYER_1
 70
     0
 62
     7
  6
CONTINUOUS
  0
ENDTAB
  0
TABLE
  2
STYLE
 70
     1
  0
STYLE
  2
STANDARD
 70
     0
 40
0.0
 41
1.0
 50
0.0
 71
     0
 42
0.2
  3
txt
  4

  0
ENDTAB
  0
TABLE
  2
VIEW
 70
     0
  0
ENDTAB
  0
TABLE
  2
UCS
 70
     0
  0
ENDTAB
  0
TABLE
  2
APPID
 70
     1
  0
APPID
  2
ACAD
 70
     0
  0
ENDTAB
  0
TABLE
  2
DIMSTYLE
 70
     1
  0
DIMSTYLE
  2
STANDARD
 70
     0
  3

  4

  5

  6

  7

 40
1.0
 41
0.18
 42
0.0625
 43
0.38
 44
0.18
 45
0.0
 46
0.0
 47
0.0
 48
0.0
140
0.18
141
0.09
142
0.0
143
25.4
144
1.0
145
0.0
146
1.0
147
0.09
 71
     0
 72
     0
 73
     1
 74
     1
 75
     0
 76
     0
 77
     0
 78
     0
170
     0
171
     2
172
     0
173
     0
174
     0
175
     0
176
     0
177
     0
178
     0
  0
ENDTAB
  0
ENDSEC
  0
SECTION
  2
BLOCKS
  0
BLOCK
  8
0
  2
$MODEL_SPACE
 70
     0
 10
0.0
 20
0.0
 30
0.0
  3
$MODEL_SPACE
  1

  0
ENDBLK
  5
21
  8
0
  0
BLOCK
 67
     1
  8
0
  2
$PAPER_SPACE
 70
     0
 10
0.0
 20
0.0
 30
0.0
  3
$PAPER_SPACE
  1

  0
ENDBLK
  5
1D
 67
     1
  8
0
  0
BLOCK
  8
0
  2
E3_NODE
 70
     0
 10
0.0
 20
0.0
 30
0.0
  3
E3_NODE
  1

  0
POLYLINE
  5
3C
  8
0
 62
     9
 66
     1
 10
0.0
 20
0.0
 30
0.0
 70
    64
 71
    26
 72
    24
  0
VERTEX
  5
3D
  8
0
 10
0.1000000014901161
 20
-15.28400039672852
 30
20.25
 70
   192
  0
VERTEX
  5
3E
  8
0
 10
0.1000000014901161
 20
-7.642000198364258
 30
33.48600006103516
 70
   192
  0
VERTEX
  5
3F
  8
0
 10
0.1000000014901161
 20
-10.80700016021729
 30
31.05699920654297
 70
   192
  0
VERTEX
  5
40
  8
0
 10
0.1000000014901161
 20
3.956000089645386
 30
35.01300048828125
 70
   192
  0
VERTEX
  5
41
  8
0
 10
0.1000000014901161
 20
0.0
 30
35.53400039672852
 70
   192
  0
VERTEX
  5
42
  8
0
 10
0.1000000014901161
 20
10.80700016021729
 30
31.05699920654297
 70
   192
  0
VERTEX
  5
43
  8
0
 10
0.1000000014901161
 20
7.642000198364258
 30
33.48600006103516
 70
   192
  0
VERTEX
  5
44
  8
0
 10
0.1000000014901161
 20
14.76299953460693
 30
24.20599937438965
 70
   192
  0
VERTEX
  5
45
  8
0
 10
0.1000000014901161
 20
13.23600006103516
 30
27.89200019836426
 70
   192
  0
VERTEX
  5
46
  8
0
 10
0.1000000014901161
 20
-14.76299953460693
 30
-24.20599937438965
 70
   192
  0
VERTEX
  5
47
  8
0
 10
0.1000000014901161
 20
10.80700016021729
 30
-31.05699920654297
 70
   192
  0
VERTEX
  5
48
  8
0
 10
0.1000000014901161
 20
13.23600006103516
 30
-27.89200019836426
 70
   192
  0
VERTEX
  5
49
  8
0
 10
0.1000000014901161
 20
3.956000089645386
 30
-35.01300048828125
 70
   192
  0
VERTEX
  5
4A
  8
0
 10
0.1000000014901161
 20
7.642000198364258
 30
-33.48600006103516
 70
   192
  0
VERTEX
  5
4B
  8
0
 10
0.1000000014901161
 20
-3.956000089645386
 30
-35.01300048828125
 70
   192
  0
VERTEX
  5
4C
  8
0
 10
0.1000000014901161
 20
0.0
 30
-35.53400039672852
 70
   192
  0
VERTEX
  5
4D
  8
0
 10
0.1000000014901161
 20
-13.23600006103516
 30
27.89200019836426
 70
   192
  0
VERTEX
  5
4E
  8
0
 10
0.1000000014901161
 20
-3.956000089645386
 30
35.01300048828125
 70
   192
  0
VERTEX
  5
4F
  8
0
 10
0.1000000014901161
 20
-7.642000198364258
 30
-33.48600006103516
 70
   192
  0
VERTEX
  5
50
  8
0
 10
0.1000000014901161
 20
-13.23600006103516
 30
-27.89200019836426
 70
   192
  0
VERTEX
  5
51
  8
0
 10
0.1000000014901161
 20
15.28400039672852
 30
20.25
 70
   192
  0
VERTEX
  5
52
  8
0
 10
0.1000000014901161
 20
14.76299953460693
 30
-24.20599937438965
 70
   192
  0
VERTEX
  5
53
  8
0
 10
0.1000000014901161
 20
-10.80700016021729
 30
-31.05699920654297
 70
   192
  0
VERTEX
  5
54
  8
0
 10
0.1000000014901161
 20
15.28400039672852
 30
-20.25
 70
   192
  0
VERTEX
  5
55
  8
0
 10
0.1000000014901161
 20
-15.28400039672852
 30
-20.25
 70
   192
  0
VERTEX
  5
56
  8
0
 10
0.1000000014901161
 20
-14.76299953460693
 30
24.20599937438965
 70
   192
  0
VERTEX
  5
57
  8
0
 62
     9
 10
0.0
 20
0.0
 30
0.0
 70
   128
 71
     3
 72
     2
 73
     1
  0
VERTEX
  5
58
  8
0
 62
     9
 10
0.0
 20
0.0
 30
0.0
 70
   128
 71
     5
 72
     4
 73
     1
  0
VERTEX
  5
59
  8
0
 62
     9
 10
0.0
 20
0.0
 30
0.0
 70
   128
 71
     7
 72
     6
 73
     1
  0
VERTEX
  5
5A
  8
0
 62
     9
 10
0.0
 20
0.0
 30
0.0
 70
   128
 71
     9
 72
     8
 73
     1
  0
VERTEX
  5
5B
  8
0
 62
     9
 10
0.0
 20
0.0
 30
0.0
 70
   128
 71
    12
 72
    11
 73
    10
  0
VERTEX
  5
5C
  8
0
 62
     9
 10
0.0
 20
0.0
 30
0.0
 70
   128
 71
    14
 72
    13
 73
    10
  0
VERTEX
  5
5D
  8
0
 62
     9
 10
0.0
 20
0.0
 30
0.0
 70
   128
 71
    16
 72
    15
 73
    10
  0
VERTEX
  5
5E
  8
0
 62
     9
 10
0.0
 20
0.0
 30
0.0
 70
   128
 71
     1
 72
    17
 73
     3
  0
VERTEX
  5
5F
  8
0
 62
     9
 10
0.0
 20
0.0
 30
0.0
 70
   128
 71
     1
 72
    18
 73
     5
  0
VERTEX
  5
60
  8
0
 62
     9
 10
0.0
 20
0.0
 30
0.0
 70
   128
 71
     1
 72
     6
 73
     9
  0
VERTEX
  5
61
  8
0
 62
     9
 10
0.0
 20
0.0
 30
0.0
 70
   128
 71
    10
 72
    11
 73
    14
  0
VERTEX
  5
62
  8
0
 62
     9
 10
0.0
 20
0.0
 30
0.0
 70
   128
 71
    15
 72
    19
 73
    10
  0
VERTEX
  5
63
  8
0
 62
     9
 10
0.0
 20
0.0
 30
0.0
 70
   128
 71
    20
 72
    10
 73
    19
  0
VERTEX
  5
64
  8
0
 62
     9
 10
0.0
 20
0.0
 30
0.0
 70
   128
 71
     1
 72
     2
 73
    18
  0
VERTEX
  5
65
  8
0
 62
     9
 10
0.0
 20
0.0
 30
0.0
 70
   128
 71
     8
 72
    21
 73
     1
  0
VERTEX
  5
66
  8
0
 62
     9
 10
0.0
 20
0.0
 30
0.0
 70
   128
 71
    10
 72
    22
 73
    12
  0
VERTEX
  5
67
  8
0
 62
     9
 10
0.0
 20
0.0
 30
0.0
 70
   128
 71
    19
 72
    23
 73
    20
  0
VERTEX
  5
68
  8
0
 62
     9
 10
0.0
 20
0.0
 30
0.0
 70
   128
 71
     1
 72
     4
 73
     7
  0
VERTEX
  5
69
  8
0
 62
     9
 10
0.0
 20
0.0
 30
0.0
 70
   128
 71
     1
 72
    21
 73
    24
  0
VERTEX
  5
6A
  8
0
 62
     9
 10
0.0
 20
0.0
 30
0.0
 70
   128
 71
    10
 72
    13
 73
    16
  0
VERTEX
  5
6B
  8
0
 62
     9
 10
0.0
 20
0.0
 30
0.0
 70
   128
 71
    24
 72
    25
 73
     1
  0
VERTEX
  5
6C
  8
0
 62
     9
 10
0.0
 20
0.0
 30
0.0
 70
   128
 71
    10
 72
    25
 73
    24
  0
VERTEX
  5
6D
  8
0
 62
     9
 10
0.0
 20
0.0
 30
0.0
 70
   128
 71
    10
 72
    24
 73
    22
  0
VERTEX
  5
6E
  8
0
 62
     9
 10
0.0
 20
0.0
 30
0.0
 70
   128
 71
     1
 72
    26
 73
    17
  0
SEQEND
  5
6F
  8
0
 62
     9
  0
ENDBLK
  5
73
  8
0
  0
BLOCK
  8
0
  2
E3_NODE_1_
 70
     0
 10
0.0
 20
0.0
 30
0.0
  3
E3_NODE_1_
  1

  0
POLYLINE
  5
75
  8
0
 62
     9
 66
     1
 10
0.0
 20
0.0
 30
0.0
 70
    64
 71
    78
 72
    76
  0
VERTEX
  5
76
  8
0
 10
0.1000000014901161
 20
14.76299953460693
 30
24.20599937438965
 70
   192
  0
VERTEX
  5
77
  8
0
 10
7.190999984741211
 20
15.08199977874756
 30
22.99099922180176
 70
   192
  0
VERTEX
  5
78
  8
0
 10
7.189000129699707
 20
15.0
 30
23.48900032043457
 70
   192
  0
VERTEX
  5
79
  8
0
 10
0.1000000014901161
 20
15.28400039672852
 30
20.25
 70
   192
  0
VERTEX
  5
7A
  8
0
 10
7.196000099182129
 20
15.2480001449585
 30
21.97900009155273
 70
   192
  0
VERTEX
  5
7B
  8
0
 10
7.197000026702881
 20
15.27099990844727
 30
21.76700019836426
 70
   192
  0
VERTEX
  5
7C
  8
0
 10
7.204999923706055
 20
15.3459997177124
 30
20.25
 70
   192
  0
VERTEX
  5
7D
  8
0
 10
7.176000118255615
 20
14.24300003051758
 30
25.91799926757812
 70
   192
  0
VERTEX
  5
7E
  8
0
 10
7.173999786376953
 20
14.06999969482422
 30
26.375
 70
   192
  0
VERTEX
  5
7F
  8
0
 10
0.1000000014901161
 20
13.23600006103516
 30
27.89200019836426
 70
   192
  0
VERTEX
  5
80
  8
0
 10
7.171000003814697
 20
13.81599998474121
 30
26.92900085449219
 70
   192
  0
VERTEX
  5
81
  8
0
 10
7.184999942779541
 20
14.80500030517578
 30
24.21699905395508
 70
   192
  0
VERTEX
  5
82
  8
0
 10
7.181000232696533
 20
14.60599994659424
 30
24.95599937438965
 70
   192
  0
VERTEX
  5
83
  8
0
 10
0.1000000014901161
 20
10.80700016021729
 30
31.05699920654297
 70
   192
  0
VERTEX
  5
84
  8
0
 10
7.158999919891357
 20
12.22500038146973
 30
29.52499961853027
 70
   192
  0
VERTEX
  5
85
  8
0
 10
7.152999877929688
 20
11.25
 30
30.6870002746582
 70
   192
  0
VERTEX
  5
86
  8
0
 10
7.163000106811523
 20
12.85000038146973
 30
28.61100006103516
 70
   192
  0
VERTEX
  5
87
  8
0
 10
7.151000022888184
 20
10.94999980926514
 30
30.99699974060059
 70
   192
  0
VERTEX
  5
88
  8
0
 10
7.165999889373779
 20
13.27700042724609
 30
27.91600036621094
 70
   192
  0
VERTEX
  5
89
  8
0
 10
7.164999961853027
 20
13.08199977874756
 30
28.27199935913086
 70
   192
  0
VERTEX
  5
8A
  8
0
 10
0.1000000014901161
 20
7.642000198364258
 30
33.48600006103516
 70
   192
  0
VERTEX
  5
8B
  8
0
 10
7.14300012588501
 20
8.612000465393066
 30
32.94200134277344
 70
   192
  0
VERTEX
  5
8C
  8
0
 10
7.14300012588501
 20
8.465999603271484
 30
33.04899978637695
 70
   192
  0
VERTEX
  5
8D
  8
0
 10
7.150000095367432
 20
10.82600021362305
 30
31.125
 70
   192
  0
VERTEX
  5
8E
  8
0
 10
7.145999908447266
 20
9.689000129699707
 30
32.15000152587891
 70
   192
  0
VERTEX
  5
8F
  8
0
 10
7.150000095367432
 20
10.85000038146973
 30
31.10000038146973
 70
   192
  0
VERTEX
  5
90
  8
0
 10
7.139999866485596
 20
7.664000034332275
 30
33.52399826049805
 70
   192
  0
VERTEX
  5
91
  8
0
 10
0.1000000014901161
 20
3.956000089645386
 30
35.01300048828125
 70
   192
  0
VERTEX
  5
92
  8
0
 10
7.133999824523926
 20
5.935999870300293
 30
34.38000106811523
 70
   192
  0
VERTEX
  5
93
  8
0
 10
7.136000156402588
 20
6.616000175476074
 30
34.09600067138672
 70
   192
  0
VERTEX
  5
94
  8
0
 10
7.132999897003174
 20
5.203999996185303
 30
34.68600082397461
 70
   192
  0
VERTEX
  5
95
  8
0
 10
7.138000011444092
 20
7.160999774932861
 30
33.82199859619141
 70
   192
  0
VERTEX
  5
96
  8
0
 10
0.1000000014901161
 20
0.0
 30
35.53400039672852
 70
   192
  0
VERTEX
  5
97
  8
0
 10
7.127999782562256
 20
0.1319999992847443
 30
35.59500122070312
 70
   192
  0
VERTEX
  5
98
  8
0
 10
7.127999782562256
 20
0.0109999999403954
 30
35.59000015258789
 70
   192
  0
VERTEX
  5
99
  8
0
 10
7.130000114440918
 20
2.265000104904175
 30
35.42699813842773
 70
   192
  0
VERTEX
  5
9A
  8
0
 10
7.13100004196167
 20
3.033999919891357
 30
35.27299880981445
 70
   192
  0
VERTEX
  5
9B
  8
0
 10
7.129000186920166
 20
1.659999966621399
 30
35.50500106811523
 70
   192
  0
VERTEX
  5
9C
  8
0
 10
7.131999969482422
 20
3.969000101089478
 30
35.0629997253418
 70
   192
  0
VERTEX
  5
9D
  8
0
 10
7.131999969482422
 20
3.752000093460083
 30
35.12900161743164
 70
   192
  0
VERTEX
  5
9E
  8
0
 10
0.1000000014901161
 20
-3.956000089645386
 30
35.01300048828125
 70
   192
  0
VERTEX
  5
9F
  8
0
 10
7.129000186920166
 20
-3.026000022888184
 30
35.29199981689453
 70
   192
  0
VERTEX
  5
A0
  8
0
 10
7.130000114440918
 20
-3.483000040054321
 30
35.19499969482422
 70
   192
  0
VERTEX
  5
A1
  8
0
 10
7.129000186920166
 20
-2.88700008392334
 30
35.32099914550781
 70
   192
  0
VERTEX
  5
A2
  8
0
 10
7.127999782562256
 20
-1.384999990463257
 30
35.53300094604492
 70
   192
  0
VERTEX
  5
A3
  8
0
 10
7.127999782562256
 20
0.0
 30
35.5890007019043
 70
   192
  0
VERTEX
  5
A4
  8
0
 10
0.1000000014901161
 20
-7.642000198364258
 30
33.48600006103516
 70
   192
  0
VERTEX
  5
A5
  8
0
 10
7.133999824523926
 20
-5.921000003814697
 30
34.38899993896484
 70
   192
  0
VERTEX
  5
A6
  8
0
 10
7.135000228881836
 20
-6.366000175476074
 30
34.2130012512207
 70
   192
  0
VERTEX
  5
A7
  8
0
 10
7.131999969482422
 20
-4.954999923706055
 30
34.77299880981445
 70
   192
  0
VERTEX
  5
A8
  8
0
 10
7.130000114440918
 20
-3.967000007629395
 30
35.05599975585938
 70
   192
  0
VERTEX
  5
A9
  8
0
 10
7.140999794006348
 20
-8.600000381469727
 30
32.93999862670898
 70
   192
  0
VERTEX
  5
AA
  8
0
 10
7.144000053405762
 20
-9.482999801635742
 30
32.31499862670898
 70
   192
  0
VERTEX
  5
AB
  8
0
 10
0.1000000014901161
 20
-10.80700016021729
 30
31.05699920654297
 70
   192
  0
VERTEX
  5
AC
  8
0
 10
7.14900016784668
 20
-10.62899971008301
 30
31.31900024414062
 70
   192
  0
VERTEX
  5
AD
  8
0
 10
7.138000011444092
 20
-7.671999931335449
 30
33.5369987487793
 70
   192
  0
VERTEX
  5
AE
  8
0
 10
7.138000011444092
 20
-7.712999820709229
 30
33.51599884033203
 70
   192
  0
VERTEX
  5
AF
  8
0
 10
7.139999866485596
 20
-8.234000205993652
 30
33.19900131225586
 70
   192
  0
VERTEX
  5
B0
  8
0
 10
0.1000000014901161
 20
-13.23600006103516
 30
27.89200019836426
 70
   192
  0
VERTEX
  5
B1
  8
0
 10
7.163000106811523
 20
-12.84799957275391
 30
28.62700080871582
 70
   192
  0
VERTEX
  5
B2
  8
0
 10
7.163000106811523
 20
-12.94200038909912
 30
28.49600028991699
 70
   192
  0
VERTEX
  5
B3
  8
0
 10
7.157000064849854
 20
-12.05599975585938
 30
29.74399948120117
 70
   192
  0
VERTEX
  5
B4
  8
0
 10
7.151000022888184
 20
-10.93400001525879
 30
30.9950008392334
 70
   192
  0
VERTEX
  5
B5
  8
0
 10
7.15500020980835
 20
-11.67000007629395
 30
30.21500015258789
 70
   192
  0
VERTEX
  5
B6
  8
0
 10
7.150000095367432
 20
-10.84200000762939
 30
31.09199905395508
 70
   192
  0
VERTEX
  5
B7
  8
0
 10
0.1000000014901161
 20
-14.76299953460693
 30
24.20599937438965
 70
   192
  0
VERTEX
  5
B8
  8
0
 10
7.176000118255615
 20
-14.25100040435791
 30
25.92499923706055
 70
   192
  0
VERTEX
  5
B9
  8
0
 10
7.177000045776367
 20
-14.3100004196167
 30
25.79100036621094
 70
   192
  0
VERTEX
  5
BA
  8
0
 10
7.178999900817871
 20
-14.51900005340576
 30
25.2180004119873
 70
   192
  0
VERTEX
  5
BB
  8
0
 10
7.170000076293945
 20
-13.69299983978271
 30
27.17700004577637
 70
   192
  0
VERTEX
  5
BC
  8
0
 10
7.165999889373779
 20
-13.27400016784668
 30
27.91399955749512
 70
   192
  0
VERTEX
  5
BD
  8
0
 10
0.1000000014901161
 20
-15.28400039672852
 30
20.25
 70
   192
  0
VERTEX
  5
BE
  8
0
 10
7.193999767303467
 20
-15.21399974822998
 30
22.25399971008301
 70
   192
  0
VERTEX
  5
BF
  8
0
 10
7.203000068664551
 20
-15.33800029754639
 30
20.74200057983398
 70
   192
  0
VERTEX
  5
C0
  8
0
 10
7.190000057220459
 20
-15.07800006866455
 30
23.00300025939941
 70
   192
  0
VERTEX
  5
C1
  8
0
 10
7.185999870300293
 20
-14.94200038909912
 30
23.74799919128418
 70
   192
  0
VERTEX
  5
C2
  8
0
 10
7.184000015258789
 20
-14.80700016021729
 30
24.21699905395508
 70
   192
  0
VERTEX
  5
C3
  8
0
 10
7.204999923706055
 20
-15.3459997177124
 30
20.25
 70
   192
  0
VERTEX
  5
C4
  8
0
 62
     9
 10
0.0
 20
0.0
 30
0.0
 70
   128
 71
     3
 72
     2
 73
     1
  0
VERTEX
  5
C5
  8
0
 62
     9
 10
0.0
 20
0.0
 30
0.0
 70
   128
 71
     5
 72
     4
 73
     1
  0
VERTEX
  5
C6
  8
0
 62
     9
 10
0.0
 20
0.0
 30
0.0
 70
   128
 71
     5
 72
     6
 73
     4
  0
VERTEX
  5
C7
  8
0
 62
     9
 10
0.0
 20
0.0
 30
0.0
 70
   128
 71
     6
 72
     7
 73
     4
  0
VERTEX
  5
C8
  8
0
 62
     9
 10
0.0
 20
0.0
 30
0.0
 70
   128
 71
     1
 72
     2
 73
     5
  0
VERTEX
  5
C9
  8
0
 62
     9
 10
0.0
 20
0.0
 30
0.0
 70
   128
 71
     9
 72
     8
 73
     1
  0
VERTEX
  5
CA
  8
0
 62
     9
 10
0.0
 20
0.0
 30
0.0
 70
   128
 71
     1
 72
    10
 73
     9
  0
VERTEX
  5
CB
  8
0
 62
     9
 10
0.0
 20
0.0
 30
0.0
 70
   128
 71
    10
 72
    11
 73
     9
  0
VERTEX
  5
CC
  8
0
 62
     9
 10
0.0
 20
0.0
 30
0.0
 70
   128
 71
    13
 72
    12
 73
     1
  0
VERTEX
  5
CD
  8
0
 62
     9
 10
0.0
 20
0.0
 30
0.0
 70
   128
 71
     1
 72
     8
 73
    13
  0
VERTEX
  5
CE
  8
0
 62
     9
 10
0.0
 20
0.0
 30
0.0
 70
   128
 71
    15
 72
    10
 73
    14
  0
VERTEX
  5
CF
  8
0
 62
     9
 10
0.0
 20
0.0
 30
0.0
 70
   128
 71
    14
 72
    16
 73
    15
  0
VERTEX
  5
D0
  8
0
 62
     9
 10
0.0
 20
0.0
 30
0.0
 70
   128
 71
    15
 72
    17
 73
    10
  0
VERTEX
  5
D1
  8
0
 62
     9
 10
0.0
 20
0.0
 30
0.0
 70
   128
 71
    14
 72
    18
 73
    16
  0
VERTEX
  5
D2
  8
0
 62
     9
 10
0.0
 20
0.0
 30
0.0
 70
   128
 71
    20
 72
    19
 73
    10
  0
VERTEX
  5
D3
  8
0
 62
     9
 10
0.0
 20
0.0
 30
0.0
 70
   128
 71
    10
 72
    17
 73
    20
  0
VERTEX
  5
D4
  8
0
 62
     9
 10
0.0
 20
0.0
 30
0.0
 70
   128
 71
    23
 72
    22
 73
    21
  0
VERTEX
  5
D5
  8
0
 62
     9
 10
0.0
 20
0.0
 30
0.0
 70
   128
 71
    25
 72
    24
 73
    21
  0
VERTEX
  5
D6
  8
0
 62
     9
 10
0.0
 20
0.0
 30
0.0
 70
   128
 71
    21
 72
    22
 73
    25
  0
VERTEX
  5
D7
  8
0
 62
     9
 10
0.0
 20
0.0
 30
0.0
 70
   128
 71
    24
 72
    26
 73
    14
  0
VERTEX
  5
D8
  8
0
 62
     9
 10
0.0
 20
0.0
 30
0.0
 70
   128
 71
    14
 72
    21
 73
    24
  0
VERTEX
  5
D9
  8
0
 62
     9
 10
0.0
 20
0.0
 30
0.0
 70
   128
 71
    21
 72
    27
 73
    23
  0
VERTEX
  5
DA
  8
0
 62
     9
 10
0.0
 20
0.0
 30
0.0
 70
   128
 71
    29
 72
    21
 73
    28
  0
VERTEX
  5
DB
  8
0
 62
     9
 10
0.0
 20
0.0
 30
0.0
 70
   128
 71
    29
 72
    30
 73
    21
  0
VERTEX
  5
DC
  8
0
 62
     9
 10
0.0
 20
0.0
 30
0.0
 70
   128
 71
    28
 72
    31
 73
    29
  0
VERTEX
  5
DD
  8
0
 62
     9
 10
0.0
 20
0.0
 30
0.0
 70
   128
 71
    32
 72
    27
 73
    21
  0
VERTEX
  5
DE
  8
0
 62
     9
 10
0.0
 20
0.0
 30
0.0
 70
   128
 71
    21
 72
    30
 73
    32
  0
VERTEX
  5
DF
  8
0
 62
     9
 10
0.0
 20
0.0
 30
0.0
 70
   128
 71
    35
 72
    34
 73
    33
  0
VERTEX
  5
E0
  8
0
 62
     9
 10
0.0
 20
0.0
 30
0.0
 70
   128
 71
    36
 72
    28
 73
    33
  0
VERTEX
  5
E1
  8
0
 62
     9
 10
0.0
 20
0.0
 30
0.0
 70
   128
 71
    36
 72
    37
 73
    28
  0
VERTEX
  5
E2
  8
0
 62
     9
 10
0.0
 20
0.0
 30
0.0
 70
   128
 71
    33
 72
    38
 73
    36
  0
VERTEX
  5
E3
  8
0
 62
     9
 10
0.0
 20
0.0
 30
0.0
 70
   128
 71
    40
 72
    39
 73
    28
  0
VERTEX
  5
E4
  8
0
 62
     9
 10
0.0
 20
0.0
 30
0.0
 70
   128
 71
    28
 72
    37
 73
    40
  0
VERTEX
  5
E5
  8
0
 62
     9
 10
0.0
 20
0.0
 30
0.0
 70
   128
 71
    33
 72
    34
 73
    38
  0
VERTEX
  5
E6
  8
0
 62
     9
 10
0.0
 20
0.0
 30
0.0
 70
   128
 71
    43
 72
    42
 73
    41
  0
VERTEX
  5
E7
  8
0
 62
     9
 10
0.0
 20
0.0
 30
0.0
 70
   128
 71
    42
 72
    44
 73
    41
  0
VERTEX
  5
E8
  8
0
 62
     9
 10
0.0
 20
0.0
 30
0.0
 70
   128
 71
    45
 72
    33
 73
    41
  0
VERTEX
  5
E9
  8
0
 62
     9
 10
0.0
 20
0.0
 30
0.0
 70
   128
 71
    45
 72
    46
 73
    33
  0
VERTEX
  5
EA
  8
0
 62
     9
 10
0.0
 20
0.0
 30
0.0
 70
   128
 71
    41
 72
    44
 73
    45
  0
VERTEX
  5
EB
  8
0
 62
     9
 10
0.0
 20
0.0
 30
0.0
 70
   128
 71
    49
 72
    48
 73
    47
  0
VERTEX
  5
EC
  8
0
 62
     9
 10
0.0
 20
0.0
 30
0.0
 70
   128
 71
    48
 72
    50
 73
    41
  0
VERTEX
  5
ED
  8
0
 62
     9
 10
0.0
 20
0.0
 30
0.0
 70
   128
 71
    50
 72
    51
 73
    41
  0
VERTEX
  5
EE
  8
0
 62
     9
 10
0.0
 20
0.0
 30
0.0
 70
   128
 71
    41
 72
    47
 73
    48
  0
VERTEX
  5
EF
  8
0
 62
     9
 10
0.0
 20
0.0
 30
0.0
 70
   128
 71
    53
 72
    52
 73
    47
  0
VERTEX
  5
F0
  8
0
 62
     9
 10
0.0
 20
0.0
 30
0.0
 70
   128
 71
    47
 72
    54
 73
    53
  0
VERTEX
  5
F1
  8
0
 62
     9
 10
0.0
 20
0.0
 30
0.0
 70
   128
 71
    54
 72
    55
 73
    53
  0
VERTEX
  5
F2
  8
0
 62
     9
 10
0.0
 20
0.0
 30
0.0
 70
   128
 71
    57
 72
    56
 73
    47
  0
VERTEX
  5
F3
  8
0
 62
     9
 10
0.0
 20
0.0
 30
0.0
 70
   128
 71
    47
 72
    58
 73
    57
  0
VERTEX
  5
F4
  8
0
 62
     9
 10
0.0
 20
0.0
 30
0.0
 70
   128
 71
    47
 72
    52
 73
    58
  0
VERTEX
  5
F5
  8
0
 62
     9
 10
0.0
 20
0.0
 30
0.0
 70
   128
 71
    61
 72
    60
 73
    59
  0
VERTEX
  5
F6
  8
0
 62
     9
 10
0.0
 20
0.0
 30
0.0
 70
   128
 71
    62
 72
    54
 73
    59
  0
VERTEX
  5
F7
  8
0
 62
     9
 10
0.0
 20
0.0
 30
0.0
 70
   128
 71
    64
 72
    63
 73
    54
  0
VERTEX
  5
F8
  8
0
 62
     9
 10
0.0
 20
0.0
 30
0.0
 70
   128
 71
    54
 72
    62
 73
    64
  0
VERTEX
  5
F9
  8
0
 62
     9
 10
0.0
 20
0.0
 30
0.0
 70
   128
 71
    63
 72
    65
 73
    54
  0
VERTEX
  5
FA
  8
0
 62
     9
 10
0.0
 20
0.0
 30
0.0
 70
   128
 71
    59
 72
    60
 73
    62
  0
VERTEX
  5
FB
  8
0
 62
     9
 10
0.0
 20
0.0
 30
0.0
 70
   128
 71
    68
 72
    67
 73
    66
  0
VERTEX
  5
FC
  8
0
 62
     9
 10
0.0
 20
0.0
 30
0.0
 70
   128
 71
    66
 72
    69
 73
    68
  0
VERTEX
  5
FD
  8
0
 62
     9
 10
0.0
 20
0.0
 30
0.0
 70
   128
 71
    67
 72
    70
 73
    59
  0
VERTEX
  5
FE
  8
0
 62
     9
 10
0.0
 20
0.0
 30
0.0
 70
   128
 71
    70
 72
    71
 73
    59
  0
VERTEX
  5
FF
  8
0
 62
     9
 10
0.0
 20
0.0
 30
0.0
 70
   128
 71
    59
 72
    66
 73
    67
  0
VERTEX
  5
100
  8
0
 62
     9
 10
0.0
 20
0.0
 30
0.0
 70
   128
 71
    74
 72
    73
 73
    72
  0
VERTEX
  5
101
  8
0
 62
     9
 10
0.0
 20
0.0
 30
0.0
 70
   128
 71
    73
 72
    75
 73
    66
  0
VERTEX
  5
102
  8
0
 62
     9
 10
0.0
 20
0.0
 30
0.0
 70
   128
 71
    66
 72
    72
 73
    73
  0
VERTEX
  5
103
  8
0
 62
     9
 10
0.0
 20
0.0
 30
0.0
 70
   128
 71
    75
 72
    76
 73
    66
  0
VERTEX
  5
104
  8
0
 62
     9
 10
0.0
 20
0.0
 30
0.0
 70
   128
 71
    76
 72
    77
 73
    66
  0
VERTEX
  5
105
  8
0
 62
     9
 10
0.0
 20
0.0
 30
0.0
 70
   128
 71
    72
 72
    78
 73
    74
  0
VERTEX
  5
106
  8
0
 62
     9
 10
0.0
 20
0.0
 30
0.0
 70
   128
 71
    66
 72
    77
 73
    69
  0
VERTEX
  5
107
  8
0
 62
     9
 10
0.0
 20
0.0
 30
0.0
 70
   128
 71
    59
 72
    71
 73
    61
  0
VERTEX
  5
108
  8
0
 62
     9
 10
0.0
 20
0.0
 30
0.0
 70
   128
 71
    54
 72
    65
 73
    55
  0
VERTEX
  5
109
  8
0
 62
     9
 10
0.0
 20
0.0
 30
0.0
 70
   128
 71
    47
 72
    56
 73
    49
  0
VERTEX
  5
10A
  8
0
 62
     9
 10
0.0
 20
0.0
 30
0.0
 70
   128
 71
    41
 72
    51
 73
    43
  0
VERTEX
  5
10B
  8
0
 62
     9
 10
0.0
 20
0.0
 30
0.0
 70
   128
 71
    33
 72
    46
 73
    35
  0
VERTEX
  5
10C
  8
0
 62
     9
 10
0.0
 20
0.0
 30
0.0
 70
   128
 71
    28
 72
    39
 73
    31
  0
VERTEX
  5
10D
  8
0
 62
     9
 10
0.0
 20
0.0
 30
0.0
 70
   128
 71
    14
 72
    26
 73
    18
  0
VERTEX
  5
10E
  8
0
 62
     9
 10
0.0
 20
0.0
 30
0.0
 70
   128
 71
    10
 72
    19
 73
    11
  0
VERTEX
  5
10F
  8
0
 62
     9
 10
0.0
 20
0.0
 30
0.0
 70
   128
 71
     1
 72
    12
 73
     3
  0
SEQEND
  5
110
  8
0
 62
     9
  0
ENDBLK
  5
113
  8
0
  0
BLOCK
  8
0
  2
E3_NODE_2_
 70
     0
 10
0.0
 20
0.0
 30
0.0
  3
E3_NODE_2_
  1

  0
POLYLINE
  5
115
  8
0
 62
     9
 66
     1
 10
0.0
 20
0.0
 30
0.0
 70
    64
 71
    78
 72
    76
  0
VERTEX
  5
116
  8
0
 10
0.1000000014901161
 20
-14.76299953460693
 30
-24.20599937438965
 70
   192
  0
VERTEX
  5
117
  8
0
 10
7.198999881744385
 20
-15.03800010681152
 30
-23.25699996948242
 70
   192
  0
VERTEX
  5
118
  8
0
 10
7.197999954223633
 20
-15.0
 30
-23.49099922180176
 70
   192
  0
VERTEX
  5
119
  8
0
 10
0.1000000014901161
 20
-15.28400039672852
 30
-20.25
 70
   192
  0
VERTEX
  5
11A
  8
0
 10
7.204999923706055
 20
-15.2480001449585
 30
-21.97999954223633
 70
   192
  0
VERTEX
  5
11B
  8
0
 10
7.205999851226807
 20
-15.27099990844727
 30
-21.76700019836426
 70
   192
  0
VERTEX
  5
11C
  8
0
 10
7.212999820709229
 20
-15.3459997177124
 30
-20.25
 70
   192
  0
VERTEX
  5
11D
  8
0
 10
0.1000000014901161
 20
-13.23600006103516
 30
-27.89200019836426
 70
   192
  0
VERTEX
  5
11E
  8
0
 10
7.185999870300293
 20
-14.15299987792969
 30
-26.15500068664551
 70
   192
  0
VERTEX
  5
11F
  8
0
 10
7.184999942779541
 20
-14.06999969482422
 30
-26.37599945068359
 70
   192
  0
VERTEX
  5
120
  8
0
 10
7.182000160217285
 20
-13.81599998474121
 30
-26.93000030517578
 70
   192
  0
VERTEX
  5
121
  8
0
 10
7.191999912261963
 20
-14.60599994659424
 30
-24.95700073242188
 70
   192
  0
VERTEX
  5
122
  8
0
 10
7.195000171661377
 20
-14.80500030517578
 30
-24.21699905395508
 70
   192
  0
VERTEX
  5
123
  8
0
 10
0.1000000014901161
 20
-10.80700016021729
 30
-31.05699920654297
 70
   192
  0
VERTEX
  5
124
  8
0
 10
7.171000003814697
 20
-12.22500038146973
 30
-29.52599906921387
 70
   192
  0
VERTEX
  5
125
  8
0
 10
7.165999889373779
 20
-11.24899959564209
 30
-30.6879997253418
 70
   192
  0
VERTEX
  5
126
  8
0
 10
7.173999786376953
 20
-12.7180004119873
 30
-28.80400085449219
 70
   192
  0
VERTEX
  5
127
  8
0
 10
7.177999973297119
 20
-13.27700042724609
 30
-27.91600036621094
 70
   192
  0
VERTEX
  5
128
  8
0
 10
7.176000118255615
 20
-13.08100032806396
 30
-28.27300071716309
 70
   192
  0
VERTEX
  5
129
  8
0
 10
0.1000000014901161
 20
-7.642000198364258
 30
-33.48600006103516
 70
   192
  0
VERTEX
  5
12A
  8
0
 10
7.159999847412109
 20
-9.687999725341797
 30
-32.15000152587891
 70
   192
  0
VERTEX
  5
12B
  8
0
 10
7.157000064849854
 20
-8.46500015258789
 30
-33.04899978637695
 70
   192
  0
VERTEX
  5
12C
  8
0
 10
7.163000106811523
 20
-10.79800033569336
 30
-31.15099906921387
 70
   192
  0
VERTEX
  5
12D
  8
0
 10
7.157000064849854
 20
-8.449999809265137
 30
-33.05799865722656
 70
   192
  0
VERTEX
  5
12E
  8
0
 10
7.163000106811523
 20
-10.82600021362305
 30
-31.12599945068359
 70
   192
  0
VERTEX
  5
12F
  8
0
 10
7.163000106811523
 20
-10.85000038146973
 30
-31.10000038146973
 70
   192
  0
VERTEX
  5
130
  8
0
 10
7.150000095367432
 20
-6.614999771118164
 30
-34.09600067138672
 70
   192
  0
VERTEX
  5
131
  8
0
 10
7.14900016784668
 20
-5.769999980926514
 30
-34.44900131225586
 70
   192
  0
VERTEX
  5
132
  8
0
 10
0.1000000014901161
 20
-3.956000089645386
 30
-35.01300048828125
 70
   192
  0
VERTEX
  5
133
  8
0
 10
7.146999835968018
 20
-5.203000068664551
 30
-34.68600082397461
 70
   192
  0
VERTEX
  5
134
  8
0
 10
7.153999805450439
 20
-7.664000034332275
 30
-33.52399826049805
 70
   192
  0
VERTEX
  5
135
  8
0
 10
7.151999950408936
 20
-7.159999847412109
 30
-33.82300186157227
 70
   192
  0
VERTEX
  5
136
  8
0
 10
0.1000000014901161
 20
0.0
 30
-35.53400039672852
 70
   192
  0
VERTEX
  5
137
  8
0
 10
7.145999908447266
 20
-2.263999938964844
 30
-35.42699813842773
 70
   192
  0
VERTEX
  5
138
  8
0
 10
7.145999908447266
 20
-2.874000072479248
 30
-35.30500030517578
 70
   192
  0
VERTEX
  5
139
  8
0
 10
7.144999980926514
 20
-1.659000039100647
 30
-35.50500106811523
 70
   192
  0
VERTEX
  5
13A
  8
0
 10
7.146999835968018
 20
-3.969000101089478
 30
-35.0629997253418
 70
   192
  0
VERTEX
  5
13B
  8
0
 10
7.146999835968018
 20
-3.750999927520752
 30
-35.13000106811523
 70
   192
  0
VERTEX
  5
13C
  8
0
 10
7.14300012588501
 20
-0.1309999972581863
 30
-35.59500122070312
 70
   192
  0
VERTEX
  5
13D
  8
0
 10
0.1000000014901161
 20
3.956000089645386
 30
-35.01300048828125
 70
   192
  0
VERTEX
  5
13E
  8
0
 10
7.144000053405762
 20
3.148999929428101
 30
-35.26599884033203
 70
   192
  0
VERTEX
  5
13F
  8
0
 10
7.144999980926514
 20
3.483999967575073
 30
-35.19499969482422
 70
   192
  0
VERTEX
  5
140
  8
0
 10
7.144000053405762
 20
2.888000011444092
 30
-35.32099914550781
 70
   192
  0
VERTEX
  5
141
  8
0
 10
7.144000053405762
 20
1.386000037193298
 30
-35.53300094604492
 70
   192
  0
VERTEX
  5
142
  8
0
 10
7.14300012588501
 20
0.1330000013113022
 30
-35.58399963378906
 70
   192
  0
VERTEX
  5
143
  8
0
 10
7.14300012588501
 20
0.0
 30
-35.5890007019043
 70
   192
  0
VERTEX
  5
144
  8
0
 10
0.1000000014901161
 20
7.642000198364258
 30
-33.48600006103516
 70
   192
  0
VERTEX
  5
145
  8
0
 10
7.14900016784668
 20
6.021999835968018
 30
-34.3489990234375
 70
   192
  0
VERTEX
  5
146
  8
0
 10
7.14900016784668
 20
6.367000102996826
 30
-34.21200180053711
 70
   192
  0
VERTEX
  5
147
  8
0
 10
7.146999835968018
 20
4.955999851226807
 30
-34.77299880981445
 70
   192
  0
VERTEX
  5
148
  8
0
 10
7.144999980926514
 20
3.967000007629395
 30
-35.05599975585938
 70
   192
  0
VERTEX
  5
149
  8
0
 10
7.15500020980835
 20
8.67300033569336
 30
-32.88800048828125
 70
   192
  0
VERTEX
  5
14A
  8
0
 10
7.157999992370605
 20
9.484000205993652
 30
-32.31399917602539
 70
   192
  0
VERTEX
  5
14B
  8
0
 10
0.1000000014901161
 20
10.80700016021729
 30
-31.05699920654297
 70
   192
  0
VERTEX
  5
14C
  8
0
 10
7.162000179290771
 20
10.62899971008301
 30
-31.31800079345703
 70
   192
  0
VERTEX
  5
14D
  8
0
 10
7.151999950408936
 20
7.671999931335449
 30
-33.5369987487793
 70
   192
  0
VERTEX
  5
14E
  8
0
 10
7.151999950408936
 20
7.714000225067139
 30
-33.51599884033203
 70
   192
  0
VERTEX
  5
14F
  8
0
 10
7.153999805450439
 20
8.234999656677246
 30
-33.19900131225586
 70
   192
  0
VERTEX
  5
150
  8
0
 10
0.1000000014901161
 20
13.23600006103516
 30
-27.89200019836426
 70
   192
  0
VERTEX
  5
151
  8
0
 10
7.175000190734863
 20
12.88000011444092
 30
-28.58300018310547
 70
   192
  0
VERTEX
  5
152
  8
0
 10
7.175000190734863
 20
12.94299983978271
 30
-28.4950008392334
 70
   192
  0
VERTEX
  5
153
  8
0
 10
7.169000148773193
 20
12.05700016021729
 30
-29.74300003051758
 70
   192
  0
VERTEX
  5
154
  8
0
 10
7.164000034332275
 20
10.98400020599365
 30
-30.9419994354248
 70
   192
  0
VERTEX
  5
155
  8
0
 10
7.166999816894531
 20
11.67000007629395
 30
-30.2140007019043
 70
   192
  0
VERTEX
  5
156
  8
0
 10
7.163000106811523
 20
10.84200000762939
 30
-31.0930004119873
 70
   192
  0
VERTEX
  5
157
  8
0
 10
0.1000000014901161
 20
14.76299953460693
 30
-24.20599937438965
 70
   192
  0
VERTEX
  5
158
  8
0
 10
7.186999797821045
 20
14.26500034332275
 30
-25.89200019836426
 70
   192
  0
VERTEX
  5
159
  8
0
 10
7.186999797821045
 20
14.31099987030029
 30
-25.79000091552734
 70
   192
  0
VERTEX
  5
15A
  8
0
 10
7.189000129699707
 20
14.52000045776367
 30
-25.21699905395508
 70
   192
  0
VERTEX
  5
15B
  8
0
 10
7.182000160217285
 20
13.69400024414062
 30
-27.17600059509277
 70
   192
  0
VERTEX
  5
15C
  8
0
 10
7.177999973297119
 20
13.27400016784668
 30
-27.91399955749512
 70
   192
  0
VERTEX
  5
15D
  8
0
 10
0.1000000014901161
 20
15.28400039672852
 30
-20.25
 70
   192
  0
VERTEX
  5
15E
  8
0
 10
7.203000068664551
 20
15.21500015258789
 30
-22.25300025939941
 70
   192
  0
VERTEX
  5
15F
  8
0
 10
7.210999965667725
 20
15.33800029754639
 30
-20.74099922180176
 70
   192
  0
VERTEX
  5
160
  8
0
 10
7.198999881744385
 20
15.08100032806396
 30
-22.98500061035156
 70
   192
  0
VERTEX
  5
161
  8
0
 10
7.195000171661377
 20
14.94200038909912
 30
-23.74699974060059
 70
   192
  0
VERTEX
  5
162
  8
0
 10
7.192999839782715
 20
14.80700016021729
 30
-24.21699905395508
 70
   192
  0
VERTEX
  5
163
  8
0
 10
7.212999820709229
 20
15.3459997177124
 30
-20.25
 70
   192
  0
VERTEX
  5
164
  8
0
 62
     9
 10
0.0
 20
0.0
 30
0.0
 70
   128
 71
     3
 72
     2
 73
     1
  0
VERTEX
  5
165
  8
0
 62
     9
 10
0.0
 20
0.0
 30
0.0
 70
   128
 71
     5
 72
     4
 73
     1
  0
VERTEX
  5
166
  8
0
 62
     9
 10
0.0
 20
0.0
 30
0.0
 70
   128
 71
     5
 72
     6
 73
     4
  0
VERTEX
  5
167
  8
0
 62
     9
 10
0.0
 20
0.0
 30
0.0
 70
   128
 71
     6
 72
     7
 73
     4
  0
VERTEX
  5
168
  8
0
 62
     9
 10
0.0
 20
0.0
 30
0.0
 70
   128
 71
     1
 72
     2
 73
     5
  0
VERTEX
  5
169
  8
0
 62
     9
 10
0.0
 20
0.0
 30
0.0
 70
   128
 71
    10
 72
     9
 73
     8
  0
VERTEX
  5
16A
  8
0
 62
     9
 10
0.0
 20
0.0
 30
0.0
 70
   128
 71
     8
 72
    11
 73
    10
  0
VERTEX
  5
16B
  8
0
 62
     9
 10
0.0
 20
0.0
 30
0.0
 70
   128
 71
     9
 72
    12
 73
     1
  0
VERTEX
  5
16C
  8
0
 62
     9
 10
0.0
 20
0.0
 30
0.0
 70
   128
 71
    12
 72
    13
 73
     1
  0
VERTEX
  5
16D
  8
0
 62
     9
 10
0.0
 20
0.0
 30
0.0
 70
   128
 71
     1
 72
     8
 73
     9
  0
VERTEX
  5
16E
  8
0
 62
     9
 10
0.0
 20
0.0
 30
0.0
 70
   128
 71
    15
 72
     8
 73
    14
  0
VERTEX
  5
16F
  8
0
 62
     9
 10
0.0
 20
0.0
 30
0.0
 70
   128
 71
    14
 72
    16
 73
    15
  0
VERTEX
  5
170
  8
0
 62
     9
 10
0.0
 20
0.0
 30
0.0
 70
   128
 71
    15
 72
    17
 73
     8
  0
VERTEX
  5
171
  8
0
 62
     9
 10
0.0
 20
0.0
 30
0.0
 70
   128
 71
    19
 72
    18
 73
     8
  0
VERTEX
  5
172
  8
0
 62
     9
 10
0.0
 20
0.0
 30
0.0
 70
   128
 71
     8
 72
    17
 73
    19
  0
VERTEX
  5
173
  8
0
 62
     9
 10
0.0
 20
0.0
 30
0.0
 70
   128
 71
    21
 72
    14
 73
    20
  0
VERTEX
  5
174
  8
0
 62
     9
 10
0.0
 20
0.0
 30
0.0
 70
   128
 71
    20
 72
    22
 73
    21
  0
VERTEX
  5
175
  8
0
 62
     9
 10
0.0
 20
0.0
 30
0.0
 70
   128
 71
    21
 72
    23
 73
    14
  0
VERTEX
  5
176
  8
0
 62
     9
 10
0.0
 20
0.0
 30
0.0
 70
   128
 71
    20
 72
    24
 73
    22
  0
VERTEX
  5
177
  8
0
 62
     9
 10
0.0
 20
0.0
 30
0.0
 70
   128
 71
    23
 72
    25
 73
    14
  0
VERTEX
  5
178
  8
0
 62
     9
 10
0.0
 20
0.0
 30
0.0
 70
   128
 71
    25
 72
    26
 73
    14
  0
VERTEX
  5
179
  8
0
 62
     9
 10
0.0
 20
0.0
 30
0.0
 70
   128
 71
    28
 72
    27
 73
    20
  0
VERTEX
  5
17A
  8
0
 62
     9
 10
0.0
 20
0.0
 30
0.0
 70
   128
 71
    20
 72
    29
 73
    28
  0
VERTEX
  5
17B
  8
0
 62
     9
 10
0.0
 20
0.0
 30
0.0
 70
   128
 71
    29
 72
    30
 73
    28
  0
VERTEX
  5
17C
  8
0
 62
     9
 10
0.0
 20
0.0
 30
0.0
 70
   128
 71
    32
 72
    31
 73
    20
  0
VERTEX
  5
17D
  8
0
 62
     9
 10
0.0
 20
0.0
 30
0.0
 70
   128
 71
    20
 72
    27
 73
    32
  0
VERTEX
  5
17E
  8
0
 62
     9
 10
0.0
 20
0.0
 30
0.0
 70
   128
 71
    34
 72
    29
 73
    33
  0
VERTEX
  5
17F
  8
0
 62
     9
 10
0.0
 20
0.0
 30
0.0
 70
   128
 71
    34
 72
    35
 73
    29
  0
VERTEX
  5
180
  8
0
 62
     9
 10
0.0
 20
0.0
 30
0.0
 70
   128
 71
    33
 72
    36
 73
    34
  0
VERTEX
  5
181
  8
0
 62
     9
 10
0.0
 20
0.0
 30
0.0
 70
   128
 71
    38
 72
    37
 73
    29
  0
VERTEX
  5
182
  8
0
 62
     9
 10
0.0
 20
0.0
 30
0.0
 70
   128
 71
    29
 72
    35
 73
    38
  0
VERTEX
  5
183
  8
0
 62
     9
 10
0.0
 20
0.0
 30
0.0
 70
   128
 71
    33
 72
    39
 73
    36
  0
VERTEX
  5
184
  8
0
 62
     9
 10
0.0
 20
0.0
 30
0.0
 70
   128
 71
    42
 72
    41
 73
    40
  0
VERTEX
  5
185
  8
0
 62
     9
 10
0.0
 20
0.0
 30
0.0
 70
   128
 71
    41
 72
    43
 73
    40
  0
VERTEX
  5
186
  8
0
 62
     9
 10
0.0
 20
0.0
 30
0.0
 70
   128
 71
    44
 72
    33
 73
    40
  0
VERTEX
  5
187
  8
0
 62
     9
 10
0.0
 20
0.0
 30
0.0
 70
   128
 71
    44
 72
    45
 73
    33
  0
VERTEX
  5
188
  8
0
 62
     9
 10
0.0
 20
0.0
 30
0.0
 70
   128
 71
    45
 72
    46
 73
    33
  0
VERTEX
  5
189
  8
0
 62
     9
 10
0.0
 20
0.0
 30
0.0
 70
   128
 71
    40
 72
    43
 73
    44
  0
VERTEX
  5
18A
  8
0
 62
     9
 10
0.0
 20
0.0
 30
0.0
 70
   128
 71
    49
 72
    48
 73
    47
  0
VERTEX
  5
18B
  8
0
 62
     9
 10
0.0
 20
0.0
 30
0.0
 70
   128
 71
    48
 72
    50
 73
    40
  0
VERTEX
  5
18C
  8
0
 62
     9
 10
0.0
 20
0.0
 30
0.0
 70
   128
 71
    50
 72
    51
 73
    40
  0
VERTEX
  5
18D
  8
0
 62
     9
 10
0.0
 20
0.0
 30
0.0
 70
   128
 71
    40
 72
    47
 73
    48
  0
VERTEX
  5
18E
  8
0
 62
     9
 10
0.0
 20
0.0
 30
0.0
 70
   128
 71
    53
 72
    52
 73
    47
  0
VERTEX
  5
18F
  8
0
 62
     9
 10
0.0
 20
0.0
 30
0.0
 70
   128
 71
    47
 72
    54
 73
    53
  0
VERTEX
  5
190
  8
0
 62
     9
 10
0.0
 20
0.0
 30
0.0
 70
   128
 71
    54
 72
    55
 73
    53
  0
VERTEX
  5
191
  8
0
 62
     9
 10
0.0
 20
0.0
 30
0.0
 70
   128
 71
    57
 72
    56
 73
    47
  0
VERTEX
  5
192
  8
0
 62
     9
 10
0.0
 20
0.0
 30
0.0
 70
   128
 71
    47
 72
    58
 73
    57
  0
VERTEX
  5
193
  8
0
 62
     9
 10
0.0
 20
0.0
 30
0.0
 70
   128
 71
    47
 72
    52
 73
    58
  0
VERTEX
  5
194
  8
0
 62
     9
 10
0.0
 20
0.0
 30
0.0
 70
   128
 71
    61
 72
    60
 73
    59
  0
VERTEX
  5
195
  8
0
 62
     9
 10
0.0
 20
0.0
 30
0.0
 70
   128
 71
    62
 72
    54
 73
    59
  0
VERTEX
  5
196
  8
0
 62
     9
 10
0.0
 20
0.0
 30
0.0
 70
   128
 71
    64
 72
    63
 73
    54
  0
VERTEX
  5
197
  8
0
 62
     9
 10
0.0
 20
0.0
 30
0.0
 70
   128
 71
    54
 72
    62
 73
    64
  0
VERTEX
  5
198
  8
0
 62
     9
 10
0.0
 20
0.0
 30
0.0
 70
   128
 71
    59
 72
    60
 73
    62
  0
VERTEX
  5
199
  8
0
 62
     9
 10
0.0
 20
0.0
 30
0.0
 70
   128
 71
    63
 72
    65
 73
    54
  0
VERTEX
  5
19A
  8
0
 62
     9
 10
0.0
 20
0.0
 30
0.0
 70
   128
 71
    68
 72
    67
 73
    66
  0
VERTEX
  5
19B
  8
0
 62
     9
 10
0.0
 20
0.0
 30
0.0
 70
   128
 71
    66
 72
    69
 73
    68
  0
VERTEX
  5
19C
  8
0
 62
     9
 10
0.0
 20
0.0
 30
0.0
 70
   128
 71
    67
 72
    70
 73
    59
  0
VERTEX
  5
19D
  8
0
 62
     9
 10
0.0
 20
0.0
 30
0.0
 70
   128
 71
    70
 72
    71
 73
    59
  0
VERTEX
  5
19E
  8
0
 62
     9
 10
0.0
 20
0.0
 30
0.0
 70
   128
 71
    59
 72
    66
 73
    67
  0
VERTEX
  5
19F
  8
0
 62
     9
 10
0.0
 20
0.0
 30
0.0
 70
   128
 71
    74
 72
    73
 73
    72
  0
VERTEX
  5
1A0
  8
0
 62
     9
 10
0.0
 20
0.0
 30
0.0
 70
   128
 71
    73
 72
    75
 73
    66
  0
VERTEX
  5
1A1
  8
0
 62
     9
 10
0.0
 20
0.0
 30
0.0
 70
   128
 71
    66
 72
    72
 73
    73
  0
VERTEX
  5
1A2
  8
0
 62
     9
 10
0.0
 20
0.0
 30
0.0
 70
   128
 71
    75
 72
    76
 73
    66
  0
VERTEX
  5
1A3
  8
0
 62
     9
 10
0.0
 20
0.0
 30
0.0
 70
   128
 71
    76
 72
    77
 73
    66
  0
VERTEX
  5
1A4
  8
0
 62
     9
 10
0.0
 20
0.0
 30
0.0
 70
   128
 71
    72
 72
    78
 73
    74
  0
VERTEX
  5
1A5
  8
0
 62
     9
 10
0.0
 20
0.0
 30
0.0
 70
   128
 71
    66
 72
    77
 73
    69
  0
VERTEX
  5
1A6
  8
0
 62
     9
 10
0.0
 20
0.0
 30
0.0
 70
   128
 71
    59
 72
    71
 73
    61
  0
VERTEX
  5
1A7
  8
0
 62
     9
 10
0.0
 20
0.0
 30
0.0
 70
   128
 71
    54
 72
    65
 73
    55
  0
VERTEX
  5
1A8
  8
0
 62
     9
 10
0.0
 20
0.0
 30
0.0
 70
   128
 71
    47
 72
    56
 73
    49
  0
VERTEX
  5
1A9
  8
0
 62
     9
 10
0.0
 20
0.0
 30
0.0
 70
   128
 71
    40
 72
    51
 73
    42
  0
VERTEX
  5
1AA
  8
0
 62
     9
 10
0.0
 20
0.0
 30
0.0
 70
   128
 71
    33
 72
    46
 73
    39
  0
VERTEX
  5
1AB
  8
0
 62
     9
 10
0.0
 20
0.0
 30
0.0
 70
   128
 71
    29
 72
    37
 73
    30
  0
VERTEX
  5
1AC
  8
0
 62
     9
 10
0.0
 20
0.0
 30
0.0
 70
   128
 71
    20
 72
    31
 73
    24
  0
VERTEX
  5
1AD
  8
0
 62
     9
 10
0.0
 20
0.0
 30
0.0
 70
   128
 71
    14
 72
    26
 73
    16
  0
VERTEX
  5
1AE
  8
0
 62
     9
 10
0.0
 20
0.0
 30
0.0
 70
   128
 71
     8
 72
    18
 73
    11
  0
VERTEX
  5
1AF
  8
0
 62
     9
 10
0.0
 20
0.0
 30
0.0
 70
   128
 71
     1
 72
    13
 73
     3
  0
SEQEND
  5
1B0
  8
0
 62
     9
  0
ENDBLK
  5
1B3
  8
0
  0
BLOCK
  8
0
  2
E3_NODE_3_
 70
     0
 10
0.0
 20
0.0
 30
0.0
  3
E3_NODE_3_
  1

  0
POLYLINE
  5
1B5
  8
0
 62
     9
 66
     1
 10
0.0
 20
0.0
 30
0.0
 70
    64
 71
   117
 72
   115
  0
VERTEX
  5
1B6
  8
0
 10
10.58500003814697
 20
-18.43099975585938
 30
23.6299991607666
 70
   192
  0
VERTEX
  5
1B7
  8
0
 10
10.59200000762939
 20
-18.6569995880127
 30
22.05400085449219
 70
   192
  0
VERTEX
  5
1B8
  8
0
 10
7.193999767303467
 20
-15.21399974822998
 30
22.25399971008301
 70
   192
  0
VERTEX
  5
1B9
  8
0
 10
10.59899997711182
 20
-18.74200057983398
 30
20.26399993896484
 70
   192
  0
VERTEX
  5
1BA
  8
0
 10
7.203000068664551
 20
-15.33800029754639
 30
20.74200057983398
 70
   192
  0
VERTEX
  5
1BB
  8
0
 10
8.902000427246094
 20
-17.04400062561035
 30
20.25699996948242
 70
   192
  0
VERTEX
  5
1BC
  8
0
 10
7.204999923706055
 20
-15.3459997177124
 30
20.25
 70
   192
  0
VERTEX
  5
1BD
  8
0
 10
7.177000045776367
 20
-14.3100004196167
 30
25.79100036621094
 70
   192
  0
VERTEX
  5
1BE
  8
0
 10
7.176000118255615
 20
-14.25100040435791
 30
25.92499923706055
 70
   192
  0
VERTEX
  5
1BF
  8
0
 10
10.57100009918213
 20
-17.41200065612793
 30
27.19799995422363
 70
   192
  0
VERTEX
  5
1C0
  8
0
 10
10.57100009918213
 20
-17.41300010681152
 30
27.19700050354004
 70
   192
  0
VERTEX
  5
1C1
  8
0
 10
10.57800006866455
 20
-17.98999977111816
 30
25.52499961853027
 70
   192
  0
VERTEX
  5
1C2
  8
0
 10
7.178999900817871
 20
-14.51900005340576
 30
25.2180004119873
 70
   192
  0
VERTEX
  5
1C3
  8
0
 10
10.58500003814697
 20
-18.40500068664551
 30
23.81100082397461
 70
   192
  0
VERTEX
  5
1C4
  8
0
 10
7.185999870300293
 20
-14.94200038909912
 30
23.74799919128418
 70
   192
  0
VERTEX
  5
1C5
  8
0
 10
7.184000015258789
 20
-14.80700016021729
 30
24.21699905395508
 70
   192
  0
VERTEX
  5
1C6
  8
0
 10
7.190000057220459
 20
-15.07800006866455
 30
23.00300025939941
 70
   192
  0
VERTEX
  5
1C7
  8
0
 10
10.55700016021729
 20
-15.69400024414062
 30
30.49600028991699
 70
   192
  0
VERTEX
  5
1C8
  8
0
 10
10.55799961090088
 20
-15.79500007629395
 30
30.35300064086914
 70
   192
  0
VERTEX
  5
1C9
  8
0
 10
7.163000106811523
 20
-12.94200038909912
 30
28.49600028991699
 70
   192
  0
VERTEX
  5
1CA
  8
0
 10
10.56400012969971
 20
-16.67900085449219
 30
28.8129997253418
 70
   192
  0
VERTEX
  5
1CB
  8
0
 10
7.170000076293945
 20
-13.69299983978271
 30
27.17700004577637
 70
   192
  0
VERTEX
  5
1CC
  8
0
 10
7.165999889373779
 20
-13.27400016784668
 30
27.91399955749512
 70
   192
  0
VERTEX
  5
1CD
  8
0
 10
7.151000022888184
 20
-10.93400001525879
 30
30.9950008392334
 70
   192
  0
VERTEX
  5
1CE
  8
0
 10
10.54699993133545
 20
-13.61400032043457
 30
33.14500045776367
 70
   192
  0
VERTEX
  5
1CF
  8
0
 10
10.54899978637695
 20
-14.11699962615967
 30
32.56100082397461
 70
   192
  0
VERTEX
  5
1D0
  8
0
 10
10.54599952697754
 20
-13.35900020599365
 30
33.39099884033203
 70
   192
  0
VERTEX
  5
1D1
  8
0
 10
10.55200004577637
 20
-14.77000045776367
 30
31.80200004577637
 70
   192
  0
VERTEX
  5
1D2
  8
0
 10
7.157000064849854
 20
-12.05599975585938
 30
29.74399948120117
 70
   192
  0
VERTEX
  5
1D3
  8
0
 10
7.15500020980835
 20
-11.67000007629395
 30
30.21500015258789
 70
   192
  0
VERTEX
  5
1D4
  8
0
 10
7.163000106811523
 20
-12.84799957275391
 30
28.62700080871582
 70
   192
  0
VERTEX
  5
1D5
  8
0
 10
7.140999794006348
 20
-8.600000381469727
 30
32.93999862670898
 70
   192
  0
VERTEX
  5
1D6
  8
0
 10
10.53600025177002
 20
-10.50500011444092
 30
35.76399993896484
 70
   192
  0
VERTEX
  5
1D7
  8
0
 10
10.53699970245361
 20
-10.95100021362305
 30
35.4739990234375
 70
   192
  0
VERTEX
  5
1D8
  8
0
 10
10.54199981689453
 20
-12.33899974822998
 30
34.37200164794922
 70
   192
  0
VERTEX
  5
1D9
  8
0
 10
7.14900016784668
 20
-10.62899971008301
 30
31.31900024414062
 70
   192
  0
VERTEX
  5
1DA
  8
0
 10
7.144000053405762
 20
-9.482999801635742
 30
32.31499862670898
 70
   192
  0
VERTEX
  5
1DB
  8
0
 10
7.150000095367432
 20
-10.84200000762939
 30
31.09199905395508
 70
   192
  0
VERTEX
  5
1DC
  8
0
 10
10.5290002822876
 20
-7.23199987411499
 30
37.53300094604492
 70
   192
  0
VERTEX
  5
1DD
  8
0
 10
10.52999973297119
 20
-7.885000228881836
 30
37.26699829101562
 70
   192
  0
VERTEX
  5
1DE
  8
0
 10
7.135000228881836
 20
-6.366000175476074
 30
34.2130012512207
 70
   192
  0
VERTEX
  5
1DF
  8
0
 10
10.53299999237061
 20
-9.463000297546387
 30
36.44200134277344
 70
   192
  0
VERTEX
  5
1E0
  8
0
 10
7.138000011444092
 20
-7.671999931335449
 30
33.5369987487793
 70
   192
  0
VERTEX
  5
1E1
  8
0
 10
7.138000011444092
 20
-7.712999820709229
 30
33.51599884033203
 70
   192
  0
VERTEX
  5
1E2
  8
0
 10
7.139999866485596
 20
-8.234000205993652
 30
33.19900131225586
 70
   192
  0
VERTEX
  5
1E3
  8
0
 10
10.52400016784668
 20
-3.691999912261963
 30
38.61800003051758
 70
   192
  0
VERTEX
  5
1E4
  8
0
 10
10.52499961853027
 20
-4.559999942779541
 30
38.44300079345703
 70
   192
  0
VERTEX
  5
1E5
  8
0
 10
7.130000114440918
 20
-3.483000040054321
 30
35.19499969482422
 70
   192
  0
VERTEX
  5
1E6
  8
0
 10
10.52700042724609
 20
-6.25
 30
37.93399810791016
 70
   192
  0
VERTEX
  5
1E7
  8
0
 10
7.131999969482422
 20
-4.954999923706055
 30
34.77299880981445
 70
   192
  0
VERTEX
  5
1E8
  8
0
 10
7.130000114440918
 20
-3.967000007629395
 30
35.05599975585938
 70
   192
  0
VERTEX
  5
1E9
  8
0
 10
7.133999824523926
 20
-5.921000003814697
 30
34.38899993896484
 70
   192
  0
VERTEX
  5
1EA
  8
0
 10
7.127999782562256
 20
0.0
 30
35.5890007019043
 70
   192
  0
VERTEX
  5
1EB
  8
0
 10
10.52299976348877
 20
0.0130000002682209
 30
38.98600006103516
 70
   192
  0
VERTEX
  5
1EC
  8
0
 10
10.52299976348877
 20
-1.044999957084656
 30
38.97700119018555
 70
   192
  0
VERTEX
  5
1ED
  8
0
 10
7.127999782562256
 20
-1.384999990463257
 30
35.53300094604492
 70
   192
  0
VERTEX
  5
1EE
  8
0
 10
10.52400016784668
 20
-2.816999912261963
 30
38.79299926757812
 70
   192
  0
VERTEX
  5
1EF
  8
0
 10
7.129000186920166
 20
-2.88700008392334
 30
35.32099914550781
 70
   192
  0
VERTEX
  5
1F0
  8
0
 10
7.129000186920166
 20
-3.026000022888184
 30
35.29199981689453
 70
   192
  0
VERTEX
  5
1F1
  8
0
 10
10.52400016784668
 20
3.707000017166138
 30
38.61600112915039
 70
   192
  0
VERTEX
  5
1F2
  8
0
 10
10.52299976348877
 20
2.480000019073486
 30
38.84000015258789
 70
   192
  0
VERTEX
  5
1F3
  8
0
 10
7.130000114440918
 20
2.265000104904175
 30
35.42699813842773
 70
   192
  0
VERTEX
  5
1F4
  8
0
 10
10.52299976348877
 20
0.7210000157356262
 30
38.99200057983398
 70
   192
  0
VERTEX
  5
1F5
  8
0
 10
7.127999782562256
 20
0.1319999992847443
 30
35.59500122070312
 70
   192
  0
VERTEX
  5
1F6
  8
0
 10
7.129000186920166
 20
1.659999966621399
 30
35.50500106811523
 70
   192
  0
VERTEX
  5
1F7
  8
0
 10
7.127999782562256
 20
0.0109999999403954
 30
35.59000015258789
 70
   192
  0
VERTEX
  5
1F8
  8
0
 10
10.5290002822876
 20
7.254000186920166
 30
37.53099822998047
 70
   192
  0
VERTEX
  5
1F9
  8
0
 10
10.52700042724609
 20
5.943999767303467
 30
38.03799819946289
 70
   192
  0
VERTEX
  5
1FA
  8
0
 10
7.132999897003174
 20
5.203999996185303
 30
34.68600082397461
 70
   192
  0
VERTEX
  5
1FB
  8
0
 10
10.52499961853027
 20
4.23199987411499
 30
38.52000045776367
 70
   192
  0
VERTEX
  5
1FC
  8
0
 10
7.131999969482422
 20
3.969000101089478
 30
35.0629997253418
 70
   192
  0
VERTEX
  5
1FD
  8
0
 10
7.131999969482422
 20
3.752000093460083
 30
35.12900161743164
 70
   192
  0
VERTEX
  5
1FE
  8
0
 10
7.13100004196167
 20
3.033999919891357
 30
35.27299880981445
 70
   192
  0
VERTEX
  5
1FF
  8
0
 10
10.5319995880127
 20
9.166999816894531
 30
36.61000061035156
 70
   192
  0
VERTEX
  5
200
  8
0
 10
7.139999866485596
 20
7.664000034332275
 30
33.52399826049805
 70
   192
  0
VERTEX
  5
201
  8
0
 10
7.14300012588501
 20
8.465999603271484
 30
33.04899978637695
 70
   192
  0
VERTEX
  5
202
  8
0
 10
7.138000011444092
 20
7.160999774932861
 30
33.82199859619141
 70
   192
  0
VERTEX
  5
203
  8
0
 10
10.5290002822876
 20
7.590000152587891
 30
37.40000152587891
 70
   192
  0
VERTEX
  5
204
  8
0
 10
7.136000156402588
 20
6.616000175476074
 30
34.09600067138672
 70
   192
  0
VERTEX
  5
205
  8
0
 10
7.133999824523926
 20
5.935999870300293
 30
34.38000106811523
 70
   192
  0
VERTEX
  5
206
  8
0
 10
10.53600025177002
 20
10.51799964904785
 30
35.76399993896484
 70
   192
  0
VERTEX
  5
207
  8
0
 10
10.54599952697754
 20
13.37600040435791
 30
33.39099884033203
 70
   192
  0
VERTEX
  5
208
  8
0
 10
7.150000095367432
 20
10.82600021362305
 30
31.125
 70
   192
  0
VERTEX
  5
209
  8
0
 10
7.150000095367432
 20
10.85000038146973
 30
31.10000038146973
 70
   192
  0
VERTEX
  5
20A
  8
0
 10
10.54100036621094
 20
12.0939998626709
 30
34.58100128173828
 70
   192
  0
VERTEX
  5
20B
  8
0
 10
7.145999908447266
 20
9.689000129699707
 30
32.15000152587891
 70
   192
  0
VERTEX
  5
20C
  8
0
 10
10.53600025177002
 20
10.67700004577637
 30
35.66400146484375
 70
   192
  0
VERTEX
  5
20D
  8
0
 10
7.14300012588501
 20
8.612000465393066
 30
32.94200134277344
 70
   192
  0
VERTEX
  5
20E
  8
0
 10
10.55700016021729
 20
15.61999988555908
 30
30.62199974060059
 70
   192
  0
VERTEX
  5
20F
  8
0
 10
10.55099964141846
 20
14.56700038909912
 30
32.05599975585938
 70
   192
  0
VERTEX
  5
210
  8
0
 10
7.158999919891357
 20
12.22500038146973
 30
29.52499961853027
 70
   192
  0
VERTEX
  5
211
  8
0
 10
7.163000106811523
 20
12.85000038146973
 30
28.61100006103516
 70
   192
  0
VERTEX
  5
212
  8
0
 10
10.55700016021729
 20
15.70400047302246
 30
30.48200035095215
 70
   192
  0
VERTEX
  5
213
  8
0
 10
10.54599952697754
 20
13.38799953460693
 30
33.38000106811523
 70
   192
  0
VERTEX
  5
214
  8
0
 10
7.152999877929688
 20
11.25
 30
30.6870002746582
 70
   192
  0
VERTEX
  5
215
  8
0
 10
7.151000022888184
 20
10.94999980926514
 30
30.99699974060059
 70
   192
  0
VERTEX
  5
216
  8
0
 10
7.173999786376953
 20
14.06999969482422
 30
26.375
 70
   192
  0
VERTEX
  5
217
  8
0
 10
7.176000118255615
 20
14.24300003051758
 30
25.91799926757812
 70
   192
  0
VERTEX
  5
218
  8
0
 10
10.57100009918213
 20
17.40200042724609
 30
27.1879997253418
 70
   192
  0
VERTEX
  5
219
  8
0
 10
10.56900024414062
 20
17.28400039672852
 30
27.51099967956543
 70
   192
  0
VERTEX
  5
21A
  8
0
 10
10.5629997253418
 20
16.52099990844727
 30
29.11400032043457
 70
   192
  0
VERTEX
  5
21B
  8
0
 10
7.171000003814697
 20
13.81599998474121
 30
26.92900085449219
 70
   192
  0
VERTEX
  5
21C
  8
0
 10
7.164999961853027
 20
13.08199977874756
 30
28.27199935913086
 70
   192
  0
VERTEX
  5
21D
  8
0
 10
7.165999889373779
 20
13.27700042724609
 30
27.91600036621094
 70
   192
  0
VERTEX
  5
21E
  8
0
 10
7.189000129699707
 20
15.0
 30
23.48900032043457
 70
   192
  0
VERTEX
  5
21F
  8
0
 10
7.190999984741211
 20
15.08199977874756
 30
22.99099922180176
 70
   192
  0
VERTEX
  5
220
  8
0
 10
10.58500003814697
 20
18.42300033569336
 30
23.61199951171875
 70
   192
  0
VERTEX
  5
221
  8
0
 10
10.58300018310547
 20
18.34099960327148
 30
24.12299919128418
 70
   192
  0
VERTEX
  5
222
  8
0
 10
10.57600021362305
 20
17.89599990844727
 30
25.83200073242188
 70
   192
  0
VERTEX
  5
223
  8
0
 10
7.184999942779541
 20
14.80500030517578
 30
24.21699905395508
 70
   192
  0
VERTEX
  5
224
  8
0
 10
7.181000232696533
 20
14.60599994659424
 30
24.95599937438965
 70
   192
  0
VERTEX
  5
225
  8
0
 10
10.59700012207031
 20
18.73699951171875
 30
20.69899940490723
 70
   192
  0
VERTEX
  5
226
  8
0
 10
10.59000015258789
 20
18.62199974060059
 30
22.37800025939941
 70
   192
  0
VERTEX
  5
227
  8
0
 10
7.197000026702881
 20
15.27099990844727
 30
21.76700019836426
 70
   192
  0
VERTEX
  5
228
  8
0
 10
7.204999923706055
 20
15.3459997177124
 30
20.25
 70
   192
  0
VERTEX
  5
229
  8
0
 10
10.59899997711182
 20
18.74200057983398
 30
20.26399993896484
 70
   192
  0
VERTEX
  5
22A
  8
0
 10
7.196000099182129
 20
15.2480001449585
 30
21.97900009155273
 70
   192
  0
VERTEX
  5
22B
  8
0
 62
     9
 10
0.0
 20
0.0
 30
0.0
 70
   128
 71
     3
 72
     2
 73
     1
  0
VERTEX
  5
22C
  8
0
 62
     9
 10
0.0
 20
0.0
 30
0.0
 70
   128
 71
     5
 72
     4
 73
     2
  0
VERTEX
  5
22D
  8
0
 62
     9
 10
0.0
 20
0.0
 30
0.0
 70
   128
 71
     6
 72
     4
 73
     5
  0
VERTEX
  5
22E
  8
0
 62
     9
 10
0.0
 20
0.0
 30
0.0
 70
   128
 71
     5
 72
     7
 73
     6
  0
VERTEX
  5
22F
  8
0
 62
     9
 10
0.0
 20
0.0
 30
0.0
 70
   128
 71
     2
 72
     3
 73
     5
  0
VERTEX
  5
230
  8
0
 62
     9
 10
0.0
 20
0.0
 30
0.0
 70
   128
 71
    10
 72
     9
 73
     8
  0
VERTEX
  5
231
  8
0
 62
     9
 10
0.0
 20
0.0
 30
0.0
 70
   128
 71
    13
 72
    12
 73
    11
  0
VERTEX
  5
232
  8
0
 62
     9
 10
0.0
 20
0.0
 30
0.0
 70
   128
 71
    15
 72
    14
 73
    12
  0
VERTEX
  5
233
  8
0
 62
     9
 10
0.0
 20
0.0
 30
0.0
 70
   128
 71
    12
 72
    16
 73
    15
  0
VERTEX
  5
234
  8
0
 62
     9
 10
0.0
 20
0.0
 30
0.0
 70
   128
 71
    12
 72
    13
 73
    16
  0
VERTEX
  5
235
  8
0
 62
     9
 10
0.0
 20
0.0
 30
0.0
 70
   128
 71
    11
 72
     8
 73
    13
  0
VERTEX
  5
236
  8
0
 62
     9
 10
0.0
 20
0.0
 30
0.0
 70
   128
 71
    14
 72
    15
 73
    17
  0
VERTEX
  5
237
  8
0
 62
     9
 10
0.0
 20
0.0
 30
0.0
 70
   128
 71
    17
 72
     1
 73
    14
  0
VERTEX
  5
238
  8
0
 62
     9
 10
0.0
 20
0.0
 30
0.0
 70
   128
 71
    20
 72
    19
 73
    18
  0
VERTEX
  5
239
  8
0
 62
     9
 10
0.0
 20
0.0
 30
0.0
 70
   128
 71
    23
 72
    22
 73
    21
  0
VERTEX
  5
23A
  8
0
 62
     9
 10
0.0
 20
0.0
 30
0.0
 70
   128
 71
    21
 72
    19
 73
    23
  0
VERTEX
  5
23B
  8
0
 62
     9
 10
0.0
 20
0.0
 30
0.0
 70
   128
 71
    19
 72
    20
 73
    23
  0
VERTEX
  5
23C
  8
0
 62
     9
 10
0.0
 20
0.0
 30
0.0
 70
   128
 71
    22
 72
     9
 73
    10
  0
VERTEX
  5
23D
  8
0
 62
     9
 10
0.0
 20
0.0
 30
0.0
 70
   128
 71
    10
 72
    21
 73
    22
  0
VERTEX
  5
23E
  8
0
 62
     9
 10
0.0
 20
0.0
 30
0.0
 70
   128
 71
    26
 72
    25
 73
    24
  0
VERTEX
  5
23F
  8
0
 62
     9
 10
0.0
 20
0.0
 30
0.0
 70
   128
 71
    25
 72
    27
 73
    24
  0
VERTEX
  5
240
  8
0
 62
     9
 10
0.0
 20
0.0
 30
0.0
 70
   128
 71
    30
 72
    29
 73
    28
  0
VERTEX
  5
241
  8
0
 62
     9
 10
0.0
 20
0.0
 30
0.0
 70
   128
 71
    28
 72
    26
 73
    30
  0
VERTEX
  5
242
  8
0
 62
     9
 10
0.0
 20
0.0
 30
0.0
 70
   128
 71
    31
 72
    18
 73
    28
  0
VERTEX
  5
243
  8
0
 62
     9
 10
0.0
 20
0.0
 30
0.0
 70
   128
 71
    28
 72
    29
 73
    31
  0
VERTEX
  5
244
  8
0
 62
     9
 10
0.0
 20
0.0
 30
0.0
 70
   128
 71
    34
 72
    33
 73
    32
  0
VERTEX
  5
245
  8
0
 62
     9
 10
0.0
 20
0.0
 30
0.0
 70
   128
 71
    37
 72
    36
 73
    35
  0
VERTEX
  5
246
  8
0
 62
     9
 10
0.0
 20
0.0
 30
0.0
 70
   128
 71
    35
 72
    34
 73
    37
  0
VERTEX
  5
247
  8
0
 62
     9
 10
0.0
 20
0.0
 30
0.0
 70
   128
 71
    38
 72
    24
 73
    27
  0
VERTEX
  5
248
  8
0
 62
     9
 10
0.0
 20
0.0
 30
0.0
 70
   128
 71
    27
 72
    36
 73
    38
  0
VERTEX
  5
249
  8
0
 62
     9
 10
0.0
 20
0.0
 30
0.0
 70
   128
 71
    36
 72
    27
 73
    35
  0
VERTEX
  5
24A
  8
0
 62
     9
 10
0.0
 20
0.0
 30
0.0
 70
   128
 71
    41
 72
    40
 73
    39
  0
VERTEX
  5
24B
  8
0
 62
     9
 10
0.0
 20
0.0
 30
0.0
 70
   128
 71
    43
 72
    42
 73
    40
  0
VERTEX
  5
24C
  8
0
 62
     9
 10
0.0
 20
0.0
 30
0.0
 70
   128
 71
    43
 72
    44
 73
    42
  0
VERTEX
  5
24D
  8
0
 62
     9
 10
0.0
 20
0.0
 30
0.0
 70
   128
 71
    45
 72
    33
 73
    42
  0
VERTEX
  5
24E
  8
0
 62
     9
 10
0.0
 20
0.0
 30
0.0
 70
   128
 71
    42
 72
    44
 73
    45
  0
VERTEX
  5
24F
  8
0
 62
     9
 10
0.0
 20
0.0
 30
0.0
 70
   128
 71
    45
 72
    32
 73
    33
  0
VERTEX
  5
250
  8
0
 62
     9
 10
0.0
 20
0.0
 30
0.0
 70
   128
 71
    40
 72
    41
 73
    43
  0
VERTEX
  5
251
  8
0
 62
     9
 10
0.0
 20
0.0
 30
0.0
 70
   128
 71
    48
 72
    47
 73
    46
  0
VERTEX
  5
252
  8
0
 62
     9
 10
0.0
 20
0.0
 30
0.0
 70
   128
 71
    50
 72
    49
 73
    47
  0
VERTEX
  5
253
  8
0
 62
     9
 10
0.0
 20
0.0
 30
0.0
 70
   128
 71
    47
 72
    51
 73
    50
  0
VERTEX
  5
254
  8
0
 62
     9
 10
0.0
 20
0.0
 30
0.0
 70
   128
 71
    47
 72
    48
 73
    51
  0
VERTEX
  5
255
  8
0
 62
     9
 10
0.0
 20
0.0
 30
0.0
 70
   128
 71
    52
 72
    39
 73
    49
  0
VERTEX
  5
256
  8
0
 62
     9
 10
0.0
 20
0.0
 30
0.0
 70
   128
 71
    49
 72
    50
 73
    52
  0
VERTEX
  5
257
  8
0
 62
     9
 10
0.0
 20
0.0
 30
0.0
 70
   128
 71
    55
 72
    54
 73
    53
  0
VERTEX
  5
258
  8
0
 62
     9
 10
0.0
 20
0.0
 30
0.0
 70
   128
 71
    53
 72
    56
 73
    55
  0
VERTEX
  5
259
  8
0
 62
     9
 10
0.0
 20
0.0
 30
0.0
 70
   128
 71
    56
 72
    58
 73
    57
  0
VERTEX
  5
25A
  8
0
 62
     9
 10
0.0
 20
0.0
 30
0.0
 70
   128
 71
    57
 72
    55
 73
    56
  0
VERTEX
  5
25B
  8
0
 62
     9
 10
0.0
 20
0.0
 30
0.0
 70
   128
 71
    58
 72
    59
 73
    46
  0
VERTEX
  5
25C
  8
0
 62
     9
 10
0.0
 20
0.0
 30
0.0
 70
   128
 71
    58
 72
    46
 73
    57
  0
VERTEX
  5
25D
  8
0
 62
     9
 10
0.0
 20
0.0
 30
0.0
 70
   128
 71
    62
 72
    61
 73
    60
  0
VERTEX
  5
25E
  8
0
 62
     9
 10
0.0
 20
0.0
 30
0.0
 70
   128
 71
    65
 72
    64
 73
    63
  0
VERTEX
  5
25F
  8
0
 62
     9
 10
0.0
 20
0.0
 30
0.0
 70
   128
 71
    63
 72
    61
 73
    65
  0
VERTEX
  5
260
  8
0
 62
     9
 10
0.0
 20
0.0
 30
0.0
 70
   128
 71
    64
 72
    54
 73
    63
  0
VERTEX
  5
261
  8
0
 62
     9
 10
0.0
 20
0.0
 30
0.0
 70
   128
 71
    61
 72
    62
 73
    65
  0
VERTEX
  5
262
  8
0
 62
     9
 10
0.0
 20
0.0
 30
0.0
 70
   128
 71
    64
 72
    66
 73
    54
  0
VERTEX
  5
263
  8
0
 62
     9
 10
0.0
 20
0.0
 30
0.0
 70
   128
 71
    69
 72
    68
 73
    67
  0
VERTEX
  5
264
  8
0
 62
     9
 10
0.0
 20
0.0
 30
0.0
 70
   128
 71
    71
 72
    70
 73
    68
  0
VERTEX
  5
265
  8
0
 62
     9
 10
0.0
 20
0.0
 30
0.0
 70
   128
 71
    71
 72
    72
 73
    70
  0
VERTEX
  5
266
  8
0
 62
     9
 10
0.0
 20
0.0
 30
0.0
 70
   128
 71
    68
 72
    69
 73
    71
  0
VERTEX
  5
267
  8
0
 62
     9
 10
0.0
 20
0.0
 30
0.0
 70
   128
 71
    70
 72
    72
 73
    73
  0
VERTEX
  5
268
  8
0
 62
     9
 10
0.0
 20
0.0
 30
0.0
 70
   128
 71
    73
 72
    60
 73
    70
  0
VERTEX
  5
269
  8
0
 62
     9
 10
0.0
 20
0.0
 30
0.0
 70
   128
 71
    76
 72
    75
 73
    74
  0
VERTEX
  5
26A
  8
0
 62
     9
 10
0.0
 20
0.0
 30
0.0
 70
   128
 71
    75
 72
    77
 73
    74
  0
VERTEX
  5
26B
  8
0
 62
     9
 10
0.0
 20
0.0
 30
0.0
 70
   128
 71
    79
 72
    78
 73
    74
  0
VERTEX
  5
26C
  8
0
 62
     9
 10
0.0
 20
0.0
 30
0.0
 70
   128
 71
    78
 72
    79
 73
    80
  0
VERTEX
  5
26D
  8
0
 62
     9
 10
0.0
 20
0.0
 30
0.0
 70
   128
 71
    80
 72
    67
 73
    78
  0
VERTEX
  5
26E
  8
0
 62
     9
 10
0.0
 20
0.0
 30
0.0
 70
   128
 71
    74
 72
    77
 73
    79
  0
VERTEX
  5
26F
  8
0
 62
     9
 10
0.0
 20
0.0
 30
0.0
 70
   128
 71
    74
 72
    81
 73
    76
  0
VERTEX
  5
270
  8
0
 62
     9
 10
0.0
 20
0.0
 30
0.0
 70
   128
 71
    84
 72
    83
 73
    82
  0
VERTEX
  5
271
  8
0
 62
     9
 10
0.0
 20
0.0
 30
0.0
 70
   128
 71
    83
 72
    86
 73
    85
  0
VERTEX
  5
272
  8
0
 62
     9
 10
0.0
 20
0.0
 30
0.0
 70
   128
 71
    85
 72
    82
 73
    83
  0
VERTEX
  5
273
  8
0
 62
     9
 10
0.0
 20
0.0
 30
0.0
 70
   128
 71
    86
 72
    88
 73
    87
  0
VERTEX
  5
274
  8
0
 62
     9
 10
0.0
 20
0.0
 30
0.0
 70
   128
 71
    87
 72
    85
 73
    86
  0
VERTEX
  5
275
  8
0
 62
     9
 10
0.0
 20
0.0
 30
0.0
 70
   128
 71
    88
 72
    81
 73
    87
  0
VERTEX
  5
276
  8
0
 62
     9
 10
0.0
 20
0.0
 30
0.0
 70
   128
 71
    91
 72
    90
 73
    89
  0
VERTEX
  5
277
  8
0
 62
     9
 10
0.0
 20
0.0
 30
0.0
 70
   128
 71
    89
 72
    93
 73
    92
  0
VERTEX
  5
278
  8
0
 62
     9
 10
0.0
 20
0.0
 30
0.0
 70
   128
 71
    95
 72
    94
 73
    90
  0
VERTEX
  5
279
  8
0
 62
     9
 10
0.0
 20
0.0
 30
0.0
 70
   128
 71
    94
 72
    95
 73
    96
  0
VERTEX
  5
27A
  8
0
 62
     9
 10
0.0
 20
0.0
 30
0.0
 70
   128
 71
    96
 72
    82
 73
    94
  0
VERTEX
  5
27B
  8
0
 62
     9
 10
0.0
 20
0.0
 30
0.0
 70
   128
 71
    90
 72
    91
 73
    95
  0
VERTEX
  5
27C
  8
0
 62
     9
 10
0.0
 20
0.0
 30
0.0
 70
   128
 71
    99
 72
    98
 73
    97
  0
VERTEX
  5
27D
  8
0
 62
     9
 10
0.0
 20
0.0
 30
0.0
 70
   128
 71
   102
 72
   101
 73
   100
  0
VERTEX
  5
27E
  8
0
 62
     9
 10
0.0
 20
0.0
 30
0.0
 70
   128
 71
   100
 72
    97
 73
   102
  0
VERTEX
  5
27F
  8
0
 62
     9
 10
0.0
 20
0.0
 30
0.0
 70
   128
 71
   103
 72
    93
 73
   101
  0
VERTEX
  5
280
  8
0
 62
     9
 10
0.0
 20
0.0
 30
0.0
 70
   128
 71
   101
 72
   104
 73
   103
  0
VERTEX
  5
281
  8
0
 62
     9
 10
0.0
 20
0.0
 30
0.0
 70
   128
 71
   101
 72
   102
 73
   104
  0
VERTEX
  5
282
  8
0
 62
     9
 10
0.0
 20
0.0
 30
0.0
 70
   128
 71
   103
 72
    92
 73
    93
  0
VERTEX
  5
283
  8
0
 62
     9
 10
0.0
 20
0.0
 30
0.0
 70
   128
 71
   107
 72
   106
 73
   105
  0
VERTEX
  5
284
  8
0
 62
     9
 10
0.0
 20
0.0
 30
0.0
 70
   128
 71
   110
 72
   109
 73
   108
  0
VERTEX
  5
285
  8
0
 62
     9
 10
0.0
 20
0.0
 30
0.0
 70
   128
 71
   110
 72
   111
 73
   109
  0
VERTEX
  5
286
  8
0
 62
     9
 10
0.0
 20
0.0
 30
0.0
 70
   128
 71
   111
 72
    98
 73
    99
  0
VERTEX
  5
287
  8
0
 62
     9
 10
0.0
 20
0.0
 30
0.0
 70
   128
 71
    99
 72
   109
 73
   111
  0
VERTEX
  5
288
  8
0
 62
     9
 10
0.0
 20
0.0
 30
0.0
 70
   128
 71
   108
 72
   105
 73
   110
  0
VERTEX
  5
289
  8
0
 62
     9
 10
0.0
 20
0.0
 30
0.0
 70
   128
 71
   114
 72
   113
 73
   112
  0
VERTEX
  5
28A
  8
0
 62
     9
 10
0.0
 20
0.0
 30
0.0
 70
   128
 71
   112
 72
   116
 73
   115
  0
VERTEX
  5
28B
  8
0
 62
     9
 10
0.0
 20
0.0
 30
0.0
 70
   128
 71
   114
 72
   117
 73
   113
  0
VERTEX
  5
28C
  8
0
 62
     9
 10
0.0
 20
0.0
 30
0.0
 70
   128
 71
   117
 72
   106
 73
   107
  0
VERTEX
  5
28D
  8
0
 62
     9
 10
0.0
 20
0.0
 30
0.0
 70
   128
 71
   107
 72
   113
 73
   117
  0
VERTEX
  5
28E
  8
0
 62
     9
 10
0.0
 20
0.0
 30
0.0
 70
   128
 71
   112
 72
   115
 73
   114
  0
VERTEX
  5
28F
  8
0
 62
     9
 10
0.0
 20
0.0
 30
0.0
 70
   128
 71
   105
 72
   108
 73
   107
  0
VERTEX
  5
290
  8
0
 62
     9
 10
0.0
 20
0.0
 30
0.0
 70
   128
 71
    97
 72
   100
 73
    99
  0
VERTEX
  5
291
  8
0
 62
     9
 10
0.0
 20
0.0
 30
0.0
 70
   128
 71
    89
 72
    92
 73
    91
  0
VERTEX
  5
292
  8
0
 62
     9
 10
0.0
 20
0.0
 30
0.0
 70
   128
 71
    82
 72
    96
 73
    84
  0
VERTEX
  5
293
  8
0
 62
     9
 10
0.0
 20
0.0
 30
0.0
 70
   128
 71
    81
 72
    88
 73
    76
  0
VERTEX
  5
294
  8
0
 62
     9
 10
0.0
 20
0.0
 30
0.0
 70
   128
 71
    67
 72
    80
 73
    69
  0
VERTEX
  5
295
  8
0
 62
     9
 10
0.0
 20
0.0
 30
0.0
 70
   128
 71
    60
 72
    73
 73
    62
  0
VERTEX
  5
296
  8
0
 62
     9
 10
0.0
 20
0.0
 30
0.0
 70
   128
 71
    54
 72
    66
 73
    53
  0
VERTEX
  5
297
  8
0
 62
     9
 10
0.0
 20
0.0
 30
0.0
 70
   128
 71
    46
 72
    59
 73
    48
  0
VERTEX
  5
298
  8
0
 62
     9
 10
0.0
 20
0.0
 30
0.0
 70
   128
 71
    39
 72
    52
 73
    41
  0
VERTEX
  5
299
  8
0
 62
     9
 10
0.0
 20
0.0
 30
0.0
 70
   128
 71
    32
 72
    37
 73
    34
  0
VERTEX
  5
29A
  8
0
 62
     9
 10
0.0
 20
0.0
 30
0.0
 70
   128
 71
    24
 72
    30
 73
    26
  0
VERTEX
  5
29B
  8
0
 62
     9
 10
0.0
 20
0.0
 30
0.0
 70
   128
 71
    18
 72
    31
 73
    20
  0
VERTEX
  5
29C
  8
0
 62
     9
 10
0.0
 20
0.0
 30
0.0
 70
   128
 71
     8
 72
    11
 73
    10
  0
VERTEX
  5
29D
  8
0
 62
     9
 10
0.0
 20
0.0
 30
0.0
 70
   128
 71
     1
 72
    17
 73
     3
  0
SEQEND
  5
29E
  8
0
 62
     9
  0
ENDBLK
  5
2A1
  8
0
  0
BLOCK
  8
0
  2
E3_NODE_4_
 70
     0
 10
0.0
 20
0.0
 30
0.0
  3
E3_NODE_4_
  1

  0
POLYLINE
  5
2A3
  8
0
 62
     9
 66
     1
 10
0.0
 20
0.0
 30
0.0
 70
    64
 71
   117
 72
   115
  0
VERTEX
  5
2A4
  8
0
 10
10.5939998626709
 20
18.43400001525879
 30
-23.60700035095215
 70
   192
  0
VERTEX
  5
2A5
  8
0
 10
10.60000038146973
 20
18.6569995880127
 30
-22.05200004577637
 70
   192
  0
VERTEX
  5
2A6
  8
0
 10
7.203000068664551
 20
15.21500015258789
 30
-22.25300025939941
 70
   192
  0
VERTEX
  5
2A7
  8
0
 10
10.60700035095215
 20
18.74200057983398
 30
-20.26300048828125
 70
   192
  0
VERTEX
  5
2A8
  8
0
 10
7.210999965667725
 20
15.33800029754639
 30
-20.74099922180176
 70
   192
  0
VERTEX
  5
2A9
  8
0
 10
7.212999820709229
 20
15.3459997177124
 30
-20.25
 70
   192
  0
VERTEX
  5
2AA
  8
0
 10
10.58100032806396
 20
17.42700004577637
 30
-27.15500068664551
 70
   192
  0
VERTEX
  5
2AB
  8
0
 10
10.58699989318848
 20
17.98999977111816
 30
-25.52400016784668
 70
   192
  0
VERTEX
  5
2AC
  8
0
 10
7.189000129699707
 20
14.52000045776367
 30
-25.21699905395508
 70
   192
  0
VERTEX
  5
2AD
  8
0
 10
10.5939998626709
 20
18.40500068664551
 30
-23.80900001525879
 70
   192
  0
VERTEX
  5
2AE
  8
0
 10
7.195000171661377
 20
14.94200038909912
 30
-23.74699974060059
 70
   192
  0
VERTEX
  5
2AF
  8
0
 10
7.192999839782715
 20
14.80700016021729
 30
-24.21699905395508
 70
   192
  0
VERTEX
  5
2B0
  8
0
 10
7.186999797821045
 20
14.31099987030029
 30
-25.79000091552734
 70
   192
  0
VERTEX
  5
2B1
  8
0
 10
7.198999881744385
 20
15.08100032806396
 30
-22.98500061035156
 70
   192
  0
VERTEX
  5
2B2
  8
0
 10
10.56900024414062
 20
15.73200035095215
 30
-30.44099998474121
 70
   192
  0
VERTEX
  5
2B3
  8
0
 10
10.56999969482422
 20
15.79500007629395
 30
-30.35099983215332
 70
   192
  0
VERTEX
  5
2B4
  8
0
 10
7.175000190734863
 20
12.94299983978271
 30
-28.4950008392334
 70
   192
  0
VERTEX
  5
2B5
  8
0
 10
10.57499980926514
 20
16.67900085449219
 30
-28.8120002746582
 70
   192
  0
VERTEX
  5
2B6
  8
0
 10
7.182000160217285
 20
13.69400024414062
 30
-27.17600059509277
 70
   192
  0
VERTEX
  5
2B7
  8
0
 10
7.177999973297119
 20
13.27400016784668
 30
-27.91399955749512
 70
   192
  0
VERTEX
  5
2B8
  8
0
 10
10.58100032806396
 20
17.41300010681152
 30
-27.19499969482422
 70
   192
  0
VERTEX
  5
2B9
  8
0
 10
7.186999797821045
 20
14.26500034332275
 30
-25.89200019836426
 70
   192
  0
VERTEX
  5
2BA
  8
0
 10
10.55900001525879
 20
13.61400032043457
 30
-33.14400100708008
 70
   192
  0
VERTEX
  5
2BB
  8
0
 10
10.56400012969971
 20
14.77000045776367
 30
-31.80100059509277
 70
   192
  0
VERTEX
  5
2BC
  8
0
 10
7.166999816894531
 20
11.67000007629395
 30
-30.2140007019043
 70
   192
  0
VERTEX
  5
2BD
  8
0
 10
7.164000034332275
 20
10.98400020599365
 30
-30.9419994354248
 70
   192
  0
VERTEX
  5
2BE
  8
0
 10
10.55900001525879
 20
13.42300033569336
 30
-33.32799911499023
 70
   192
  0
VERTEX
  5
2BF
  8
0
 10
7.169000148773193
 20
12.05700016021729
 30
-29.74300003051758
 70
   192
  0
VERTEX
  5
2C0
  8
0
 10
7.175000190734863
 20
12.88000011444092
 30
-28.58300018310547
 70
   192
  0
VERTEX
  5
2C1
  8
0
 10
7.15500020980835
 20
8.67300033569336
 30
-32.88800048828125
 70
   192
  0
VERTEX
  5
2C2
  8
0
 10
10.55000019073486
 20
10.59700012207031
 30
-35.70299911499023
 70
   192
  0
VERTEX
  5
2C3
  8
0
 10
10.55099964141846
 20
10.95100021362305
 30
-35.47200012207031
 70
   192
  0
VERTEX
  5
2C4
  8
0
 10
10.55500030517578
 20
12.33899974822998
 30
-34.37099838256836
 70
   192
  0
VERTEX
  5
2C5
  8
0
 10
7.162000179290771
 20
10.62899971008301
 30
-31.31800079345703
 70
   192
  0
VERTEX
  5
2C6
  8
0
 10
7.157999992370605
 20
9.484000205993652
 30
-32.31399917602539
 70
   192
  0
VERTEX
  5
2C7
  8
0
 10
7.163000106811523
 20
10.84200000762939
 30
-31.0930004119873
 70
   192
  0
VERTEX
  5
2C8
  8
0
 10
10.54300022125244
 20
7.355000019073486
 30
-37.48199844360352
 70
   192
  0
VERTEX
  5
2C9
  8
0
 10
10.54399967193604
 20
7.885000228881836
 30
-37.26499938964844
 70
   192
  0
VERTEX
  5
2CA
  8
0
 10
7.14900016784668
 20
6.367000102996826
 30
-34.21200180053711
 70
   192
  0
VERTEX
  5
2CB
  8
0
 10
10.54699993133545
 20
9.463000297546387
 30
-36.43999862670898
 70
   192
  0
VERTEX
  5
2CC
  8
0
 10
7.151999950408936
 20
7.671999931335449
 30
-33.5369987487793
 70
   192
  0
VERTEX
  5
2CD
  8
0
 10
7.151999950408936
 20
7.714000225067139
 30
-33.51599884033203
 70
   192
  0
VERTEX
  5
2CE
  8
0
 10
7.153999805450439
 20
8.234999656677246
 30
-33.19900131225586
 70
   192
  0
VERTEX
  5
2CF
  8
0
 10
10.53899955749512
 20
3.842999935150146
 30
-38.58599853515625
 70
   192
  0
VERTEX
  5
2D0
  8
0
 10
10.53999996185303
 20
4.559999942779541
 30
-38.44200134277344
 70
   192
  0
VERTEX
  5
2D1
  8
0
 10
7.144999980926514
 20
3.483999967575073
 30
-35.19499969482422
 70
   192
  0
VERTEX
  5
2D2
  8
0
 10
10.54199981689453
 20
6.25
 30
-37.93199920654297
 70
   192
  0
VERTEX
  5
2D3
  8
0
 10
7.146999835968018
 20
4.955999851226807
 30
-34.77299880981445
 70
   192
  0
VERTEX
  5
2D4
  8
0
 10
7.144999980926514
 20
3.967000007629395
 30
-35.05599975585938
 70
   192
  0
VERTEX
  5
2D5
  8
0
 10
7.14900016784668
 20
6.021999835968018
 30
-34.3489990234375
 70
   192
  0
VERTEX
  5
2D6
  8
0
 10
7.14300012588501
 20
0.1330000013113022
 30
-35.58399963378906
 70
   192
  0
VERTEX
  5
2D7
  8
0
 10
10.53800010681152
 20
0.1630000025033951
 30
-38.98300170898438
 70
   192
  0
VERTEX
  5
2D8
  8
0
 10
10.53800010681152
 20
1.044999957084656
 30
-38.97499847412109
 70
   192
  0
VERTEX
  5
2D9
  8
0
 10
10.53899955749512
 20
2.816999912261963
 30
-38.79199981689453
 70
   192
  0
VERTEX
  5
2DA
  8
0
 10
7.144000053405762
 20
2.888000011444092
 30
-35.32099914550781
 70
   192
  0
VERTEX
  5
2DB
  8
0
 10
7.144000053405762
 20
1.386000037193298
 30
-35.53300094604492
 70
   192
  0
VERTEX
  5
2DC
  8
0
 10
7.144000053405762
 20
3.148999929428101
 30
-35.26599884033203
 70
   192
  0
VERTEX
  5
2DD
  8
0
 10
10.53899955749512
 20
-3.510999917984009
 30
-38.65000152587891
 70
   192
  0
VERTEX
  5
2DE
  8
0
 10
10.53800010681152
 20
-2.480000019073486
 30
-38.8380012512207
 70
   192
  0
VERTEX
  5
2DF
  8
0
 10
7.145999908447266
 20
-2.263999938964844
 30
-35.42699813842773
 70
   192
  0
VERTEX
  5
2E0
  8
0
 10
10.53800010681152
 20
-0.7210000157356262
 30
-38.99100112915039
 70
   192
  0
VERTEX
  5
2E1
  8
0
 10
7.14300012588501
 20
-0.1309999972581863
 30
-35.59500122070312
 70
   192
  0
VERTEX
  5
2E2
  8
0
 10
7.144999980926514
 20
-1.659000039100647
 30
-35.50500106811523
 70
   192
  0
VERTEX
  5
2E3
  8
0
 10
7.14300012588501
 20
0.0
 30
-35.5890007019043
 70
   192
  0
VERTEX
  5
2E4
  8
0
 10
10.54300022125244
 20
-7.048999786376953
 30
-37.60900115966797
 70
   192
  0
VERTEX
  5
2E5
  8
0
 10
10.54100036621094
 20
-5.943999767303467
 30
-38.0369987487793
 70
   192
  0
VERTEX
  5
2E6
  8
0
 10
7.146999835968018
 20
-5.203000068664551
 30
-34.68600082397461
 70
   192
  0
VERTEX
  5
2E7
  8
0
 10
10.53999996185303
 20
-4.23199987411499
 30
-38.51800155639648
 70
   192
  0
VERTEX
  5
2E8
  8
0
 10
7.146999835968018
 20
-3.969000101089478
 30
-35.0629997253418
 70
   192
  0
VERTEX
  5
2E9
  8
0
 10
7.146999835968018
 20
-3.750999927520752
 30
-35.13000106811523
 70
   192
  0
VERTEX
  5
2EA
  8
0
 10
7.145999908447266
 20
-2.874000072479248
 30
-35.30500030517578
 70
   192
  0
VERTEX
  5
2EB
  8
0
 10
10.54899978637695
 20
-10.3120002746582
 30
-35.89199829101562
 70
   192
  0
VERTEX
  5
2EC
  8
0
 10
10.54699993133545
 20
-9.166999816894531
 30
-36.60800170898438
 70
   192
  0
VERTEX
  5
2ED
  8
0
 10
7.153999805450439
 20
-7.664000034332275
 30
-33.52399826049805
 70
   192
  0
VERTEX
  5
2EE
  8
0
 10
7.151999950408936
 20
-7.159999847412109
 30
-33.82300186157227
 70
   192
  0
VERTEX
  5
2EF
  8
0
 10
10.54399967193604
 20
-7.590000152587891
 30
-37.39899826049805
 70
   192
  0
VERTEX
  5
2F0
  8
0
 10
7.150000095367432
 20
-6.614999771118164
 30
-34.09600067138672
 70
   192
  0
VERTEX
  5
2F1
  8
0
 10
7.14900016784668
 20
-5.769999980926514
 30
-34.44900131225586
 70
   192
  0
VERTEX
  5
2F2
  8
0
 10
10.55799961090088
 20
-13.18200016021729
 30
-33.56999969482422
 70
   192
  0
VERTEX
  5
2F3
  8
0
 10
7.157000064849854
 20
-8.46500015258789
 30
-33.04899978637695
 70
   192
  0
VERTEX
  5
2F4
  8
0
 10
7.159999847412109
 20
-9.687999725341797
 30
-32.15000152587891
 70
   192
  0
VERTEX
  5
2F5
  8
0
 10
7.157000064849854
 20
-8.449999809265137
 30
-33.05799865722656
 70
   192
  0
VERTEX
  5
2F6
  8
0
 10
10.55399990081787
 20
-12.0939998626709
 30
-34.58000183105469
 70
   192
  0
VERTEX
  5
2F7
  8
0
 10
10.55000019073486
 20
-10.67700004577637
 30
-35.66299819946289
 70
   192
  0
VERTEX
  5
2F8
  8
0
 10
7.163000106811523
 20
-10.79800033569336
 30
-31.15099906921387
 70
   192
  0
VERTEX
  5
2F9
  8
0
 10
10.56799983978271
 20
-15.54699993133545
 30
-30.71999931335449
 70
   192
  0
VERTEX
  5
2FA
  8
0
 10
10.5629997253418
 20
-14.56700038909912
 30
-32.05500030517578
 70
   192
  0
VERTEX
  5
2FB
  8
0
 10
7.171000003814697
 20
-12.22500038146973
 30
-29.52599906921387
 70
   192
  0
VERTEX
  5
2FC
  8
0
 10
10.56099987030029
 20
-14.11699962615967
 30
-32.56000137329102
 70
   192
  0
VERTEX
  5
2FD
  8
0
 10
10.55799961090088
 20
-13.38799953460693
 30
-33.37900161743164
 70
   192
  0
VERTEX
  5
2FE
  8
0
 10
7.163000106811523
 20
-10.85000038146973
 30
-31.10000038146973
 70
   192
  0
VERTEX
  5
2FF
  8
0
 10
7.165999889373779
 20
-11.24899959564209
 30
-30.6879997253418
 70
   192
  0
VERTEX
  5
300
  8
0
 10
7.163000106811523
 20
-10.82600021362305
 30
-31.12599945068359
 70
   192
  0
VERTEX
  5
301
  8
0
 10
7.184999942779541
 20
-14.06999969482422
 30
-26.37599945068359
 70
   192
  0
VERTEX
  5
302
  8
0
 10
7.185999870300293
 20
-14.15299987792969
 30
-26.15500068664551
 70
   192
  0
VERTEX
  5
303
  8
0
 10
10.57999992370605
 20
-17.29599952697754
 30
-27.47900009155273
 70
   192
  0
VERTEX
  5
304
  8
0
 10
10.57999992370605
 20
-17.28400039672852
 30
-27.51000022888184
 70
   192
  0
VERTEX
  5
305
  8
0
 10
10.57400035858154
 20
-16.52099990844727
 30
-29.11300086975098
 70
   192
  0
VERTEX
  5
306
  8
0
 10
7.182000160217285
 20
-13.81599998474121
 30
-26.93000030517578
 70
   192
  0
VERTEX
  5
307
  8
0
 10
10.56900024414062
 20
-15.61999988555908
 30
-30.62100028991699
 70
   192
  0
VERTEX
  5
308
  8
0
 10
7.176000118255615
 20
-13.08100032806396
 30
-28.27300071716309
 70
   192
  0
VERTEX
  5
309
  8
0
 10
7.177999973297119
 20
-13.27700042724609
 30
-27.91600036621094
 70
   192
  0
VERTEX
  5
30A
  8
0
 10
7.173999786376953
 20
-12.7180004119873
 30
-28.80400085449219
 70
   192
  0
VERTEX
  5
30B
  8
0
 10
7.197999954223633
 20
-15.0
 30
-23.49099922180176
 70
   192
  0
VERTEX
  5
30C
  8
0
 10
7.198999881744385
 20
-15.03800010681152
 30
-23.25699996948242
 70
   192
  0
VERTEX
  5
30D
  8
0
 10
10.5930004119873
 20
-18.37100028991699
 30
-23.93600082397461
 70
   192
  0
VERTEX
  5
30E
  8
0
 10
10.5930004119873
 20
-18.34099960327148
 30
-24.12199974060059
 70
   192
  0
VERTEX
  5
30F
  8
0
 10
10.58600044250488
 20
-17.89599990844727
 30
-25.82999992370605
 70
   192
  0
VERTEX
  5
310
  8
0
 10
7.195000171661377
 20
-14.80500030517578
 30
-24.21699905395508
 70
   192
  0
VERTEX
  5
311
  8
0
 10
7.191999912261963
 20
-14.60599994659424
 30
-24.95700073242188
 70
   192
  0
VERTEX
  5
312
  8
0
 10
8.90999984741211
 20
-17.04400062561035
 30
-20.25699996948242
 70
   192
  0
VERTEX
  5
313
  8
0
 10
10.60700035095215
 20
-18.74200057983398
 30
-20.26300048828125
 70
   192
  0
VERTEX
  5
314
  8
0
 10
10.60499954223633
 20
-18.73699951171875
 30
-20.69700050354004
 70
   192
  0
VERTEX
  5
315
  8
0
 10
7.205999851226807
 20
-15.27099990844727
 30
-21.76700019836426
 70
   192
  0
VERTEX
  5
316
  8
0
 10
7.212999820709229
 20
-15.3459997177124
 30
-20.25
 70
   192
  0
VERTEX
  5
317
  8
0
 10
10.59899997711182
 20
-18.62199974060059
 30
-22.37700080871582
 70
   192
  0
VERTEX
  5
318
  8
0
 10
7.204999923706055
 20
-15.2480001449585
 30
-21.97999954223633
 70
   192
  0
VERTEX
  5
319
  8
0
 62
     9
 10
0.0
 20
0.0
 30
0.0
 70
   128
 71
     3
 72
     2
 73
     1
  0
VERTEX
  5
31A
  8
0
 62
     9
 10
0.0
 20
0.0
 30
0.0
 70
   128
 71
     5
 72
     4
 73
     2
  0
VERTEX
  5
31B
  8
0
 62
     9
 10
0.0
 20
0.0
 30
0.0
 70
   128
 71
     5
 72
     6
 73
     4
  0
VERTEX
  5
31C
  8
0
 62
     9
 10
0.0
 20
0.0
 30
0.0
 70
   128
 71
     2
 72
     3
 73
     5
  0
VERTEX
  5
31D
  8
0
 62
     9
 10
0.0
 20
0.0
 30
0.0
 70
   128
 71
     9
 72
     8
 73
     7
  0
VERTEX
  5
31E
  8
0
 62
     9
 10
0.0
 20
0.0
 30
0.0
 70
   128
 71
    11
 72
    10
 73
     8
  0
VERTEX
  5
31F
  8
0
 62
     9
 10
0.0
 20
0.0
 30
0.0
 70
   128
 71
     8
 72
    12
 73
    11
  0
VERTEX
  5
320
  8
0
 62
     9
 10
0.0
 20
0.0
 30
0.0
 70
   128
 71
     8
 72
     9
 73
    12
  0
VERTEX
  5
321
  8
0
 62
     9
 10
0.0
 20
0.0
 30
0.0
 70
   128
 71
     7
 72
    13
 73
     9
  0
VERTEX
  5
322
  8
0
 62
     9
 10
0.0
 20
0.0
 30
0.0
 70
   128
 71
    10
 72
    11
 73
    14
  0
VERTEX
  5
323
  8
0
 62
     9
 10
0.0
 20
0.0
 30
0.0
 70
   128
 71
    14
 72
     1
 73
    10
  0
VERTEX
  5
324
  8
0
 62
     9
 10
0.0
 20
0.0
 30
0.0
 70
   128
 71
    17
 72
    16
 73
    15
  0
VERTEX
  5
325
  8
0
 62
     9
 10
0.0
 20
0.0
 30
0.0
 70
   128
 71
    20
 72
    19
 73
    18
  0
VERTEX
  5
326
  8
0
 62
     9
 10
0.0
 20
0.0
 30
0.0
 70
   128
 71
    18
 72
    16
 73
    20
  0
VERTEX
  5
327
  8
0
 62
     9
 10
0.0
 20
0.0
 30
0.0
 70
   128
 71
    19
 72
    22
 73
    21
  0
VERTEX
  5
328
  8
0
 62
     9
 10
0.0
 20
0.0
 30
0.0
 70
   128
 71
    21
 72
    18
 73
    19
  0
VERTEX
  5
329
  8
0
 62
     9
 10
0.0
 20
0.0
 30
0.0
 70
   128
 71
    22
 72
     7
 73
    21
  0
VERTEX
  5
32A
  8
0
 62
     9
 10
0.0
 20
0.0
 30
0.0
 70
   128
 71
    16
 72
    17
 73
    20
  0
VERTEX
  5
32B
  8
0
 62
     9
 10
0.0
 20
0.0
 30
0.0
 70
   128
 71
    25
 72
    24
 73
    23
  0
VERTEX
  5
32C
  8
0
 62
     9
 10
0.0
 20
0.0
 30
0.0
 70
   128
 71
    23
 72
    27
 73
    26
  0
VERTEX
  5
32D
  8
0
 62
     9
 10
0.0
 20
0.0
 30
0.0
 70
   128
 71
    25
 72
    28
 73
    24
  0
VERTEX
  5
32E
  8
0
 62
     9
 10
0.0
 20
0.0
 30
0.0
 70
   128
 71
    29
 72
    15
 73
    24
  0
VERTEX
  5
32F
  8
0
 62
     9
 10
0.0
 20
0.0
 30
0.0
 70
   128
 71
    24
 72
    28
 73
    29
  0
VERTEX
  5
330
  8
0
 62
     9
 10
0.0
 20
0.0
 30
0.0
 70
   128
 71
    32
 72
    31
 73
    30
  0
VERTEX
  5
331
  8
0
 62
     9
 10
0.0
 20
0.0
 30
0.0
 70
   128
 71
    35
 72
    34
 73
    33
  0
VERTEX
  5
332
  8
0
 62
     9
 10
0.0
 20
0.0
 30
0.0
 70
   128
 71
    33
 72
    32
 73
    35
  0
VERTEX
  5
333
  8
0
 62
     9
 10
0.0
 20
0.0
 30
0.0
 70
   128
 71
    36
 72
    26
 73
    27
  0
VERTEX
  5
334
  8
0
 62
     9
 10
0.0
 20
0.0
 30
0.0
 70
   128
 71
    27
 72
    34
 73
    36
  0
VERTEX
  5
335
  8
0
 62
     9
 10
0.0
 20
0.0
 30
0.0
 70
   128
 71
    34
 72
    27
 73
    33
  0
VERTEX
  5
336
  8
0
 62
     9
 10
0.0
 20
0.0
 30
0.0
 70
   128
 71
    39
 72
    38
 73
    37
  0
VERTEX
  5
337
  8
0
 62
     9
 10
0.0
 20
0.0
 30
0.0
 70
   128
 71
    41
 72
    40
 73
    38
  0
VERTEX
  5
338
  8
0
 62
     9
 10
0.0
 20
0.0
 30
0.0
 70
   128
 71
    41
 72
    42
 73
    40
  0
VERTEX
  5
339
  8
0
 62
     9
 10
0.0
 20
0.0
 30
0.0
 70
   128
 71
    43
 72
    31
 73
    40
  0
VERTEX
  5
33A
  8
0
 62
     9
 10
0.0
 20
0.0
 30
0.0
 70
   128
 71
    40
 72
    42
 73
    43
  0
VERTEX
  5
33B
  8
0
 62
     9
 10
0.0
 20
0.0
 30
0.0
 70
   128
 71
    43
 72
    30
 73
    31
  0
VERTEX
  5
33C
  8
0
 62
     9
 10
0.0
 20
0.0
 30
0.0
 70
   128
 71
    38
 72
    39
 73
    41
  0
VERTEX
  5
33D
  8
0
 62
     9
 10
0.0
 20
0.0
 30
0.0
 70
   128
 71
    46
 72
    45
 73
    44
  0
VERTEX
  5
33E
  8
0
 62
     9
 10
0.0
 20
0.0
 30
0.0
 70
   128
 71
    48
 72
    47
 73
    45
  0
VERTEX
  5
33F
  8
0
 62
     9
 10
0.0
 20
0.0
 30
0.0
 70
   128
 71
    45
 72
    49
 73
    48
  0
VERTEX
  5
340
  8
0
 62
     9
 10
0.0
 20
0.0
 30
0.0
 70
   128
 71
    45
 72
    46
 73
    49
  0
VERTEX
  5
341
  8
0
 62
     9
 10
0.0
 20
0.0
 30
0.0
 70
   128
 71
    50
 72
    37
 73
    47
  0
VERTEX
  5
342
  8
0
 62
     9
 10
0.0
 20
0.0
 30
0.0
 70
   128
 71
    47
 72
    48
 73
    50
  0
VERTEX
  5
343
  8
0
 62
     9
 10
0.0
 20
0.0
 30
0.0
 70
   128
 71
    53
 72
    52
 73
    51
  0
VERTEX
  5
344
  8
0
 62
     9
 10
0.0
 20
0.0
 30
0.0
 70
   128
 71
    56
 72
    55
 73
    54
  0
VERTEX
  5
345
  8
0
 62
     9
 10
0.0
 20
0.0
 30
0.0
 70
   128
 71
    54
 72
    53
 73
    56
  0
VERTEX
  5
346
  8
0
 62
     9
 10
0.0
 20
0.0
 30
0.0
 70
   128
 71
    55
 72
    57
 73
    44
  0
VERTEX
  5
347
  8
0
 62
     9
 10
0.0
 20
0.0
 30
0.0
 70
   128
 71
    55
 72
    44
 73
    54
  0
VERTEX
  5
348
  8
0
 62
     9
 10
0.0
 20
0.0
 30
0.0
 70
   128
 71
    60
 72
    59
 73
    58
  0
VERTEX
  5
349
  8
0
 62
     9
 10
0.0
 20
0.0
 30
0.0
 70
   128
 71
    63
 72
    62
 73
    61
  0
VERTEX
  5
34A
  8
0
 62
     9
 10
0.0
 20
0.0
 30
0.0
 70
   128
 71
    61
 72
    59
 73
    63
  0
VERTEX
  5
34B
  8
0
 62
     9
 10
0.0
 20
0.0
 30
0.0
 70
   128
 71
    62
 72
    52
 73
    61
  0
VERTEX
  5
34C
  8
0
 62
     9
 10
0.0
 20
0.0
 30
0.0
 70
   128
 71
    59
 72
    60
 73
    63
  0
VERTEX
  5
34D
  8
0
 62
     9
 10
0.0
 20
0.0
 30
0.0
 70
   128
 71
    64
 72
    51
 73
    52
  0
VERTEX
  5
34E
  8
0
 62
     9
 10
0.0
 20
0.0
 30
0.0
 70
   128
 71
    52
 72
    62
 73
    64
  0
VERTEX
  5
34F
  8
0
 62
     9
 10
0.0
 20
0.0
 30
0.0
 70
   128
 71
    67
 72
    66
 73
    65
  0
VERTEX
  5
350
  8
0
 62
     9
 10
0.0
 20
0.0
 30
0.0
 70
   128
 71
    69
 72
    68
 73
    66
  0
VERTEX
  5
351
  8
0
 62
     9
 10
0.0
 20
0.0
 30
0.0
 70
   128
 71
    69
 72
    70
 73
    68
  0
VERTEX
  5
352
  8
0
 62
     9
 10
0.0
 20
0.0
 30
0.0
 70
   128
 71
    66
 72
    67
 73
    69
  0
VERTEX
  5
353
  8
0
 62
     9
 10
0.0
 20
0.0
 30
0.0
 70
   128
 71
    68
 72
    70
 73
    71
  0
VERTEX
  5
354
  8
0
 62
     9
 10
0.0
 20
0.0
 30
0.0
 70
   128
 71
    71
 72
    58
 73
    68
  0
VERTEX
  5
355
  8
0
 62
     9
 10
0.0
 20
0.0
 30
0.0
 70
   128
 71
    74
 72
    73
 73
    72
  0
VERTEX
  5
356
  8
0
 62
     9
 10
0.0
 20
0.0
 30
0.0
 70
   128
 71
    74
 72
    75
 73
    73
  0
VERTEX
  5
357
  8
0
 62
     9
 10
0.0
 20
0.0
 30
0.0
 70
   128
 71
    77
 72
    76
 73
    73
  0
VERTEX
  5
358
  8
0
 62
     9
 10
0.0
 20
0.0
 30
0.0
 70
   128
 71
    76
 72
    77
 73
    78
  0
VERTEX
  5
359
  8
0
 62
     9
 10
0.0
 20
0.0
 30
0.0
 70
   128
 71
    78
 72
    65
 73
    76
  0
VERTEX
  5
35A
  8
0
 62
     9
 10
0.0
 20
0.0
 30
0.0
 70
   128
 71
    73
 72
    75
 73
    77
  0
VERTEX
  5
35B
  8
0
 62
     9
 10
0.0
 20
0.0
 30
0.0
 70
   128
 71
    81
 72
    80
 73
    79
  0
VERTEX
  5
35C
  8
0
 62
     9
 10
0.0
 20
0.0
 30
0.0
 70
   128
 71
    80
 72
    82
 73
    72
  0
VERTEX
  5
35D
  8
0
 62
     9
 10
0.0
 20
0.0
 30
0.0
 70
   128
 71
    83
 72
    79
 73
    80
  0
VERTEX
  5
35E
  8
0
 62
     9
 10
0.0
 20
0.0
 30
0.0
 70
   128
 71
    80
 72
    84
 73
    83
  0
VERTEX
  5
35F
  8
0
 62
     9
 10
0.0
 20
0.0
 30
0.0
 70
   128
 71
    72
 72
    84
 73
    80
  0
VERTEX
  5
360
  8
0
 62
     9
 10
0.0
 20
0.0
 30
0.0
 70
   128
 71
    79
 72
    85
 73
    81
  0
VERTEX
  5
361
  8
0
 62
     9
 10
0.0
 20
0.0
 30
0.0
 70
   128
 71
    88
 72
    87
 73
    86
  0
VERTEX
  5
362
  8
0
 62
     9
 10
0.0
 20
0.0
 30
0.0
 70
   128
 71
    89
 72
    87
 73
    88
  0
VERTEX
  5
363
  8
0
 62
     9
 10
0.0
 20
0.0
 30
0.0
 70
   128
 71
    92
 72
    91
 73
    90
  0
VERTEX
  5
364
  8
0
 62
     9
 10
0.0
 20
0.0
 30
0.0
 70
   128
 71
    91
 72
    93
 73
    79
  0
VERTEX
  5
365
  8
0
 62
     9
 10
0.0
 20
0.0
 30
0.0
 70
   128
 71
    79
 72
    90
 73
    91
  0
VERTEX
  5
366
  8
0
 62
     9
 10
0.0
 20
0.0
 30
0.0
 70
   128
 71
    93
 72
    85
 73
    79
  0
VERTEX
  5
367
  8
0
 62
     9
 10
0.0
 20
0.0
 30
0.0
 70
   128
 71
    90
 72
    89
 73
    92
  0
VERTEX
  5
368
  8
0
 62
     9
 10
0.0
 20
0.0
 30
0.0
 70
   128
 71
    88
 72
    92
 73
    89
  0
VERTEX
  5
369
  8
0
 62
     9
 10
0.0
 20
0.0
 30
0.0
 70
   128
 71
    96
 72
    95
 73
    94
  0
VERTEX
  5
36A
  8
0
 62
     9
 10
0.0
 20
0.0
 30
0.0
 70
   128
 71
    99
 72
    98
 73
    97
  0
VERTEX
  5
36B
  8
0
 62
     9
 10
0.0
 20
0.0
 30
0.0
 70
   128
 71
    97
 72
    94
 73
    99
  0
VERTEX
  5
36C
  8
0
 62
     9
 10
0.0
 20
0.0
 30
0.0
 70
   128
 71
   101
 72
   100
 73
    98
  0
VERTEX
  5
36D
  8
0
 62
     9
 10
0.0
 20
0.0
 30
0.0
 70
   128
 71
    98
 72
   102
 73
   101
  0
VERTEX
  5
36E
  8
0
 62
     9
 10
0.0
 20
0.0
 30
0.0
 70
   128
 71
    98
 72
    99
 73
   102
  0
VERTEX
  5
36F
  8
0
 62
     9
 10
0.0
 20
0.0
 30
0.0
 70
   128
 71
   100
 72
   101
 73
   103
  0
VERTEX
  5
370
  8
0
 62
     9
 10
0.0
 20
0.0
 30
0.0
 70
   128
 71
   103
 72
    86
 73
   100
  0
VERTEX
  5
371
  8
0
 62
     9
 10
0.0
 20
0.0
 30
0.0
 70
   128
 71
   106
 72
   105
 73
   104
  0
VERTEX
  5
372
  8
0
 62
     9
 10
0.0
 20
0.0
 30
0.0
 70
   128
 71
   109
 72
   108
 73
   107
  0
VERTEX
  5
373
  8
0
 62
     9
 10
0.0
 20
0.0
 30
0.0
 70
   128
 71
   109
 72
   110
 73
   108
  0
VERTEX
  5
374
  8
0
 62
     9
 10
0.0
 20
0.0
 30
0.0
 70
   128
 71
   110
 72
    95
 73
    96
  0
VERTEX
  5
375
  8
0
 62
     9
 10
0.0
 20
0.0
 30
0.0
 70
   128
 71
    96
 72
   108
 73
   110
  0
VERTEX
  5
376
  8
0
 62
     9
 10
0.0
 20
0.0
 30
0.0
 70
   128
 71
   107
 72
   104
 73
   109
  0
VERTEX
  5
377
  8
0
 62
     9
 10
0.0
 20
0.0
 30
0.0
 70
   128
 71
   113
 72
   112
 73
   111
  0
VERTEX
  5
378
  8
0
 62
     9
 10
0.0
 20
0.0
 30
0.0
 70
   128
 71
   111
 72
   115
 73
   114
  0
VERTEX
  5
379
  8
0
 62
     9
 10
0.0
 20
0.0
 30
0.0
 70
   128
 71
   114
 72
   116
 73
   111
  0
VERTEX
  5
37A
  8
0
 62
     9
 10
0.0
 20
0.0
 30
0.0
 70
   128
 71
   114
 72
   117
 73
   116
  0
VERTEX
  5
37B
  8
0
 62
     9
 10
0.0
 20
0.0
 30
0.0
 70
   128
 71
   117
 72
   105
 73
   106
  0
VERTEX
  5
37C
  8
0
 62
     9
 10
0.0
 20
0.0
 30
0.0
 70
   128
 71
   106
 72
   116
 73
   117
  0
VERTEX
  5
37D
  8
0
 62
     9
 10
0.0
 20
0.0
 30
0.0
 70
   128
 71
   111
 72
   116
 73
   113
  0
VERTEX
  5
37E
  8
0
 62
     9
 10
0.0
 20
0.0
 30
0.0
 70
   128
 71
   104
 72
   107
 73
   106
  0
VERTEX
  5
37F
  8
0
 62
     9
 10
0.0
 20
0.0
 30
0.0
 70
   128
 71
    94
 72
    97
 73
    96
  0
VERTEX
  5
380
  8
0
 62
     9
 10
0.0
 20
0.0
 30
0.0
 70
   128
 71
    86
 72
   103
 73
    88
  0
VERTEX
  5
381
  8
0
 62
     9
 10
0.0
 20
0.0
 30
0.0
 70
   128
 71
    72
 72
    82
 73
    74
  0
VERTEX
  5
382
  8
0
 62
     9
 10
0.0
 20
0.0
 30
0.0
 70
   128
 71
    65
 72
    78
 73
    67
  0
VERTEX
  5
383
  8
0
 62
     9
 10
0.0
 20
0.0
 30
0.0
 70
   128
 71
    58
 72
    71
 73
    60
  0
VERTEX
  5
384
  8
0
 62
     9
 10
0.0
 20
0.0
 30
0.0
 70
   128
 71
    51
 72
    56
 73
    53
  0
VERTEX
  5
385
  8
0
 62
     9
 10
0.0
 20
0.0
 30
0.0
 70
   128
 71
    44
 72
    57
 73
    46
  0
VERTEX
  5
386
  8
0
 62
     9
 10
0.0
 20
0.0
 30
0.0
 70
   128
 71
    37
 72
    50
 73
    39
  0
VERTEX
  5
387
  8
0
 62
     9
 10
0.0
 20
0.0
 30
0.0
 70
   128
 71
    30
 72
    35
 73
    32
  0
VERTEX
  5
388
  8
0
 62
     9
 10
0.0
 20
0.0
 30
0.0
 70
   128
 71
    23
 72
    26
 73
    25
  0
VERTEX
  5
389
  8
0
 62
     9
 10
0.0
 20
0.0
 30
0.0
 70
   128
 71
    15
 72
    29
 73
    17
  0
VERTEX
  5
38A
  8
0
 62
     9
 10
0.0
 20
0.0
 30
0.0
 70
   128
 71
     7
 72
    22
 73
    13
  0
VERTEX
  5
38B
  8
0
 62
     9
 10
0.0
 20
0.0
 30
0.0
 70
   128
 71
     1
 72
    14
 73
     3
  0
SEQEND
  5
38C
  8
0
 62
     9
  0
ENDBLK
  5
38F
  8
0
  0
BLOCK
  8
0
  2
E3_NODE_5_
 70
     0
 10
0.0
 20
0.0
 30
0.0
  3
E3_NODE_5_
  1

  0
POLYLINE
  5
391
  8
0
 62
     9
 66
     1
 10
0.0
 20
0.0
 30
0.0
 70
    64
 71
     8
 72
     6
  0
VERTEX
  5
392
  8
0
 10
10.64200019836426
 20
18.74200057983398
 30
0.0049999998882413
 70
   192
  0
VERTEX
  5
393
  8
0
 10
10.59899997711182
 20
18.74200057983398
 30
20.26399993896484
 70
   192
  0
VERTEX
  5
394
  8
0
 10
7.236000061035156
 20
15.3459997177124
 30
10.33199977874756
 70
   192
  0
VERTEX
  5
395
  8
0
 10
7.228000164031982
 20
15.3459997177124
 30
0.0
 70
   192
  0
VERTEX
  5
396
  8
0
 10
10.64200019836426
 20
18.74200057983398
 30
0.0010000000474975
 70
   192
  0
VERTEX
  5
397
  8
0
 10
7.204999923706055
 20
15.3459997177124
 30
20.25
 70
   192
  0
VERTEX
  5
398
  8
0
 10
7.212999820709229
 20
15.3459997177124
 30
-20.25
 70
   192
  0
VERTEX
  5
399
  8
0
 10
10.60700035095215
 20
18.74200057983398
 30
-20.26300048828125
 70
   192
  0
VERTEX
  5
39A
  8
0
 62
     9
 10
0.0
 20
0.0
 30
0.0
 70
   128
 71
     3
 72
     2
 73
     1
  0
VERTEX
  5
39B
  8
0
 62
     9
 10
0.0
 20
0.0
 30
0.0
 70
   128
 71
     1
 72
     5
 73
     4
  0
VERTEX
  5
39C
  8
0
 62
     9
 10
0.0
 20
0.0
 30
0.0
 70
   128
 71
     3
 72
     6
 73
     2
  0
VERTEX
  5
39D
  8
0
 62
     9
 10
0.0
 20
0.0
 30
0.0
 70
   128
 71
     7
 72
     4
 73
     5
  0
VERTEX
  5
39E
  8
0
 62
     9
 10
0.0
 20
0.0
 30
0.0
 70
   128
 71
     5
 72
     8
 73
     7
  0
VERTEX
  5
39F
  8
0
 62
     9
 10
0.0
 20
0.0
 30
0.0
 70
   128
 71
     1
 72
     4
 73
     3
  0
SEQEND
  5
3A0
  8
0
 62
     9
  0
ENDBLK
  5
3A3
  8
0
  0
BLOCK
  8
0
  2
E3_NODE_6_
 70
     0
 10
0.0
 20
0.0
 30
0.0
  3
E3_NODE_6_
  1

  0
POLYLINE
  5
3A5
  8
0
 62
     9
 66
     1
 10
0.0
 20
0.0
 30
0.0
 70
    64
 71
     9
 72
     7
  0
VERTEX
  5
3A6
  8
0
 10
7.209000110626221
 20
-15.3459997177124
 30
0.0
 70
   192
  0
VERTEX
  5
3A7
  8
0
 10
10.64200019836426
 20
-18.74200057983398
 30
0.0010000000474975
 70
   192
  0
VERTEX
  5
3A8
  8
0
 10
8.90999984741211
 20
-17.04400062561035
 30
-20.25699996948242
 70
   192
  0
VERTEX
  5
3A9
  8
0
 10
10.60700035095215
 20
-18.74200057983398
 30
-20.26300048828125
 70
   192
  0
VERTEX
  5
3AA
  8
0
 10
8.902000427246094
 20
-17.04400062561035
 30
20.25699996948242
 70
   192
  0
VERTEX
  5
3AB
  8
0
 10
10.59899997711182
 20
-18.74200057983398
 30
20.26399993896484
 70
   192
  0
VERTEX
  5
3AC
  8
0
 10
10.64200019836426
 20
-18.74200057983398
 30
0.0049999998882413
 70
   192
  0
VERTEX
  5
3AD
  8
0
 10
7.204999923706055
 20
-15.3459997177124
 30
20.25
 70
   192
  0
VERTEX
  5
3AE
  8
0
 10
7.212999820709229
 20
-15.3459997177124
 30
-20.25
 70
   192
  0
VERTEX
  5
3AF
  8
0
 62
     9
 10
0.0
 20
0.0
 30
0.0
 70
   128
 71
     3
 72
     2
 73
     1
  0
VERTEX
  5
3B0
  8
0
 62
     9
 10
0.0
 20
0.0
 30
0.0
 70
   128
 71
     3
 72
     4
 73
     2
  0
VERTEX
  5
3B1
  8
0
 62
     9
 10
0.0
 20
0.0
 30
0.0
 70
   128
 71
     7
 72
     6
 73
     5
  0
VERTEX
  5
3B2
  8
0
 62
     9
 10
0.0
 20
0.0
 30
0.0
 70
   128
 71
     5
 72
     8
 73
     1
  0
VERTEX
  5
3B3
  8
0
 62
     9
 10
0.0
 20
0.0
 30
0.0
 70
   128
 71
     1
 72
     2
 73
     5
  0
VERTEX
  5
3B4
  8
0
 62
     9
 10
0.0
 20
0.0
 30
0.0
 70
   128
 71
     5
 72
     2
 73
     7
  0
VERTEX
  5
3B5
  8
0
 62
     9
 10
0.0
 20
0.0
 30
0.0
 70
   128
 71
     1
 72
     9
 73
     3
  0
SEQEND
  5
3B6
  8
0
 62
     9
  0
ENDBLK
  5
3B9
  8
0
  0
BLOCK
  8
0
  2
E3_NODE_7_
 70
     0
 10
0.0
 20
0.0
 30
0.0
  3
E3_NODE_7_
  1

  0
POLYLINE
  5
3BB
  8
0
 62
     9
 66
     1
 10
0.0
 20
0.0
 30
0.0
 70
    64
 71
   193
 72
   198
  0
VERTEX
  5
3BC
  8
0
 10
10.58800029754639
 20
30.28899955749512
 30
0.0040000001899898
 70
   192
  0
VERTEX
  5
3BD
  8
0
 10
10.42700004577637
 20
30.28899955749512
 30
39.98500061035156
 70
   192
  0
VERTEX
  5
3BE
  8
0
 10
10.59899997711182
 20
18.74200057983398
 30
20.26399993896484
 70
   192
  0
VERTEX
  5
3BF
  8
0
 10
10.59700012207031
 20
18.73699951171875
 30
20.69899940490723
 70
   192
  0
VERTEX
  5
3C0
  8
0
 10
10.59000015258789
 20
18.62199974060059
 30
22.37800025939941
 70
   192
  0
VERTEX
  5
3C1
  8
0
 10
10.58300018310547
 20
18.34099960327148
 30
24.12299919128418
 70
   192
  0
VERTEX
  5
3C2
  8
0
 10
10.58500003814697
 20
18.42300033569336
 30
23.61199951171875
 70
   192
  0
VERTEX
  5
3C3
  8
0
 10
10.57600021362305
 20
17.89599990844727
 30
25.83200073242188
 70
   192
  0
VERTEX
  5
3C4
  8
0
 10
10.56900024414062
 20
17.28400039672852
 30
27.51099967956543
 70
   192
  0
VERTEX
  5
3C5
  8
0
 10
10.57100009918213
 20
17.40200042724609
 30
27.1879997253418
 70
   192
  0
VERTEX
  5
3C6
  8
0
 10
10.55700016021729
 20
15.61999988555908
 30
30.62199974060059
 70
   192
  0
VERTEX
  5
3C7
  8
0
 10
10.55700016021729
 20
15.70400047302246
 30
30.48200035095215
 70
   192
  0
VERTEX
  5
3C8
  8
0
 10
10.5629997253418
 20
16.52099990844727
 30
29.11400032043457
 70
   192
  0
VERTEX
  5
3C9
  8
0
 10
10.54599952697754
 20
13.38799953460693
 30
33.38000106811523
 70
   192
  0
VERTEX
  5
3CA
  8
0
 10
10.55099964141846
 20
14.56700038909912
 30
32.05599975585938
 70
   192
  0
VERTEX
  5
3CB
  8
0
 10
10.54100036621094
 20
12.0939998626709
 30
34.58100128173828
 70
   192
  0
VERTEX
  5
3CC
  8
0
 10
10.54599952697754
 20
13.37600040435791
 30
33.39099884033203
 70
   192
  0
VERTEX
  5
3CD
  8
0
 10
10.5319995880127
 20
9.166999816894531
 30
36.61000061035156
 70
   192
  0
VERTEX
  5
3CE
  8
0
 10
10.53600025177002
 20
10.51799964904785
 30
35.76399993896484
 70
   192
  0
VERTEX
  5
3CF
  8
0
 10
10.53600025177002
 20
10.67700004577637
 30
35.66400146484375
 70
   192
  0
VERTEX
  5
3D0
  8
0
 10
10.5290002822876
 20
7.590000152587891
 30
37.40000152587891
 70
   192
  0
VERTEX
  5
3D1
  8
0
 10
10.52700042724609
 20
5.943999767303467
 30
38.03799819946289
 70
   192
  0
VERTEX
  5
3D2
  8
0
 10
10.5290002822876
 20
7.254000186920166
 30
37.53099822998047
 70
   192
  0
VERTEX
  5
3D3
  8
0
 10
10.52299976348877
 20
2.480000019073486
 30
38.84000015258789
 70
   192
  0
VERTEX
  5
3D4
  8
0
 10
10.52400016784668
 20
3.707000017166138
 30
38.61600112915039
 70
   192
  0
VERTEX
  5
3D5
  8
0
 10
10.52499961853027
 20
4.23199987411499
 30
38.52000045776367
 70
   192
  0
VERTEX
  5
3D6
  8
0
 10
10.52299976348877
 20
0.7210000157356262
 30
38.99200057983398
 70
   192
  0
VERTEX
  5
3D7
  8
0
 10
10.49600028991699
 20
-14.11699962615967
 30
39.98699951171875
 70
   192
  0
VERTEX
  5
3D8
  8
0
 10
10.52299976348877
 20
0.0130000002682209
 30
38.98600006103516
 70
   192
  0
VERTEX
  5
3D9
  8
0
 10
10.52299976348877
 20
-1.044999957084656
 30
38.97700119018555
 70
   192
  0
VERTEX
  5
3DA
  8
0
 10
10.52400016784668
 20
-2.816999912261963
 30
38.79299926757812
 70
   192
  0
VERTEX
  5
3DB
  8
0
 10
10.52499961853027
 20
-4.559999942779541
 30
38.44300079345703
 70
   192
  0
VERTEX
  5
3DC
  8
0
 10
10.52400016784668
 20
-3.691999912261963
 30
38.61800003051758
 70
   192
  0
VERTEX
  5
3DD
  8
0
 10
10.52999973297119
 20
-7.885000228881836
 30
37.26699829101562
 70
   192
  0
VERTEX
  5
3DE
  8
0
 10
10.5290002822876
 20
-7.23199987411499
 30
37.53300094604492
 70
   192
  0
VERTEX
  5
3DF
  8
0
 10
10.52700042724609
 20
-6.25
 30
37.93399810791016
 70
   192
  0
VERTEX
  5
3E0
  8
0
 10
10.53299999237061
 20
-9.463000297546387
 30
36.44200134277344
 70
   192
  0
VERTEX
  5
3E1
  8
0
 10
10.53699970245361
 20
-10.95100021362305
 30
35.4739990234375
 70
   192
  0
VERTEX
  5
3E2
  8
0
 10
10.53600025177002
 20
-10.50500011444092
 30
35.76399993896484
 70
   192
  0
VERTEX
  5
3E3
  8
0
 10
10.54199981689453
 20
-12.33899974822998
 30
34.37200164794922
 70
   192
  0
VERTEX
  5
3E4
  8
0
 10
10.54699993133545
 20
-13.61400032043457
 30
33.14500045776367
 70
   192
  0
VERTEX
  5
3E5
  8
0
 10
10.54599952697754
 20
-13.35900020599365
 30
33.39099884033203
 70
   192
  0
VERTEX
  5
3E6
  8
0
 10
10.54899978637695
 20
-14.11699962615967
 30
32.56100082397461
 70
   192
  0
VERTEX
  5
3E7
  8
0
 10
10.51200008392334
 20
-14.11699962615967
 30
-39.97700119018555
 70
   192
  0
VERTEX
  5
3E8
  8
0
 10
10.55399990081787
 20
-12.0939998626709
 30
-34.58000183105469
 70
   192
  0
VERTEX
  5
3E9
  8
0
 10
10.55799961090088
 20
-13.18200016021729
 30
-33.56999969482422
 70
   192
  0
VERTEX
  5
3EA
  8
0
 10
10.55799961090088
 20
-13.38799953460693
 30
-33.37900161743164
 70
   192
  0
VERTEX
  5
3EB
  8
0
 10
10.54699993133545
 20
-9.166999816894531
 30
-36.60800170898438
 70
   192
  0
VERTEX
  5
3EC
  8
0
 10
10.54899978637695
 20
-10.3120002746582
 30
-35.89199829101562
 70
   192
  0
VERTEX
  5
3ED
  8
0
 10
10.55000019073486
 20
-10.67700004577637
 30
-35.66299819946289
 70
   192
  0
VERTEX
  5
3EE
  8
0
 10
10.54399967193604
 20
-7.590000152587891
 30
-37.39899826049805
 70
   192
  0
VERTEX
  5
3EF
  8
0
 10
10.54100036621094
 20
-5.943999767303467
 30
-38.0369987487793
 70
   192
  0
VERTEX
  5
3F0
  8
0
 10
10.54300022125244
 20
-7.048999786376953
 30
-37.60900115966797
 70
   192
  0
VERTEX
  5
3F1
  8
0
 10
10.53800010681152
 20
-2.480000019073486
 30
-38.8380012512207
 70
   192
  0
VERTEX
  5
3F2
  8
0
 10
10.53899955749512
 20
-3.510999917984009
 30
-38.65000152587891
 70
   192
  0
VERTEX
  5
3F3
  8
0
 10
10.53999996185303
 20
-4.23199987411499
 30
-38.51800155639648
 70
   192
  0
VERTEX
  5
3F4
  8
0
 10
10.53800010681152
 20
-0.7210000157356262
 30
-38.99100112915039
 70
   192
  0
VERTEX
  5
3F5
  8
0
 10
10.44299983978271
 20
30.28899955749512
 30
-39.97700119018555
 70
   192
  0
VERTEX
  5
3F6
  8
0
 10
10.53800010681152
 20
1.044999957084656
 30
-38.97499847412109
 70
   192
  0
VERTEX
  5
3F7
  8
0
 10
10.53800010681152
 20
0.1630000025033951
 30
-38.98300170898438
 70
   192
  0
VERTEX
  5
3F8
  8
0
 10
10.53899955749512
 20
2.816999912261963
 30
-38.79199981689453
 70
   192
  0
VERTEX
  5
3F9
  8
0
 10
10.53999996185303
 20
4.559999942779541
 30
-38.44200134277344
 70
   192
  0
VERTEX
  5
3FA
  8
0
 10
10.53899955749512
 20
3.842999935150146
 30
-38.58599853515625
 70
   192
  0
VERTEX
  5
3FB
  8
0
 10
10.54399967193604
 20
7.885000228881836
 30
-37.26499938964844
 70
   192
  0
VERTEX
  5
3FC
  8
0
 10
10.54300022125244
 20
7.355000019073486
 30
-37.48199844360352
 70
   192
  0
VERTEX
  5
3FD
  8
0
 10
10.54199981689453
 20
6.25
 30
-37.93199920654297
 70
   192
  0
VERTEX
  5
3FE
  8
0
 10
10.54699993133545
 20
9.463000297546387
 30
-36.43999862670898
 70
   192
  0
VERTEX
  5
3FF
  8
0
 10
10.55099964141846
 20
10.95100021362305
 30
-35.47200012207031
 70
   192
  0
VERTEX
  5
400
  8
0
 10
10.55000019073486
 20
10.59700012207031
 30
-35.70299911499023
 70
   192
  0
VERTEX
  5
401
  8
0
 10
10.55500030517578
 20
12.33899974822998
 30
-34.37099838256836
 70
   192
  0
VERTEX
  5
402
  8
0
 10
10.55900001525879
 20
13.61400032043457
 30
-33.14400100708008
 70
   192
  0
VERTEX
  5
403
  8
0
 10
10.55900001525879
 20
13.42300033569336
 30
-33.32799911499023
 70
   192
  0
VERTEX
  5
404
  8
0
 10
10.56400012969971
 20
14.77000045776367
 30
-31.80100059509277
 70
   192
  0
VERTEX
  5
405
  8
0
 10
10.56999969482422
 20
15.79500007629395
 30
-30.35099983215332
 70
   192
  0
VERTEX
  5
406
  8
0
 10
10.56900024414062
 20
15.73200035095215
 30
-30.44099998474121
 70
   192
  0
VERTEX
  5
407
  8
0
 10
10.58699989318848
 20
17.98999977111816
 30
-25.52400016784668
 70
   192
  0
VERTEX
  5
408
  8
0
 10
10.58100032806396
 20
17.42700004577637
 30
-27.15500068664551
 70
   192
  0
VERTEX
  5
409
  8
0
 10
10.58100032806396
 20
17.41300010681152
 30
-27.19499969482422
 70
   192
  0
VERTEX
  5
40A
  8
0
 10
10.57499980926514
 20
16.67900085449219
 30
-28.8120002746582
 70
   192
  0
VERTEX
  5
40B
  8
0
 10
10.5939998626709
 20
18.40500068664551
 30
-23.80900001525879
 70
   192
  0
VERTEX
  5
40C
  8
0
 10
10.60000038146973
 20
18.6569995880127
 30
-22.05200004577637
 70
   192
  0
VERTEX
  5
40D
  8
0
 10
10.5939998626709
 20
18.43400001525879
 30
-23.60700035095215
 70
   192
  0
VERTEX
  5
40E
  8
0
 10
10.64200019836426
 20
18.74200057983398
 30
0.0049999998882413
 70
   192
  0
VERTEX
  5
40F
  8
0
 10
10.64200019836426
 20
18.74200057983398
 30
0.0010000000474975
 70
   192
  0
VERTEX
  5
410
  8
0
 10
10.60700035095215
 20
18.74200057983398
 30
-20.26300048828125
 70
   192
  0
VERTEX
  5
411
  8
0
 10
10.15999984741211
 20
9.217000007629395
 30
71.822998046875
 70
   192
  0
VERTEX
  5
412
  8
0
 10
10.06700038909912
 20
30.28899955749512
 30
71.8239974975586
 70
   192
  0
VERTEX
  5
413
  8
0
 10
9.88700008392334
 20
-57.57799911499023
 30
69.21199798583984
 70
   192
  0
VERTEX
  5
414
  8
0
 10
9.892000198364258
 20
-57.72900009155273
 30
68.70800018310547
 70
   192
  0
VERTEX
  5
415
  8
0
 10
9.901000022888184
 20
-57.82600021362305
 30
67.93800354003906
 70
   192
  0
VERTEX
  5
416
  8
0
 10
9.902999877929688
 20
-57.82699966430664
 30
67.8280029296875
 70
   192
  0
VERTEX
  5
417
  8
0
 10
9.878000259399414
 20
-56.64300155639648
 30
70.64299774169922
 70
   192
  0
VERTEX
  5
418
  8
0
 10
9.878000259399414
 20
-56.88299942016602
 30
70.40899658203125
 70
   192
  0
VERTEX
  5
419
  8
0
 10
9.880999565124512
 20
-57.21900177001953
 30
69.9489974975586
 70
   192
  0
VERTEX
  5
41A
  8
0
 10
9.88700008392334
 20
-57.56499862670898
 30
69.25299835205078
 70
   192
  0
VERTEX
  5
41B
  8
0
 10
9.876999855041504
 20
-55.85699844360352
 30
71.2750015258789
 70
   192
  0
VERTEX
  5
41C
  8
0
 10
9.876999855041504
 20
-56.32600021362305
 30
70.9520034790039
 70
   192
  0
VERTEX
  5
41D
  8
0
 10
9.880000114440918
 20
-55.20999908447266
 30
71.57499694824219
 70
   192
  0
VERTEX
  5
41E
  8
0
 10
9.883999824523926
 20
-54.60200119018555
 30
71.75199890136719
 70
   192
  0
VERTEX
  5
41F
  8
0
 10
9.880000114440918
 20
-55.15200042724609
 30
71.60199737548828
 70
   192
  0
VERTEX
  5
420
  8
0
 10
9.890999794006348
 20
-53.82799911499023
 30
71.8270034790039
 70
   192
  0
VERTEX
  5
421
  8
0
 10
10.10499954223633
 20
-25.78800010681152
 30
71.8239974975586
 70
   192
  0
VERTEX
  5
422
  8
0
 10
10.13399982452393
 20
-18.82500076293945
 30
71.822998046875
 70
   192
  0
VERTEX
  5
423
  8
0
 10
10.13899993896484
 20
-14.11699962615967
 30
71.822998046875
 70
   192
  0
VERTEX
  5
424
  8
0
 10
10.15900039672852
 20
-57.82300186157227
 30
44.34199905395508
 70
   192
  0
VERTEX
  5
425
  8
0
 10
10.1850004196167
 20
-57.82199859619141
 30
39.97900009155273
 70
   192
  0
VERTEX
  5
426
  8
0
 10
10.55200004577637
 20
-14.77000045776367
 30
31.80200004577637
 70
   192
  0
VERTEX
  5
427
  8
0
 10
10.55799961090088
 20
-15.79500007629395
 30
30.35300064086914
 70
   192
  0
VERTEX
  5
428
  8
0
 10
10.55700016021729
 20
-15.69400024414062
 30
30.49600028991699
 70
   192
  0
VERTEX
  5
429
  8
0
 10
10.57100009918213
 20
-17.41300010681152
 30
27.19700050354004
 70
   192
  0
VERTEX
  5
42A
  8
0
 10
10.57100009918213
 20
-17.41200065612793
 30
27.19799995422363
 70
   192
  0
VERTEX
  5
42B
  8
0
 10
10.57800006866455
 20
-17.98999977111816
 30
25.52499961853027
 70
   192
  0
VERTEX
  5
42C
  8
0
 10
10.56400012969971
 20
-16.67900085449219
 30
28.8129997253418
 70
   192
  0
VERTEX
  5
42D
  8
0
 10
10.58500003814697
 20
-18.40500068664551
 30
23.81100082397461
 70
   192
  0
VERTEX
  5
42E
  8
0
 10
10.32699966430664
 20
-57.81999969482422
 30
16.29999923706055
 70
   192
  0
VERTEX
  5
42F
  8
0
 10
10.59200000762939
 20
-18.6569995880127
 30
22.05400085449219
 70
   192
  0
VERTEX
  5
430
  8
0
 10
10.58500003814697
 20
-18.43099975585938
 30
23.6299991607666
 70
   192
  0
VERTEX
  5
431
  8
0
 10
10.64200019836426
 20
-18.74200057983398
 30
0.0049999998882413
 70
   192
  0
VERTEX
  5
432
  8
0
 10
10.59899997711182
 20
-18.74200057983398
 30
20.26399993896484
 70
   192
  0
VERTEX
  5
433
  8
0
 10
10.33800029754639
 20
-57.81999969482422
 30
0.0
 70
   192
  0
VERTEX
  5
434
  8
0
 10
10.64200019836426
 20
-18.74200057983398
 30
0.0010000000474975
 70
   192
  0
VERTEX
  5
435
  8
0
 10
10.34500026702881
 20
-57.81900024414062
 30
-11.74199962615967
 70
   192
  0
VERTEX
  5
436
  8
0
 10
10.60700035095215
 20
-18.74200057983398
 30
-20.26300048828125
 70
   192
  0
VERTEX
  5
437
  8
0
 10
10.60499954223633
 20
-18.73699951171875
 30
-20.69700050354004
 70
   192
  0
VERTEX
  5
438
  8
0
 10
10.21199989318848
 20
-57.82199859619141
 30
-39.78499984741211
 70
   192
  0
VERTEX
  5
439
  8
0
 10
10.59899997711182
 20
-18.62199974060059
 30
-22.37700080871582
 70
   192
  0
VERTEX
  5
43A
  8
0
 10
10.5930004119873
 20
-18.34099960327148
 30
-24.12199974060059
 70
   192
  0
VERTEX
  5
43B
  8
0
 10
10.5930004119873
 20
-18.37100028991699
 30
-23.93600082397461
 70
   192
  0
VERTEX
  5
43C
  8
0
 10
10.58600044250488
 20
-17.89599990844727
 30
-25.82999992370605
 70
   192
  0
VERTEX
  5
43D
  8
0
 10
10.57999992370605
 20
-17.28400039672852
 30
-27.51000022888184
 70
   192
  0
VERTEX
  5
43E
  8
0
 10
10.57999992370605
 20
-17.29599952697754
 30
-27.47900009155273
 70
   192
  0
VERTEX
  5
43F
  8
0
 10
10.21000003814697
 20
-57.82199859619141
 30
-39.97999954223633
 70
   192
  0
VERTEX
  5
440
  8
0
 10
10.56900024414062
 20
-15.61999988555908
 30
-30.62100028991699
 70
   192
  0
VERTEX
  5
441
  8
0
 10
10.57400035858154
 20
-16.52099990844727
 30
-29.11300086975098
 70
   192
  0
VERTEX
  5
442
  8
0
 10
10.5629997253418
 20
-14.56700038909912
 30
-32.05500030517578
 70
   192
  0
VERTEX
  5
443
  8
0
 10
10.56799983978271
 20
-15.54699993133545
 30
-30.71999931335449
 70
   192
  0
VERTEX
  5
444
  8
0
 10
10.56099987030029
 20
-14.11699962615967
 30
-32.56000137329102
 70
   192
  0
VERTEX
  5
445
  8
0
 10
10.0629997253418
 20
-37.25899887084961
 30
-71.8239974975586
 70
   192
  0
VERTEX
  5
446
  8
0
 10
9.907999992370605
 20
-55.21099853515625
 30
-71.5770034790039
 70
   192
  0
VERTEX
  5
447
  8
0
 10
9.91100025177002
 20
-54.70700073242188
 30
-71.72899627685547
 70
   192
  0
VERTEX
  5
448
  8
0
 10
9.918000221252441
 20
-53.9370002746582
 30
-71.82499694824219
 70
   192
  0
VERTEX
  5
449
  8
0
 10
9.918999671936035
 20
-53.82699966430664
 30
-71.8270034790039
 70
   192
  0
VERTEX
  5
44A
  8
0
 10
9.904999732971191
 20
-56.64199829101562
 30
-70.64299774169922
 70
   192
  0
VERTEX
  5
44B
  8
0
 10
9.904000282287598
 20
-56.40900039672852
 30
-70.88300323486328
 70
   192
  0
VERTEX
  5
44C
  8
0
 10
9.904999732971191
 20
-55.94800186157227
 30
-71.21900177001953
 70
   192
  0
VERTEX
  5
44D
  8
0
 10
9.907999992370605
 20
-55.25199890136719
 30
-71.56500244140625
 70
   192
  0
VERTEX
  5
44E
  8
0
 10
9.909000396728516
 20
-57.27399826049805
 30
-69.85700225830078
 70
   192
  0
VERTEX
  5
44F
  8
0
 10
9.906000137329102
 20
-56.95100021362305
 30
-70.32599639892578
 70
   192
  0
VERTEX
  5
450
  8
0
 10
9.913999557495117
 20
-57.57500076293945
 30
-69.20899963378906
 70
   192
  0
VERTEX
  5
451
  8
0
 10
9.928999900817871
 20
-57.82699966430664
 30
-67.8270034790039
 70
   192
  0
VERTEX
  5
452
  8
0
 10
9.920000076293945
 20
-57.75099945068359
 30
-68.60099792480469
 70
   192
  0
VERTEX
  5
453
  8
0
 10
9.913999557495117
 20
-57.60200119018555
 30
-69.1510009765625
 70
   192
  0
VERTEX
  5
454
  8
0
 10
10.1879997253418
 20
-9.218000411987305
 30
-71.8219985961914
 70
   192
  0
VERTEX
  5
455
  8
0
 10
10.16199970245361
 20
18.82399940490723
 30
-71.822998046875
 70
   192
  0
VERTEX
  5
456
  8
0
 10
10.13300037384033
 20
25.78700065612793
 30
-71.822998046875
 70
   192
  0
VERTEX
  5
457
  8
0
 10
10.16600036621094
 20
-14.11699962615967
 30
-71.822998046875
 70
   192
  0
VERTEX
  5
458
  8
0
 10
9.913999557495117
 20
57.57699966430664
 30
-69.21099853515625
 70
   192
  0
VERTEX
  5
459
  8
0
 10
9.918999671936035
 20
57.72900009155273
 30
-68.70800018310547
 70
   192
  0
VERTEX
  5
45A
  8
0
 10
9.927000045776367
 20
57.82500076293945
 30
-67.93800354003906
 70
   192
  0
VERTEX
  5
45B
  8
0
 10
9.928999900817871
 20
57.82699966430664
 30
-67.8270034790039
 70
   192
  0
VERTEX
  5
45C
  8
0
 10
9.904999732971191
 20
56.64300155639648
 30
-70.64199829101562
 70
   192
  0
VERTEX
  5
45D
  8
0
 10
9.906000137329102
 20
56.88299942016602
 30
-70.40899658203125
 70
   192
  0
VERTEX
  5
45E
  8
0
 10
9.907999992370605
 20
57.21799850463867
 30
-69.9489974975586
 70
   192
  0
VERTEX
  5
45F
  8
0
 10
9.913000106811523
 20
57.56499862670898
 30
-69.25199890136719
 70
   192
  0
VERTEX
  5
460
  8
0
 10
9.904999732971191
 20
55.85599899291992
 30
-71.27400207519531
 70
   192
  0
VERTEX
  5
461
  8
0
 10
9.904000282287598
 20
56.32600021362305
 30
-70.95099639892578
 70
   192
  0
VERTEX
  5
462
  8
0
 10
9.907999992370605
 20
55.20999908447266
 30
-71.57499694824219
 70
   192
  0
VERTEX
  5
463
  8
0
 10
9.911999702453613
 20
54.60200119018555
 30
-71.7509994506836
 70
   192
  0
VERTEX
  5
464
  8
0
 10
9.907999992370605
 20
55.1510009765625
 30
-71.60199737548828
 70
   192
  0
VERTEX
  5
465
  8
0
 10
9.918999671936035
 20
53.82699966430664
 30
-71.8270034790039
 70
   192
  0
VERTEX
  5
466
  8
0
 10
10.09799957275391
 20
30.28899955749512
 30
-71.8239974975586
 70
   192
  0
VERTEX
  5
467
  8
0
 10
10.17599964141846
 20
57.82199859619141
 30
-44.34199905395508
 70
   192
  0
VERTEX
  5
468
  8
0
 10
10.20100021362305
 20
57.82199859619141
 30
-39.97999954223633
 70
   192
  0
VERTEX
  5
469
  8
0
 10
10.33399963378906
 20
57.81999969482422
 30
-16.29999923706055
 70
   192
  0
VERTEX
  5
46A
  8
0
 10
10.34000015258789
 20
57.81999969482422
 30
11.74300003051758
 70
   192
  0
VERTEX
  5
46B
  8
0
 10
10.33800029754639
 20
57.81999969482422
 30
0.0
 70
   192
  0
VERTEX
  5
46C
  8
0
 10
10.19699954986572
 20
57.82199859619141
 30
39.78499984741211
 70
   192
  0
VERTEX
  5
46D
  8
0
 10
9.880000114440918
 20
55.21200180053711
 30
71.5780029296875
 70
   192
  0
VERTEX
  5
46E
  8
0
 10
9.883000373840332
 20
54.70800018310547
 30
71.7300033569336
 70
   192
  0
VERTEX
  5
46F
  8
0
 10
9.890000343322754
 20
53.9379997253418
 30
71.82599639892578
 70
   192
  0
VERTEX
  5
470
  8
0
 10
9.890999794006348
 20
53.82799911499023
 30
71.8270034790039
 70
   192
  0
VERTEX
  5
471
  8
0
 10
9.878000259399414
 20
56.64300155639648
 30
70.64299774169922
 70
   192
  0
VERTEX
  5
472
  8
0
 10
9.876999855041504
 20
56.40900039672852
 30
70.88400268554688
 70
   192
  0
VERTEX
  5
473
  8
0
 10
9.876999855041504
 20
55.94900131225586
 30
71.21900177001953
 70
   192
  0
VERTEX
  5
474
  8
0
 10
9.880000114440918
 20
55.25299835205078
 30
71.56500244140625
 70
   192
  0
VERTEX
  5
475
  8
0
 10
9.881999969482422
 20
57.27500152587891
 30
69.85700225830078
 70
   192
  0
VERTEX
  5
476
  8
0
 10
9.878999710083008
 20
56.95100021362305
 30
70.32599639892578
 70
   192
  0
VERTEX
  5
477
  8
0
 10
9.88700008392334
 20
57.57500076293945
 30
69.20999908447266
 70
   192
  0
VERTEX
  5
478
  8
0
 10
9.892999649047852
 20
57.75199890136719
 30
68.60199737548828
 70
   192
  0
VERTEX
  5
479
  8
0
 10
9.88700008392334
 20
57.60200119018555
 30
69.1520004272461
 70
   192
  0
VERTEX
  5
47A
  8
0
 10
9.902999877929688
 20
57.82699966430664
 30
67.8280029296875
 70
   192
  0
VERTEX
  5
47B
  8
0
 10
10.19499969482422
 20
57.82199859619141
 30
39.97900009155273
 70
   192
  0
VERTEX
  5
47C
  8
0
 10
10.03600025177002
 20
37.25799942016602
 30
71.82499694824219
 70
   192
  0
VERTEX
  5
47D
  8
0
 62
     9
 10
0.0
 20
0.0
 30
0.0
 70
   128
 71
     3
 72
     2
 73
     1
  0
VERTEX
  5
47E
  8
0
 62
     9
 10
0.0
 20
0.0
 30
0.0
 70
   128
 71
     3
 72
     4
 73
     2
  0
VERTEX
  5
47F
  8
0
 62
     9
 10
0.0
 20
0.0
 30
0.0
 70
   128
 71
     4
 72
     5
 73
     2
  0
VERTEX
  5
480
  8
0
 62
     9
 10
0.0
 20
0.0
 30
0.0
 70
   128
 71
     7
 72
     6
 73
     2
  0
VERTEX
  5
481
  8
0
 62
     9
 10
0.0
 20
0.0
 30
0.0
 70
   128
 71
     2
 72
     5
 73
     7
  0
VERTEX
  5
482
  8
0
 62
     9
 10
0.0
 20
0.0
 30
0.0
 70
   128
 71
     6
 72
     8
 73
     2
  0
VERTEX
  5
483
  8
0
 62
     9
 10
0.0
 20
0.0
 30
0.0
 70
   128
 71
    10
 72
     9
 73
     2
  0
VERTEX
  5
484
  8
0
 62
     9
 10
0.0
 20
0.0
 30
0.0
 70
   128
 71
     2
 72
     8
 73
    10
  0
VERTEX
  5
485
  8
0
 62
     9
 10
0.0
 20
0.0
 30
0.0
 70
   128
 71
    12
 72
    11
 73
     2
  0
VERTEX
  5
486
  8
0
 62
     9
 10
0.0
 20
0.0
 30
0.0
 70
   128
 71
     2
 72
    13
 73
    12
  0
VERTEX
  5
487
  8
0
 62
     9
 10
0.0
 20
0.0
 30
0.0
 70
   128
 71
    15
 72
    14
 73
     2
  0
VERTEX
  5
488
  8
0
 62
     9
 10
0.0
 20
0.0
 30
0.0
 70
   128
 71
     2
 72
    11
 73
    15
  0
VERTEX
  5
489
  8
0
 62
     9
 10
0.0
 20
0.0
 30
0.0
 70
   128
 71
    17
 72
    16
 73
     2
  0
VERTEX
  5
48A
  8
0
 62
     9
 10
0.0
 20
0.0
 30
0.0
 70
   128
 71
     2
 72
    14
 73
    17
  0
VERTEX
  5
48B
  8
0
 62
     9
 10
0.0
 20
0.0
 30
0.0
 70
   128
 71
     2
 72
     9
 73
    13
  0
VERTEX
  5
48C
  8
0
 62
     9
 10
0.0
 20
0.0
 30
0.0
 70
   128
 71
    19
 72
    18
 73
     2
  0
VERTEX
  5
48D
  8
0
 62
     9
 10
0.0
 20
0.0
 30
0.0
 70
   128
 71
     2
 72
    20
 73
    19
  0
VERTEX
  5
48E
  8
0
 62
     9
 10
0.0
 20
0.0
 30
0.0
 70
   128
 71
    18
 72
    21
 73
     2
  0
VERTEX
  5
48F
  8
0
 62
     9
 10
0.0
 20
0.0
 30
0.0
 70
   128
 71
    23
 72
    22
 73
     2
  0
VERTEX
  5
490
  8
0
 62
     9
 10
0.0
 20
0.0
 30
0.0
 70
   128
 71
     2
 72
    21
 73
    23
  0
VERTEX
  5
491
  8
0
 62
     9
 10
0.0
 20
0.0
 30
0.0
 70
   128
 71
    25
 72
    24
 73
     2
  0
VERTEX
  5
492
  8
0
 62
     9
 10
0.0
 20
0.0
 30
0.0
 70
   128
 71
     2
 72
    26
 73
    25
  0
VERTEX
  5
493
  8
0
 62
     9
 10
0.0
 20
0.0
 30
0.0
 70
   128
 71
    24
 72
    27
 73
     2
  0
VERTEX
  5
494
  8
0
 62
     9
 10
0.0
 20
0.0
 30
0.0
 70
   128
 71
     2
 72
    22
 73
    26
  0
VERTEX
  5
495
  8
0
 62
     9
 10
0.0
 20
0.0
 30
0.0
 70
   128
 71
    27
 72
    29
 73
    28
  0
VERTEX
  5
496
  8
0
 62
     9
 10
0.0
 20
0.0
 30
0.0
 70
   128
 71
    29
 72
    30
 73
    28
  0
VERTEX
  5
497
  8
0
 62
     9
 10
0.0
 20
0.0
 30
0.0
 70
   128
 71
    30
 72
    31
 73
    28
  0
VERTEX
  5
498
  8
0
 62
     9
 10
0.0
 20
0.0
 30
0.0
 70
   128
 71
    33
 72
    32
 73
    28
  0
VERTEX
  5
499
  8
0
 62
     9
 10
0.0
 20
0.0
 30
0.0
 70
   128
 71
    35
 72
    34
 73
    28
  0
VERTEX
  5
49A
  8
0
 62
     9
 10
0.0
 20
0.0
 30
0.0
 70
   128
 71
    28
 72
    36
 73
    35
  0
VERTEX
  5
49B
  8
0
 62
     9
 10
0.0
 20
0.0
 30
0.0
 70
   128
 71
    28
 72
    32
 73
    36
  0
VERTEX
  5
49C
  8
0
 62
     9
 10
0.0
 20
0.0
 30
0.0
 70
   128
 71
    34
 72
    37
 73
    28
  0
VERTEX
  5
49D
  8
0
 62
     9
 10
0.0
 20
0.0
 30
0.0
 70
   128
 71
    39
 72
    38
 73
    28
  0
VERTEX
  5
49E
  8
0
 62
     9
 10
0.0
 20
0.0
 30
0.0
 70
   128
 71
    38
 72
    40
 73
    28
  0
VERTEX
  5
49F
  8
0
 62
     9
 10
0.0
 20
0.0
 30
0.0
 70
   128
 71
    42
 72
    41
 73
    28
  0
VERTEX
  5
4A0
  8
0
 62
     9
 10
0.0
 20
0.0
 30
0.0
 70
   128
 71
    41
 72
    43
 73
    28
  0
VERTEX
  5
4A1
  8
0
 62
     9
 10
0.0
 20
0.0
 30
0.0
 70
   128
 71
    28
 72
    40
 73
    42
  0
VERTEX
  5
4A2
  8
0
 62
     9
 10
0.0
 20
0.0
 30
0.0
 70
   128
 71
    28
 72
    37
 73
    39
  0
VERTEX
  5
4A3
  8
0
 62
     9
 10
0.0
 20
0.0
 30
0.0
 70
   128
 71
    28
 72
    31
 73
    33
  0
VERTEX
  5
4A4
  8
0
 62
     9
 10
0.0
 20
0.0
 30
0.0
 70
   128
 71
    28
 72
     2
 73
    27
  0
VERTEX
  5
4A5
  8
0
 62
     9
 10
0.0
 20
0.0
 30
0.0
 70
   128
 71
     2
 72
    16
 73
    20
  0
VERTEX
  5
4A6
  8
0
 62
     9
 10
0.0
 20
0.0
 30
0.0
 70
   128
 71
    46
 72
    45
 73
    44
  0
VERTEX
  5
4A7
  8
0
 62
     9
 10
0.0
 20
0.0
 30
0.0
 70
   128
 71
    44
 72
    47
 73
    46
  0
VERTEX
  5
4A8
  8
0
 62
     9
 10
0.0
 20
0.0
 30
0.0
 70
   128
 71
    49
 72
    48
 73
    44
  0
VERTEX
  5
4A9
  8
0
 62
     9
 10
0.0
 20
0.0
 30
0.0
 70
   128
 71
    44
 72
    50
 73
    49
  0
VERTEX
  5
4AA
  8
0
 62
     9
 10
0.0
 20
0.0
 30
0.0
 70
   128
 71
    48
 72
    51
 73
    44
  0
VERTEX
  5
4AB
  8
0
 62
     9
 10
0.0
 20
0.0
 30
0.0
 70
   128
 71
    53
 72
    52
 73
    44
  0
VERTEX
  5
4AC
  8
0
 62
     9
 10
0.0
 20
0.0
 30
0.0
 70
   128
 71
    44
 72
    51
 73
    53
  0
VERTEX
  5
4AD
  8
0
 62
     9
 10
0.0
 20
0.0
 30
0.0
 70
   128
 71
    55
 72
    54
 73
    44
  0
VERTEX
  5
4AE
  8
0
 62
     9
 10
0.0
 20
0.0
 30
0.0
 70
   128
 71
    44
 72
    56
 73
    55
  0
VERTEX
  5
4AF
  8
0
 62
     9
 10
0.0
 20
0.0
 30
0.0
 70
   128
 71
    54
 72
    57
 73
    44
  0
VERTEX
  5
4B0
  8
0
 62
     9
 10
0.0
 20
0.0
 30
0.0
 70
   128
 71
    44
 72
    52
 73
    56
  0
VERTEX
  5
4B1
  8
0
 62
     9
 10
0.0
 20
0.0
 30
0.0
 70
   128
 71
    59
 72
    58
 73
    44
  0
VERTEX
  5
4B2
  8
0
 62
     9
 10
0.0
 20
0.0
 30
0.0
 70
   128
 71
    44
 72
    60
 73
    59
  0
VERTEX
  5
4B3
  8
0
 62
     9
 10
0.0
 20
0.0
 30
0.0
 70
   128
 71
    59
 72
    61
 73
    58
  0
VERTEX
  5
4B4
  8
0
 62
     9
 10
0.0
 20
0.0
 30
0.0
 70
   128
 71
    63
 72
    62
 73
    58
  0
VERTEX
  5
4B5
  8
0
 62
     9
 10
0.0
 20
0.0
 30
0.0
 70
   128
 71
    65
 72
    64
 73
    58
  0
VERTEX
  5
4B6
  8
0
 62
     9
 10
0.0
 20
0.0
 30
0.0
 70
   128
 71
    58
 72
    66
 73
    65
  0
VERTEX
  5
4B7
  8
0
 62
     9
 10
0.0
 20
0.0
 30
0.0
 70
   128
 71
    58
 72
    62
 73
    66
  0
VERTEX
  5
4B8
  8
0
 62
     9
 10
0.0
 20
0.0
 30
0.0
 70
   128
 71
    64
 72
    67
 73
    58
  0
VERTEX
  5
4B9
  8
0
 62
     9
 10
0.0
 20
0.0
 30
0.0
 70
   128
 71
    69
 72
    68
 73
    58
  0
VERTEX
  5
4BA
  8
0
 62
     9
 10
0.0
 20
0.0
 30
0.0
 70
   128
 71
    68
 72
    70
 73
    58
  0
VERTEX
  5
4BB
  8
0
 62
     9
 10
0.0
 20
0.0
 30
0.0
 70
   128
 71
    72
 72
    71
 73
    58
  0
VERTEX
  5
4BC
  8
0
 62
     9
 10
0.0
 20
0.0
 30
0.0
 70
   128
 71
    71
 72
    73
 73
    58
  0
VERTEX
  5
4BD
  8
0
 62
     9
 10
0.0
 20
0.0
 30
0.0
 70
   128
 71
    58
 72
    70
 73
    72
  0
VERTEX
  5
4BE
  8
0
 62
     9
 10
0.0
 20
0.0
 30
0.0
 70
   128
 71
    58
 72
    67
 73
    69
  0
VERTEX
  5
4BF
  8
0
 62
     9
 10
0.0
 20
0.0
 30
0.0
 70
   128
 71
    75
 72
    74
 73
    58
  0
VERTEX
  5
4C0
  8
0
 62
     9
 10
0.0
 20
0.0
 30
0.0
 70
   128
 71
    77
 72
    76
 73
    58
  0
VERTEX
  5
4C1
  8
0
 62
     9
 10
0.0
 20
0.0
 30
0.0
 70
   128
 71
    58
 72
    78
 73
    77
  0
VERTEX
  5
4C2
  8
0
 62
     9
 10
0.0
 20
0.0
 30
0.0
 70
   128
 71
    58
 72
    79
 73
    78
  0
VERTEX
  5
4C3
  8
0
 62
     9
 10
0.0
 20
0.0
 30
0.0
 70
   128
 71
    58
 72
    74
 73
    79
  0
VERTEX
  5
4C4
  8
0
 62
     9
 10
0.0
 20
0.0
 30
0.0
 70
   128
 71
    58
 72
    73
 73
    75
  0
VERTEX
  5
4C5
  8
0
 62
     9
 10
0.0
 20
0.0
 30
0.0
 70
   128
 71
    76
 72
    80
 73
    58
  0
VERTEX
  5
4C6
  8
0
 62
     9
 10
0.0
 20
0.0
 30
0.0
 70
   128
 71
    82
 72
    81
 73
    58
  0
VERTEX
  5
4C7
  8
0
 62
     9
 10
0.0
 20
0.0
 30
0.0
 70
   128
 71
    84
 72
    83
 73
     1
  0
VERTEX
  5
4C8
  8
0
 62
     9
 10
0.0
 20
0.0
 30
0.0
 70
   128
 71
     1
 72
    58
 73
    84
  0
VERTEX
  5
4C9
  8
0
 62
     9
 10
0.0
 20
0.0
 30
0.0
 70
   128
 71
    58
 72
    85
 73
    84
  0
VERTEX
  5
4CA
  8
0
 62
     9
 10
0.0
 20
0.0
 30
0.0
 70
   128
 71
    58
 72
    81
 73
    85
  0
VERTEX
  5
4CB
  8
0
 62
     9
 10
0.0
 20
0.0
 30
0.0
 70
   128
 71
    58
 72
    80
 73
    82
  0
VERTEX
  5
4CC
  8
0
 62
     9
 10
0.0
 20
0.0
 30
0.0
 70
   128
 71
    58
 72
    61
 73
    63
  0
VERTEX
  5
4CD
  8
0
 62
     9
 10
0.0
 20
0.0
 30
0.0
 70
   128
 71
    44
 72
    57
 73
    60
  0
VERTEX
  5
4CE
  8
0
 62
     9
 10
0.0
 20
0.0
 30
0.0
 70
   128
 71
    44
 72
    45
 73
    50
  0
VERTEX
  5
4CF
  8
0
 62
     9
 10
0.0
 20
0.0
 30
0.0
 70
   128
 71
    86
 72
     2
 73
    28
  0
VERTEX
  5
4D0
  8
0
 62
     9
 10
0.0
 20
0.0
 30
0.0
 70
   128
 71
    86
 72
    87
 73
     2
  0
VERTEX
  5
4D1
  8
0
 62
     9
 10
0.0
 20
0.0
 30
0.0
 70
   128
 71
    89
 72
    88
 73
    28
  0
VERTEX
  5
4D2
  8
0
 62
     9
 10
0.0
 20
0.0
 30
0.0
 70
   128
 71
    28
 72
    90
 73
    89
  0
VERTEX
  5
4D3
  8
0
 62
     9
 10
0.0
 20
0.0
 30
0.0
 70
   128
 71
    28
 72
    91
 73
    90
  0
VERTEX
  5
4D4
  8
0
 62
     9
 10
0.0
 20
0.0
 30
0.0
 70
   128
 71
    93
 72
    92
 73
    28
  0
VERTEX
  5
4D5
  8
0
 62
     9
 10
0.0
 20
0.0
 30
0.0
 70
   128
 71
    28
 72
    94
 73
    93
  0
VERTEX
  5
4D6
  8
0
 62
     9
 10
0.0
 20
0.0
 30
0.0
 70
   128
 71
    28
 72
    95
 73
    94
  0
VERTEX
  5
4D7
  8
0
 62
     9
 10
0.0
 20
0.0
 30
0.0
 70
   128
 71
    28
 72
    88
 73
    95
  0
VERTEX
  5
4D8
  8
0
 62
     9
 10
0.0
 20
0.0
 30
0.0
 70
   128
 71
    97
 72
    96
 73
    28
  0
VERTEX
  5
4D9
  8
0
 62
     9
 10
0.0
 20
0.0
 30
0.0
 70
   128
 71
    96
 72
    98
 73
    28
  0
VERTEX
  5
4DA
  8
0
 62
     9
 10
0.0
 20
0.0
 30
0.0
 70
   128
 71
   100
 72
    99
 73
    28
  0
VERTEX
  5
4DB
  8
0
 62
     9
 10
0.0
 20
0.0
 30
0.0
 70
   128
 71
    99
 72
   101
 73
    28
  0
VERTEX
  5
4DC
  8
0
 62
     9
 10
0.0
 20
0.0
 30
0.0
 70
   128
 71
   101
 72
   102
 73
    28
  0
VERTEX
  5
4DD
  8
0
 62
     9
 10
0.0
 20
0.0
 30
0.0
 70
   128
 71
    28
 72
    98
 73
   100
  0
VERTEX
  5
4DE
  8
0
 62
     9
 10
0.0
 20
0.0
 30
0.0
 70
   128
 71
    28
 72
    92
 73
    97
  0
VERTEX
  5
4DF
  8
0
 62
     9
 10
0.0
 20
0.0
 30
0.0
 70
   128
 71
   102
 72
   103
 73
    28
  0
VERTEX
  5
4E0
  8
0
 62
     9
 10
0.0
 20
0.0
 30
0.0
 70
   128
 71
   103
 72
   104
 73
    28
  0
VERTEX
  5
4E1
  8
0
 62
     9
 10
0.0
 20
0.0
 30
0.0
 70
   128
 71
    28
 72
   105
 73
    91
  0
VERTEX
  5
4E2
  8
0
 62
     9
 10
0.0
 20
0.0
 30
0.0
 70
   128
 71
    43
 72
   107
 73
   106
  0
VERTEX
  5
4E3
  8
0
 62
     9
 10
0.0
 20
0.0
 30
0.0
 70
   128
 71
   109
 72
   108
 73
   106
  0
VERTEX
  5
4E4
  8
0
 62
     9
 10
0.0
 20
0.0
 30
0.0
 70
   128
 71
   111
 72
   110
 73
   106
  0
VERTEX
  5
4E5
  8
0
 62
     9
 10
0.0
 20
0.0
 30
0.0
 70
   128
 71
   110
 72
   112
 73
   106
  0
VERTEX
  5
4E6
  8
0
 62
     9
 10
0.0
 20
0.0
 30
0.0
 70
   128
 71
   106
 72
   113
 73
   111
  0
VERTEX
  5
4E7
  8
0
 62
     9
 10
0.0
 20
0.0
 30
0.0
 70
   128
 71
   106
 72
   108
 73
   113
  0
VERTEX
  5
4E8
  8
0
 62
     9
 10
0.0
 20
0.0
 30
0.0
 70
   128
 71
   106
 72
   107
 73
   109
  0
VERTEX
  5
4E9
  8
0
 62
     9
 10
0.0
 20
0.0
 30
0.0
 70
   128
 71
   112
 72
   114
 73
   106
  0
VERTEX
  5
4EA
  8
0
 62
     9
 10
0.0
 20
0.0
 30
0.0
 70
   128
 71
   116
 72
   115
 73
   106
  0
VERTEX
  5
4EB
  8
0
 62
     9
 10
0.0
 20
0.0
 30
0.0
 70
   128
 71
   106
 72
   117
 73
   116
  0
VERTEX
  5
4EC
  8
0
 62
     9
 10
0.0
 20
0.0
 30
0.0
 70
   128
 71
   115
 72
   119
 73
   118
  0
VERTEX
  5
4ED
  8
0
 62
     9
 10
0.0
 20
0.0
 30
0.0
 70
   128
 71
   118
 72
   120
 73
   115
  0
VERTEX
  5
4EE
  8
0
 62
     9
 10
0.0
 20
0.0
 30
0.0
 70
   128
 71
   115
 72
   116
 73
   119
  0
VERTEX
  5
4EF
  8
0
 62
     9
 10
0.0
 20
0.0
 30
0.0
 70
   128
 71
   106
 72
   114
 73
   117
  0
VERTEX
  5
4F0
  8
0
 62
     9
 10
0.0
 20
0.0
 30
0.0
 70
   128
 71
   122
 72
   120
 73
   121
  0
VERTEX
  5
4F1
  8
0
 62
     9
 10
0.0
 20
0.0
 30
0.0
 70
   128
 71
   121
 72
   123
 73
   122
  0
VERTEX
  5
4F2
  8
0
 62
     9
 10
0.0
 20
0.0
 30
0.0
 70
   128
 71
   123
 72
   124
 73
   122
  0
VERTEX
  5
4F3
  8
0
 62
     9
 10
0.0
 20
0.0
 30
0.0
 70
   128
 71
   126
 72
   125
 73
   122
  0
VERTEX
  5
4F4
  8
0
 62
     9
 10
0.0
 20
0.0
 30
0.0
 70
   128
 71
   122
 72
   124
 73
   126
  0
VERTEX
  5
4F5
  8
0
 62
     9
 10
0.0
 20
0.0
 30
0.0
 70
   128
 71
   128
 72
   127
 73
   125
  0
VERTEX
  5
4F6
  8
0
 62
     9
 10
0.0
 20
0.0
 30
0.0
 70
   128
 71
   125
 72
   126
 73
   128
  0
VERTEX
  5
4F7
  8
0
 62
     9
 10
0.0
 20
0.0
 30
0.0
 70
   128
 71
   127
 72
   129
 73
   125
  0
VERTEX
  5
4F8
  8
0
 62
     9
 10
0.0
 20
0.0
 30
0.0
 70
   128
 71
   125
 72
   131
 73
   130
  0
VERTEX
  5
4F9
  8
0
 62
     9
 10
0.0
 20
0.0
 30
0.0
 70
   128
 71
   130
 72
   132
 73
   125
  0
VERTEX
  5
4FA
  8
0
 62
     9
 10
0.0
 20
0.0
 30
0.0
 70
   128
 71
   125
 72
   129
 73
   131
  0
VERTEX
  5
4FB
  8
0
 62
     9
 10
0.0
 20
0.0
 30
0.0
 70
   128
 71
   134
 72
   133
 73
   132
  0
VERTEX
  5
4FC
  8
0
 62
     9
 10
0.0
 20
0.0
 30
0.0
 70
   128
 71
   136
 72
   135
 73
   132
  0
VERTEX
  5
4FD
  8
0
 62
     9
 10
0.0
 20
0.0
 30
0.0
 70
   128
 71
   137
 72
    44
 73
   132
  0
VERTEX
  5
4FE
  8
0
 62
     9
 10
0.0
 20
0.0
 30
0.0
 70
   128
 71
   132
 72
   135
 73
   137
  0
VERTEX
  5
4FF
  8
0
 62
     9
 10
0.0
 20
0.0
 30
0.0
 70
   128
 71
   132
 72
   133
 73
   136
  0
VERTEX
  5
500
  8
0
 62
     9
 10
0.0
 20
0.0
 30
0.0
 70
   128
 71
   132
 72
   130
 73
   134
  0
VERTEX
  5
501
  8
0
 62
     9
 10
0.0
 20
0.0
 30
0.0
 70
   128
 71
   138
 72
   132
 73
    44
  0
VERTEX
  5
502
  8
0
 62
     9
 10
0.0
 20
0.0
 30
0.0
 70
   128
 71
   140
 72
   139
 73
   132
  0
VERTEX
  5
503
  8
0
 62
     9
 10
0.0
 20
0.0
 30
0.0
 70
   128
 71
   132
 72
   141
 73
   140
  0
VERTEX
  5
504
  8
0
 62
     9
 10
0.0
 20
0.0
 30
0.0
 70
   128
 71
   132
 72
   142
 73
   141
  0
VERTEX
  5
505
  8
0
 62
     9
 10
0.0
 20
0.0
 30
0.0
 70
   128
 71
   144
 72
   143
 73
   132
  0
VERTEX
  5
506
  8
0
 62
     9
 10
0.0
 20
0.0
 30
0.0
 70
   128
 71
   132
 72
   145
 73
   144
  0
VERTEX
  5
507
  8
0
 62
     9
 10
0.0
 20
0.0
 30
0.0
 70
   128
 71
   132
 72
   146
 73
   145
  0
VERTEX
  5
508
  8
0
 62
     9
 10
0.0
 20
0.0
 30
0.0
 70
   128
 71
   148
 72
   147
 73
   132
  0
VERTEX
  5
509
  8
0
 62
     9
 10
0.0
 20
0.0
 30
0.0
 70
   128
 71
   147
 72
   149
 73
   132
  0
VERTEX
  5
50A
  8
0
 62
     9
 10
0.0
 20
0.0
 30
0.0
 70
   128
 71
   151
 72
   150
 73
   149
  0
VERTEX
  5
50B
  8
0
 62
     9
 10
0.0
 20
0.0
 30
0.0
 70
   128
 71
   150
 72
   132
 73
   149
  0
VERTEX
  5
50C
  8
0
 62
     9
 10
0.0
 20
0.0
 30
0.0
 70
   128
 71
   149
 72
   152
 73
   151
  0
VERTEX
  5
50D
  8
0
 62
     9
 10
0.0
 20
0.0
 30
0.0
 70
   128
 71
   132
 72
   143
 73
   148
  0
VERTEX
  5
50E
  8
0
 62
     9
 10
0.0
 20
0.0
 30
0.0
 70
   128
 71
   132
 72
   139
 73
   146
  0
VERTEX
  5
50F
  8
0
 62
     9
 10
0.0
 20
0.0
 30
0.0
 70
   128
 71
   132
 72
   138
 73
   142
  0
VERTEX
  5
510
  8
0
 62
     9
 10
0.0
 20
0.0
 30
0.0
 70
   128
 71
   154
 72
   153
 73
    44
  0
VERTEX
  5
511
  8
0
 62
     9
 10
0.0
 20
0.0
 30
0.0
 70
   128
 71
    44
 72
    58
 73
   154
  0
VERTEX
  5
512
  8
0
 62
     9
 10
0.0
 20
0.0
 30
0.0
 70
   128
 71
    58
 72
   155
 73
   154
  0
VERTEX
  5
513
  8
0
 62
     9
 10
0.0
 20
0.0
 30
0.0
 70
   128
 71
   153
 72
   156
 73
    44
  0
VERTEX
  5
514
  8
0
 62
     9
 10
0.0
 20
0.0
 30
0.0
 70
   128
 71
   158
 72
   157
 73
    58
  0
VERTEX
  5
515
  8
0
 62
     9
 10
0.0
 20
0.0
 30
0.0
 70
   128
 71
    58
 72
   159
 73
   158
  0
VERTEX
  5
516
  8
0
 62
     9
 10
0.0
 20
0.0
 30
0.0
 70
   128
 71
    58
 72
   160
 73
   159
  0
VERTEX
  5
517
  8
0
 62
     9
 10
0.0
 20
0.0
 30
0.0
 70
   128
 71
   162
 72
   161
 73
    58
  0
VERTEX
  5
518
  8
0
 62
     9
 10
0.0
 20
0.0
 30
0.0
 70
   128
 71
    58
 72
   163
 73
   162
  0
VERTEX
  5
519
  8
0
 62
     9
 10
0.0
 20
0.0
 30
0.0
 70
   128
 71
    58
 72
   164
 73
   163
  0
VERTEX
  5
51A
  8
0
 62
     9
 10
0.0
 20
0.0
 30
0.0
 70
   128
 71
    58
 72
   157
 73
   164
  0
VERTEX
  5
51B
  8
0
 62
     9
 10
0.0
 20
0.0
 30
0.0
 70
   128
 71
   166
 72
   165
 73
    58
  0
VERTEX
  5
51C
  8
0
 62
     9
 10
0.0
 20
0.0
 30
0.0
 70
   128
 71
   165
 72
   167
 73
    58
  0
VERTEX
  5
51D
  8
0
 62
     9
 10
0.0
 20
0.0
 30
0.0
 70
   128
 71
    58
 72
   161
 73
   166
  0
VERTEX
  5
51E
  8
0
 62
     9
 10
0.0
 20
0.0
 30
0.0
 70
   128
 71
   169
 72
   168
 73
    58
  0
VERTEX
  5
51F
  8
0
 62
     9
 10
0.0
 20
0.0
 30
0.0
 70
   128
 71
   168
 72
   170
 73
    58
  0
VERTEX
  5
520
  8
0
 62
     9
 10
0.0
 20
0.0
 30
0.0
 70
   128
 71
   170
 72
   171
 73
    58
  0
VERTEX
  5
521
  8
0
 62
     9
 10
0.0
 20
0.0
 30
0.0
 70
   128
 71
    58
 72
   167
 73
   169
  0
VERTEX
  5
522
  8
0
 62
     9
 10
0.0
 20
0.0
 30
0.0
 70
   128
 71
    58
 72
   172
 73
   160
  0
VERTEX
  5
523
  8
0
 62
     9
 10
0.0
 20
0.0
 30
0.0
 70
   128
 71
   174
 72
   173
 73
    58
  0
VERTEX
  5
524
  8
0
 62
     9
 10
0.0
 20
0.0
 30
0.0
 70
   128
 71
    58
 72
     1
 73
   174
  0
VERTEX
  5
525
  8
0
 62
     9
 10
0.0
 20
0.0
 30
0.0
 70
   128
 71
   175
 72
     1
 73
     2
  0
VERTEX
  5
526
  8
0
 62
     9
 10
0.0
 20
0.0
 30
0.0
 70
   128
 71
   175
 72
   176
 73
     1
  0
VERTEX
  5
527
  8
0
 62
     9
 10
0.0
 20
0.0
 30
0.0
 70
   128
 71
     2
 72
   177
 73
   175
  0
VERTEX
  5
528
  8
0
 62
     9
 10
0.0
 20
0.0
 30
0.0
 70
   128
 71
   179
 72
   178
 73
     2
  0
VERTEX
  5
529
  8
0
 62
     9
 10
0.0
 20
0.0
 30
0.0
 70
   128
 71
     2
 72
   180
 73
   179
  0
VERTEX
  5
52A
  8
0
 62
     9
 10
0.0
 20
0.0
 30
0.0
 70
   128
 71
     2
 72
   181
 73
   180
  0
VERTEX
  5
52B
  8
0
 62
     9
 10
0.0
 20
0.0
 30
0.0
 70
   128
 71
   183
 72
   182
 73
     2
  0
VERTEX
  5
52C
  8
0
 62
     9
 10
0.0
 20
0.0
 30
0.0
 70
   128
 71
     2
 72
   184
 73
   183
  0
VERTEX
  5
52D
  8
0
 62
     9
 10
0.0
 20
0.0
 30
0.0
 70
   128
 71
     2
 72
   185
 73
   184
  0
VERTEX
  5
52E
  8
0
 62
     9
 10
0.0
 20
0.0
 30
0.0
 70
   128
 71
     2
 72
   178
 73
   185
  0
VERTEX
  5
52F
  8
0
 62
     9
 10
0.0
 20
0.0
 30
0.0
 70
   128
 71
   187
 72
   186
 73
     2
  0
VERTEX
  5
530
  8
0
 62
     9
 10
0.0
 20
0.0
 30
0.0
 70
   128
 71
   186
 72
   188
 73
     2
  0
VERTEX
  5
531
  8
0
 62
     9
 10
0.0
 20
0.0
 30
0.0
 70
   128
 71
     2
 72
   182
 73
   187
  0
VERTEX
  5
532
  8
0
 62
     9
 10
0.0
 20
0.0
 30
0.0
 70
   128
 71
   190
 72
   189
 73
     2
  0
VERTEX
  5
533
  8
0
 62
     9
 10
0.0
 20
0.0
 30
0.0
 70
   128
 71
   189
 72
   191
 73
     2
  0
VERTEX
  5
534
  8
0
 62
     9
 10
0.0
 20
0.0
 30
0.0
 70
   128
 71
   191
 72
   192
 73
     2
  0
VERTEX
  5
535
  8
0
 62
     9
 10
0.0
 20
0.0
 30
0.0
 70
   128
 71
     2
 72
   188
 73
   190
  0
VERTEX
  5
536
  8
0
 62
     9
 10
0.0
 20
0.0
 30
0.0
 70
   128
 71
     2
 72
   193
 73
   181
  0
VERTEX
  5
537
  8
0
 62
     9
 10
0.0
 20
0.0
 30
0.0
 70
   128
 71
     2
 72
    87
 73
   193
  0
VERTEX
  5
538
  8
0
 62
     9
 10
0.0
 20
0.0
 30
0.0
 70
   128
 71
     2
 72
   192
 73
   177
  0
VERTEX
  5
539
  8
0
 62
     9
 10
0.0
 20
0.0
 30
0.0
 70
   128
 71
     1
 72
   176
 73
   174
  0
VERTEX
  5
53A
  8
0
 62
     9
 10
0.0
 20
0.0
 30
0.0
 70
   128
 71
    58
 72
   173
 73
   172
  0
VERTEX
  5
53B
  8
0
 62
     9
 10
0.0
 20
0.0
 30
0.0
 70
   128
 71
    58
 72
   171
 73
   155
  0
VERTEX
  5
53C
  8
0
 62
     9
 10
0.0
 20
0.0
 30
0.0
 70
   128
 71
    44
 72
   156
 73
   138
  0
VERTEX
  5
53D
  8
0
 62
     9
 10
0.0
 20
0.0
 30
0.0
 70
   128
 71
   120
 72
   118
 73
   121
  0
VERTEX
  5
53E
  8
0
 62
     9
 10
0.0
 20
0.0
 30
0.0
 70
   128
 71
   106
 72
    28
 73
    43
  0
VERTEX
  5
53F
  8
0
 62
     9
 10
0.0
 20
0.0
 30
0.0
 70
   128
 71
    28
 72
   106
 73
   105
  0
VERTEX
  5
540
  8
0
 62
     9
 10
0.0
 20
0.0
 30
0.0
 70
   128
 71
    28
 72
   104
 73
    86
  0
VERTEX
  5
541
  8
0
 62
     9
 10
0.0
 20
0.0
 30
0.0
 70
   128
 71
    44
 72
   137
 73
    47
  0
VERTEX
  5
542
  8
0
 62
     9
 10
0.0
 20
0.0
 30
0.0
 70
   128
 71
     1
 72
    83
 73
     3
  0
SEQEND
  5
543
  8
0
 62
     9
  0
ENDBLK
  5
546
  8
0
  0
BLOCK
  8
0
  2
E3_NODE_8_
 70
     0
 10
0.0
 20
0.0
 30
0.0
  3
E3_NODE_8_
  1

  0
POLYLINE
  5
548
  8
0
 62
     9
 66
     1
 10
0.0
 20
0.0
 30
0.0
 70
    64
 71
    29
 72
    27
  0
VERTEX
  5
549
  8
0
 10
0.1000000014901161
 20
-57.96200180053711
 30
68.53600311279297
 70
   192
  0
VERTEX
  5
54A
  8
0
 10
9.892000198364258
 20
-57.72900009155273
 30
68.70800018310547
 70
   192
  0
VERTEX
  5
54B
  8
0
 10
9.88700008392334
 20
-57.57799911499023
 30
69.21199798583984
 70
   192
  0
VERTEX
  5
54C
  8
0
 10
0.101000003516674
 20
-57.74599838256836
 30
69.38099670410156
 70
   192
  0
VERTEX
  5
54D
  8
0
 10
0.101000003516674
 20
-57.77000045776367
 30
69.33200073242188
 70
   192
  0
VERTEX
  5
54E
  8
0
 10
0.1000000014901161
 20
-57.98199844360352
 30
68.24299621582031
 70
   192
  0
VERTEX
  5
54F
  8
0
 10
9.901000022888184
 20
-57.82600021362305
 30
67.93800354003906
 70
   192
  0
VERTEX
  5
550
  8
0
 10
0.1000000014901161
 20
-57.99900054931641
 30
68.0
 70
   192
  0
VERTEX
  5
551
  8
0
 10
9.902999877929688
 20
-57.82699966430664
 30
67.8280029296875
 70
   192
  0
VERTEX
  5
552
  8
0
 10
0.101000003516674
 20
-56.81900024414062
 30
70.81800079345703
 70
   192
  0
VERTEX
  5
553
  8
0
 10
9.88700008392334
 20
-57.56499862670898
 30
69.25299835205078
 70
   192
  0
VERTEX
  5
554
  8
0
 10
9.880999565124512
 20
-57.21900177001953
 30
69.9489974975586
 70
   192
  0
VERTEX
  5
555
  8
0
 10
9.878000259399414
 20
-56.88299942016602
 30
70.40899658203125
 70
   192
  0
VERTEX
  5
556
  8
0
 10
0.101000003516674
 20
-57.31000137329102
 30
70.21700286865234
 70
   192
  0
VERTEX
  5
557
  8
0
 10
0.101000003516674
 20
-57.41899871826172
 30
70.0719985961914
 70
   192
  0
VERTEX
  5
558
  8
0
 10
0.101000003516674
 20
-56.92499923706055
 30
70.7249984741211
 70
   192
  0
VERTEX
  5
559
  8
0
 10
9.878000259399414
 20
-56.64300155639648
 30
70.64299774169922
 70
   192
  0
VERTEX
  5
55A
  8
0
 10
9.876999855041504
 20
-55.85699844360352
 30
71.2750015258789
 70
   192
  0
VERTEX
  5
55B
  8
0
 10
9.880000114440918
 20
-55.20999908447266
 30
71.57499694824219
 70
   192
  0
VERTEX
  5
55C
  8
0
 10
0.101000003516674
 20
-55.59500122070312
 30
71.66600036621094
 70
   192
  0
VERTEX
  5
55D
  8
0
 10
0.101000003516674
 20
-55.37799835205078
 30
71.73500061035156
 70
   192
  0
VERTEX
  5
55E
  8
0
 10
0.101000003516674
 20
-56.30799865722656
 30
71.26399993896484
 70
   192
  0
VERTEX
  5
55F
  8
0
 10
9.876999855041504
 20
-56.32600021362305
 30
70.9520034790039
 70
   192
  0
VERTEX
  5
560
  8
0
 10
0.101000003516674
 20
-55.73600006103516
 30
71.58599853515625
 70
   192
  0
VERTEX
  5
561
  8
0
 10
0.1000000014901161
 20
-54.0
 30
71.9990005493164
 70
   192
  0
VERTEX
  5
562
  8
0
 10
0.1000000014901161
 20
-54.81399917602539
 30
71.91400146484375
 70
   192
  0
VERTEX
  5
563
  8
0
 10
9.883999824523926
 20
-54.60200119018555
 30
71.75199890136719
 70
   192
  0
VERTEX
  5
564
  8
0
 10
9.880000114440918
 20
-55.15200042724609
 30
71.60199737548828
 70
   192
  0
VERTEX
  5
565
  8
0
 10
9.890999794006348
 20
-53.82799911499023
 30
71.8270034790039
 70
   192
  0
VERTEX
  5
566
  8
0
 62
     9
 10
0.0
 20
0.0
 30
0.0
 70
   128
 71
     3
 72
     2
 73
     1
  0
VERTEX
  5
567
  8
0
 62
     9
 10
0.0
 20
0.0
 30
0.0
 70
   128
 71
     5
 72
     4
 73
     3
  0
VERTEX
  5
568
  8
0
 62
     9
 10
0.0
 20
0.0
 30
0.0
 70
   128
 71
     6
 72
     1
 73
     2
  0
VERTEX
  5
569
  8
0
 62
     9
 10
0.0
 20
0.0
 30
0.0
 70
   128
 71
     2
 72
     7
 73
     6
  0
VERTEX
  5
56A
  8
0
 62
     9
 10
0.0
 20
0.0
 30
0.0
 70
   128
 71
     7
 72
     9
 73
     8
  0
VERTEX
  5
56B
  8
0
 62
     9
 10
0.0
 20
0.0
 30
0.0
 70
   128
 71
     7
 72
     8
 73
     6
  0
VERTEX
  5
56C
  8
0
 62
     9
 10
0.0
 20
0.0
 30
0.0
 70
   128
 71
    12
 72
    11
 73
    10
  0
VERTEX
  5
56D
  8
0
 62
     9
 10
0.0
 20
0.0
 30
0.0
 70
   128
 71
    10
 72
    13
 73
    12
  0
VERTEX
  5
56E
  8
0
 62
     9
 10
0.0
 20
0.0
 30
0.0
 70
   128
 71
    11
 72
     3
 73
     4
  0
VERTEX
  5
56F
  8
0
 62
     9
 10
0.0
 20
0.0
 30
0.0
 70
   128
 71
    15
 72
    14
 73
    11
  0
VERTEX
  5
570
  8
0
 62
     9
 10
0.0
 20
0.0
 30
0.0
 70
   128
 71
    16
 72
    10
 73
    11
  0
VERTEX
  5
571
  8
0
 62
     9
 10
0.0
 20
0.0
 30
0.0
 70
   128
 71
    11
 72
    14
 73
    16
  0
VERTEX
  5
572
  8
0
 62
     9
 10
0.0
 20
0.0
 30
0.0
 70
   128
 71
     4
 72
    15
 73
    11
  0
VERTEX
  5
573
  8
0
 62
     9
 10
0.0
 20
0.0
 30
0.0
 70
   128
 71
    10
 72
    17
 73
    13
  0
VERTEX
  5
574
  8
0
 62
     9
 10
0.0
 20
0.0
 30
0.0
 70
   128
 71
    20
 72
    19
 73
    18
  0
VERTEX
  5
575
  8
0
 62
     9
 10
0.0
 20
0.0
 30
0.0
 70
   128
 71
    20
 72
    21
 73
    19
  0
VERTEX
  5
576
  8
0
 62
     9
 10
0.0
 20
0.0
 30
0.0
 70
   128
 71
    18
 72
    23
 73
    22
  0
VERTEX
  5
577
  8
0
 62
     9
 10
0.0
 20
0.0
 30
0.0
 70
   128
 71
    22
 72
    24
 73
    18
  0
VERTEX
  5
578
  8
0
 62
     9
 10
0.0
 20
0.0
 30
0.0
 70
   128
 71
    23
 72
    17
 73
    10
  0
VERTEX
  5
579
  8
0
 62
     9
 10
0.0
 20
0.0
 30
0.0
 70
   128
 71
    10
 72
    22
 73
    23
  0
VERTEX
  5
57A
  8
0
 62
     9
 10
0.0
 20
0.0
 30
0.0
 70
   128
 71
    27
 72
    26
 73
    25
  0
VERTEX
  5
57B
  8
0
 62
     9
 10
0.0
 20
0.0
 30
0.0
 70
   128
 71
    28
 72
    21
 73
    26
  0
VERTEX
  5
57C
  8
0
 62
     9
 10
0.0
 20
0.0
 30
0.0
 70
   128
 71
    26
 72
    27
 73
    28
  0
VERTEX
  5
57D
  8
0
 62
     9
 10
0.0
 20
0.0
 30
0.0
 70
   128
 71
    28
 72
    19
 73
    21
  0
VERTEX
  5
57E
  8
0
 62
     9
 10
0.0
 20
0.0
 30
0.0
 70
   128
 71
    25
 72
    29
 73
    27
  0
VERTEX
  5
57F
  8
0
 62
     9
 10
0.0
 20
0.0
 30
0.0
 70
   128
 71
    18
 72
    24
 73
    20
  0
VERTEX
  5
580
  8
0
 62
     9
 10
0.0
 20
0.0
 30
0.0
 70
   128
 71
     1
 72
     5
 73
     3
  0
SEQEND
  5
581
  8
0
 62
     9
  0
ENDBLK
  5
584
  8
0
  0
BLOCK
  8
0
  2
E3_NODE_9_
 70
     0
 10
0.0
 20
0.0
 30
0.0
  3
E3_NODE_9_
  1

  0
POLYLINE
  5
586
  8
0
 62
     9
 66
     1
 10
0.0
 20
0.0
 30
0.0
 70
    64
 71
    29
 72
    27
  0
VERTEX
  5
587
  8
0
 10
0.101000003516674
 20
-55.33200073242188
 30
-71.7699966430664
 70
   192
  0
VERTEX
  5
588
  8
0
 10
0.1000000014901161
 20
-54.5359992980957
 30
-71.96199798583984
 70
   192
  0
VERTEX
  5
589
  8
0
 10
9.91100025177002
 20
-54.70700073242188
 30
-71.72899627685547
 70
   192
  0
VERTEX
  5
58A
  8
0
 10
9.907999992370605
 20
-55.21099853515625
 30
-71.5770034790039
 70
   192
  0
VERTEX
  5
58B
  8
0
 10
0.101000003516674
 20
-55.38100051879883
 30
-71.74600219726562
 70
   192
  0
VERTEX
  5
58C
  8
0
 10
0.1000000014901161
 20
-54.24300003051758
 30
-71.98200225830078
 70
   192
  0
VERTEX
  5
58D
  8
0
 10
9.918000221252441
 20
-53.9370002746582
 30
-71.82499694824219
 70
   192
  0
VERTEX
  5
58E
  8
0
 10
0.1000000014901161
 20
-54.0
 30
-71.9990005493164
 70
   192
  0
VERTEX
  5
58F
  8
0
 10
9.918999671936035
 20
-53.82699966430664
 30
-71.8270034790039
 70
   192
  0
VERTEX
  5
590
  8
0
 10
0.101000003516674
 20
-56.81800079345703
 30
-70.81900024414062
 70
   192
  0
VERTEX
  5
591
  8
0
 10
9.907999992370605
 20
-55.25199890136719
 30
-71.56500244140625
 70
   192
  0
VERTEX
  5
592
  8
0
 10
9.904999732971191
 20
-55.94800186157227
 30
-71.21900177001953
 70
   192
  0
VERTEX
  5
593
  8
0
 10
9.904000282287598
 20
-56.40900039672852
 30
-70.88300323486328
 70
   192
  0
VERTEX
  5
594
  8
0
 10
0.101000003516674
 20
-56.21699905395508
 30
-71.30999755859375
 70
   192
  0
VERTEX
  5
595
  8
0
 10
0.101000003516674
 20
-56.07199859619141
 30
-71.41899871826172
 70
   192
  0
VERTEX
  5
596
  8
0
 10
0.101000003516674
 20
-56.72499847412109
 30
-70.92500305175781
 70
   192
  0
VERTEX
  5
597
  8
0
 10
9.904999732971191
 20
-56.64199829101562
 30
-70.64299774169922
 70
   192
  0
VERTEX
  5
598
  8
0
 10
9.909000396728516
 20
-57.27399826049805
 30
-69.85700225830078
 70
   192
  0
VERTEX
  5
599
  8
0
 10
9.913999557495117
 20
-57.57500076293945
 30
-69.20899963378906
 70
   192
  0
VERTEX
  5
59A
  8
0
 10
0.101000003516674
 20
-57.66600036621094
 30
-69.59500122070312
 70
   192
  0
VERTEX
  5
59B
  8
0
 10
0.101000003516674
 20
-57.73500061035156
 30
-69.37799835205078
 70
   192
  0
VERTEX
  5
59C
  8
0
 10
0.101000003516674
 20
-57.26399993896484
 30
-70.30799865722656
 70
   192
  0
VERTEX
  5
59D
  8
0
 10
9.906000137329102
 20
-56.95100021362305
 30
-70.32599639892578
 70
   192
  0
VERTEX
  5
59E
  8
0
 10
0.101000003516674
 20
-57.58599853515625
 30
-69.73600006103516
 70
   192
  0
VERTEX
  5
59F
  8
0
 10
0.1000000014901161
 20
-57.99900054931641
 30
-68.0
 70
   192
  0
VERTEX
  5
5A0
  8
0
 10
0.1000000014901161
 20
-57.91400146484375
 30
-68.81400299072266
 70
   192
  0
VERTEX
  5
5A1
  8
0
 10
9.920000076293945
 20
-57.75099945068359
 30
-68.60099792480469
 70
   192
  0
VERTEX
  5
5A2
  8
0
 10
9.913999557495117
 20
-57.60200119018555
 30
-69.1510009765625
 70
   192
  0
VERTEX
  5
5A3
  8
0
 10
9.928999900817871
 20
-57.82699966430664
 30
-67.8270034790039
 70
   192
  0
VERTEX
  5
5A4
  8
0
 62
     9
 10
0.0
 20
0.0
 30
0.0
 70
   128
 71
     3
 72
     2
 73
     1
  0
VERTEX
  5
5A5
  8
0
 62
     9
 10
0.0
 20
0.0
 30
0.0
 70
   128
 71
     1
 72
     5
 73
     4
  0
VERTEX
  5
5A6
  8
0
 62
     9
 10
0.0
 20
0.0
 30
0.0
 70
   128
 71
     6
 72
     2
 73
     3
  0
VERTEX
  5
5A7
  8
0
 62
     9
 10
0.0
 20
0.0
 30
0.0
 70
   128
 71
     3
 72
     7
 73
     6
  0
VERTEX
  5
5A8
  8
0
 62
     9
 10
0.0
 20
0.0
 30
0.0
 70
   128
 71
     7
 72
     9
 73
     8
  0
VERTEX
  5
5A9
  8
0
 62
     9
 10
0.0
 20
0.0
 30
0.0
 70
   128
 71
     7
 72
     8
 73
     6
  0
VERTEX
  5
5AA
  8
0
 62
     9
 10
0.0
 20
0.0
 30
0.0
 70
   128
 71
    12
 72
    11
 73
    10
  0
VERTEX
  5
5AB
  8
0
 62
     9
 10
0.0
 20
0.0
 30
0.0
 70
   128
 71
    10
 72
    13
 73
    12
  0
VERTEX
  5
5AC
  8
0
 62
     9
 10
0.0
 20
0.0
 30
0.0
 70
   128
 71
    11
 72
     4
 73
     5
  0
VERTEX
  5
5AD
  8
0
 62
     9
 10
0.0
 20
0.0
 30
0.0
 70
   128
 71
    15
 72
    14
 73
    11
  0
VERTEX
  5
5AE
  8
0
 62
     9
 10
0.0
 20
0.0
 30
0.0
 70
   128
 71
    16
 72
    10
 73
    11
  0
VERTEX
  5
5AF
  8
0
 62
     9
 10
0.0
 20
0.0
 30
0.0
 70
   128
 71
    11
 72
    14
 73
    16
  0
VERTEX
  5
5B0
  8
0
 62
     9
 10
0.0
 20
0.0
 30
0.0
 70
   128
 71
     5
 72
    15
 73
    11
  0
VERTEX
  5
5B1
  8
0
 62
     9
 10
0.0
 20
0.0
 30
0.0
 70
   128
 71
    10
 72
    17
 73
    13
  0
VERTEX
  5
5B2
  8
0
 62
     9
 10
0.0
 20
0.0
 30
0.0
 70
   128
 71
    20
 72
    19
 73
    18
  0
VERTEX
  5
5B3
  8
0
 62
     9
 10
0.0
 20
0.0
 30
0.0
 70
   128
 71
    20
 72
    21
 73
    19
  0
VERTEX
  5
5B4
  8
0
 62
     9
 10
0.0
 20
0.0
 30
0.0
 70
   128
 71
    18
 72
    23
 73
    22
  0
VERTEX
  5
5B5
  8
0
 62
     9
 10
0.0
 20
0.0
 30
0.0
 70
   128
 71
    22
 72
    24
 73
    18
  0
VERTEX
  5
5B6
  8
0
 62
     9
 10
0.0
 20
0.0
 30
0.0
 70
   128
 71
    23
 72
    17
 73
    10
  0
VERTEX
  5
5B7
  8
0
 62
     9
 10
0.0
 20
0.0
 30
0.0
 70
   128
 71
    10
 72
    22
 73
    23
  0
VERTEX
  5
5B8
  8
0
 62
     9
 10
0.0
 20
0.0
 30
0.0
 70
   128
 71
    27
 72
    26
 73
    25
  0
VERTEX
  5
5B9
  8
0
 62
     9
 10
0.0
 20
0.0
 30
0.0
 70
   128
 71
    28
 72
    21
 73
    26
  0
VERTEX
  5
5BA
  8
0
 62
     9
 10
0.0
 20
0.0
 30
0.0
 70
   128
 71
    26
 72
    27
 73
    28
  0
VERTEX
  5
5BB
  8
0
 62
     9
 10
0.0
 20
0.0
 30
0.0
 70
   128
 71
    28
 72
    19
 73
    21
  0
VERTEX
  5
5BC
  8
0
 62
     9
 10
0.0
 20
0.0
 30
0.0
 70
   128
 71
    25
 72
    29
 73
    27
  0
VERTEX
  5
5BD
  8
0
 62
     9
 10
0.0
 20
0.0
 30
0.0
 70
   128
 71
    18
 72
    24
 73
    20
  0
VERTEX
  5
5BE
  8
0
 62
     9
 10
0.0
 20
0.0
 30
0.0
 70
   128
 71
     1
 72
     4
 73
     3
  0
SEQEND
  5
5BF
  8
0
 62
     9
  0
ENDBLK
  5
5C2
  8
0
  0
BLOCK
  8
0
  2
E3_NODE_10_
 70
     0
 10
0.0
 20
0.0
 30
0.0
  3
E3_NODE_10_
  1

  0
POLYLINE
  5
5C4
  8
0
 62
     9
 66
     1
 10
0.0
 20
0.0
 30
0.0
 70
    64
 71
    29
 72
    27
  0
VERTEX
  5
5C5
  8
0
 10
0.1000000014901161
 20
57.96200180053711
 30
-68.53600311279297
 70
   192
  0
VERTEX
  5
5C6
  8
0
 10
9.918999671936035
 20
57.72900009155273
 30
-68.70800018310547
 70
   192
  0
VERTEX
  5
5C7
  8
0
 10
9.913999557495117
 20
57.57699966430664
 30
-69.21099853515625
 70
   192
  0
VERTEX
  5
5C8
  8
0
 10
0.101000003516674
 20
57.74599838256836
 30
-69.38099670410156
 70
   192
  0
VERTEX
  5
5C9
  8
0
 10
0.101000003516674
 20
57.77000045776367
 30
-69.33200073242188
 70
   192
  0
VERTEX
  5
5CA
  8
0
 10
0.1000000014901161
 20
57.98199844360352
 30
-68.24299621582031
 70
   192
  0
VERTEX
  5
5CB
  8
0
 10
9.927000045776367
 20
57.82500076293945
 30
-67.93800354003906
 70
   192
  0
VERTEX
  5
5CC
  8
0
 10
0.1000000014901161
 20
57.99900054931641
 30
-68.0
 70
   192
  0
VERTEX
  5
5CD
  8
0
 10
9.928999900817871
 20
57.82699966430664
 30
-67.8270034790039
 70
   192
  0
VERTEX
  5
5CE
  8
0
 10
0.101000003516674
 20
56.81900024414062
 30
-70.81800079345703
 70
   192
  0
VERTEX
  5
5CF
  8
0
 10
9.913000106811523
 20
57.56499862670898
 30
-69.25199890136719
 70
   192
  0
VERTEX
  5
5D0
  8
0
 10
9.907999992370605
 20
57.21799850463867
 30
-69.9489974975586
 70
   192
  0
VERTEX
  5
5D1
  8
0
 10
9.906000137329102
 20
56.88299942016602
 30
-70.40899658203125
 70
   192
  0
VERTEX
  5
5D2
  8
0
 10
0.101000003516674
 20
57.31000137329102
 30
-70.21700286865234
 70
   192
  0
VERTEX
  5
5D3
  8
0
 10
0.101000003516674
 20
57.41899871826172
 30
-70.0719985961914
 70
   192
  0
VERTEX
  5
5D4
  8
0
 10
0.101000003516674
 20
56.92499923706055
 30
-70.7249984741211
 70
   192
  0
VERTEX
  5
5D5
  8
0
 10
9.904999732971191
 20
56.64300155639648
 30
-70.64199829101562
 70
   192
  0
VERTEX
  5
5D6
  8
0
 10
9.904999732971191
 20
55.85599899291992
 30
-71.27400207519531
 70
   192
  0
VERTEX
  5
5D7
  8
0
 10
9.907999992370605
 20
55.20999908447266
 30
-71.57499694824219
 70
   192
  0
VERTEX
  5
5D8
  8
0
 10
0.101000003516674
 20
55.59500122070312
 30
-71.66600036621094
 70
   192
  0
VERTEX
  5
5D9
  8
0
 10
0.101000003516674
 20
55.37799835205078
 30
-71.73500061035156
 70
   192
  0
VERTEX
  5
5DA
  8
0
 10
0.101000003516674
 20
56.30799865722656
 30
-71.26399993896484
 70
   192
  0
VERTEX
  5
5DB
  8
0
 10
9.904000282287598
 20
56.32600021362305
 30
-70.95099639892578
 70
   192
  0
VERTEX
  5
5DC
  8
0
 10
0.101000003516674
 20
55.73600006103516
 30
-71.58599853515625
 70
   192
  0
VERTEX
  5
5DD
  8
0
 10
0.1000000014901161
 20
54.0
 30
-71.9990005493164
 70
   192
  0
VERTEX
  5
5DE
  8
0
 10
0.1000000014901161
 20
54.81399917602539
 30
-71.91400146484375
 70
   192
  0
VERTEX
  5
5DF
  8
0
 10
9.911999702453613
 20
54.60200119018555
 30
-71.7509994506836
 70
   192
  0
VERTEX
  5
5E0
  8
0
 10
9.907999992370605
 20
55.1510009765625
 30
-71.60199737548828
 70
   192
  0
VERTEX
  5
5E1
  8
0
 10
9.918999671936035
 20
53.82699966430664
 30
-71.8270034790039
 70
   192
  0
VERTEX
  5
5E2
  8
0
 62
     9
 10
0.0
 20
0.0
 30
0.0
 70
   128
 71
     3
 72
     2
 73
     1
  0
VERTEX
  5
5E3
  8
0
 62
     9
 10
0.0
 20
0.0
 30
0.0
 70
   128
 71
     5
 72
     4
 73
     3
  0
VERTEX
  5
5E4
  8
0
 62
     9
 10
0.0
 20
0.0
 30
0.0
 70
   128
 71
     6
 72
     1
 73
     2
  0
VERTEX
  5
5E5
  8
0
 62
     9
 10
0.0
 20
0.0
 30
0.0
 70
   128
 71
     2
 72
     7
 73
     6
  0
VERTEX
  5
5E6
  8
0
 62
     9
 10
0.0
 20
0.0
 30
0.0
 70
   128
 71
     7
 72
     9
 73
     8
  0
VERTEX
  5
5E7
  8
0
 62
     9
 10
0.0
 20
0.0
 30
0.0
 70
   128
 71
     7
 72
     8
 73
     6
  0
VERTEX
  5
5E8
  8
0
 62
     9
 10
0.0
 20
0.0
 30
0.0
 70
   128
 71
    12
 72
    11
 73
    10
  0
VERTEX
  5
5E9
  8
0
 62
     9
 10
0.0
 20
0.0
 30
0.0
 70
   128
 71
    10
 72
    13
 73
    12
  0
VERTEX
  5
5EA
  8
0
 62
     9
 10
0.0
 20
0.0
 30
0.0
 70
   128
 71
    11
 72
     3
 73
     4
  0
VERTEX
  5
5EB
  8
0
 62
     9
 10
0.0
 20
0.0
 30
0.0
 70
   128
 71
    15
 72
    14
 73
    11
  0
VERTEX
  5
5EC
  8
0
 62
     9
 10
0.0
 20
0.0
 30
0.0
 70
   128
 71
    16
 72
    10
 73
    11
  0
VERTEX
  5
5ED
  8
0
 62
     9
 10
0.0
 20
0.0
 30
0.0
 70
   128
 71
    11
 72
    14
 73
    16
  0
VERTEX
  5
5EE
  8
0
 62
     9
 10
0.0
 20
0.0
 30
0.0
 70
   128
 71
     4
 72
    15
 73
    11
  0
VERTEX
  5
5EF
  8
0
 62
     9
 10
0.0
 20
0.0
 30
0.0
 70
   128
 71
    10
 72
    17
 73
    13
  0
VERTEX
  5
5F0
  8
0
 62
     9
 10
0.0
 20
0.0
 30
0.0
 70
   128
 71
    20
 72
    19
 73
    18
  0
VERTEX
  5
5F1
  8
0
 62
     9
 10
0.0
 20
0.0
 30
0.0
 70
   128
 71
    20
 72
    21
 73
    19
  0
VERTEX
  5
5F2
  8
0
 62
     9
 10
0.0
 20
0.0
 30
0.0
 70
   128
 71
    18
 72
    23
 73
    22
  0
VERTEX
  5
5F3
  8
0
 62
     9
 10
0.0
 20
0.0
 30
0.0
 70
   128
 71
    22
 72
    24
 73
    18
  0
VERTEX
  5
5F4
  8
0
 62
     9
 10
0.0
 20
0.0
 30
0.0
 70
   128
 71
    23
 72
    17
 73
    10
  0
VERTEX
  5
5F5
  8
0
 62
     9
 10
0.0
 20
0.0
 30
0.0
 70
   128
 71
    10
 72
    22
 73
    23
  0
VERTEX
  5
5F6
  8
0
 62
     9
 10
0.0
 20
0.0
 30
0.0
 70
   128
 71
    27
 72
    26
 73
    25
  0
VERTEX
  5
5F7
  8
0
 62
     9
 10
0.0
 20
0.0
 30
0.0
 70
   128
 71
    28
 72
    21
 73
    26
  0
VERTEX
  5
5F8
  8
0
 62
     9
 10
0.0
 20
0.0
 30
0.0
 70
   128
 71
    26
 72
    27
 73
    28
  0
VERTEX
  5
5F9
  8
0
 62
     9
 10
0.0
 20
0.0
 30
0.0
 70
   128
 71
    28
 72
    19
 73
    21
  0
VERTEX
  5
5FA
  8
0
 62
     9
 10
0.0
 20
0.0
 30
0.0
 70
   128
 71
    25
 72
    29
 73
    27
  0
VERTEX
  5
5FB
  8
0
 62
     9
 10
0.0
 20
0.0
 30
0.0
 70
   128
 71
    18
 72
    24
 73
    20
  0
VERTEX
  5
5FC
  8
0
 62
     9
 10
0.0
 20
0.0
 30
0.0
 70
   128
 71
     1
 72
     5
 73
     3
  0
SEQEND
  5
5FD
  8
0
 62
     9
  0
ENDBLK
  5
600
  8
0
  0
BLOCK
  8
0
  2
E3_NODE_11_
 70
     0
 10
0.0
 20
0.0
 30
0.0
  3
E3_NODE_11_
  1

  0
POLYLINE
  5
602
  8
0
 62
     9
 66
     1
 10
0.0
 20
0.0
 30
0.0
 70
    64
 71
    29
 72
    27
  0
VERTEX
  5
603
  8
0
 10
0.101000003516674
 20
55.33200073242188
 30
71.7699966430664
 70
   192
  0
VERTEX
  5
604
  8
0
 10
0.1000000014901161
 20
54.5359992980957
 30
71.96199798583984
 70
   192
  0
VERTEX
  5
605
  8
0
 10
9.883000373840332
 20
54.70800018310547
 30
71.7300033569336
 70
   192
  0
VERTEX
  5
606
  8
0
 10
9.880000114440918
 20
55.21200180053711
 30
71.5780029296875
 70
   192
  0
VERTEX
  5
607
  8
0
 10
0.101000003516674
 20
55.38100051879883
 30
71.74600219726562
 70
   192
  0
VERTEX
  5
608
  8
0
 10
0.1000000014901161
 20
54.24300003051758
 30
71.98200225830078
 70
   192
  0
VERTEX
  5
609
  8
0
 10
9.890000343322754
 20
53.9379997253418
 30
71.82599639892578
 70
   192
  0
VERTEX
  5
60A
  8
0
 10
0.1000000014901161
 20
54.0
 30
71.9990005493164
 70
   192
  0
VERTEX
  5
60B
  8
0
 10
9.890999794006348
 20
53.82799911499023
 30
71.8270034790039
 70
   192
  0
VERTEX
  5
60C
  8
0
 10
0.101000003516674
 20
56.81800079345703
 30
70.81900024414062
 70
   192
  0
VERTEX
  5
60D
  8
0
 10
9.880000114440918
 20
55.25299835205078
 30
71.56500244140625
 70
   192
  0
VERTEX
  5
60E
  8
0
 10
9.876999855041504
 20
55.94900131225586
 30
71.21900177001953
 70
   192
  0
VERTEX
  5
60F
  8
0
 10
9.876999855041504
 20
56.40900039672852
 30
70.88400268554688
 70
   192
  0
VERTEX
  5
610
  8
0
 10
0.101000003516674
 20
56.21699905395508
 30
71.30999755859375
 70
   192
  0
VERTEX
  5
611
  8
0
 10
0.101000003516674
 20
56.07199859619141
 30
71.41899871826172
 70
   192
  0
VERTEX
  5
612
  8
0
 10
0.101000003516674
 20
56.72499847412109
 30
70.92500305175781
 70
   192
  0
VERTEX
  5
613
  8
0
 10
9.878000259399414
 20
56.64300155639648
 30
70.64299774169922
 70
   192
  0
VERTEX
  5
614
  8
0
 10
9.881999969482422
 20
57.27500152587891
 30
69.85700225830078
 70
   192
  0
VERTEX
  5
615
  8
0
 10
9.88700008392334
 20
57.57500076293945
 30
69.20999908447266
 70
   192
  0
VERTEX
  5
616
  8
0
 10
0.101000003516674
 20
57.66600036621094
 30
69.59500122070312
 70
   192
  0
VERTEX
  5
617
  8
0
 10
0.101000003516674
 20
57.73500061035156
 30
69.37799835205078
 70
   192
  0
VERTEX
  5
618
  8
0
 10
0.101000003516674
 20
57.26399993896484
 30
70.30799865722656
 70
   192
  0
VERTEX
  5
619
  8
0
 10
9.878999710083008
 20
56.95100021362305
 30
70.32599639892578
 70
   192
  0
VERTEX
  5
61A
  8
0
 10
0.101000003516674
 20
57.58599853515625
 30
69.73600006103516
 70
   192
  0
VERTEX
  5
61B
  8
0
 10
0.1000000014901161
 20
57.99900054931641
 30
68.0
 70
   192
  0
VERTEX
  5
61C
  8
0
 10
0.1000000014901161
 20
57.91400146484375
 30
68.81400299072266
 70
   192
  0
VERTEX
  5
61D
  8
0
 10
9.892999649047852
 20
57.75199890136719
 30
68.60199737548828
 70
   192
  0
VERTEX
  5
61E
  8
0
 10
9.88700008392334
 20
57.60200119018555
 30
69.1520004272461
 70
   192
  0
VERTEX
  5
61F
  8
0
 10
9.902999877929688
 20
57.82699966430664
 30
67.8280029296875
 70
   192
  0
VERTEX
  5
620
  8
0
 62
     9
 10
0.0
 20
0.0
 30
0.0
 70
   128
 71
     3
 72
     2
 73
     1
  0
VERTEX
  5
621
  8
0
 62
     9
 10
0.0
 20
0.0
 30
0.0
 70
   128
 71
     1
 72
     5
 73
     4
  0
VERTEX
  5
622
  8
0
 62
     9
 10
0.0
 20
0.0
 30
0.0
 70
   128
 71
     6
 72
     2
 73
     3
  0
VERTEX
  5
623
  8
0
 62
     9
 10
0.0
 20
0.0
 30
0.0
 70
   128
 71
     3
 72
     7
 73
     6
  0
VERTEX
  5
624
  8
0
 62
     9
 10
0.0
 20
0.0
 30
0.0
 70
   128
 71
     7
 72
     9
 73
     8
  0
VERTEX
  5
625
  8
0
 62
     9
 10
0.0
 20
0.0
 30
0.0
 70
   128
 71
     7
 72
     8
 73
     6
  0
VERTEX
  5
626
  8
0
 62
     9
 10
0.0
 20
0.0
 30
0.0
 70
   128
 71
    12
 72
    11
 73
    10
  0
VERTEX
  5
627
  8
0
 62
     9
 10
0.0
 20
0.0
 30
0.0
 70
   128
 71
    10
 72
    13
 73
    12
  0
VERTEX
  5
628
  8
0
 62
     9
 10
0.0
 20
0.0
 30
0.0
 70
   128
 71
    11
 72
     4
 73
     5
  0
VERTEX
  5
629
  8
0
 62
     9
 10
0.0
 20
0.0
 30
0.0
 70
   128
 71
    15
 72
    14
 73
    11
  0
VERTEX
  5
62A
  8
0
 62
     9
 10
0.0
 20
0.0
 30
0.0
 70
   128
 71
    16
 72
    10
 73
    11
  0
VERTEX
  5
62B
  8
0
 62
     9
 10
0.0
 20
0.0
 30
0.0
 70
   128
 71
    11
 72
    14
 73
    16
  0
VERTEX
  5
62C
  8
0
 62
     9
 10
0.0
 20
0.0
 30
0.0
 70
   128
 71
     5
 72
    15
 73
    11
  0
VERTEX
  5
62D
  8
0
 62
     9
 10
0.0
 20
0.0
 30
0.0
 70
   128
 71
    10
 72
    17
 73
    13
  0
VERTEX
  5
62E
  8
0
 62
     9
 10
0.0
 20
0.0
 30
0.0
 70
   128
 71
    20
 72
    19
 73
    18
  0
VERTEX
  5
62F
  8
0
 62
     9
 10
0.0
 20
0.0
 30
0.0
 70
   128
 71
    20
 72
    21
 73
    19
  0
VERTEX
  5
630
  8
0
 62
     9
 10
0.0
 20
0.0
 30
0.0
 70
   128
 71
    18
 72
    23
 73
    22
  0
VERTEX
  5
631
  8
0
 62
     9
 10
0.0
 20
0.0
 30
0.0
 70
   128
 71
    22
 72
    24
 73
    18
  0
VERTEX
  5
632
  8
0
 62
     9
 10
0.0
 20
0.0
 30
0.0
 70
   128
 71
    23
 72
    17
 73
    10
  0
VERTEX
  5
633
  8
0
 62
     9
 10
0.0
 20
0.0
 30
0.0
 70
   128
 71
    10
 72
    22
 73
    23
  0
VERTEX
  5
634
  8
0
 62
     9
 10
0.0
 20
0.0
 30
0.0
 70
   128
 71
    27
 72
    26
 73
    25
  0
VERTEX
  5
635
  8
0
 62
     9
 10
0.0
 20
0.0
 30
0.0
 70
   128
 71
    28
 72
    21
 73
    26
  0
VERTEX
  5
636
  8
0
 62
     9
 10
0.0
 20
0.0
 30
0.0
 70
   128
 71
    26
 72
    27
 73
    28
  0
VERTEX
  5
637
  8
0
 62
     9
 10
0.0
 20
0.0
 30
0.0
 70
   128
 71
    28
 72
    19
 73
    21
  0
VERTEX
  5
638
  8
0
 62
     9
 10
0.0
 20
0.0
 30
0.0
 70
   128
 71
    25
 72
    29
 73
    27
  0
VERTEX
  5
639
  8
0
 62
     9
 10
0.0
 20
0.0
 30
0.0
 70
   128
 71
    18
 72
    24
 73
    20
  0
VERTEX
  5
63A
  8
0
 62
     9
 10
0.0
 20
0.0
 30
0.0
 70
   128
 71
     1
 72
     4
 73
     3
  0
SEQEND
  5
63B
  8
0
 62
     9
  0
ENDBLK
  5
63E
  8
0
  0
BLOCK
  8
0
  2
E3_NODE_12_
 70
     0
 10
0.0
 20
0.0
 30
0.0
  3
E3_NODE_12_
  1

  0
POLYLINE
  5
640
  8
0
 62
     9
 66
     1
 10
0.0
 20
0.0
 30
0.0
 70
    64
 71
    10
 72
     8
  0
VERTEX
  5
641
  8
0
 10
0.1000000014901161
 20
54.0
 30
-71.9990005493164
 70
   192
  0
VERTEX
  5
642
  8
0
 10
10.16199970245361
 20
18.82399940490723
 30
-71.822998046875
 70
   192
  0
VERTEX
  5
643
  8
0
 10
10.1879997253418
 20
-9.218000411987305
 30
-71.8219985961914
 70
   192
  0
VERTEX
  5
644
  8
0
 10
0.1000000014901161
 20
-54.0
 30
-71.9990005493164
 70
   192
  0
VERTEX
  5
645
  8
0
 10
10.13300037384033
 20
25.78700065612793
 30
-71.822998046875
 70
   192
  0
VERTEX
  5
646
  8
0
 10
10.09799957275391
 20
30.28899955749512
 30
-71.8239974975586
 70
   192
  0
VERTEX
  5
647
  8
0
 10
10.16600036621094
 20
-14.11699962615967
 30
-71.822998046875
 70
   192
  0
VERTEX
  5
648
  8
0
 10
10.0629997253418
 20
-37.25899887084961
 30
-71.8239974975586
 70
   192
  0
VERTEX
  5
649
  8
0
 10
9.918999671936035
 20
53.82699966430664
 30
-71.8270034790039
 70
   192
  0
VERTEX
  5
64A
  8
0
 10
9.918999671936035
 20
-53.82699966430664
 30
-71.8270034790039
 70
   192
  0
VERTEX
  5
64B
  8
0
 62
     9
 10
0.0
 20
0.0
 30
0.0
 70
   128
 71
     3
 72
     2
 73
     1
  0
VERTEX
  5
64C
  8
0
 62
     9
 10
0.0
 20
0.0
 30
0.0
 70
   128
 71
     1
 72
     4
 73
     3
  0
VERTEX
  5
64D
  8
0
 62
     9
 10
0.0
 20
0.0
 30
0.0
 70
   128
 71
     2
 72
     5
 73
     1
  0
VERTEX
  5
64E
  8
0
 62
     9
 10
0.0
 20
0.0
 30
0.0
 70
   128
 71
     5
 72
     6
 73
     1
  0
VERTEX
  5
64F
  8
0
 62
     9
 10
0.0
 20
0.0
 30
0.0
 70
   128
 71
     8
 72
     7
 73
     4
  0
VERTEX
  5
650
  8
0
 62
     9
 10
0.0
 20
0.0
 30
0.0
 70
   128
 71
     6
 72
     9
 73
     1
  0
VERTEX
  5
651
  8
0
 62
     9
 10
0.0
 20
0.0
 30
0.0
 70
   128
 71
     4
 72
     7
 73
     3
  0
VERTEX
  5
652
  8
0
 62
     9
 10
0.0
 20
0.0
 30
0.0
 70
   128
 71
     4
 72
    10
 73
     8
  0
SEQEND
  5
653
  8
0
 62
     9
  0
ENDBLK
  5
656
  8
0
  0
BLOCK
  8
0
  2
E3_NODE_13_
 70
     0
 10
0.0
 20
0.0
 30
0.0
  3
E3_NODE_13_
  1

  0
POLYLINE
  5
658
  8
0
 62
     9
 66
     1
 10
0.0
 20
0.0
 30
0.0
 70
    64
 71
     4
 72
     2
  0
VERTEX
  5
659
  8
0
 10
0.0
 20
-54.00099945068359
 30
-72.0
 70
   192
  0
VERTEX
  5
65A
  8
0
 10
0.0
 20
54.00099945068359
 30
-72.0
 70
   192
  0
VERTEX
  5
65B
  8
0
 10
0.1000000014901161
 20
54.0
 30
-71.9990005493164
 70
   192
  0
VERTEX
  5
65C
  8
0
 10
0.1000000014901161
 20
-54.0
 30
-71.9990005493164
 70
   192
  0
VERTEX
  5
65D
  8
0
 62
     9
 10
0.0
 20
0.0
 30
0.0
 70
   128
 71
     3
 72
     2
 73
     1
  0
VERTEX
  5
65E
  8
0
 62
     9
 10
0.0
 20
0.0
 30
0.0
 70
   128
 71
     1
 72
     4
 73
     3
  0
SEQEND
  5
65F
  8
0
 62
     9
  0
ENDBLK
  5
662
  8
0
  0
BLOCK
  8
0
  2
E3_NODE_14_
 70
     0
 10
0.0
 20
0.0
 30
0.0
  3
E3_NODE_14_
  1

  0
POLYLINE
  5
664
  8
0
 62
     9
 66
     1
 10
0.0
 20
0.0
 30
0.0
 70
    64
 71
    20
 72
    18
  0
VERTEX
  5
665
  8
0
 10
0.0
 20
-56.22700119018555
 30
-71.322998046875
 70
   192
  0
VERTEX
  5
666
  8
0
 10
0.101000003516674
 20
-55.38100051879883
 30
-71.74600219726562
 70
   192
  0
VERTEX
  5
667
  8
0
 10
0.101000003516674
 20
-56.07199859619141
 30
-71.41899871826172
 70
   192
  0
VERTEX
  5
668
  8
0
 10
0.101000003516674
 20
-55.33200073242188
 30
-71.7699966430664
 70
   192
  0
VERTEX
  5
669
  8
0
 10
0.0
 20
-54.24399948120117
 30
-71.99299621582031
 70
   192
  0
VERTEX
  5
66A
  8
0
 10
0.1000000014901161
 20
-54.5359992980957
 30
-71.96199798583984
 70
   192
  0
VERTEX
  5
66B
  8
0
 10
0.1000000014901161
 20
-54.24300003051758
 30
-71.98200225830078
 70
   192
  0
VERTEX
  5
66C
  8
0
 10
0.0
 20
-57.59999847412109
 30
-69.74400329589844
 70
   192
  0
VERTEX
  5
66D
  8
0
 10
0.101000003516674
 20
-56.81800079345703
 30
-70.81900024414062
 70
   192
  0
VERTEX
  5
66E
  8
0
 10
0.101000003516674
 20
-57.26399993896484
 30
-70.30799865722656
 70
   192
  0
VERTEX
  5
66F
  8
0
 10
0.101000003516674
 20
-56.21699905395508
 30
-71.30999755859375
 70
   192
  0
VERTEX
  5
670
  8
0
 10
0.101000003516674
 20
-56.72499847412109
 30
-70.92500305175781
 70
   192
  0
VERTEX
  5
671
  8
0
 10
0.0
 20
-54.00099945068359
 30
-72.0
 70
   192
  0
VERTEX
  5
672
  8
0
 10
0.101000003516674
 20
-57.73500061035156
 30
-69.37799835205078
 70
   192
  0
VERTEX
  5
673
  8
0
 10
0.1000000014901161
 20
-57.91400146484375
 30
-68.81400299072266
 70
   192
  0
VERTEX
  5
674
  8
0
 10
0.101000003516674
 20
-57.58599853515625
 30
-69.73600006103516
 70
   192
  0
VERTEX
  5
675
  8
0
 10
0.101000003516674
 20
-57.66600036621094
 30
-69.59500122070312
 70
   192
  0
VERTEX
  5
676
  8
0
 10
0.0
 20
-58.0
 30
-68.0009994506836
 70
   192
  0
VERTEX
  5
677
  8
0
 10
0.1000000014901161
 20
-57.99900054931641
 30
-68.0
 70
   192
  0
VERTEX
  5
678
  8
0
 10
0.1000000014901161
 20
-54.0
 30
-71.9990005493164
 70
   192
  0
VERTEX
  5
679
  8
0
 62
     9
 10
0.0
 20
0.0
 30
0.0
 70
   128
 71
     3
 72
     2
 73
     1
  0
VERTEX
  5
67A
  8
0
 62
     9
 10
0.0
 20
0.0
 30
0.0
 70
   128
 71
     2
 72
     4
 73
     1
  0
VERTEX
  5
67B
  8
0
 62
     9
 10
0.0
 20
0.0
 30
0.0
 70
   128
 71
     4
 72
     6
 73
     5
  0
VERTEX
  5
67C
  8
0
 62
     9
 10
0.0
 20
0.0
 30
0.0
 70
   128
 71
     5
 72
     1
 73
     4
  0
VERTEX
  5
67D
  8
0
 62
     9
 10
0.0
 20
0.0
 30
0.0
 70
   128
 71
     6
 72
     7
 73
     5
  0
VERTEX
  5
67E
  8
0
 62
     9
 10
0.0
 20
0.0
 30
0.0
 70
   128
 71
     9
 72
     1
 73
     8
  0
VERTEX
  5
67F
  8
0
 62
     9
 10
0.0
 20
0.0
 30
0.0
 70
   128
 71
     8
 72
    10
 73
     9
  0
VERTEX
  5
680
  8
0
 62
     9
 10
0.0
 20
0.0
 30
0.0
 70
   128
 71
    12
 72
    11
 73
     1
  0
VERTEX
  5
681
  8
0
 62
     9
 10
0.0
 20
0.0
 30
0.0
 70
   128
 71
     1
 72
     9
 73
    12
  0
VERTEX
  5
682
  8
0
 62
     9
 10
0.0
 20
0.0
 30
0.0
 70
   128
 71
    13
 72
     5
 73
     7
  0
VERTEX
  5
683
  8
0
 62
     9
 10
0.0
 20
0.0
 30
0.0
 70
   128
 71
    15
 72
    14
 73
     8
  0
VERTEX
  5
684
  8
0
 62
     9
 10
0.0
 20
0.0
 30
0.0
 70
   128
 71
    17
 72
    16
 73
     8
  0
VERTEX
  5
685
  8
0
 62
     9
 10
0.0
 20
0.0
 30
0.0
 70
   128
 71
     8
 72
    14
 73
    17
  0
VERTEX
  5
686
  8
0
 62
     9
 10
0.0
 20
0.0
 30
0.0
 70
   128
 71
     8
 72
    18
 73
    15
  0
VERTEX
  5
687
  8
0
 62
     9
 10
0.0
 20
0.0
 30
0.0
 70
   128
 71
    18
 72
    19
 73
    15
  0
VERTEX
  5
688
  8
0
 62
     9
 10
0.0
 20
0.0
 30
0.0
 70
   128
 71
     7
 72
    20
 73
    13
  0
VERTEX
  5
689
  8
0
 62
     9
 10
0.0
 20
0.0
 30
0.0
 70
   128
 71
     8
 72
    16
 73
    10
  0
VERTEX
  5
68A
  8
0
 62
     9
 10
0.0
 20
0.0
 30
0.0
 70
   128
 71
     1
 72
    11
 73
     3
  0
SEQEND
  5
68B
  8
0
 62
     9
  0
ENDBLK
  5
68E
  8
0
  0
BLOCK
  8
0
  2
E3_NODE_15_
 70
     0
 10
0.0
 20
0.0
 30
0.0
  3
E3_NODE_15_
  1

  0
POLYLINE
  5
690
  8
0
 62
     9
 66
     1
 10
0.0
 20
0.0
 30
0.0
 70
    64
 71
     4
 72
     2
  0
VERTEX
  5
691
  8
0
 10
0.0
 20
-58.0
 30
-68.0009994506836
 70
   192
  0
VERTEX
  5
692
  8
0
 10
0.1000000014901161
 20
-57.99900054931641
 30
-68.0
 70
   192
  0
VERTEX
  5
693
  8
0
 10
0.1000000014901161
 20
-57.99900054931641
 30
68.0
 70
   192
  0
VERTEX
  5
694
  8
0
 10
0.0
 20
-58.0
 30
68.0009994506836
 70
   192
  0
VERTEX
  5
695
  8
0
 62
     9
 10
0.0
 20
0.0
 30
0.0
 70
   128
 71
     3
 72
     2
 73
     1
  0
VERTEX
  5
696
  8
0
 62
     9
 10
0.0
 20
0.0
 30
0.0
 70
   128
 71
     1
 72
     4
 73
     3
  0
SEQEND
  5
697
  8
0
 62
     9
  0
ENDBLK
  5
69A
  8
0
  0
BLOCK
  8
0
  2
E3_NODE_16_
 70
     0
 10
0.0
 20
0.0
 30
0.0
  3
E3_NODE_16_
  1

  0
POLYLINE
  5
69C
  8
0
 62
     9
 66
     1
 10
0.0
 20
0.0
 30
0.0
 70
    64
 71
    11
 72
     9
  0
VERTEX
  5
69D
  8
0
 10
0.1000000014901161
 20
-57.99900054931641
 30
68.0
 70
   192
  0
VERTEX
  5
69E
  8
0
 10
0.1000000014901161
 20
-57.99900054931641
 30
-68.0
 70
   192
  0
VERTEX
  5
69F
  8
0
 10
10.33800029754639
 20
-57.81999969482422
 30
0.0
 70
   192
  0
VERTEX
  5
6A0
  8
0
 10
10.21000003814697
 20
-57.82199859619141
 30
-39.97999954223633
 70
   192
  0
VERTEX
  5
6A1
  8
0
 10
10.21199989318848
 20
-57.82199859619141
 30
-39.78499984741211
 70
   192
  0
VERTEX
  5
6A2
  8
0
 10
10.1850004196167
 20
-57.82199859619141
 30
39.97900009155273
 70
   192
  0
VERTEX
  5
6A3
  8
0
 10
10.15900039672852
 20
-57.82300186157227
 30
44.34199905395508
 70
   192
  0
VERTEX
  5
6A4
  8
0
 10
10.32699966430664
 20
-57.81999969482422
 30
16.29999923706055
 70
   192
  0
VERTEX
  5
6A5
  8
0
 10
10.34500026702881
 20
-57.81900024414062
 30
-11.74199962615967
 70
   192
  0
VERTEX
  5
6A6
  8
0
 10
9.928999900817871
 20
-57.82699966430664
 30
-67.8270034790039
 70
   192
  0
VERTEX
  5
6A7
  8
0
 10
9.902999877929688
 20
-57.82699966430664
 30
67.8280029296875
 70
   192
  0
VERTEX
  5
6A8
  8
0
 62
     9
 10
0.0
 20
0.0
 30
0.0
 70
   128
 71
     3
 72
     2
 73
     1
  0
VERTEX
  5
6A9
  8
0
 62
     9
 10
0.0
 20
0.0
 30
0.0
 70
   128
 71
     5
 72
     4
 73
     2
  0
VERTEX
  5
6AA
  8
0
 62
     9
 10
0.0
 20
0.0
 30
0.0
 70
   128
 71
     7
 72
     6
 73
     1
  0
VERTEX
  5
6AB
  8
0
 62
     9
 10
0.0
 20
0.0
 30
0.0
 70
   128
 71
     1
 72
     8
 73
     3
  0
VERTEX
  5
6AC
  8
0
 62
     9
 10
0.0
 20
0.0
 30
0.0
 70
   128
 71
     2
 72
     9
 73
     5
  0
VERTEX
  5
6AD
  8
0
 62
     9
 10
0.0
 20
0.0
 30
0.0
 70
   128
 71
     1
 72
     6
 73
     8
  0
VERTEX
  5
6AE
  8
0
 62
     9
 10
0.0
 20
0.0
 30
0.0
 70
   128
 71
     4
 72
    10
 73
     2
  0
VERTEX
  5
6AF
  8
0
 62
     9
 10
0.0
 20
0.0
 30
0.0
 70
   128
 71
     2
 72
     3
 73
     9
  0
VERTEX
  5
6B0
  8
0
 62
     9
 10
0.0
 20
0.0
 30
0.0
 70
   128
 71
     1
 72
    11
 73
     7
  0
SEQEND
  5
6B1
  8
0
 62
     9
  0
ENDBLK
  5
6B4
  8
0
  0
BLOCK
  8
0
  2
E3_NODE_17_
 70
     0
 10
0.0
 20
0.0
 30
0.0
  3
E3_NODE_17_
  1

  0
POLYLINE
  5
6B6
  8
0
 62
     9
 66
     1
 10
0.0
 20
0.0
 30
0.0
 70
    64
 71
    20
 72
    18
  0
VERTEX
  5
6B7
  8
0
 10
0.0
 20
-57.32300186157227
 30
70.22699737548828
 70
   192
  0
VERTEX
  5
6B8
  8
0
 10
0.101000003516674
 20
-57.74599838256836
 30
69.38099670410156
 70
   192
  0
VERTEX
  5
6B9
  8
0
 10
0.101000003516674
 20
-57.41899871826172
 30
70.0719985961914
 70
   192
  0
VERTEX
  5
6BA
  8
0
 10
0.101000003516674
 20
-57.77000045776367
 30
69.33200073242188
 70
   192
  0
VERTEX
  5
6BB
  8
0
 10
0.0
 20
-57.99300003051758
 30
68.24400329589844
 70
   192
  0
VERTEX
  5
6BC
  8
0
 10
0.1000000014901161
 20
-57.96200180053711
 30
68.53600311279297
 70
   192
  0
VERTEX
  5
6BD
  8
0
 10
0.1000000014901161
 20
-57.98199844360352
 30
68.24299621582031
 70
   192
  0
VERTEX
  5
6BE
  8
0
 10
0.0
 20
-55.74399948120117
 30
71.5999984741211
 70
   192
  0
VERTEX
  5
6BF
  8
0
 10
0.101000003516674
 20
-56.81900024414062
 30
70.81800079345703
 70
   192
  0
VERTEX
  5
6C0
  8
0
 10
0.101000003516674
 20
-56.30799865722656
 30
71.26399993896484
 70
   192
  0
VERTEX
  5
6C1
  8
0
 10
0.101000003516674
 20
-57.31000137329102
 30
70.21700286865234
 70
   192
  0
VERTEX
  5
6C2
  8
0
 10
0.101000003516674
 20
-56.92499923706055
 30
70.7249984741211
 70
   192
  0
VERTEX
  5
6C3
  8
0
 10
0.0
 20
-58.0
 30
68.0009994506836
 70
   192
  0
VERTEX
  5
6C4
  8
0
 10
0.101000003516674
 20
-55.37799835205078
 30
71.73500061035156
 70
   192
  0
VERTEX
  5
6C5
  8
0
 10
0.1000000014901161
 20
-54.81399917602539
 30
71.91400146484375
 70
   192
  0
VERTEX
  5
6C6
  8
0
 10
0.101000003516674
 20
-55.73600006103516
 30
71.58599853515625
 70
   192
  0
VERTEX
  5
6C7
  8
0
 10
0.101000003516674
 20
-55.59500122070312
 30
71.66600036621094
 70
   192
  0
VERTEX
  5
6C8
  8
0
 10
0.0
 20
-54.00099945068359
 30
72.0
 70
   192
  0
VERTEX
  5
6C9
  8
0
 10
0.1000000014901161
 20
-54.0
 30
71.9990005493164
 70
   192
  0
VERTEX
  5
6CA
  8
0
 10
0.1000000014901161
 20
-57.99900054931641
 30
68.0
 70
   192
  0
VERTEX
  5
6CB
  8
0
 62
     9
 10
0.0
 20
0.0
 30
0.0
 70
   128
 71
     3
 72
     2
 73
     1
  0
VERTEX
  5
6CC
  8
0
 62
     9
 10
0.0
 20
0.0
 30
0.0
 70
   128
 71
     2
 72
     4
 73
     1
  0
VERTEX
  5
6CD
  8
0
 62
     9
 10
0.0
 20
0.0
 30
0.0
 70
   128
 71
     4
 72
     6
 73
     5
  0
VERTEX
  5
6CE
  8
0
 62
     9
 10
0.0
 20
0.0
 30
0.0
 70
   128
 71
     5
 72
     1
 73
     4
  0
VERTEX
  5
6CF
  8
0
 62
     9
 10
0.0
 20
0.0
 30
0.0
 70
   128
 71
     6
 72
     7
 73
     5
  0
VERTEX
  5
6D0
  8
0
 62
     9
 10
0.0
 20
0.0
 30
0.0
 70
   128
 71
     9
 72
     1
 73
     8
  0
VERTEX
  5
6D1
  8
0
 62
     9
 10
0.0
 20
0.0
 30
0.0
 70
   128
 71
     8
 72
    10
 73
     9
  0
VERTEX
  5
6D2
  8
0
 62
     9
 10
0.0
 20
0.0
 30
0.0
 70
   128
 71
    12
 72
    11
 73
     1
  0
VERTEX
  5
6D3
  8
0
 62
     9
 10
0.0
 20
0.0
 30
0.0
 70
   128
 71
     1
 72
     9
 73
    12
  0
VERTEX
  5
6D4
  8
0
 62
     9
 10
0.0
 20
0.0
 30
0.0
 70
   128
 71
    13
 72
     5
 73
     7
  0
VERTEX
  5
6D5
  8
0
 62
     9
 10
0.0
 20
0.0
 30
0.0
 70
   128
 71
    15
 72
    14
 73
     8
  0
VERTEX
  5
6D6
  8
0
 62
     9
 10
0.0
 20
0.0
 30
0.0
 70
   128
 71
    17
 72
    16
 73
     8
  0
VERTEX
  5
6D7
  8
0
 62
     9
 10
0.0
 20
0.0
 30
0.0
 70
   128
 71
     8
 72
    14
 73
    17
  0
VERTEX
  5
6D8
  8
0
 62
     9
 10
0.0
 20
0.0
 30
0.0
 70
   128
 71
     8
 72
    18
 73
    15
  0
VERTEX
  5
6D9
  8
0
 62
     9
 10
0.0
 20
0.0
 30
0.0
 70
   128
 71
    18
 72
    19
 73
    15
  0
VERTEX
  5
6DA
  8
0
 62
     9
 10
0.0
 20
0.0
 30
0.0
 70
   128
 71
     7
 72
    20
 73
    13
  0
VERTEX
  5
6DB
  8
0
 62
     9
 10
0.0
 20
0.0
 30
0.0
 70
   128
 71
     8
 72
    16
 73
    10
  0
VERTEX
  5
6DC
  8
0
 62
     9
 10
0.0
 20
0.0
 30
0.0
 70
   128
 71
     1
 72
    11
 73
     3
  0
SEQEND
  5
6DD
  8
0
 62
     9
  0
ENDBLK
  5
6E0
  8
0
  0
BLOCK
  8
0
  2
E3_NODE_18_
 70
     0
 10
0.0
 20
0.0
 30
0.0
  3
E3_NODE_18_
  1

  0
POLYLINE
  5
6E2
  8
0
 62
     9
 66
     1
 10
0.0
 20
0.0
 30
0.0
 70
    64
 71
     4
 72
     2
  0
VERTEX
  5
6E3
  8
0
 10
0.0
 20
54.00099945068359
 30
72.0
 70
   192
  0
VERTEX
  5
6E4
  8
0
 10
0.0
 20
-54.00099945068359
 30
72.0
 70
   192
  0
VERTEX
  5
6E5
  8
0
 10
0.1000000014901161
 20
-54.0
 30
71.9990005493164
 70
   192
  0
VERTEX
  5
6E6
  8
0
 10
0.1000000014901161
 20
54.0
 30
71.9990005493164
 70
   192
  0
VERTEX
  5
6E7
  8
0
 62
     9
 10
0.0
 20
0.0
 30
0.0
 70
   128
 71
     3
 72
     2
 73
     1
  0
VERTEX
  5
6E8
  8
0
 62
     9
 10
0.0
 20
0.0
 30
0.0
 70
   128
 71
     1
 72
     4
 73
     3
  0
SEQEND
  5
6E9
  8
0
 62
     9
  0
ENDBLK
  5
6EC
  8
0
  0
BLOCK
  8
0
  2
E3_NODE_19_
 70
     0
 10
0.0
 20
0.0
 30
0.0
  3
E3_NODE_19_
  1

  0
POLYLINE
  5
6EE
  8
0
 62
     9
 66
     1
 10
0.0
 20
0.0
 30
0.0
 70
    64
 71
    10
 72
     8
  0
VERTEX
  5
6EF
  8
0
 10
0.1000000014901161
 20
-54.0
 30
71.9990005493164
 70
   192
  0
VERTEX
  5
6F0
  8
0
 10
10.13899993896484
 20
-14.11699962615967
 30
71.822998046875
 70
   192
  0
VERTEX
  5
6F1
  8
0
 10
10.15999984741211
 20
9.217000007629395
 30
71.822998046875
 70
   192
  0
VERTEX
  5
6F2
  8
0
 10
0.1000000014901161
 20
54.0
 30
71.9990005493164
 70
   192
  0
VERTEX
  5
6F3
  8
0
 10
10.06700038909912
 20
30.28899955749512
 30
71.8239974975586
 70
   192
  0
VERTEX
  5
6F4
  8
0
 10
10.03600025177002
 20
37.25799942016602
 30
71.82499694824219
 70
   192
  0
VERTEX
  5
6F5
  8
0
 10
10.10499954223633
 20
-25.78800010681152
 30
71.8239974975586
 70
   192
  0
VERTEX
  5
6F6
  8
0
 10
10.13399982452393
 20
-18.82500076293945
 30
71.822998046875
 70
   192
  0
VERTEX
  5
6F7
  8
0
 10
9.890999794006348
 20
-53.82799911499023
 30
71.8270034790039
 70
   192
  0
VERTEX
  5
6F8
  8
0
 10
9.890999794006348
 20
53.82799911499023
 30
71.8270034790039
 70
   192
  0
VERTEX
  5
6F9
  8
0
 62
     9
 10
0.0
 20
0.0
 30
0.0
 70
   128
 71
     3
 72
     2
 73
     1
  0
VERTEX
  5
6FA
  8
0
 62
     9
 10
0.0
 20
0.0
 30
0.0
 70
   128
 71
     6
 72
     5
 73
     4
  0
VERTEX
  5
6FB
  8
0
 62
     9
 10
0.0
 20
0.0
 30
0.0
 70
   128
 71
     1
 72
     4
 73
     3
  0
VERTEX
  5
6FC
  8
0
 62
     9
 10
0.0
 20
0.0
 30
0.0
 70
   128
 71
     8
 72
     7
 73
     1
  0
VERTEX
  5
6FD
  8
0
 62
     9
 10
0.0
 20
0.0
 30
0.0
 70
   128
 71
     4
 72
     5
 73
     3
  0
VERTEX
  5
6FE
  8
0
 62
     9
 10
0.0
 20
0.0
 30
0.0
 70
   128
 71
     7
 72
     9
 73
     1
  0
VERTEX
  5
6FF
  8
0
 62
     9
 10
0.0
 20
0.0
 30
0.0
 70
   128
 71
     1
 72
     2
 73
     8
  0
VERTEX
  5
700
  8
0
 62
     9
 10
0.0
 20
0.0
 30
0.0
 70
   128
 71
     4
 72
    10
 73
     6
  0
SEQEND
  5
701
  8
0
 62
     9
  0
ENDBLK
  5
704
  8
0
  0
BLOCK
  8
0
  2
E3_NODE_20_
 70
     0
 10
0.0
 20
0.0
 30
0.0
  3
E3_NODE_20_
  1

  0
POLYLINE
  5
706
  8
0
 62
     9
 66
     1
 10
0.0
 20
0.0
 30
0.0
 70
    64
 71
    24
 72
    24
  0
VERTEX
  5
707
  8
0
 10
0.0
 20
-40.01300048828125
 30
-51.66299819946289
 70
   192
  0
VERTEX
  5
708
  8
0
 10
0.0
 20
-54.24399948120117
 30
-71.99299621582031
 70
   192
  0
VERTEX
  5
709
  8
0
 10
0.0
 20
-56.22700119018555
 30
-71.322998046875
 70
   192
  0
VERTEX
  5
70A
  8
0
 10
0.0
 20
-54.00099945068359
 30
-72.0
 70
   192
  0
VERTEX
  5
70B
  8
0
 10
0.0
 20
36.95299911499023
 30
-51.66299819946289
 70
   192
  0
VERTEX
  5
70C
  8
0
 10
0.0
 20
-58.0
 30
68.0009994506836
 70
   192
  0
VERTEX
  5
70D
  8
0
 10
0.0
 20
-40.01300048828125
 30
52.60499954223633
 70
   192
  0
VERTEX
  5
70E
  8
0
 10
0.0
 20
55.74399948120117
 30
-71.5999984741211
 70
   192
  0
VERTEX
  5
70F
  8
0
 10
0.0
 20
54.00099945068359
 30
-72.0
 70
   192
  0
VERTEX
  5
710
  8
0
 10
0.0
 20
-57.99300003051758
 30
68.24400329589844
 70
   192
  0
VERTEX
  5
711
  8
0
 10
0.0
 20
-57.59999847412109
 30
-69.74400329589844
 70
   192
  0
VERTEX
  5
712
  8
0
 10
0.0
 20
-58.0
 30
-68.0009994506836
 70
   192
  0
VERTEX
  5
713
  8
0
 10
0.0
 20
-54.00099945068359
 30
72.0
 70
   192
  0
VERTEX
  5
714
  8
0
 10
0.0
 20
54.00099945068359
 30
72.0
 70
   192
  0
VERTEX
  5
715
  8
0
 10
0.0
 20
36.95299911499023
 30
52.60499954223633
 70
   192
  0
VERTEX
  5
716
  8
0
 10
0.0
 20
-57.32300186157227
 30
70.22699737548828
 70
   192
  0
VERTEX
  5
717
  8
0
 10
0.0
 20
-55.74399948120117
 30
71.5999984741211
 70
   192
  0
VERTEX
  5
718
  8
0
 10
0.0
 20
57.99300003051758
 30
-68.24400329589844
 70
   192
  0
VERTEX
  5
719
  8
0
 10
0.0
 20
57.32300186157227
 30
-70.22699737548828
 70
   192
  0
VERTEX
  5
71A
  8
0
 10
0.0
 20
58.0
 30
68.0009994506836
 70
   192
  0
VERTEX
  5
71B
  8
0
 10
0.0
 20
58.0
 30
-68.0009994506836
 70
   192
  0
VERTEX
  5
71C
  8
0
 10
0.0
 20
56.22700119018555
 30
71.322998046875
 70
   192
  0
VERTEX
  5
71D
  8
0
 10
0.0
 20
57.59999847412109
 30
69.74400329589844
 70
   192
  0
VERTEX
  5
71E
  8
0
 10
0.0
 20
54.24399948120117
 30
71.99299621582031
 70
   192
  0
VERTEX
  5
71F
  8
0
 62
     9
 10
0.0
 20
0.0
 30
0.0
 70
   128
 71
     3
 72
     2
 73
     1
  0
VERTEX
  5
720
  8
0
 62
     9
 10
0.0
 20
0.0
 30
0.0
 70
   128
 71
     5
 72
     1
 73
     4
  0
VERTEX
  5
721
  8
0
 62
     9
 10
0.0
 20
0.0
 30
0.0
 70
   128
 71
     1
 72
     7
 73
     6
  0
VERTEX
  5
722
  8
0
 62
     9
 10
0.0
 20
0.0
 30
0.0
 70
   128
 71
     2
 72
     4
 73
     1
  0
VERTEX
  5
723
  8
0
 62
     9
 10
0.0
 20
0.0
 30
0.0
 70
   128
 71
     9
 72
     8
 73
     5
  0
VERTEX
  5
724
  8
0
 62
     9
 10
0.0
 20
0.0
 30
0.0
 70
   128
 71
    10
 72
     6
 73
     7
  0
VERTEX
  5
725
  8
0
 62
     9
 10
0.0
 20
0.0
 30
0.0
 70
   128
 71
    12
 72
    11
 73
     1
  0
VERTEX
  5
726
  8
0
 62
     9
 10
0.0
 20
0.0
 30
0.0
 70
   128
 71
    15
 72
    14
 73
    13
  0
VERTEX
  5
727
  8
0
 62
     9
 10
0.0
 20
0.0
 30
0.0
 70
   128
 71
    17
 72
    16
 73
     7
  0
VERTEX
  5
728
  8
0
 62
     9
 10
0.0
 20
0.0
 30
0.0
 70
   128
 71
    19
 72
    18
 73
     5
  0
VERTEX
  5
729
  8
0
 62
     9
 10
0.0
 20
0.0
 30
0.0
 70
   128
 71
     5
 72
    21
 73
    20
  0
VERTEX
  5
72A
  8
0
 62
     9
 10
0.0
 20
0.0
 30
0.0
 70
   128
 71
    23
 72
    22
 73
    15
  0
VERTEX
  5
72B
  8
0
 62
     9
 10
0.0
 20
0.0
 30
0.0
 70
   128
 71
     4
 72
     9
 73
     5
  0
VERTEX
  5
72C
  8
0
 62
     9
 10
0.0
 20
0.0
 30
0.0
 70
   128
 71
     6
 72
    12
 73
     1
  0
VERTEX
  5
72D
  8
0
 62
     9
 10
0.0
 20
0.0
 30
0.0
 70
   128
 71
    24
 72
    14
 73
    15
  0
VERTEX
  5
72E
  8
0
 62
     9
 10
0.0
 20
0.0
 30
0.0
 70
   128
 71
     7
 72
    13
 73
    17
  0
VERTEX
  5
72F
  8
0
 62
     9
 10
0.0
 20
0.0
 30
0.0
 70
   128
 71
    18
 72
    21
 73
     5
  0
VERTEX
  5
730
  8
0
 62
     9
 10
0.0
 20
0.0
 30
0.0
 70
   128
 71
    15
 72
    20
 73
    23
  0
VERTEX
  5
731
  8
0
 62
     9
 10
0.0
 20
0.0
 30
0.0
 70
   128
 71
     7
 72
    16
 73
    10
  0
VERTEX
  5
732
  8
0
 62
     9
 10
0.0
 20
0.0
 30
0.0
 70
   128
 71
    13
 72
     7
 73
    15
  0
VERTEX
  5
733
  8
0
 62
     9
 10
0.0
 20
0.0
 30
0.0
 70
   128
 71
    20
 72
    15
 73
     5
  0
VERTEX
  5
734
  8
0
 62
     9
 10
0.0
 20
0.0
 30
0.0
 70
   128
 71
    15
 72
    22
 73
    24
  0
VERTEX
  5
735
  8
0
 62
     9
 10
0.0
 20
0.0
 30
0.0
 70
   128
 71
     1
 72
    11
 73
     3
  0
VERTEX
  5
736
  8
0
 62
     9
 10
0.0
 20
0.0
 30
0.0
 70
   128
 71
     5
 72
     8
 73
    19
  0
SEQEND
  5
737
  8
0
 62
     9
  0
ENDBLK
  5
73A
  8
0
  0
BLOCK
  8
0
  2
E3_NODE_21_
 70
     0
 10
0.0
 20
0.0
 30
0.0
  3
E3_NODE_21_
  1

  0
POLYLINE
  5
73C
  8
0
 62
     9
 66
     1
 10
0.0
 20
0.0
 30
0.0
 70
    64
 71
    20
 72
    18
  0
VERTEX
  5
73D
  8
0
 10
0.0
 20
56.22700119018555
 30
71.322998046875
 70
   192
  0
VERTEX
  5
73E
  8
0
 10
0.101000003516674
 20
55.38100051879883
 30
71.74600219726562
 70
   192
  0
VERTEX
  5
73F
  8
0
 10
0.101000003516674
 20
56.07199859619141
 30
71.41899871826172
 70
   192
  0
VERTEX
  5
740
  8
0
 10
0.101000003516674
 20
55.33200073242188
 30
71.7699966430664
 70
   192
  0
VERTEX
  5
741
  8
0
 10
0.0
 20
54.24399948120117
 30
71.99299621582031
 70
   192
  0
VERTEX
  5
742
  8
0
 10
0.1000000014901161
 20
54.5359992980957
 30
71.96199798583984
 70
   192
  0
VERTEX
  5
743
  8
0
 10
0.1000000014901161
 20
54.24300003051758
 30
71.98200225830078
 70
   192
  0
VERTEX
  5
744
  8
0
 10
0.0
 20
57.59999847412109
 30
69.74400329589844
 70
   192
  0
VERTEX
  5
745
  8
0
 10
0.101000003516674
 20
56.81800079345703
 30
70.81900024414062
 70
   192
  0
VERTEX
  5
746
  8
0
 10
0.101000003516674
 20
57.26399993896484
 30
70.30799865722656
 70
   192
  0
VERTEX
  5
747
  8
0
 10
0.101000003516674
 20
56.21699905395508
 30
71.30999755859375
 70
   192
  0
VERTEX
  5
748
  8
0
 10
0.101000003516674
 20
56.72499847412109
 30
70.92500305175781
 70
   192
  0
VERTEX
  5
749
  8
0
 10
0.0
 20
54.00099945068359
 30
72.0
 70
   192
  0
VERTEX
  5
74A
  8
0
 10
0.101000003516674
 20
57.73500061035156
 30
69.37799835205078
 70
   192
  0
VERTEX
  5
74B
  8
0
 10
0.1000000014901161
 20
57.91400146484375
 30
68.81400299072266
 70
   192
  0
VERTEX
  5
74C
  8
0
 10
0.101000003516674
 20
57.58599853515625
 30
69.73600006103516
 70
   192
  0
VERTEX
  5
74D
  8
0
 10
0.101000003516674
 20
57.66600036621094
 30
69.59500122070312
 70
   192
  0
VERTEX
  5
74E
  8
0
 10
0.0
 20
58.0
 30
68.0009994506836
 70
   192
  0
VERTEX
  5
74F
  8
0
 10
0.1000000014901161
 20
57.99900054931641
 30
68.0
 70
   192
  0
VERTEX
  5
750
  8
0
 10
0.1000000014901161
 20
54.0
 30
71.9990005493164
 70
   192
  0
VERTEX
  5
751
  8
0
 62
     9
 10
0.0
 20
0.0
 30
0.0
 70
   128
 71
     3
 72
     2
 73
     1
  0
VERTEX
  5
752
  8
0
 62
     9
 10
0.0
 20
0.0
 30
0.0
 70
   128
 71
     2
 72
     4
 73
     1
  0
VERTEX
  5
753
  8
0
 62
     9
 10
0.0
 20
0.0
 30
0.0
 70
   128
 71
     4
 72
     6
 73
     5
  0
VERTEX
  5
754
  8
0
 62
     9
 10
0.0
 20
0.0
 30
0.0
 70
   128
 71
     5
 72
     1
 73
     4
  0
VERTEX
  5
755
  8
0
 62
     9
 10
0.0
 20
0.0
 30
0.0
 70
   128
 71
     6
 72
     7
 73
     5
  0
VERTEX
  5
756
  8
0
 62
     9
 10
0.0
 20
0.0
 30
0.0
 70
   128
 71
     9
 72
     1
 73
     8
  0
VERTEX
  5
757
  8
0
 62
     9
 10
0.0
 20
0.0
 30
0.0
 70
   128
 71
     8
 72
    10
 73
     9
  0
VERTEX
  5
758
  8
0
 62
     9
 10
0.0
 20
0.0
 30
0.0
 70
   128
 71
    12
 72
    11
 73
     1
  0
VERTEX
  5
759
  8
0
 62
     9
 10
0.0
 20
0.0
 30
0.0
 70
   128
 71
     1
 72
     9
 73
    12
  0
VERTEX
  5
75A
  8
0
 62
     9
 10
0.0
 20
0.0
 30
0.0
 70
   128
 71
    13
 72
     5
 73
     7
  0
VERTEX
  5
75B
  8
0
 62
     9
 10
0.0
 20
0.0
 30
0.0
 70
   128
 71
    15
 72
    14
 73
     8
  0
VERTEX
  5
75C
  8
0
 62
     9
 10
0.0
 20
0.0
 30
0.0
 70
   128
 71
    17
 72
    16
 73
     8
  0
VERTEX
  5
75D
  8
0
 62
     9
 10
0.0
 20
0.0
 30
0.0
 70
   128
 71
     8
 72
    14
 73
    17
  0
VERTEX
  5
75E
  8
0
 62
     9
 10
0.0
 20
0.0
 30
0.0
 70
   128
 71
     8
 72
    18
 73
    15
  0
VERTEX
  5
75F
  8
0
 62
     9
 10
0.0
 20
0.0
 30
0.0
 70
   128
 71
    18
 72
    19
 73
    15
  0
VERTEX
  5
760
  8
0
 62
     9
 10
0.0
 20
0.0
 30
0.0
 70
   128
 71
     7
 72
    20
 73
    13
  0
VERTEX
  5
761
  8
0
 62
     9
 10
0.0
 20
0.0
 30
0.0
 70
   128
 71
     8
 72
    16
 73
    10
  0
VERTEX
  5
762
  8
0
 62
     9
 10
0.0
 20
0.0
 30
0.0
 70
   128
 71
     1
 72
    11
 73
     3
  0
SEQEND
  5
763
  8
0
 62
     9
  0
ENDBLK
  5
766
  8
0
  0
BLOCK
  8
0
  2
E3_NODE_22_
 70
     0
 10
0.0
 20
0.0
 30
0.0
  3
E3_NODE_22_
  1

  0
POLYLINE
  5
768
  8
0
 62
     9
 66
     1
 10
0.0
 20
0.0
 30
0.0
 70
    64
 71
    20
 72
    18
  0
VERTEX
  5
769
  8
0
 10
0.0
 20
57.32300186157227
 30
-70.22699737548828
 70
   192
  0
VERTEX
  5
76A
  8
0
 10
0.101000003516674
 20
57.74599838256836
 30
-69.38099670410156
 70
   192
  0
VERTEX
  5
76B
  8
0
 10
0.101000003516674
 20
57.41899871826172
 30
-70.0719985961914
 70
   192
  0
VERTEX
  5
76C
  8
0
 10
0.101000003516674
 20
57.77000045776367
 30
-69.33200073242188
 70
   192
  0
VERTEX
  5
76D
  8
0
 10
0.0
 20
57.99300003051758
 30
-68.24400329589844
 70
   192
  0
VERTEX
  5
76E
  8
0
 10
0.1000000014901161
 20
57.96200180053711
 30
-68.53600311279297
 70
   192
  0
VERTEX
  5
76F
  8
0
 10
0.1000000014901161
 20
57.98199844360352
 30
-68.24299621582031
 70
   192
  0
VERTEX
  5
770
  8
0
 10
0.0
 20
55.74399948120117
 30
-71.5999984741211
 70
   192
  0
VERTEX
  5
771
  8
0
 10
0.101000003516674
 20
56.81900024414062
 30
-70.81800079345703
 70
   192
  0
VERTEX
  5
772
  8
0
 10
0.101000003516674
 20
56.30799865722656
 30
-71.26399993896484
 70
   192
  0
VERTEX
  5
773
  8
0
 10
0.101000003516674
 20
57.31000137329102
 30
-70.21700286865234
 70
   192
  0
VERTEX
  5
774
  8
0
 10
0.101000003516674
 20
56.92499923706055
 30
-70.7249984741211
 70
   192
  0
VERTEX
  5
775
  8
0
 10
0.0
 20
58.0
 30
-68.0009994506836
 70
   192
  0
VERTEX
  5
776
  8
0
 10
0.101000003516674
 20
55.37799835205078
 30
-71.73500061035156
 70
   192
  0
VERTEX
  5
777
  8
0
 10
0.1000000014901161
 20
54.81399917602539
 30
-71.91400146484375
 70
   192
  0
VERTEX
  5
778
  8
0
 10
0.101000003516674
 20
55.73600006103516
 30
-71.58599853515625
 70
   192
  0
VERTEX
  5
779
  8
0
 10
0.101000003516674
 20
55.59500122070312
 30
-71.66600036621094
 70
   192
  0
VERTEX
  5
77A
  8
0
 10
0.0
 20
54.00099945068359
 30
-72.0
 70
   192
  0
VERTEX
  5
77B
  8
0
 10
0.1000000014901161
 20
54.0
 30
-71.9990005493164
 70
   192
  0
VERTEX
  5
77C
  8
0
 10
0.1000000014901161
 20
57.99900054931641
 30
-68.0
 70
   192
  0
VERTEX
  5
77D
  8
0
 62
     9
 10
0.0
 20
0.0
 30
0.0
 70
   128
 71
     3
 72
     2
 73
     1
  0
VERTEX
  5
77E
  8
0
 62
     9
 10
0.0
 20
0.0
 30
0.0
 70
   128
 71
     2
 72
     4
 73
     1
  0
VERTEX
  5
77F
  8
0
 62
     9
 10
0.0
 20
0.0
 30
0.0
 70
   128
 71
     4
 72
     6
 73
     5
  0
VERTEX
  5
780
  8
0
 62
     9
 10
0.0
 20
0.0
 30
0.0
 70
   128
 71
     5
 72
     1
 73
     4
  0
VERTEX
  5
781
  8
0
 62
     9
 10
0.0
 20
0.0
 30
0.0
 70
   128
 71
     6
 72
     7
 73
     5
  0
VERTEX
  5
782
  8
0
 62
     9
 10
0.0
 20
0.0
 30
0.0
 70
   128
 71
     9
 72
     1
 73
     8
  0
VERTEX
  5
783
  8
0
 62
     9
 10
0.0
 20
0.0
 30
0.0
 70
   128
 71
     8
 72
    10
 73
     9
  0
VERTEX
  5
784
  8
0
 62
     9
 10
0.0
 20
0.0
 30
0.0
 70
   128
 71
    12
 72
    11
 73
     1
  0
VERTEX
  5
785
  8
0
 62
     9
 10
0.0
 20
0.0
 30
0.0
 70
   128
 71
     1
 72
     9
 73
    12
  0
VERTEX
  5
786
  8
0
 62
     9
 10
0.0
 20
0.0
 30
0.0
 70
   128
 71
    13
 72
     5
 73
     7
  0
VERTEX
  5
787
  8
0
 62
     9
 10
0.0
 20
0.0
 30
0.0
 70
   128
 71
    15
 72
    14
 73
     8
  0
VERTEX
  5
788
  8
0
 62
     9
 10
0.0
 20
0.0
 30
0.0
 70
   128
 71
    17
 72
    16
 73
     8
  0
VERTEX
  5
789
  8
0
 62
     9
 10
0.0
 20
0.0
 30
0.0
 70
   128
 71
     8
 72
    14
 73
    17
  0
VERTEX
  5
78A
  8
0
 62
     9
 10
0.0
 20
0.0
 30
0.0
 70
   128
 71
     8
 72
    18
 73
    15
  0
VERTEX
  5
78B
  8
0
 62
     9
 10
0.0
 20
0.0
 30
0.0
 70
   128
 71
    18
 72
    19
 73
    15
  0
VERTEX
  5
78C
  8
0
 62
     9
 10
0.0
 20
0.0
 30
0.0
 70
   128
 71
     7
 72
    20
 73
    13
  0
VERTEX
  5
78D
  8
0
 62
     9
 10
0.0
 20
0.0
 30
0.0
 70
   128
 71
     8
 72
    16
 73
    10
  0
VERTEX
  5
78E
  8
0
 62
     9
 10
0.0
 20
0.0
 30
0.0
 70
   128
 71
     1
 72
    11
 73
     3
  0
SEQEND
  5
78F
  8
0
 62
     9
  0
ENDBLK
  5
792
  8
0
  0
BLOCK
  8
0
  2
E3_NODE_23_
 70
     0
 10
0.0
 20
0.0
 30
0.0
  3
E3_NODE_23_
  1

  0
POLYLINE
  5
794
  8
0
 62
     9
 66
     1
 10
0.0
 20
0.0
 30
0.0
 70
    64
 71
     4
 72
     2
  0
VERTEX
  5
795
  8
0
 10
0.0
 20
58.0
 30
-68.0009994506836
 70
   192
  0
VERTEX
  5
796
  8
0
 10
0.0
 20
58.0
 30
68.0009994506836
 70
   192
  0
VERTEX
  5
797
  8
0
 10
0.1000000014901161
 20
57.99900054931641
 30
68.0
 70
   192
  0
VERTEX
  5
798
  8
0
 10
0.1000000014901161
 20
57.99900054931641
 30
-68.0
 70
   192
  0
VERTEX
  5
799
  8
0
 62
     9
 10
0.0
 20
0.0
 30
0.0
 70
   128
 71
     3
 72
     2
 73
     1
  0
VERTEX
  5
79A
  8
0
 62
     9
 10
0.0
 20
0.0
 30
0.0
 70
   128
 71
     1
 72
     4
 73
     3
  0
SEQEND
  5
79B
  8
0
 62
     9
  0
ENDBLK
  5
79E
  8
0
  0
BLOCK
  8
0
  2
E3_NODE_24_
 70
     0
 10
0.0
 20
0.0
 30
0.0
  3
E3_NODE_24_
  1

  0
POLYLINE
  5
7A0
  8
0
 62
     9
 66
     1
 10
0.0
 20
0.0
 30
0.0
 70
    64
 71
    11
 72
     9
  0
VERTEX
  5
7A1
  8
0
 10
0.1000000014901161
 20
57.99900054931641
 30
-68.0
 70
   192
  0
VERTEX
  5
7A2
  8
0
 10
0.1000000014901161
 20
57.99900054931641
 30
68.0
 70
   192
  0
VERTEX
  5
7A3
  8
0
 10
10.33800029754639
 20
57.81999969482422
 30
0.0
 70
   192
  0
VERTEX
  5
7A4
  8
0
 10
10.19499969482422
 20
57.82199859619141
 30
39.97900009155273
 70
   192
  0
VERTEX
  5
7A5
  8
0
 10
10.19699954986572
 20
57.82199859619141
 30
39.78499984741211
 70
   192
  0
VERTEX
  5
7A6
  8
0
 10
10.20100021362305
 20
57.82199859619141
 30
-39.97999954223633
 70
   192
  0
VERTEX
  5
7A7
  8
0
 10
10.17599964141846
 20
57.82199859619141
 30
-44.34199905395508
 70
   192
  0
VERTEX
  5
7A8
  8
0
 10
10.33399963378906
 20
57.81999969482422
 30
-16.29999923706055
 70
   192
  0
VERTEX
  5
7A9
  8
0
 10
10.34000015258789
 20
57.81999969482422
 30
11.74300003051758
 70
   192
  0
VERTEX
  5
7AA
  8
0
 10
9.902999877929688
 20
57.82699966430664
 30
67.8280029296875
 70
   192
  0
VERTEX
  5
7AB
  8
0
 10
9.928999900817871
 20
57.82699966430664
 30
-67.8270034790039
 70
   192
  0
VERTEX
  5
7AC
  8
0
 62
     9
 10
0.0
 20
0.0
 30
0.0
 70
   128
 71
     3
 72
     2
 73
     1
  0
VERTEX
  5
7AD
  8
0
 62
     9
 10
0.0
 20
0.0
 30
0.0
 70
   128
 71
     5
 72
     4
 73
     2
  0
VERTEX
  5
7AE
  8
0
 62
     9
 10
0.0
 20
0.0
 30
0.0
 70
   128
 71
     7
 72
     6
 73
     1
  0
VERTEX
  5
7AF
  8
0
 62
     9
 10
0.0
 20
0.0
 30
0.0
 70
   128
 71
     1
 72
     8
 73
     3
  0
VERTEX
  5
7B0
  8
0
 62
     9
 10
0.0
 20
0.0
 30
0.0
 70
   128
 71
     2
 72
     9
 73
     5
  0
VERTEX
  5
7B1
  8
0
 62
     9
 10
0.0
 20
0.0
 30
0.0
 70
   128
 71
     1
 72
     6
 73
     8
  0
VERTEX
  5
7B2
  8
0
 62
     9
 10
0.0
 20
0.0
 30
0.0
 70
   128
 71
     4
 72
    10
 73
     2
  0
VERTEX
  5
7B3
  8
0
 62
     9
 10
0.0
 20
0.0
 30
0.0
 70
   128
 71
     2
 72
     3
 73
     9
  0
VERTEX
  5
7B4
  8
0
 62
     9
 10
0.0
 20
0.0
 30
0.0
 70
   128
 71
     1
 72
    11
 73
     7
  0
SEQEND
  5
7B5
  8
0
 62
     9
  0
ENDBLK
  5
7B8
  8
0
  0
BLOCK
  8
0
  2
E3_NODE_25_
 70
     0
 10
0.0
 20
0.0
 30
0.0
  3
E3_NODE_25_
  1

  0
POLYLINE
  5
7BA
  8
0
 62
     9
 66
     1
 10
0.0
 20
0.0
 30
0.0
 70
    64
 71
     4
 72
     2
  0
VERTEX
  5
7BB
  8
0
 10
-0.1000000014901161
 20
36.95299911499023
 30
-51.66299819946289
 70
   192
  0
VERTEX
  5
7BC
  8
0
 10
-0.1000000014901161
 20
-40.01300048828125
 30
-51.66299819946289
 70
   192
  0
VERTEX
  5
7BD
  8
0
 10
-0.1000000014901161
 20
-40.01300048828125
 30
52.60499954223633
 70
   192
  0
VERTEX
  5
7BE
  8
0
 10
-0.1000000014901161
 20
36.95299911499023
 30
52.60499954223633
 70
   192
  0
VERTEX
  5
7BF
  8
0
 62
     9
 10
0.0
 20
0.0
 30
0.0
 70
   128
 71
     3
 72
     2
 73
     1
  0
VERTEX
  5
7C0
  8
0
 62
     9
 10
0.0
 20
0.0
 30
0.0
 70
   128
 71
     4
 72
     3
 73
     1
  0
SEQEND
  5
7C1
  8
0
 62
     9
  0
ENDBLK
  5
7C4
  8
0
  0
BLOCK
  8
0
  2
E3_NODE_26_
 70
     0
 10
0.0
 20
0.0
 30
0.0
  3
E3_NODE_26_
  1

  0
POLYLINE
  5
7C6
  8
0
 62
     9
 66
     1
 10
0.0
 20
0.0
 30
0.0
 70
    64
 71
    48
 72
    46
  0
VERTEX
  5
7C7
  8
0
 10
5.368000030517578
 20
14.85000038146973
 30
-20.0
 70
   192
  0
VERTEX
  5
7C8
  8
0
 10
6.277999877929688
 20
14.85000038146973
 30
-20.0
 70
   192
  0
VERTEX
  5
7C9
  8
0
 10
6.277999877929688
 20
14.66699981689453
 30
-22.32299995422363
 70
   192
  0
VERTEX
  5
7CA
  8
0
 10
5.368000030517578
 20
14.47799968719482
 30
-23.30400085449219
 70
   192
  0
VERTEX
  5
7CB
  8
0
 10
5.368000030517578
 20
13.37899971008301
 30
-26.44300079345703
 70
   192
  0
VERTEX
  5
7CC
  8
0
 10
6.277999877929688
 20
14.1230001449585
 30
-24.5890007019043
 70
   192
  0
VERTEX
  5
7CD
  8
0
 10
6.277999877929688
 20
14.43400001525879
 30
-23.29400062561035
 70
   192
  0
VERTEX
  5
7CE
  8
0
 10
6.277999877929688
 20
13.23099994659424
 30
-26.74200057983398
 70
   192
  0
VERTEX
  5
7CF
  8
0
 10
6.277999877929688
 20
12.01399993896484
 30
-28.72900009155273
 70
   192
  0
VERTEX
  5
7D0
  8
0
 10
5.368000030517578
 20
11.60999965667725
 30
-29.25900077819824
 70
   192
  0
VERTEX
  5
7D1
  8
0
 10
6.277999877929688
 20
13.35900020599365
 30
-26.43499946594238
 70
   192
  0
VERTEX
  5
7D2
  8
0
 10
6.277999877929688
 20
11.58199977874756
 30
-29.23500061035156
 70
   192
  0
VERTEX
  5
7D3
  8
0
 10
6.277999877929688
 20
10.50100040435791
 30
-30.50099945068359
 70
   192
  0
VERTEX
  5
7D4
  8
0
 10
5.368000030517578
 20
9.258999824523926
 30
-31.61000061035156
 70
   192
  0
VERTEX
  5
7D5
  8
0
 10
5.368000030517578
 20
6.442999839782715
 30
-33.37900161743164
 70
   192
  0
VERTEX
  5
7D6
  8
0
 10
6.277999877929688
 20
8.729000091552734
 30
-32.01399993896484
 70
   192
  0
VERTEX
  5
7D7
  8
0
 10
6.277999877929688
 20
9.234999656677246
 30
-31.58200073242188
 70
   192
  0
VERTEX
  5
7D8
  8
0
 10
6.277999877929688
 20
6.742000102996826
 30
-33.23099899291992
 70
   192
  0
VERTEX
  5
7D9
  8
0
 10
6.277999877929688
 20
6.434999942779541
 30
-33.35900115966797
 70
   192
  0
VERTEX
  5
7DA
  8
0
 10
6.277999877929688
 20
4.589000225067139
 30
-34.12300109863281
 70
   192
  0
VERTEX
  5
7DB
  8
0
 10
5.368000030517578
 20
3.303999900817871
 30
-34.47800064086914
 70
   192
  0
VERTEX
  5
7DC
  8
0
 10
5.368000030517578
 20
0.0
 30
-34.84999847412109
 70
   192
  0
VERTEX
  5
7DD
  8
0
 10
6.277999877929688
 20
2.322999954223633
 30
-34.66699981689453
 70
   192
  0
VERTEX
  5
7DE
  8
0
 10
6.277999877929688
 20
3.293999910354614
 30
-34.43399810791016
 70
   192
  0
VERTEX
  5
7DF
  8
0
 10
6.277999877929688
 20
0.0
 30
-34.84999847412109
 70
   192
  0
VERTEX
  5
7E0
  8
0
 10
6.277999877929688
 20
-2.322999954223633
 30
-34.66699981689453
 70
   192
  0
VERTEX
  5
7E1
  8
0
 10
5.368000030517578
 20
-3.303999900817871
 30
-34.47800064086914
 70
   192
  0
VERTEX
  5
7E2
  8
0
 10
5.368000030517578
 20
-6.442999839782715
 30
-33.37900161743164
 70
   192
  0
VERTEX
  5
7E3
  8
0
 10
6.277999877929688
 20
-4.589000225067139
 30
-34.12300109863281
 70
   192
  0
VERTEX
  5
7E4
  8
0
 10
6.277999877929688
 20
-3.293999910354614
 30
-34.43399810791016
 70
   192
  0
VERTEX
  5
7E5
  8
0
 10
6.277999877929688
 20
-6.742000102996826
 30
-33.23099899291992
 70
   192
  0
VERTEX
  5
7E6
  8
0
 10
6.277999877929688
 20
-8.729000091552734
 30
-32.01399993896484
 70
   192
  0
VERTEX
  5
7E7
  8
0
 10
5.368000030517578
 20
-9.258999824523926
 30
-31.61000061035156
 70
   192
  0
VERTEX
  5
7E8
  8
0
 10
6.277999877929688
 20
-6.434999942779541
 30
-33.35900115966797
 70
   192
  0
VERTEX
  5
7E9
  8
0
 10
6.277999877929688
 20
-9.234999656677246
 30
-31.58200073242188
 70
   192
  0
VERTEX
  5
7EA
  8
0
 10
6.277999877929688
 20
-10.50100040435791
 30
-30.50099945068359
 70
   192
  0
VERTEX
  5
7EB
  8
0
 10
5.368000030517578
 20
-11.60999965667725
 30
-29.25900077819824
 70
   192
  0
VERTEX
  5
7EC
  8
0
 10
5.368000030517578
 20
-13.37899971008301
 30
-26.44300079345703
 70
   192
  0
VERTEX
  5
7ED
  8
0
 10
6.277999877929688
 20
-12.01399993896484
 30
-28.72900009155273
 70
   192
  0
VERTEX
  5
7EE
  8
0
 10
6.277999877929688
 20
-11.58199977874756
 30
-29.23500061035156
 70
   192
  0
VERTEX
  5
7EF
  8
0
 10
6.277999877929688
 20
-13.23099994659424
 30
-26.74200057983398
 70
   192
  0
VERTEX
  5
7F0
  8
0
 10
6.277999877929688
 20
-13.35900020599365
 30
-26.43499946594238
 70
   192
  0
VERTEX
  5
7F1
  8
0
 10
6.277999877929688
 20
-14.1230001449585
 30
-24.5890007019043
 70
   192
  0
VERTEX
  5
7F2
  8
0
 10
5.368000030517578
 20
-14.47799968719482
 30
-23.30400085449219
 70
   192
  0
VERTEX
  5
7F3
  8
0
 10
5.368000030517578
 20
-14.85000038146973
 30
-20.0
 70
   192
  0
VERTEX
  5
7F4
  8
0
 10
6.277999877929688
 20
-14.66699981689453
 30
-22.32299995422363
 70
   192
  0
VERTEX
  5
7F5
  8
0
 10
6.277999877929688
 20
-14.43400001525879
 30
-23.29400062561035
 70
   192
  0
VERTEX
  5
7F6
  8
0
 10
6.277999877929688
 20
-14.85000038146973
 30
-20.0
 70
   192
  0
VERTEX
  5
7F7
  8
0
 62
     9
 10
0.0
 20
0.0
 30
0.0
 70
   128
 71
     3
 72
     2
 73
     1
  0
VERTEX
  5
7F8
  8
0
 62
     9
 10
0.0
 20
0.0
 30
0.0
 70
   128
 71
     1
 72
     4
 73
     3
  0
VERTEX
  5
7F9
  8
0
 62
     9
 10
0.0
 20
0.0
 30
0.0
 70
   128
 71
     6
 72
     4
 73
     5
  0
VERTEX
  5
7FA
  8
0
 62
     9
 10
0.0
 20
0.0
 30
0.0
 70
   128
 71
     6
 72
     7
 73
     4
  0
VERTEX
  5
7FB
  8
0
 62
     9
 10
0.0
 20
0.0
 30
0.0
 70
   128
 71
     9
 72
     8
 73
     5
  0
VERTEX
  5
7FC
  8
0
 62
     9
 10
0.0
 20
0.0
 30
0.0
 70
   128
 71
     5
 72
    10
 73
     9
  0
VERTEX
  5
7FD
  8
0
 62
     9
 10
0.0
 20
0.0
 30
0.0
 70
   128
 71
     8
 72
    11
 73
     5
  0
VERTEX
  5
7FE
  8
0
 62
     9
 10
0.0
 20
0.0
 30
0.0
 70
   128
 71
    13
 72
    12
 73
    10
  0
VERTEX
  5
7FF
  8
0
 62
     9
 10
0.0
 20
0.0
 30
0.0
 70
   128
 71
    10
 72
    14
 73
    13
  0
VERTEX
  5
800
  8
0
 62
     9
 10
0.0
 20
0.0
 30
0.0
 70
   128
 71
    16
 72
    14
 73
    15
  0
VERTEX
  5
801
  8
0
 62
     9
 10
0.0
 20
0.0
 30
0.0
 70
   128
 71
    16
 72
    17
 73
    14
  0
VERTEX
  5
802
  8
0
 62
     9
 10
0.0
 20
0.0
 30
0.0
 70
   128
 71
    15
 72
    18
 73
    16
  0
VERTEX
  5
803
  8
0
 62
     9
 10
0.0
 20
0.0
 30
0.0
 70
   128
 71
    20
 72
    19
 73
    15
  0
VERTEX
  5
804
  8
0
 62
     9
 10
0.0
 20
0.0
 30
0.0
 70
   128
 71
    15
 72
    21
 73
    20
  0
VERTEX
  5
805
  8
0
 62
     9
 10
0.0
 20
0.0
 30
0.0
 70
   128
 71
    23
 72
    21
 73
    22
  0
VERTEX
  5
806
  8
0
 62
     9
 10
0.0
 20
0.0
 30
0.0
 70
   128
 71
    23
 72
    24
 73
    21
  0
VERTEX
  5
807
  8
0
 62
     9
 10
0.0
 20
0.0
 30
0.0
 70
   128
 71
    26
 72
    25
 73
    22
  0
VERTEX
  5
808
  8
0
 62
     9
 10
0.0
 20
0.0
 30
0.0
 70
   128
 71
    22
 72
    27
 73
    26
  0
VERTEX
  5
809
  8
0
 62
     9
 10
0.0
 20
0.0
 30
0.0
 70
   128
 71
    29
 72
    27
 73
    28
  0
VERTEX
  5
80A
  8
0
 62
     9
 10
0.0
 20
0.0
 30
0.0
 70
   128
 71
    29
 72
    30
 73
    27
  0
VERTEX
  5
80B
  8
0
 62
     9
 10
0.0
 20
0.0
 30
0.0
 70
   128
 71
    32
 72
    31
 73
    28
  0
VERTEX
  5
80C
  8
0
 62
     9
 10
0.0
 20
0.0
 30
0.0
 70
   128
 71
    28
 72
    33
 73
    32
  0
VERTEX
  5
80D
  8
0
 62
     9
 10
0.0
 20
0.0
 30
0.0
 70
   128
 71
    31
 72
    34
 73
    28
  0
VERTEX
  5
80E
  8
0
 62
     9
 10
0.0
 20
0.0
 30
0.0
 70
   128
 71
    36
 72
    35
 73
    33
  0
VERTEX
  5
80F
  8
0
 62
     9
 10
0.0
 20
0.0
 30
0.0
 70
   128
 71
    33
 72
    37
 73
    36
  0
VERTEX
  5
810
  8
0
 62
     9
 10
0.0
 20
0.0
 30
0.0
 70
   128
 71
    39
 72
    37
 73
    38
  0
VERTEX
  5
811
  8
0
 62
     9
 10
0.0
 20
0.0
 30
0.0
 70
   128
 71
    39
 72
    40
 73
    37
  0
VERTEX
  5
812
  8
0
 62
     9
 10
0.0
 20
0.0
 30
0.0
 70
   128
 71
    38
 72
    41
 73
    39
  0
VERTEX
  5
813
  8
0
 62
     9
 10
0.0
 20
0.0
 30
0.0
 70
   128
 71
    43
 72
    42
 73
    38
  0
VERTEX
  5
814
  8
0
 62
     9
 10
0.0
 20
0.0
 30
0.0
 70
   128
 71
    38
 72
    44
 73
    43
  0
VERTEX
  5
815
  8
0
 62
     9
 10
0.0
 20
0.0
 30
0.0
 70
   128
 71
    46
 72
    44
 73
    45
  0
VERTEX
  5
816
  8
0
 62
     9
 10
0.0
 20
0.0
 30
0.0
 70
   128
 71
    46
 72
    47
 73
    44
  0
VERTEX
  5
817
  8
0
 62
     9
 10
0.0
 20
0.0
 30
0.0
 70
   128
 71
    45
 72
    48
 73
    46
  0
VERTEX
  5
818
  8
0
 62
     9
 10
0.0
 20
0.0
 30
0.0
 70
   128
 71
    44
 72
    47
 73
    43
  0
VERTEX
  5
819
  8
0
 62
     9
 10
0.0
 20
0.0
 30
0.0
 70
   128
 71
    38
 72
    42
 73
    41
  0
VERTEX
  5
81A
  8
0
 62
     9
 10
0.0
 20
0.0
 30
0.0
 70
   128
 71
    37
 72
    40
 73
    36
  0
VERTEX
  5
81B
  8
0
 62
     9
 10
0.0
 20
0.0
 30
0.0
 70
   128
 71
    33
 72
    35
 73
    32
  0
VERTEX
  5
81C
  8
0
 62
     9
 10
0.0
 20
0.0
 30
0.0
 70
   128
 71
    28
 72
    34
 73
    29
  0
VERTEX
  5
81D
  8
0
 62
     9
 10
0.0
 20
0.0
 30
0.0
 70
   128
 71
    27
 72
    30
 73
    26
  0
VERTEX
  5
81E
  8
0
 62
     9
 10
0.0
 20
0.0
 30
0.0
 70
   128
 71
    22
 72
    25
 73
    23
  0
VERTEX
  5
81F
  8
0
 62
     9
 10
0.0
 20
0.0
 30
0.0
 70
   128
 71
    21
 72
    24
 73
    20
  0
VERTEX
  5
820
  8
0
 62
     9
 10
0.0
 20
0.0
 30
0.0
 70
   128
 71
    15
 72
    19
 73
    18
  0
VERTEX
  5
821
  8
0
 62
     9
 10
0.0
 20
0.0
 30
0.0
 70
   128
 71
    14
 72
    17
 73
    13
  0
VERTEX
  5
822
  8
0
 62
     9
 10
0.0
 20
0.0
 30
0.0
 70
   128
 71
    10
 72
    12
 73
     9
  0
VERTEX
  5
823
  8
0
 62
     9
 10
0.0
 20
0.0
 30
0.0
 70
   128
 71
     5
 72
    11
 73
     6
  0
VERTEX
  5
824
  8
0
 62
     9
 10
0.0
 20
0.0
 30
0.0
 70
   128
 71
     4
 72
     7
 73
     3
  0
SEQEND
  5
825
  8
0
 62
     9
  0
ENDBLK
  5
828
  8
0
  0
BLOCK
  8
0
  2
E3_NODE_27_
 70
     0
 10
0.0
 20
0.0
 30
0.0
  3
E3_NODE_27_
  1

  0
POLYLINE
  5
82A
  8
0
 62
     9
 66
     1
 10
0.0
 20
0.0
 30
0.0
 70
    64
 71
    87
 72
   104
  0
VERTEX
  5
82B
  8
0
 10
6.277999877929688
 20
-14.66699981689453
 30
-22.32299995422363
 70
   192
  0
VERTEX
  5
82C
  8
0
 10
6.48799991607666
 20
-14.58199977874756
 30
-22.30999946594238
 70
   192
  0
VERTEX
  5
82D
  8
0
 10
6.48799991607666
 20
-14.76399993896484
 30
-20.0
 70
   192
  0
VERTEX
  5
82E
  8
0
 10
6.48799991607666
 20
-14.04100036621094
 30
-24.5620002746582
 70
   192
  0
VERTEX
  5
82F
  8
0
 10
6.277999877929688
 20
-14.43400001525879
 30
-23.29400062561035
 70
   192
  0
VERTEX
  5
830
  8
0
 10
6.277999877929688
 20
-14.1230001449585
 30
-24.5890007019043
 70
   192
  0
VERTEX
  5
831
  8
0
 10
6.277999877929688
 20
-13.35900020599365
 30
-26.43499946594238
 70
   192
  0
VERTEX
  5
832
  8
0
 10
6.48799991607666
 20
-13.15499973297119
 30
-26.70299911499023
 70
   192
  0
VERTEX
  5
833
  8
0
 10
6.277999877929688
 20
-12.01399993896484
 30
-28.72900009155273
 70
   192
  0
VERTEX
  5
834
  8
0
 10
6.48799991607666
 20
-11.94400024414062
 30
-28.67799949645996
 70
   192
  0
VERTEX
  5
835
  8
0
 10
6.48799991607666
 20
-10.4399995803833
 30
-30.44000053405762
 70
   192
  0
VERTEX
  5
836
  8
0
 10
6.277999877929688
 20
-11.58199977874756
 30
-29.23500061035156
 70
   192
  0
VERTEX
  5
837
  8
0
 10
6.277999877929688
 20
-10.50100040435791
 30
-30.50099945068359
 70
   192
  0
VERTEX
  5
838
  8
0
 10
6.277999877929688
 20
-9.234999656677246
 30
-31.58200073242188
 70
   192
  0
VERTEX
  5
839
  8
0
 10
6.48799991607666
 20
-8.678000450134277
 30
-31.94400024414062
 70
   192
  0
VERTEX
  5
83A
  8
0
 10
6.277999877929688
 20
-6.742000102996826
 30
-33.23099899291992
 70
   192
  0
VERTEX
  5
83B
  8
0
 10
6.48799991607666
 20
-6.703000068664551
 30
-33.15499877929688
 70
   192
  0
VERTEX
  5
83C
  8
0
 10
6.48799991607666
 20
-4.561999797821045
 30
-34.04100036621094
 70
   192
  0
VERTEX
  5
83D
  8
0
 10
6.277999877929688
 20
-6.434999942779541
 30
-33.35900115966797
 70
   192
  0
VERTEX
  5
83E
  8
0
 10
6.277999877929688
 20
-4.589000225067139
 30
-34.12300109863281
 70
   192
  0
VERTEX
  5
83F
  8
0
 10
6.277999877929688
 20
-3.293999910354614
 30
-34.43399810791016
 70
   192
  0
VERTEX
  5
840
  8
0
 10
6.48799991607666
 20
-2.309999942779541
 30
-34.58200073242188
 70
   192
  0
VERTEX
  5
841
  8
0
 10
6.277999877929688
 20
-2.322999954223633
 30
-34.66699981689453
 70
   192
  0
VERTEX
  5
842
  8
0
 10
6.277999877929688
 20
0.0
 30
-34.84999847412109
 70
   192
  0
VERTEX
  5
843
  8
0
 10
6.48799991607666
 20
0.0
 30
-34.76399993896484
 70
   192
  0
VERTEX
  5
844
  8
0
 10
6.277999877929688
 20
2.322999954223633
 30
-34.66699981689453
 70
   192
  0
VERTEX
  5
845
  8
0
 10
6.48799991607666
 20
2.309999942779541
 30
-34.58200073242188
 70
   192
  0
VERTEX
  5
846
  8
0
 10
6.48799991607666
 20
4.561999797821045
 30
-34.04100036621094
 70
   192
  0
VERTEX
  5
847
  8
0
 10
6.277999877929688
 20
3.293999910354614
 30
-34.43399810791016
 70
   192
  0
VERTEX
  5
848
  8
0
 10
6.277999877929688
 20
4.589000225067139
 30
-34.12300109863281
 70
   192
  0
VERTEX
  5
849
  8
0
 10
6.277999877929688
 20
6.434999942779541
 30
-33.35900115966797
 70
   192
  0
VERTEX
  5
84A
  8
0
 10
6.48799991607666
 20
6.703000068664551
 30
-33.15499877929688
 70
   192
  0
VERTEX
  5
84B
  8
0
 10
6.277999877929688
 20
8.729000091552734
 30
-32.01399993896484
 70
   192
  0
VERTEX
  5
84C
  8
0
 10
6.48799991607666
 20
8.678000450134277
 30
-31.94400024414062
 70
   192
  0
VERTEX
  5
84D
  8
0
 10
6.48799991607666
 20
10.4399995803833
 30
-30.44000053405762
 70
   192
  0
VERTEX
  5
84E
  8
0
 10
6.277999877929688
 20
9.234999656677246
 30
-31.58200073242188
 70
   192
  0
VERTEX
  5
84F
  8
0
 10
6.277999877929688
 20
10.50100040435791
 30
-30.50099945068359
 70
   192
  0
VERTEX
  5
850
  8
0
 10
6.277999877929688
 20
11.58199977874756
 30
-29.23500061035156
 70
   192
  0
VERTEX
  5
851
  8
0
 10
6.48799991607666
 20
11.94400024414062
 30
-28.67799949645996
 70
   192
  0
VERTEX
  5
852
  8
0
 10
6.277999877929688
 20
12.01399993896484
 30
-28.72900009155273
 70
   192
  0
VERTEX
  5
853
  8
0
 10
6.277999877929688
 20
13.23099994659424
 30
-26.74200057983398
 70
   192
  0
VERTEX
  5
854
  8
0
 10
6.48799991607666
 20
13.15499973297119
 30
-26.70299911499023
 70
   192
  0
VERTEX
  5
855
  8
0
 10
6.48799991607666
 20
14.04100036621094
 30
-24.5620002746582
 70
   192
  0
VERTEX
  5
856
  8
0
 10
6.277999877929688
 20
13.35900020599365
 30
-26.43499946594238
 70
   192
  0
VERTEX
  5
857
  8
0
 10
6.277999877929688
 20
14.1230001449585
 30
-24.5890007019043
 70
   192
  0
VERTEX
  5
858
  8
0
 10
6.277999877929688
 20
14.43400001525879
 30
-23.29400062561035
 70
   192
  0
VERTEX
  5
859
  8
0
 10
6.48799991607666
 20
14.58199977874756
 30
-22.30999946594238
 70
   192
  0
VERTEX
  5
85A
  8
0
 10
6.277999877929688
 20
14.66699981689453
 30
-22.32299995422363
 70
   192
  0
VERTEX
  5
85B
  8
0
 10
6.277999877929688
 20
14.85000038146973
 30
-20.0
 70
   192
  0
VERTEX
  5
85C
  8
0
 10
6.48799991607666
 20
14.76399993896484
 30
-20.0
 70
   192
  0
VERTEX
  5
85D
  8
0
 10
6.578000068664551
 20
-14.37600040435791
 30
-22.27700042724609
 70
   192
  0
VERTEX
  5
85E
  8
0
 10
6.578000068664551
 20
-13.8430004119873
 30
-24.49799919128418
 70
   192
  0
VERTEX
  5
85F
  8
0
 10
6.578000068664551
 20
-14.14799976348877
 30
-23.22900009155273
 70
   192
  0
VERTEX
  5
860
  8
0
 10
6.578000068664551
 20
-13.0939998626709
 30
-26.30699920654297
 70
   192
  0
VERTEX
  5
861
  8
0
 10
6.578000068664551
 20
-12.9689998626709
 30
-26.60799980163574
 70
   192
  0
VERTEX
  5
862
  8
0
 10
6.578000068664551
 20
-11.77499961853027
 30
-28.55500030517578
 70
   192
  0
VERTEX
  5
863
  8
0
 10
6.578000068664551
 20
-10.29199981689453
 30
-30.29199981689453
 70
   192
  0
VERTEX
  5
864
  8
0
 10
6.578000068664551
 20
-11.35200023651123
 30
-29.05100059509277
 70
   192
  0
VERTEX
  5
865
  8
0
 10
6.578000068664551
 20
-9.050999641418457
 30
-31.35199928283691
 70
   192
  0
VERTEX
  5
866
  8
0
 10
6.578000068664551
 20
-8.555000305175781
 30
-31.77499961853027
 70
   192
  0
VERTEX
  5
867
  8
0
 10
6.578000068664551
 20
-6.607999801635742
 30
-32.96900177001953
 70
   192
  0
VERTEX
  5
868
  8
0
 10
6.578000068664551
 20
-4.498000144958496
 30
-33.84299850463867
 70
   192
  0
VERTEX
  5
869
  8
0
 10
6.578000068664551
 20
-6.307000160217285
 30
-33.09400177001953
 70
   192
  0
VERTEX
  5
86A
  8
0
 10
6.578000068664551
 20
-3.229000091552734
 30
-34.14799880981445
 70
   192
  0
VERTEX
  5
86B
  8
0
 10
6.578000068664551
 20
-2.276999950408936
 30
-34.37599945068359
 70
   192
  0
VERTEX
  5
86C
  8
0
 10
6.578000068664551
 20
0.0
 30
-34.55500030517578
 70
   192
  0
VERTEX
  5
86D
  8
0
 10
6.578000068664551
 20
2.276999950408936
 30
-34.37599945068359
 70
   192
  0
VERTEX
  5
86E
  8
0
 10
6.578000068664551
 20
4.498000144958496
 30
-33.84299850463867
 70
   192
  0
VERTEX
  5
86F
  8
0
 10
6.578000068664551
 20
3.229000091552734
 30
-34.14799880981445
 70
   192
  0
VERTEX
  5
870
  8
0
 10
6.578000068664551
 20
6.307000160217285
 30
-33.09400177001953
 70
   192
  0
VERTEX
  5
871
  8
0
 10
6.578000068664551
 20
6.607999801635742
 30
-32.96900177001953
 70
   192
  0
VERTEX
  5
872
  8
0
 10
6.578000068664551
 20
8.555000305175781
 30
-31.77499961853027
 70
   192
  0
VERTEX
  5
873
  8
0
 10
6.578000068664551
 20
10.29199981689453
 30
-30.29199981689453
 70
   192
  0
VERTEX
  5
874
  8
0
 10
6.578000068664551
 20
9.050999641418457
 30
-31.35199928283691
 70
   192
  0
VERTEX
  5
875
  8
0
 10
6.578000068664551
 20
11.35200023651123
 30
-29.05100059509277
 70
   192
  0
VERTEX
  5
876
  8
0
 10
6.578000068664551
 20
11.77499961853027
 30
-28.55500030517578
 70
   192
  0
VERTEX
  5
877
  8
0
 10
6.578000068664551
 20
12.9689998626709
 30
-26.60799980163574
 70
   192
  0
VERTEX
  5
878
  8
0
 10
6.578000068664551
 20
13.8430004119873
 30
-24.49799919128418
 70
   192
  0
VERTEX
  5
879
  8
0
 10
6.578000068664551
 20
13.0939998626709
 30
-26.30699920654297
 70
   192
  0
VERTEX
  5
87A
  8
0
 10
6.578000068664551
 20
14.14799976348877
 30
-23.22900009155273
 70
   192
  0
VERTEX
  5
87B
  8
0
 10
6.578000068664551
 20
14.37600040435791
 30
-22.27700042724609
 70
   192
  0
VERTEX
  5
87C
  8
0
 10
6.578000068664551
 20
14.55500030517578
 30
-20.0
 70
   192
  0
VERTEX
  5
87D
  8
0
 10
6.578000068664551
 20
-14.55500030517578
 30
-20.0
 70
   192
  0
VERTEX
  5
87E
  8
0
 10
6.277999877929688
 20
6.742000102996826
 30
-33.23099899291992
 70
   192
  0
VERTEX
  5
87F
  8
0
 10
6.277999877929688
 20
-8.729000091552734
 30
-32.01399993896484
 70
   192
  0
VERTEX
  5
880
  8
0
 10
6.277999877929688
 20
-13.23099994659424
 30
-26.74200057983398
 70
   192
  0
VERTEX
  5
881
  8
0
 10
6.277999877929688
 20
-14.85000038146973
 30
-20.0
 70
   192
  0
VERTEX
  5
882
  8
0
 62
     9
 10
0.0
 20
0.0
 30
0.0
 70
   128
 71
     3
 72
     2
 73
     1
  0
VERTEX
  5
883
  8
0
 62
     9
 10
0.0
 20
0.0
 30
0.0
 70
   128
 71
     5
 72
     2
 73
     4
  0
VERTEX
  5
884
  8
0
 62
     9
 10
0.0
 20
0.0
 30
0.0
 70
   128
 71
     5
 72
     1
 73
     2
  0
VERTEX
  5
885
  8
0
 62
     9
 10
0.0
 20
0.0
 30
0.0
 70
   128
 71
     7
 72
     6
 73
     4
  0
VERTEX
  5
886
  8
0
 62
     9
 10
0.0
 20
0.0
 30
0.0
 70
   128
 71
     4
 72
     8
 73
     7
  0
VERTEX
  5
887
  8
0
 62
     9
 10
0.0
 20
0.0
 30
0.0
 70
   128
 71
     8
 72
    10
 73
     9
  0
VERTEX
  5
888
  8
0
 62
     9
 10
0.0
 20
0.0
 30
0.0
 70
   128
 71
    12
 72
    10
 73
    11
  0
VERTEX
  5
889
  8
0
 62
     9
 10
0.0
 20
0.0
 30
0.0
 70
   128
 71
    12
 72
     9
 73
    10
  0
VERTEX
  5
88A
  8
0
 62
     9
 10
0.0
 20
0.0
 30
0.0
 70
   128
 71
    14
 72
    13
 73
    11
  0
VERTEX
  5
88B
  8
0
 62
     9
 10
0.0
 20
0.0
 30
0.0
 70
   128
 71
    11
 72
    15
 73
    14
  0
VERTEX
  5
88C
  8
0
 62
     9
 10
0.0
 20
0.0
 30
0.0
 70
   128
 71
    15
 72
    17
 73
    16
  0
VERTEX
  5
88D
  8
0
 62
     9
 10
0.0
 20
0.0
 30
0.0
 70
   128
 71
    19
 72
    17
 73
    18
  0
VERTEX
  5
88E
  8
0
 62
     9
 10
0.0
 20
0.0
 30
0.0
 70
   128
 71
    19
 72
    16
 73
    17
  0
VERTEX
  5
88F
  8
0
 62
     9
 10
0.0
 20
0.0
 30
0.0
 70
   128
 71
    21
 72
    20
 73
    18
  0
VERTEX
  5
890
  8
0
 62
     9
 10
0.0
 20
0.0
 30
0.0
 70
   128
 71
    18
 72
    22
 73
    21
  0
VERTEX
  5
891
  8
0
 62
     9
 10
0.0
 20
0.0
 30
0.0
 70
   128
 71
    25
 72
    24
 73
    23
  0
VERTEX
  5
892
  8
0
 62
     9
 10
0.0
 20
0.0
 30
0.0
 70
   128
 71
    27
 72
    26
 73
    24
  0
VERTEX
  5
893
  8
0
 62
     9
 10
0.0
 20
0.0
 30
0.0
 70
   128
 71
    29
 72
    27
 73
    28
  0
VERTEX
  5
894
  8
0
 62
     9
 10
0.0
 20
0.0
 30
0.0
 70
   128
 71
    29
 72
    26
 73
    27
  0
VERTEX
  5
895
  8
0
 62
     9
 10
0.0
 20
0.0
 30
0.0
 70
   128
 71
    31
 72
    30
 73
    28
  0
VERTEX
  5
896
  8
0
 62
     9
 10
0.0
 20
0.0
 30
0.0
 70
   128
 71
    28
 72
    32
 73
    31
  0
VERTEX
  5
897
  8
0
 62
     9
 10
0.0
 20
0.0
 30
0.0
 70
   128
 71
    32
 72
    34
 73
    33
  0
VERTEX
  5
898
  8
0
 62
     9
 10
0.0
 20
0.0
 30
0.0
 70
   128
 71
    36
 72
    34
 73
    35
  0
VERTEX
  5
899
  8
0
 62
     9
 10
0.0
 20
0.0
 30
0.0
 70
   128
 71
    36
 72
    33
 73
    34
  0
VERTEX
  5
89A
  8
0
 62
     9
 10
0.0
 20
0.0
 30
0.0
 70
   128
 71
    38
 72
    37
 73
    35
  0
VERTEX
  5
89B
  8
0
 62
     9
 10
0.0
 20
0.0
 30
0.0
 70
   128
 71
    35
 72
    39
 73
    38
  0
VERTEX
  5
89C
  8
0
 62
     9
 10
0.0
 20
0.0
 30
0.0
 70
   128
 71
    42
 72
    41
 73
    40
  0
VERTEX
  5
89D
  8
0
 62
     9
 10
0.0
 20
0.0
 30
0.0
 70
   128
 71
    44
 72
    42
 73
    43
  0
VERTEX
  5
89E
  8
0
 62
     9
 10
0.0
 20
0.0
 30
0.0
 70
   128
 71
    44
 72
    41
 73
    42
  0
VERTEX
  5
89F
  8
0
 62
     9
 10
0.0
 20
0.0
 30
0.0
 70
   128
 71
    46
 72
    45
 73
    43
  0
VERTEX
  5
8A0
  8
0
 62
     9
 10
0.0
 20
0.0
 30
0.0
 70
   128
 71
    43
 72
    47
 73
    46
  0
VERTEX
  5
8A1
  8
0
 62
     9
 10
0.0
 20
0.0
 30
0.0
 70
   128
 71
    50
 72
    49
 73
    48
  0
VERTEX
  5
8A2
  8
0
 62
     9
 10
0.0
 20
0.0
 30
0.0
 70
   128
 71
    51
 72
     2
 73
     3
  0
VERTEX
  5
8A3
  8
0
 62
     9
 10
0.0
 20
0.0
 30
0.0
 70
   128
 71
    53
 72
    52
 73
     4
  0
VERTEX
  5
8A4
  8
0
 62
     9
 10
0.0
 20
0.0
 30
0.0
 70
   128
 71
     4
 72
     2
 73
    53
  0
VERTEX
  5
8A5
  8
0
 62
     9
 10
0.0
 20
0.0
 30
0.0
 70
   128
 71
    54
 72
     8
 73
     4
  0
VERTEX
  5
8A6
  8
0
 62
     9
 10
0.0
 20
0.0
 30
0.0
 70
   128
 71
    54
 72
    55
 73
     8
  0
VERTEX
  5
8A7
  8
0
 62
     9
 10
0.0
 20
0.0
 30
0.0
 70
   128
 71
    56
 72
    10
 73
     8
  0
VERTEX
  5
8A8
  8
0
 62
     9
 10
0.0
 20
0.0
 30
0.0
 70
   128
 71
    58
 72
    57
 73
    11
  0
VERTEX
  5
8A9
  8
0
 62
     9
 10
0.0
 20
0.0
 30
0.0
 70
   128
 71
    11
 72
    10
 73
    58
  0
VERTEX
  5
8AA
  8
0
 62
     9
 10
0.0
 20
0.0
 30
0.0
 70
   128
 71
    59
 72
    15
 73
    11
  0
VERTEX
  5
8AB
  8
0
 62
     9
 10
0.0
 20
0.0
 30
0.0
 70
   128
 71
    59
 72
    60
 73
    15
  0
VERTEX
  5
8AC
  8
0
 62
     9
 10
0.0
 20
0.0
 30
0.0
 70
   128
 71
    61
 72
    17
 73
    15
  0
VERTEX
  5
8AD
  8
0
 62
     9
 10
0.0
 20
0.0
 30
0.0
 70
   128
 71
    63
 72
    62
 73
    18
  0
VERTEX
  5
8AE
  8
0
 62
     9
 10
0.0
 20
0.0
 30
0.0
 70
   128
 71
    18
 72
    17
 73
    63
  0
VERTEX
  5
8AF
  8
0
 62
     9
 10
0.0
 20
0.0
 30
0.0
 70
   128
 71
    64
 72
    22
 73
    18
  0
VERTEX
  5
8B0
  8
0
 62
     9
 10
0.0
 20
0.0
 30
0.0
 70
   128
 71
    64
 72
    65
 73
    22
  0
VERTEX
  5
8B1
  8
0
 62
     9
 10
0.0
 20
0.0
 30
0.0
 70
   128
 71
    66
 72
    25
 73
    22
  0
VERTEX
  5
8B2
  8
0
 62
     9
 10
0.0
 20
0.0
 30
0.0
 70
   128
 71
    67
 72
    27
 73
    25
  0
VERTEX
  5
8B3
  8
0
 62
     9
 10
0.0
 20
0.0
 30
0.0
 70
   128
 71
    69
 72
    68
 73
    28
  0
VERTEX
  5
8B4
  8
0
 62
     9
 10
0.0
 20
0.0
 30
0.0
 70
   128
 71
    28
 72
    27
 73
    69
  0
VERTEX
  5
8B5
  8
0
 62
     9
 10
0.0
 20
0.0
 30
0.0
 70
   128
 71
    70
 72
    32
 73
    28
  0
VERTEX
  5
8B6
  8
0
 62
     9
 10
0.0
 20
0.0
 30
0.0
 70
   128
 71
    70
 72
    71
 73
    32
  0
VERTEX
  5
8B7
  8
0
 62
     9
 10
0.0
 20
0.0
 30
0.0
 70
   128
 71
    72
 72
    34
 73
    32
  0
VERTEX
  5
8B8
  8
0
 62
     9
 10
0.0
 20
0.0
 30
0.0
 70
   128
 71
    74
 72
    73
 73
    35
  0
VERTEX
  5
8B9
  8
0
 62
     9
 10
0.0
 20
0.0
 30
0.0
 70
   128
 71
    35
 72
    34
 73
    74
  0
VERTEX
  5
8BA
  8
0
 62
     9
 10
0.0
 20
0.0
 30
0.0
 70
   128
 71
    75
 72
    39
 73
    35
  0
VERTEX
  5
8BB
  8
0
 62
     9
 10
0.0
 20
0.0
 30
0.0
 70
   128
 71
    75
 72
    76
 73
    39
  0
VERTEX
  5
8BC
  8
0
 62
     9
 10
0.0
 20
0.0
 30
0.0
 70
   128
 71
    76
 72
    77
 73
    42
  0
VERTEX
  5
8BD
  8
0
 62
     9
 10
0.0
 20
0.0
 30
0.0
 70
   128
 71
    79
 72
    78
 73
    43
  0
VERTEX
  5
8BE
  8
0
 62
     9
 10
0.0
 20
0.0
 30
0.0
 70
   128
 71
    43
 72
    42
 73
    79
  0
VERTEX
  5
8BF
  8
0
 62
     9
 10
0.0
 20
0.0
 30
0.0
 70
   128
 71
    80
 72
    47
 73
    43
  0
VERTEX
  5
8C0
  8
0
 62
     9
 10
0.0
 20
0.0
 30
0.0
 70
   128
 71
    80
 72
    81
 73
    47
  0
VERTEX
  5
8C1
  8
0
 62
     9
 10
0.0
 20
0.0
 30
0.0
 70
   128
 71
    82
 72
    50
 73
    47
  0
VERTEX
  5
8C2
  8
0
 62
     9
 10
0.0
 20
0.0
 30
0.0
 70
   128
 71
    47
 72
    81
 73
    82
  0
VERTEX
  5
8C3
  8
0
 62
     9
 10
0.0
 20
0.0
 30
0.0
 70
   128
 71
    43
 72
    78
 73
    80
  0
VERTEX
  5
8C4
  8
0
 62
     9
 10
0.0
 20
0.0
 30
0.0
 70
   128
 71
    42
 72
    77
 73
    79
  0
VERTEX
  5
8C5
  8
0
 62
     9
 10
0.0
 20
0.0
 30
0.0
 70
   128
 71
    42
 72
    39
 73
    76
  0
VERTEX
  5
8C6
  8
0
 62
     9
 10
0.0
 20
0.0
 30
0.0
 70
   128
 71
    35
 72
    73
 73
    75
  0
VERTEX
  5
8C7
  8
0
 62
     9
 10
0.0
 20
0.0
 30
0.0
 70
   128
 71
    34
 72
    72
 73
    74
  0
VERTEX
  5
8C8
  8
0
 62
     9
 10
0.0
 20
0.0
 30
0.0
 70
   128
 71
    32
 72
    71
 73
    72
  0
VERTEX
  5
8C9
  8
0
 62
     9
 10
0.0
 20
0.0
 30
0.0
 70
   128
 71
    28
 72
    68
 73
    70
  0
VERTEX
  5
8CA
  8
0
 62
     9
 10
0.0
 20
0.0
 30
0.0
 70
   128
 71
    27
 72
    67
 73
    69
  0
VERTEX
  5
8CB
  8
0
 62
     9
 10
0.0
 20
0.0
 30
0.0
 70
   128
 71
    25
 72
    66
 73
    67
  0
VERTEX
  5
8CC
  8
0
 62
     9
 10
0.0
 20
0.0
 30
0.0
 70
   128
 71
    22
 72
    65
 73
    66
  0
VERTEX
  5
8CD
  8
0
 62
     9
 10
0.0
 20
0.0
 30
0.0
 70
   128
 71
    18
 72
    62
 73
    64
  0
VERTEX
  5
8CE
  8
0
 62
     9
 10
0.0
 20
0.0
 30
0.0
 70
   128
 71
    17
 72
    61
 73
    63
  0
VERTEX
  5
8CF
  8
0
 62
     9
 10
0.0
 20
0.0
 30
0.0
 70
   128
 71
    15
 72
    60
 73
    61
  0
VERTEX
  5
8D0
  8
0
 62
     9
 10
0.0
 20
0.0
 30
0.0
 70
   128
 71
    11
 72
    57
 73
    59
  0
VERTEX
  5
8D1
  8
0
 62
     9
 10
0.0
 20
0.0
 30
0.0
 70
   128
 71
    10
 72
    56
 73
    58
  0
VERTEX
  5
8D2
  8
0
 62
     9
 10
0.0
 20
0.0
 30
0.0
 70
   128
 71
     8
 72
    55
 73
    56
  0
VERTEX
  5
8D3
  8
0
 62
     9
 10
0.0
 20
0.0
 30
0.0
 70
   128
 71
     4
 72
    52
 73
    54
  0
VERTEX
  5
8D4
  8
0
 62
     9
 10
0.0
 20
0.0
 30
0.0
 70
   128
 71
     2
 72
    51
 73
    53
  0
VERTEX
  5
8D5
  8
0
 62
     9
 10
0.0
 20
0.0
 30
0.0
 70
   128
 71
     3
 72
    83
 73
    51
  0
VERTEX
  5
8D6
  8
0
 62
     9
 10
0.0
 20
0.0
 30
0.0
 70
   128
 71
    48
 72
    47
 73
    50
  0
VERTEX
  5
8D7
  8
0
 62
     9
 10
0.0
 20
0.0
 30
0.0
 70
   128
 71
    47
 72
    48
 73
    46
  0
VERTEX
  5
8D8
  8
0
 62
     9
 10
0.0
 20
0.0
 30
0.0
 70
   128
 71
    43
 72
    45
 73
    44
  0
VERTEX
  5
8D9
  8
0
 62
     9
 10
0.0
 20
0.0
 30
0.0
 70
   128
 71
    40
 72
    39
 73
    42
  0
VERTEX
  5
8DA
  8
0
 62
     9
 10
0.0
 20
0.0
 30
0.0
 70
   128
 71
    39
 72
    40
 73
    38
  0
VERTEX
  5
8DB
  8
0
 62
     9
 10
0.0
 20
0.0
 30
0.0
 70
   128
 71
    35
 72
    37
 73
    36
  0
VERTEX
  5
8DC
  8
0
 62
     9
 10
0.0
 20
0.0
 30
0.0
 70
   128
 71
    33
 72
    84
 73
    32
  0
VERTEX
  5
8DD
  8
0
 62
     9
 10
0.0
 20
0.0
 30
0.0
 70
   128
 71
    32
 72
    84
 73
    31
  0
VERTEX
  5
8DE
  8
0
 62
     9
 10
0.0
 20
0.0
 30
0.0
 70
   128
 71
    28
 72
    30
 73
    29
  0
VERTEX
  5
8DF
  8
0
 62
     9
 10
0.0
 20
0.0
 30
0.0
 70
   128
 71
    24
 72
    25
 73
    27
  0
VERTEX
  5
8E0
  8
0
 62
     9
 10
0.0
 20
0.0
 30
0.0
 70
   128
 71
    23
 72
    22
 73
    25
  0
VERTEX
  5
8E1
  8
0
 62
     9
 10
0.0
 20
0.0
 30
0.0
 70
   128
 71
    22
 72
    23
 73
    21
  0
VERTEX
  5
8E2
  8
0
 62
     9
 10
0.0
 20
0.0
 30
0.0
 70
   128
 71
    18
 72
    20
 73
    19
  0
VERTEX
  5
8E3
  8
0
 62
     9
 10
0.0
 20
0.0
 30
0.0
 70
   128
 71
    16
 72
    85
 73
    15
  0
VERTEX
  5
8E4
  8
0
 62
     9
 10
0.0
 20
0.0
 30
0.0
 70
   128
 71
    15
 72
    85
 73
    14
  0
VERTEX
  5
8E5
  8
0
 62
     9
 10
0.0
 20
0.0
 30
0.0
 70
   128
 71
    11
 72
    13
 73
    12
  0
VERTEX
  5
8E6
  8
0
 62
     9
 10
0.0
 20
0.0
 30
0.0
 70
   128
 71
     9
 72
    86
 73
     8
  0
VERTEX
  5
8E7
  8
0
 62
     9
 10
0.0
 20
0.0
 30
0.0
 70
   128
 71
     8
 72
    86
 73
     7
  0
VERTEX
  5
8E8
  8
0
 62
     9
 10
0.0
 20
0.0
 30
0.0
 70
   128
 71
     4
 72
     6
 73
     5
  0
VERTEX
  5
8E9
  8
0
 62
     9
 10
0.0
 20
0.0
 30
0.0
 70
   128
 71
     1
 72
    87
 73
     3
  0
SEQEND
  5
8EA
  8
0
 62
     9
  0
ENDBLK
  5
8ED
  8
0
  0
BLOCK
  8
0
  2
E3_NODE_28_
 70
     0
 10
0.0
 20
0.0
 30
0.0
  3
E3_NODE_28_
  1

  0
POLYLINE
  5
8EF
  8
0
 62
     9
 66
     1
 10
0.0
 20
0.0
 30
0.0
 70
    64
 71
     6
 72
     4
  0
VERTEX
  5
8F0
  8
0
 10
6.48799991607666
 20
14.76399993896484
 30
-20.0
 70
   192
  0
VERTEX
  5
8F1
  8
0
 10
6.48799991607666
 20
14.76399993896484
 30
20.0
 70
   192
  0
VERTEX
  5
8F2
  8
0
 10
6.578000068664551
 20
14.55500030517578
 30
20.0
 70
   192
  0
VERTEX
  5
8F3
  8
0
 10
6.277999877929688
 20
14.85000038146973
 30
-20.0
 70
   192
  0
VERTEX
  5
8F4
  8
0
 10
6.277999877929688
 20
14.85000038146973
 30
20.0
 70
   192
  0
VERTEX
  5
8F5
  8
0
 10
6.578000068664551
 20
14.55500030517578
 30
-20.0
 70
   192
  0
VERTEX
  5
8F6
  8
0
 62
     9
 10
0.0
 20
0.0
 30
0.0
 70
   128
 71
     3
 72
     2
 73
     1
  0
VERTEX
  5
8F7
  8
0
 62
     9
 10
0.0
 20
0.0
 30
0.0
 70
   128
 71
     4
 72
     1
 73
     2
  0
VERTEX
  5
8F8
  8
0
 62
     9
 10
0.0
 20
0.0
 30
0.0
 70
   128
 71
     2
 72
     5
 73
     4
  0
VERTEX
  5
8F9
  8
0
 62
     9
 10
0.0
 20
0.0
 30
0.0
 70
   128
 71
     1
 72
     6
 73
     3
  0
SEQEND
  5
8FA
  8
0
 62
     9
  0
ENDBLK
  5
8FD
  8
0
  0
BLOCK
  8
0
  2
E3_NODE_29_
 70
     0
 10
0.0
 20
0.0
 30
0.0
  3
E3_NODE_29_
  1

  0
POLYLINE
  5
8FF
  8
0
 62
     9
 66
     1
 10
0.0
 20
0.0
 30
0.0
 70
    64
 71
     6
 72
     4
  0
VERTEX
  5
900
  8
0
 10
6.48799991607666
 20
-14.76399993896484
 30
-20.0
 70
   192
  0
VERTEX
  5
901
  8
0
 10
6.578000068664551
 20
-14.55500030517578
 30
-20.0
 70
   192
  0
VERTEX
  5
902
  8
0
 10
6.578000068664551
 20
-14.55500030517578
 30
20.0
 70
   192
  0
VERTEX
  5
903
  8
0
 10
6.48799991607666
 20
-14.76399993896484
 30
20.0
 70
   192
  0
VERTEX
  5
904
  8
0
 10
6.277999877929688
 20
-14.85000038146973
 30
20.0
 70
   192
  0
VERTEX
  5
905
  8
0
 10
6.277999877929688
 20
-14.85000038146973
 30
-20.0
 70
   192
  0
VERTEX
  5
906
  8
0
 62
     9
 10
0.0
 20
0.0
 30
0.0
 70
   128
 71
     3
 72
     2
 73
     1
  0
VERTEX
  5
907
  8
0
 62
     9
 10
0.0
 20
0.0
 30
0.0
 70
   128
 71
     5
 72
     4
 73
     1
  0
VERTEX
  5
908
  8
0
 62
     9
 10
0.0
 20
0.0
 30
0.0
 70
   128
 71
     1
 72
     6
 73
     5
  0
VERTEX
  5
909
  8
0
 62
     9
 10
0.0
 20
0.0
 30
0.0
 70
   128
 71
     1
 72
     4
 73
     3
  0
SEQEND
  5
90A
  8
0
 62
     9
  0
ENDBLK
  5
90D
  8
0
  0
BLOCK
  8
0
  2
E3_NODE_30_
 70
     0
 10
0.0
 20
0.0
 30
0.0
  3
E3_NODE_30_
  1

  0
POLYLINE
  5
90F
  8
0
 62
     9
 66
     1
 10
0.0
 20
0.0
 30
0.0
 70
    64
 71
    48
 72
    46
  0
VERTEX
  5
910
  8
0
 10
6.580999851226807
 20
14.35000038146973
 30
-20.0
 70
   192
  0
VERTEX
  5
911
  8
0
 10
6.580999851226807
 20
13.98999977111816
 30
-23.19300079345703
 70
   192
  0
VERTEX
  5
912
  8
0
 10
6.578000068664551
 20
14.37600040435791
 30
-22.27700042724609
 70
   192
  0
VERTEX
  5
913
  8
0
 10
6.578000068664551
 20
14.14799976348877
 30
-23.22900009155273
 70
   192
  0
VERTEX
  5
914
  8
0
 10
6.580999851226807
 20
12.92899990081787
 30
-26.22599983215332
 70
   192
  0
VERTEX
  5
915
  8
0
 10
6.578000068664551
 20
13.0939998626709
 30
-26.30699920654297
 70
   192
  0
VERTEX
  5
916
  8
0
 10
6.578000068664551
 20
13.8430004119873
 30
-24.49799919128418
 70
   192
  0
VERTEX
  5
917
  8
0
 10
6.580999851226807
 20
11.2189998626709
 30
-28.94700050354004
 70
   192
  0
VERTEX
  5
918
  8
0
 10
6.578000068664551
 20
11.77499961853027
 30
-28.55500030517578
 70
   192
  0
VERTEX
  5
919
  8
0
 10
6.578000068664551
 20
12.9689998626709
 30
-26.60799980163574
 70
   192
  0
VERTEX
  5
91A
  8
0
 10
6.578000068664551
 20
11.35200023651123
 30
-29.05100059509277
 70
   192
  0
VERTEX
  5
91B
  8
0
 10
6.580999851226807
 20
8.946999549865723
 30
-31.2189998626709
 70
   192
  0
VERTEX
  5
91C
  8
0
 10
6.578000068664551
 20
9.050999641418457
 30
-31.35199928283691
 70
   192
  0
VERTEX
  5
91D
  8
0
 10
6.578000068664551
 20
10.29199981689453
 30
-30.29199981689453
 70
   192
  0
VERTEX
  5
91E
  8
0
 10
6.580999851226807
 20
6.22599983215332
 30
-32.92900085449219
 70
   192
  0
VERTEX
  5
91F
  8
0
 10
6.578000068664551
 20
6.607999801635742
 30
-32.96900177001953
 70
   192
  0
VERTEX
  5
920
  8
0
 10
6.578000068664551
 20
8.555000305175781
 30
-31.77499961853027
 70
   192
  0
VERTEX
  5
921
  8
0
 10
6.578000068664551
 20
6.307000160217285
 30
-33.09400177001953
 70
   192
  0
VERTEX
  5
922
  8
0
 10
6.580999851226807
 20
3.193000078201294
 30
-33.9900016784668
 70
   192
  0
VERTEX
  5
923
  8
0
 10
6.578000068664551
 20
4.498000144958496
 30
-33.84299850463867
 70
   192
  0
VERTEX
  5
924
  8
0
 10
6.578000068664551
 20
3.229000091552734
 30
-34.14799880981445
 70
   192
  0
VERTEX
  5
925
  8
0
 10
6.580999851226807
 20
0.0
 30
-34.34999847412109
 70
   192
  0
VERTEX
  5
926
  8
0
 10
6.578000068664551
 20
0.0
 30
-34.55500030517578
 70
   192
  0
VERTEX
  5
927
  8
0
 10
6.578000068664551
 20
2.276999950408936
 30
-34.37599945068359
 70
   192
  0
VERTEX
  5
928
  8
0
 10
6.580999851226807
 20
-3.193000078201294
 30
-33.9900016784668
 70
   192
  0
VERTEX
  5
929
  8
0
 10
6.578000068664551
 20
-2.276999950408936
 30
-34.37599945068359
 70
   192
  0
VERTEX
  5
92A
  8
0
 10
6.578000068664551
 20
-3.229000091552734
 30
-34.14799880981445
 70
   192
  0
VERTEX
  5
92B
  8
0
 10
6.580999851226807
 20
-6.22599983215332
 30
-32.92900085449219
 70
   192
  0
VERTEX
  5
92C
  8
0
 10
6.578000068664551
 20
-6.307000160217285
 30
-33.09400177001953
 70
   192
  0
VERTEX
  5
92D
  8
0
 10
6.578000068664551
 20
-4.498000144958496
 30
-33.84299850463867
 70
   192
  0
VERTEX
  5
92E
  8
0
 10
6.580999851226807
 20
-8.946999549865723
 30
-31.2189998626709
 70
   192
  0
VERTEX
  5
92F
  8
0
 10
6.578000068664551
 20
-8.555000305175781
 30
-31.77499961853027
 70
   192
  0
VERTEX
  5
930
  8
0
 10
6.578000068664551
 20
-6.607999801635742
 30
-32.96900177001953
 70
   192
  0
VERTEX
  5
931
  8
0
 10
6.578000068664551
 20
-9.050999641418457
 30
-31.35199928283691
 70
   192
  0
VERTEX
  5
932
  8
0
 10
6.580999851226807
 20
-11.2189998626709
 30
-28.94700050354004
 70
   192
  0
VERTEX
  5
933
  8
0
 10
6.578000068664551
 20
-10.29199981689453
 30
-30.29199981689453
 70
   192
  0
VERTEX
  5
934
  8
0
 10
6.578000068664551
 20
-11.35200023651123
 30
-29.05100059509277
 70
   192
  0
VERTEX
  5
935
  8
0
 10
6.580999851226807
 20
-12.92899990081787
 30
-26.22599983215332
 70
   192
  0
VERTEX
  5
936
  8
0
 10
6.578000068664551
 20
-12.9689998626709
 30
-26.60799980163574
 70
   192
  0
VERTEX
  5
937
  8
0
 10
6.578000068664551
 20
-11.77499961853027
 30
-28.55500030517578
 70
   192
  0
VERTEX
  5
938
  8
0
 10
6.578000068664551
 20
-13.0939998626709
 30
-26.30699920654297
 70
   192
  0
VERTEX
  5
939
  8
0
 10
6.580999851226807
 20
-13.98999977111816
 30
-23.19300079345703
 70
   192
  0
VERTEX
  5
93A
  8
0
 10
6.578000068664551
 20
-13.8430004119873
 30
-24.49799919128418
 70
   192
  0
VERTEX
  5
93B
  8
0
 10
6.578000068664551
 20
-14.14799976348877
 30
-23.22900009155273
 70
   192
  0
VERTEX
  5
93C
  8
0
 10
6.580999851226807
 20
-14.35000038146973
 30
-20.0
 70
   192
  0
VERTEX
  5
93D
  8
0
 10
6.578000068664551
 20
-14.55500030517578
 30
-20.0
 70
   192
  0
VERTEX
  5
93E
  8
0
 10
6.578000068664551
 20
-14.37600040435791
 30
-22.27700042724609
 70
   192
  0
VERTEX
  5
93F
  8
0
 10
6.578000068664551
 20
14.55500030517578
 30
-20.0
 70
   192
  0
VERTEX
  5
940
  8
0
 62
     9
 10
0.0
 20
0.0
 30
0.0
 70
   128
 71
     3
 72
     2
 73
     1
  0
VERTEX
  5
941
  8
0
 62
     9
 10
0.0
 20
0.0
 30
0.0
 70
   128
 71
     3
 72
     4
 73
     2
  0
VERTEX
  5
942
  8
0
 62
     9
 10
0.0
 20
0.0
 30
0.0
 70
   128
 71
     7
 72
     6
 73
     5
  0
VERTEX
  5
943
  8
0
 62
     9
 10
0.0
 20
0.0
 30
0.0
 70
   128
 71
     5
 72
     2
 73
     7
  0
VERTEX
  5
944
  8
0
 62
     9
 10
0.0
 20
0.0
 30
0.0
 70
   128
 71
     9
 72
     8
 73
     5
  0
VERTEX
  5
945
  8
0
 62
     9
 10
0.0
 20
0.0
 30
0.0
 70
   128
 71
     5
 72
    10
 73
     9
  0
VERTEX
  5
946
  8
0
 62
     9
 10
0.0
 20
0.0
 30
0.0
 70
   128
 71
     9
 72
    11
 73
     8
  0
VERTEX
  5
947
  8
0
 62
     9
 10
0.0
 20
0.0
 30
0.0
 70
   128
 71
    14
 72
    13
 73
    12
  0
VERTEX
  5
948
  8
0
 62
     9
 10
0.0
 20
0.0
 30
0.0
 70
   128
 71
    12
 72
     8
 73
    14
  0
VERTEX
  5
949
  8
0
 62
     9
 10
0.0
 20
0.0
 30
0.0
 70
   128
 71
    17
 72
    16
 73
    15
  0
VERTEX
  5
94A
  8
0
 62
     9
 10
0.0
 20
0.0
 30
0.0
 70
   128
 71
    16
 72
    18
 73
    15
  0
VERTEX
  5
94B
  8
0
 62
     9
 10
0.0
 20
0.0
 30
0.0
 70
   128
 71
    15
 72
    12
 73
    17
  0
VERTEX
  5
94C
  8
0
 62
     9
 10
0.0
 20
0.0
 30
0.0
 70
   128
 71
    20
 72
    19
 73
    15
  0
VERTEX
  5
94D
  8
0
 62
     9
 10
0.0
 20
0.0
 30
0.0
 70
   128
 71
    20
 72
    21
 73
    19
  0
VERTEX
  5
94E
  8
0
 62
     9
 10
0.0
 20
0.0
 30
0.0
 70
   128
 71
    24
 72
    23
 73
    22
  0
VERTEX
  5
94F
  8
0
 62
     9
 10
0.0
 20
0.0
 30
0.0
 70
   128
 71
    22
 72
    19
 73
    24
  0
VERTEX
  5
950
  8
0
 62
     9
 10
0.0
 20
0.0
 30
0.0
 70
   128
 71
    26
 72
    25
 73
    22
  0
VERTEX
  5
951
  8
0
 62
     9
 10
0.0
 20
0.0
 30
0.0
 70
   128
 71
    26
 72
    27
 73
    25
  0
VERTEX
  5
952
  8
0
 62
     9
 10
0.0
 20
0.0
 30
0.0
 70
   128
 71
    30
 72
    29
 73
    28
  0
VERTEX
  5
953
  8
0
 62
     9
 10
0.0
 20
0.0
 30
0.0
 70
   128
 71
    28
 72
    25
 73
    30
  0
VERTEX
  5
954
  8
0
 62
     9
 10
0.0
 20
0.0
 30
0.0
 70
   128
 71
    32
 72
    31
 73
    28
  0
VERTEX
  5
955
  8
0
 62
     9
 10
0.0
 20
0.0
 30
0.0
 70
   128
 71
    28
 72
    33
 73
    32
  0
VERTEX
  5
956
  8
0
 62
     9
 10
0.0
 20
0.0
 30
0.0
 70
   128
 71
    32
 72
    34
 73
    31
  0
VERTEX
  5
957
  8
0
 62
     9
 10
0.0
 20
0.0
 30
0.0
 70
   128
 71
    36
 72
    35
 73
    31
  0
VERTEX
  5
958
  8
0
 62
     9
 10
0.0
 20
0.0
 30
0.0
 70
   128
 71
    36
 72
    37
 73
    35
  0
VERTEX
  5
959
  8
0
 62
     9
 10
0.0
 20
0.0
 30
0.0
 70
   128
 71
    40
 72
    39
 73
    38
  0
VERTEX
  5
95A
  8
0
 62
     9
 10
0.0
 20
0.0
 30
0.0
 70
   128
 71
    39
 72
    41
 73
    38
  0
VERTEX
  5
95B
  8
0
 62
     9
 10
0.0
 20
0.0
 30
0.0
 70
   128
 71
    38
 72
    35
 73
    40
  0
VERTEX
  5
95C
  8
0
 62
     9
 10
0.0
 20
0.0
 30
0.0
 70
   128
 71
    43
 72
    42
 73
    38
  0
VERTEX
  5
95D
  8
0
 62
     9
 10
0.0
 20
0.0
 30
0.0
 70
   128
 71
    43
 72
    44
 73
    42
  0
VERTEX
  5
95E
  8
0
 62
     9
 10
0.0
 20
0.0
 30
0.0
 70
   128
 71
    47
 72
    46
 73
    45
  0
VERTEX
  5
95F
  8
0
 62
     9
 10
0.0
 20
0.0
 30
0.0
 70
   128
 71
    45
 72
    42
 73
    47
  0
VERTEX
  5
960
  8
0
 62
     9
 10
0.0
 20
0.0
 30
0.0
 70
   128
 71
    42
 72
    44
 73
    47
  0
VERTEX
  5
961
  8
0
 62
     9
 10
0.0
 20
0.0
 30
0.0
 70
   128
 71
    38
 72
    41
 73
    43
  0
VERTEX
  5
962
  8
0
 62
     9
 10
0.0
 20
0.0
 30
0.0
 70
   128
 71
    35
 72
    37
 73
    40
  0
VERTEX
  5
963
  8
0
 62
     9
 10
0.0
 20
0.0
 30
0.0
 70
   128
 71
    31
 72
    34
 73
    36
  0
VERTEX
  5
964
  8
0
 62
     9
 10
0.0
 20
0.0
 30
0.0
 70
   128
 71
    28
 72
    29
 73
    33
  0
VERTEX
  5
965
  8
0
 62
     9
 10
0.0
 20
0.0
 30
0.0
 70
   128
 71
    25
 72
    27
 73
    30
  0
VERTEX
  5
966
  8
0
 62
     9
 10
0.0
 20
0.0
 30
0.0
 70
   128
 71
    22
 72
    23
 73
    26
  0
VERTEX
  5
967
  8
0
 62
     9
 10
0.0
 20
0.0
 30
0.0
 70
   128
 71
    19
 72
    21
 73
    24
  0
VERTEX
  5
968
  8
0
 62
     9
 10
0.0
 20
0.0
 30
0.0
 70
   128
 71
    15
 72
    18
 73
    20
  0
VERTEX
  5
969
  8
0
 62
     9
 10
0.0
 20
0.0
 30
0.0
 70
   128
 71
    12
 72
    13
 73
    17
  0
VERTEX
  5
96A
  8
0
 62
     9
 10
0.0
 20
0.0
 30
0.0
 70
   128
 71
     8
 72
    11
 73
    14
  0
VERTEX
  5
96B
  8
0
 62
     9
 10
0.0
 20
0.0
 30
0.0
 70
   128
 71
     5
 72
     6
 73
    10
  0
VERTEX
  5
96C
  8
0
 62
     9
 10
0.0
 20
0.0
 30
0.0
 70
   128
 71
     2
 72
     4
 73
     7
  0
VERTEX
  5
96D
  8
0
 62
     9
 10
0.0
 20
0.0
 30
0.0
 70
   128
 71
     1
 72
    48
 73
     3
  0
SEQEND
  5
96E
  8
0
 62
     9
  0
ENDBLK
  5
971
  8
0
  0
BLOCK
  8
0
  2
E3_NODE_31_
 70
     0
 10
0.0
 20
0.0
 30
0.0
  3
E3_NODE_31_
  1

  0
POLYLINE
  5
973
  8
0
 62
     9
 66
     1
 10
0.0
 20
0.0
 30
0.0
 70
    64
 71
    87
 72
   104
  0
VERTEX
  5
974
  8
0
 10
6.277999877929688
 20
14.66699981689453
 30
22.32299995422363
 70
   192
  0
VERTEX
  5
975
  8
0
 10
6.48799991607666
 20
14.58199977874756
 30
22.30999946594238
 70
   192
  0
VERTEX
  5
976
  8
0
 10
6.48799991607666
 20
14.76399993896484
 30
20.0
 70
   192
  0
VERTEX
  5
977
  8
0
 10
6.48799991607666
 20
14.04100036621094
 30
24.5620002746582
 70
   192
  0
VERTEX
  5
978
  8
0
 10
6.277999877929688
 20
14.43400001525879
 30
23.29400062561035
 70
   192
  0
VERTEX
  5
979
  8
0
 10
6.277999877929688
 20
14.1230001449585
 30
24.5890007019043
 70
   192
  0
VERTEX
  5
97A
  8
0
 10
6.277999877929688
 20
13.35900020599365
 30
26.43499946594238
 70
   192
  0
VERTEX
  5
97B
  8
0
 10
6.48799991607666
 20
13.15499973297119
 30
26.70299911499023
 70
   192
  0
VERTEX
  5
97C
  8
0
 10
6.277999877929688
 20
13.23099994659424
 30
26.74200057983398
 70
   192
  0
VERTEX
  5
97D
  8
0
 10
6.277999877929688
 20
12.01399993896484
 30
28.72900009155273
 70
   192
  0
VERTEX
  5
97E
  8
0
 10
6.48799991607666
 20
11.94400024414062
 30
28.67799949645996
 70
   192
  0
VERTEX
  5
97F
  8
0
 10
6.48799991607666
 20
10.4399995803833
 30
30.44000053405762
 70
   192
  0
VERTEX
  5
980
  8
0
 10
6.277999877929688
 20
11.58199977874756
 30
29.23500061035156
 70
   192
  0
VERTEX
  5
981
  8
0
 10
6.277999877929688
 20
10.50100040435791
 30
30.50099945068359
 70
   192
  0
VERTEX
  5
982
  8
0
 10
6.277999877929688
 20
9.234999656677246
 30
31.58200073242188
 70
   192
  0
VERTEX
  5
983
  8
0
 10
6.48799991607666
 20
8.678000450134277
 30
31.94400024414062
 70
   192
  0
VERTEX
  5
984
  8
0
 10
6.277999877929688
 20
8.729000091552734
 30
32.01399993896484
 70
   192
  0
VERTEX
  5
985
  8
0
 10
6.277999877929688
 20
6.742000102996826
 30
33.23099899291992
 70
   192
  0
VERTEX
  5
986
  8
0
 10
6.48799991607666
 20
6.703000068664551
 30
33.15499877929688
 70
   192
  0
VERTEX
  5
987
  8
0
 10
6.48799991607666
 20
4.561999797821045
 30
34.04100036621094
 70
   192
  0
VERTEX
  5
988
  8
0
 10
6.277999877929688
 20
6.434999942779541
 30
33.35900115966797
 70
   192
  0
VERTEX
  5
989
  8
0
 10
6.277999877929688
 20
4.589000225067139
 30
34.12300109863281
 70
   192
  0
VERTEX
  5
98A
  8
0
 10
6.277999877929688
 20
3.293999910354614
 30
34.43399810791016
 70
   192
  0
VERTEX
  5
98B
  8
0
 10
6.48799991607666
 20
2.309999942779541
 30
34.58200073242188
 70
   192
  0
VERTEX
  5
98C
  8
0
 10
6.277999877929688
 20
2.322999954223633
 30
34.66699981689453
 70
   192
  0
VERTEX
  5
98D
  8
0
 10
6.277999877929688
 20
0.0
 30
34.84999847412109
 70
   192
  0
VERTEX
  5
98E
  8
0
 10
6.48799991607666
 20
0.0
 30
34.76399993896484
 70
   192
  0
VERTEX
  5
98F
  8
0
 10
6.277999877929688
 20
-2.322999954223633
 30
34.66699981689453
 70
   192
  0
VERTEX
  5
990
  8
0
 10
6.48799991607666
 20
-2.309999942779541
 30
34.58200073242188
 70
   192
  0
VERTEX
  5
991
  8
0
 10
6.48799991607666
 20
-4.561999797821045
 30
34.04100036621094
 70
   192
  0
VERTEX
  5
992
  8
0
 10
6.277999877929688
 20
-3.293999910354614
 30
34.43399810791016
 70
   192
  0
VERTEX
  5
993
  8
0
 10
6.277999877929688
 20
-4.589000225067139
 30
34.12300109863281
 70
   192
  0
VERTEX
  5
994
  8
0
 10
6.277999877929688
 20
-6.434999942779541
 30
33.35900115966797
 70
   192
  0
VERTEX
  5
995
  8
0
 10
6.48799991607666
 20
-6.703000068664551
 30
33.15499877929688
 70
   192
  0
VERTEX
  5
996
  8
0
 10
6.277999877929688
 20
-6.742000102996826
 30
33.23099899291992
 70
   192
  0
VERTEX
  5
997
  8
0
 10
6.277999877929688
 20
-8.729000091552734
 30
32.01399993896484
 70
   192
  0
VERTEX
  5
998
  8
0
 10
6.48799991607666
 20
-8.678000450134277
 30
31.94400024414062
 70
   192
  0
VERTEX
  5
999
  8
0
 10
6.48799991607666
 20
-10.4399995803833
 30
30.44000053405762
 70
   192
  0
VERTEX
  5
99A
  8
0
 10
6.277999877929688
 20
-9.234999656677246
 30
31.58200073242188
 70
   192
  0
VERTEX
  5
99B
  8
0
 10
6.277999877929688
 20
-10.50100040435791
 30
30.50099945068359
 70
   192
  0
VERTEX
  5
99C
  8
0
 10
6.277999877929688
 20
-11.58199977874756
 30
29.23500061035156
 70
   192
  0
VERTEX
  5
99D
  8
0
 10
6.48799991607666
 20
-11.94400024414062
 30
28.67799949645996
 70
   192
  0
VERTEX
  5
99E
  8
0
 10
6.277999877929688
 20
-13.23099994659424
 30
26.74200057983398
 70
   192
  0
VERTEX
  5
99F
  8
0
 10
6.48799991607666
 20
-13.15499973297119
 30
26.70299911499023
 70
   192
  0
VERTEX
  5
9A0
  8
0
 10
6.48799991607666
 20
-14.04100036621094
 30
24.5620002746582
 70
   192
  0
VERTEX
  5
9A1
  8
0
 10
6.277999877929688
 20
-13.35900020599365
 30
26.43499946594238
 70
   192
  0
VERTEX
  5
9A2
  8
0
 10
6.277999877929688
 20
-14.1230001449585
 30
24.5890007019043
 70
   192
  0
VERTEX
  5
9A3
  8
0
 10
6.277999877929688
 20
-14.43400001525879
 30
23.29400062561035
 70
   192
  0
VERTEX
  5
9A4
  8
0
 10
6.48799991607666
 20
-14.58199977874756
 30
22.30999946594238
 70
   192
  0
VERTEX
  5
9A5
  8
0
 10
6.277999877929688
 20
-14.85000038146973
 30
20.0
 70
   192
  0
VERTEX
  5
9A6
  8
0
 10
6.48799991607666
 20
-14.76399993896484
 30
20.0
 70
   192
  0
VERTEX
  5
9A7
  8
0
 10
6.578000068664551
 20
14.37600040435791
 30
22.27700042724609
 70
   192
  0
VERTEX
  5
9A8
  8
0
 10
6.578000068664551
 20
13.8430004119873
 30
24.49799919128418
 70
   192
  0
VERTEX
  5
9A9
  8
0
 10
6.578000068664551
 20
14.14799976348877
 30
23.22900009155273
 70
   192
  0
VERTEX
  5
9AA
  8
0
 10
6.578000068664551
 20
13.0939998626709
 30
26.30699920654297
 70
   192
  0
VERTEX
  5
9AB
  8
0
 10
6.578000068664551
 20
12.9689998626709
 30
26.60799980163574
 70
   192
  0
VERTEX
  5
9AC
  8
0
 10
6.578000068664551
 20
11.77499961853027
 30
28.55500030517578
 70
   192
  0
VERTEX
  5
9AD
  8
0
 10
6.578000068664551
 20
10.29199981689453
 30
30.29199981689453
 70
   192
  0
VERTEX
  5
9AE
  8
0
 10
6.578000068664551
 20
11.35200023651123
 30
29.05100059509277
 70
   192
  0
VERTEX
  5
9AF
  8
0
 10
6.578000068664551
 20
9.050999641418457
 30
31.35199928283691
 70
   192
  0
VERTEX
  5
9B0
  8
0
 10
6.578000068664551
 20
8.555000305175781
 30
31.77499961853027
 70
   192
  0
VERTEX
  5
9B1
  8
0
 10
6.578000068664551
 20
6.607999801635742
 30
32.96900177001953
 70
   192
  0
VERTEX
  5
9B2
  8
0
 10
6.578000068664551
 20
4.498000144958496
 30
33.84299850463867
 70
   192
  0
VERTEX
  5
9B3
  8
0
 10
6.578000068664551
 20
6.307000160217285
 30
33.09400177001953
 70
   192
  0
VERTEX
  5
9B4
  8
0
 10
6.578000068664551
 20
3.229000091552734
 30
34.14799880981445
 70
   192
  0
VERTEX
  5
9B5
  8
0
 10
6.578000068664551
 20
2.276999950408936
 30
34.37599945068359
 70
   192
  0
VERTEX
  5
9B6
  8
0
 10
6.578000068664551
 20
0.0
 30
34.55500030517578
 70
   192
  0
VERTEX
  5
9B7
  8
0
 10
6.578000068664551
 20
-2.276999950408936
 30
34.37599945068359
 70
   192
  0
VERTEX
  5
9B8
  8
0
 10
6.578000068664551
 20
-4.498000144958496
 30
33.84299850463867
 70
   192
  0
VERTEX
  5
9B9
  8
0
 10
6.578000068664551
 20
-3.229000091552734
 30
34.14799880981445
 70
   192
  0
VERTEX
  5
9BA
  8
0
 10
6.578000068664551
 20
-6.307000160217285
 30
33.09400177001953
 70
   192
  0
VERTEX
  5
9BB
  8
0
 10
6.578000068664551
 20
-6.607999801635742
 30
32.96900177001953
 70
   192
  0
VERTEX
  5
9BC
  8
0
 10
6.578000068664551
 20
-8.555000305175781
 30
31.77499961853027
 70
   192
  0
VERTEX
  5
9BD
  8
0
 10
6.578000068664551
 20
-10.29199981689453
 30
30.29199981689453
 70
   192
  0
VERTEX
  5
9BE
  8
0
 10
6.578000068664551
 20
-9.050999641418457
 30
31.35199928283691
 70
   192
  0
VERTEX
  5
9BF
  8
0
 10
6.578000068664551
 20
-11.35200023651123
 30
29.05100059509277
 70
   192
  0
VERTEX
  5
9C0
  8
0
 10
6.578000068664551
 20
-11.77499961853027
 30
28.55500030517578
 70
   192
  0
VERTEX
  5
9C1
  8
0
 10
6.578000068664551
 20
-12.9689998626709
 30
26.60799980163574
 70
   192
  0
VERTEX
  5
9C2
  8
0
 10
6.578000068664551
 20
-13.8430004119873
 30
24.49799919128418
 70
   192
  0
VERTEX
  5
9C3
  8
0
 10
6.578000068664551
 20
-13.0939998626709
 30
26.30699920654297
 70
   192
  0
VERTEX
  5
9C4
  8
0
 10
6.578000068664551
 20
-14.14799976348877
 30
23.22900009155273
 70
   192
  0
VERTEX
  5
9C5
  8
0
 10
6.578000068664551
 20
-14.37600040435791
 30
22.27700042724609
 70
   192
  0
VERTEX
  5
9C6
  8
0
 10
6.578000068664551
 20
-14.55500030517578
 30
20.0
 70
   192
  0
VERTEX
  5
9C7
  8
0
 10
6.578000068664551
 20
14.55500030517578
 30
20.0
 70
   192
  0
VERTEX
  5
9C8
  8
0
 10
6.277999877929688
 20
-14.66699981689453
 30
22.32299995422363
 70
   192
  0
VERTEX
  5
9C9
  8
0
 10
6.277999877929688
 20
-12.01399993896484
 30
28.72900009155273
 70
   192
  0
VERTEX
  5
9CA
  8
0
 10
6.277999877929688
 20
14.85000038146973
 30
20.0
 70
   192
  0
VERTEX
  5
9CB
  8
0
 62
     9
 10
0.0
 20
0.0
 30
0.0
 70
   128
 71
     3
 72
     2
 73
     1
  0
VERTEX
  5
9CC
  8
0
 62
     9
 10
0.0
 20
0.0
 30
0.0
 70
   128
 71
     5
 72
     2
 73
     4
  0
VERTEX
  5
9CD
  8
0
 62
     9
 10
0.0
 20
0.0
 30
0.0
 70
   128
 71
     5
 72
     1
 73
     2
  0
VERTEX
  5
9CE
  8
0
 62
     9
 10
0.0
 20
0.0
 30
0.0
 70
   128
 71
     7
 72
     6
 73
     4
  0
VERTEX
  5
9CF
  8
0
 62
     9
 10
0.0
 20
0.0
 30
0.0
 70
   128
 71
     4
 72
     8
 73
     7
  0
VERTEX
  5
9D0
  8
0
 62
     9
 10
0.0
 20
0.0
 30
0.0
 70
   128
 71
    11
 72
    10
 73
     9
  0
VERTEX
  5
9D1
  8
0
 62
     9
 10
0.0
 20
0.0
 30
0.0
 70
   128
 71
    13
 72
    11
 73
    12
  0
VERTEX
  5
9D2
  8
0
 62
     9
 10
0.0
 20
0.0
 30
0.0
 70
   128
 71
    13
 72
    10
 73
    11
  0
VERTEX
  5
9D3
  8
0
 62
     9
 10
0.0
 20
0.0
 30
0.0
 70
   128
 71
    15
 72
    14
 73
    12
  0
VERTEX
  5
9D4
  8
0
 62
     9
 10
0.0
 20
0.0
 30
0.0
 70
   128
 71
    12
 72
    16
 73
    15
  0
VERTEX
  5
9D5
  8
0
 62
     9
 10
0.0
 20
0.0
 30
0.0
 70
   128
 71
    19
 72
    18
 73
    17
  0
VERTEX
  5
9D6
  8
0
 62
     9
 10
0.0
 20
0.0
 30
0.0
 70
   128
 71
    21
 72
    19
 73
    20
  0
VERTEX
  5
9D7
  8
0
 62
     9
 10
0.0
 20
0.0
 30
0.0
 70
   128
 71
    21
 72
    18
 73
    19
  0
VERTEX
  5
9D8
  8
0
 62
     9
 10
0.0
 20
0.0
 30
0.0
 70
   128
 71
    23
 72
    22
 73
    20
  0
VERTEX
  5
9D9
  8
0
 62
     9
 10
0.0
 20
0.0
 30
0.0
 70
   128
 71
    20
 72
    24
 73
    23
  0
VERTEX
  5
9DA
  8
0
 62
     9
 10
0.0
 20
0.0
 30
0.0
 70
   128
 71
    27
 72
    26
 73
    25
  0
VERTEX
  5
9DB
  8
0
 62
     9
 10
0.0
 20
0.0
 30
0.0
 70
   128
 71
    27
 72
    29
 73
    28
  0
VERTEX
  5
9DC
  8
0
 62
     9
 10
0.0
 20
0.0
 30
0.0
 70
   128
 71
    31
 72
    29
 73
    30
  0
VERTEX
  5
9DD
  8
0
 62
     9
 10
0.0
 20
0.0
 30
0.0
 70
   128
 71
    31
 72
    28
 73
    29
  0
VERTEX
  5
9DE
  8
0
 62
     9
 10
0.0
 20
0.0
 30
0.0
 70
   128
 71
    33
 72
    32
 73
    30
  0
VERTEX
  5
9DF
  8
0
 62
     9
 10
0.0
 20
0.0
 30
0.0
 70
   128
 71
    30
 72
    34
 73
    33
  0
VERTEX
  5
9E0
  8
0
 62
     9
 10
0.0
 20
0.0
 30
0.0
 70
   128
 71
    37
 72
    36
 73
    35
  0
VERTEX
  5
9E1
  8
0
 62
     9
 10
0.0
 20
0.0
 30
0.0
 70
   128
 71
    39
 72
    37
 73
    38
  0
VERTEX
  5
9E2
  8
0
 62
     9
 10
0.0
 20
0.0
 30
0.0
 70
   128
 71
    39
 72
    36
 73
    37
  0
VERTEX
  5
9E3
  8
0
 62
     9
 10
0.0
 20
0.0
 30
0.0
 70
   128
 71
    41
 72
    40
 73
    38
  0
VERTEX
  5
9E4
  8
0
 62
     9
 10
0.0
 20
0.0
 30
0.0
 70
   128
 71
    38
 72
    42
 73
    41
  0
VERTEX
  5
9E5
  8
0
 62
     9
 10
0.0
 20
0.0
 30
0.0
 70
   128
 71
    42
 72
    44
 73
    43
  0
VERTEX
  5
9E6
  8
0
 62
     9
 10
0.0
 20
0.0
 30
0.0
 70
   128
 71
    46
 72
    44
 73
    45
  0
VERTEX
  5
9E7
  8
0
 62
     9
 10
0.0
 20
0.0
 30
0.0
 70
   128
 71
    46
 72
    43
 73
    44
  0
VERTEX
  5
9E8
  8
0
 62
     9
 10
0.0
 20
0.0
 30
0.0
 70
   128
 71
    48
 72
    47
 73
    45
  0
VERTEX
  5
9E9
  8
0
 62
     9
 10
0.0
 20
0.0
 30
0.0
 70
   128
 71
    45
 72
    49
 73
    48
  0
VERTEX
  5
9EA
  8
0
 62
     9
 10
0.0
 20
0.0
 30
0.0
 70
   128
 71
    49
 72
    51
 73
    50
  0
VERTEX
  5
9EB
  8
0
 62
     9
 10
0.0
 20
0.0
 30
0.0
 70
   128
 71
    52
 72
     2
 73
     3
  0
VERTEX
  5
9EC
  8
0
 62
     9
 10
0.0
 20
0.0
 30
0.0
 70
   128
 71
    54
 72
    53
 73
     4
  0
VERTEX
  5
9ED
  8
0
 62
     9
 10
0.0
 20
0.0
 30
0.0
 70
   128
 71
     4
 72
     2
 73
    54
  0
VERTEX
  5
9EE
  8
0
 62
     9
 10
0.0
 20
0.0
 30
0.0
 70
   128
 71
    55
 72
     8
 73
     4
  0
VERTEX
  5
9EF
  8
0
 62
     9
 10
0.0
 20
0.0
 30
0.0
 70
   128
 71
    55
 72
    56
 73
     8
  0
VERTEX
  5
9F0
  8
0
 62
     9
 10
0.0
 20
0.0
 30
0.0
 70
   128
 71
    56
 72
    57
 73
    11
  0
VERTEX
  5
9F1
  8
0
 62
     9
 10
0.0
 20
0.0
 30
0.0
 70
   128
 71
    59
 72
    58
 73
    12
  0
VERTEX
  5
9F2
  8
0
 62
     9
 10
0.0
 20
0.0
 30
0.0
 70
   128
 71
    12
 72
    11
 73
    59
  0
VERTEX
  5
9F3
  8
0
 62
     9
 10
0.0
 20
0.0
 30
0.0
 70
   128
 71
    60
 72
    16
 73
    12
  0
VERTEX
  5
9F4
  8
0
 62
     9
 10
0.0
 20
0.0
 30
0.0
 70
   128
 71
    60
 72
    61
 73
    16
  0
VERTEX
  5
9F5
  8
0
 62
     9
 10
0.0
 20
0.0
 30
0.0
 70
   128
 71
    61
 72
    62
 73
    19
  0
VERTEX
  5
9F6
  8
0
 62
     9
 10
0.0
 20
0.0
 30
0.0
 70
   128
 71
    64
 72
    63
 73
    20
  0
VERTEX
  5
9F7
  8
0
 62
     9
 10
0.0
 20
0.0
 30
0.0
 70
   128
 71
    20
 72
    19
 73
    64
  0
VERTEX
  5
9F8
  8
0
 62
     9
 10
0.0
 20
0.0
 30
0.0
 70
   128
 71
    65
 72
    24
 73
    20
  0
VERTEX
  5
9F9
  8
0
 62
     9
 10
0.0
 20
0.0
 30
0.0
 70
   128
 71
    65
 72
    66
 73
    24
  0
VERTEX
  5
9FA
  8
0
 62
     9
 10
0.0
 20
0.0
 30
0.0
 70
   128
 71
    66
 72
    67
 73
    27
  0
VERTEX
  5
9FB
  8
0
 62
     9
 10
0.0
 20
0.0
 30
0.0
 70
   128
 71
    67
 72
    68
 73
    29
  0
VERTEX
  5
9FC
  8
0
 62
     9
 10
0.0
 20
0.0
 30
0.0
 70
   128
 71
    70
 72
    69
 73
    30
  0
VERTEX
  5
9FD
  8
0
 62
     9
 10
0.0
 20
0.0
 30
0.0
 70
   128
 71
    30
 72
    29
 73
    70
  0
VERTEX
  5
9FE
  8
0
 62
     9
 10
0.0
 20
0.0
 30
0.0
 70
   128
 71
    71
 72
    34
 73
    30
  0
VERTEX
  5
9FF
  8
0
 62
     9
 10
0.0
 20
0.0
 30
0.0
 70
   128
 71
    71
 72
    72
 73
    34
  0
VERTEX
  5
A00
  8
0
 62
     9
 10
0.0
 20
0.0
 30
0.0
 70
   128
 71
    73
 72
    37
 73
    34
  0
VERTEX
  5
A01
  8
0
 62
     9
 10
0.0
 20
0.0
 30
0.0
 70
   128
 71
    75
 72
    74
 73
    38
  0
VERTEX
  5
A02
  8
0
 62
     9
 10
0.0
 20
0.0
 30
0.0
 70
   128
 71
    38
 72
    37
 73
    75
  0
VERTEX
  5
A03
  8
0
 62
     9
 10
0.0
 20
0.0
 30
0.0
 70
   128
 71
    76
 72
    42
 73
    38
  0
VERTEX
  5
A04
  8
0
 62
     9
 10
0.0
 20
0.0
 30
0.0
 70
   128
 71
    76
 72
    77
 73
    42
  0
VERTEX
  5
A05
  8
0
 62
     9
 10
0.0
 20
0.0
 30
0.0
 70
   128
 71
    78
 72
    44
 73
    42
  0
VERTEX
  5
A06
  8
0
 62
     9
 10
0.0
 20
0.0
 30
0.0
 70
   128
 71
    80
 72
    79
 73
    45
  0
VERTEX
  5
A07
  8
0
 62
     9
 10
0.0
 20
0.0
 30
0.0
 70
   128
 71
    45
 72
    44
 73
    80
  0
VERTEX
  5
A08
  8
0
 62
     9
 10
0.0
 20
0.0
 30
0.0
 70
   128
 71
    81
 72
    49
 73
    45
  0
VERTEX
  5
A09
  8
0
 62
     9
 10
0.0
 20
0.0
 30
0.0
 70
   128
 71
    81
 72
    82
 73
    49
  0
VERTEX
  5
A0A
  8
0
 62
     9
 10
0.0
 20
0.0
 30
0.0
 70
   128
 71
    82
 72
    83
 73
    51
  0
VERTEX
  5
A0B
  8
0
 62
     9
 10
0.0
 20
0.0
 30
0.0
 70
   128
 71
    51
 72
    49
 73
    82
  0
VERTEX
  5
A0C
  8
0
 62
     9
 10
0.0
 20
0.0
 30
0.0
 70
   128
 71
    45
 72
    79
 73
    81
  0
VERTEX
  5
A0D
  8
0
 62
     9
 10
0.0
 20
0.0
 30
0.0
 70
   128
 71
    44
 72
    78
 73
    80
  0
VERTEX
  5
A0E
  8
0
 62
     9
 10
0.0
 20
0.0
 30
0.0
 70
   128
 71
    42
 72
    77
 73
    78
  0
VERTEX
  5
A0F
  8
0
 62
     9
 10
0.0
 20
0.0
 30
0.0
 70
   128
 71
    38
 72
    74
 73
    76
  0
VERTEX
  5
A10
  8
0
 62
     9
 10
0.0
 20
0.0
 30
0.0
 70
   128
 71
    37
 72
    73
 73
    75
  0
VERTEX
  5
A11
  8
0
 62
     9
 10
0.0
 20
0.0
 30
0.0
 70
   128
 71
    34
 72
    72
 73
    73
  0
VERTEX
  5
A12
  8
0
 62
     9
 10
0.0
 20
0.0
 30
0.0
 70
   128
 71
    30
 72
    69
 73
    71
  0
VERTEX
  5
A13
  8
0
 62
     9
 10
0.0
 20
0.0
 30
0.0
 70
   128
 71
    29
 72
    68
 73
    70
  0
VERTEX
  5
A14
  8
0
 62
     9
 10
0.0
 20
0.0
 30
0.0
 70
   128
 71
    29
 72
    27
 73
    67
  0
VERTEX
  5
A15
  8
0
 62
     9
 10
0.0
 20
0.0
 30
0.0
 70
   128
 71
    27
 72
    24
 73
    66
  0
VERTEX
  5
A16
  8
0
 62
     9
 10
0.0
 20
0.0
 30
0.0
 70
   128
 71
    20
 72
    63
 73
    65
  0
VERTEX
  5
A17
  8
0
 62
     9
 10
0.0
 20
0.0
 30
0.0
 70
   128
 71
    19
 72
    62
 73
    64
  0
VERTEX
  5
A18
  8
0
 62
     9
 10
0.0
 20
0.0
 30
0.0
 70
   128
 71
    19
 72
    16
 73
    61
  0
VERTEX
  5
A19
  8
0
 62
     9
 10
0.0
 20
0.0
 30
0.0
 70
   128
 71
    12
 72
    58
 73
    60
  0
VERTEX
  5
A1A
  8
0
 62
     9
 10
0.0
 20
0.0
 30
0.0
 70
   128
 71
    11
 72
    57
 73
    59
  0
VERTEX
  5
A1B
  8
0
 62
     9
 10
0.0
 20
0.0
 30
0.0
 70
   128
 71
    11
 72
     8
 73
    56
  0
VERTEX
  5
A1C
  8
0
 62
     9
 10
0.0
 20
0.0
 30
0.0
 70
   128
 71
     4
 72
    53
 73
    55
  0
VERTEX
  5
A1D
  8
0
 62
     9
 10
0.0
 20
0.0
 30
0.0
 70
   128
 71
     2
 72
    52
 73
    54
  0
VERTEX
  5
A1E
  8
0
 62
     9
 10
0.0
 20
0.0
 30
0.0
 70
   128
 71
     3
 72
    84
 73
    52
  0
VERTEX
  5
A1F
  8
0
 62
     9
 10
0.0
 20
0.0
 30
0.0
 70
   128
 71
    50
 72
    85
 73
    49
  0
VERTEX
  5
A20
  8
0
 62
     9
 10
0.0
 20
0.0
 30
0.0
 70
   128
 71
    49
 72
    85
 73
    48
  0
VERTEX
  5
A21
  8
0
 62
     9
 10
0.0
 20
0.0
 30
0.0
 70
   128
 71
    45
 72
    47
 73
    46
  0
VERTEX
  5
A22
  8
0
 62
     9
 10
0.0
 20
0.0
 30
0.0
 70
   128
 71
    43
 72
    86
 73
    42
  0
VERTEX
  5
A23
  8
0
 62
     9
 10
0.0
 20
0.0
 30
0.0
 70
   128
 71
    42
 72
    86
 73
    41
  0
VERTEX
  5
A24
  8
0
 62
     9
 10
0.0
 20
0.0
 30
0.0
 70
   128
 71
    38
 72
    40
 73
    39
  0
VERTEX
  5
A25
  8
0
 62
     9
 10
0.0
 20
0.0
 30
0.0
 70
   128
 71
    35
 72
    34
 73
    37
  0
VERTEX
  5
A26
  8
0
 62
     9
 10
0.0
 20
0.0
 30
0.0
 70
   128
 71
    34
 72
    35
 73
    33
  0
VERTEX
  5
A27
  8
0
 62
     9
 10
0.0
 20
0.0
 30
0.0
 70
   128
 71
    30
 72
    32
 73
    31
  0
VERTEX
  5
A28
  8
0
 62
     9
 10
0.0
 20
0.0
 30
0.0
 70
   128
 71
    28
 72
    26
 73
    27
  0
VERTEX
  5
A29
  8
0
 62
     9
 10
0.0
 20
0.0
 30
0.0
 70
   128
 71
    25
 72
    24
 73
    27
  0
VERTEX
  5
A2A
  8
0
 62
     9
 10
0.0
 20
0.0
 30
0.0
 70
   128
 71
    24
 72
    25
 73
    23
  0
VERTEX
  5
A2B
  8
0
 62
     9
 10
0.0
 20
0.0
 30
0.0
 70
   128
 71
    20
 72
    22
 73
    21
  0
VERTEX
  5
A2C
  8
0
 62
     9
 10
0.0
 20
0.0
 30
0.0
 70
   128
 71
    17
 72
    16
 73
    19
  0
VERTEX
  5
A2D
  8
0
 62
     9
 10
0.0
 20
0.0
 30
0.0
 70
   128
 71
    16
 72
    17
 73
    15
  0
VERTEX
  5
A2E
  8
0
 62
     9
 10
0.0
 20
0.0
 30
0.0
 70
   128
 71
    12
 72
    14
 73
    13
  0
VERTEX
  5
A2F
  8
0
 62
     9
 10
0.0
 20
0.0
 30
0.0
 70
   128
 71
     9
 72
     8
 73
    11
  0
VERTEX
  5
A30
  8
0
 62
     9
 10
0.0
 20
0.0
 30
0.0
 70
   128
 71
     8
 72
     9
 73
     7
  0
VERTEX
  5
A31
  8
0
 62
     9
 10
0.0
 20
0.0
 30
0.0
 70
   128
 71
     4
 72
     6
 73
     5
  0
VERTEX
  5
A32
  8
0
 62
     9
 10
0.0
 20
0.0
 30
0.0
 70
   128
 71
     1
 72
    87
 73
     3
  0
SEQEND
  5
A33
  8
0
 62
     9
  0
ENDBLK
  5
A36
  8
0
  0
BLOCK
  8
0
  2
E3_NODE_32_
 70
     0
 10
0.0
 20
0.0
 30
0.0
  3
E3_NODE_32_
  1

  0
POLYLINE
  5
A38
  8
0
 62
     9
 66
     1
 10
0.0
 20
0.0
 30
0.0
 70
    64
 71
    48
 72
    46
  0
VERTEX
  5
A39
  8
0
 10
5.368000030517578
 20
-14.85000038146973
 30
20.0
 70
   192
  0
VERTEX
  5
A3A
  8
0
 10
6.277999877929688
 20
-14.85000038146973
 30
20.0
 70
   192
  0
VERTEX
  5
A3B
  8
0
 10
6.277999877929688
 20
-14.66699981689453
 30
22.32299995422363
 70
   192
  0
VERTEX
  5
A3C
  8
0
 10
5.368000030517578
 20
-14.47799968719482
 30
23.30400085449219
 70
   192
  0
VERTEX
  5
A3D
  8
0
 10
5.368000030517578
 20
-13.37899971008301
 30
26.44300079345703
 70
   192
  0
VERTEX
  5
A3E
  8
0
 10
6.277999877929688
 20
-14.1230001449585
 30
24.5890007019043
 70
   192
  0
VERTEX
  5
A3F
  8
0
 10
6.277999877929688
 20
-14.43400001525879
 30
23.29400062561035
 70
   192
  0
VERTEX
  5
A40
  8
0
 10
6.277999877929688
 20
-13.23099994659424
 30
26.74200057983398
 70
   192
  0
VERTEX
  5
A41
  8
0
 10
6.277999877929688
 20
-12.01399993896484
 30
28.72900009155273
 70
   192
  0
VERTEX
  5
A42
  8
0
 10
5.368000030517578
 20
-11.60999965667725
 30
29.25900077819824
 70
   192
  0
VERTEX
  5
A43
  8
0
 10
6.277999877929688
 20
-13.35900020599365
 30
26.43499946594238
 70
   192
  0
VERTEX
  5
A44
  8
0
 10
6.277999877929688
 20
-11.58199977874756
 30
29.23500061035156
 70
   192
  0
VERTEX
  5
A45
  8
0
 10
6.277999877929688
 20
-10.50100040435791
 30
30.50099945068359
 70
   192
  0
VERTEX
  5
A46
  8
0
 10
5.368000030517578
 20
-9.258999824523926
 30
31.61000061035156
 70
   192
  0
VERTEX
  5
A47
  8
0
 10
5.368000030517578
 20
-6.442999839782715
 30
33.37900161743164
 70
   192
  0
VERTEX
  5
A48
  8
0
 10
6.277999877929688
 20
-8.729000091552734
 30
32.01399993896484
 70
   192
  0
VERTEX
  5
A49
  8
0
 10
6.277999877929688
 20
-6.742000102996826
 30
33.23099899291992
 70
   192
  0
VERTEX
  5
A4A
  8
0
 10
6.277999877929688
 20
-9.234999656677246
 30
31.58200073242188
 70
   192
  0
VERTEX
  5
A4B
  8
0
 10
6.277999877929688
 20
-6.434999942779541
 30
33.35900115966797
 70
   192
  0
VERTEX
  5
A4C
  8
0
 10
6.277999877929688
 20
-4.589000225067139
 30
34.12300109863281
 70
   192
  0
VERTEX
  5
A4D
  8
0
 10
5.368000030517578
 20
-3.303999900817871
 30
34.47800064086914
 70
   192
  0
VERTEX
  5
A4E
  8
0
 10
5.368000030517578
 20
0.0
 30
34.84999847412109
 70
   192
  0
VERTEX
  5
A4F
  8
0
 10
6.277999877929688
 20
-2.322999954223633
 30
34.66699981689453
 70
   192
  0
VERTEX
  5
A50
  8
0
 10
6.277999877929688
 20
-3.293999910354614
 30
34.43399810791016
 70
   192
  0
VERTEX
  5
A51
  8
0
 10
6.277999877929688
 20
0.0
 30
34.84999847412109
 70
   192
  0
VERTEX
  5
A52
  8
0
 10
6.277999877929688
 20
2.322999954223633
 30
34.66699981689453
 70
   192
  0
VERTEX
  5
A53
  8
0
 10
5.368000030517578
 20
3.303999900817871
 30
34.47800064086914
 70
   192
  0
VERTEX
  5
A54
  8
0
 10
5.368000030517578
 20
6.442999839782715
 30
33.37900161743164
 70
   192
  0
VERTEX
  5
A55
  8
0
 10
6.277999877929688
 20
4.589000225067139
 30
34.12300109863281
 70
   192
  0
VERTEX
  5
A56
  8
0
 10
6.277999877929688
 20
3.293999910354614
 30
34.43399810791016
 70
   192
  0
VERTEX
  5
A57
  8
0
 10
6.277999877929688
 20
6.742000102996826
 30
33.23099899291992
 70
   192
  0
VERTEX
  5
A58
  8
0
 10
6.277999877929688
 20
8.729000091552734
 30
32.01399993896484
 70
   192
  0
VERTEX
  5
A59
  8
0
 10
6.277999877929688
 20
6.434999942779541
 30
33.35900115966797
 70
   192
  0
VERTEX
  5
A5A
  8
0
 10
5.368000030517578
 20
9.258999824523926
 30
31.61000061035156
 70
   192
  0
VERTEX
  5
A5B
  8
0
 10
6.277999877929688
 20
9.234999656677246
 30
31.58200073242188
 70
   192
  0
VERTEX
  5
A5C
  8
0
 10
6.277999877929688
 20
10.50100040435791
 30
30.50099945068359
 70
   192
  0
VERTEX
  5
A5D
  8
0
 10
5.368000030517578
 20
11.60999965667725
 30
29.25900077819824
 70
   192
  0
VERTEX
  5
A5E
  8
0
 10
5.368000030517578
 20
13.37899971008301
 30
26.44300079345703
 70
   192
  0
VERTEX
  5
A5F
  8
0
 10
6.277999877929688
 20
12.01399993896484
 30
28.72900009155273
 70
   192
  0
VERTEX
  5
A60
  8
0
 10
6.277999877929688
 20
13.23099994659424
 30
26.74200057983398
 70
   192
  0
VERTEX
  5
A61
  8
0
 10
6.277999877929688
 20
11.58199977874756
 30
29.23500061035156
 70
   192
  0
VERTEX
  5
A62
  8
0
 10
6.277999877929688
 20
13.35900020599365
 30
26.43499946594238
 70
   192
  0
VERTEX
  5
A63
  8
0
 10
6.277999877929688
 20
14.1230001449585
 30
24.5890007019043
 70
   192
  0
VERTEX
  5
A64
  8
0
 10
5.368000030517578
 20
14.47799968719482
 30
23.30400085449219
 70
   192
  0
VERTEX
  5
A65
  8
0
 10
5.368000030517578
 20
14.85000038146973
 30
20.0
 70
   192
  0
VERTEX
  5
A66
  8
0
 10
6.277999877929688
 20
14.66699981689453
 30
22.32299995422363
 70
   192
  0
VERTEX
  5
A67
  8
0
 10
6.277999877929688
 20
14.43400001525879
 30
23.29400062561035
 70
   192
  0
VERTEX
  5
A68
  8
0
 10
6.277999877929688
 20
14.85000038146973
 30
20.0
 70
   192
  0
VERTEX
  5
A69
  8
0
 62
     9
 10
0.0
 20
0.0
 30
0.0
 70
   128
 71
     3
 72
     2
 73
     1
  0
VERTEX
  5
A6A
  8
0
 62
     9
 10
0.0
 20
0.0
 30
0.0
 70
   128
 71
     1
 72
     4
 73
     3
  0
VERTEX
  5
A6B
  8
0
 62
     9
 10
0.0
 20
0.0
 30
0.0
 70
   128
 71
     6
 72
     4
 73
     5
  0
VERTEX
  5
A6C
  8
0
 62
     9
 10
0.0
 20
0.0
 30
0.0
 70
   128
 71
     6
 72
     7
 73
     4
  0
VERTEX
  5
A6D
  8
0
 62
     9
 10
0.0
 20
0.0
 30
0.0
 70
   128
 71
     9
 72
     8
 73
     5
  0
VERTEX
  5
A6E
  8
0
 62
     9
 10
0.0
 20
0.0
 30
0.0
 70
   128
 71
     5
 72
    10
 73
     9
  0
VERTEX
  5
A6F
  8
0
 62
     9
 10
0.0
 20
0.0
 30
0.0
 70
   128
 71
     8
 72
    11
 73
     5
  0
VERTEX
  5
A70
  8
0
 62
     9
 10
0.0
 20
0.0
 30
0.0
 70
   128
 71
    13
 72
    12
 73
    10
  0
VERTEX
  5
A71
  8
0
 62
     9
 10
0.0
 20
0.0
 30
0.0
 70
   128
 71
    10
 72
    14
 73
    13
  0
VERTEX
  5
A72
  8
0
 62
     9
 10
0.0
 20
0.0
 30
0.0
 70
   128
 71
    16
 72
    14
 73
    15
  0
VERTEX
  5
A73
  8
0
 62
     9
 10
0.0
 20
0.0
 30
0.0
 70
   128
 71
    15
 72
    17
 73
    16
  0
VERTEX
  5
A74
  8
0
 62
     9
 10
0.0
 20
0.0
 30
0.0
 70
   128
 71
    16
 72
    18
 73
    14
  0
VERTEX
  5
A75
  8
0
 62
     9
 10
0.0
 20
0.0
 30
0.0
 70
   128
 71
    20
 72
    19
 73
    15
  0
VERTEX
  5
A76
  8
0
 62
     9
 10
0.0
 20
0.0
 30
0.0
 70
   128
 71
    15
 72
    21
 73
    20
  0
VERTEX
  5
A77
  8
0
 62
     9
 10
0.0
 20
0.0
 30
0.0
 70
   128
 71
    23
 72
    21
 73
    22
  0
VERTEX
  5
A78
  8
0
 62
     9
 10
0.0
 20
0.0
 30
0.0
 70
   128
 71
    23
 72
    24
 73
    21
  0
VERTEX
  5
A79
  8
0
 62
     9
 10
0.0
 20
0.0
 30
0.0
 70
   128
 71
    26
 72
    25
 73
    22
  0
VERTEX
  5
A7A
  8
0
 62
     9
 10
0.0
 20
0.0
 30
0.0
 70
   128
 71
    22
 72
    27
 73
    26
  0
VERTEX
  5
A7B
  8
0
 62
     9
 10
0.0
 20
0.0
 30
0.0
 70
   128
 71
    29
 72
    27
 73
    28
  0
VERTEX
  5
A7C
  8
0
 62
     9
 10
0.0
 20
0.0
 30
0.0
 70
   128
 71
    29
 72
    30
 73
    27
  0
VERTEX
  5
A7D
  8
0
 62
     9
 10
0.0
 20
0.0
 30
0.0
 70
   128
 71
    32
 72
    31
 73
    28
  0
VERTEX
  5
A7E
  8
0
 62
     9
 10
0.0
 20
0.0
 30
0.0
 70
   128
 71
    31
 72
    33
 73
    28
  0
VERTEX
  5
A7F
  8
0
 62
     9
 10
0.0
 20
0.0
 30
0.0
 70
   128
 71
    28
 72
    34
 73
    32
  0
VERTEX
  5
A80
  8
0
 62
     9
 10
0.0
 20
0.0
 30
0.0
 70
   128
 71
    36
 72
    35
 73
    34
  0
VERTEX
  5
A81
  8
0
 62
     9
 10
0.0
 20
0.0
 30
0.0
 70
   128
 71
    34
 72
    37
 73
    36
  0
VERTEX
  5
A82
  8
0
 62
     9
 10
0.0
 20
0.0
 30
0.0
 70
   128
 71
    39
 72
    37
 73
    38
  0
VERTEX
  5
A83
  8
0
 62
     9
 10
0.0
 20
0.0
 30
0.0
 70
   128
 71
    38
 72
    40
 73
    39
  0
VERTEX
  5
A84
  8
0
 62
     9
 10
0.0
 20
0.0
 30
0.0
 70
   128
 71
    39
 72
    41
 73
    37
  0
VERTEX
  5
A85
  8
0
 62
     9
 10
0.0
 20
0.0
 30
0.0
 70
   128
 71
    43
 72
    42
 73
    38
  0
VERTEX
  5
A86
  8
0
 62
     9
 10
0.0
 20
0.0
 30
0.0
 70
   128
 71
    38
 72
    44
 73
    43
  0
VERTEX
  5
A87
  8
0
 62
     9
 10
0.0
 20
0.0
 30
0.0
 70
   128
 71
    46
 72
    44
 73
    45
  0
VERTEX
  5
A88
  8
0
 62
     9
 10
0.0
 20
0.0
 30
0.0
 70
   128
 71
    46
 72
    47
 73
    44
  0
VERTEX
  5
A89
  8
0
 62
     9
 10
0.0
 20
0.0
 30
0.0
 70
   128
 71
    45
 72
    48
 73
    46
  0
VERTEX
  5
A8A
  8
0
 62
     9
 10
0.0
 20
0.0
 30
0.0
 70
   128
 71
    44
 72
    47
 73
    43
  0
VERTEX
  5
A8B
  8
0
 62
     9
 10
0.0
 20
0.0
 30
0.0
 70
   128
 71
    38
 72
    42
 73
    40
  0
VERTEX
  5
A8C
  8
0
 62
     9
 10
0.0
 20
0.0
 30
0.0
 70
   128
 71
    37
 72
    41
 73
    36
  0
VERTEX
  5
A8D
  8
0
 62
     9
 10
0.0
 20
0.0
 30
0.0
 70
   128
 71
    34
 72
    35
 73
    32
  0
VERTEX
  5
A8E
  8
0
 62
     9
 10
0.0
 20
0.0
 30
0.0
 70
   128
 71
    28
 72
    33
 73
    29
  0
VERTEX
  5
A8F
  8
0
 62
     9
 10
0.0
 20
0.0
 30
0.0
 70
   128
 71
    27
 72
    30
 73
    26
  0
VERTEX
  5
A90
  8
0
 62
     9
 10
0.0
 20
0.0
 30
0.0
 70
   128
 71
    22
 72
    25
 73
    23
  0
VERTEX
  5
A91
  8
0
 62
     9
 10
0.0
 20
0.0
 30
0.0
 70
   128
 71
    21
 72
    24
 73
    20
  0
VERTEX
  5
A92
  8
0
 62
     9
 10
0.0
 20
0.0
 30
0.0
 70
   128
 71
    15
 72
    19
 73
    17
  0
VERTEX
  5
A93
  8
0
 62
     9
 10
0.0
 20
0.0
 30
0.0
 70
   128
 71
    14
 72
    18
 73
    13
  0
VERTEX
  5
A94
  8
0
 62
     9
 10
0.0
 20
0.0
 30
0.0
 70
   128
 71
    10
 72
    12
 73
     9
  0
VERTEX
  5
A95
  8
0
 62
     9
 10
0.0
 20
0.0
 30
0.0
 70
   128
 71
     5
 72
    11
 73
     6
  0
VERTEX
  5
A96
  8
0
 62
     9
 10
0.0
 20
0.0
 30
0.0
 70
   128
 71
     4
 72
     7
 73
     3
  0
SEQEND
  5
A97
  8
0
 62
     9
  0
ENDBLK
  5
A9A
  8
0
  0
BLOCK
  8
0
  2
E3_NODE_33_
 70
     0
 10
0.0
 20
0.0
 30
0.0
  3
E3_NODE_33_
  1

  0
POLYLINE
  5
A9C
  8
0
 62
     9
 66
     1
 10
0.0
 20
0.0
 30
0.0
 70
    64
 71
     4
 72
     2
  0
VERTEX
  5
A9D
  8
0
 10
6.578000068664551
 20
14.55500030517578
 30
-20.0
 70
   192
  0
VERTEX
  5
A9E
  8
0
 10
6.578000068664551
 20
14.55500030517578
 30
20.0
 70
   192
  0
VERTEX
  5
A9F
  8
0
 10
6.580999851226807
 20
14.35000038146973
 30
20.0
 70
   192
  0
VERTEX
  5
AA0
  8
0
 10
6.580999851226807
 20
14.35000038146973
 30
-20.0
 70
   192
  0
VERTEX
  5
AA1
  8
0
 62
     9
 10
0.0
 20
0.0
 30
0.0
 70
   128
 71
     3
 72
     2
 73
     1
  0
VERTEX
  5
AA2
  8
0
 62
     9
 10
0.0
 20
0.0
 30
0.0
 70
   128
 71
     1
 72
     4
 73
     3
  0
SEQEND
  5
AA3
  8
0
 62
     9
  0
ENDBLK
  5
AA6
  8
0
  0
BLOCK
  8
0
  2
E3_NODE_34_
 70
     0
 10
0.0
 20
0.0
 30
0.0
  3
E3_NODE_34_
  1

  0
POLYLINE
  5
AA8
  8
0
 62
     9
 66
     1
 10
0.0
 20
0.0
 30
0.0
 70
    64
 71
     4
 72
     2
  0
VERTEX
  5
AA9
  8
0
 10
6.580999851226807
 20
-14.35000038146973
 30
-20.0
 70
   192
  0
VERTEX
  5
AAA
  8
0
 10
6.580999851226807
 20
-14.35000038146973
 30
20.0
 70
   192
  0
VERTEX
  5
AAB
  8
0
 10
6.578000068664551
 20
-14.55500030517578
 30
20.0
 70
   192
  0
VERTEX
  5
AAC
  8
0
 10
6.578000068664551
 20
-14.55500030517578
 30
-20.0
 70
   192
  0
VERTEX
  5
AAD
  8
0
 62
     9
 10
0.0
 20
0.0
 30
0.0
 70
   128
 71
     3
 72
     2
 73
     1
  0
VERTEX
  5
AAE
  8
0
 62
     9
 10
0.0
 20
0.0
 30
0.0
 70
   128
 71
     1
 72
     4
 73
     3
  0
SEQEND
  5
AAF
  8
0
 62
     9
  0
ENDBLK
  5
AB2
  8
0
  0
BLOCK
  8
0
  2
E3_NODE_35_
 70
     0
 10
0.0
 20
0.0
 30
0.0
  3
E3_NODE_35_
  1

  0
POLYLINE
  5
AB4
  8
0
 62
     9
 66
     1
 10
0.0
 20
0.0
 30
0.0
 70
    64
 71
    48
 72
    46
  0
VERTEX
  5
AB5
  8
0
 10
6.580999851226807
 20
-14.35000038146973
 30
20.0
 70
   192
  0
VERTEX
  5
AB6
  8
0
 10
6.580999851226807
 20
-13.98999977111816
 30
23.19300079345703
 70
   192
  0
VERTEX
  5
AB7
  8
0
 10
6.578000068664551
 20
-14.37600040435791
 30
22.27700042724609
 70
   192
  0
VERTEX
  5
AB8
  8
0
 10
6.578000068664551
 20
-14.14799976348877
 30
23.22900009155273
 70
   192
  0
VERTEX
  5
AB9
  8
0
 10
6.580999851226807
 20
-12.92899990081787
 30
26.22599983215332
 70
   192
  0
VERTEX
  5
ABA
  8
0
 10
6.578000068664551
 20
-13.0939998626709
 30
26.30699920654297
 70
   192
  0
VERTEX
  5
ABB
  8
0
 10
6.578000068664551
 20
-13.8430004119873
 30
24.49799919128418
 70
   192
  0
VERTEX
  5
ABC
  8
0
 10
6.580999851226807
 20
-11.2189998626709
 30
28.94700050354004
 70
   192
  0
VERTEX
  5
ABD
  8
0
 10
6.578000068664551
 20
-11.77499961853027
 30
28.55500030517578
 70
   192
  0
VERTEX
  5
ABE
  8
0
 10
6.578000068664551
 20
-12.9689998626709
 30
26.60799980163574
 70
   192
  0
VERTEX
  5
ABF
  8
0
 10
6.578000068664551
 20
-11.35200023651123
 30
29.05100059509277
 70
   192
  0
VERTEX
  5
AC0
  8
0
 10
6.580999851226807
 20
-8.946999549865723
 30
31.2189998626709
 70
   192
  0
VERTEX
  5
AC1
  8
0
 10
6.578000068664551
 20
-9.050999641418457
 30
31.35199928283691
 70
   192
  0
VERTEX
  5
AC2
  8
0
 10
6.578000068664551
 20
-10.29199981689453
 30
30.29199981689453
 70
   192
  0
VERTEX
  5
AC3
  8
0
 10
6.580999851226807
 20
-6.22599983215332
 30
32.92900085449219
 70
   192
  0
VERTEX
  5
AC4
  8
0
 10
6.578000068664551
 20
-6.607999801635742
 30
32.96900177001953
 70
   192
  0
VERTEX
  5
AC5
  8
0
 10
6.578000068664551
 20
-8.555000305175781
 30
31.77499961853027
 70
   192
  0
VERTEX
  5
AC6
  8
0
 10
6.578000068664551
 20
-6.307000160217285
 30
33.09400177001953
 70
   192
  0
VERTEX
  5
AC7
  8
0
 10
6.580999851226807
 20
-3.193000078201294
 30
33.9900016784668
 70
   192
  0
VERTEX
  5
AC8
  8
0
 10
6.578000068664551
 20
-4.498000144958496
 30
33.84299850463867
 70
   192
  0
VERTEX
  5
AC9
  8
0
 10
6.578000068664551
 20
-3.229000091552734
 30
34.14799880981445
 70
   192
  0
VERTEX
  5
ACA
  8
0
 10
6.580999851226807
 20
0.0
 30
34.34999847412109
 70
   192
  0
VERTEX
  5
ACB
  8
0
 10
6.578000068664551
 20
0.0
 30
34.55500030517578
 70
   192
  0
VERTEX
  5
ACC
  8
0
 10
6.578000068664551
 20
-2.276999950408936
 30
34.37599945068359
 70
   192
  0
VERTEX
  5
ACD
  8
0
 10
6.580999851226807
 20
3.193000078201294
 30
33.9900016784668
 70
   192
  0
VERTEX
  5
ACE
  8
0
 10
6.578000068664551
 20
2.276999950408936
 30
34.37599945068359
 70
   192
  0
VERTEX
  5
ACF
  8
0
 10
6.578000068664551
 20
3.229000091552734
 30
34.14799880981445
 70
   192
  0
VERTEX
  5
AD0
  8
0
 10
6.580999851226807
 20
6.22599983215332
 30
32.92900085449219
 70
   192
  0
VERTEX
  5
AD1
  8
0
 10
6.578000068664551
 20
6.307000160217285
 30
33.09400177001953
 70
   192
  0
VERTEX
  5
AD2
  8
0
 10
6.578000068664551
 20
4.498000144958496
 30
33.84299850463867
 70
   192
  0
VERTEX
  5
AD3
  8
0
 10
6.580999851226807
 20
8.946999549865723
 30
31.2189998626709
 70
   192
  0
VERTEX
  5
AD4
  8
0
 10
6.578000068664551
 20
8.555000305175781
 30
31.77499961853027
 70
   192
  0
VERTEX
  5
AD5
  8
0
 10
6.578000068664551
 20
6.607999801635742
 30
32.96900177001953
 70
   192
  0
VERTEX
  5
AD6
  8
0
 10
6.578000068664551
 20
9.050999641418457
 30
31.35199928283691
 70
   192
  0
VERTEX
  5
AD7
  8
0
 10
6.580999851226807
 20
11.2189998626709
 30
28.94700050354004
 70
   192
  0
VERTEX
  5
AD8
  8
0
 10
6.578000068664551
 20
11.35200023651123
 30
29.05100059509277
 70
   192
  0
VERTEX
  5
AD9
  8
0
 10
6.578000068664551
 20
10.29199981689453
 30
30.29199981689453
 70
   192
  0
VERTEX
  5
ADA
  8
0
 10
6.580999851226807
 20
12.92899990081787
 30
26.22599983215332
 70
   192
  0
VERTEX
  5
ADB
  8
0
 10
6.578000068664551
 20
12.9689998626709
 30
26.60799980163574
 70
   192
  0
VERTEX
  5
ADC
  8
0
 10
6.578000068664551
 20
11.77499961853027
 30
28.55500030517578
 70
   192
  0
VERTEX
  5
ADD
  8
0
 10
6.578000068664551
 20
13.0939998626709
 30
26.30699920654297
 70
   192
  0
VERTEX
  5
ADE
  8
0
 10
6.580999851226807
 20
13.98999977111816
 30
23.19300079345703
 70
   192
  0
VERTEX
  5
ADF
  8
0
 10
6.578000068664551
 20
13.8430004119873
 30
24.49799919128418
 70
   192
  0
VERTEX
  5
AE0
  8
0
 10
6.578000068664551
 20
14.14799976348877
 30
23.22900009155273
 70
   192
  0
VERTEX
  5
AE1
  8
0
 10
6.580999851226807
 20
14.35000038146973
 30
20.0
 70
   192
  0
VERTEX
  5
AE2
  8
0
 10
6.578000068664551
 20
14.55500030517578
 30
20.0
 70
   192
  0
VERTEX
  5
AE3
  8
0
 10
6.578000068664551
 20
14.37600040435791
 30
22.27700042724609
 70
   192
  0
VERTEX
  5
AE4
  8
0
 10
6.578000068664551
 20
-14.55500030517578
 30
20.0
 70
   192
  0
VERTEX
  5
AE5
  8
0
 62
     9
 10
0.0
 20
0.0
 30
0.0
 70
   128
 71
     3
 72
     2
 73
     1
  0
VERTEX
  5
AE6
  8
0
 62
     9
 10
0.0
 20
0.0
 30
0.0
 70
   128
 71
     3
 72
     4
 73
     2
  0
VERTEX
  5
AE7
  8
0
 62
     9
 10
0.0
 20
0.0
 30
0.0
 70
   128
 71
     7
 72
     6
 73
     5
  0
VERTEX
  5
AE8
  8
0
 62
     9
 10
0.0
 20
0.0
 30
0.0
 70
   128
 71
     5
 72
     2
 73
     7
  0
VERTEX
  5
AE9
  8
0
 62
     9
 10
0.0
 20
0.0
 30
0.0
 70
   128
 71
     9
 72
     8
 73
     5
  0
VERTEX
  5
AEA
  8
0
 62
     9
 10
0.0
 20
0.0
 30
0.0
 70
   128
 71
     5
 72
    10
 73
     9
  0
VERTEX
  5
AEB
  8
0
 62
     9
 10
0.0
 20
0.0
 30
0.0
 70
   128
 71
     9
 72
    11
 73
     8
  0
VERTEX
  5
AEC
  8
0
 62
     9
 10
0.0
 20
0.0
 30
0.0
 70
   128
 71
    14
 72
    13
 73
    12
  0
VERTEX
  5
AED
  8
0
 62
     9
 10
0.0
 20
0.0
 30
0.0
 70
   128
 71
    12
 72
     8
 73
    14
  0
VERTEX
  5
AEE
  8
0
 62
     9
 10
0.0
 20
0.0
 30
0.0
 70
   128
 71
    17
 72
    16
 73
    15
  0
VERTEX
  5
AEF
  8
0
 62
     9
 10
0.0
 20
0.0
 30
0.0
 70
   128
 71
    16
 72
    18
 73
    15
  0
VERTEX
  5
AF0
  8
0
 62
     9
 10
0.0
 20
0.0
 30
0.0
 70
   128
 71
    15
 72
    12
 73
    17
  0
VERTEX
  5
AF1
  8
0
 62
     9
 10
0.0
 20
0.0
 30
0.0
 70
   128
 71
    20
 72
    19
 73
    15
  0
VERTEX
  5
AF2
  8
0
 62
     9
 10
0.0
 20
0.0
 30
0.0
 70
   128
 71
    20
 72
    21
 73
    19
  0
VERTEX
  5
AF3
  8
0
 62
     9
 10
0.0
 20
0.0
 30
0.0
 70
   128
 71
    24
 72
    23
 73
    22
  0
VERTEX
  5
AF4
  8
0
 62
     9
 10
0.0
 20
0.0
 30
0.0
 70
   128
 71
    22
 72
    19
 73
    24
  0
VERTEX
  5
AF5
  8
0
 62
     9
 10
0.0
 20
0.0
 30
0.0
 70
   128
 71
    26
 72
    25
 73
    22
  0
VERTEX
  5
AF6
  8
0
 62
     9
 10
0.0
 20
0.0
 30
0.0
 70
   128
 71
    26
 72
    27
 73
    25
  0
VERTEX
  5
AF7
  8
0
 62
     9
 10
0.0
 20
0.0
 30
0.0
 70
   128
 71
    30
 72
    29
 73
    28
  0
VERTEX
  5
AF8
  8
0
 62
     9
 10
0.0
 20
0.0
 30
0.0
 70
   128
 71
    28
 72
    25
 73
    30
  0
VERTEX
  5
AF9
  8
0
 62
     9
 10
0.0
 20
0.0
 30
0.0
 70
   128
 71
    32
 72
    31
 73
    28
  0
VERTEX
  5
AFA
  8
0
 62
     9
 10
0.0
 20
0.0
 30
0.0
 70
   128
 71
    28
 72
    33
 73
    32
  0
VERTEX
  5
AFB
  8
0
 62
     9
 10
0.0
 20
0.0
 30
0.0
 70
   128
 71
    32
 72
    34
 73
    31
  0
VERTEX
  5
AFC
  8
0
 62
     9
 10
0.0
 20
0.0
 30
0.0
 70
   128
 71
    37
 72
    36
 73
    35
  0
VERTEX
  5
AFD
  8
0
 62
     9
 10
0.0
 20
0.0
 30
0.0
 70
   128
 71
    35
 72
    31
 73
    37
  0
VERTEX
  5
AFE
  8
0
 62
     9
 10
0.0
 20
0.0
 30
0.0
 70
   128
 71
    40
 72
    39
 73
    38
  0
VERTEX
  5
AFF
  8
0
 62
     9
 10
0.0
 20
0.0
 30
0.0
 70
   128
 71
    39
 72
    41
 73
    38
  0
VERTEX
  5
B00
  8
0
 62
     9
 10
0.0
 20
0.0
 30
0.0
 70
   128
 71
    38
 72
    35
 73
    40
  0
VERTEX
  5
B01
  8
0
 62
     9
 10
0.0
 20
0.0
 30
0.0
 70
   128
 71
    43
 72
    42
 73
    38
  0
VERTEX
  5
B02
  8
0
 62
     9
 10
0.0
 20
0.0
 30
0.0
 70
   128
 71
    43
 72
    44
 73
    42
  0
VERTEX
  5
B03
  8
0
 62
     9
 10
0.0
 20
0.0
 30
0.0
 70
   128
 71
    47
 72
    46
 73
    45
  0
VERTEX
  5
B04
  8
0
 62
     9
 10
0.0
 20
0.0
 30
0.0
 70
   128
 71
    45
 72
    42
 73
    47
  0
VERTEX
  5
B05
  8
0
 62
     9
 10
0.0
 20
0.0
 30
0.0
 70
   128
 71
    42
 72
    44
 73
    47
  0
VERTEX
  5
B06
  8
0
 62
     9
 10
0.0
 20
0.0
 30
0.0
 70
   128
 71
    38
 72
    41
 73
    43
  0
VERTEX
  5
B07
  8
0
 62
     9
 10
0.0
 20
0.0
 30
0.0
 70
   128
 71
    35
 72
    36
 73
    40
  0
VERTEX
  5
B08
  8
0
 62
     9
 10
0.0
 20
0.0
 30
0.0
 70
   128
 71
    31
 72
    34
 73
    37
  0
VERTEX
  5
B09
  8
0
 62
     9
 10
0.0
 20
0.0
 30
0.0
 70
   128
 71
    28
 72
    29
 73
    33
  0
VERTEX
  5
B0A
  8
0
 62
     9
 10
0.0
 20
0.0
 30
0.0
 70
   128
 71
    25
 72
    27
 73
    30
  0
VERTEX
  5
B0B
  8
0
 62
     9
 10
0.0
 20
0.0
 30
0.0
 70
   128
 71
    22
 72
    23
 73
    26
  0
VERTEX
  5
B0C
  8
0
 62
     9
 10
0.0
 20
0.0
 30
0.0
 70
   128
 71
    19
 72
    21
 73
    24
  0
VERTEX
  5
B0D
  8
0
 62
     9
 10
0.0
 20
0.0
 30
0.0
 70
   128
 71
    15
 72
    18
 73
    20
  0
VERTEX
  5
B0E
  8
0
 62
     9
 10
0.0
 20
0.0
 30
0.0
 70
   128
 71
    12
 72
    13
 73
    17
  0
VERTEX
  5
B0F
  8
0
 62
     9
 10
0.0
 20
0.0
 30
0.0
 70
   128
 71
     8
 72
    11
 73
    14
  0
VERTEX
  5
B10
  8
0
 62
     9
 10
0.0
 20
0.0
 30
0.0
 70
   128
 71
     5
 72
     6
 73
    10
  0
VERTEX
  5
B11
  8
0
 62
     9
 10
0.0
 20
0.0
 30
0.0
 70
   128
 71
     2
 72
     4
 73
     7
  0
VERTEX
  5
B12
  8
0
 62
     9
 10
0.0
 20
0.0
 30
0.0
 70
   128
 71
     1
 72
    48
 73
     3
  0
SEQEND
  5
B13
  8
0
 62
     9
  0
ENDBLK
  5
B16
  8
0
  0
BLOCK
  8
0
  2
E3_NODE_36_
 70
     0
 10
0.0
 20
0.0
 30
0.0
  3
E3_NODE_36_
  1

  0
POLYLINE
  5
B18
  8
0
 62
     9
 66
     1
 10
0.0
 20
0.0
 30
0.0
 70
    64
 71
    67
 72
    65
  0
VERTEX
  5
B19
  8
0
 10
6.580999851226807
 20
-13.98999977111816
 30
23.19300079345703
 70
   192
  0
VERTEX
  5
B1A
  8
0
 10
6.580999851226807
 20
-14.35000038146973
 30
20.0
 70
   192
  0
VERTEX
  5
B1B
  8
0
 10
11.62399959564209
 20
-14.29599952697754
 30
21.24699974060059
 70
   192
  0
VERTEX
  5
B1C
  8
0
 10
11.61900043487549
 20
-14.13500022888184
 30
22.47400093078613
 70
   192
  0
VERTEX
  5
B1D
  8
0
 10
11.62899971008301
 20
-14.35000038146973
 30
20.0
 70
   192
  0
VERTEX
  5
B1E
  8
0
 10
6.580999851226807
 20
-12.92899990081787
 30
26.22599983215332
 70
   192
  0
VERTEX
  5
B1F
  8
0
 10
11.60999965667725
 20
-13.54100036621094
 30
24.75
 70
   192
  0
VERTEX
  5
B20
  8
0
 10
11.61600017547607
 20
-13.97799968719482
 30
23.19000053405762
 70
   192
  0
VERTEX
  5
B21
  8
0
 10
11.61400032043457
 20
-13.86999988555908
 30
23.68000030517578
 70
   192
  0
VERTEX
  5
B22
  8
0
 10
11.60499954223633
 20
-13.07699966430664
 30
25.90800094604492
 70
   192
  0
VERTEX
  5
B23
  8
0
 10
11.60099983215332
 20
-12.52000045776367
 30
27.01300048828125
 70
   192
  0
VERTEX
  5
B24
  8
0
 10
11.59700012207031
 20
-11.86999988555908
 30
28.0629997253418
 70
   192
  0
VERTEX
  5
B25
  8
0
 10
6.580999851226807
 20
-11.2189998626709
 30
28.94700050354004
 70
   192
  0
VERTEX
  5
B26
  8
0
 10
11.60400009155273
 20
-12.91899967193604
 30
26.22100067138672
 70
   192
  0
VERTEX
  5
B27
  8
0
 10
6.580999851226807
 20
-8.946999549865723
 30
31.2189998626709
 70
   192
  0
VERTEX
  5
B28
  8
0
 10
11.58899974822998
 20
-10.38399982452393
 30
29.90399932861328
 70
   192
  0
VERTEX
  5
B29
  8
0
 10
11.58600044250488
 20
-9.491999626159668
 30
30.76199913024902
 70
   192
  0
VERTEX
  5
B2A
  8
0
 10
11.5930004119873
 20
-11.2189998626709
 30
28.94700050354004
 70
   192
  0
VERTEX
  5
B2B
  8
0
 10
11.5930004119873
 20
-11.20499992370605
 30
28.9640007019043
 70
   192
  0
VERTEX
  5
B2C
  8
0
 10
11.58300018310547
 20
-8.531999588012695
 30
31.53800010681152
 70
   192
  0
VERTEX
  5
B2D
  8
0
 10
11.57999992370605
 20
-7.605999946594238
 30
32.16799926757812
 70
   192
  0
VERTEX
  5
B2E
  8
0
 10
11.58399963378906
 20
-8.939000129699707
 30
31.20899963378906
 70
   192
  0
VERTEX
  5
B2F
  8
0
 10
6.580999851226807
 20
-6.22599983215332
 30
32.92900085449219
 70
   192
  0
VERTEX
  5
B30
  8
0
 10
11.57800006866455
 20
-6.520999908447266
 30
32.78300094604492
 70
   192
  0
VERTEX
  5
B31
  8
0
 10
11.57600021362305
 20
-5.394999980926514
 30
33.29700088500977
 70
   192
  0
VERTEX
  5
B32
  8
0
 10
11.57400035858154
 20
-4.23199987411499
 30
33.71200180053711
 70
   192
  0
VERTEX
  5
B33
  8
0
 10
6.580999851226807
 20
-3.193000078201294
 30
33.9900016784668
 70
   192
  0
VERTEX
  5
B34
  8
0
 10
11.57699966430664
 20
-6.222000122070312
 30
32.91899871826172
 70
   192
  0
VERTEX
  5
B35
  8
0
 10
6.580999851226807
 20
0.0
 30
34.34999847412109
 70
   192
  0
VERTEX
  5
B36
  8
0
 10
11.57199954986572
 20
-1.922000050544739
 30
34.22100067138672
 70
   192
  0
VERTEX
  5
B37
  8
0
 10
11.57299995422363
 20
-3.193000078201294
 30
33.98899841308594
 70
   192
  0
VERTEX
  5
B38
  8
0
 10
11.57299995422363
 20
-3.150000095367432
 30
34.0
 70
   192
  0
VERTEX
  5
B39
  8
0
 10
11.57100009918213
 20
-0.6890000104904175
 30
34.33300018310547
 70
   192
  0
VERTEX
  5
B3A
  8
0
 10
11.57100009918213
 20
0.5450000166893005
 30
34.34000015258789
 70
   192
  0
VERTEX
  5
B3B
  8
0
 10
11.57199954986572
 20
1.661999940872192
 30
34.25299835205078
 70
   192
  0
VERTEX
  5
B3C
  8
0
 10
11.57100009918213
 20
0.0
 30
34.33700180053711
 70
   192
  0
VERTEX
  5
B3D
  8
0
 10
6.580999851226807
 20
3.193000078201294
 30
33.9900016784668
 70
   192
  0
VERTEX
  5
B3E
  8
0
 10
11.57199954986572
 20
2.892999887466431
 30
34.05500030517578
 70
   192
  0
VERTEX
  5
B3F
  8
0
 10
11.57400035858154
 20
4.093999862670898
 30
33.75400161743164
 70
   192
  0
VERTEX
  5
B40
  8
0
 10
11.57499980926514
 20
5.261000156402588
 30
33.35100173950195
 70
   192
  0
VERTEX
  5
B41
  8
0
 10
6.580999851226807
 20
6.22599983215332
 30
32.92900085449219
 70
   192
  0
VERTEX
  5
B42
  8
0
 10
11.57299995422363
 20
3.190999984741211
 30
33.98099899291992
 70
   192
  0
VERTEX
  5
B43
  8
0
 10
6.580999851226807
 20
8.946999549865723
 30
31.2189998626709
 70
   192
  0
VERTEX
  5
B44
  8
0
 10
11.57900047302246
 20
7.382999897003174
 30
32.30500030517578
 70
   192
  0
VERTEX
  5
B45
  8
0
 10
11.57699966430664
 20
6.224999904632568
 30
32.92699813842773
 70
   192
  0
VERTEX
  5
B46
  8
0
 10
11.57699966430664
 20
6.285999774932861
 30
32.90000152587891
 70
   192
  0
VERTEX
  5
B47
  8
0
 10
11.58199977874756
 20
8.416000366210938
 30
31.62299919128418
 70
   192
  0
VERTEX
  5
B48
  8
0
 10
11.58500003814697
 20
9.383999824523926
 30
30.85700035095215
 70
   192
  0
VERTEX
  5
B49
  8
0
 10
11.58800029754639
 20
10.20199966430664
 30
30.09199905395508
 70
   192
  0
VERTEX
  5
B4A
  8
0
 10
11.58399963378906
 20
8.939000129699707
 30
31.20899963378906
 70
   192
  0
VERTEX
  5
B4B
  8
0
 10
6.580999851226807
 20
11.2189998626709
 30
28.94700050354004
 70
   192
  0
VERTEX
  5
B4C
  8
0
 10
11.59200000762939
 20
11.03999996185303
 30
29.16799926757812
 70
   192
  0
VERTEX
  5
B4D
  8
0
 10
11.5959997177124
 20
11.78899955749512
 30
28.18199920654297
 70
   192
  0
VERTEX
  5
B4E
  8
0
 10
11.60000038146973
 20
12.44799995422363
 30
27.13899993896484
 70
   192
  0
VERTEX
  5
B4F
  8
0
 10
6.580999851226807
 20
12.92899990081787
 30
26.22599983215332
 70
   192
  0
VERTEX
  5
B50
  8
0
 10
11.5930004119873
 20
11.21199989318848
 30
28.94099998474121
 70
   192
  0
VERTEX
  5
B51
  8
0
 10
6.580999851226807
 20
13.98999977111816
 30
23.19300079345703
 70
   192
  0
VERTEX
  5
B52
  8
0
 10
11.60900020599365
 20
13.45199966430664
 30
24.99699974060059
 70
   192
  0
VERTEX
  5
B53
  8
0
 10
11.60400009155273
 20
12.92599964141846
 30
26.22500038146973
 70
   192
  0
VERTEX
  5
B54
  8
0
 10
11.60400009155273
 20
12.96700000762939
 30
26.14699935913086
 70
   192
  0
VERTEX
  5
B55
  8
0
 10
11.61400032043457
 20
13.83199977874756
 30
23.81900024414062
 70
   192
  0
VERTEX
  5
B56
  8
0
 10
6.580999851226807
 20
14.35000038146973
 30
20.0
 70
   192
  0
VERTEX
  5
B57
  8
0
 10
11.6230001449585
 20
14.27099990844727
 30
21.50799942016602
 70
   192
  0
VERTEX
  5
B58
  8
0
 10
11.62800025939941
 20
14.34700012207031
 30
20.27199935913086
 70
   192
  0
VERTEX
  5
B59
  8
0
 10
11.61800003051758
 20
14.10999965667725
 30
22.61599922180176
 70
   192
  0
VERTEX
  5
B5A
  8
0
 10
11.61600017547607
 20
13.97700023651123
 30
23.19000053405762
 70
   192
  0
VERTEX
  5
B5B
  8
0
 10
11.62899971008301
 20
14.35000038146973
 30
20.0
 70
   192
  0
VERTEX
  5
B5C
  8
0
 62
     9
 10
0.0
 20
0.0
 30
0.0
 70
   128
 71
     3
 72
     2
 73
     1
  0
VERTEX
  5
B5D
  8
0
 62
     9
 10
0.0
 20
0.0
 30
0.0
 70
   128
 71
     1
 72
     4
 73
     3
  0
VERTEX
  5
B5E
  8
0
 62
     9
 10
0.0
 20
0.0
 30
0.0
 70
   128
 71
     3
 72
     5
 73
     2
  0
VERTEX
  5
B5F
  8
0
 62
     9
 10
0.0
 20
0.0
 30
0.0
 70
   128
 71
     7
 72
     1
 73
     6
  0
VERTEX
  5
B60
  8
0
 62
     9
 10
0.0
 20
0.0
 30
0.0
 70
   128
 71
     9
 72
     8
 73
     1
  0
VERTEX
  5
B61
  8
0
 62
     9
 10
0.0
 20
0.0
 30
0.0
 70
   128
 71
     1
 72
     7
 73
     9
  0
VERTEX
  5
B62
  8
0
 62
     9
 10
0.0
 20
0.0
 30
0.0
 70
   128
 71
     6
 72
    10
 73
     7
  0
VERTEX
  5
B63
  8
0
 62
     9
 10
0.0
 20
0.0
 30
0.0
 70
   128
 71
    12
 72
    11
 73
     6
  0
VERTEX
  5
B64
  8
0
 62
     9
 10
0.0
 20
0.0
 30
0.0
 70
   128
 71
     6
 72
    13
 73
    12
  0
VERTEX
  5
B65
  8
0
 62
     9
 10
0.0
 20
0.0
 30
0.0
 70
   128
 71
    11
 72
    14
 73
     6
  0
VERTEX
  5
B66
  8
0
 62
     9
 10
0.0
 20
0.0
 30
0.0
 70
   128
 71
    16
 72
    13
 73
    15
  0
VERTEX
  5
B67
  8
0
 62
     9
 10
0.0
 20
0.0
 30
0.0
 70
   128
 71
    15
 72
    17
 73
    16
  0
VERTEX
  5
B68
  8
0
 62
     9
 10
0.0
 20
0.0
 30
0.0
 70
   128
 71
    19
 72
    18
 73
    13
  0
VERTEX
  5
B69
  8
0
 62
     9
 10
0.0
 20
0.0
 30
0.0
 70
   128
 71
    13
 72
    16
 73
    19
  0
VERTEX
  5
B6A
  8
0
 62
     9
 10
0.0
 20
0.0
 30
0.0
 70
   128
 71
    21
 72
    20
 73
    15
  0
VERTEX
  5
B6B
  8
0
 62
     9
 10
0.0
 20
0.0
 30
0.0
 70
   128
 71
    20
 72
    22
 73
    15
  0
VERTEX
  5
B6C
  8
0
 62
     9
 10
0.0
 20
0.0
 30
0.0
 70
   128
 71
    15
 72
    23
 73
    21
  0
VERTEX
  5
B6D
  8
0
 62
     9
 10
0.0
 20
0.0
 30
0.0
 70
   128
 71
    23
 72
    24
 73
    21
  0
VERTEX
  5
B6E
  8
0
 62
     9
 10
0.0
 20
0.0
 30
0.0
 70
   128
 71
    26
 72
    25
 73
    23
  0
VERTEX
  5
B6F
  8
0
 62
     9
 10
0.0
 20
0.0
 30
0.0
 70
   128
 71
    23
 72
    27
 73
    26
  0
VERTEX
  5
B70
  8
0
 62
     9
 10
0.0
 20
0.0
 30
0.0
 70
   128
 71
    25
 72
    28
 73
    23
  0
VERTEX
  5
B71
  8
0
 62
     9
 10
0.0
 20
0.0
 30
0.0
 70
   128
 71
    30
 72
    27
 73
    29
  0
VERTEX
  5
B72
  8
0
 62
     9
 10
0.0
 20
0.0
 30
0.0
 70
   128
 71
    32
 72
    31
 73
    27
  0
VERTEX
  5
B73
  8
0
 62
     9
 10
0.0
 20
0.0
 30
0.0
 70
   128
 71
    27
 72
    30
 73
    32
  0
VERTEX
  5
B74
  8
0
 62
     9
 10
0.0
 20
0.0
 30
0.0
 70
   128
 71
    29
 72
    33
 73
    30
  0
VERTEX
  5
B75
  8
0
 62
     9
 10
0.0
 20
0.0
 30
0.0
 70
   128
 71
    35
 72
    34
 73
    29
  0
VERTEX
  5
B76
  8
0
 62
     9
 10
0.0
 20
0.0
 30
0.0
 70
   128
 71
    34
 72
    36
 73
    29
  0
VERTEX
  5
B77
  8
0
 62
     9
 10
0.0
 20
0.0
 30
0.0
 70
   128
 71
    29
 72
    37
 73
    35
  0
VERTEX
  5
B78
  8
0
 62
     9
 10
0.0
 20
0.0
 30
0.0
 70
   128
 71
    37
 72
    38
 73
    35
  0
VERTEX
  5
B79
  8
0
 62
     9
 10
0.0
 20
0.0
 30
0.0
 70
   128
 71
    40
 72
    39
 73
    37
  0
VERTEX
  5
B7A
  8
0
 62
     9
 10
0.0
 20
0.0
 30
0.0
 70
   128
 71
    37
 72
    41
 73
    40
  0
VERTEX
  5
B7B
  8
0
 62
     9
 10
0.0
 20
0.0
 30
0.0
 70
   128
 71
    39
 72
    42
 73
    37
  0
VERTEX
  5
B7C
  8
0
 62
     9
 10
0.0
 20
0.0
 30
0.0
 70
   128
 71
    44
 72
    41
 73
    43
  0
VERTEX
  5
B7D
  8
0
 62
     9
 10
0.0
 20
0.0
 30
0.0
 70
   128
 71
    46
 72
    45
 73
    41
  0
VERTEX
  5
B7E
  8
0
 62
     9
 10
0.0
 20
0.0
 30
0.0
 70
   128
 71
    41
 72
    44
 73
    46
  0
VERTEX
  5
B7F
  8
0
 62
     9
 10
0.0
 20
0.0
 30
0.0
 70
   128
 71
    43
 72
    47
 73
    44
  0
VERTEX
  5
B80
  8
0
 62
     9
 10
0.0
 20
0.0
 30
0.0
 70
   128
 71
    49
 72
    48
 73
    43
  0
VERTEX
  5
B81
  8
0
 62
     9
 10
0.0
 20
0.0
 30
0.0
 70
   128
 71
    48
 72
    50
 73
    43
  0
VERTEX
  5
B82
  8
0
 62
     9
 10
0.0
 20
0.0
 30
0.0
 70
   128
 71
    43
 72
    51
 73
    49
  0
VERTEX
  5
B83
  8
0
 62
     9
 10
0.0
 20
0.0
 30
0.0
 70
   128
 71
    51
 72
    52
 73
    49
  0
VERTEX
  5
B84
  8
0
 62
     9
 10
0.0
 20
0.0
 30
0.0
 70
   128
 71
    54
 72
    53
 73
    51
  0
VERTEX
  5
B85
  8
0
 62
     9
 10
0.0
 20
0.0
 30
0.0
 70
   128
 71
    51
 72
    55
 73
    54
  0
VERTEX
  5
B86
  8
0
 62
     9
 10
0.0
 20
0.0
 30
0.0
 70
   128
 71
    53
 72
    56
 73
    51
  0
VERTEX
  5
B87
  8
0
 62
     9
 10
0.0
 20
0.0
 30
0.0
 70
   128
 71
    58
 72
    55
 73
    57
  0
VERTEX
  5
B88
  8
0
 62
     9
 10
0.0
 20
0.0
 30
0.0
 70
   128
 71
    60
 72
    59
 73
    55
  0
VERTEX
  5
B89
  8
0
 62
     9
 10
0.0
 20
0.0
 30
0.0
 70
   128
 71
    55
 72
    58
 73
    60
  0
VERTEX
  5
B8A
  8
0
 62
     9
 10
0.0
 20
0.0
 30
0.0
 70
   128
 71
    57
 72
    61
 73
    58
  0
VERTEX
  5
B8B
  8
0
 62
     9
 10
0.0
 20
0.0
 30
0.0
 70
   128
 71
    64
 72
    63
 73
    62
  0
VERTEX
  5
B8C
  8
0
 62
     9
 10
0.0
 20
0.0
 30
0.0
 70
   128
 71
    63
 72
    65
 73
    57
  0
VERTEX
  5
B8D
  8
0
 62
     9
 10
0.0
 20
0.0
 30
0.0
 70
   128
 71
    57
 72
    62
 73
    63
  0
VERTEX
  5
B8E
  8
0
 62
     9
 10
0.0
 20
0.0
 30
0.0
 70
   128
 71
    65
 72
    66
 73
    57
  0
VERTEX
  5
B8F
  8
0
 62
     9
 10
0.0
 20
0.0
 30
0.0
 70
   128
 71
    62
 72
    67
 73
    64
  0
VERTEX
  5
B90
  8
0
 62
     9
 10
0.0
 20
0.0
 30
0.0
 70
   128
 71
    57
 72
    66
 73
    61
  0
VERTEX
  5
B91
  8
0
 62
     9
 10
0.0
 20
0.0
 30
0.0
 70
   128
 71
    55
 72
    59
 73
    54
  0
VERTEX
  5
B92
  8
0
 62
     9
 10
0.0
 20
0.0
 30
0.0
 70
   128
 71
    51
 72
    56
 73
    52
  0
VERTEX
  5
B93
  8
0
 62
     9
 10
0.0
 20
0.0
 30
0.0
 70
   128
 71
    43
 72
    50
 73
    47
  0
VERTEX
  5
B94
  8
0
 62
     9
 10
0.0
 20
0.0
 30
0.0
 70
   128
 71
    41
 72
    45
 73
    40
  0
VERTEX
  5
B95
  8
0
 62
     9
 10
0.0
 20
0.0
 30
0.0
 70
   128
 71
    37
 72
    42
 73
    38
  0
VERTEX
  5
B96
  8
0
 62
     9
 10
0.0
 20
0.0
 30
0.0
 70
   128
 71
    29
 72
    36
 73
    33
  0
VERTEX
  5
B97
  8
0
 62
     9
 10
0.0
 20
0.0
 30
0.0
 70
   128
 71
    27
 72
    31
 73
    26
  0
VERTEX
  5
B98
  8
0
 62
     9
 10
0.0
 20
0.0
 30
0.0
 70
   128
 71
    23
 72
    28
 73
    24
  0
VERTEX
  5
B99
  8
0
 62
     9
 10
0.0
 20
0.0
 30
0.0
 70
   128
 71
    15
 72
    22
 73
    17
  0
VERTEX
  5
B9A
  8
0
 62
     9
 10
0.0
 20
0.0
 30
0.0
 70
   128
 71
    13
 72
    18
 73
    12
  0
VERTEX
  5
B9B
  8
0
 62
     9
 10
0.0
 20
0.0
 30
0.0
 70
   128
 71
     6
 72
    14
 73
    10
  0
VERTEX
  5
B9C
  8
0
 62
     9
 10
0.0
 20
0.0
 30
0.0
 70
   128
 71
     1
 72
     8
 73
     4
  0
SEQEND
  5
B9D
  8
0
 62
     9
  0
ENDBLK
  5
BA0
  8
0
  0
BLOCK
  8
0
  2
E3_NODE_37_
 70
     0
 10
0.0
 20
0.0
 30
0.0
  3
E3_NODE_37_
  1

  0
POLYLINE
  5
BA2
  8
0
 62
     9
 66
     1
 10
0.0
 20
0.0
 30
0.0
 70
    64
 71
     6
 72
     4
  0
VERTEX
  5
BA3
  8
0
 10
6.580999851226807
 20
-14.35000038146973
 30
20.0
 70
   192
  0
VERTEX
  5
BA4
  8
0
 10
11.66399955749512
 20
-14.35000038146973
 30
-0.003000000026077
 70
   192
  0
VERTEX
  5
BA5
  8
0
 10
11.66899967193604
 20
-14.35000038146973
 30
3.630000114440918
 70
   192
  0
VERTEX
  5
BA6
  8
0
 10
6.580999851226807
 20
-14.35000038146973
 30
-20.0
 70
   192
  0
VERTEX
  5
BA7
  8
0
 10
11.63700008392334
 20
-14.35000038146973
 30
-20.0
 70
   192
  0
VERTEX
  5
BA8
  8
0
 10
11.62899971008301
 20
-14.35000038146973
 30
20.0
 70
   192
  0
VERTEX
  5
BA9
  8
0
 62
     9
 10
0.0
 20
0.0
 30
0.0
 70
   128
 71
     3
 72
     2
 73
     1
  0
VERTEX
  5
BAA
  8
0
 62
     9
 10
0.0
 20
0.0
 30
0.0
 70
   128
 71
     2
 72
     5
 73
     4
  0
VERTEX
  5
BAB
  8
0
 62
     9
 10
0.0
 20
0.0
 30
0.0
 70
   128
 71
     4
 72
     1
 73
     2
  0
VERTEX
  5
BAC
  8
0
 62
     9
 10
0.0
 20
0.0
 30
0.0
 70
   128
 71
     1
 72
     6
 73
     3
  0
SEQEND
  5
BAD
  8
0
 62
     9
  0
ENDBLK
  5
BB0
  8
0
  0
BLOCK
  8
0
  2
E3_NODE_38_
 70
     0
 10
0.0
 20
0.0
 30
0.0
  3
E3_NODE_38_
  1

  0
POLYLINE
  5
BB2
  8
0
 62
     9
 66
     1
 10
0.0
 20
0.0
 30
0.0
 70
    64
 71
    67
 72
    65
  0
VERTEX
  5
BB3
  8
0
 10
6.580999851226807
 20
13.98999977111816
 30
-23.19300079345703
 70
   192
  0
VERTEX
  5
BB4
  8
0
 10
6.580999851226807
 20
14.35000038146973
 30
-20.0
 70
   192
  0
VERTEX
  5
BB5
  8
0
 10
11.63199996948242
 20
14.29599952697754
 30
-21.24699974060059
 70
   192
  0
VERTEX
  5
BB6
  8
0
 10
11.62800025939941
 20
14.13500022888184
 30
-22.47400093078613
 70
   192
  0
VERTEX
  5
BB7
  8
0
 10
11.63700008392334
 20
14.35000038146973
 30
-20.0
 70
   192
  0
VERTEX
  5
BB8
  8
0
 10
6.580999851226807
 20
12.92899990081787
 30
-26.22599983215332
 70
   192
  0
VERTEX
  5
BB9
  8
0
 10
11.61900043487549
 20
13.54100036621094
 30
-24.75
 70
   192
  0
VERTEX
  5
BBA
  8
0
 10
11.625
 20
13.97799968719482
 30
-23.19000053405762
 70
   192
  0
VERTEX
  5
BBB
  8
0
 10
11.6230001449585
 20
13.86999988555908
 30
-23.68000030517578
 70
   192
  0
VERTEX
  5
BBC
  8
0
 10
11.61499977111816
 20
13.07699966430664
 30
-25.90800094604492
 70
   192
  0
VERTEX
  5
BBD
  8
0
 10
11.61100006103516
 20
12.52000045776367
 30
-27.01300048828125
 70
   192
  0
VERTEX
  5
BBE
  8
0
 10
11.60700035095215
 20
11.86999988555908
 30
-28.0629997253418
 70
   192
  0
VERTEX
  5
BBF
  8
0
 10
6.580999851226807
 20
11.2189998626709
 30
-28.94700050354004
 70
   192
  0
VERTEX
  5
BC0
  8
0
 10
11.61400032043457
 20
12.91899967193604
 30
-26.22100067138672
 70
   192
  0
VERTEX
  5
BC1
  8
0
 10
6.580999851226807
 20
8.946999549865723
 30
-31.2189998626709
 70
   192
  0
VERTEX
  5
BC2
  8
0
 10
11.60099983215332
 20
10.38399982452393
 30
-29.90399932861328
 70
   192
  0
VERTEX
  5
BC3
  8
0
 10
11.59799957275391
 20
9.491999626159668
 30
-30.76199913024902
 70
   192
  0
VERTEX
  5
BC4
  8
0
 10
11.60400009155273
 20
11.2189998626709
 30
-28.94700050354004
 70
   192
  0
VERTEX
  5
BC5
  8
0
 10
11.60400009155273
 20
11.20499992370605
 30
-28.9640007019043
 70
   192
  0
VERTEX
  5
BC6
  8
0
 10
11.59500026702881
 20
8.531999588012695
 30
-31.53800010681152
 70
   192
  0
VERTEX
  5
BC7
  8
0
 10
11.59200000762939
 20
7.60699987411499
 30
-32.16799926757812
 70
   192
  0
VERTEX
  5
BC8
  8
0
 10
11.5959997177124
 20
8.939000129699707
 30
-31.20899963378906
 70
   192
  0
VERTEX
  5
BC9
  8
0
 10
6.580999851226807
 20
6.22599983215332
 30
-32.92900085449219
 70
   192
  0
VERTEX
  5
BCA
  8
0
 10
11.59000015258789
 20
6.520999908447266
 30
-32.78300094604492
 70
   192
  0
VERTEX
  5
BCB
  8
0
 10
11.58800029754639
 20
5.394999980926514
 30
-33.29700088500977
 70
   192
  0
VERTEX
  5
BCC
  8
0
 10
11.58699989318848
 20
4.23199987411499
 30
-33.71200180053711
 70
   192
  0
VERTEX
  5
BCD
  8
0
 10
6.580999851226807
 20
3.193000078201294
 30
-33.9900016784668
 70
   192
  0
VERTEX
  5
BCE
  8
0
 10
11.59000015258789
 20
6.222000122070312
 30
-32.91899871826172
 70
   192
  0
VERTEX
  5
BCF
  8
0
 10
6.580999851226807
 20
0.0
 30
-34.34999847412109
 70
   192
  0
VERTEX
  5
BD0
  8
0
 10
11.58500003814697
 20
1.922000050544739
 30
-34.22100067138672
 70
   192
  0
VERTEX
  5
BD1
  8
0
 10
11.58600044250488
 20
3.193000078201294
 30
-33.98899841308594
 70
   192
  0
VERTEX
  5
BD2
  8
0
 10
11.58600044250488
 20
3.150000095367432
 30
-34.0
 70
   192
  0
VERTEX
  5
BD3
  8
0
 10
11.58500003814697
 20
0.6890000104904175
 30
-34.33300018310547
 70
   192
  0
VERTEX
  5
BD4
  8
0
 10
11.58500003814697
 20
-0.5450000166893005
 30
-34.34000015258789
 70
   192
  0
VERTEX
  5
BD5
  8
0
 10
11.58500003814697
 20
-1.661999940872192
 30
-34.25299835205078
 70
   192
  0
VERTEX
  5
BD6
  8
0
 10
11.58500003814697
 20
0.0
 30
-34.33700180053711
 70
   192
  0
VERTEX
  5
BD7
  8
0
 10
6.580999851226807
 20
-3.193000078201294
 30
-33.9900016784668
 70
   192
  0
VERTEX
  5
BD8
  8
0
 10
11.58600044250488
 20
-2.892999887466431
 30
-34.05500030517578
 70
   192
  0
VERTEX
  5
BD9
  8
0
 10
11.58699989318848
 20
-4.093999862670898
 30
-33.75400161743164
 70
   192
  0
VERTEX
  5
BDA
  8
0
 10
11.58800029754639
 20
-5.261000156402588
 30
-33.35100173950195
 70
   192
  0
VERTEX
  5
BDB
  8
0
 10
6.580999851226807
 20
-6.22599983215332
 30
-32.92900085449219
 70
   192
  0
VERTEX
  5
BDC
  8
0
 10
11.58600044250488
 20
-3.190999984741211
 30
-33.98099899291992
 70
   192
  0
VERTEX
  5
BDD
  8
0
 10
6.580999851226807
 20
-8.946999549865723
 30
-31.2189998626709
 70
   192
  0
VERTEX
  5
BDE
  8
0
 10
11.59200000762939
 20
-7.382999897003174
 30
-32.30500030517578
 70
   192
  0
VERTEX
  5
BDF
  8
0
 10
11.59000015258789
 20
-6.224999904632568
 30
-32.92699813842773
 70
   192
  0
VERTEX
  5
BE0
  8
0
 10
11.59000015258789
 20
-6.285999774932861
 30
-32.90000152587891
 70
   192
  0
VERTEX
  5
BE1
  8
0
 10
11.5939998626709
 20
-8.416000366210938
 30
-31.62299919128418
 70
   192
  0
VERTEX
  5
BE2
  8
0
 10
11.59700012207031
 20
-9.383999824523926
 30
-30.85700035095215
 70
   192
  0
VERTEX
  5
BE3
  8
0
 10
11.60000038146973
 20
-10.20199966430664
 30
-30.09199905395508
 70
   192
  0
VERTEX
  5
BE4
  8
0
 10
11.5959997177124
 20
-8.939000129699707
 30
-31.20899963378906
 70
   192
  0
VERTEX
  5
BE5
  8
0
 10
6.580999851226807
 20
-11.2189998626709
 30
-28.94700050354004
 70
   192
  0
VERTEX
  5
BE6
  8
0
 10
11.60299968719482
 20
-11.03999996185303
 30
-29.16799926757812
 70
   192
  0
VERTEX
  5
BE7
  8
0
 10
11.60700035095215
 20
-11.78899955749512
 30
-28.18199920654297
 70
   192
  0
VERTEX
  5
BE8
  8
0
 10
11.61100006103516
 20
-12.44799995422363
 30
-27.13899993896484
 70
   192
  0
VERTEX
  5
BE9
  8
0
 10
6.580999851226807
 20
-12.92899990081787
 30
-26.22599983215332
 70
   192
  0
VERTEX
  5
BEA
  8
0
 10
11.60400009155273
 20
-11.21199989318848
 30
-28.94099998474121
 70
   192
  0
VERTEX
  5
BEB
  8
0
 10
6.580999851226807
 20
-13.98999977111816
 30
-23.19300079345703
 70
   192
  0
VERTEX
  5
BEC
  8
0
 10
11.61900043487549
 20
-13.45199966430664
 30
-24.99699974060059
 70
   192
  0
VERTEX
  5
BED
  8
0
 10
11.61400032043457
 20
-12.92599964141846
 30
-26.22500038146973
 70
   192
  0
VERTEX
  5
BEE
  8
0
 10
11.61400032043457
 20
-12.96700000762939
 30
-26.14699935913086
 70
   192
  0
VERTEX
  5
BEF
  8
0
 10
11.6230001449585
 20
-13.83199977874756
 30
-23.81900024414062
 70
   192
  0
VERTEX
  5
BF0
  8
0
 10
6.580999851226807
 20
-14.35000038146973
 30
-20.0
 70
   192
  0
VERTEX
  5
BF1
  8
0
 10
11.63099956512451
 20
-14.27099990844727
 30
-21.50799942016602
 70
   192
  0
VERTEX
  5
BF2
  8
0
 10
11.63599967956543
 20
-14.34700012207031
 30
-20.27199935913086
 70
   192
  0
VERTEX
  5
BF3
  8
0
 10
11.6269998550415
 20
-14.10999965667725
 30
-22.61599922180176
 70
   192
  0
VERTEX
  5
BF4
  8
0
 10
11.625
 20
-13.97700023651123
 30
-23.19000053405762
 70
   192
  0
VERTEX
  5
BF5
  8
0
 10
11.63700008392334
 20
-14.35000038146973
 30
-20.0
 70
   192
  0
VERTEX
  5
BF6
  8
0
 62
     9
 10
0.0
 20
0.0
 30
0.0
 70
   128
 71
     3
 72
     2
 73
     1
  0
VERTEX
  5
BF7
  8
0
 62
     9
 10
0.0
 20
0.0
 30
0.0
 70
   128
 71
     1
 72
     4
 73
     3
  0
VERTEX
  5
BF8
  8
0
 62
     9
 10
0.0
 20
0.0
 30
0.0
 70
   128
 71
     3
 72
     5
 73
     2
  0
VERTEX
  5
BF9
  8
0
 62
     9
 10
0.0
 20
0.0
 30
0.0
 70
   128
 71
     7
 72
     1
 73
     6
  0
VERTEX
  5
BFA
  8
0
 62
     9
 10
0.0
 20
0.0
 30
0.0
 70
   128
 71
     9
 72
     8
 73
     1
  0
VERTEX
  5
BFB
  8
0
 62
     9
 10
0.0
 20
0.0
 30
0.0
 70
   128
 71
     1
 72
     7
 73
     9
  0
VERTEX
  5
BFC
  8
0
 62
     9
 10
0.0
 20
0.0
 30
0.0
 70
   128
 71
     6
 72
    10
 73
     7
  0
VERTEX
  5
BFD
  8
0
 62
     9
 10
0.0
 20
0.0
 30
0.0
 70
   128
 71
    12
 72
    11
 73
     6
  0
VERTEX
  5
BFE
  8
0
 62
     9
 10
0.0
 20
0.0
 30
0.0
 70
   128
 71
     6
 72
    13
 73
    12
  0
VERTEX
  5
BFF
  8
0
 62
     9
 10
0.0
 20
0.0
 30
0.0
 70
   128
 71
    11
 72
    14
 73
     6
  0
VERTEX
  5
C00
  8
0
 62
     9
 10
0.0
 20
0.0
 30
0.0
 70
   128
 71
    16
 72
    13
 73
    15
  0
VERTEX
  5
C01
  8
0
 62
     9
 10
0.0
 20
0.0
 30
0.0
 70
   128
 71
    15
 72
    17
 73
    16
  0
VERTEX
  5
C02
  8
0
 62
     9
 10
0.0
 20
0.0
 30
0.0
 70
   128
 71
    19
 72
    18
 73
    13
  0
VERTEX
  5
C03
  8
0
 62
     9
 10
0.0
 20
0.0
 30
0.0
 70
   128
 71
    13
 72
    16
 73
    19
  0
VERTEX
  5
C04
  8
0
 62
     9
 10
0.0
 20
0.0
 30
0.0
 70
   128
 71
    21
 72
    20
 73
    15
  0
VERTEX
  5
C05
  8
0
 62
     9
 10
0.0
 20
0.0
 30
0.0
 70
   128
 71
    20
 72
    22
 73
    15
  0
VERTEX
  5
C06
  8
0
 62
     9
 10
0.0
 20
0.0
 30
0.0
 70
   128
 71
    15
 72
    23
 73
    21
  0
VERTEX
  5
C07
  8
0
 62
     9
 10
0.0
 20
0.0
 30
0.0
 70
   128
 71
    23
 72
    24
 73
    21
  0
VERTEX
  5
C08
  8
0
 62
     9
 10
0.0
 20
0.0
 30
0.0
 70
   128
 71
    26
 72
    25
 73
    23
  0
VERTEX
  5
C09
  8
0
 62
     9
 10
0.0
 20
0.0
 30
0.0
 70
   128
 71
    23
 72
    27
 73
    26
  0
VERTEX
  5
C0A
  8
0
 62
     9
 10
0.0
 20
0.0
 30
0.0
 70
   128
 71
    25
 72
    28
 73
    23
  0
VERTEX
  5
C0B
  8
0
 62
     9
 10
0.0
 20
0.0
 30
0.0
 70
   128
 71
    30
 72
    27
 73
    29
  0
VERTEX
  5
C0C
  8
0
 62
     9
 10
0.0
 20
0.0
 30
0.0
 70
   128
 71
    32
 72
    31
 73
    27
  0
VERTEX
  5
C0D
  8
0
 62
     9
 10
0.0
 20
0.0
 30
0.0
 70
   128
 71
    27
 72
    30
 73
    32
  0
VERTEX
  5
C0E
  8
0
 62
     9
 10
0.0
 20
0.0
 30
0.0
 70
   128
 71
    29
 72
    33
 73
    30
  0
VERTEX
  5
C0F
  8
0
 62
     9
 10
0.0
 20
0.0
 30
0.0
 70
   128
 71
    35
 72
    34
 73
    29
  0
VERTEX
  5
C10
  8
0
 62
     9
 10
0.0
 20
0.0
 30
0.0
 70
   128
 71
    34
 72
    36
 73
    29
  0
VERTEX
  5
C11
  8
0
 62
     9
 10
0.0
 20
0.0
 30
0.0
 70
   128
 71
    29
 72
    37
 73
    35
  0
VERTEX
  5
C12
  8
0
 62
     9
 10
0.0
 20
0.0
 30
0.0
 70
   128
 71
    37
 72
    38
 73
    35
  0
VERTEX
  5
C13
  8
0
 62
     9
 10
0.0
 20
0.0
 30
0.0
 70
   128
 71
    40
 72
    39
 73
    37
  0
VERTEX
  5
C14
  8
0
 62
     9
 10
0.0
 20
0.0
 30
0.0
 70
   128
 71
    37
 72
    41
 73
    40
  0
VERTEX
  5
C15
  8
0
 62
     9
 10
0.0
 20
0.0
 30
0.0
 70
   128
 71
    39
 72
    42
 73
    37
  0
VERTEX
  5
C16
  8
0
 62
     9
 10
0.0
 20
0.0
 30
0.0
 70
   128
 71
    44
 72
    41
 73
    43
  0
VERTEX
  5
C17
  8
0
 62
     9
 10
0.0
 20
0.0
 30
0.0
 70
   128
 71
    46
 72
    45
 73
    41
  0
VERTEX
  5
C18
  8
0
 62
     9
 10
0.0
 20
0.0
 30
0.0
 70
   128
 71
    41
 72
    44
 73
    46
  0
VERTEX
  5
C19
  8
0
 62
     9
 10
0.0
 20
0.0
 30
0.0
 70
   128
 71
    43
 72
    47
 73
    44
  0
VERTEX
  5
C1A
  8
0
 62
     9
 10
0.0
 20
0.0
 30
0.0
 70
   128
 71
    49
 72
    48
 73
    43
  0
VERTEX
  5
C1B
  8
0
 62
     9
 10
0.0
 20
0.0
 30
0.0
 70
   128
 71
    48
 72
    50
 73
    43
  0
VERTEX
  5
C1C
  8
0
 62
     9
 10
0.0
 20
0.0
 30
0.0
 70
   128
 71
    43
 72
    51
 73
    49
  0
VERTEX
  5
C1D
  8
0
 62
     9
 10
0.0
 20
0.0
 30
0.0
 70
   128
 71
    51
 72
    52
 73
    49
  0
VERTEX
  5
C1E
  8
0
 62
     9
 10
0.0
 20
0.0
 30
0.0
 70
   128
 71
    54
 72
    53
 73
    51
  0
VERTEX
  5
C1F
  8
0
 62
     9
 10
0.0
 20
0.0
 30
0.0
 70
   128
 71
    51
 72
    55
 73
    54
  0
VERTEX
  5
C20
  8
0
 62
     9
 10
0.0
 20
0.0
 30
0.0
 70
   128
 71
    53
 72
    56
 73
    51
  0
VERTEX
  5
C21
  8
0
 62
     9
 10
0.0
 20
0.0
 30
0.0
 70
   128
 71
    58
 72
    55
 73
    57
  0
VERTEX
  5
C22
  8
0
 62
     9
 10
0.0
 20
0.0
 30
0.0
 70
   128
 71
    60
 72
    59
 73
    55
  0
VERTEX
  5
C23
  8
0
 62
     9
 10
0.0
 20
0.0
 30
0.0
 70
   128
 71
    55
 72
    58
 73
    60
  0
VERTEX
  5
C24
  8
0
 62
     9
 10
0.0
 20
0.0
 30
0.0
 70
   128
 71
    57
 72
    61
 73
    58
  0
VERTEX
  5
C25
  8
0
 62
     9
 10
0.0
 20
0.0
 30
0.0
 70
   128
 71
    64
 72
    63
 73
    62
  0
VERTEX
  5
C26
  8
0
 62
     9
 10
0.0
 20
0.0
 30
0.0
 70
   128
 71
    63
 72
    65
 73
    57
  0
VERTEX
  5
C27
  8
0
 62
     9
 10
0.0
 20
0.0
 30
0.0
 70
   128
 71
    57
 72
    62
 73
    63
  0
VERTEX
  5
C28
  8
0
 62
     9
 10
0.0
 20
0.0
 30
0.0
 70
   128
 71
    65
 72
    66
 73
    57
  0
VERTEX
  5
C29
  8
0
 62
     9
 10
0.0
 20
0.0
 30
0.0
 70
   128
 71
    62
 72
    67
 73
    64
  0
VERTEX
  5
C2A
  8
0
 62
     9
 10
0.0
 20
0.0
 30
0.0
 70
   128
 71
    57
 72
    66
 73
    61
  0
VERTEX
  5
C2B
  8
0
 62
     9
 10
0.0
 20
0.0
 30
0.0
 70
   128
 71
    55
 72
    59
 73
    54
  0
VERTEX
  5
C2C
  8
0
 62
     9
 10
0.0
 20
0.0
 30
0.0
 70
   128
 71
    51
 72
    56
 73
    52
  0
VERTEX
  5
C2D
  8
0
 62
     9
 10
0.0
 20
0.0
 30
0.0
 70
   128
 71
    43
 72
    50
 73
    47
  0
VERTEX
  5
C2E
  8
0
 62
     9
 10
0.0
 20
0.0
 30
0.0
 70
   128
 71
    41
 72
    45
 73
    40
  0
VERTEX
  5
C2F
  8
0
 62
     9
 10
0.0
 20
0.0
 30
0.0
 70
   128
 71
    37
 72
    42
 73
    38
  0
VERTEX
  5
C30
  8
0
 62
     9
 10
0.0
 20
0.0
 30
0.0
 70
   128
 71
    29
 72
    36
 73
    33
  0
VERTEX
  5
C31
  8
0
 62
     9
 10
0.0
 20
0.0
 30
0.0
 70
   128
 71
    27
 72
    31
 73
    26
  0
VERTEX
  5
C32
  8
0
 62
     9
 10
0.0
 20
0.0
 30
0.0
 70
   128
 71
    23
 72
    28
 73
    24
  0
VERTEX
  5
C33
  8
0
 62
     9
 10
0.0
 20
0.0
 30
0.0
 70
   128
 71
    15
 72
    22
 73
    17
  0
VERTEX
  5
C34
  8
0
 62
     9
 10
0.0
 20
0.0
 30
0.0
 70
   128
 71
    13
 72
    18
 73
    12
  0
VERTEX
  5
C35
  8
0
 62
     9
 10
0.0
 20
0.0
 30
0.0
 70
   128
 71
     6
 72
    14
 73
    10
  0
VERTEX
  5
C36
  8
0
 62
     9
 10
0.0
 20
0.0
 30
0.0
 70
   128
 71
     1
 72
     8
 73
     4
  0
SEQEND
  5
C37
  8
0
 62
     9
  0
ENDBLK
  5
C3A
  8
0
  0
BLOCK
  8
0
  2
E3_NODE_39_
 70
     0
 10
0.0
 20
0.0
 30
0.0
  3
E3_NODE_39_
  1

  0
POLYLINE
  5
C3C
  8
0
 62
     9
 66
     1
 10
0.0
 20
0.0
 30
0.0
 70
    64
 71
     6
 72
     4
  0
VERTEX
  5
C3D
  8
0
 10
6.580999851226807
 20
14.35000038146973
 30
-20.0
 70
   192
  0
VERTEX
  5
C3E
  8
0
 10
11.66399955749512
 20
14.35000038146973
 30
-0.003000000026077
 70
   192
  0
VERTEX
  5
C3F
  8
0
 10
11.67000007629395
 20
14.35000038146973
 30
-3.630000114440918
 70
   192
  0
VERTEX
  5
C40
  8
0
 10
6.580999851226807
 20
14.35000038146973
 30
20.0
 70
   192
  0
VERTEX
  5
C41
  8
0
 10
11.62899971008301
 20
14.35000038146973
 30
20.0
 70
   192
  0
VERTEX
  5
C42
  8
0
 10
11.63700008392334
 20
14.35000038146973
 30
-20.0
 70
   192
  0
VERTEX
  5
C43
  8
0
 62
     9
 10
0.0
 20
0.0
 30
0.0
 70
   128
 71
     3
 72
     2
 73
     1
  0
VERTEX
  5
C44
  8
0
 62
     9
 10
0.0
 20
0.0
 30
0.0
 70
   128
 71
     2
 72
     5
 73
     4
  0
VERTEX
  5
C45
  8
0
 62
     9
 10
0.0
 20
0.0
 30
0.0
 70
   128
 71
     4
 72
     1
 73
     2
  0
VERTEX
  5
C46
  8
0
 62
     9
 10
0.0
 20
0.0
 30
0.0
 70
   128
 71
     1
 72
     6
 73
     3
  0
SEQEND
  5
C47
  8
0
 62
     9
  0
ENDBLK
  5
C4A
  8
0
  0
BLOCK
  8
0
  2
E3_NODE_40_
 70
     0
 10
0.0
 20
0.0
 30
0.0
  3
E3_NODE_40_
  1

  0
POLYLINE
  5
C4C
  8
0
 62
     9
 66
     1
 10
0.0
 20
0.0
 30
0.0
 70
    64
 71
   110
 72
   110
  0
VERTEX
  5
C4D
  8
0
 10
11.66399955749512
 20
14.35000038146973
 30
-0.003000000026077
 70
   192
  0
VERTEX
  5
C4E
  8
0
 10
11.61900043487549
 20
-14.13500022888184
 30
22.47400093078613
 70
   192
  0
VERTEX
  5
C4F
  8
0
 10
11.62399959564209
 20
-14.29599952697754
 30
21.24699974060059
 70
   192
  0
VERTEX
  5
C50
  8
0
 10
11.61600017547607
 20
-13.97799968719482
 30
23.19000053405762
 70
   192
  0
VERTEX
  5
C51
  8
0
 10
11.62899971008301
 20
-14.35000038146973
 30
20.0
 70
   192
  0
VERTEX
  5
C52
  8
0
 10
11.60400009155273
 20
-12.91899967193604
 30
26.22100067138672
 70
   192
  0
VERTEX
  5
C53
  8
0
 10
11.60499954223633
 20
-13.07699966430664
 30
25.90800094604492
 70
   192
  0
VERTEX
  5
C54
  8
0
 10
11.60999965667725
 20
-13.54100036621094
 30
24.75
 70
   192
  0
VERTEX
  5
C55
  8
0
 10
11.61400032043457
 20
-13.86999988555908
 30
23.68000030517578
 70
   192
  0
VERTEX
  5
C56
  8
0
 10
11.59700012207031
 20
-11.86999988555908
 30
28.0629997253418
 70
   192
  0
VERTEX
  5
C57
  8
0
 10
11.60099983215332
 20
-12.52000045776367
 30
27.01300048828125
 70
   192
  0
VERTEX
  5
C58
  8
0
 10
11.5930004119873
 20
-11.2189998626709
 30
28.94700050354004
 70
   192
  0
VERTEX
  5
C59
  8
0
 10
11.58600044250488
 20
-9.491999626159668
 30
30.76199913024902
 70
   192
  0
VERTEX
  5
C5A
  8
0
 10
11.58899974822998
 20
-10.38399982452393
 30
29.90399932861328
 70
   192
  0
VERTEX
  5
C5B
  8
0
 10
11.58399963378906
 20
-8.939000129699707
 30
31.20899963378906
 70
   192
  0
VERTEX
  5
C5C
  8
0
 10
11.5930004119873
 20
-11.20499992370605
 30
28.9640007019043
 70
   192
  0
VERTEX
  5
C5D
  8
0
 10
11.57699966430664
 20
-6.222000122070312
 30
32.91899871826172
 70
   192
  0
VERTEX
  5
C5E
  8
0
 10
11.57800006866455
 20
-6.520999908447266
 30
32.78300094604492
 70
   192
  0
VERTEX
  5
C5F
  8
0
 10
11.57999992370605
 20
-7.605999946594238
 30
32.16799926757812
 70
   192
  0
VERTEX
  5
C60
  8
0
 10
11.58300018310547
 20
-8.531999588012695
 30
31.53800010681152
 70
   192
  0
VERTEX
  5
C61
  8
0
 10
11.57400035858154
 20
-4.23199987411499
 30
33.71200180053711
 70
   192
  0
VERTEX
  5
C62
  8
0
 10
11.57600021362305
 20
-5.394999980926514
 30
33.29700088500977
 70
   192
  0
VERTEX
  5
C63
  8
0
 10
11.57299995422363
 20
-3.193000078201294
 30
33.98899841308594
 70
   192
  0
VERTEX
  5
C64
  8
0
 10
11.5959997177124
 20
4.867000102996826
 30
30.10700035095215
 70
   192
  0
VERTEX
  5
C65
  8
0
 10
11.58199977874756
 20
8.416000366210938
 30
31.62299919128418
 70
   192
  0
VERTEX
  5
C66
  8
0
 10
11.57900047302246
 20
7.382999897003174
 30
32.30500030517578
 70
   192
  0
VERTEX
  5
C67
  8
0
 10
11.58399963378906
 20
8.939000129699707
 30
31.20899963378906
 70
   192
  0
VERTEX
  5
C68
  8
0
 10
11.57699966430664
 20
6.285999774932861
 30
32.90000152587891
 70
   192
  0
VERTEX
  5
C69
  8
0
 10
11.5930004119873
 20
11.21199989318848
 30
28.94099998474121
 70
   192
  0
VERTEX
  5
C6A
  8
0
 10
11.59200000762939
 20
11.03999996185303
 30
29.16799926757812
 70
   192
  0
VERTEX
  5
C6B
  8
0
 10
11.58800029754639
 20
10.20199966430664
 30
30.09199905395508
 70
   192
  0
VERTEX
  5
C6C
  8
0
 10
11.58500003814697
 20
9.383999824523926
 30
30.85700035095215
 70
   192
  0
VERTEX
  5
C6D
  8
0
 10
11.60000038146973
 20
12.44799995422363
 30
27.13899993896484
 70
   192
  0
VERTEX
  5
C6E
  8
0
 10
11.5959997177124
 20
11.78899955749512
 30
28.18199920654297
 70
   192
  0
VERTEX
  5
C6F
  8
0
 10
11.60400009155273
 20
12.92599964141846
 30
26.22500038146973
 70
   192
  0
VERTEX
  5
C70
  8
0
 10
11.57100009918213
 20
-0.6890000104904175
 30
34.33300018310547
 70
   192
  0
VERTEX
  5
C71
  8
0
 10
11.57199954986572
 20
-1.922000050544739
 30
34.22100067138672
 70
   192
  0
VERTEX
  5
C72
  8
0
 10
11.57100009918213
 20
0.0
 30
34.33700180053711
 70
   192
  0
VERTEX
  5
C73
  8
0
 10
11.57299995422363
 20
-3.150000095367432
 30
34.0
 70
   192
  0
VERTEX
  5
C74
  8
0
 10
11.57299995422363
 20
3.190999984741211
 30
33.98099899291992
 70
   192
  0
VERTEX
  5
C75
  8
0
 10
11.57199954986572
 20
2.892999887466431
 30
34.05500030517578
 70
   192
  0
VERTEX
  5
C76
  8
0
 10
11.57199954986572
 20
1.661999940872192
 30
34.25299835205078
 70
   192
  0
VERTEX
  5
C77
  8
0
 10
11.57100009918213
 20
0.5450000166893005
 30
34.34000015258789
 70
   192
  0
VERTEX
  5
C78
  8
0
 10
11.57499980926514
 20
5.261000156402588
 30
33.35100173950195
 70
   192
  0
VERTEX
  5
C79
  8
0
 10
11.57400035858154
 20
4.093999862670898
 30
33.75400161743164
 70
   192
  0
VERTEX
  5
C7A
  8
0
 10
11.57699966430664
 20
6.224999904632568
 30
32.92699813842773
 70
   192
  0
VERTEX
  5
C7B
  8
0
 10
11.61400032043457
 20
13.83199977874756
 30
23.81900024414062
 70
   192
  0
VERTEX
  5
C7C
  8
0
 10
11.60900020599365
 20
13.45199966430664
 30
24.99699974060059
 70
   192
  0
VERTEX
  5
C7D
  8
0
 10
11.61600017547607
 20
13.97700023651123
 30
23.19000053405762
 70
   192
  0
VERTEX
  5
C7E
  8
0
 10
11.60400009155273
 20
12.96700000762939
 30
26.14699935913086
 70
   192
  0
VERTEX
  5
C7F
  8
0
 10
11.62800025939941
 20
14.34700012207031
 30
20.27199935913086
 70
   192
  0
VERTEX
  5
C80
  8
0
 10
11.6230001449585
 20
14.27099990844727
 30
21.50799942016602
 70
   192
  0
VERTEX
  5
C81
  8
0
 10
11.61800003051758
 20
14.10999965667725
 30
22.61599922180176
 70
   192
  0
VERTEX
  5
C82
  8
0
 10
11.62899971008301
 20
14.35000038146973
 30
20.0
 70
   192
  0
VERTEX
  5
C83
  8
0
 10
11.66899967193604
 20
-14.35000038146973
 30
3.630000114440918
 70
   192
  0
VERTEX
  5
C84
  8
0
 10
11.66399955749512
 20
-14.35000038146973
 30
-0.003000000026077
 70
   192
  0
VERTEX
  5
C85
  8
0
 10
11.62800025939941
 20
14.13500022888184
 30
-22.47400093078613
 70
   192
  0
VERTEX
  5
C86
  8
0
 10
11.63199996948242
 20
14.29599952697754
 30
-21.24699974060059
 70
   192
  0
VERTEX
  5
C87
  8
0
 10
11.625
 20
13.97799968719482
 30
-23.19000053405762
 70
   192
  0
VERTEX
  5
C88
  8
0
 10
11.63700008392334
 20
14.35000038146973
 30
-20.0
 70
   192
  0
VERTEX
  5
C89
  8
0
 10
11.61400032043457
 20
12.91899967193604
 30
-26.22100067138672
 70
   192
  0
VERTEX
  5
C8A
  8
0
 10
11.61499977111816
 20
13.07699966430664
 30
-25.90800094604492
 70
   192
  0
VERTEX
  5
C8B
  8
0
 10
11.61900043487549
 20
13.54100036621094
 30
-24.75
 70
   192
  0
VERTEX
  5
C8C
  8
0
 10
11.6230001449585
 20
13.86999988555908
 30
-23.68000030517578
 70
   192
  0
VERTEX
  5
C8D
  8
0
 10
11.60700035095215
 20
11.86999988555908
 30
-28.0629997253418
 70
   192
  0
VERTEX
  5
C8E
  8
0
 10
11.61100006103516
 20
12.52000045776367
 30
-27.01300048828125
 70
   192
  0
VERTEX
  5
C8F
  8
0
 10
11.60400009155273
 20
11.2189998626709
 30
-28.94700050354004
 70
   192
  0
VERTEX
  5
C90
  8
0
 10
11.59799957275391
 20
9.491999626159668
 30
-30.76199913024902
 70
   192
  0
VERTEX
  5
C91
  8
0
 10
11.60099983215332
 20
10.38399982452393
 30
-29.90399932861328
 70
   192
  0
VERTEX
  5
C92
  8
0
 10
11.5959997177124
 20
8.939000129699707
 30
-31.20899963378906
 70
   192
  0
VERTEX
  5
C93
  8
0
 10
11.60400009155273
 20
11.20499992370605
 30
-28.9640007019043
 70
   192
  0
VERTEX
  5
C94
  8
0
 10
11.59000015258789
 20
6.222000122070312
 30
-32.91899871826172
 70
   192
  0
VERTEX
  5
C95
  8
0
 10
11.59000015258789
 20
6.520999908447266
 30
-32.78300094604492
 70
   192
  0
VERTEX
  5
C96
  8
0
 10
11.59200000762939
 20
7.60699987411499
 30
-32.16799926757812
 70
   192
  0
VERTEX
  5
C97
  8
0
 10
11.59500026702881
 20
8.531999588012695
 30
-31.53800010681152
 70
   192
  0
VERTEX
  5
C98
  8
0
 10
11.58699989318848
 20
4.23199987411499
 30
-33.71200180053711
 70
   192
  0
VERTEX
  5
C99
  8
0
 10
11.58800029754639
 20
5.394999980926514
 30
-33.29700088500977
 70
   192
  0
VERTEX
  5
C9A
  8
0
 10
11.58600044250488
 20
3.193000078201294
 30
-33.98899841308594
 70
   192
  0
VERTEX
  5
C9B
  8
0
 10
11.60799980163574
 20
-4.867000102996826
 30
-30.10700035095215
 70
   192
  0
VERTEX
  5
C9C
  8
0
 10
11.58500003814697
 20
0.6890000104904175
 30
-34.33300018310547
 70
   192
  0
VERTEX
  5
C9D
  8
0
 10
11.58500003814697
 20
1.922000050544739
 30
-34.22100067138672
 70
   192
  0
VERTEX
  5
C9E
  8
0
 10
11.58500003814697
 20
0.0
 30
-34.33700180053711
 70
   192
  0
VERTEX
  5
C9F
  8
0
 10
11.58600044250488
 20
3.150000095367432
 30
-34.0
 70
   192
  0
VERTEX
  5
CA0
  8
0
 10
11.58600044250488
 20
-3.190999984741211
 30
-33.98099899291992
 70
   192
  0
VERTEX
  5
CA1
  8
0
 10
11.58600044250488
 20
-2.892999887466431
 30
-34.05500030517578
 70
   192
  0
VERTEX
  5
CA2
  8
0
 10
11.58500003814697
 20
-1.661999940872192
 30
-34.25299835205078
 70
   192
  0
VERTEX
  5
CA3
  8
0
 10
11.58500003814697
 20
-0.5450000166893005
 30
-34.34000015258789
 70
   192
  0
VERTEX
  5
CA4
  8
0
 10
11.58800029754639
 20
-5.261000156402588
 30
-33.35100173950195
 70
   192
  0
VERTEX
  5
CA5
  8
0
 10
11.58699989318848
 20
-4.093999862670898
 30
-33.75400161743164
 70
   192
  0
VERTEX
  5
CA6
  8
0
 10
11.59000015258789
 20
-6.224999904632568
 30
-32.92699813842773
 70
   192
  0
VERTEX
  5
CA7
  8
0
 10
11.5939998626709
 20
-8.416000366210938
 30
-31.62299919128418
 70
   192
  0
VERTEX
  5
CA8
  8
0
 10
11.59200000762939
 20
-7.382999897003174
 30
-32.30500030517578
 70
   192
  0
VERTEX
  5
CA9
  8
0
 10
11.5959997177124
 20
-8.939000129699707
 30
-31.20899963378906
 70
   192
  0
VERTEX
  5
CAA
  8
0
 10
11.59000015258789
 20
-6.285999774932861
 30
-32.90000152587891
 70
   192
  0
VERTEX
  5
CAB
  8
0
 10
11.60400009155273
 20
-11.21199989318848
 30
-28.94099998474121
 70
   192
  0
VERTEX
  5
CAC
  8
0
 10
11.60299968719482
 20
-11.03999996185303
 30
-29.16799926757812
 70
   192
  0
VERTEX
  5
CAD
  8
0
 10
11.60000038146973
 20
-10.20199966430664
 30
-30.09199905395508
 70
   192
  0
VERTEX
  5
CAE
  8
0
 10
11.59700012207031
 20
-9.383999824523926
 30
-30.85700035095215
 70
   192
  0
VERTEX
  5
CAF
  8
0
 10
11.61100006103516
 20
-12.44799995422363
 30
-27.13899993896484
 70
   192
  0
VERTEX
  5
CB0
  8
0
 10
11.60700035095215
 20
-11.78899955749512
 30
-28.18199920654297
 70
   192
  0
VERTEX
  5
CB1
  8
0
 10
11.61400032043457
 20
-12.92599964141846
 30
-26.22500038146973
 70
   192
  0
VERTEX
  5
CB2
  8
0
 10
11.6230001449585
 20
-13.83199977874756
 30
-23.81900024414062
 70
   192
  0
VERTEX
  5
CB3
  8
0
 10
11.61900043487549
 20
-13.45199966430664
 30
-24.99699974060059
 70
   192
  0
VERTEX
  5
CB4
  8
0
 10
11.625
 20
-13.97700023651123
 30
-23.19000053405762
 70
   192
  0
VERTEX
  5
CB5
  8
0
 10
11.61400032043457
 20
-12.96700000762939
 30
-26.14699935913086
 70
   192
  0
VERTEX
  5
CB6
  8
0
 10
11.63599967956543
 20
-14.34700012207031
 30
-20.27199935913086
 70
   192
  0
VERTEX
  5
CB7
  8
0
 10
11.63099956512451
 20
-14.27099990844727
 30
-21.50799942016602
 70
   192
  0
VERTEX
  5
CB8
  8
0
 10
11.6269998550415
 20
-14.10999965667725
 30
-22.61599922180176
 70
   192
  0
VERTEX
  5
CB9
  8
0
 10
11.63700008392334
 20
-14.35000038146973
 30
-20.0
 70
   192
  0
VERTEX
  5
CBA
  8
0
 10
11.67000007629395
 20
14.35000038146973
 30
-3.630000114440918
 70
   192
  0
VERTEX
  5
CBB
  8
0
 62
     9
 10
0.0
 20
0.0
 30
0.0
 70
   128
 71
     3
 72
     2
 73
     1
  0
VERTEX
  5
CBC
  8
0
 62
     9
 10
0.0
 20
0.0
 30
0.0
 70
   128
 71
     2
 72
     4
 73
     1
  0
VERTEX
  5
CBD
  8
0
 62
     9
 10
0.0
 20
0.0
 30
0.0
 70
   128
 71
     1
 72
     5
 73
     3
  0
VERTEX
  5
CBE
  8
0
 62
     9
 10
0.0
 20
0.0
 30
0.0
 70
   128
 71
     7
 72
     6
 73
     1
  0
VERTEX
  5
CBF
  8
0
 62
     9
 10
0.0
 20
0.0
 30
0.0
 70
   128
 71
     1
 72
     8
 73
     7
  0
VERTEX
  5
CC0
  8
0
 62
     9
 10
0.0
 20
0.0
 30
0.0
 70
   128
 71
     1
 72
     9
 73
     8
  0
VERTEX
  5
CC1
  8
0
 62
     9
 10
0.0
 20
0.0
 30
0.0
 70
   128
 71
     1
 72
     4
 73
     9
  0
VERTEX
  5
CC2
  8
0
 62
     9
 10
0.0
 20
0.0
 30
0.0
 70
   128
 71
    11
 72
    10
 73
     1
  0
VERTEX
  5
CC3
  8
0
 62
     9
 10
0.0
 20
0.0
 30
0.0
 70
   128
 71
    10
 72
    12
 73
     1
  0
VERTEX
  5
CC4
  8
0
 62
     9
 10
0.0
 20
0.0
 30
0.0
 70
   128
 71
     1
 72
     6
 73
    11
  0
VERTEX
  5
CC5
  8
0
 62
     9
 10
0.0
 20
0.0
 30
0.0
 70
   128
 71
    14
 72
    13
 73
     1
  0
VERTEX
  5
CC6
  8
0
 62
     9
 10
0.0
 20
0.0
 30
0.0
 70
   128
 71
    13
 72
    15
 73
     1
  0
VERTEX
  5
CC7
  8
0
 62
     9
 10
0.0
 20
0.0
 30
0.0
 70
   128
 71
     1
 72
    16
 73
    14
  0
VERTEX
  5
CC8
  8
0
 62
     9
 10
0.0
 20
0.0
 30
0.0
 70
   128
 71
    18
 72
    17
 73
     1
  0
VERTEX
  5
CC9
  8
0
 62
     9
 10
0.0
 20
0.0
 30
0.0
 70
   128
 71
     1
 72
    19
 73
    18
  0
VERTEX
  5
CCA
  8
0
 62
     9
 10
0.0
 20
0.0
 30
0.0
 70
   128
 71
     1
 72
    20
 73
    19
  0
VERTEX
  5
CCB
  8
0
 62
     9
 10
0.0
 20
0.0
 30
0.0
 70
   128
 71
     1
 72
    15
 73
    20
  0
VERTEX
  5
CCC
  8
0
 62
     9
 10
0.0
 20
0.0
 30
0.0
 70
   128
 71
    22
 72
    21
 73
     1
  0
VERTEX
  5
CCD
  8
0
 62
     9
 10
0.0
 20
0.0
 30
0.0
 70
   128
 71
    21
 72
    23
 73
     1
  0
VERTEX
  5
CCE
  8
0
 62
     9
 10
0.0
 20
0.0
 30
0.0
 70
   128
 71
     1
 72
    17
 73
    22
  0
VERTEX
  5
CCF
  8
0
 62
     9
 10
0.0
 20
0.0
 30
0.0
 70
   128
 71
     1
 72
    12
 73
    16
  0
VERTEX
  5
CD0
  8
0
 62
     9
 10
0.0
 20
0.0
 30
0.0
 70
   128
 71
    26
 72
    25
 73
    24
  0
VERTEX
  5
CD1
  8
0
 62
     9
 10
0.0
 20
0.0
 30
0.0
 70
   128
 71
    25
 72
    27
 73
    24
  0
VERTEX
  5
CD2
  8
0
 62
     9
 10
0.0
 20
0.0
 30
0.0
 70
   128
 71
    24
 72
    28
 73
    26
  0
VERTEX
  5
CD3
  8
0
 62
     9
 10
0.0
 20
0.0
 30
0.0
 70
   128
 71
    30
 72
    29
 73
    24
  0
VERTEX
  5
CD4
  8
0
 62
     9
 10
0.0
 20
0.0
 30
0.0
 70
   128
 71
    24
 72
    31
 73
    30
  0
VERTEX
  5
CD5
  8
0
 62
     9
 10
0.0
 20
0.0
 30
0.0
 70
   128
 71
    24
 72
    32
 73
    31
  0
VERTEX
  5
CD6
  8
0
 62
     9
 10
0.0
 20
0.0
 30
0.0
 70
   128
 71
    34
 72
    33
 73
    24
  0
VERTEX
  5
CD7
  8
0
 62
     9
 10
0.0
 20
0.0
 30
0.0
 70
   128
 71
    33
 72
    35
 73
    24
  0
VERTEX
  5
CD8
  8
0
 62
     9
 10
0.0
 20
0.0
 30
0.0
 70
   128
 71
    24
 72
    29
 73
    34
  0
VERTEX
  5
CD9
  8
0
 62
     9
 10
0.0
 20
0.0
 30
0.0
 70
   128
 71
    24
 72
    27
 73
    32
  0
VERTEX
  5
CDA
  8
0
 62
     9
 10
0.0
 20
0.0
 30
0.0
 70
   128
 71
    37
 72
    36
 73
    24
  0
VERTEX
  5
CDB
  8
0
 62
     9
 10
0.0
 20
0.0
 30
0.0
 70
   128
 71
    36
 72
    38
 73
    24
  0
VERTEX
  5
CDC
  8
0
 62
     9
 10
0.0
 20
0.0
 30
0.0
 70
   128
 71
    24
 72
    39
 73
    37
  0
VERTEX
  5
CDD
  8
0
 62
     9
 10
0.0
 20
0.0
 30
0.0
 70
   128
 71
    41
 72
    40
 73
    24
  0
VERTEX
  5
CDE
  8
0
 62
     9
 10
0.0
 20
0.0
 30
0.0
 70
   128
 71
    24
 72
    42
 73
    41
  0
VERTEX
  5
CDF
  8
0
 62
     9
 10
0.0
 20
0.0
 30
0.0
 70
   128
 71
    24
 72
    43
 73
    42
  0
VERTEX
  5
CE0
  8
0
 62
     9
 10
0.0
 20
0.0
 30
0.0
 70
   128
 71
    45
 72
    44
 73
    24
  0
VERTEX
  5
CE1
  8
0
 62
     9
 10
0.0
 20
0.0
 30
0.0
 70
   128
 71
    44
 72
    46
 73
    24
  0
VERTEX
  5
CE2
  8
0
 62
     9
 10
0.0
 20
0.0
 30
0.0
 70
   128
 71
    24
 72
    40
 73
    45
  0
VERTEX
  5
CE3
  8
0
 62
     9
 10
0.0
 20
0.0
 30
0.0
 70
   128
 71
    24
 72
    38
 73
    43
  0
VERTEX
  5
CE4
  8
0
 62
     9
 10
0.0
 20
0.0
 30
0.0
 70
   128
 71
    24
 72
    23
 73
    39
  0
VERTEX
  5
CE5
  8
0
 62
     9
 10
0.0
 20
0.0
 30
0.0
 70
   128
 71
    48
 72
    47
 73
    24
  0
VERTEX
  5
CE6
  8
0
 62
     9
 10
0.0
 20
0.0
 30
0.0
 70
   128
 71
    47
 72
    49
 73
    24
  0
VERTEX
  5
CE7
  8
0
 62
     9
 10
0.0
 20
0.0
 30
0.0
 70
   128
 71
    24
 72
    50
 73
    48
  0
VERTEX
  5
CE8
  8
0
 62
     9
 10
0.0
 20
0.0
 30
0.0
 70
   128
 71
    24
 72
    35
 73
    50
  0
VERTEX
  5
CE9
  8
0
 62
     9
 10
0.0
 20
0.0
 30
0.0
 70
   128
 71
    52
 72
    51
 73
    23
  0
VERTEX
  5
CEA
  8
0
 62
     9
 10
0.0
 20
0.0
 30
0.0
 70
   128
 71
    23
 72
    53
 73
    52
  0
VERTEX
  5
CEB
  8
0
 62
     9
 10
0.0
 20
0.0
 30
0.0
 70
   128
 71
    51
 72
    54
 73
    23
  0
VERTEX
  5
CEC
  8
0
 62
     9
 10
0.0
 20
0.0
 30
0.0
 70
   128
 71
    54
 72
     1
 73
    23
  0
VERTEX
  5
CED
  8
0
 62
     9
 10
0.0
 20
0.0
 30
0.0
 70
   128
 71
    23
 72
    49
 73
    53
  0
VERTEX
  5
CEE
  8
0
 62
     9
 10
0.0
 20
0.0
 30
0.0
 70
   128
 71
    49
 72
    23
 73
    24
  0
VERTEX
  5
CEF
  8
0
 62
     9
 10
0.0
 20
0.0
 30
0.0
 70
   128
 71
    24
 72
    46
 73
    28
  0
VERTEX
  5
CF0
  8
0
 62
     9
 10
0.0
 20
0.0
 30
0.0
 70
   128
 71
     1
 72
    55
 73
     5
  0
VERTEX
  5
CF1
  8
0
 62
     9
 10
0.0
 20
0.0
 30
0.0
 70
   128
 71
    58
 72
    57
 73
    56
  0
VERTEX
  5
CF2
  8
0
 62
     9
 10
0.0
 20
0.0
 30
0.0
 70
   128
 71
    57
 72
    59
 73
    56
  0
VERTEX
  5
CF3
  8
0
 62
     9
 10
0.0
 20
0.0
 30
0.0
 70
   128
 71
    56
 72
    60
 73
    58
  0
VERTEX
  5
CF4
  8
0
 62
     9
 10
0.0
 20
0.0
 30
0.0
 70
   128
 71
    62
 72
    61
 73
    56
  0
VERTEX
  5
CF5
  8
0
 62
     9
 10
0.0
 20
0.0
 30
0.0
 70
   128
 71
    56
 72
    63
 73
    62
  0
VERTEX
  5
CF6
  8
0
 62
     9
 10
0.0
 20
0.0
 30
0.0
 70
   128
 71
    56
 72
    64
 73
    63
  0
VERTEX
  5
CF7
  8
0
 62
     9
 10
0.0
 20
0.0
 30
0.0
 70
   128
 71
    66
 72
    65
 73
    56
  0
VERTEX
  5
CF8
  8
0
 62
     9
 10
0.0
 20
0.0
 30
0.0
 70
   128
 71
    65
 72
    67
 73
    56
  0
VERTEX
  5
CF9
  8
0
 62
     9
 10
0.0
 20
0.0
 30
0.0
 70
   128
 71
    56
 72
    61
 73
    66
  0
VERTEX
  5
CFA
  8
0
 62
     9
 10
0.0
 20
0.0
 30
0.0
 70
   128
 71
    56
 72
    59
 73
    64
  0
VERTEX
  5
CFB
  8
0
 62
     9
 10
0.0
 20
0.0
 30
0.0
 70
   128
 71
    69
 72
    68
 73
    56
  0
VERTEX
  5
CFC
  8
0
 62
     9
 10
0.0
 20
0.0
 30
0.0
 70
   128
 71
    68
 72
    70
 73
    56
  0
VERTEX
  5
CFD
  8
0
 62
     9
 10
0.0
 20
0.0
 30
0.0
 70
   128
 71
    56
 72
    71
 73
    69
  0
VERTEX
  5
CFE
  8
0
 62
     9
 10
0.0
 20
0.0
 30
0.0
 70
   128
 71
    73
 72
    72
 73
    56
  0
VERTEX
  5
CFF
  8
0
 62
     9
 10
0.0
 20
0.0
 30
0.0
 70
   128
 71
    56
 72
    74
 73
    73
  0
VERTEX
  5
D00
  8
0
 62
     9
 10
0.0
 20
0.0
 30
0.0
 70
   128
 71
    56
 72
    75
 73
    74
  0
VERTEX
  5
D01
  8
0
 62
     9
 10
0.0
 20
0.0
 30
0.0
 70
   128
 71
    77
 72
    76
 73
    56
  0
VERTEX
  5
D02
  8
0
 62
     9
 10
0.0
 20
0.0
 30
0.0
 70
   128
 71
    76
 72
    78
 73
    56
  0
VERTEX
  5
D03
  8
0
 62
     9
 10
0.0
 20
0.0
 30
0.0
 70
   128
 71
    56
 72
    72
 73
    77
  0
VERTEX
  5
D04
  8
0
 62
     9
 10
0.0
 20
0.0
 30
0.0
 70
   128
 71
    56
 72
    70
 73
    75
  0
VERTEX
  5
D05
  8
0
 62
     9
 10
0.0
 20
0.0
 30
0.0
 70
   128
 71
    81
 72
    80
 73
    79
  0
VERTEX
  5
D06
  8
0
 62
     9
 10
0.0
 20
0.0
 30
0.0
 70
   128
 71
    80
 72
    82
 73
    79
  0
VERTEX
  5
D07
  8
0
 62
     9
 10
0.0
 20
0.0
 30
0.0
 70
   128
 71
    79
 72
    83
 73
    81
  0
VERTEX
  5
D08
  8
0
 62
     9
 10
0.0
 20
0.0
 30
0.0
 70
   128
 71
    85
 72
    84
 73
    79
  0
VERTEX
  5
D09
  8
0
 62
     9
 10
0.0
 20
0.0
 30
0.0
 70
   128
 71
    79
 72
    86
 73
    85
  0
VERTEX
  5
D0A
  8
0
 62
     9
 10
0.0
 20
0.0
 30
0.0
 70
   128
 71
    79
 72
    87
 73
    86
  0
VERTEX
  5
D0B
  8
0
 62
     9
 10
0.0
 20
0.0
 30
0.0
 70
   128
 71
    89
 72
    88
 73
    79
  0
VERTEX
  5
D0C
  8
0
 62
     9
 10
0.0
 20
0.0
 30
0.0
 70
   128
 71
    88
 72
    90
 73
    79
  0
VERTEX
  5
D0D
  8
0
 62
     9
 10
0.0
 20
0.0
 30
0.0
 70
   128
 71
    79
 72
    84
 73
    89
  0
VERTEX
  5
D0E
  8
0
 62
     9
 10
0.0
 20
0.0
 30
0.0
 70
   128
 71
    79
 72
    82
 73
    87
  0
VERTEX
  5
D0F
  8
0
 62
     9
 10
0.0
 20
0.0
 30
0.0
 70
   128
 71
    92
 72
    91
 73
    79
  0
VERTEX
  5
D10
  8
0
 62
     9
 10
0.0
 20
0.0
 30
0.0
 70
   128
 71
    91
 72
    93
 73
    79
  0
VERTEX
  5
D11
  8
0
 62
     9
 10
0.0
 20
0.0
 30
0.0
 70
   128
 71
    79
 72
    94
 73
    92
  0
VERTEX
  5
D12
  8
0
 62
     9
 10
0.0
 20
0.0
 30
0.0
 70
   128
 71
    96
 72
    95
 73
    79
  0
VERTEX
  5
D13
  8
0
 62
     9
 10
0.0
 20
0.0
 30
0.0
 70
   128
 71
    79
 72
    97
 73
    96
  0
VERTEX
  5
D14
  8
0
 62
     9
 10
0.0
 20
0.0
 30
0.0
 70
   128
 71
    79
 72
    98
 73
    97
  0
VERTEX
  5
D15
  8
0
 62
     9
 10
0.0
 20
0.0
 30
0.0
 70
   128
 71
    79
 72
    93
 73
    98
  0
VERTEX
  5
D16
  8
0
 62
     9
 10
0.0
 20
0.0
 30
0.0
 70
   128
 71
   100
 72
    99
 73
    79
  0
VERTEX
  5
D17
  8
0
 62
     9
 10
0.0
 20
0.0
 30
0.0
 70
   128
 71
    99
 72
   101
 73
    79
  0
VERTEX
  5
D18
  8
0
 62
     9
 10
0.0
 20
0.0
 30
0.0
 70
   128
 71
    79
 72
    95
 73
   100
  0
VERTEX
  5
D19
  8
0
 62
     9
 10
0.0
 20
0.0
 30
0.0
 70
   128
 71
    79
 72
    90
 73
    94
  0
VERTEX
  5
D1A
  8
0
 62
     9
 10
0.0
 20
0.0
 30
0.0
 70
   128
 71
   103
 72
   102
 73
    79
  0
VERTEX
  5
D1B
  8
0
 62
     9
 10
0.0
 20
0.0
 30
0.0
 70
   128
 71
   102
 72
   104
 73
    79
  0
VERTEX
  5
D1C
  8
0
 62
     9
 10
0.0
 20
0.0
 30
0.0
 70
   128
 71
    79
 72
   105
 73
   103
  0
VERTEX
  5
D1D
  8
0
 62
     9
 10
0.0
 20
0.0
 30
0.0
 70
   128
 71
   107
 72
   106
 73
    79
  0
VERTEX
  5
D1E
  8
0
 62
     9
 10
0.0
 20
0.0
 30
0.0
 70
   128
 71
    79
 72
   108
 73
   107
  0
VERTEX
  5
D1F
  8
0
 62
     9
 10
0.0
 20
0.0
 30
0.0
 70
   128
 71
   106
 72
   109
 73
    79
  0
VERTEX
  5
D20
  8
0
 62
     9
 10
0.0
 20
0.0
 30
0.0
 70
   128
 71
   109
 72
    56
 73
    79
  0
VERTEX
  5
D21
  8
0
 62
     9
 10
0.0
 20
0.0
 30
0.0
 70
   128
 71
    79
 72
   104
 73
   108
  0
VERTEX
  5
D22
  8
0
 62
     9
 10
0.0
 20
0.0
 30
0.0
 70
   128
 71
    79
 72
   101
 73
   105
  0
VERTEX
  5
D23
  8
0
 62
     9
 10
0.0
 20
0.0
 30
0.0
 70
   128
 71
    56
 72
    78
 73
    79
  0
VERTEX
  5
D24
  8
0
 62
     9
 10
0.0
 20
0.0
 30
0.0
 70
   128
 71
    79
 72
    78
 73
    83
  0
VERTEX
  5
D25
  8
0
 62
     9
 10
0.0
 20
0.0
 30
0.0
 70
   128
 71
    56
 72
    67
 73
    71
  0
VERTEX
  5
D26
  8
0
 62
     9
 10
0.0
 20
0.0
 30
0.0
 70
   128
 71
    56
 72
   110
 73
    60
  0
VERTEX
  5
D27
  8
0
 62
     9
 10
0.0
 20
0.0
 30
0.0
 70
   128
 71
    56
 72
     1
 73
   110
  0
VERTEX
  5
D28
  8
0
 62
     9
 10
0.0
 20
0.0
 30
0.0
 70
   128
 71
     1
 72
    56
 73
    55
  0
SEQEND
  5
D29
  8
0
 62
     9
  0
ENDBLK
  5
D2C
  8
0
  0
ENDSEC
  0
SECTION
  2
ENTITIES
  0
INSERT
  5
70
  8
LAYER_1
  2
E3_NODE
 10
0.0
 20
0.0
 30
0.0
  0
INSERT
  5
111
  8
LAYER_1
  2
E3_NODE_1_
 10
0.0
 20
0.0
 30
0.0
  0
INSERT
  5
1B1
  8
LAYER_1
  2
E3_NODE_2_
 10
0.0
 20
0.0
 30
0.0
  0
INSERT
  5
29F
  8
LAYER_1
  2
E3_NODE_3_
 10
0.0
 20
0.0
 30
0.0
  0
INSERT
  5
38D
  8
LAYER_1
  2
E3_NODE_4_
 10
0.0
 20
0.0
 30
0.0
  0
INSERT
  5
3A1
  8
LAYER_1
  2
E3_NODE_5_
 10
0.0
 20
0.0
 30
0.0
  0
INSERT
  5
3B7
  8
LAYER_1
  2
E3_NODE_6_
 10
0.0
 20
0.0
 30
0.0
  0
INSERT
  5
544
  8
LAYER_1
  2
E3_NODE_7_
 10
0.0
 20
0.0
 30
0.0
  0
INSERT
  5
582
  8
LAYER_1
  2
E3_NODE_8_
 10
0.0
 20
0.0
 30
0.0
  0
INSERT
  5
5C0
  8
LAYER_1
  2
E3_NODE_9_
 10
0.0
 20
0.0
 30
0.0
  0
INSERT
  5
5FE
  8
LAYER_1
  2
E3_NODE_10_
 10
0.0
 20
0.0
 30
0.0
  0
INSERT
  5
63C
  8
LAYER_1
  2
E3_NODE_11_
 10
0.0
 20
0.0
 30
0.0
  0
INSERT
  5
654
  8
LAYER_1
  2
E3_NODE_12_
 10
0.0
 20
0.0
 30
0.0
  0
INSERT
  5
660
  8
LAYER_1
  2
E3_NODE_13_
 10
0.0
 20
0.0
 30
0.0
  0
INSERT
  5
68C
  8
LAYER_1
  2
E3_NODE_14_
 10
0.0
 20
0.0
 30
0.0
  0
INSERT
  5
698
  8
LAYER_1
  2
E3_NODE_15_
 10
0.0
 20
0.0
 30
0.0
  0
INSERT
  5
6B2
  8
LAYER_1
  2
E3_NODE_16_
 10
0.0
 20
0.0
 30
0.0
  0
INSERT
  5
6DE
  8
LAYER_1
  2
E3_NODE_17_
 10
0.0
 20
0.0
 30
0.0
  0
INSERT
  5
6EA
  8
LAYER_1
  2
E3_NODE_18_
 10
0.0
 20
0.0
 30
0.0
  0
INSERT
  5
702
  8
LAYER_1
  2
E3_NODE_19_
 10
0.0
 20
0.0
 30
0.0
  0
INSERT
  5
738
  8
LAYER_1
  2
E3_NODE_20_
 10
0.0
 20
0.0
 30
0.0
  0
INSERT
  5
764
  8
LAYER_1
  2
E3_NODE_21_
 10
0.0
 20
0.0
 30
0.0
  0
INSERT
  5
790
  8
LAYER_1
  2
E3_NODE_22_
 10
0.0
 20
0.0
 30
0.0
  0
INSERT
  5
79C
  8
LAYER_1
  2
E3_NODE_23_
 10
0.0
 20
0.0
 30
0.0
  0
INSERT
  5
7B6
  8
LAYER_1
  2
E3_NODE_24_
 10
0.0
 20
0.0
 30
0.0
  0
INSERT
  5
7C2
  8
LAYER_1
  2
E3_NODE_25_
 10
0.0
 20
0.0
 30
0.0
  0
INSERT
  5
826
  8
LAYER_1
  2
E3_NODE_26_
 10
0.0
 20
0.0
 30
0.0
  0
INSERT
  5
8EB
  8
LAYER_1
  2
E3_NODE_27_
 10
0.0
 20
0.0
 30
0.0
  0
INSERT
  5
8FB
  8
LAYER_1
  2
E3_NODE_28_
 10
0.0
 20
0.0
 30
0.0
  0
INSERT
  5
90B
  8
LAYER_1
  2
E3_NODE_29_
 10
0.0
 20
0.0
 30
0.0
  0
INSERT
  5
96F
  8
LAYER_1
  2
E3_NODE_30_
 10
0.0
 20
0.0
 30
0.0
  0
INSERT
  5
A34
  8
LAYER_1
  2
E3_NODE_31_
 10
0.0
 20
0.0
 30
0.0
  0
INSERT
  5
A98
  8
LAYER_1
  2
E3_NODE_32_
 10
0.0
 20
0.0
 30
0.0
  0
INSERT
  5
AA4
  8
LAYER_1
  2
E3_NODE_33_
 10
0.0
 20
0.0
 30
0.0
  0
INSERT
  5
AB0
  8
LAYER_1
  2
E3_NODE_34_
 10
0.0
 20
0.0
 30
0.0
  0
INSERT
  5
B14
  8
LAYER_1
  2
E3_NODE_35_
 10
0.0
 20
0.0
 30
0.0
  0
INSERT
  5
B9E
  8
LAYER_1
  2
E3_NODE_36_
 10
0.0
 20
0.0
 30
0.0
  0
INSERT
  5
BAE
  8
LAYER_1
  2
E3_NODE_37_
 10
0.0
 20
0.0
 30
0.0
  0
INSERT
  5
C38
  8
LAYER_1
  2
E3_NODE_38_
 10
0.0
 20
0.0
 30
0.0
  0
INSERT
  5
C48
  8
LAYER_1
  2
E3_NODE_39_
 10
0.0
 20
0.0
 30
0.0
  0
INSERT
  5
D2A
  8
LAYER_1
  2
E3_NODE_40_
 10
0.0
 20
0.0
 30
0.0
  0
ENDSEC
  0
EOF
