  0
SECTION
  2
HEADER
  9
$ACADVER
  1
AC1015
  9
$ACADMAINTVER
 70
     6
  9
$DWGCODEPAGE
  3
ANSI_1252
  9
$INSBASE
 10
0.0
 20
0.0
 30
0.0
  9
$EXTMIN
 10
0.0
 20
0.0
 30
0.0
  9
$EXTMAX
 10
1682.0
 20
2378.0
 30
0.0
  9
$LIMMIN
 10
0.0
 20
0.0
  9
$LIMMAX
 10
1682.0
 20
2378.0
  9
$ORTHOMODE
 70
     0
  9
$REGENMODE
 70
     1
  9
$FILLMODE
 70
     1
  9
$QTEXTMODE
 70
     0
  9
$MIRRTEXT
 70
     1
  9
$LTSCALE
 40
1.0
  9
$ATTMODE
 70
     1
  9
$TEXTSIZE
 40
2.5
  9
$TRACEWID
 40
1.0
  9
$TEXTSTYLE
  7
Standard
  9
$CLAYER
  8
0
  9
$CELTYPE
  6
ByLayer
  9
$CECOLOR
 62
   256
  9
$CELTSCALE
 40
1.0
  9
$DISPSILH
 70
     0
  9
$DIMSCALE
 40
1.0
  9
$DIMASZ
 40
2.5
  9
$DIMEXO
 40
0.625
  9
$DIMDLI
 40
3.75
  9
$DIMRND
 40
0.0
  9
$DIMDLE
 40
0.0
  9
$DIMEXE
 40
1.25
  9
$DIMTP
 40
0.0
  9
$DIMTM
 40
0.0
  9
$DIMTXT
 40
2.5
  9
$DIMCEN
 40
2.5
  9
$DIMTSZ
 40
0.0
  9
$DIMTOL
 70
     0
  9
$DIMLIM
 70
     0
  9
$DIMTIH
 70
     0
  9
$DIMTOH
 70
     0
  9
$DIMSE1
 70
     0
  9
$DIMSE2
 70
     0
  9
$DIMTAD
 70
     1
  9
$DIMZIN
 70
     8
  9
$DIMBLK
  1

  9
$DIMASO
 70
     1
  9
$DIMSHO
 70
     1
  9
$DIMPOST
  1

  9
$DIMAPOST
  1

  9
$DIMALT
 70
     0
  9
$DIMALTD
 70
     3
  9
$DIMALTF
 40
0.0393700787
  9
$DIMLFAC
 40
1.0
  9
$DIMTOFL
 70
     1
  9
$DIMTVP
 40
0.0
  9
$DIMTIX
 70
     0
  9
$DIMSOXD
 70
     0
  9
$DIMSAH
 70
     0
  9
$DIMBLK1
  1

  9
$DIMBLK2
  1

  9
$DIMSTYLE
  2
ISO-25
  9
$DIMCLRD
 70
     0
  9
$DIMCLRE
 70
     0
  9
$DIMCLRT
 70
     0
  9
$DIMTFAC
 40
1.0
  9
$DIMGAP
 40
0.625
  9
$DIMJUST
 70
     0
  9
$DIMSD1
 70
     0
  9
$DIMSD2
 70
     0
  9
$DIMTOLJ
 70
     0
  9
$DIMTZIN
 70
     8
  9
$DIMALTZ
 70
     0
  9
$DIMALTTZ
 70
     0
  9
$DIMUPT
 70
     0
  9
$DIMDEC
 70
     2
  9
$DIMTDEC
 70
     2
  9
$DIMALTU
 70
     2
  9
$DIMALTTD
 70
     3
  9
$DIMTXSTY
  7
Standard
  9
$DIMAUNIT
 70
     0
  9
$DIMADEC
 70
     0
  9
$DIMALTRND
 40
0.0
  9
$DIMAZIN
 70
     0
  9
$DIMDSEP
 70
    44
  9
$DIMATFIT
 70
     3
  9
$DIMFRAC
 70
     0
  9
$DIMLDRBLK
  1

  9
$DIMLUNIT
 70
     2
  9
$DIMLWD
 70
    -2
  9
$DIMLWE
 70
    -2
  9
$DIMTMOVE
 70
     0
  9
$LUNITS
 70
     2
  9
$LUPREC
 70
     4
  9
$SKETCHINC
 40
1.0
  9
$FILLETRAD
 40
10.0
  9
$AUNITS
 70
     0
  9
$AUPREC
 70
     0
  9
$MENU
  1
.
  9
$ELEVATION
 40
0.0
  9
$PELEVATION
 40
0.0
  9
$THICKNESS
 40
0.0
  9
$LIMCHECK
 70
     0
  9
$CHAMFERA
 40
10.0
  9
$CHAMFERB
 40
10.0
  9
$CHAMFERC
 40
20.0
  9
$CHAMFERD
 40
0.0
  9
$SKPOLY
 70
     0
  9
$TDCREATE
 40
2455307.414182593
  9
$TDUCREATE
 40
2455307.330849259
  9
$TDUPDATE
 40
2455307.414182604
  9
$TDUUPDATE
 40
2455307.330849271
  9
$TDINDWG
 40
0.0000000116
  9
$TDUSRTIMER
 40
0.0000000116
  9
$USRTIMER
 70
     1
  9
$ANGBASE
 50
0.0
  9
$ANGDIR
 70
     0
  9
$PDMODE
 70
     0
  9
$PDSIZE
 40
0.0
  9
$PLINEWID
 40
0.0
  9
$SPLFRAME
 70
     0
  9
$SPLINETYPE
 70
     6
  9
$SPLINESEGS
 70
     8
  9
$HANDSEED
  5
191
  9
$SURFTAB1
 70
     6
  9
$SURFTAB2
 70
     6
  9
$SURFTYPE
 70
     6
  9
$SURFU
 70
     6
  9
$SURFV
 70
     6
  9
$UCSBASE
  2

  9
$UCSNAME
  2

  9
$UCSORG
 10
0.0
 20
0.0
 30
0.0
  9
$UCSXDIR
 10
1.0
 20
0.0
 30
0.0
  9
$UCSYDIR
 10
0.0
 20
1.0
 30
0.0
  9
$UCSORTHOREF
  2

  9
$UCSORTHOVIEW
 70
     0
  9
$UCSORGTOP
 10
0.0
 20
0.0
 30
0.0
  9
$UCSORGBOTTOM
 10
0.0
 20
0.0
 30
0.0
  9
$UCSORGLEFT
 10
0.0
 20
0.0
 30
0.0
  9
$UCSORGRIGHT
 10
0.0
 20
0.0
 30
0.0
  9
$UCSORGFRONT
 10
0.0
 20
0.0
 30
0.0
  9
$UCSORGBACK
 10
0.0
 20
0.0
 30
0.0
  9
$PUCSBASE
  2

  9
$PUCSNAME
  2

  9
$PUCSORG
 10
0.0
 20
0.0
 30
0.0
  9
$PUCSXDIR
 10
1.0
 20
0.0
 30
0.0
  9
$PUCSYDIR
 10
0.0
 20
1.0
 30
0.0
  9
$PUCSORTHOREF
  2

  9
$PUCSORTHOVIEW
 70
     0
  9
$PUCSORGTOP
 10
0.0
 20
0.0
 30
0.0
  9
$PUCSORGBOTTOM
 10
0.0
 20
0.0
 30
0.0
  9
$PUCSORGLEFT
 10
0.0
 20
0.0
 30
0.0
  9
$PUCSORGRIGHT
 10
0.0
 20
0.0
 30
0.0
  9
$PUCSORGFRONT
 10
0.0
 20
0.0
 30
0.0
  9
$PUCSORGBACK
 10
0.0
 20
0.0
 30
0.0
  9
$USERI1
 70
     0
  9
$USERI2
 70
     0
  9
$USERI3
 70
     0
  9
$USERI4
 70
     0
  9
$USERI5
 70
     0
  9
$USERR1
 40
0.0
  9
$USERR2
 40
0.0
  9
$USERR3
 40
0.0
  9
$USERR4
 40
0.0
  9
$USERR5
 40
0.0
  9
$WORLDVIEW
 70
     1
  9
$SHADEDGE
 70
     3
  9
$SHADEDIF
 70
    70
  9
$TILEMODE
 70
     1
  9
$MAXACTVP
 70
    64
  9
$PINSBASE
 10
0.0
 20
0.0
 30
0.0
  9
$PLIMCHECK
 70
     0
  9
$PEXTMIN
 10
0.0
 20
0.0
 30
0.0
  9
$PEXTMAX
 10
1682.0
 20
2378.0
 30
0.0
  9
$PLIMMIN
 10
0.0
 20
0.0
  9
$PLIMMAX
 10
1682.0
 20
2378.0
  9
$UNITMODE
 70
     0
  9
$VISRETAIN
 70
     1
  9
$PLINEGEN
 70
     0
  9
$PSLTSCALE
 70
     1
  9
$TREEDEPTH
 70
  3020
  9
$CMLSTYLE
  2
Standard
  9
$CMLJUST
 70
     0
  9
$CMLSCALE
 40
20.0
  9
$PROXYGRAPHICS
 70
     1
  9
$MEASUREMENT
 70
     1
  9
$CELWEIGHT
370
    -1
  9
$ENDCAPS
280
     0
  9
$JOINSTYLE
280
     0
  9
$LWDISPLAY
290
     0
  9
$INSUNITS
 70
     4
  9
$HYPERLINKBASE
  1

  9
$STYLESHEET
  1

  9
$XEDIT
290
     1
  9
$CEPSNTYPE
380
     0
  9
$PSTYLEMODE
290
     1
  9
$FINGERPRINTGUID
  2
{B54019C8-BDD0-42BC-B382-7B7290EACF1A}
  9
$VERSIONGUID
  2
{FAEB1C32-E019-11D5-929B-00C0DF256EC4}
  9
$EXTNAMES
290
     1
  9
$PSVPSCALE
 40
0.0
  9
$OLESTARTUP
290
     0
  0
ENDSEC
  0
SECTION
  2
CLASSES
  0
CLASS
  1
ACDBDICTIONARYWDFLT
  2
AcDbDictionaryWithDefault
  3
ObjectDBX Classes
 90
        0
280
     0
281
     0
  0
CLASS
  1
VISUALSTYLE
  2
AcDbVisualStyle
  3
ObjectDBX Classes
 90
     4095
280
     0
281
     0
  0
CLASS
  1
SCALE
  2
AcDbScale
  3
ObjectDBX Classes
 90
     1153
280
     0
281
     0
  0
CLASS
  1
DICTIONARYVAR
  2
AcDbDictionaryVar
  3
ObjectDBX Classes
 90
        0
280
     0
281
     0
  0
CLASS
  1
ACDBPLACEHOLDER
  2
AcDbPlaceHolder
  3
ObjectDBX Classes
 90
        0
280
     0
281
     0
  0
CLASS
  1
LAYOUT
  2
AcDbLayout
  3
ObjectDBX Classes
 90
        0
280
     0
281
     0
  0
ENDSEC
  0
SECTION
  2
TABLES
  0
TABLE
  2
VPORT
  5
8
330
0
100
AcDbSymbolTable
 70
     1
  0
VPORT
  5
29
330
8
100
AcDbSymbolTableRecord
100
AcDbViewportTableRecord
  2
*Active
 70
     0
 10
0.0
 20
0.0
 11
1.0
 21
1.0
 12
344.1869158879
 22
148.5
 13
0.0
 23
0.0
 14
10.0
 24
10.0
 15
10.0
 25
10.0
 16
0.0
 26
0.0
 36
1.0
 17
0.0
 27
0.0
 37
0.0
 40
297.0
 41
1.9729729729
 42
50.0
 43
0.0
 44
0.0
 50
0.0
 51
0.0
 71
     0
 72
   100
 73
     1
 74
     3
 75
     0
 76
     0
 77
     0
 78
     0
281
     0
 65
     1
110
0.0
120
0.0
130
0.0
111
1.0
121
0.0
131
0.0
112
0.0
122
1.0
132
0.0
 79
     0
146
0.0
  0
ENDTAB
  0
TABLE
  2
LTYPE
  5
5
330
0
100
AcDbSymbolTable
 70
     2
  0
LTYPE
  5
14
330
5
100
AcDbSymbolTableRecord
100
AcDbLinetypeTableRecord
  2
ByBlock
 70
     0
  3

 72
    65
 73
     0
 40
0.0
  0
LTYPE
  5
15
330
5
100
AcDbSymbolTableRecord
100
AcDbLinetypeTableRecord
  2
ByLayer
 70
     0
  3

 72
    65
 73
     0
 40
0.0
  0
LTYPE
  5
16
330
5
100
AcDbSymbolTableRecord
100
AcDbLinetypeTableRecord
  2
Continuous
 70
     0
  3
Solid line
 72
    65
 73
     0
 40
0.0
  0
LTYPE
  5
60
330
5
100
AcDbSymbolTableRecord
100
AcDbLinetypeTableRecord
  2
CENTER2
 70
     0
  3
Center (.5x) ___ _ ___ _ ___ _ ___ _ ___ _ ___
 72
    65
 73
     4
 40
28.575
 49
19.05
 74
     4
 75
     0
340
0
 46
0.0
 50
0.0
 44
0.0
 45
0.0
 49
-3.175
 74
     4
 75
     0
340
0
 46
0.0
 50
0.0
 44
0.0
 45
0.0
 49
3.175
 74
     4
 75
     0
340
0
 46
0.0
 50
0.0
 44
0.0
 45
0.0
 49
-3.175
 74
     4
 75
     0
340
0
 46
0.0
 50
0.0
 44
0.0
 45
0.0
  0
ENDTAB
  0
TABLE
  2
LAYER
  5
2
330
0
100
AcDbSymbolTable
 70
    13
  0
LAYER
  5
10
330
2
100
AcDbSymbolTableRecord
100
AcDbLayerTableRecord
  2
0
 70
     0
 62
     7
  6
Continuous
370
    -3
390
F
  0
LAYER
  5
5D
330
2
100
AcDbSymbolTableRecord
100
AcDbLayerTableRecord
  2
Default
 70
     0
 62
     7
  6
Continuous
370
    -3
390
F
  0
LAYER
  5
70
330
2
100
AcDbSymbolTableRecord
100
AcDbLayerTableRecord
  2
$DDT_AUDIT_GENERATED_(70)
 70
     0
 62
     7
  6
Continuous
370
    -3
390
F
  0
LAYER
  5
73
330
2
100
AcDbSymbolTableRecord
100
AcDbLayerTableRecord
  2
$DDT_AUDIT_GENERATED_(73)
 70
     0
 62
     7
  6
Continuous
370
    -3
390
F
  0
LAYER
  5
7D
330
2
100
AcDbSymbolTableRecord
100
AcDbLayerTableRecord
  2
$DDT_AUDIT_GENERATED_(7D)
 70
     0
 62
     7
  6
Continuous
370
    -3
390
F
  0
LAYER
  5
9D
330
2
100
AcDbSymbolTableRecord
100
AcDbLayerTableRecord
  2
$DDT_AUDIT_GENERATED_(9D)
 70
     0
 62
     7
  6
Continuous
370
    -3
390
F
  0
LAYER
  5
A2
330
2
100
AcDbSymbolTableRecord
100
AcDbLayerTableRecord
  2
$DDT_AUDIT_GENERATED_(A2)
 70
     0
 62
     7
  6
Continuous
370
    -3
390
F
  0
LAYER
  5
A9
330
2
100
AcDbSymbolTableRecord
100
AcDbLayerTableRecord
  2
$DDT_AUDIT_GENERATED_(A9)
 70
     0
 62
     7
  6
Continuous
370
    -3
390
F
  0
LAYER
  5
BA
330
2
100
AcDbSymbolTableRecord
100
AcDbLayerTableRecord
  2
$DDT_AUDIT_GENERATED_(BA)
 70
     0
 62
     7
  6
Continuous
370
    -3
390
F
  0
LAYER
  5
C8
330
2
100
AcDbSymbolTableRecord
100
AcDbLayerTableRecord
  2
$DDT_AUDIT_GENERATED_(C8)
 70
     0
 62
     7
  6
Continuous
370
    -3
390
F
  0
LAYER
  5
D1
330
2
100
AcDbSymbolTableRecord
100
AcDbLayerTableRecord
  2
$DDT_AUDIT_GENERATED_(D1)
 70
     0
 62
     7
  6
Continuous
370
    -3
390
F
  0
LAYER
  5
DA
330
2
100
AcDbSymbolTableRecord
100
AcDbLayerTableRecord
  2
$DDT_AUDIT_GENERATED_(DA)
 70
     0
 62
     7
  6
Continuous
370
    -3
390
F
  0
LAYER
  5
129
330
2
100
AcDbSymbolTableRecord
100
AcDbLayerTableRecord
  2
$DDT_AUDIT_GENERATED_(129)
 70
     0
 62
     7
  6
Continuous
370
    -3
390
F
  0
ENDTAB
  0
TABLE
  2
STYLE
  5
3
330
0
100
AcDbSymbolTable
 70
     2
  0
STYLE
  5
11
330
3
100
AcDbSymbolTableRecord
100
AcDbTextStyleTableRecord
  2
Standard
 70
     0
 40
0.0
 41
1.0
 50
0.0
 71
     0
 42
2.5
  3
txt
  4

  0
STYLE
  5
180
330
3
100
AcDbSymbolTableRecord
100
AcDbTextStyleTableRecord
  2
SEACAD_seiso_ttf
 70
     0
 40
0.0
 41
1.0
 50
0.0
 71
     0
 42
0.2
  3
seiso.ttf
  4

  0
ENDTAB
  0
TABLE
  2
VIEW
  5
6
330
0
100
AcDbSymbolTable
 70
     0
  0
ENDTAB
  0
TABLE
  2
UCS
  5
7
330
0
100
AcDbSymbolTable
 70
     0
  0
ENDTAB
  0
TABLE
  2
APPID
  5
9
330
0
100
AcDbSymbolTable
 70
     1
  0
APPID
  5
12
330
9
100
AcDbSymbolTableRecord
100
AcDbRegAppTableRecord
  2
ACAD
 70
     0
  0
ENDTAB
  0
TABLE
  2
DIMSTYLE
  5
A
330
0
100
AcDbSymbolTable
 70
     1
100
AcDbDimStyleTable
  0
DIMSTYLE
105
27
330
A
100
AcDbSymbolTableRecord
100
AcDbDimStyleTableRecord
  2
ISO-25
 70
     0
 41
2.5
 42
0.625
 43
3.75
 44
1.25
 73
     0
 74
     0
 77
     1
 78
     8
140
2.5
141
2.5
143
0.0393700787
147
0.625
171
     3
172
     1
271
     2
272
     2
274
     3
278
    44
283
     0
284
     8
340
11
  0
ENDTAB
  0
TABLE
  2
BLOCK_RECORD
  5
1
330
0
100
AcDbSymbolTable
 70
     7
  0
BLOCK_RECORD
  5
1F
330
1
100
AcDbSymbolTableRecord
100
AcDbBlockTableRecord
  2
*Model_Space
340
22
  0
BLOCK_RECORD
  5
1B
330
1
100
AcDbSymbolTableRecord
100
AcDbBlockTableRecord
  2
*Paper_Space
340
1E
  0
BLOCK_RECORD
  5
5E
330
1
100
AcDbSymbolTableRecord
100
AcDbBlockTableRecord
  2
SEANNOT_GROUP
340
0
102
{BLKREFS
331
5F
102
}
  0
BLOCK_RECORD
  5
64
330
1
100
AcDbSymbolTableRecord
100
AcDbBlockTableRecord
  2
SEANNOT_GROUP1
340
0
102
{BLKREFS
331
65
102
}
  0
BLOCK_RECORD
  5
69
330
1
100
AcDbSymbolTableRecord
100
AcDbBlockTableRecord
  2
SEANNOT_GROUP2
340
0
102
{BLKREFS
331
6A
102
}
  0
BLOCK_RECORD
  5
6E
330
1
100
AcDbSymbolTableRecord
100
AcDbBlockTableRecord
  2
SE
340
0
102
{BLKREFS
331
6F
102
}
  0
BLOCK_RECORD
  5
108
330
1
100
AcDbSymbolTableRecord
100
AcDbBlockTableRecord
  2
SE1
340
0
102
{BLKREFS
331
109
102
}
  0
BLOCK_RECORD
  5
15F
330
1
100
AcDbSymbolTableRecord
100
AcDbBlockTableRecord
  2
SE2
340
0
102
{BLKREFS
331
160
102
}
  0
ENDTAB
  0
ENDSEC
  0
SECTION
  2
BLOCKS
  0
BLOCK
  5
20
330
1F
100
AcDbEntity
  8
0
100
AcDbBlockBegin
  2
*Model_Space
 70
     0
 10
0.0
 20
0.0
 30
0.0
  3
*Model_Space
  1

  0
ENDBLK
  5
21
330
1F
100
AcDbEntity
  8
0
100
AcDbBlockEnd
  0
BLOCK
  5
1C
330
1B
100
AcDbEntity
 67
     1
  8
0
100
AcDbBlockBegin
  2
*Paper_Space
 70
     0
 10
0.0
 20
0.0
 30
0.0
  3
*Paper_Space
  1

  0
ENDBLK
  5
1D
330
1B
100
AcDbEntity
 67
     1
  8
0
100
AcDbBlockEnd
  0
BLOCK
  5
62
330
5E
100
AcDbEntity
  8
0
100
AcDbBlockBegin
  2
SEANNOT_GROUP
 70
     0
 10
0.0
 20
0.0
 30
0.0
  3
SEANNOT_GROUP
  1

  0
LINE
  5
61
330
5E
100
AcDbEntity
  8
Default
  6
CENTER2
 62
     7
100
AcDbLine
 10
41.7138229048
 20
609.8607720149
 30
0.0
 11
41.7138229048
 21
578.0517901521
 31
0.0
  0
ENDBLK
  5
63
330
5E
100
AcDbEntity
  8
0
100
AcDbBlockEnd
  0
BLOCK
  5
67
330
64
100
AcDbEntity
  8
0
100
AcDbBlockBegin
  2
SEANNOT_GROUP1
 70
     0
 10
0.0
 20
0.0
 30
0.0
  3
SEANNOT_GROUP1
  1

  0
LINE
  5
66
330
64
100
AcDbEntity
  8
Default
  6
CENTER2
 62
     7
100
AcDbLine
 10
179.4091080052
 20
605.4607720149
 30
0.0
 11
179.4091080052
 21
589.9672097747
 31
0.0
  0
ENDBLK
  5
68
330
64
100
AcDbEntity
  8
0
100
AcDbBlockEnd
  0
BLOCK
  5
6C
330
69
100
AcDbEntity
  8
0
100
AcDbBlockBegin
  2
SEANNOT_GROUP2
 70
     0
 10
0.0
 20
0.0
 30
0.0
  3
SEANNOT_GROUP2
  1

  0
LINE
  5
6B
330
69
100
AcDbEntity
  8
Default
  6
CENTER2
 62
     7
100
AcDbLine
 10
41.7138229048
 20
361.916338545
 30
0.0
 11
41.7138229048
 21
386.3857366548
 31
0.0
  0
ENDBLK
  5
6D
330
69
100
AcDbEntity
  8
0
100
AcDbBlockEnd
  0
BLOCK
  5
106
330
6E
100
AcDbEntity
  8
0
100
AcDbBlockBegin
  2
SE
 70
     0
 10
0.0
 20
0.0
 30
0.0
  3
SE
  1

  0
LINE
  5
71
330
6E
100
AcDbEntity
  8
$DDT_AUDIT_GENERATED_(70)
  6
Continuous
 62
     7
100
AcDbLine
 10
42.2155901619
 20
604.8607720149
 30
0.0
 11
41.2115909029
 21
604.8607720149
 31
0.0
  0
LINE
  5
72
330
6E
100
AcDbEntity
  8
$DDT_AUDIT_GENERATED_(70)
  6
Continuous
 62
     7
100
AcDbLine
 10
42.21632342
 20
605.3607720149
 30
0.0
 11
41.2106840904
 21
605.3607720149
 31
0.0
  0
LINE
  5
74
330
6E
100
AcDbEntity
  8
$DDT_AUDIT_GENERATED_(73)
  6
Continuous
 62
     7
100
AcDbLine
 10
42.2165070118
 20
606.3607720149
 30
0.0
 11
41.2102684284
 21
606.3607720149
 31
0.0
  0
LINE
  5
75
330
6E
100
AcDbEntity
  8
$DDT_AUDIT_GENERATED_(73)
  6
Continuous
 62
     7
100
AcDbLine
 10
13.8138229048
 20
644.8607720149
 30
0.0
 11
29.0138229048
 21
644.8607720149
 31
0.0
  0
LINE
  5
76
330
6E
100
AcDbEntity
  8
$DDT_AUDIT_GENERATED_(73)
  6
Continuous
 62
     7
100
AcDbLine
 10
54.4138229048
 20
644.8607720149
 30
0.0
 11
69.6138229048
 21
644.8607720149
 31
0.0
  0
LINE
  5
77
330
6E
100
AcDbEntity
  8
$DDT_AUDIT_GENERATED_(73)
  6
Continuous
 62
     7
100
AcDbLine
 10
70.1138229048
 20
606.8607720149
 30
0.0
 11
70.1138229048
 21
644.3607720149
 31
0.0
  0
LINE
  5
78
330
6E
100
AcDbEntity
  8
$DDT_AUDIT_GENERATED_(73)
  6
Continuous
 62
     7
100
AcDbLine
 10
13.3138229048
 20
644.3607720149
 30
0.0
 11
13.3138229048
 21
606.8607720149
 31
0.0
  0
ARC
  5
79
330
6E
100
AcDbEntity
  8
$DDT_AUDIT_GENERATED_(73)
  6
Continuous
 62
     7
100
AcDbCircle
 10
69.6138229048
 20
606.8607720149
 30
0.0
 40
0.5000000000000004
100
AcDbArc
 50
270.0
 51
0.0
  0
ARC
  5
7A
330
6E
100
AcDbEntity
  8
$DDT_AUDIT_GENERATED_(73)
  6
Continuous
 62
     7
100
AcDbCircle
 10
13.8138229048
 20
606.8607720149
 30
0.0
 40
0.5000000000000004
100
AcDbArc
 50
180.0
 51
270.0
  0
ARC
  5
7B
330
6E
100
AcDbEntity
  8
$DDT_AUDIT_GENERATED_(73)
  6
Continuous
 62
     7
100
AcDbCircle
 10
13.8138229048
 20
644.3607720149
 30
0.0
 40
0.5000000000000004
100
AcDbArc
 50
90.0
 51
180.0
  0
ARC
  5
7C
330
6E
100
AcDbEntity
  8
$DDT_AUDIT_GENERATED_(73)
  6
Continuous
 62
     7
100
AcDbCircle
 10
69.6138229048
 20
644.3607720149
 30
0.0
 40
0.5000000000000004
100
AcDbArc
 50
0.0
 51
90.0
  0
LINE
  5
7E
330
6E
100
AcDbEntity
  8
$DDT_AUDIT_GENERATED_(7D)
  6
Continuous
 62
     7
100
AcDbLine
 10
29.0138229048
 20
712.8075502864
 30
0.0
 11
29.0138229048
 21
720.6311706154
 31
0.0
  0
ELLIPSE
  5
7F
330
6E
100
AcDbEntity
  8
$DDT_AUDIT_GENERATED_(7D)
  6
Continuous
 62
     7
100
AcDbEllipse
 10
41.713822792
 20
711.7889759722
 30
0.0
 11
-12.69999988715939
 21
3.222422328974517E-10
 31
0.0
210
0.0
220
0.0
230
1.0
 40
0.172831146
 41
0.0
 42
0.0349180125341795
  0
LINE
  5
80
330
6E
100
AcDbEntity
  8
$DDT_AUDIT_GENERATED_(7D)
  6
Continuous
 62
     7
100
AcDbLine
 10
29.0138229048
 20
711.8077775881
 30
0.0
 11
29.0138229048
 21
712.8120122001
 31
0.0
  0
SPLINE
  5
81
330
6E
100
AcDbEntity
  8
$DDT_AUDIT_GENERATED_(7D)
  6
Continuous
 62
     7
100
AcDbSpline
210
0.0
220
0.0
230
1.0
 70
     8
 71
     3
 72
    16
 73
    12
 74
     0
 42
0.0000000007533746
 43
0.0000000001
 40
0.0
 40
0.0
 40
0.0
 40
0.0
 40
0.2500000000000022
 40
0.2500000000000022
 40
0.5000000000000046
 40
0.5000000000000046
 40
0.6250000000000043
 40
0.6250000000000043
 40
0.7500000000000041
 40
0.7500000000000041
 40
1.0
 40
1.0
 40
1.0
 40
1.0
 10
41.71382290480715
 20
713.9858964011041
 30
0.0
 10
40.05796764200272
 20
713.9858970936597
 30
0.0
 10
38.38441658814466
 20
713.928568109843
 30
0.0
 10
35.32390426542543
 20
713.7097267218285
 30
0.0
 10
33.90815845607769
 20
713.546483454096
 30
0.0
 10
32.14638947142109
 20
713.2418204671014
 30
0.0
 10
31.61032539891052
 20
713.1287043133123
 30
0.0
 10
30.6907408718464
 20
712.8902916508115
 30
0.0
 10
30.30022812220549
 20
712.7640022187019
 30
0.0
 10
29.34155837203354
 20
712.3633703596433
 30
0.0
 10
29.01382290480754
 20
712.079061140528
 30
0.0
 10
29.01382290480754
 20
711.7983767770622
 30
0.0
  0
ELLIPSE
  5
82
330
6E
100
AcDbEntity
  8
$DDT_AUDIT_GENERATED_(7D)
  6
Continuous
 62
     7
100
AcDbEllipse
 10
41.7138229048
 20
711.7889759726
 30
0.0
 11
11.97499999999997
 21
8.326672684688674E-14
 31
0.0
210
0.0
220
0.0
230
1.0
 40
0.1728311453
 41
6.153861070543861
 42
6.283185307179586
  0
ELLIPSE
  5
83
330
6E
100
AcDbEntity
  8
$DDT_AUDIT_GENERATED_(7D)
  6
Continuous
 62
     7
100
AcDbEllipse
 10
41.7138229048
 20
711.7889759726
 30
0.0
 11
11.97499999999997
 21
8.326672684688674E-14
 31
0.0
210
0.0
220
0.0
230
1.0
 40
0.1728311453
 41
3.141592653589808
 42
3.270916890225489
  0
SPLINE
  5
84
330
6E
100
AcDbEntity
  8
$DDT_AUDIT_GENERATED_(7D)
  6
Continuous
 62
     7
100
AcDbSpline
210
0.0
220
0.0
230
1.0
 70
     8
 71
     3
 72
    14
 73
    10
 74
     0
 42
0.0000000007980874
 43
0.0000000001
 40
0.0
 40
0.0
 40
0.0
 40
0.0
 40
0.25
 40
0.25
 40
0.5
 40
0.5
 40
0.75
 40
0.75
 40
1.0
 40
1.0
 40
1.0
 40
1.0
 10
41.71382290480715
 20
713.8627975493345
 30
0.0
 10
40.15042258290799
 20
713.8627986459869
 30
0.0
 10
38.57952296376018
 20
713.809385655152
 30
0.0
 10
35.67830979111989
 20
713.6020713897857
 30
0.0
 10
34.35727013086466
 20
713.4499102854229
 30
0.0
 10
32.12338641101776
 20
713.0627920874808
 30
0.0
 10
31.24659180481079
 20
712.8342401641821
 30
0.0
 10
30.04877843755277
 20
712.3317734473062
 30
0.0
 10
29.73882290480755
 20
712.0626424636342
 30
0.0
 10
29.7388229048071
 20
711.7889759725653
 30
0.0
  0
SPLINE
  5
85
330
6E
100
AcDbEntity
  8
$DDT_AUDIT_GENERATED_(7D)
  6
Continuous
 62
     7
100
AcDbSpline
210
0.0
220
0.0
230
1.0
 70
    12
 71
     3
 72
     8
 73
     4
 74
     0
 42
0.0000000027798337
 43
0.0000000001
 40
0.0
 40
0.0
 40
0.0
 40
0.0
 40
0.0624696507565539
 40
0.0624696507565539
 40
0.0624696507565539
 40
0.0624696507565539
 10
29.01382290480755
 20
720.6311603427625
 30
0.0
 41
1.0
 10
29.01382290480755
 20
720.7023245092712
 30
0.0
 41
1.0
 10
29.03582221933513
 20
720.7719986075842
 30
0.0
 41
1.0
 10
29.07915430776911
 20
720.8398356470758
 30
0.0
 41
1.0
  0
SPLINE
  5
86
330
6E
100
AcDbEntity
  8
$DDT_AUDIT_GENERATED_(7D)
  6
Continuous
 62
     7
100
AcDbSpline
210
0.0
220
0.0
230
1.0
 70
    12
 71
     3
 72
    10
 73
     6
 74
     0
 42
0.0000000010648232
 43
0.0000000001
 40
0.7081994538680543
 40
0.7081994538680543
 40
0.7081994538680543
 40
0.7081994538680543
 40
0.750124977640763
 40
0.750124977640763
 40
0.7799627985723101
 40
0.7799627985723101
 40
0.7799627985723101
 40
0.7799627985723101
 10
31.04532646561741
 20
722.5867011818935
 30
0.0
 41
1.0
 10
30.91106212124848
 20
722.5347352940363
 30
0.0
 41
1.0
 10
30.78469618176927
 20
722.4820782311758
 30
0.0
 41
1.0
 10
30.58311644727953
 20
722.3911852743537
 30
0.0
 41
1.0
 10
30.50371144565293
 20
722.3532334649602
 30
0.0
 41
1.0
 10
30.42885679079516
 20
722.3152390395833
 30
0.0
 41
1.0
  0
LINE
  5
87
330
6E
100
AcDbEntity
  8
$DDT_AUDIT_GENERATED_(7D)
  6
Continuous
 62
     7
100
AcDbLine
 10
29.0138229048
 20
691.9372584639
 30
0.0
 11
29.0138229048
 21
618.4040576153
 31
0.0
  0
LINE
  5
88
330
6E
100
AcDbEntity
  8
$DDT_AUDIT_GENERATED_(7D)
  6
Continuous
 62
     7
100
AcDbLine
 10
29.0138229048
 20
711.0643820305
 30
0.0
 11
29.0138229048
 21
691.9372584639
 31
0.0
  0
LINE
  5
89
330
6E
100
AcDbEntity
  8
$DDT_AUDIT_GENERATED_(7D)
  6
Continuous
 62
     7
100
AcDbLine
 10
29.0138229048
 20
711.7682331472
 30
0.0
 11
29.0138229048
 21
711.0643820305
 31
0.0
  0
ELLIPSE
  5
8A
330
6E
100
AcDbEntity
  8
$DDT_AUDIT_GENERATED_(7D)
  6
Continuous
 62
     7
100
AcDbEllipse
 10
41.7138229048
 20
711.7889759726
 30
0.0
 11
-12.69999999999999
 21
6.938893903907228E-14
 31
0.0
210
0.0
220
0.0
230
1.0
 40
0.1728311453
 41
0.0349180123746913
 42
0.4382119654371222
  0
ARC
  5
8B
330
6E
100
AcDbEntity
  8
$DDT_AUDIT_GENERATED_(7D)
  6
Continuous
 62
     7
100
AcDbCircle
 10
41.7138229048
 20
470.9823279388
 30
0.0
 40
147.3850350631164
100
AcDbArc
 50
85.2544837284
 51
94.7455162716
  0
SPLINE
  5
8C
330
6E
100
AcDbEntity
  8
$DDT_AUDIT_GENERATED_(7D)
  6
Continuous
 62
     7
100
AcDbSpline
210
0.0
220
0.0
230
1.0
 70
     8
 71
     3
 72
    14
 73
    10
 74
     0
 42
0.0000000117504143
 43
0.0000000001
 40
0.0
 40
0.0
 40
0.0
 40
0.0
 40
0.25
 40
0.25
 40
0.5
 40
0.5
 40
0.75
 40
0.75
 40
1.0
 40
1.0
 40
1.0
 40
1.0
 10
29.01382290480709
 20
618.4040576152707
 30
0.0
 10
29.01382290480708
 20
618.3294135806135
 30
0.0
 10
29.02410081274311
 20
618.2557131020923
 30
0.0
 10
29.0699987717396
 20
618.1161888357886
 30
0.0
 10
29.1054209494138
 20
618.0522614197262
 30
0.0
 10
29.199911449302
 20
617.9480388489567
 30
0.0
 10
29.25859842584914
 20
617.9088461471817
 30
0.0
 10
29.38520529653955
 20
617.8629825540052
 30
0.0
 10
29.45329131157316
 20
617.8557627483192
 30
0.0
 10
29.52062649915873
 20
617.8621241055375
 30
0.0
  0
SPLINE
  5
8D
330
6E
100
AcDbEntity
  8
$DDT_AUDIT_GENERATED_(7D)
  6
Continuous
 62
     7
100
AcDbSpline
210
0.0
220
0.0
230
1.0
 70
     8
 71
     3
 72
    14
 73
    10
 74
     0
 42
0.0000000007980874
 43
0.0000000001
 40
0.0
 40
0.0
 40
0.0
 40
0.0
 40
0.25
 40
0.25
 40
0.5
 40
0.5
 40
0.75
 40
0.75
 40
1.0
 40
1.0
 40
1.0
 40
1.0
 10
41.71382290480715
 20
713.8627975493345
 30
0.0
 10
43.27722322670596
 20
713.8627986459869
 30
0.0
 10
44.84812284585334
 20
713.8093856551519
 30
0.0
 10
47.74933601849295
 20
713.6020713897859
 30
0.0
 10
49.07037567874873
 20
713.449910285423
 30
0.0
 10
51.30425939859606
 20
713.0627920874811
 30
0.0
 10
52.18105400480314
 20
712.8342401641822
 30
0.0
 10
53.37886737206141
 20
712.3317734473063
 30
0.0
 10
53.68882290480681
 20
712.0626424636342
 30
0.0
 10
53.6888229048071
 20
711.7889759725653
 30
0.0
  0
SPLINE
  5
8E
330
6E
100
AcDbEntity
  8
$DDT_AUDIT_GENERATED_(7D)
  6
Continuous
 62
     7
100
AcDbSpline
210
0.0
220
0.0
230
1.0
 70
     8
 71
     3
 72
    14
 73
    10
 74
     0
 42
0.0000000117504143
 43
0.0000000001
 40
0.0
 40
0.0
 40
0.0
 40
0.0
 40
0.25
 40
0.25
 40
0.5
 40
0.5
 40
0.75
 40
0.75
 40
1.0
 40
1.0
 40
1.0
 40
1.0
 10
54.41382290480709
 20
618.4040576152706
 30
0.0
 10
54.4138229048071
 20
618.3294135806135
 30
0.0
 10
54.40354499687103
 20
618.2557131020923
 30
0.0
 10
54.35764703787453
 20
618.1161888357886
 30
0.0
 10
54.32222486020034
 20
618.0522614197262
 30
0.0
 10
54.22773436031216
 20
617.9480388489567
 30
0.0
 10
54.16904738376502
 20
617.9088461471817
 30
0.0
 10
54.04244051307461
 20
617.8629825540052
 30
0.0
 10
53.97435449804102
 20
617.8557627483192
 30
0.0
 10
53.90701931045545
 20
617.8621241055375
 30
0.0
  0
SPLINE
  5
8F
330
6E
100
AcDbEntity
  8
$DDT_AUDIT_GENERATED_(7D)
  6
Continuous
 62
     7
100
AcDbSpline
210
0.0
220
0.0
230
1.0
 70
     8
 71
     3
 72
     8
 73
     4
 74
     0
 42
0.0000000010391965
 43
0.0000000001
 40
0.6991993383136932
 40
0.6991993383136932
 40
0.6991993383136932
 40
0.6991993383136932
 40
0.7342437749843078
 40
0.7342437749843078
 40
0.7342437749843078
 40
0.7342437749843078
 10
52.38319991069078
 20
722.5866945606971
 30
0.0
 10
52.49256930014946
 20
722.5442451740216
 30
0.0
 10
52.59657606856589
 20
722.5013809786287
 30
0.0
 10
52.69494664211777
 20
722.4582403824027
 30
0.0
  0
SPLINE
  5
90
330
6E
100
AcDbEntity
  8
$DDT_AUDIT_GENERATED_(7D)
  6
Continuous
 62
     7
100
AcDbSpline
210
0.0
220
0.0
230
1.0
 70
     8
 71
     3
 72
     9
 73
     5
 74
     0
 42
0.0000000028238342
 43
0.0000000001
 40
0.0
 40
0.0
 40
0.0
 40
0.0
 40
0.0569519183174869
 40
0.0626440954460198
 40
0.0626440954460198
 40
0.0626440954460198
 40
0.0626440954460198
 10
54.41382290480673
 20
720.6311603427625
 30
0.0
 10
54.40357013501448
 20
720.6952438131202
 30
0.0
 10
54.39229263096498
 20
720.7657322383077
 30
0.0
 10
54.35394294927286
 20
720.8340492553293
 30
0.0
 10
54.35024095380187
 20
720.8402390630333
 30
0.0
  0
SPLINE
  5
91
330
6E
100
AcDbEntity
  8
$DDT_AUDIT_GENERATED_(7D)
  6
Continuous
 62
     7
100
AcDbSpline
210
0.0
220
0.0
230
1.0
 70
     8
 71
     3
 72
    16
 73
    12
 74
     0
 42
0.0000000007533746
 43
0.0000000001
 40
0.0
 40
0.0
 40
0.0
 40
0.0
 40
0.2499999999999998
 40
0.2499999999999998
 40
0.4999999999999996
 40
0.4999999999999996
 40
0.6249999999999997
 40
0.6249999999999997
 40
0.7499999999999998
 40
0.7499999999999998
 40
1.0
 40
1.0
 40
1.0
 40
1.0
 10
41.71382290480715
 20
713.9858964011041
 30
0.0
 10
43.36967816761125
 20
713.9858970936597
 30
0.0
 10
45.0432292214693
 20
713.928568109843
 30
0.0
 10
48.10374154418845
 20
713.7097267218285
 30
0.0
 10
49.51948735353623
 20
713.5464834540961
 30
0.0
 10
51.28125633819277
 20
713.2418204671014
 30
0.0
 10
51.81732041070337
 20
713.1287043133124
 30
0.0
 10
52.73690493776748
 20
712.8902916508117
 30
0.0
 10
53.12741768740842
 20
712.764002218702
 30
0.0
 10
54.08608743758047
 20
712.3633703596435
 30
0.0
 10
54.41382290480673
 20
712.0790611405279
 30
0.0
 10
54.41382290480672
 20
711.7983767770622
 30
0.0
  0
LINE
  5
92
330
6E
100
AcDbEntity
  8
$DDT_AUDIT_GENERATED_(7D)
  6
Continuous
 62
     7
100
AcDbLine
 10
54.4138229048
 20
711.8077775881
 30
0.0
 11
54.4138229048
 21
712.8120122001
 31
0.0
  0
LINE
  5
93
330
6E
100
AcDbEntity
  8
$DDT_AUDIT_GENERATED_(7D)
  6
Continuous
 62
     7
100
AcDbLine
 10
54.4138229048
 20
712.8075502864
 30
0.0
 11
54.4138229048
 21
720.6311706154
 31
0.0
  0
ELLIPSE
  5
94
330
6E
100
AcDbEntity
  8
$DDT_AUDIT_GENERATED_(7D)
  6
Continuous
 62
     7
100
AcDbEllipse
 10
41.7138230178
 20
711.7889759722
 30
0.0
 11
12.69999988701152
 21
3.227140776829174E-10
 31
0.0
210
0.0
220
0.0
230
1.0
 40
0.172831146
 41
6.248267294645174
 42
6.283185307179586
  0
LINE
  5
95
330
6E
100
AcDbEntity
  8
$DDT_AUDIT_GENERATED_(7D)
  6
Continuous
 62
     7
100
AcDbLine
 10
54.4138229048
 20
711.7682331472
 30
0.0
 11
54.4138229048
 21
711.0643820305
 31
0.0
  0
LINE
  5
96
330
6E
100
AcDbEntity
  8
$DDT_AUDIT_GENERATED_(7D)
  6
Continuous
 62
     7
100
AcDbLine
 10
54.4138229048
 20
711.0643820305
 30
0.0
 11
54.4138229048
 21
691.9372584639
 31
0.0
  0
LINE
  5
97
330
6E
100
AcDbEntity
  8
$DDT_AUDIT_GENERATED_(7D)
  6
Continuous
 62
     7
100
AcDbLine
 10
54.4138229048
 20
691.9372584639
 30
0.0
 11
54.4138229048
 21
618.4040576153
 31
0.0
  0
ELLIPSE
  5
98
330
6E
100
AcDbEntity
  8
$DDT_AUDIT_GENERATED_(7D)
  6
Continuous
 62
     7
100
AcDbEllipse
 10
41.7138229048
 20
711.7889759726
 30
0.0
 11
12.70000000000001
 21
8.326672684688674E-14
 31
0.0
210
0.0
220
0.0
230
1.0
 40
0.1728311453
 41
5.84497334174245
 42
6.248267294804926
  0
ARC
  5
99
330
6E
100
AcDbEntity
  8
$DDT_AUDIT_GENERATED_(7D)
  6
Continuous
 62
     7
100
AcDbCircle
 10
41.7057645214
 20
696.8767848656
 30
0.0
 40
27.83162843507001
100
AcDbArc
 50
89.9834105373
 51
112.4988778318
  0
SPLINE
  5
9A
330
6E
100
AcDbEntity
  8
$DDT_AUDIT_GENERATED_(7D)
  6
Continuous
 62
     7
100
AcDbSpline
210
0.0
220
0.0
230
1.0
 70
     8
 71
     3
 72
    14
 73
    10
 74
     0
 42
0.0000000040047608
 43
0.0000000001
 40
0.0
 40
0.0
 40
0.0
 40
0.0
 40
0.2346211275143954
 40
0.4426500089771671
 40
0.6233205398472325
 40
0.7406477596075112
 40
0.8423615520358915
 40
0.9286468297435481
 40
1.0
 40
1.0
 40
1.0
 40
1.0
 10
30.80072252367624
 20
722.487544010324
 30
0.0
 10
30.59430036274628
 20
722.3948886789798
 30
0.0
 10
30.2690639148429
 20
722.2448743291222
 30
0.0
 10
29.83876355529839
 20
721.9738420988256
 30
0.0
 10
29.54158120332827
 20
721.7216059803443
 30
0.0
 10
29.33806073106685
 20
721.4842007429086
 30
0.0
 10
29.20837011140167
 20
721.2745158126484
 30
0.0
 10
29.11820395115519
 20
721.0625035968308
 30
0.0
 10
29.09299730434256
 20
720.9184320598191
 30
0.0
 10
29.08000240086162
 20
720.8411588795898
 30
0.0
  0
ARC
  5
9B
330
6E
100
AcDbEntity
  8
$DDT_AUDIT_GENERATED_(7D)
  6
Continuous
 62
     7
100
AcDbCircle
 10
41.7273353299
 20
696.950424149
 30
0.0
 40
27.7579912740012
100
AcDbArc
 50
67.4536004463
 51
90.0278912602
  0
SPLINE
  5
9C
330
6E
100
AcDbEntity
  8
$DDT_AUDIT_GENERATED_(7D)
  6
Continuous
 62
     7
100
AcDbSpline
210
0.0
220
0.0
230
1.0
 70
     8
 71
     3
 72
    14
 73
    10
 74
     0
 42
0.0000000040047608
 43
0.0000000001
 40
0.0
 40
0.0
 40
0.0
 40
0.0
 40
0.0713531702564501
 40
0.1576384479640981
 40
0.2593522403924838
 40
0.3766794601527553
 40
0.5573499910228317
 40
0.7653788724856103
 40
1.0
 40
1.0
 40
1.0
 40
1.0
 10
54.34764340875265
 20
720.8411588795898
 30
0.0
 10
54.33464850527172
 20
720.9184320598191
 30
0.0
 10
54.30944185845909
 20
721.0625035968308
 30
0.0
 10
54.21927569821263
 20
721.2745158126486
 30
0.0
 10
54.08958507854744
 20
721.4842007429085
 30
0.0
 10
53.886064606286
 20
721.7216059803444
 30
0.0
 10
53.58888225431586
 20
721.9738420988253
 30
0.0
 10
53.15858189477135
 20
722.2448743291224
 30
0.0
 10
52.83334544686792
 20
722.3948886789798
 30
0.0
 10
52.62692328593793
 20
722.487544010324
 30
0.0
  0
ELLIPSE
  5
9E
330
6E
100
AcDbEntity
  8
$DDT_AUDIT_GENERATED_(9D)
  6
Continuous
 62
     7
100
AcDbEllipse
 10
41.7138229048
 20
711.493490532
 30
0.0
 11
-11.87499999999999
 21
1.387778780781446E-14
 31
0.0
210
0.0
220
0.0
230
1.0
 40
0.1728311453
 41
2.889614216640781
 42
6.283185307179586
  0
ELLIPSE
  5
9F
330
6E
100
AcDbEntity
  8
$DDT_AUDIT_GENERATED_(9D)
  6
Continuous
 62
     7
100
AcDbEllipse
 10
41.7138229048
 20
711.493490532
 30
0.0
 11
-11.87499999999999
 21
1.387778780781446E-14
 31
0.0
210
0.0
220
0.0
230
1.0
 40
0.1728311453
 41
0.0000000000000068
 42
0.2519784369489949
  0
LINE
  5
A0
330
6E
100
AcDbEntity
  8
$DDT_AUDIT_GENERATED_(9D)
  6
Continuous
 62
     7
100
AcDbLine
 10
29.8388229048
 20
712.0434340313
 30
0.0
 11
29.8388229048
 21
711.493490532
 31
0.0
  0
LINE
  5
A1
330
6E
100
AcDbEntity
  8
$DDT_AUDIT_GENERATED_(9D)
  6
Continuous
 62
     7
100
AcDbLine
 10
53.5888229048
 20
711.493490532
 30
0.0
 11
53.5888229048
 21
712.0434340313
 31
0.0
  0
LINE
  5
A3
330
6E
100
AcDbEntity
  8
$DDT_AUDIT_GENERATED_(A2)
  6
Continuous
 62
     7
100
AcDbLine
 10
69.6138229048
 20
645.4607720149
 30
0.0
 11
54.4138229048
 21
645.4607720149
 31
0.0
  0
LINE
  5
A4
330
6E
100
AcDbEntity
  8
$DDT_AUDIT_GENERATED_(A2)
  6
Continuous
 62
     7
100
AcDbLine
 10
29.0138229048
 20
645.4607720149
 30
0.0
 11
13.8138229048
 21
645.4607720149
 31
0.0
  0
LINE
  5
A5
330
6E
100
AcDbEntity
  8
$DDT_AUDIT_GENERATED_(A2)
  6
Continuous
 62
     7
100
AcDbLine
 10
69.6138229048
 20
645.4607720149
 30
0.0
 11
69.6138229048
 21
648.4607720149
 31
0.0
  0
LINE
  5
A6
330
6E
100
AcDbEntity
  8
$DDT_AUDIT_GENERATED_(A2)
  6
Continuous
 62
     7
100
AcDbLine
 10
13.8138229048
 20
648.4607720149
 30
0.0
 11
13.8138229048
 21
645.4607720149
 31
0.0
  0
LINE
  5
A7
330
6E
100
AcDbEntity
  8
$DDT_AUDIT_GENERATED_(A2)
  6
Continuous
 62
     7
100
AcDbLine
 10
67.7388229048
 20
644.8607720149
 30
0.0
 11
67.7388229048
 21
645.4607720149
 31
0.0
  0
LINE
  5
A8
330
6E
100
AcDbEntity
  8
$DDT_AUDIT_GENERATED_(A2)
  6
Continuous
 62
     7
100
AcDbLine
 10
15.6888229048
 20
645.4607720149
 30
0.0
 11
15.6888229048
 21
644.8607720149
 31
0.0
  0
LINE
  5
AA
330
6E
100
AcDbEntity
  8
$DDT_AUDIT_GENERATED_(A9)
  6
Continuous
 62
     7
100
AcDbLine
 10
69.7138229048
 20
648.4607720149
 30
0.0
 11
54.4138229048
 21
648.4607720149
 31
0.0
  0
LINE
  5
AB
330
6E
100
AcDbEntity
  8
$DDT_AUDIT_GENERATED_(A9)
  6
Continuous
 62
     7
100
AcDbLine
 10
29.0138229048
 20
648.4607720149
 30
0.0
 11
13.7138229048
 21
648.4607720149
 31
0.0
  0
LINE
  5
AC
330
6E
100
AcDbEntity
  8
$DDT_AUDIT_GENERATED_(A9)
  6
Continuous
 62
     7
100
AcDbLine
 10
68.536722758
 20
659.768776058
 30
0.0
 11
54.4138229048
 21
659.768776058
 31
0.0
  0
LINE
  5
AD
330
6E
100
AcDbEntity
  8
$DDT_AUDIT_GENERATED_(A9)
  6
Continuous
 62
     7
100
AcDbLine
 10
29.0138229048
 20
659.768776058
 30
0.0
 11
14.8909230516
 21
659.768776058
 31
0.0
  0
LINE
  5
AE
330
6E
100
AcDbEntity
  8
$DDT_AUDIT_GENERATED_(A9)
  6
Continuous
 62
     7
100
AcDbLine
 10
67.728777839
 20
682.9052913979
 30
0.0
 11
54.4138229048
 21
682.9052913979
 31
0.0
  0
LINE
  5
AF
330
6E
100
AcDbEntity
  8
$DDT_AUDIT_GENERATED_(A9)
  6
Continuous
 62
     7
100
AcDbLine
 10
29.0138229048
 20
682.9052913979
 30
0.0
 11
15.6988679706
 21
682.9052913979
 31
0.0
  0
LINE
  5
B0
330
6E
100
AcDbEntity
  8
$DDT_AUDIT_GENERATED_(A9)
  6
Continuous
 62
     7
100
AcDbLine
 10
69.7138229048
 20
648.4607720149
 30
0.0
 11
69.6494132746
 21
655.841384599
 31
0.0
  0
LINE
  5
B1
330
6E
100
AcDbEntity
  8
$DDT_AUDIT_GENERATED_(A9)
  6
Continuous
 62
     7
100
AcDbLine
 10
13.778232535
 20
655.841384599
 30
0.0
 11
13.7138229048
 21
648.4607720149
 31
0.0
  0
ARC
  5
B2
330
6E
100
AcDbEntity
  8
$DDT_AUDIT_GENERATED_(A9)
  6
Continuous
 62
     7
100
AcDbCircle
 10
78.5004734237
 20
660.6112711968
 30
0.0
 40
9.999306245301034
100
AcDbArc
 50
184.8332064846
 51
207.0469526411
  0
ARC
  5
B3
330
6E
100
AcDbEntity
  8
$DDT_AUDIT_GENERATED_(A9)
  6
Continuous
 62
     7
100
AcDbCircle
 10
4.9271723859
 20
660.6112711968
 30
0.0
 40
9.999306245301044
100
AcDbArc
 50
332.9530473589
 51
355.1667935154
  0
LINE
  5
B4
330
6E
100
AcDbEntity
  8
$DDT_AUDIT_GENERATED_(A9)
  6
Continuous
 62
     7
100
AcDbLine
 10
68.536722758
 20
659.768776058
 30
0.0
 11
67.728777839
 21
682.9052913979
 31
0.0
  0
LINE
  5
B5
330
6E
100
AcDbEntity
  8
$DDT_AUDIT_GENERATED_(A9)
  6
Continuous
 62
     7
100
AcDbLine
 10
15.6988679706
 20
682.9052913979
 30
0.0
 11
14.8909230516
 21
659.768776058
 31
0.0
  0
ARC
  5
B6
330
6E
100
AcDbEntity
  8
$DDT_AUDIT_GENERATED_(A9)
  6
Continuous
 62
     7
100
AcDbCircle
 10
41.7469407254
 20
681.9336226246
 30
0.0
 40
26.0
100
AcDbArc
 50
2.141749507
 51
21.7249773535
  0
ARC
  5
B7
330
6E
100
AcDbEntity
  8
$DDT_AUDIT_GENERATED_(A9)
  6
Continuous
 62
     7
100
AcDbCircle
 10
41.6807050842
 20
681.9336226246
 30
0.0
 40
26.00000000000001
100
AcDbArc
 50
158.2816040026
 51
177.858250493
  0
ARC
  5
B8
330
6E
100
AcDbEntity
  8
$DDT_AUDIT_GENERATED_(A9)
  6
Continuous
 62
     7
100
AcDbCircle
 10
14.2782134966
 20
655.8370213312
 30
0.0
 40
0.500000000000009
100
AcDbArc
 50
152.9530473589
 51
179.5
  0
ARC
  5
B9
330
6E
100
AcDbEntity
  8
$DDT_AUDIT_GENERATED_(A9)
  6
Continuous
 62
     7
100
AcDbCircle
 10
69.149432313
 20
655.8370213312
 30
0.0
 40
0.5000000000000014
100
AcDbArc
 50
0.5
 51
27.0469526411
  0
SPLINE
  5
BB
330
6E
100
AcDbEntity
  8
$DDT_AUDIT_GENERATED_(BA)
  6
Continuous
 62
     7
100
AcDbSpline
210
0.0
220
0.0
230
1.0
 70
     8
 71
     3
 72
    21
 73
    17
 74
     0
 42
0.0000000022529831
 43
0.0000000001
 40
0.0
 40
0.0
 40
0.0
 40
0.0
 40
0.0227272727272727
 40
0.0454545454545454
 40
0.0681818181818183
 40
0.090909090909091
 40
0.1136363636363637
 40
0.1363636363636364
 40
0.1590909090909093
 40
0.181818181818182
 40
0.2045454545454546
 40
0.2272727272727269
 40
0.2500000000000011
 40
0.2727272727272732
 40
0.3636363636363635
 40
0.4290861475901465
 40
0.4290861475901465
 40
0.4290861475901465
 40
0.4290861475901465
 10
26.44922741222499
 20
735.904806760633
 30
0.0
 10
26.41690323118299
 20
735.9038131868256
 30
0.0
 10
26.35218650470849
 20
735.9052351742985
 30
0.0
 10
26.25582052598618
 20
735.917294397535
 30
0.0
 10
26.16107786241469
 20
735.9389786995615
 30
0.0
 10
26.06887271815539
 20
735.9699869171412
 30
0.0
 10
25.98011929736938
 20
736.0100178870373
 30
0.0
 10
25.89582104736598
 20
736.0589839369671
 30
0.0
 10
25.81698141545478
 20
736.1167973946481
 30
0.0
 10
25.74460384894468
 20
736.1833705877973
 30
0.0
 10
25.67969179514478
 20
736.2586158441322
 30
0.0
 10
25.62273614094388
 20
736.341361955082
 30
0.0
 10
25.57422777323059
 20
736.4304377120759
 30
0.0
 10
25.49508738455668
 20
736.6189061010102
 30
0.0
 10
25.45306828703169
 20
736.8926034446016
 30
0.0
 10
25.48245931115341
 20
737.1324696011995
 30
0.0
 10
25.50437441083189
 20
737.2307327984644
 30
0.0
  0
SPLINE
  5
BC
330
6E
100
AcDbEntity
  8
$DDT_AUDIT_GENERATED_(BA)
  6
Continuous
 62
     7
100
AcDbSpline
210
0.0
220
0.0
230
1.0
 70
     8
 71
     3
 72
    13
 73
     9
 74
     0
 42
0.0000000022292024
 43
0.0000000001
 40
0.0
 40
0.0
 40
0.0
 40
0.0
 40
0.0625776936706771
 40
0.1252893888607017
 40
0.1876219193980399
 40
0.2501404259063286
 40
0.3743892914823107
 40
0.4258682509367718
 40
0.4258682509367718
 40
0.4258682509367718
 40
0.4258682509367718
 10
56.97844714866378
 20
735.9047241161501
 30
0.0
 10
57.06764896836325
 20
735.909687206041
 30
0.0
 10
57.24624362118348
 20
735.9196240135967
 30
0.0
 10
57.49574846770123
 20
736.0235879961962
 30
0.0
 10
57.70844388639472
 20
736.1923915818965
 30
0.0
 10
57.91454517687748
 20
736.4998966405584
 30
0.0
 10
57.97908472188787
 20
736.8736011776492
 30
0.0
 10
57.94263874581209
 20
737.1427711479057
 30
0.0
 10
57.9258452065242
 20
737.2202821114535
 30
0.0
  0
ARC
  5
BD
330
6E
100
AcDbEntity
  8
$DDT_AUDIT_GENERATED_(BA)
  6
Continuous
 62
     7
100
AcDbCircle
 10
41.7117993786
 20
-16.9047579068
 30
0.0
 40
752.9642665875664
100
AcDbArc
 50
88.8382258419
 51
91.1614639517
  0
LINE
  5
BE
330
6E
100
AcDbEntity
  8
$DDT_AUDIT_GENERATED_(BA)
  6
Continuous
 62
     7
100
AcDbLine
 10
68.9664432655
 20
691.5512302026
 30
0.0
 11
54.4214287959
 21
691.5512302026
 31
0.0
  0
LINE
  5
BF
330
6E
100
AcDbEntity
  8
$DDT_AUDIT_GENERATED_(BA)
  6
Continuous
 62
     7
100
AcDbLine
 10
29.0036190755
 20
691.5512302026
 30
0.0
 11
14.4687681339
 21
691.5512302026
 31
0.0
  0
SPLINE
  5
C0
330
6E
100
AcDbEntity
  8
$DDT_AUDIT_GENERATED_(BA)
  6
Continuous
 62
     7
100
AcDbSpline
210
0.0
220
0.0
230
1.0
 70
     8
 71
     3
 72
     8
 73
     4
 74
     0
 42
0.0000003711689577
 43
0.0000000001
 40
0.354874028545034
 40
0.354874028545034
 40
0.354874028545034
 40
0.354874028545034
 40
0.3919909243167825
 40
0.3919909243167825
 40
0.3919909243167825
 40
0.3919909243167825
 10
14.14514769724658
 20
691.8826395610645
 30
0.0
 10
14.14510890540875
 20
691.882605270496
 30
0.0
 10
14.14512269937116
 20
691.8825740409497
 30
0.0
 10
14.14518527540496
 20
691.8825457201542
 30
0.0
  0
ARC
  5
C1
330
6E
100
AcDbEntity
  8
$DDT_AUDIT_GENERATED_(BA)
  6
Continuous
 62
     7
100
AcDbCircle
 10
10.5940092771
 20
739.5693902256
 30
0.0
 40
15.09174633850031
100
AcDbArc
 50
347.8298002221
 51
351.0266065264
  0
ARC
  5
C2
330
6E
100
AcDbEntity
  8
$DDT_AUDIT_GENERATED_(BA)
  6
Continuous
 62
     7
100
AcDbCircle
 10
71.2686142725
 20
739.4095402142
 30
0.0
 40
13.52129107141164
100
AcDbArc
 50
189.3367525277
 51
192.8778005099
  0
SPLINE
  5
C3
330
6E
100
AcDbEntity
  8
$DDT_AUDIT_GENERATED_(BA)
  6
Continuous
 62
     7
100
AcDbSpline
210
0.0
220
0.0
230
1.0
 70
     8
 71
     3
 72
    58
 73
    54
 74
     0
 42
0.0000000002469469
 43
0.0000000001
 40
0.0
 40
0.0
 40
0.0
 40
0.0
 40
0.0261081648315588
 40
0.0564273770095058
 40
0.0821107834677968
 40
0.1031607128571473
 40
0.1167435432454486
 40
0.1275212432192556
 40
0.1371263632639866
 40
0.1464975438777809
 40
0.1556308848561463
 40
0.1792336903455075
 40
0.2072329155813638
 40
0.2353513656618191
 40
0.2621134616659212
 40
0.2813175764469312
 40
0.2983173685401291
 40
0.3149105988074398
 40
0.3340634305874869
 40
0.3557623210405989
 40
0.3757945057652377
 40
0.3975645140125367
 40
0.4211942104785878
 40
0.4464548275708544
 40
0.4720135449535378
 40
0.4968890703976739
 40
0.5210629170695027
 40
0.5446319201955482
 40
0.5675346343247525
 40
0.6006819267222903
 40
0.6324069800802945
 40
0.6567259574634611
 40
0.6786181906506509
 40
0.6974556235858032
 40
0.7132619913418
 40
0.7264322172103768
 40
0.7373336888191608
 40
0.7504526642095523
 40
0.7657920847576982
 40
0.782918840885667
 40
0.8017932746188423
 40
0.8224822092806449
 40
0.8424190562482747
 40
0.8528674101508786
 40
0.8612153121658668
 40
0.8678834248024859
 40
0.8765320546631808
 40
0.8879682543531741
 40
0.9022393584209741
 40
0.9227920545331502
 40
0.9473736669954856
 40
0.976066530284714
 40
1.0
 40
1.0
 40
1.0
 40
1.0
 10
57.92557772216183
 20
737.2199285571456
 30
0.0
 10
57.88291826787686
 20
737.4245768984798
 30
0.0
 10
57.80483483001087
 20
737.7990480184835
 30
0.0
 10
57.67274600007069
 20
738.4205595192038
 30
0.0
 10
57.54692045551739
 20
739.0105549760646
 30
0.0
 10
57.43825800095723
 20
739.5017091395373
 30
0.0
 10
57.32714382751174
 20
739.8923958056927
 30
0.0
 10
57.20156855328029
 20
740.2124110178464
 30
0.0
 10
57.06135432292969
 20
740.5001175010641
 30
0.0
 10
56.91008588507893
 20
740.7658275898203
 30
0.0
 10
56.65322136072594
 20
741.1603875268
 30
0.0
 10
56.21462871915241
 20
741.7021563437291
 30
0.0
 10
55.53762847040135
 20
742.3266116501441
 30
0.0
 10
54.70024635409543
 20
742.9183692970701
 30
0.0
 10
53.85243595690537
 20
743.3909891942114
 30
0.0
 10
53.05370684611404
 20
743.761803487593
 30
0.0
 10
52.33952244600684
 20
744.0496144993668
 30
0.0
 10
51.5880395046313
 20
744.3154803665251
 30
0.0
 10
50.71955348756079
 20
744.5828647869877
 30
0.0
 10
49.74413727663038
 20
744.8374319750714
 30
0.0
 10
48.67362703933901
 20
745.0707957031149
 30
0.0
 10
47.52218046361324
 20
745.2767894161138
 30
0.0
 10
46.23043530238834
 20
745.4567905362903
 30
0.0
 10
44.82680820786585
 20
745.597073846365
 30
0.0
 10
43.36820989501573
 20
745.6855469459407
 30
0.0
 10
41.91444945812896
 20
745.7190780720084
 30
0.0
 10
40.49773528089175
 20
745.7004085672675
 30
0.0
 10
39.13023351521148
 20
745.6340298597925
 30
0.0
 10
37.61424408919525
 20
745.5068440242273
 30
0.0
 10
35.99163269073406
 20
745.298444445476
 30
0.0
 10
34.42866159382593
 20
745.0100680472402
 30
0.0
 10
33.14588772570316
 20
744.7041767716648
 30
0.0
 10
32.13974793383888
 20
744.413554541941
 30
0.0
 10
31.31898169272931
 20
744.1352540845191
 30
0.0
 10
30.66531674627412
 20
743.8817834356989
 30
0.0
 10
30.14844311228769
 20
743.6578689869119
 30
0.0
 10
29.68188789949146
 20
743.4356953587571
 30
0.0
 10
29.21134550278767
 20
743.1885100162148
 30
0.0
 10
28.70320098381553
 20
742.8888866479084
 30
0.0
 10
28.17076266141964
 20
742.5272179337504
 30
0.0
 10
27.6341500707965
 20
742.09642096147
 30
0.0
 10
27.13826084062633
 20
741.6085116054867
 30
0.0
 10
26.77961858846364
 20
741.1636659647655
 30
0.0
 10
26.54678738121211
 20
740.8128202430804
 30
0.0
 10
26.40892753632564
 20
740.5763148908369
 30
0.0
 10
26.28922937819023
 20
740.3448583109652
 30
0.0
 10
26.18322218159341
 20
740.1090393856658
 30
0.0
 10
26.08055114796625
 20
739.8179591834394
 30
0.0
 10
25.98214402693765
 20
739.4396742072098
 30
0.0
 10
25.87874253455691
 20
738.9667603196092
 30
0.0
 10
25.75192284929338
 20
738.3966031855618
 30
0.0
 10
25.62290774375263
 20
737.794586924263
 30
0.0
 10
25.54584959764803
 20
737.4277561548645
 30
0.0
 10
25.50452471439642
 20
737.2304506994644
 30
0.0
  0
SPLINE
  5
C4
330
6E
100
AcDbEntity
  8
$DDT_AUDIT_GENERATED_(BA)
  6
Continuous
 62
     7
100
AcDbSpline
210
0.0
220
0.0
230
1.0
 70
     8
 71
     3
 72
    51
 73
    47
 74
     0
 42
0.0000000002166178
 43
0.0000000001
 40
0.0
 40
0.0
 40
0.0
 40
0.0
 40
0.0301941203792831
 40
0.0610525627749926
 40
0.0897929857472809
 40
0.116361189462563
 40
0.1407832676527632
 40
0.1626820195626316
 40
0.1824709384417333
 40
0.2001641268800463
 40
0.2157870201395383
 40
0.2503689620491152
 40
0.2862644632949554
 40
0.3234535851025421
 40
0.352790427788898
 40
0.3823551803976374
 40
0.4119929917906798
 40
0.4416917647995668
 40
0.4712514174491037
 40
0.4994922569594829
 40
0.5261232907733076
 40
0.5485375613820789
 40
0.5698768149703201
 40
0.5902033003768287
 40
0.6095434876791294
 40
0.6278338582274671
 40
0.6406649961564601
 40
0.6548858601247678
 40
0.6704440897072377
 40
0.687393760863727
 40
0.7057197859402669
 40
0.7247820974051842
 40
0.7461468604721695
 40
0.7672294644369413
 40
0.788004544426471
 40
0.8084837207630523
 40
0.8287129690607795
 40
0.8485918038724481
 40
0.8639055148340544
 40
0.8803483390228132
 40
0.897927994655457
 40
0.9166448529722577
 40
0.9365099187503918
 40
0.9574998136049852
 40
0.9796047996294857
 40
1.0
 40
1.0
 40
1.0
 40
1.0
 10
25.34660223018583
 20
736.3906923364689
 30
0.0
 10
25.31671268125586
 20
736.1986387846271
 30
0.0
 10
25.2656150666512
 20
735.8712268761932
 30
0.0
 10
25.17239179278346
 20
735.3377327945099
 30
0.0
 10
25.08167896246407
 20
734.8353604195885
 30
0.0
 10
24.99340873143071
 20
734.364583118507
 30
0.0
 10
24.90955812131551
 20
733.9323259983856
 30
0.0
 10
24.83077875252249
 20
733.5377570799692
 30
0.0
 10
24.75756416890654
 20
733.1813152530415
 30
0.0
 10
24.68984370318353
 20
732.86066898604
 30
0.0
 10
24.60045655052808
 20
732.4481286322514
 30
0.0
 10
24.4816806030489
 20
731.9196173640292
 30
0.0
 10
24.32297076883601
 20
731.250801872036
 30
0.0
 10
24.16039521973923
 20
730.6072330109473
 30
0.0
 10
23.99515099204759
 20
729.996057347775
 30
0.0
 10
23.83517798653682
 20
729.4344782824837
 30
0.0
 10
23.66739631089084
 20
728.8790841746111
 30
0.0
 10
23.49119190941953
 20
728.3189349900612
 30
0.0
 10
23.30697857263559
 20
727.7134974950166
 30
0.0
 10
23.12056371134642
 20
727.0969890012244
 30
0.0
 10
22.93539314338411
 20
726.4915574692498
 30
0.0
 10
22.75016491451968
 20
725.8999268359767
 30
0.0
 10
22.55682591651539
 20
725.319891616389
 30
0.0
 10
22.34537687208764
 20
724.7320579457884
 30
0.0
 10
22.09450714414091
 20
724.1076922469194
 30
0.0
 10
21.82608679439791
 20
723.4940666907854
 30
0.0
 10
21.55165905562857
 20
722.888816811881
 30
0.0
 10
21.27092725423083
 20
722.2762722977869
 30
0.0
 10
20.93666881656378
 20
721.5532584152664
 30
0.0
 10
20.54287270918296
 20
720.7046517205222
 30
0.0
 10
20.09326127321566
 20
719.7255988417803
 30
0.0
 10
19.58151091864779
 20
718.579390910268
 30
0.0
 10
19.03149813372153
 20
717.2696455399645
 30
0.0
 10
18.46730541515265
 20
715.7889243917797
 30
0.0
 10
17.92020130011447
 20
714.1757158590406
 30
0.0
 10
17.39810248923723
 20
712.430388758729
 30
0.0
 10
16.90803276620492
 20
710.5780495921651
 30
0.0
 10
16.49007482652357
 20
708.7885837474273
 30
0.0
 10
16.13203998753134
 20
707.0559074497987
 30
0.0
 10
15.81716797236289
 20
705.3492428081152
 30
0.0
 10
15.51121775192408
 20
703.4753794939753
 30
0.0
 10
15.21784205127541
 20
701.4310828447849
 30
0.0
 10
14.93534936073274
 20
699.2053479122484
 30
0.0
 10
14.66336241999669
 20
696.8180092287591
 30
0.0
 10
14.39511397860223
 20
694.304789213704
 30
0.0
 10
14.23560133930499
 20
692.7606105027719
 30
0.0
 10
14.14531564960132
 20
691.8822109304966
 30
0.0
  0
SPLINE
  5
C5
330
6E
100
AcDbEntity
  8
$DDT_AUDIT_GENERATED_(BA)
  6
Continuous
 62
     7
100
AcDbSpline
210
0.0
220
0.0
230
1.0
 70
     8
 71
     3
 72
    78
 73
    74
 74
     0
 42
0.0000000002165821
 43
0.0000000001
 40
0.0
 40
0.0
 40
0.0
 40
0.0
 40
0.016279495534341
 40
0.0338205799835667
 40
0.0497834378727626
 40
0.0641798403302876
 40
0.0770448441050833
 40
0.0974750711678953
 40
0.1174967351950947
 40
0.1371146231824533
 40
0.1568108650163559
 40
0.1773399690185165
 40
0.1987294202510754
 40
0.2118091091182497
 40
0.2238380554000473
 40
0.2345114856587727
 40
0.2438289665228048
 40
0.2519392257314997
 40
0.2603857149601996
 40
0.2703494286260349
 40
0.2818327811262732
 40
0.2948807978932977
 40
0.3083557101203431
 40
0.3208775322591849
 40
0.3386894410535065
 40
0.3542062564106811
 40
0.3682483049052623
 40
0.3781522669705191
 40
0.3877908073906509
 40
0.3990893697858292
 40
0.4122384940168557
 40
0.4267811783091667
 40
0.4421380490159976
 40
0.4585727547162552
 40
0.4743578277893093
 40
0.4877413502474843
 40
0.4968928785744404
 40
0.5045553274305897
 40
0.512500840635424
 40
0.5214578830855908
 40
0.5314234295374318
 40
0.5424131640555747
 40
0.5541837089671579
 40
0.5855044905250746
 40
0.6149655977441563
 40
0.6298586375770335
 40
0.6452205898218578
 40
0.6610605564797792
 40
0.6773729939851165
 40
0.6934077037433126
 40
0.7075923526703911
 40
0.7199040409800894
 40
0.7280577093402415
 40
0.7372605215110447
 40
0.747932011834602
 40
0.7600595026795719
 40
0.7728769326248801
 40
0.784754313951628
 40
0.7974592783473786
 40
0.8087477406860869
 40
0.8192168632584638
 40
0.8298990079939953
 40
0.839149421807248
 40
0.8485677928708075
 40
0.8581743355336076
 40
0.8692999479917556
 40
0.8826982808332973
 40
0.8983658905382149
 40
0.9152283452589892
 40
0.9341142261952121
 40
0.9549930096203674
 40
0.9778769980302653
 40
1.0
 40
1.0
 40
1.0
 40
1.0
 10
69.29003274956155
 20
691.8822139486543
 30
0.0
 10
69.21800024349781
 20
692.5840647423274
 30
0.0
 10
69.09139653234644
 20
693.8138228923639
 30
0.0
 10
68.88268669905307
 20
695.7927129723918
 30
0.0
 10
68.68120457654639
 20
697.6282088760441
 30
0.0
 10
68.48972647200907
 20
699.2719644532657
 30
0.0
 10
68.2662509724468
 20
701.0537578863297
 30
0.0
 10
67.99615515207248
 20
703.0056279356909
 30
0.0
 10
67.65518099942037
 20
705.1460744764471
 30
0.0
 10
67.27865561812652
 20
707.1973068927018
 30
0.0
 10
66.85719584714623
 20
709.1916886686103
 30
0.0
 10
66.38205883839422
 20
711.153689212704
 30
0.0
 10
65.92918019291331
 20
712.7992142417969
 30
0.0
 10
65.53217341874169
 20
714.0996829751143
 30
0.0
 10
65.22007007614621
 20
715.0474240415565
 30
0.0
 10
64.93668534404328
 20
715.8522955337684
 30
0.0
 10
64.68573599774597
 20
716.5271547491576
 30
0.0
 10
64.45335953296528
 20
717.1253182973701
 30
0.0
 10
64.21560326937367
 20
717.7141221304686
 30
0.0
 10
63.94869803147332
 20
718.3500287232387
 30
0.0
 10
63.64426524166614
 20
719.0489619897331
 30
0.0
 10
63.31665659199097
 20
719.7789192188982
 30
0.0
 10
62.99222511281999
 20
720.4874996721054
 30
0.0
 10
62.64406872351057
 20
721.2398913862086
 30
0.0
 10
62.30288990997159
 20
721.9755126655475
 30
0.0
 10
61.98055048798703
 20
722.6764454735696
 30
0.0
 10
61.73403596516966
 20
723.2174958619528
 30
0.0
 10
61.54181631310833
 20
723.6479196704706
 30
0.0
 10
61.38056730620549
 20
724.0197853423736
 30
0.0
 10
61.22050998413153
 20
724.4045758337634
 30
0.0
 10
61.06340208223456
 20
724.8081673510798
 30
0.0
 10
60.91253095606137
 20
725.2250404318925
 30
0.0
 10
60.76700249946717
 20
725.6520825639375
 30
0.0
 10
60.6325890917349
 20
726.0671477482524
 30
0.0
 10
60.51626288632645
 20
726.4408004725145
 30
0.0
 10
60.42505367232616
 20
726.7376606201785
 30
0.0
 10
60.35615206631287
 20
726.9639191326381
 30
0.0
 10
60.30071163335801
 20
727.1466538446176
 30
0.0
 10
60.24582055277753
 20
727.3278168976788
 30
0.0
 10
60.18644514845127
 20
727.5239161181416
 30
0.0
 10
60.121197213869
 20
727.7390845711813
 30
0.0
 10
60.0506952308343
 20
727.9702474926787
 30
0.0
 10
59.93602742737666
 20
728.3449773181266
 30
0.0
 10
59.78856047463913
 20
728.8131556622886
 30
0.0
 10
59.64200155767774
 20
729.2943476307939
 30
0.0
 10
59.53068180024129
 20
729.6781187624565
 30
0.0
 10
59.44739186476904
 20
729.9729335560755
 30
0.0
 10
59.36420825920484
 20
730.2758565777278
 30
0.0
 10
59.2829230527111
 20
730.5815550469616
 30
0.0
 10
59.20724116784168
 20
730.8753457807719
 30
0.0
 10
59.14031462475981
 20
731.1426331404367
 30
0.0
 10
59.08733021633206
 20
731.3593136920308
 30
0.0
 10
59.04297989280828
 20
731.5438334510453
 30
0.0
 10
59.00183300670639
 20
731.7174793906038
 30
0.0
 10
58.95573843572283
 20
731.9151121499583
 30
0.0
 10
58.90549876508863
 20
732.1343669955158
 30
0.0
 10
58.85469362798124
 20
732.3603412968109
 30
0.0
 10
58.80419348338838
 20
732.5890769983232
 30
0.0
 10
58.7568086083911
 20
732.8076628173717
 30
0.0
 10
58.71230521583415
 20
733.0167644567125
 30
0.0
 10
58.67127579554661
 20
733.2127530106786
 30
0.0
 10
58.63350926638326
 20
733.3959827295536
 30
0.0
 10
58.59765176583092
 20
733.5724272203563
 30
0.0
 10
58.56362726620931
 20
733.7419843462101
 30
0.0
 10
58.52784683111527
 20
733.9224810078458
 30
0.0
 10
58.48809429262663
 20
734.1256770007534
 30
0.0
 10
58.44226700049875
 20
734.3636748287012
 30
0.0
 10
58.39112285287794
 20
734.6343956018663
 30
0.0
 10
58.33540963112094
 20
734.935965305346
 30
0.0
 10
58.27563710426023
 20
735.2671659101524
 30
0.0
 10
58.21174564259721
 20
735.6294994205904
 30
0.0
 10
58.14598705888315
 20
736.0185966079108
 30
0.0
 10
58.1088086952426
 20
736.2588685438739
 30
0.0
 10
58.08721142409571
 20
736.3989490595022
 30
0.0
  0
ARC
  5
C6
330
6E
100
AcDbEntity
  8
$DDT_AUDIT_GENERATED_(BA)
  6
Continuous
 62
     7
100
AcDbCircle
 10
14.4433650724
 20
691.8512302026
 30
0.0
 40
0.3000000000030891
100
AcDbArc
 50
174.0725507805
 51
269.9991939904
  0
ARC
  5
C7
330
6E
100
AcDbEntity
  8
$DDT_AUDIT_GENERATED_(BA)
  6
Continuous
 62
     7
100
AcDbCircle
 10
68.991823163
 20
691.8512302031
 30
0.0
 40
0.2999999977047917
100
AcDbArc
 50
270.0021057471
 51
5.9254875925
  0
LINE
  5
C9
330
6E
100
AcDbEntity
  8
$DDT_AUDIT_GENERATED_(C8)
  6
Continuous
 62
     7
100
AcDbLine
 10
13.7138229048
 20
601.9607720149
 30
0.0
 11
41.2138229048
 21
601.9607720149
 31
0.0
  0
LINE
  5
CA
330
6E
100
AcDbEntity
  8
$DDT_AUDIT_GENERATED_(C8)
  6
Continuous
 62
     7
100
AcDbLine
 10
42.2138229048
 20
601.9607720149
 30
0.0
 11
69.7138229048
 21
601.9607720149
 31
0.0
  0
LINE
  5
CB
330
6E
100
AcDbEntity
  8
$DDT_AUDIT_GENERATED_(C8)
  6
Continuous
 62
     7
100
AcDbLine
 10
13.7906251905
 20
606.3607720149
 30
0.0
 11
41.2111387979
 21
606.3607720149
 31
0.0
  0
LINE
  5
CC
330
6E
100
AcDbEntity
  8
$DDT_AUDIT_GENERATED_(C8)
  6
Continuous
 62
     7
100
AcDbLine
 10
42.2165070118
 20
606.3607720149
 30
0.0
 11
69.6370206191
 21
606.3607720149
 31
0.0
  0
LINE
  5
CD
330
6E
100
AcDbEntity
  8
$DDT_AUDIT_GENERATED_(C8)
  6
Continuous
 62
     7
100
AcDbLine
 10
42.2165070118
 20
606.3607720149
 30
0.0
 11
42.2138229048
 21
601.9607720149
 31
0.0
  0
LINE
  5
CE
330
6E
100
AcDbEntity
  8
$DDT_AUDIT_GENERATED_(C8)
  6
Continuous
 62
     7
100
AcDbLine
 10
41.2138229048
 20
601.9607720149
 30
0.0
 11
41.2111387979
 21
606.3607720149
 31
0.0
  0
LINE
  5
CF
330
6E
100
AcDbEntity
  8
$DDT_AUDIT_GENERATED_(C8)
  6
Continuous
 62
     7
100
AcDbLine
 10
69.7138229048
 20
601.9607720149
 30
0.0
 11
69.6370206191
 21
606.3607720149
 31
0.0
  0
LINE
  5
D0
330
6E
100
AcDbEntity
  8
$DDT_AUDIT_GENERATED_(C8)
  6
Continuous
 62
     7
100
AcDbLine
 10
13.7906251905
 20
606.3607720149
 30
0.0
 11
13.7138229048
 21
601.9607720149
 31
0.0
  0
ELLIPSE
  5
D2
330
6E
100
AcDbEntity
  8
$DDT_AUDIT_GENERATED_(D1)
  6
Continuous
 62
     7
100
AcDbEllipse
 10
41.7138229048
 20
696.2267427708
 30
0.0
 11
-10.50000000000001
 21
1.387778780781446E-14
 31
0.0
210
0.0
220
0.0
230
1.0
 40
0.1728311453
 41
0.0000000000000076
 42
0.7278240484659504
  0
ELLIPSE
  5
D3
330
6E
100
AcDbEntity
  8
$DDT_AUDIT_GENERATED_(D1)
  6
Continuous
 62
     7
100
AcDbEllipse
 10
41.7138229048
 20
696.2267427708
 30
0.0
 11
-10.50000000000001
 21
1.387778780781446E-14
 31
0.0
210
0.0
220
0.0
230
1.0
 40
0.1728311453
 41
2.413768605123843
 42
6.283185307179586
  0
ELLIPSE
  5
D4
330
6E
100
AcDbEntity
  8
$DDT_AUDIT_GENERATED_(D1)
  6
Continuous
 62
     7
100
AcDbEllipse
 10
41.7138229048
 20
696.2267427708
 30
0.0
 11
10.05
 21
-1.387778780781446E-14
 31
0.0
210
0.0
220
0.0
230
1.0
 40
0.1728311453
 41
5.74143839735824
 42
6.283185307179586
  0
ELLIPSE
  5
D5
330
6E
100
AcDbEntity
  8
$DDT_AUDIT_GENERATED_(D1)
  6
Continuous
 62
     7
100
AcDbEllipse
 10
41.7138229048
 20
696.2267427708
 30
0.0
 11
10.05
 21
-1.387778780781446E-14
 31
0.0
210
0.0
220
0.0
230
1.0
 40
0.1728311453
 41
0.000000000000008
 42
3.68333956341114
  0
ARC
  5
D6
330
6E
100
AcDbEntity
  8
$DDT_AUDIT_GENERATED_(D1)
  6
Continuous
 62
     7
100
AcDbCircle
 10
46.7817506226
 20
701.8171825563
 30
0.0
 40
16.56014277180281
100
AcDbArc
 50
179.7658833972
 51
200.1751769591
  0
ARC
  5
D7
330
6E
100
AcDbEntity
  8
$DDT_AUDIT_GENERATED_(D1)
  6
Continuous
 62
     7
100
AcDbCircle
 10
36.6189890204
 20
701.8209925632
 30
0.0
 40
16.58703234548482
100
AcDbArc
 50
339.8533220036
 51
0.2216203596
  0
LINE
  5
D8
330
6E
100
AcDbEntity
  8
$DDT_AUDIT_GENERATED_(D1)
  6
Continuous
 62
     7
100
AcDbLine
 10
53.2138229048
 20
701.8848581852
 30
0.0
 11
53.2138229048
 21
712.3560039225
 31
0.0
  0
LINE
  5
D9
330
6E
100
AcDbEntity
  8
$DDT_AUDIT_GENERATED_(D1)
  6
Continuous
 62
     7
100
AcDbLine
 10
30.2138229048
 20
712.3560039225
 30
0.0
 11
30.2138229048
 21
701.8848581852
 31
0.0
  0
ELLIPSE
  5
DB
330
6E
100
AcDbEntity
  8
$DDT_AUDIT_GENERATED_(DA)
  6
Continuous
 62
     7
100
AcDbEllipse
 10
41.7138229048
 20
695.78351461
 30
0.0
 11
9.000000000000002
 21
-1.387778780781446E-14
 31
0.0
210
0.0
220
0.0
230
1.0
 40
0.1728311453
 41
0.0
 42
6.283185307179586
  0
ELLIPSE
  5
DC
330
6E
100
AcDbEntity
  8
$DDT_AUDIT_GENERATED_(DA)
  6
Continuous
 62
     7
100
AcDbEllipse
 10
41.7138229048
 20
695.78351461
 30
0.0
 11
5.250000000000003
 21
-1.387778780781446E-14
 31
0.0
210
0.0
220
0.0
230
1.0
 40
0.1728311453
 41
0.0
 42
6.283185307179586
  0
ELLIPSE
  5
DD
330
6E
100
AcDbEntity
  8
$DDT_AUDIT_GENERATED_(DA)
  6
Continuous
 62
     7
100
AcDbEllipse
 10
41.7138229048
 20
695.78351461
 30
0.0
 11
6.249999999999998
 21
-1.387778780781446E-14
 31
0.0
210
0.0
220
0.0
230
1.0
 40
0.1728311453
 41
0.0
 42
6.283185307179586
  0
ELLIPSE
  5
DE
330
6E
100
AcDbEntity
  8
$DDT_AUDIT_GENERATED_(DA)
  6
Continuous
 62
     7
100
AcDbEllipse
 10
41.7138229048
 20
695.78351461
 30
0.0
 11
-2.750000000000001
 21
0.0
 31
0.0
210
0.0
220
0.0
230
1.0
 40
0.1728311453
 41
0.0
 42
6.283185307179586
  0
ELLIPSE
  5
DF
330
6E
100
AcDbEntity
  8
$DDT_AUDIT_GENERATED_(DA)
  6
Continuous
 62
     7
100
AcDbEllipse
 10
41.7138229048
 20
695.78351461
 30
0.0
 11
2.150000000000001
 21
0.0
 31
0.0
210
0.0
220
0.0
230
1.0
 40
0.1728311453
 41
0.0
 42
6.283185307179586
  0
ELLIPSE
  5
E0
330
6E
100
AcDbEntity
  8
$DDT_AUDIT_GENERATED_(DA)
  6
Continuous
 62
     7
100
AcDbEllipse
 10
41.7138229048
 20
695.9805049037
 30
0.0
 11
0.5196299438963563
 21
0.0
 31
0.0
210
0.0
220
0.0
230
1.0
 40
0.1728311453
 41
0.0
 42
6.283185307179586
  0
ELLIPSE
  5
E1
330
6E
100
AcDbEntity
  8
$DDT_AUDIT_GENERATED_(DA)
  6
Continuous
 62
     7
100
AcDbEllipse
 10
41.7138229048
 20
695.78351461
 30
0.0
 11
8.699999999999999
 21
-1.387778780781446E-14
 31
0.0
210
0.0
220
0.0
230
1.0
 40
0.1728311453
 41
0.0
 42
6.283185307179586
  0
ARC
  5
E2
330
6E
100
AcDbEntity
  8
$DDT_AUDIT_GENERATED_(DA)
  6
Continuous
 62
     7
100
AcDbCircle
 10
49.9593520802
 20
695.9805049037
 30
0.0
 40
0.2544701650277636
100
AcDbArc
 50
356.10558504
 51
3.89441496
  0
ELLIPSE
  5
E3
330
6E
100
AcDbEntity
  8
$DDT_AUDIT_GENERATED_(DA)
  6
Continuous
 62
     7
100
AcDbEllipse
 10
41.7138229048
 20
695.9805049037
 30
0.0
 11
8.500000000029193
 21
1.387778780781446E-14
 31
0.0
210
0.0
220
0.0
230
1.0
 40
0.1728311453
 41
0.0117649772880931
 42
0.1107160068535242
  0
ELLIPSE
  5
E4
330
6E
100
AcDbEntity
  8
$DDT_AUDIT_GENERATED_(DA)
  6
Continuous
 62
     7
100
AcDbEllipse
 10
41.7138228789
 20
695.9805049049
 30
0.0
 11
8.500000025918723
 21
-1.203606658783940E-9
 31
0.0
210
0.0
220
0.0
230
1.0
 40
0.172831145
 41
-0.2735643646491628
 42
-0.2500344101100724
  0
ELLIPSE
  5
E5
330
6E
100
AcDbEntity
  8
$DDT_AUDIT_GENERATED_(DA)
  6
Continuous
 62
     7
100
AcDbEllipse
 10
41.7138229048
 20
695.9805049037
 30
0.0
 11
8.499999999962405
 21
5.551115123125783E-13
 31
0.0
210
0.0
220
0.0
230
1.0
 40
0.1728311453
 41
6.033150896667954
 42
6.271420329891446
  0
ELLIPSE
  5
E6
330
6E
100
AcDbEntity
  8
$DDT_AUDIT_GENERATED_(DA)
  6
Continuous
 62
     7
100
AcDbEllipse
 10
41.7138233723
 20
695.980504857
 30
0.0
 11
8.499999527626715
 21
4.165356948249155E-8
 31
0.0
210
0.0
220
0.0
230
1.0
 40
0.172831148
 41
-0.5353637678555456
 42
-0.5118338125319681
  0
ELLIPSE
  5
E7
330
6E
100
AcDbEntity
  8
$DDT_AUDIT_GENERATED_(DA)
  6
Continuous
 62
     7
100
AcDbEllipse
 10
41.7138229048
 20
695.9805049037
 30
0.0
 11
8.500000000026645
 21
-1.651456749129920E-12
 31
0.0
210
0.0
220
0.0
230
1.0
 40
0.1728311453
 41
-0.5118337983093557
 42
-0.2735643650867896
  0
ELLIPSE
  5
E8
330
6E
100
AcDbEntity
  8
$DDT_AUDIT_GENERATED_(DA)
  6
Continuous
 62
     7
100
AcDbEllipse
 10
41.7138228879
 20
695.9805049066
 30
0.0
 11
8.500000017925759
 21
-2.121677833422098E-9
 31
0.0
210
0.0
220
0.0
230
1.0
 40
0.1728311453
 41
-0.7971631399167878
 42
-0.7736331853735452
  0
ELLIPSE
  5
E9
330
6E
100
AcDbEntity
  8
$DDT_AUDIT_GENERATED_(DA)
  6
Continuous
 62
     7
100
AcDbEllipse
 10
41.7138229048
 20
695.9805049037
 30
0.0
 11
8.500000000010274
 21
-7.632783294297951E-13
 31
0.0
210
0.0
220
0.0
230
1.0
 40
0.1728311453
 41
-0.7736331861089107
 42
-0.5353637528861022
  0
ELLIPSE
  5
EA
330
6E
100
AcDbEntity
  8
$DDT_AUDIT_GENERATED_(DA)
  6
Continuous
 62
     7
100
AcDbEllipse
 10
41.7138231083
 20
695.9805048428
 30
0.0
 11
8.499999745726319
 21
3.139963289378045E-8
 31
0.0
210
0.0
220
0.0
230
1.0
 40
0.1728311432
 41
-1.058962539778421
 42
-1.035432584639237
  0
ELLIPSE
  5
EB
330
6E
100
AcDbEntity
  8
$DDT_AUDIT_GENERATED_(DA)
  6
Continuous
 62
     7
100
AcDbEllipse
 10
41.7138229048
 20
695.9805049037
 30
0.0
 11
8.500000000003176
 21
-4.440892098500626E-13
 31
0.0
210
0.0
220
0.0
230
1.0
 40
0.1728311453
 41
-1.035432573908309
 42
-0.7971631406854041
  0
ELLIPSE
  5
EC
330
6E
100
AcDbEntity
  8
$DDT_AUDIT_GENERATED_(DA)
  6
Continuous
 62
     7
100
AcDbEllipse
 10
41.7138230269
 20
695.9805048249
 30
0.0
 11
8.499999748272149
 21
2.101920026920112E-8
 31
0.0
210
0.0
220
0.0
230
1.0
 40
0.1728311411
 41
-1.320761923976074
 42
-1.29723196874675
  0
ELLIPSE
  5
ED
330
6E
100
AcDbEntity
  8
$DDT_AUDIT_GENERATED_(DA)
  6
Continuous
 62
     7
100
AcDbEllipse
 10
41.7138229048
 20
695.9805049037
 30
0.0
 11
8.500000000007713
 21
-8.187894806610529E-13
 31
0.0
210
0.0
220
0.0
230
1.0
 40
0.1728311453
 41
-1.297231961707275
 42
-1.058962528484496
  0
ARC
  5
EE
330
6E
100
AcDbEntity
  8
$DDT_AUDIT_GENERATED_(DA)
  6
Continuous
 62
     7
100
AcDbCircle
 10
41.7138229048
 20
743.6890886962
 30
0.0
 40
49.17764853060578
100
AcDbArc
 50
269.883492154
 51
270.116507846
  0
ELLIPSE
  5
EF
330
6E
100
AcDbEntity
  8
$DDT_AUDIT_GENERATED_(DA)
  6
Continuous
 62
     7
100
AcDbEllipse
 10
41.7138229048
 20
695.9805049037
 30
0.0
 11
8.500000000006139
 21
-3.608224830031759E-13
 31
0.0
210
0.0
220
0.0
230
1.0
 40
0.1728311453
 41
4.724153957672959
 42
4.96242339089576
  0
ELLIPSE
  5
F0
330
6E
100
AcDbEntity
  8
$DDT_AUDIT_GENERATED_(DA)
  6
Continuous
 62
     7
100
AcDbEllipse
 10
41.713822787
 20
695.9805048277
 30
0.0
 11
-8.499999757204479
 21
2.026737111471277E-8
 31
0.0
210
0.0
220
0.0
230
1.0
 40
0.1728311412
 41
1.297231968493229
 42
1.320761923699476
  0
ELLIPSE
  5
F1
330
6E
100
AcDbEntity
  8
$DDT_AUDIT_GENERATED_(DA)
  6
Continuous
 62
     7
100
AcDbEllipse
 10
41.7138229048
 20
695.9805049037
 30
0.0
 11
-8.499999999985102
 21
6.938893903907228E-13
 31
0.0
210
0.0
220
0.0
230
1.0
 40
0.1728311453
 41
1.320761916283912
 42
1.559031349507277
  0
ELLIPSE
  5
F2
330
6E
100
AcDbEntity
  8
$DDT_AUDIT_GENERATED_(DA)
  6
Continuous
 62
     7
100
AcDbEllipse
 10
41.7138226691
 20
695.9805048331
 30
0.0
 11
-8.499999705331239
 21
3.637201650974475E-8
 31
0.0
210
0.0
220
0.0
230
1.0
 40
0.1728311429
 41
1.035432586332152
 42
1.058962541560909
  0
ELLIPSE
  5
F3
330
6E
100
AcDbEntity
  8
$DDT_AUDIT_GENERATED_(DA)
  6
Continuous
 62
     7
100
AcDbEllipse
 10
41.7138229048
 20
695.9805049037
 30
0.0
 11
-8.50000000000284
 21
-4.024558464266192E-13
 31
0.0
210
0.0
220
0.0
230
1.0
 40
0.1728311453
 41
1.058962528484629
 42
1.29723196170753
  0
ELLIPSE
  5
F4
330
6E
100
AcDbEntity
  8
$DDT_AUDIT_GENERATED_(DA)
  6
Continuous
 62
     7
100
AcDbEllipse
 10
41.7138225711
 20
695.980504846
 30
0.0
 11
-8.499999646011998
 21
4.205891190878219E-8
 31
0.0
210
0.0
220
0.0
230
1.0
 40
0.1728311453
 41
0.7736332005224691
 42
0.7971631557519487
  0
ELLIPSE
  5
F5
330
6E
100
AcDbEntity
  8
$DDT_AUDIT_GENERATED_(DA)
  6
Continuous
 62
     7
100
AcDbEllipse
 10
41.7138229048
 20
695.9805049037
 30
0.0
 11
-8.500000000024446
 21
-3.150257832373882E-12
 31
0.0
210
0.0
220
0.0
230
1.0
 40
0.1728311453
 41
0.797163140684688
 42
1.035432573907159
  0
ELLIPSE
  5
F6
330
6E
100
AcDbEntity
  8
$DDT_AUDIT_GENERATED_(DA)
  6
Continuous
 62
     7
100
AcDbEllipse
 10
41.7138224955
 20
695.9805048629
 30
0.0
 11
-8.499999586436067
 21
3.646968838033615E-8
 31
0.0
210
0.0
220
0.0
230
1.0
 40
0.1728311477
 41
0.5118338107645659
 42
0.5353637659949222
  0
ELLIPSE
  5
F7
330
6E
100
AcDbEntity
  8
$DDT_AUDIT_GENERATED_(DA)
  6
Continuous
 62
     7
100
AcDbEllipse
 10
41.7138229048
 20
695.9805049037
 30
0.0
 11
-8.500000000022174
 21
-2.386979502944087E-12
 31
0.0
210
0.0
220
0.0
230
1.0
 40
0.1728311453
 41
0.535363752885754
 42
0.7736331861083288
  0
ELLIPSE
  5
F8
330
6E
100
AcDbEntity
  8
$DDT_AUDIT_GENERATED_(DA)
  6
Continuous
 62
     7
100
AcDbEllipse
 10
41.713822383
 20
695.9805048796
 30
0.0
 11
-8.499999477902639
 21
2.400220300291522E-8
 31
0.0
210
0.0
220
0.0
230
1.0
 40
0.17283115
 41
0.2500344185706419
 42
0.2735643738944254
  0
ELLIPSE
  5
F9
330
6E
100
AcDbEntity
  8
$DDT_AUDIT_GENERATED_(DA)
  6
Continuous
 62
     7
100
AcDbEllipse
 10
41.7138229048
 20
695.9805049037
 30
0.0
 11
-8.500000000020682
 21
-1.235123114895487E-12
 31
0.0
210
0.0
220
0.0
230
1.0
 40
0.1728311453
 41
0.2735643650868816
 42
0.5118337983095383
  0
ARC
  5
FA
330
6E
100
AcDbEntity
  8
$DDT_AUDIT_GENERATED_(DA)
  6
Continuous
 62
     7
100
AcDbCircle
 10
33.4682937295
 20
695.9805049037
 30
0.0
 40
0.254470165027575
100
AcDbArc
 50
176.10558504
 51
183.8944149601
  0
ELLIPSE
  5
FB
330
6E
100
AcDbEntity
  8
$DDT_AUDIT_GENERATED_(DA)
  6
Continuous
 62
     7
100
AcDbEllipse
 10
41.7138229048
 20
695.9805049037
 30
0.0
 11
-8.500000000031138
 21
-5.551115123125783E-14
 31
0.0
210
0.0
220
0.0
230
1.0
 40
0.1728311453
 41
0.0117649772880742
 42
0.2500344105106118
  0
ARC
  5
FC
330
6E
100
AcDbEntity
  8
$DDT_AUDIT_GENERATED_(DA)
  6
Continuous
 62
     7
100
AcDbCircle
 10
35.6512903378
 20
695.9805049037
 30
0.0
 40
0.1874657768154402
100
AcDbArc
 50
174.7101933954
 51
180.0
  0
ELLIPSE
  5
FD
330
6E
100
AcDbEntity
  8
$DDT_AUDIT_GENERATED_(DA)
  6
Continuous
 62
     7
100
AcDbEllipse
 10
41.7138229048
 20
695.9805049037
 30
0.0
 11
-8.500000000029377
 21
1.013078509970455E-12
 31
0.0
210
0.0
220
0.0
230
1.0
 40
0.1728311453
 41
6.172469300326124
 42
6.271420329891644
  0
LINE
  5
FE
330
6E
100
AcDbEntity
  8
$DDT_AUDIT_GENERATED_(DA)
  6
Continuous
 62
     7
100
AcDbLine
 10
32.7138229048
 20
696.9997154559
 30
0.0
 11
32.7138229048
 21
695.78351461
 31
0.0
  0
LINE
  5
FF
330
6E
100
AcDbEntity
  8
$DDT_AUDIT_GENERATED_(DA)
  6
Continuous
 62
     7
100
AcDbLine
 10
50.7138229048
 20
695.78351461
 30
0.0
 11
50.7138229048
 21
696.9997154559
 31
0.0
  0
LINE
  5
100
330
6E
100
AcDbEntity
  8
$DDT_AUDIT_GENERATED_(DA)
  6
Continuous
 62
     7
100
AcDbLine
 10
35.4638229048
 20
695.9805049037
 30
0.0
 11
35.4638229048
 21
695.78351461
 31
0.0
  0
LINE
  5
101
330
6E
100
AcDbEntity
  8
$DDT_AUDIT_GENERATED_(DA)
  6
Continuous
 62
     7
100
AcDbLine
 10
47.9638229048
 20
695.78351461
 30
0.0
 11
47.9638229048
 21
695.9805049037
 31
0.0
  0
LINE
  5
102
330
6E
100
AcDbEntity
  8
$DDT_AUDIT_GENERATED_(DA)
  6
Continuous
 62
     7
100
AcDbLine
 10
38.9638229048
 20
695.9805049037
 30
0.0
 11
38.9638229048
 21
695.78351461
 31
0.0
  0
LINE
  5
103
330
6E
100
AcDbEntity
  8
$DDT_AUDIT_GENERATED_(DA)
  6
Continuous
 62
     7
100
AcDbLine
 10
44.4638229048
 20
695.78351461
 30
0.0
 11
44.4638229048
 21
695.9805049037
 31
0.0
  0
LINE
  5
104
330
6E
100
AcDbEntity
  8
$DDT_AUDIT_GENERATED_(DA)
  6
Continuous
 62
     7
100
AcDbLine
 10
41.1941929609
 20
696.1440854781
 30
0.0
 11
41.1941929609
 21
695.9805049037
 31
0.0
  0
LINE
  5
105
330
6E
100
AcDbEntity
  8
$DDT_AUDIT_GENERATED_(DA)
  6
Continuous
 62
     7
100
AcDbLine
 10
42.2334528487
 20
695.9805049037
 30
0.0
 11
42.2334528487
 21
696.1440854781
 31
0.0
  0
ENDBLK
  5
107
330
6E
100
AcDbEntity
  8
0
100
AcDbBlockEnd
  0
BLOCK
  5
15D
330
108
100
AcDbEntity
  8
0
100
AcDbBlockBegin
  2
SE1
 70
     0
 10
0.0
 20
0.0
 30
0.0
  3
SE1
  1

  0
ARC
  5
10A
330
108
100
AcDbEntity
  8
$DDT_AUDIT_GENERATED_(73)
  6
Continuous
 62
     7
100
AcDbCircle
 10
122.6791618496
 20
638.5607720151
 30
0.0
 40
28.4026818666672
100
AcDbArc
 50
355.9621256034
 51
4.0378746587
  0
LINE
  5
10B
330
108
100
AcDbEntity
  8
$DDT_AUDIT_GENERATED_(73)
  6
Continuous
 62
     7
100
AcDbLine
 10
207.311340326
 20
644.8607720149
 30
0.0
 11
151.511340326
 21
644.8607720149
 31
0.0
  0
LINE
  5
10C
330
108
100
AcDbEntity
  8
$DDT_AUDIT_GENERATED_(73)
  6
Continuous
 62
     7
100
AcDbLine
 10
207.811340326
 20
606.8607720149
 30
0.0
 11
207.811340326
 21
618.3591155498
 31
0.0
  0
LINE
  5
10D
330
108
100
AcDbEntity
  8
$DDT_AUDIT_GENERATED_(73)
  6
Continuous
 62
     7
100
AcDbLine
 10
207.811340326
 20
636.2953395139
 30
0.0
 11
207.811340326
 21
644.3607720149
 31
0.0
  0
LINE
  5
10E
330
108
100
AcDbEntity
  8
$DDT_AUDIT_GENERATED_(73)
  6
Continuous
 62
     7
100
AcDbLine
 10
151.011340326
 20
636.5854357332
 30
0.0
 11
151.011340326
 21
606.8607720149
 31
0.0
  0
LINE
  5
10F
330
108
100
AcDbEntity
  8
$DDT_AUDIT_GENERATED_(73)
  6
Continuous
 62
     7
100
AcDbLine
 10
151.011340326
 20
644.3607720149
 30
0.0
 11
151.011340326
 21
640.5607720149
 31
0.0
  0
ARC
  5
110
330
108
100
AcDbEntity
  8
$DDT_AUDIT_GENERATED_(73)
  6
Continuous
 62
     7
100
AcDbCircle
 10
207.311340326
 20
606.8607720149
 30
0.0
 40
0.5000000000000004
100
AcDbArc
 50
271.9625369712
 51
0.0
  0
ARC
  5
111
330
108
100
AcDbEntity
  8
$DDT_AUDIT_GENERATED_(73)
  6
Continuous
 62
     7
100
AcDbCircle
 10
151.511340326
 20
606.8607720149
 30
0.0
 40
0.5000000000000004
100
AcDbArc
 50
180.0
 51
270.0
  0
ARC
  5
112
330
108
100
AcDbEntity
  8
$DDT_AUDIT_GENERATED_(73)
  6
Continuous
 62
     7
100
AcDbCircle
 10
151.511340326
 20
644.3607720149
 30
0.0
 40
0.5000000000000004
100
AcDbArc
 50
90.0
 51
180.0
  0
ARC
  5
113
330
108
100
AcDbEntity
  8
$DDT_AUDIT_GENERATED_(73)
  6
Continuous
 62
     7
100
AcDbCircle
 10
207.311340326
 20
644.3607720149
 30
0.0
 40
0.5000000000000004
100
AcDbArc
 50
0.0
 51
90.0
  0
LINE
  5
114
330
108
100
AcDbEntity
  8
$DDT_AUDIT_GENERATED_(7D)
  6
Continuous
 62
     7
100
AcDbLine
 10
396.7570703399
 20
711.7889759726
 30
0.0
 11
396.3203737401
 21
711.7123480616
 31
0.0
  0
SPLINE
  5
115
330
108
100
AcDbEntity
  8
$DDT_AUDIT_GENERATED_(7D)
  6
Continuous
 62
     7
100
AcDbSpline
210
0.0
220
0.0
230
1.0
 70
     8
 71
     3
 72
    16
 73
    12
 74
     0
 42
0.0000000007866952
 43
0.0000000001
 40
0.0
 40
0.0
 40
0.0
 40
0.0
 40
0.2500000000000022
 40
0.2500000000000022
 40
0.5000000000000046
 40
0.5000000000000046
 40
0.6250000000000043
 40
0.6250000000000043
 40
0.7500000000000041
 40
0.7500000000000041
 40
1.0
 40
1.0
 40
1.0
 40
1.0
 10
409.2771517116649
 20
713.9858964011041
 30
0.0
 10
409.2771556585448
 20
713.9858970936597
 30
0.0
 10
408.9504421676868
 20
713.928568109843
 30
0.0
 10
407.7032818473304
 20
713.7097267218285
 30
0.0
 10
406.7729709590283
 20
713.546483454096
 30
0.0
 10
405.0367199147995
 20
713.2418204671014
 30
0.0
 10
404.3920796121719
 20
713.1287043133123
 30
0.0
 10
403.033384096489
 20
712.8902916508115
 30
0.0
 10
402.3136702889846
 20
712.7640022187019
 30
0.0
 10
400.0304999882416
 20
712.3633703596432
 30
0.0
 10
398.4102435092959
 20
712.0790611405279
 30
0.0
 10
396.7554207644379
 20
711.7983767770622
 30
0.0
  0
ARC
  5
116
330
108
100
AcDbEntity
  8
$DDT_AUDIT_GENERATED_(7D)
  6
Continuous
 62
     7
100
AcDbCircle
 10
292.5256582567
 20
601.9070033912
 30
0.0
 40
91.42556956975773
100
AcDbArc
 50
157.9098471061
 51
163.3457772664
  0
LINE
  5
117
330
108
100
AcDbEntity
  8
$DDT_AUDIT_GENERATED_(7D)
  6
Continuous
 62
     7
100
AcDbLine
 10
204.813505588
 20
627.2866883368
 30
0.0
 11
204.813505588
 21
618.4040576153
 31
0.0
  0
ARC
  5
118
330
108
100
AcDbEntity
  8
$DDT_AUDIT_GENERATED_(7D)
  6
Continuous
 62
     7
100
AcDbCircle
 10
207.6889743437
 20
627.2813409889
 30
0.0
 40
2.875473727759507
100
AcDbArc
 50
163.2689853587
 51
179.8934503749
  0
LINE
  5
119
330
108
100
AcDbEntity
  8
$DDT_AUDIT_GENERATED_(7D)
  6
Continuous
 62
     7
100
AcDbLine
 10
396.3203737401
 20
711.7123480616
 30
0.0
 11
384.2481866904
 21
709.5940204278
 31
0.0
  0
SPLINE
  5
11A
330
108
100
AcDbEntity
  8
$DDT_AUDIT_GENERATED_(7D)
  6
Continuous
 62
     7
100
AcDbSpline
210
0.0
220
0.0
230
1.0
 70
     8
 71
     3
 72
    16
 73
    12
 74
     0
 42
0.0000000017850357
 43
0.0000000001
 40
0.0
 40
0.0
 40
0.0
 40
0.0
 40
0.2499999999999999
 40
0.2499999999999999
 40
0.3124999999999999
 40
0.3124999999999999
 40
0.3749999999999998
 40
0.3749999999999998
 40
0.4374999999999998
 40
0.4374999999999998
 40
0.4990022210681735
 40
0.4990022210681735
 40
0.4990022210681735
 40
0.4990022210681735
 10
205.0606280629393
 20
617.8621241055375
 30
0.0
 10
205.9667491777089
 20
618.042198391034
 30
0.0
 10
206.6490585741663
 20
618.162536132713
 30
0.0
 10
207.2272536302318
 20
618.2618972256264
 30
0.0
 10
207.3290038217995
 20
618.2791269125065
 30
0.0
 10
207.5042226667387
 20
618.308548201718
 30
0.0
 10
207.57780297873
 20
618.3207581755091
 30
0.0
 10
207.6952237007827
 20
618.3401425174558
 30
0.0
 10
207.7391303138761
 20
618.3473287044965
 30
0.0
 10
207.796955041314
 20
618.3567769520338
 30
0.0
 10
207.8113386595423
 20
618.3591154074301
 30
0.0
 10
207.8113402824733
 20
618.3591155458053
 30
0.0
  0
SPLINE
  5
11B
330
108
100
AcDbEntity
  8
$DDT_AUDIT_GENERATED_(7D)
  6
Continuous
 62
     7
100
AcDbSpline
210
0.0
220
0.0
230
1.0
 70
     8
 71
     3
 72
    14
 73
    10
 74
     0
 42
0.0000000151109513
 43
0.0000000001
 40
0.0
 40
0.0
 40
0.0
 40
0.0
 40
0.25
 40
0.25
 40
0.5
 40
0.5
 40
0.75
 40
0.75
 40
1.0
 40
1.0
 40
1.0
 40
1.0
 10
204.8135055880211
 20
618.4040576152707
 30
0.0
 10
204.8135055880211
 20
618.3294135806135
 30
0.0
 10
204.8186544434661
 20
618.2557131020923
 30
0.0
 10
204.8415264977422
 20
618.1161888357886
 30
0.0
 10
204.8591491726173
 20
618.0522614197262
 30
0.0
 10
204.9057474586736
 20
617.9480388489567
 30
0.0
 10
204.9345127946847
 20
617.9088461471817
 30
0.0
 10
204.9959086740603
 20
617.8629825540052
 30
0.0
 10
205.028618161703
 20
617.8557627483192
 30
0.0
 10
205.0606280629393
 20
617.8621241055375
 30
0.0
  0
SPLINE
  5
11C
330
108
100
AcDbEntity
  8
$DDT_AUDIT_GENERATED_(7D)
  6
Continuous
 62
     7
100
AcDbSpline
210
0.0
220
0.0
230
1.0
 70
     8
 71
     3
 72
    16
 73
    12
 74
     0
 42
0.0000000035203241
 43
0.0000000001
 40
0.0
 40
0.0
 40
0.0
 40
0.0
 40
0.250000000000021
 40
0.250000000000021
 40
0.3750000000000279
 40
0.3750000000000279
 40
0.5000000000000347
 40
0.5000000000000347
 40
0.7500000000000173
 40
0.7500000000000173
 40
1.0
 40
1.0
 40
1.0
 40
1.0
 10
405.7910817861174
 20
723.9382726091208
 30
0.0
 10
406.022518230568
 20
723.8821933009698
 30
0.0
 10
406.2405824185453
 20
723.7950426318756
 30
0.0
 10
406.5480828128537
 20
723.6187842306441
 30
0.0
 10
406.647404881031
 20
723.5520290168864
 30
0.0
 10
406.8330965774748
 20
723.4071399700823
 30
0.0
 10
406.9203178236784
 20
723.3285820649339
 30
0.0
 10
407.1651840782087
 20
723.0746511586282
 30
0.0
 10
407.3060122374412
 20
722.879602609878
 30
0.0
 10
407.524472274833
 20
722.4640068453813
 30
0.0
 10
407.6052852913196
 20
722.2383664777491
 30
0.0
 10
407.6525682594314
 20
722.0049740444423
 30
0.0
  0
LINE
  5
11D
330
108
100
AcDbEntity
  8
$DDT_AUDIT_GENERATED_(7D)
  6
Continuous
 62
     7
100
AcDbLine
 10
407.6525682594
 20
722.0049740444
 30
0.0
 11
409.2771517117
 21
713.9858964011
 31
0.0
  0
SPLINE
  5
11E
330
108
100
AcDbEntity
  8
$DDT_AUDIT_GENERATED_(7D)
  6
Continuous
 62
     7
100
AcDbSpline
210
0.0
220
0.0
230
1.0
 70
    12
 71
     3
 72
     8
 73
     4
 74
     0
 42
0.000000000877585
 43
0.0000000001
 40
0.0
 40
0.0
 40
0.0
 40
0.0
 40
1.0
 40
1.0
 40
1.0
 40
1.0
 10
405.7910817861174
 20
723.9382726091208
 30
0.0
 41
0.9870695534720109
 10
402.0755246446467
 20
724.838588328216
 30
0.0
 41
0.9857859492658473
 10
398.2786943183918
 20
724.950014287538
 30
0.0
 41
0.9987741195115019
 10
394.562114795158
 20
724.2978596220506
 30
0.0
 41
1.026034064208975
  0
LINE
  5
11F
330
108
100
AcDbEntity
  8
$DDT_AUDIT_GENERATED_(7D)
  6
Continuous
 62
     7
100
AcDbLine
 10
394.5621147952
 20
724.2978596221
 30
0.0
 11
381.7577457051
 21
722.0510547337
 31
0.0
  0
LINE
  5
120
330
108
100
AcDbEntity
  8
$DDT_AUDIT_GENERATED_(7D)
  6
Continuous
 62
     7
100
AcDbLine
 10
383.9527012499
 20
709.5421710842
 30
0.0
 11
384.2481866904
 21
709.5940204278
 31
0.0
  0
ARC
  5
121
330
108
100
AcDbEntity
  8
$DDT_AUDIT_GENERATED_(7D)
  6
Continuous
 62
     7
100
AcDbCircle
 10
411.1390403987
 20
554.6093050948
 30
0.0
 40
157.2999999999999
100
AcDbArc
 50
99.9524688037
 51
120.17
  0
ARC
  5
122
330
108
100
AcDbEntity
  8
$DDT_AUDIT_GENERATED_(7D)
  6
Continuous
 62
     7
100
AcDbCircle
 10
411.1390403987
 20
554.6093050948
 30
0.0
 40
170.0
100
AcDbArc
 50
99.9524688037
 51
120.17
  0
LINE
  5
123
330
108
100
AcDbEntity
  8
$DDT_AUDIT_GENERATED_(7D)
  6
Continuous
 62
     7
100
AcDbLine
 10
207.811340326
 20
618.3591155498
 30
0.0
 11
332.0851971136
 21
690.6011425773
 31
0.0
  0
LINE
  5
124
330
108
100
AcDbEntity
  8
$DDT_AUDIT_GENERATED_(7D)
  6
Continuous
 62
     7
100
AcDbLine
 10
325.7025918388
 20
701.5807759913
 30
0.0
 11
218.198163958
 21
639.0870384885
 31
0.0
  0
SPLINE
  5
125
330
108
100
AcDbEntity
  8
$DDT_AUDIT_GENERATED_(7D)
  6
Continuous
 62
     7
100
AcDbSpline
210
0.0
220
0.0
230
1.0
 70
     8
 71
     3
 72
    11
 73
     7
 74
     0
 42
0.0000000009155422
 43
0.0000000001
 40
0.0
 40
0.0
 40
0.0
 40
0.0
 40
0.3178460672348645
 40
0.6357035814604525
 40
0.9535459430372489
 40
1.0
 40
1.0
 40
1.0
 40
1.0
 10
218.1994139581379
 20
639.0877651300473
 30
0.0
 10
217.0767865155591
 20
638.4981510755405
 30
0.0
 10
215.1580305348786
 20
637.5218948370839
 30
0.0
 10
211.7715354010824
 20
636.5785402856368
 30
0.0
 10
209.2351405581456
 20
636.2927829363431
 30
0.0
 10
207.9867344222446
 20
636.2945434689282
 30
0.0
 10
207.8014078984132
 20
636.2953141559777
 30
0.0
  0
LINE
  5
126
330
108
100
AcDbEntity
  8
$DDT_AUDIT_GENERATED_(9D)
  6
Continuous
 62
     7
100
AcDbLine
 10
408.5052183715
 20
713.5458603819
 30
0.0
 11
385.1126209955
 21
709.4411206821
 31
0.0
  0
LINE
  5
127
330
108
100
AcDbEntity
  8
$DDT_AUDIT_GENERATED_(9D)
  6
Continuous
 62
     7
100
AcDbLine
 10
385.0607716519
 20
709.7366061226
 30
0.0
 11
385.1126209955
 21
709.4411206821
 31
0.0
  0
LINE
  5
128
330
108
100
AcDbEntity
  8
$DDT_AUDIT_GENERATED_(9D)
  6
Continuous
 62
     7
100
AcDbLine
 10
408.5052183715
 20
713.5458603819
 30
0.0
 11
408.4533690279
 21
713.8413458225
 31
0.0
  0
LINE
  5
12A
330
108
100
AcDbEntity
  8
$DDT_AUDIT_GENERATED_(129)
  6
Continuous
 62
     7
100
AcDbLine
 10
208.2474621129
 20
707.604510238
 30
0.0
 11
206.9404811746
 21
700.880676203
 31
0.0
  0
LINE
  5
12B
330
108
100
AcDbEntity
  8
$DDT_AUDIT_GENERATED_(129)
  6
Continuous
 62
     7
100
AcDbLine
 10
207.7769273732
 20
707.8042403852
 30
0.0
 11
206.4699464349
 21
701.0804063501
 31
0.0
  0
LINE
  5
12C
330
108
100
AcDbEntity
  8
$DDT_AUDIT_GENERATED_(129)
  6
Continuous
 62
     7
100
AcDbLine
 10
208.2474621129
 20
707.604510238
 30
0.0
 11
208.1385669345
 21
707.6507334989
 31
0.0
  0
LINE
  5
12D
330
108
100
AcDbEntity
  8
$DDT_AUDIT_GENERATED_(A2)
  6
Continuous
 62
     7
100
AcDbLine
 10
151.511340326
 20
645.4607720149
 30
0.0
 11
207.311340326
 21
645.4607720149
 31
0.0
  0
LINE
  5
12E
330
108
100
AcDbEntity
  8
$DDT_AUDIT_GENERATED_(A2)
  6
Continuous
 62
     7
100
AcDbLine
 10
207.311340326
 20
645.4607720149
 30
0.0
 11
207.311340326
 21
648.4607720149
 31
0.0
  0
LINE
  5
12F
330
108
100
AcDbEntity
  8
$DDT_AUDIT_GENERATED_(A2)
  6
Continuous
 62
     7
100
AcDbLine
 10
151.511340326
 20
648.4607720149
 30
0.0
 11
151.511340326
 21
645.4607720149
 31
0.0
  0
LINE
  5
130
330
108
100
AcDbEntity
  8
$DDT_AUDIT_GENERATED_(A2)
  6
Continuous
 62
     7
100
AcDbLine
 10
205.436340326
 20
644.8607720149
 30
0.0
 11
205.436340326
 21
645.4607720149
 31
0.0
  0
LINE
  5
131
330
108
100
AcDbEntity
  8
$DDT_AUDIT_GENERATED_(A2)
  6
Continuous
 62
     7
100
AcDbLine
 10
153.386340326
 20
645.4607720149
 30
0.0
 11
153.386340326
 21
644.8607720149
 31
0.0
  0
LINE
  5
132
330
108
100
AcDbEntity
  8
$DDT_AUDIT_GENERATED_(A9)
  6
Continuous
 62
     7
100
AcDbLine
 10
207.411340326
 20
648.4607720149
 30
0.0
 11
151.411340326
 21
648.4607720149
 31
0.0
  0
LINE
  5
133
330
108
100
AcDbEntity
  8
$DDT_AUDIT_GENERATED_(A9)
  6
Continuous
 62
     7
100
AcDbLine
 10
206.2342401792
 20
659.768776058
 30
0.0
 11
152.5884404728
 21
659.768776058
 31
0.0
  0
LINE
  5
134
330
108
100
AcDbEntity
  8
$DDT_AUDIT_GENERATED_(A9)
  6
Continuous
 62
     7
100
AcDbLine
 10
205.4262952602
 20
682.9052913979
 30
0.0
 11
153.3963853918
 21
682.9052913979
 31
0.0
  0
LINE
  5
135
330
108
100
AcDbEntity
  8
$DDT_AUDIT_GENERATED_(A9)
  6
Continuous
 62
     7
100
AcDbLine
 10
207.411340326
 20
648.4607720149
 30
0.0
 11
207.3469306957
 21
655.841384599
 31
0.0
  0
LINE
  5
136
330
108
100
AcDbEntity
  8
$DDT_AUDIT_GENERATED_(A9)
  6
Continuous
 62
     7
100
AcDbLine
 10
151.4757499562
 20
655.841384599
 30
0.0
 11
151.411340326
 21
648.4607720149
 31
0.0
  0
ARC
  5
137
330
108
100
AcDbEntity
  8
$DDT_AUDIT_GENERATED_(A9)
  6
Continuous
 62
     7
100
AcDbCircle
 10
216.1979908449
 20
660.6112711968
 30
0.0
 40
9.99930624530104
100
AcDbArc
 50
184.8332064846
 51
207.0469526411
  0
ARC
  5
138
330
108
100
AcDbEntity
  8
$DDT_AUDIT_GENERATED_(A9)
  6
Continuous
 62
     7
100
AcDbCircle
 10
142.6246898071
 20
660.6112711968
 30
0.0
 40
9.99930624530104
100
AcDbArc
 50
332.9530473589
 51
355.1667935154
  0
LINE
  5
139
330
108
100
AcDbEntity
  8
$DDT_AUDIT_GENERATED_(A9)
  6
Continuous
 62
     7
100
AcDbLine
 10
206.2342401792
 20
659.768776058
 30
0.0
 11
205.4262952602
 21
682.9052913979
 31
0.0
  0
LINE
  5
13A
330
108
100
AcDbEntity
  8
$DDT_AUDIT_GENERATED_(A9)
  6
Continuous
 62
     7
100
AcDbLine
 10
153.3963853918
 20
682.9052913979
 30
0.0
 11
152.5884404728
 21
659.768776058
 31
0.0
  0
ARC
  5
13B
330
108
100
AcDbEntity
  8
$DDT_AUDIT_GENERATED_(A9)
  6
Continuous
 62
     7
100
AcDbCircle
 10
179.4444581466
 20
681.9336226246
 30
0.0
 40
26.0
100
AcDbArc
 50
2.141749507
 51
21.8076103562
  0
ARC
  5
13C
330
108
100
AcDbEntity
  8
$DDT_AUDIT_GENERATED_(A9)
  6
Continuous
 62
     7
100
AcDbCircle
 10
179.3782225054
 20
681.9336226246
 30
0.0
 40
25.99999999999999
100
AcDbArc
 50
158.1967467891
 51
177.858250493
  0
ARC
  5
13D
330
108
100
AcDbEntity
  8
$DDT_AUDIT_GENERATED_(A9)
  6
Continuous
 62
     7
100
AcDbCircle
 10
151.9757309177
 20
655.8370213312
 30
0.0
 40
0.500000000000009
100
AcDbArc
 50
152.9530473589
 51
179.5
  0
ARC
  5
13E
330
108
100
AcDbEntity
  8
$DDT_AUDIT_GENERATED_(A9)
  6
Continuous
 62
     7
100
AcDbCircle
 10
206.8469497342
 20
655.8370213312
 30
0.0
 40
0.5000000000000014
100
AcDbArc
 50
0.5
 51
27.0469526411
  0
ARC
  5
13F
330
108
100
AcDbEntity
  8
$DDT_AUDIT_GENERATED_(BA)
  6
Continuous
 62
     7
100
AcDbCircle
 10
277.5129902822
 20
744.680093014
 30
0.0
 40
9.521932529356096
100
AcDbArc
 50
279.9284016357
 51
284.5314540756
  0
ARC
  5
140
330
108
100
AcDbEntity
  8
$DDT_AUDIT_GENERATED_(BA)
  6
Continuous
 62
     7
100
AcDbCircle
 10
224.0033583353
 20
702.4429992839
 30
0.0
 40
16.63029899826937
100
AcDbArc
 50
161.3336409464
 51
186.3043694608
  0
LINE
  5
141
330
108
100
AcDbEntity
  8
$DDT_AUDIT_GENERATED_(BA)
  6
Continuous
 62
     7
100
AcDbLine
 10
179.6583935157
 20
691.5512302026
 30
0.0
 11
206.837431302
 21
691.5512302026
 31
0.0
  0
LINE
  5
142
330
108
100
AcDbEntity
  8
$DDT_AUDIT_GENERATED_(BA)
  6
Continuous
 62
     7
100
AcDbLine
 10
179.6583942304
 20
691.5512302026
 30
0.0
 11
178.6835193096
 21
691.5512302026
 31
0.0
  0
LINE
  5
143
330
108
100
AcDbEntity
  8
$DDT_AUDIT_GENERATED_(BA)
  6
Continuous
 62
     7
100
AcDbLine
 10
152.0854246336
 20
691.5512302026
 30
0.0
 11
178.683520768
 21
691.5512302026
 31
0.0
  0
ARC
  5
144
330
108
100
AcDbEntity
  8
$DDT_AUDIT_GENERATED_(BA)
  6
Continuous
 62
     7
100
AcDbCircle
 10
283.1950936408
 20
721.9916220807
 30
0.0
 40
13.88609872146598
100
AcDbArc
 50
93.292903026
 51
104.7460009737
  0
ARC
  5
145
330
108
100
AcDbEntity
  8
$DDT_AUDIT_GENERATED_(BA)
  6
Continuous
 62
     7
100
AcDbCircle
 10
283.2869202126
 20
721.6120233178
 30
0.0
 40
14.27046932907123
100
AcDbArc
 50
93.5506321725
 51
104.5517955871
  0
ARC
  5
146
330
108
100
AcDbEntity
  8
$DDT_AUDIT_GENERATED_(BA)
  6
Continuous
 62
     7
100
AcDbCircle
 10
282.3851187921
 20
739.4716441675
 30
0.0
 40
3.616732382312191
100
AcDbArc
 50
270.2407290136
 51
289.3087886891
  0
ARC
  5
147
330
108
100
AcDbEntity
  8
$DDT_AUDIT_GENERATED_(BA)
  6
Continuous
 62
     7
100
AcDbCircle
 10
279.8500053629
 20
750.0966186808
 30
0.0
 40
10.21423554518766
100
AcDbArc
 50
275.5904225922
 51
289.3399476239
  0
SPLINE
  5
148
330
108
100
AcDbEntity
  8
$DDT_AUDIT_GENERATED_(BA)
  6
Continuous
 62
     7
100
AcDbSpline
210
0.0
220
0.0
230
1.0
 70
     8
 71
     3
 72
    19
 73
    15
 74
     0
 42
0.0000000021400867
 43
0.0000000001
 40
0.0
 40
0.0
 40
0.0
 40
0.0
 40
0.0701856159225363
 40
0.1323242913028481
 40
0.1865658183042288
 40
0.2331198189235025
 40
0.3023558148822756
 40
0.3749947695317737
 40
0.4810213931720031
 40
0.5466759700570423
 40
0.6206001155666746
 40
0.7030434055840001
 40
0.7939657119939227
 40
1.0
 40
1.0
 40
1.0
 40
1.0
 10
299.6917952337178
 20
743.2880064987413
 30
0.0
 10
299.7981758021944
 20
743.3410266950733
 30
0.0
 10
299.9662059156173
 20
743.429156249997
 30
0.0
 10
300.1866686131982
 20
743.6261366404673
 30
0.0
 10
300.329013676066
 20
743.8340528591041
 30
0.0
 10
300.4283197729183
 20
744.078171993905
 30
0.0
 10
300.4721208843472
 20
744.3689155194196
 30
0.0
 10
300.4230129290528
 20
744.7518866564258
 30
0.0
 10
300.2522719740988
 20
745.0985977425606
 30
0.0
 10
299.9903470888183
 20
745.3749738970346
 30
0.0
 10
299.7006322805166
 20
745.5634602402922
 30
0.0
 10
299.3381773542724
 20
745.6877991265403
 30
0.0
 10
298.7438539934556
 20
745.7448626885308
 30
0.0
 10
298.329014400451
 20
745.6288165208591
 30
0.0
 10
297.9960083551223
 20
745.5246284925051
 30
0.0
  0
LINE
  5
149
330
108
100
AcDbEntity
  8
$DDT_AUDIT_GENERATED_(BA)
  6
Continuous
 62
     7
100
AcDbLine
 10
283.4843458087
 20
736.014974822
 30
0.0
 11
299.6917951097
 21
743.2880064498
 31
0.0
  0
LINE
  5
14A
330
108
100
AcDbEntity
  8
$DDT_AUDIT_GENERATED_(BA)
  6
Continuous
 62
     7
100
AcDbLine
 10
297.9960088025
 20
745.5246286689
 30
0.0
 11
283.1440519973
 21
740.4283520606
 31
0.0
  0
SPLINE
  5
14B
330
108
100
AcDbEntity
  8
$DDT_AUDIT_GENERATED_(BA)
  6
Continuous
 62
     7
100
AcDbSpline
210
0.0
220
0.0
230
1.0
 70
     8
 71
     3
 72
    32
 73
    28
 74
     0
 42
0.0000000000685122
 43
0.0000000001
 40
0.0
 40
0.0
 40
0.0
 40
0.0
 40
0.0690056270271195
 40
0.1388398093340481
 40
0.203631664320782
 40
0.2634688482089894
 40
0.3189198552098023
 40
0.3701123368349041
 40
0.4161851468634201
 40
0.4571876108116003
 40
0.4930677279628961
 40
0.5238711771444531
 40
0.5460067783947697
 40
0.5698211165266489
 40
0.5969717904338215
 40
0.6274128083986411
 40
0.6612029868921391
 40
0.6983365391453699
 40
0.7283955783506751
 40
0.7603231835084929
 40
0.7941119371241044
 40
0.8317938891634626
 40
0.871555865967829
 40
0.9133142704438177
 40
0.9422643435446981
 40
0.9721092540365766
 40
1.0
 40
1.0
 40
1.0
 40
1.0
 10
280.8446755071326
 20
739.9308285042864
 30
0.0
 10
277.1751030762608
 20
739.5336000475135
 30
0.0
 10
270.9539492073907
 20
738.8600880157009
 30
0.0
 10
260.9133188835191
 20
737.7735379688155
 30
0.0
 10
251.5607903209433
 20
736.7599974982729
 30
0.0
 10
242.8431289528731
 20
735.8200840768709
 30
0.0
 10
234.7990689332858
 20
734.9367960512307
 30
0.0
 10
227.410790490977
 20
734.1782082578657
 30
0.0
 10
220.7447203349817
 20
733.2985383835517
 30
0.0
 10
214.8269099174356
 20
732.445291306982
 30
0.0
 10
209.6596418593994
 20
731.5951385809707
 30
0.0
 10
205.4134910497824
 20
730.8037484236652
 30
0.0
 10
201.7591437598691
 20
730.0444404627344
 30
0.0
 10
198.2928372768151
 20
729.2561663287487
 30
0.0
 10
194.4529545860154
 20
728.2927399688871
 30
0.0
 10
190.1797071755165
 20
727.0702963367348
 30
0.0
 10
185.5074866206233
 20
725.4926299004865
 30
0.0
 10
180.9643410474499
 20
723.6160937175961
 30
0.0
 10
176.6552146821043
 20
721.4487469634345
 30
0.0
 10
172.6545801772751
 20
719.055268191372
 30
0.0
 10
168.5634850670713
 20
716.1218884052289
 30
0.0
 10
164.4797268209609
 20
712.559781915953
 30
0.0
 10
160.5306189091993
 20
708.3057874051948
 30
0.0
 10
157.3236946678722
 20
703.9672847246736
 30
0.0
 10
154.8640252953832
 20
699.7646262060537
 30
0.0
 10
153.0332472512912
 20
695.8613948789591
 30
0.0
 10
152.257074918588
 20
693.3700635019812
 30
0.0
 10
151.8226889669819
 20
691.94287022768
 30
0.0
  0
ARC
  5
14C
330
108
100
AcDbEntity
  8
$DDT_AUDIT_GENERATED_(BA)
  6
Continuous
 62
     7
100
AcDbCircle
 10
244.4545361706
 20
703.4175414238
 30
0.0
 40
36.45425685170515
100
AcDbArc
 50
149.3567027636
 51
173.1520971627
  0
ARC
  5
14D
330
108
100
AcDbEntity
  8
$DDT_AUDIT_GENERATED_(BA)
  6
Continuous
 62
     7
100
AcDbCircle
 10
379.1728355376
 20
689.6281218087
 30
0.0
 40
172.0487391507581
100
AcDbArc
 50
176.3252024379
 51
179.262316276
  0
SPLINE
  5
14E
330
108
100
AcDbEntity
  8
$DDT_AUDIT_GENERATED_(BA)
  6
Continuous
 62
     7
100
AcDbSpline
210
0.0
220
0.0
230
1.0
 70
     8
 71
     3
 72
    33
 73
    29
 74
     0
 42
0.0000000001474542
 43
0.0000000001
 40
0.0
 40
0.0
 40
0.0
 40
0.0
 40
0.0455812731884637
 40
0.0832460321154666
 40
0.1129673062376302
 40
0.1302441210006112
 40
0.143341825272331
 40
0.1525994093587963
 40
0.1605532713481318
 40
0.178953144787394
 40
0.2006737002549276
 40
0.2209312380138317
 40
0.2387429783208226
 40
0.2648607769949854
 40
0.2972454725307273
 40
0.3363998197565108
 40
0.3910634874199107
 40
0.4529003527214322
 40
0.5130476502445832
 40
0.5694234720958179
 40
0.6221176702184698
 40
0.671033834855995
 40
0.7194310037928859
 40
0.7644983486292943
 40
0.8163211818725472
 40
0.874862398409062
 40
0.9402387562490124
 40
1.0
 40
1.0
 40
1.0
 40
1.0
 10
213.0917367615068
 20
721.9993535325004
 30
0.0
 10
213.1590139282629
 20
722.101767057912
 30
0.0
 10
213.2704543967998
 20
722.2611980448609
 30
0.0
 10
213.5268383571274
 20
722.5617006028742
 30
0.0
 10
213.8099768393171
 20
722.8084143767148
 30
0.0
 10
214.1282214626244
 20
723.0163373951235
 30
0.0
 10
214.4279827461298
 20
723.1793437732927
 30
0.0
 10
214.8010457845306
 20
723.3829569637519
 30
0.0
 10
215.4259621296997
 20
723.72511503571
 30
0.0
 10
216.3560413974676
 20
724.17211542169
 30
0.0
 10
217.6547438872627
 20
724.7080662186889
 30
0.0
 10
219.027109555
 20
725.2029620894996
 30
0.0
 10
220.6111729524803
 20
725.6947414941353
 30
0.0
 10
222.5390850732034
 20
726.2147642514643
 30
0.0
 10
225.0244211662236
 20
726.7570497415326
 30
0.0
 10
228.2671872010087
 20
727.3191623314599
 30
0.0
 10
232.2891737305911
 20
727.8534479377074
 30
0.0
 10
236.8623304325646
 20
728.3890994634537
 30
0.0
 10
241.4731827634444
 20
728.9876603345502
 30
0.0
 10
245.8393326441503
 20
729.6155091703503
 30
0.0
 10
249.9109930041578
 20
730.2324180251496
 30
0.0
 10
253.7721287431145
 20
730.8476489137037
 30
0.0
 10
257.4332701831835
 20
731.4540305897417
 30
0.0
 10
261.1640256303314
 20
732.0909776672031
 30
0.0
 10
265.1580378611963
 20
732.795277073168
 30
0.0
 10
269.645347575685
 20
733.5817478618318
 30
0.0
 10
274.4431755074522
 20
734.5101716889345
 30
0.0
 10
277.4320323243773
 20
734.9898950051422
 30
0.0
 10
279.1237280460651
 20
735.2638711036057
 30
0.0
  0
ARC
  5
14F
330
108
100
AcDbEntity
  8
$DDT_AUDIT_GENERATED_(BA)
  6
Continuous
 62
     7
100
AcDbCircle
 10
206.8373543105
 20
691.8512300594
 30
0.0
 40
0.2999990419323292
100
AcDbArc
 50
269.9704933216
 51
355.5593338325
  0
ARC
  5
150
330
108
100
AcDbEntity
  8
$DDT_AUDIT_GENERATED_(BA)
  6
Continuous
 62
     7
100
AcDbCircle
 10
152.0854254928
 20
691.8512302047
 30
0.0
 40
0.3000000020677684
100
AcDbArc
 50
161.7543175177
 51
269.9980050329
  0
LINE
  5
151
330
108
100
AcDbEntity
  8
$DDT_AUDIT_GENERATED_(C8)
  6
Continuous
 62
     7
100
AcDbLine
 10
207.4068756843
 20
601.9607720149
 30
0.0
 11
151.411340326
 21
601.9607720149
 31
0.0
  0
LINE
  5
152
330
108
100
AcDbEntity
  8
$DDT_AUDIT_GENERATED_(C8)
  6
Continuous
 62
     7
100
AcDbLine
 10
207.3300129177
 20
606.3607720149
 30
0.0
 11
151.4881426117
 21
606.3607720149
 31
0.0
  0
LINE
  5
153
330
108
100
AcDbEntity
  8
$DDT_AUDIT_GENERATED_(C8)
  6
Continuous
 62
     7
100
AcDbLine
 10
207.4068756843
 20
601.9607720149
 30
0.0
 11
207.3300129177
 21
606.3607720149
 31
0.0
  0
LINE
  5
154
330
108
100
AcDbEntity
  8
$DDT_AUDIT_GENERATED_(C8)
  6
Continuous
 62
     7
100
AcDbLine
 10
151.4881426117
 20
606.3607720149
 30
0.0
 11
151.411340326
 21
601.9607720149
 31
0.0
  0
LINE
  5
155
330
108
100
AcDbEntity
  8
$DDT_AUDIT_GENERATED_(D1)
  6
Continuous
 62
     7
100
AcDbLine
 10
389.1458120161
 20
694.4120157456
 30
0.0
 11
409.8297928538
 21
698.041469796
 31
0.0
  0
ARC
  5
156
330
108
100
AcDbEntity
  8
$DDT_AUDIT_GENERATED_(D1)
  6
Continuous
 62
     7
100
AcDbCircle
 10
403.9121961703
 20
702.8354294841
 30
0.0
 40
16.99999999999983
100
AcDbArc
 50
189.9524688037
 51
209.7023915993
  0
ARC
  5
157
330
108
100
AcDbEntity
  8
$DDT_AUDIT_GENERATED_(D1)
  6
Continuous
 62
     7
100
AcDbCircle
 10
393.0777300172
 20
700.9342868863
 30
0.0
 40
16.9999999999998
100
AcDbArc
 50
350.202546008
 51
9.9524688037
  0
LINE
  5
158
330
108
100
AcDbEntity
  8
$DDT_AUDIT_GENERATED_(D1)
  6
Continuous
 62
     7
100
AcDbLine
 10
409.8219049811
 20
703.8724163557
 30
0.0
 11
408.1358615708
 21
713.4810487025
 31
0.0
  0
LINE
  5
159
330
108
100
AcDbEntity
  8
$DDT_AUDIT_GENERATED_(D1)
  6
Continuous
 62
     7
100
AcDbLine
 10
385.4819777962
 20
709.5059323616
 30
0.0
 11
387.1680212064
 21
699.8973000148
 31
0.0
  0
LINE
  5
15A
330
108
100
AcDbEntity
  8
$DDT_AUDIT_GENERATED_(DA)
  6
Continuous
 62
     7
100
AcDbLine
 10
408.4301396665
 20
697.3389949173
 30
0.0
 11
390.7010132342
 21
694.2280343027
 31
0.0
  0
LINE
  5
15B
330
108
100
AcDbEntity
  8
$DDT_AUDIT_GENERATED_(DA)
  6
Continuous
 62
     7
100
AcDbLine
 10
390.6232392188
 20
694.6712624635
 30
0.0
 11
390.7010132342
 21
694.2280343027
 31
0.0
  0
LINE
  5
15C
330
108
100
AcDbEntity
  8
$DDT_AUDIT_GENERATED_(DA)
  6
Continuous
 62
     7
100
AcDbLine
 10
408.4301396665
 20
697.3389949173
 30
0.0
 11
408.3523656511
 21
697.7822230781
 31
0.0
  0
ENDBLK
  5
15E
330
108
100
AcDbEntity
  8
0
100
AcDbBlockEnd
  0
BLOCK
  5
17E
330
15F
100
AcDbEntity
  8
0
100
AcDbBlockBegin
  2
SE2
 70
     0
 10
0.0
 20
0.0
 30
0.0
  3
SE2
  1

  0
ARC
  5
161
330
15F
100
AcDbEntity
  8
$DDT_AUDIT_GENERATED_(73)
  6
Continuous
 62
     7
100
AcDbCircle
 10
41.7138229048
 20
337.016338545
 30
0.0
 40
28.4
100
AcDbArc
 50
319.0471878378
 51
0.0
  0
ARC
  5
162
330
15F
100
AcDbEntity
  8
$DDT_AUDIT_GENERATED_(73)
  6
Continuous
 62
     7
100
AcDbCircle
 10
41.7138229048
 20
337.016338545
 30
0.0
 40
28.4
100
AcDbArc
 50
0.0
 51
220.9728567116
  0
LINE
  5
163
330
15F
100
AcDbEntity
  8
$DDT_AUDIT_GENERATED_(7D)
  6
Continuous
 62
     7
100
AcDbLine
 10
29.0138229048
 20
119.8493395354
 30
0.0
 11
29.0138229048
 21
121.2221637859
 31
0.0
  0
LINE
  5
164
330
15F
100
AcDbEntity
  8
$DDT_AUDIT_GENERATED_(7D)
  6
Continuous
 62
     7
100
AcDbLine
 10
29.0138229048
 20
119.6739076831
 30
0.0
 11
29.0138229048
 21
119.8501224751
 31
0.0
  0
ARC
  5
165
330
15F
100
AcDbEntity
  8
$DDT_AUDIT_GENERATED_(7D)
  6
Continuous
 62
     7
100
AcDbCircle
 10
41.608419598
 20
119.7448922375
 30
0.0
 40
12.59480613508501
100
AcDbArc
 50
180.3304260643
 51
270.4795020312
  0
LINE
  5
166
330
15F
100
AcDbEntity
  8
$DDT_AUDIT_GENERATED_(7D)
  6
Continuous
 62
     7
100
AcDbLine
 10
29.0138229048
 20
222.2435796003
 30
0.0
 11
29.0138229048
 21
188.8541796286
 31
0.0
  0
LINE
  5
167
330
15F
100
AcDbEntity
  8
$DDT_AUDIT_GENERATED_(7D)
  6
Continuous
 62
     7
100
AcDbLine
 10
29.0138229048
 20
188.8541796286
 30
0.0
 11
29.0138229048
 21
134.0265346785
 31
0.0
  0
LINE
  5
168
330
15F
100
AcDbEntity
  8
$DDT_AUDIT_GENERATED_(7D)
  6
Continuous
 62
     7
100
AcDbLine
 10
29.0138229048
 20
134.0265346785
 30
0.0
 11
29.0138229048
 21
121.2221655885
 31
0.0
  0
ARC
  5
169
330
15F
100
AcDbEntity
  8
$DDT_AUDIT_GENERATED_(7D)
  6
Continuous
 62
     7
100
AcDbCircle
 10
41.8192262116
 20
119.7448922375
 30
0.0
 40
12.59480613508518
100
AcDbArc
 50
269.5204979688
 51
359.6695739357
  0
LINE
  5
16A
330
15F
100
AcDbEntity
  8
$DDT_AUDIT_GENERATED_(7D)
  6
Continuous
 62
     7
100
AcDbLine
 10
54.4138229048
 20
119.6739076831
 30
0.0
 11
54.4138229048
 21
119.8501224751
 31
0.0
  0
LINE
  5
16B
330
15F
100
AcDbEntity
  8
$DDT_AUDIT_GENERATED_(7D)
  6
Continuous
 62
     7
100
AcDbLine
 10
54.4138229048
 20
119.8493395354
 30
0.0
 11
54.4138229048
 21
121.2221637859
 31
0.0
  0
LINE
  5
16C
330
15F
100
AcDbEntity
  8
$DDT_AUDIT_GENERATED_(7D)
  6
Continuous
 62
     7
100
AcDbLine
 10
54.4138229048
 20
222.2382930839
 30
0.0
 11
54.4138229048
 21
188.8541796286
 31
0.0
  0
LINE
  5
16D
330
15F
100
AcDbEntity
  8
$DDT_AUDIT_GENERATED_(7D)
  6
Continuous
 62
     7
100
AcDbLine
 10
54.4138229048
 20
188.8541796286
 30
0.0
 11
54.4138229048
 21
134.0265346785
 31
0.0
  0
LINE
  5
16E
330
15F
100
AcDbEntity
  8
$DDT_AUDIT_GENERATED_(7D)
  6
Continuous
 62
     7
100
AcDbLine
 10
54.4138229048
 20
134.0265346785
 30
0.0
 11
54.4138229048
 21
121.2221655885
 31
0.0
  0
ARC
  5
16F
330
15F
100
AcDbEntity
  8
$DDT_AUDIT_GENERATED_(A9)
  6
Continuous
 62
     7
100
AcDbCircle
 10
41.7138229048
 20
337.016338545
 30
0.0
 40
28.00000000000003
100
AcDbArc
 50
320.5833246214
 51
0.0
  0
ARC
  5
170
330
15F
100
AcDbEntity
  8
$DDT_AUDIT_GENERATED_(A9)
  6
Continuous
 62
     7
100
AcDbCircle
 10
41.7138229048
 20
337.016338545
 30
0.0
 40
28.00000000000003
100
AcDbArc
 50
0.0
 51
219.3378803585
  0
SPLINE
  5
171
330
15F
100
AcDbEntity
  8
$DDT_AUDIT_GENERATED_(BA)
  6
Continuous
 62
     7
100
AcDbSpline
210
0.0
220
0.0
230
1.0
 70
     8
 71
     3
 72
     8
 73
     4
 74
     0
 42
0.000000000112565
 43
0.0000000001
 40
0.8484321126842046
 40
0.8484321126842046
 40
0.8484321126842046
 40
0.8484321126842046
 40
0.8489504824313063
 40
0.8489504824313063
 40
0.8489504824313063
 40
0.8489504824313063
 10
17.43128604736641
 20
328.5472456177727
 30
0.0
 10
17.4263536634991
 20
328.5618020354552
 30
0.0
 10
17.42142604441422
 20
328.5763398275413
 30
0.0
 10
17.41650318185031
 20
328.5908590998579
 30
0.0
  0
SPLINE
  5
172
330
15F
100
AcDbEntity
  8
$DDT_AUDIT_GENERATED_(BA)
  6
Continuous
 62
     7
100
AcDbSpline
210
0.0
220
0.0
230
1.0
 70
     8
 71
     3
 72
     8
 73
     4
 74
     0
 42
0.000000000125607
 43
0.0000000001
 40
0.8157982670911809
 40
0.8157982670911809
 40
0.8157982670911809
 40
0.8157982670911809
 40
0.8168274752671857
 40
0.8168274752671857
 40
0.8168274752671857
 40
0.8168274752671857
 10
65.992641778046
 20
328.5138978565512
 30
0.0
 10
66.0014222957472
 20
328.5398207283189
 30
0.0
 10
66.01018928660005
 20
328.5656890607418
 30
0.0
 10
66.0189419727982
 20
328.5915010924791
 30
0.0
  0
ARC
  5
173
330
15F
100
AcDbEntity
  8
$DDT_AUDIT_GENERATED_(BA)
  6
Continuous
 62
     7
100
AcDbCircle
 10
63.3116994974
 20
337.3051442606
 30
0.0
 40
5.978120672835932
100
AcDbArc
 50
354.7135619421
 51
4.5236997319
  0
SPLINE
  5
174
330
15F
100
AcDbEntity
  8
$DDT_AUDIT_GENERATED_(BA)
  6
Continuous
 62
     7
100
AcDbSpline
210
0.0
220
0.0
230
1.0
 70
     8
 71
     3
 72
    34
 73
    30
 74
     0
 42
0.000000000118135
 43
0.0000000001
 40
0.0
 40
0.0
 40
0.0
 40
0.0
 40
0.1249999999999999
 40
0.1249999999999999
 40
0.1874999999999999
 40
0.1874999999999999
 40
0.2499999999999998
 40
0.2499999999999998
 40
0.3124999999999998
 40
0.3124999999999998
 40
0.3749999999999998
 40
0.3749999999999998
 40
0.4999999999999997
 40
0.4999999999999997
 40
0.5624999999999998
 40
0.5624999999999998
 40
0.6249999999999998
 40
0.6249999999999998
 40
0.6874999999999997
 40
0.6874999999999997
 40
0.7499999999999997
 40
0.7499999999999997
 40
0.8124999999999997
 40
0.8124999999999997
 40
0.8749999999999997
 40
0.8749999999999997
 40
0.9374999999999998
 40
0.9374999999999998
 40
1.0
 40
1.0
 40
1.0
 40
1.0
 10
69.27119709736048
 20
337.7766473197768
 30
0.0
 10
68.88313302009354
 20
341.2978071741501
 30
0.0
 10
68.00863280850946
 20
344.7389958305546
 30
0.0
 10
65.8617603911169
 20
349.5591474815005
 30
0.0
 10
64.99514859361743
 20
351.1204541941867
 30
0.0
 10
63.01542191781681
 20
354.0112845941935
 30
0.0
 10
61.90045972730665
 20
355.359187843299
 30
0.0
 10
59.41509042414276
 20
357.8558798495337
 30
0.0
 10
58.04661794626195
 20
358.9953215391208
 30
0.0
 10
55.15788581490962
 20
360.9646262477584
 30
0.0
 10
53.62374682471334
 20
361.8065016630086
 30
0.0
 10
48.7419152781539
 20
363.8877404183397
 30
0.0
 10
45.26393044003982
 20
364.6290411523992
 30
0.0
 10
39.96079610762628
 20
364.6321613393338
 30
0.0
 10
38.21974143971347
 20
364.4467159405172
 30
0.0
 10
34.78651658445695
 20
363.7338388371679
 30
0.0
 10
33.07961475887275
 20
363.1979149362457
 30
0.0
 10
29.84706006777948
 20
361.8236773849948
 30
0.0
 10
28.30861401256336
 20
360.9844037498604
 30
0.0
 10
25.38945192730841
 20
358.9975050873944
 30
0.0
 10
24.02589270986026
 20
357.860101469704
 30
0.0
 10
21.55243979474952
 20
355.378280631151
 30
0.0
 10
20.42455969184686
 20
354.0192499388056
 30
0.0
 10
18.42576098131244
 20
351.0986182521306
 30
0.0
 10
17.57693248822116
 20
349.5648973291942
 30
0.0
 10
16.15010224425536
 20
346.365425016603
 30
0.0
 10
15.56926904818652
 20
344.688733798968
 30
0.0
 10
14.67415154247558
 20
341.2722298343655
 30
0.0
 10
14.35804686921712
 20
339.5372211267286
 30
0.0
 10
14.16400577566311
 20
337.7766470649267
 30
0.0
  0
ARC
  5
175
330
15F
100
AcDbEntity
  8
$DDT_AUDIT_GENERATED_(BA)
  6
Continuous
 62
     7
100
AcDbCircle
 10
20.1248823177
 20
337.3051546021
 30
0.0
 40
5.979494484633746
100
AcDbArc
 50
175.4774436216
 51
185.2853185893
  0
SPLINE
  5
176
330
15F
100
AcDbEntity
  8
$DDT_AUDIT_GENERATED_(BA)
  6
Continuous
 62
     7
100
AcDbSpline
210
0.0
220
0.0
230
1.0
 70
     8
 71
     3
 72
    14
 73
    10
 74
     0
 42
0.0000000001162158
 43
0.0000000001
 40
0.0
 40
0.0
 40
0.0
 40
0.0
 40
0.0625
 40
0.0625
 40
0.1250000000000001
 40
0.1250000000000001
 40
0.1875000000000001
 40
0.1875000000000001
 40
0.2004626204752111
 40
0.2004626204752111
 40
0.2004626204752111
 40
0.2004626204752111
 10
14.17081064383033
 20
336.75435083093
 30
0.0
 10
14.26221700630421
 20
334.953552243077
 30
0.0
 10
14.50783682380377
 20
333.1569728142129
 30
0.0
 10
15.29925051118567
 20
329.6732683167285
 30
0.0
 10
15.84261494181461
 20
327.9781480652596
 30
0.0
 10
17.2414882840272
 20
324.6866973630372
 30
0.0
 10
18.10191490015107
 20
323.0873349711966
 30
0.0
 10
19.29394862129396
 20
321.2981147193186
 30
0.0
 10
19.50444243024113
 20
320.9950662641287
 30
0.0
 10
19.72072282467472
 20
320.6963544306283
 30
0.0
  0
SPLINE
  5
177
330
15F
100
AcDbEntity
  8
$DDT_AUDIT_GENERATED_(BA)
  6
Continuous
 62
     7
100
AcDbSpline
210
0.0
220
0.0
230
1.0
 70
     8
 71
     3
 72
    14
 73
    10
 74
     0
 42
0.0000000001161656
 43
0.0000000001
 40
0.7993644224264143
 40
0.7993644224264143
 40
0.7993644224264143
 40
0.7993644224264143
 40
0.8124999999999999
 40
0.8124999999999999
 40
0.8749999999999999
 40
0.8749999999999999
 40
0.9375
 40
0.9375
 40
1.0
 40
1.0
 40
1.0
 40
1.0
 10
63.70121385214665
 20
320.6785589385174
 30
0.0
 10
63.92292145370548
 20
320.9840345206997
 30
0.0
 10
64.1384650378398
 20
321.2939200112474
 30
0.0
 10
65.34207706953116
 20
323.1011822892822
 30
0.0
 10
66.18616101825809
 20
324.6706439029393
 30
0.0
 10
67.58415031761615
 20
327.956230649049
 30
0.0
 10
68.14019631073066
 20
329.6849734872838
 30
0.0
 10
68.93163105419094
 20
333.1784447335464
 30
0.0
 10
69.17301638808452
 20
334.9535513681097
 30
0.0
 10
69.26439243993288
 20
336.7543507324181
 30
0.0
  0
ARC
  5
178
330
15F
100
AcDbEntity
  8
$DDT_AUDIT_GENERATED_(BA)
  6
Continuous
 62
     7
100
AcDbCircle
 10
139.4646829306
 20
242.8586708951
 30
0.0
 40
114.2043009619178
100
AcDbArc
 50
182.0158338784
 51
183.4672363376
  0
ARC
  5
179
330
15F
100
AcDbEntity
  8
$DDT_AUDIT_GENERATED_(BA)
  6
Continuous
 62
     7
100
AcDbCircle
 10
-52.7555779626
 20
243.024346943
 30
0.0
 40
110.9394235169333
100
AcDbArc
 50
356.3449865839
 51
357.8113570594
  0
SPLINE
  5
17A
330
15F
100
AcDbEntity
  8
$DDT_AUDIT_GENERATED_(BA)
  6
Continuous
 62
     7
100
AcDbSpline
210
0.0
220
0.0
230
1.0
 70
     8
 71
     3
 72
    51
 73
    47
 74
     0
 42
0.0000000001717218
 43
0.0000000001
 40
0.0
 40
0.0
 40
0.0
 40
0.0
 40
0.0264390978753294
 40
0.0589406128076733
 40
0.0899220746480382
 40
0.1193108248890347
 40
0.1472173238010074
 40
0.1736927101615537
 40
0.1987199490493765
 40
0.2222784013192975
 40
0.2514692885755371
 40
0.2782433753683992
 40
0.3025216622901857
 40
0.3243698142576783
 40
0.3438042315043108
 40
0.3608992051806691
 40
0.3756796045351641
 40
0.3881133513111635
 40
0.3990735468865477
 40
0.4107982354474228
 40
0.4234014825930718
 40
0.4367948235068072
 40
0.458443998935802
 40
0.4819960365887352
 40
0.5073901036507248
 40
0.5343630311114325
 40
0.5610302402495095
 40
0.5872826776443139
 40
0.6130560961811455
 40
0.638304947136172
 40
0.6631378013646632
 40
0.6858580546399659
 40
0.7056151808029657
 40
0.7225202565460648
 40
0.7321517724910852
 40
0.7413090969656217
 40
0.7532940836721483
 40
0.7684474804275586
 40
0.7867575330117963
 40
0.8083067096608438
 40
0.8331441343531605
 40
0.8611720365075377
 40
0.8925981883134327
 40
0.927396010892525
 40
0.9657743725413754
 40
1.0
 40
1.0
 40
1.0
 40
1.0
 10
25.46981042324332
 20
235.9486937255922
 30
0.0
 10
25.51362671849433
 20
235.4016561077563
 30
0.0
 10
25.59588330775492
 20
234.3714196930616
 30
0.0
 10
25.73713207065308
 20
232.6437204622966
 30
0.0
 10
25.87276493480621
 20
230.9073983796328
 30
0.0
 10
26.01958229362695
 20
229.2444561417629
 30
0.0
 10
26.34985283790403
 20
227.6928836885607
 30
0.0
 10
26.79890600932846
 20
226.2539241430025
 30
0.0
 10
27.3540482532165
 20
224.9353900086257
 30
0.0
 10
28.05144020776326
 20
223.6202931528169
 30
0.0
 10
28.89804447633449
 20
222.3435938248135
 30
0.0
 10
29.88768861679197
 20
221.1437182153642
 30
0.0
 10
30.89291938467826
 20
220.1382977829735
 30
0.0
 10
31.87708099248489
 20
219.3109625757428
 30
0.0
 10
32.81217405964235
 20
218.640822826603
 30
0.0
 10
33.6761873277923
 20
218.1075653510453
 30
0.0
 10
34.45107602231113
 20
217.6911043518244
 30
0.0
 10
35.13783078480962
 20
217.3658249685948
 30
0.0
 10
35.78346919702879
 20
217.0940476896415
 30
0.0
 10
36.44458979569742
 20
216.8486247546792
 30
0.0
 10
37.16374461475286
 20
216.6179140330482
 30
0.0
 10
38.08692982373931
 20
216.3708650713184
 30
0.0
 10
39.24296702495636
 20
216.1412192667489
 30
0.0
 10
40.65691204694561
 20
215.982830082402
 30
0.0
 10
42.18838086386336
 20
215.9519273535157
 30
0.0
 10
43.77790784000155
 20
216.0757110312085
 30
0.0
 10
45.36102975003609
 20
216.3603859257926
 30
0.0
 10
46.88000339220547
 20
216.7922344647776
 30
0.0
 10
48.31709840889128
 20
217.3565505205569
 30
0.0
 10
49.6613454705615
 20
218.0391460137882
 30
0.0
 10
50.87757833741377
 20
218.8074745931296
 30
0.0
 10
51.92778835774714
 20
219.6104712013214
 30
0.0
 10
52.79059416471718
 20
220.3857469848222
 30
0.0
 10
53.41712731100205
 20
221.0321111816689
 30
0.0
 10
53.87366116798159
 20
221.5518863397791
 30
0.0
 10
54.25054092689363
 20
222.0129409801667
 30
0.0
 10
54.67233027560468
 20
222.5728522397708
 30
0.0
 10
55.16318566014252
 20
223.2977170409211
 30
0.0
 10
55.69961816631186
 20
224.2075795300856
 30
0.0
 10
56.24810616897154
 20
225.3171623444892
 30
0.0
 10
56.76450743596315
 20
226.6382216958432
 30
0.0
 10
57.20533926135697
 20
228.1777211607938
 30
0.0
 10
57.49280883831413
 20
229.9431344777644
 30
0.0
 10
57.62556523289207
 20
231.9049178100276
 30
0.0
 10
57.80072322876616
 20
233.9696286945725
 30
0.0
 10
57.90089923945031
 20
235.2393465690335
 30
0.0
 10
57.95778289213385
 20
235.9486667066891
 30
0.0
  0
SPLINE
  5
17B
330
15F
100
AcDbEntity
  8
$DDT_AUDIT_GENERATED_(BA)
  6
Continuous
 62
     7
100
AcDbSpline
210
0.0
220
0.0
230
1.0
 70
     8
 71
     3
 72
    58
 73
    54
 74
     0
 42
0.0000000001105822
 43
0.0000000001
 40
0.0007717596095328
 40
0.0007717596095328
 40
0.0007717596095328
 40
0.0007717596095328
 40
0.0173728325154255
 40
0.0317875828315208
 40
0.0432661554302419
 40
0.051768201521881
 40
0.0580008830102056
 40
0.0633922417830297
 40
0.0687996741504602
 40
0.0742221249677872
 40
0.0796585867194904
 40
0.0851839673363185
 40
0.0993689823381251
 40
0.115228471694576
 40
0.1367178043168603
 40
0.1606910442282471
 40
0.18695448183918
 40
0.2131906951387883
 40
0.2387660928339896
 40
0.2738802725514295
 40
0.3076215323349372
 40
0.340024379821204
 40
0.3714906476331779
 40
0.4031263922065403
 40
0.4349024444960447
 40
0.4673301583057885
 40
0.5099835132010101
 40
0.5536219722002179
 40
0.5986235178343875
 40
0.6203076686250015
 40
0.6422599946505388
 40
0.664522690897285
 40
0.6857922684611026
 40
0.7048236804638832
 40
0.7183899933399917
 40
0.7305816126686895
 40
0.7413898434941593
 40
0.7511783530176805
 40
0.7572761521337659
 40
0.7633525212677948
 40
0.7694090681206467
 40
0.7754973662394543
 40
0.782944952320601
 40
0.7937773129393227
 40
0.8071314090764252
 40
0.8229994937195658
 40
0.8413670150290253
 40
0.8622189789434896
 40
0.8855622617883339
 40
0.9114244243777327
 40
0.9397533752003544
 40
0.9705514364786041
 40
1.0
 40
1.0
 40
1.0
 40
1.0
 10
17.43278356763449
 20
328.5417903904764
 30
0.0
 10
17.54205040215564
 20
328.2128162849283
 30
0.0
 10
17.71714518926544
 20
327.683938688757
 30
0.0
 10
17.98440212251779
 20
326.8312613246779
 30
0.0
 10
18.20362142817517
 20
326.1200427628619
 30
0.0
 10
18.37510340979087
 20
325.552150509721
 30
0.0
 10
18.51315989687368
 20
325.0882873603587
 30
0.0
 10
18.63218138268299
 20
324.6837134780037
 30
0.0
 10
18.74565258672306
 20
324.2936822995445
 30
0.0
 10
18.85987813032766
 20
323.8965954193071
 30
0.0
 10
18.97513575557853
 20
323.4912910729418
 30
0.0
 10
19.15226090934635
 20
322.8612115176841
 30
0.0
 10
19.40292405745798
 20
321.9512132852383
 30
0.0
 10
19.76289773588591
 20
320.5977739751231
 30
0.0
 10
20.17991464673298
 20
318.9438186910029
 30
0.0
 10
20.64172610039375
 20
316.9579659151326
 30
0.0
 10
21.0953079804402
 20
314.7870517963385
 30
0.0
 10
21.51259749739429
 20
312.5220843137521
 30
0.0
 10
21.92554331243652
 20
309.9552027005424
 30
0.0
 10
22.28253538069594
 20
307.1179377422366
 30
0.0
 10
22.56818798083543
 20
304.0252491146714
 30
0.0
 10
22.79372633716909
 20
301.0135362550064
 30
0.0
 10
22.98584042520559
 20
298.0471201876443
 30
0.0
 10
23.16071382560602
 20
295.0887407373684
 30
0.0
 10
23.32693720104036
 20
292.0916564814492
 30
0.0
 10
23.50824916497248
 20
288.7434961865818
 30
0.0
 10
23.70364129733393
 20
285.0169231933757
 30
0.0
 10
23.90950583727831
 20
280.8977268478007
 30
0.0
 10
24.07091971056419
 20
277.4355579281099
 30
0.0
 10
24.19163264776024
 20
274.6532601964514
 30
0.0
 10
24.27765776753188
 20
272.5844327410982
 30
0.0
 10
24.35965630092265
 20
270.5283860507359
 30
0.0
 10
24.43509180806365
 20
268.5637325035802
 30
0.0
 10
24.49792333898598
 20
266.8718093218155
 30
0.0
 10
24.54883123805648
 20
265.464756747729
 30
0.0
 10
24.58957863947288
 20
264.3158325151948
 30
0.0
 10
24.62548360774913
 20
263.2854105223184
 30
0.0
 10
24.65426184900252
 20
262.4463081686748
 30
0.0
 10
24.67765163020079
 20
261.755865013382
 30
0.0
 10
24.69688689864393
 20
261.1826870463698
 30
0.0
 10
24.71593667440913
 20
260.6097510738545
 30
0.0
 10
24.73623502256488
 20
259.993643011845
 30
0.0
 10
24.76123242358247
 20
259.2272391507281
 30
0.0
 10
24.79325734759802
 20
258.2322050645639
 30
0.0
 10
24.8331256022494
 20
256.9721774358478
 30
0.0
 10
24.87957771798936
 20
255.4749493990344
 30
0.0
 10
24.93218018263575
 20
253.7417015917753
 30
0.0
 10
24.99043016903624
 20
251.7728433449381
 30
0.0
 10
25.05377471579489
 20
249.5688329395236
 30
0.0
 10
25.12167686015606
 20
247.1252446897484
 30
0.0
 10
25.19357807995072
 20
244.4639294445553
 30
0.0
 10
25.26686641363127
 20
241.6189470062624
 30
0.0
 10
25.30741456255799
 20
239.859992482186
 30
0.0
 10
25.33083271609494
 20
238.8400508058997
 30
0.0
  0
SPLINE
  5
17C
330
15F
100
AcDbEntity
  8
$DDT_AUDIT_GENERATED_(BA)
  6
Continuous
 62
     7
100
AcDbSpline
210
0.0
220
0.0
230
1.0
 70
     8
 71
     3
 72
    57
 73
    53
 74
     0
 42
0.0000000001105419
 43
0.0000000001
 40
0.0
 40
0.0
 40
0.0
 40
0.0
 40
0.0255534859129104
 40
0.0521504631326292
 40
0.076012504518788
 40
0.0971552152687311
 40
0.1155538034430861
 40
0.1311865086881186
 40
0.1529805963202993
 40
0.1755422241751173
 40
0.1989469903205113
 40
0.2108729370896441
 40
0.2216619286202465
 40
0.230900148307052
 40
0.2385915215104868
 40
0.2449020539658765
 40
0.2520644636577785
 40
0.2625026994959156
 40
0.2750974318915606
 40
0.2894718927843404
 40
0.3038320159739726
 40
0.3488105917111769
 40
0.3916520505673955
 40
0.4337595570723647
 40
0.4754326100748757
 40
0.517153683879786
 40
0.5567471454570262
 40
0.595885251355159
 40
0.6350531385552727
 40
0.6742744825096788
 40
0.7135552726357985
 40
0.7528645604439662
 40
0.7702238361287962
 40
0.788140640301971
 40
0.8065905028992876
 40
0.8255557513781482
 40
0.8444721758644579
 40
0.8616982754691552
 40
0.8771207557218134
 40
0.886837857946182
 40
0.896807941222263
 40
0.9080681417627245
 40
0.920631188466238
 40
0.9340429255876911
 40
0.951227491266902
 40
0.9664625729357157
 40
0.970304026750731
 40
0.9741094163221223
 40
0.977906143470919
 40
0.9830913511962549
 40
0.9904560190626044
 40
1.0
 40
1.0
 40
1.0
 40
1.0
 10
58.10307212041884
 20
238.7861812809507
 30
0.0
 10
58.12332580241495
 20
239.6721095116649
 30
0.0
 10
58.15831586158635
 20
241.1960841553806
 30
0.0
 10
58.22015850167313
 20
243.6400745602679
 30
0.0
 10
58.27988584664624
 20
245.8845467099209
 30
0.0
 10
58.33457009300812
 20
247.8846879921138
 30
0.0
 10
58.38315109847671
 20
249.6222026610785
 30
0.0
 10
58.43347190201953
 20
251.3807152042822
 30
0.0
 10
58.48888105769095
 20
253.2698557921865
 30
0.0
 10
58.55329054631945
 20
255.403470695107
 30
0.0
 10
58.60995820211941
 20
257.2260338908121
 30
0.0
 10
58.65620686675165
 20
258.6777880912549
 30
0.0
 10
58.68877331281421
 20
259.6835259518494
 30
0.0
 10
58.71744284450477
 20
260.5559025444909
 30
0.0
 10
58.74178761726681
 20
261.2872618933292
 30
0.0
 10
58.76419476624423
 20
261.9532161234087
 30
0.0
 10
58.78977177198867
 20
262.7054726134948
 30
0.0
 10
58.8225094868319
 20
263.6553159743573
 30
0.0
 10
58.86378864850826
 20
264.8318839604398
 30
0.0
 10
58.91035003004557
 20
266.1316622810454
 30
0.0
 10
58.99529890976906
 20
268.4495147158109
 30
0.0
 10
59.11876317371582
 20
271.6613960622578
 30
0.0
 10
59.28843016241469
 20
275.7431316669762
 30
0.0
 10
59.46923978216915
 20
279.7191230544339
 30
0.0
 10
59.66285381683562
 20
283.6583760677283
 30
0.0
 10
59.86243871069229
 20
287.5213402818428
 30
0.0
 10
60.06562648157067
 20
291.3016679484962
 30
0.0
 10
60.26879159096244
 20
294.9933647222182
 30
0.0
 10
60.4862850116478
 20
298.6611114680477
 30
0.0
 10
60.73089805732618
 20
302.3142103297163
 30
0.0
 10
61.0298713054443
 20
305.9386135205233
 30
0.0
 10
61.36056446649693
 20
308.8452611230166
 30
0.0
 10
61.68753367326606
 20
311.0677177446616
 30
0.0
 10
61.95003143394378
 20
312.6509070480586
 30
0.0
 10
62.24321000913108
 20
314.2600539850167
 30
0.0
 10
62.56484878737106
 20
315.8733230824654
 30
0.0
 10
62.90225681712237
 20
317.4245925087155
 30
0.0
 10
63.23581872962168
 20
318.8493779956838
 30
0.0
 10
63.52090575181315
 20
319.9978374576791
 30
0.0
 10
63.76251722633737
 20
320.9336752760332
 30
0.0
 10
63.97779368538801
 20
321.745236306714
 30
0.0
 10
64.21440624889246
 20
322.6144805468394
 30
0.0
 10
64.47590372962128
 20
323.5508992475708
 30
0.0
 10
64.77901188173502
 20
324.6067249532215
 30
0.0
 10
65.09743907624183
 20
325.6816184866541
 30
0.0
 10
65.34359037309761
 20
326.4839179783617
 30
0.0
 10
65.49588656425065
 20
326.9700824082558
 30
0.0
 10
65.57103236336131
 20
327.2080831511263
 30
0.0
 10
65.65563757761088
 20
327.4740445826364
 30
0.0
 10
65.75301907621046
 20
327.7767681786219
 30
0.0
 10
65.87780888485983
 20
328.1653912231945
 30
0.0
 10
65.96189345932898
 20
328.4192997486727
 30
0.0
 10
66.01794516642336
 20
328.5885614084169
 30
0.0
  0
ARC
  5
17D
330
15F
100
AcDbEntity
  8
$DDT_AUDIT_GENERATED_(D1)
  6
Continuous
 62
     7
100
AcDbCircle
 10
41.7135065881
 20
117.8430312592
 30
0.0
 40
11.49303125922461
100
AcDbArc
 50
214.9853562528
 51
325.0189651469
  0
ENDBLK
  5
17F
330
15F
100
AcDbEntity
  8
0
100
AcDbBlockEnd
  0
ENDSEC
  0
SECTION
  2
ENTITIES
  0
INSERT
  5
5F
330
1F
100
AcDbEntity
  8
Default
100
AcDbBlockReference
  2
SEANNOT_GROUP
 10
0.0
 20
0.0
 30
0.0
  0
INSERT
  5
65
330
1F
100
AcDbEntity
  8
Default
100
AcDbBlockReference
  2
SEANNOT_GROUP1
 10
0.0
 20
0.0
 30
0.0
  0
INSERT
  5
6A
330
1F
100
AcDbEntity
  8
Default
100
AcDbBlockReference
  2
SEANNOT_GROUP2
 10
0.0
 20
0.0
 30
0.0
  0
INSERT
  5
6F
330
1F
100
AcDbEntity
  8
Default
100
AcDbBlockReference
  2
SE
 10
0.0
 20
0.0
 30
0.0
  0
INSERT
  5
109
330
1F
100
AcDbEntity
  8
Default
100
AcDbBlockReference
  2
SE1
 10
0.0
 20
0.0
 30
0.0
  0
INSERT
  5
160
330
1F
100
AcDbEntity
  8
Default
100
AcDbBlockReference
  2
SE2
 10
0.0
 20
0.0
 30
0.0
  0
TEXT
  5
181
330
1F
100
AcDbEntity
  8
Default
  6
Continuous
 62
     7
100
AcDbText
 10
5.9362635081
 20
53.4225120485
 30
0.0
 40
10.0
  1
Grohe AG^J
  7
SEACAD_seiso_ttf
 11
5.9362635081
 21
63.4225120485
 31
0.0
100
AcDbText
 73
     3
  0
TEXT
  5
182
330
1F
100
AcDbEntity
  8
Default
  6
Continuous
 62
     7
100
AcDbText
 10
5.9362635081
 20
37.0588756849
 30
0.0
 40
10.0
  1
 
  7
SEACAD_seiso_ttf
 11
5.9362635081
 21
47.0588756849
 31
0.0
100
AcDbText
 73
     3
  0
TEXT
  5
183
330
1F
100
AcDbEntity
  8
Default
  6
Continuous
 62
     7
100
AcDbText
 10
5.9362635081
 20
20.6952393213
 30
0.0
 40
10.0
  1
ecn: 
  7
SEACAD_seiso_ttf
 11
5.9362635081
 21
30.6952393213
 31
0.0
100
AcDbText
 73
     3
  0
TEXT
  5
184
330
1F
100
AcDbEntity
  8
Default
  6
Continuous
 62
     7
100
AcDbText
 10
5.9362635081
 20
4.3316029576
 30
0.0
 40
10.0
  1
unit: mm
  7
SEACAD_seiso_ttf
 11
5.9362635081
 21
14.3316029576
 31
0.0
100
AcDbText
 73
     3
  0
LINE
  5
185
330
1F
100
AcDbEntity
  8
Default
  6
Continuous
 62
     7
100
AcDbLine
 10
0.0
 20
0.0
 30
0.0
 11
100.0
 21
0.0
 31
0.0
  0
LINE
  5
186
330
1F
100
AcDbEntity
  8
Default
  6
Continuous
 62
     7
100
AcDbLine
 10
0.0
 20
0.0
 30
0.0
 11
0.0
 21
100.0
 31
0.0
  0
TEXT
  5
187
330
1F
100
AcDbEntity
  8
Default
  6
Continuous
 62
     7
100
AcDbText
 10
24.3923665681
 20
-18.2375342018
 30
0.0
 40
10.0
  1
100 mm
  7
SEACAD_seiso_ttf
 11
24.3923665681
 21
-8.2375342018
 31
0.0
100
AcDbText
 73
     3
  0
TEXT
  5
188
330
1F
100
AcDbEntity
  8
Default
  6
Continuous
 62
     7
100
AcDbText
 10
-7.6150308803
 20
24.6231930421
 30
0.0
 40
10.0
  1
100 mm
 50
90.0
  7
SEACAD_seiso_ttf
 11
-17.6150308803
 21
24.6231930421
 31
0.0
100
AcDbText
 73
     3
  0
TEXT
  5
189
330
1F
100
AcDbEntity
  8
Default
  6
Continuous
 62
     7
100
AcDbText
 10
28.4878128572
 20
20.0907663715
 30
0.0
 40
10.0
  1
217916
  7
SEACAD_seiso_ttf
 11
28.4878128572
 21
30.0907663715
 31
0.0
100
AcDbText
 73
     3
  0
TEXT
  5
18A
330
1F
100
AcDbEntity
  8
Default
  6
Continuous
 62
     7
100
AcDbText
 10
5.9012241913
 20
36.7242780188
 30
0.0
 40
10.0
  1
32787000
  7
SEACAD_seiso_ttf
 11
5.9012241913
 21
46.7242780188
 31
0.0
100
AcDbText
 73
     3
  0
ENDSEC
  0
SECTION
  2
OBJECTS
  0
DICTIONARY
  5
C
330
0
100
AcDbDictionary
281
     1
  3
ACAD_GROUP
350
D
  3
ACAD_LAYOUT
350
1A
  3
ACAD_MLEADERSTYLE
350
18E
  3
ACAD_MLINESTYLE
350
17
  3
ACAD_PLOTSETTINGS
350
19
  3
ACAD_PLOTSTYLENAME
350
E
  3
ACAD_SCALELIST
350
3B
  3
ACAD_TABLESTYLE
350
18D
  3
ACAD_VISUALSTYLE
350
2A
  3
AcDbVariableDictionary
350
18B
  0
DICTIONARY
  5
D
102
{ACAD_REACTORS
330
C
102
}
330
C
100
AcDbDictionary
281
     1
  0
DICTIONARY
  5
1A
102
{ACAD_REACTORS
330
C
102
}
330
C
100
AcDbDictionary
281
     1
  3
Layout1
350
1E
  3
Model
350
22
  0
DICTIONARY
  5
18E
102
{ACAD_REACTORS
330
C
102
}
330
C
100
AcDbDictionary
281
     1
  0
DICTIONARY
  5
17
102
{ACAD_REACTORS
330
C
102
}
330
C
100
AcDbDictionary
281
     1
  3
Standard
350
18
  0
DICTIONARY
  5
19
102
{ACAD_REACTORS
330
C
102
}
330
C
100
AcDbDictionary
281
     1
  0
ACDBDICTIONARYWDFLT
  5
E
102
{ACAD_REACTORS
330
C
102
}
330
C
100
AcDbDictionary
281
     1
  3
Normal
350
F
100
AcDbDictionaryWithDefault
340
F
  0
DICTIONARY
  5
3B
102
{ACAD_REACTORS
330
C
102
}
330
C
100
AcDbDictionary
281
     1
  3
A0
350
3C
  3
A1
350
3D
  3
A2
350
3E
  3
A3
350
3F
  3
A4
350
40
  3
A5
350
41
  3
A6
350
42
  3
A7
350
43
  3
A8
350
44
  3
A9
350
45
  3
B0
350
46
  3
B1
350
47
  3
B2
350
48
  3
B3
350
49
  3
B4
350
4A
  3
B5
350
4B
  3
B6
350
4C
  3
B7
350
4D
  3
B8
350
4E
  3
B9
350
4F
  3
C0
350
50
  3
C1
350
51
  3
C2
350
52
  3
C3
350
53
  3
C4
350
54
  3
C5
350
55
  3
C6
350
56
  3
C7
350
57
  3
C8
350
58
  3
C9
350
59
  3
D0
350
5A
  3
D1
350
5B
  3
D2
350
5C
  0
DICTIONARY
  5
18D
102
{ACAD_REACTORS
330
C
102
}
330
C
100
AcDbDictionary
281
     1
  0
DICTIONARY
  5
2A
102
{ACAD_REACTORS
330
C
102
}
330
C
100
AcDbDictionary
281
     1
  3
2dWireframe
350
2F
  3
3D Hidden
350
31
  3
3dWireframe
350
30
  3
Basic
350
32
  3
Brighten
350
36
  3
ColorChange
350
3A
  3
Conceptual
350
34
  3
Dim
350
35
  3
Facepattern
350
39
  3
Flat
350
2B
  3
FlatWithEdges
350
2C
  3
Gouraud
350
2D
  3
GouraudWithEdges
350
2E
  3
Linepattern
350
38
  3
Realistic
350
33
  3
Thicken
350
37
  0
DICTIONARY
  5
18B
102
{ACAD_REACTORS
330
C
102
}
330
C
100
AcDbDictionary
281
     1
  3
CANNOSCALE
350
18C
  3
PSOLHEIGHT
350
190
  3
PSOLWIDTH
350
18F
  0
LAYOUT
  5
1E
102
{ACAD_REACTORS
330
1A
102
}
330
1A
100
AcDbPlotSettings
  1

  2
none_device
  4

  6

 40
0.0
 41
0.0
 42
0.0
 43
0.0
 44
0.0
 45
0.0
 46
0.0
 47
0.0
 48
0.0
 49
0.0
140
0.0
141
0.0
142
1.0
143
1.0
 70
   688
 72
     0
 73
     0
 74
     5
  7

 75
    16
147
1.0
148
0.0
149
0.0
100
AcDbLayout
  1
Layout1
 70
     1
 71
     1
 10
0.0
 20
0.0
 11
1682.0
 21
2378.0
 12
0.0
 22
0.0
 32
0.0
 14
0.0
 24
0.0
 34
0.0
 15
1682.0
 25
2378.0
 35
0.0
146
0.0
 13
0.0
 23
0.0
 33
0.0
 16
1.0
 26
0.0
 36
0.0
 17
0.0
 27
1.0
 37
0.0
 76
     0
330
1B
  0
LAYOUT
  5
22
102
{ACAD_REACTORS
330
1A
102
}
330
1A
100
AcDbPlotSettings
  1

  2
none_device
  4

  6

 40
0.0
 41
0.0
 42
0.0
 43
0.0
 44
0.0
 45
0.0
 46
0.0
 47
0.0
 48
0.0
 49
0.0
140
0.0
141
0.0
142
1.0
143
1.0
 70
  1712
 72
     0
 73
     0
 74
     0
  7

 75
     0
147
1.0
148
0.0
149
0.0
100
AcDbLayout
  1
Model
 70
     1
 71
     0
 10
0.0
 20
0.0
 11
1682.0
 21
2378.0
 12
0.0
 22
0.0
 32
0.0
 14
0.0
 24
0.0
 34
0.0
 15
1682.0
 25
2378.0
 35
0.0
146
0.0
 13
0.0
 23
0.0
 33
0.0
 16
1.0
 26
0.0
 36
0.0
 17
0.0
 27
1.0
 37
0.0
 76
     0
330
1F
331
29
  0
MLINESTYLE
  5
18
102
{ACAD_REACTORS
330
17
102
}
330
17
100
AcDbMlineStyle
  2
Standard
 70
     0
  3

 62
   256
 51
90.0
 52
90.0
 71
     2
 49
0.5
 62
   256
  6
BYLAYER
 49
-0.5
 62
   256
  6
BYLAYER
  0
ACDBPLACEHOLDER
  5
F
102
{ACAD_REACTORS
330
E
102
}
330
E
  0
SCALE
  5
3C
102
{ACAD_REACTORS
330
3B
102
}
330
3B
100
AcDbScale
 70
     0
300
1:1
140
1.0
141
1.0
290
     1
  0
SCALE
  5
3D
102
{ACAD_REACTORS
330
3B
102
}
330
3B
100
AcDbScale
 70
     0
300
1:2
140
1.0
141
2.0
290
     0
  0
SCALE
  5
3E
102
{ACAD_REACTORS
330
3B
102
}
330
3B
100
AcDbScale
 70
     0
300
1:4
140
1.0
141
4.0
290
     0
  0
SCALE
  5
3F
102
{ACAD_REACTORS
330
3B
102
}
330
3B
100
AcDbScale
 70
     0
300
1:5
140
1.0
141
5.0
290
     0
  0
SCALE
  5
40
102
{ACAD_REACTORS
330
3B
102
}
330
3B
100
AcDbScale
 70
     0
300
1:8
140
1.0
141
8.0
290
     0
  0
SCALE
  5
41
102
{ACAD_REACTORS
330
3B
102
}
330
3B
100
AcDbScale
 70
     0
300
1:10
140
1.0
141
10.0
290
     0
  0
SCALE
  5
42
102
{ACAD_REACTORS
330
3B
102
}
330
3B
100
AcDbScale
 70
     0
300
1:16
140
1.0
141
16.0
290
     0
  0
SCALE
  5
43
102
{ACAD_REACTORS
330
3B
102
}
330
3B
100
AcDbScale
 70
     0
300
1:20
140
1.0
141
20.0
290
     0
  0
SCALE
  5
44
102
{ACAD_REACTORS
330
3B
102
}
330
3B
100
AcDbScale
 70
     0
300
1:30
140
1.0
141
30.0
290
     0
  0
SCALE
  5
45
102
{ACAD_REACTORS
330
3B
102
}
330
3B
100
AcDbScale
 70
     0
300
1:40
140
1.0
141
40.0
290
     0
  0
SCALE
  5
46
102
{ACAD_REACTORS
330
3B
102
}
330
3B
100
AcDbScale
 70
     0
300
1:50
140
1.0
141
50.0
290
     0
  0
SCALE
  5
47
102
{ACAD_REACTORS
330
3B
102
}
330
3B
100
AcDbScale
 70
     0
300
1:100
140
1.0
141
100.0
290
     0
  0
SCALE
  5
48
102
{ACAD_REACTORS
330
3B
102
}
330
3B
100
AcDbScale
 70
     0
300
2:1
140
2.0
141
1.0
290
     0
  0
SCALE
  5
49
102
{ACAD_REACTORS
330
3B
102
}
330
3B
100
AcDbScale
 70
     0
300
4:1
140
4.0
141
1.0
290
     0
  0
SCALE
  5
4A
102
{ACAD_REACTORS
330
3B
102
}
330
3B
100
AcDbScale
 70
     0
300
8:1
140
8.0
141
1.0
290
     0
  0
SCALE
  5
4B
102
{ACAD_REACTORS
330
3B
102
}
330
3B
100
AcDbScale
 70
     0
300
10:1
140
10.0
141
1.0
290
     0
  0
SCALE
  5
4C
102
{ACAD_REACTORS
330
3B
102
}
330
3B
100
AcDbScale
 70
     0
300
100:1
140
100.0
141
1.0
290
     0
  0
SCALE
  5
4D
102
{ACAD_REACTORS
330
3B
102
}
330
3B
100
AcDbScale
 70
     0
300
1/128" = 1'-0"
140
0.0078125
141
12.0
290
     0
  0
SCALE
  5
4E
102
{ACAD_REACTORS
330
3B
102
}
330
3B
100
AcDbScale
 70
     0
300
1/64" = 1'-0"
140
0.015625
141
12.0
290
     0
  0
SCALE
  5
4F
102
{ACAD_REACTORS
330
3B
102
}
330
3B
100
AcDbScale
 70
     0
300
1/32" = 1'-0"
140
0.03125
141
12.0
290
     0
  0
SCALE
  5
50
102
{ACAD_REACTORS
330
3B
102
}
330
3B
100
AcDbScale
 70
     0
300
1/16" = 1'-0"
140
0.0625
141
12.0
290
     0
  0
SCALE
  5
51
102
{ACAD_REACTORS
330
3B
102
}
330
3B
100
AcDbScale
 70
     0
300
3/32" = 1'-0"
140
0.09375
141
12.0
290
     0
  0
SCALE
  5
52
102
{ACAD_REACTORS
330
3B
102
}
330
3B
100
AcDbScale
 70
     0
300
1/8" = 1'-0"
140
0.125
141
12.0
290
     0
  0
SCALE
  5
53
102
{ACAD_REACTORS
330
3B
102
}
330
3B
100
AcDbScale
 70
     0
300
3/16" = 1'-0"
140
0.1875
141
12.0
290
     0
  0
SCALE
  5
54
102
{ACAD_REACTORS
330
3B
102
}
330
3B
100
AcDbScale
 70
     0
300
1/4" = 1'-0"
140
0.25
141
12.0
290
     0
  0
SCALE
  5
55
102
{ACAD_REACTORS
330
3B
102
}
330
3B
100
AcDbScale
 70
     0
300
3/8" = 1'-0"
140
0.375
141
12.0
290
     0
  0
SCALE
  5
56
102
{ACAD_REACTORS
330
3B
102
}
330
3B
100
AcDbScale
 70
     0
300
1/2" = 1'-0"
140
0.5
141
12.0
290
     0
  0
SCALE
  5
57
102
{ACAD_REACTORS
330
3B
102
}
330
3B
100
AcDbScale
 70
     0
300
3/4" = 1'-0"
140
0.75
141
12.0
290
     0
  0
SCALE
  5
58
102
{ACAD_REACTORS
330
3B
102
}
330
3B
100
AcDbScale
 70
     0
300
1" = 1'-0"
140
1.0
141
12.0
290
     0
  0
SCALE
  5
59
102
{ACAD_REACTORS
330
3B
102
}
330
3B
100
AcDbScale
 70
     0
300
1-1/2" = 1'-0"
140
1.5
141
12.0
290
     0
  0
SCALE
  5
5A
102
{ACAD_REACTORS
330
3B
102
}
330
3B
100
AcDbScale
 70
     0
300
3" = 1'-0"
140
3.0
141
12.0
290
     0
  0
SCALE
  5
5B
102
{ACAD_REACTORS
330
3B
102
}
330
3B
100
AcDbScale
 70
     0
300
6" = 1'-0"
140
6.0
141
12.0
290
     0
  0
SCALE
  5
5C
102
{ACAD_REACTORS
330
3B
102
}
330
3B
100
AcDbScale
 70
     0
300
1'-0" = 1'-0"
140
12.0
141
12.0
290
     0
  0
VISUALSTYLE
  5
2F
102
{ACAD_REACTORS
330
2A
102
}
330
2A
100
AcDbVisualStyle
  2
2dWireframe
 70
     4
 71
     0
 72
     2
 73
     0
 90
        0
 40
-0.6
 41
-30.0
 62
     5
 63
     7
 74
     1
 91
        4
 64
     7
 65
   257
 75
     1
175
     1
 42
1.0
 92
        0
 66
   257
 43
1.0
 76
     1
 77
     6
 78
     2
 67
     7
 79
     5
170
     0
171
     0
290
     0
174
     0
 93
        1
 44
0.0
173
     0
291
     0
 45
0.0
1001
ACAD
1000
AcDbSavedByObjectVersion
1070
     0
  0
VISUALSTYLE
  5
31
102
{ACAD_REACTORS
330
2A
102
}
330
2A
100
AcDbVisualStyle
  2
3D Hidden
 70
     6
 71
     1
 72
     2
 73
     2
 90
        0
 40
-0.6
 41
-30.0
 62
     5
 63
     7
 74
     2
 91
        2
 64
     7
 65
   257
 75
     2
175
     1
 42
40.0
 92
        0
 66
   257
 43
1.0
 76
     1
 77
     6
 78
     2
 67
     7
 79
     3
170
     0
171
     0
290
     0
174
     0
 93
        1
 44
0.0
173
     0
291
     0
 45
0.0
1001
ACAD
1000
AcDbSavedByObjectVersion
1070
     0
  0
VISUALSTYLE
  5
30
102
{ACAD_REACTORS
330
2A
102
}
330
2A
100
AcDbVisualStyle
  2
3dWireframe
 70
     5
 71
     0
 72
     2
 73
     0
 90
        0
 40
-0.6
 41
-30.0
 62
     5
 63
     7
 74
     1
 91
        4
 64
     7
 65
   257
 75
     1
175
     1
 42
1.0
 92
        0
 66
   257
 43
1.0
 76
     1
 77
     6
 78
     2
 67
     7
 79
     5
170
     0
171
     0
290
     0
174
     0
 93
        1
 44
0.0
173
     0
291
     0
 45
0.0
1001
ACAD
1000
AcDbSavedByObjectVersion
1070
     0
  0
VISUALSTYLE
  5
32
102
{ACAD_REACTORS
330
2A
102
}
330
2A
100
AcDbVisualStyle
  2
Basic
 70
     7
 71
     1
 72
     0
 73
     1
 90
        0
 40
-0.6
 41
-30.0
 62
     5
 63
     7
 74
     0
 91
        4
 64
     7
 65
   257
 75
     1
175
     1
 42
1.0
 92
        8
 66
     7
 43
1.0
 76
     1
 77
     6
 78
     2
 67
     7
 79
     5
170
     0
171
     0
290
     0
174
     0
 93
        1
 44
0.0
173
     0
291
     1
 45
0.0
1001
ACAD
1000
AcDbSavedByObjectVersion
1070
     0
  0
VISUALSTYLE
  5
36
102
{ACAD_REACTORS
330
2A
102
}
330
2A
100
AcDbVisualStyle
  2
Brighten
 70
    12
 71
     2
 72
     2
 73
     0
 90
        0
 40
-0.6
 41
-30.0
 62
     5
 63
     7
 74
     1
 91
        4
 64
     7
 65
   257
 75
     1
175
     1
 42
1.0
 92
        8
 66
     7
 43
1.0
 76
     1
 77
     6
 78
     2
 67
     7
 79
     5
170
     0
171
     0
290
     0
174
     0
 93
        1
 44
50.0
173
     0
291
     1
 45
0.0
1001
ACAD
1000
AcDbSavedByObjectVersion
1070
     0
  0
VISUALSTYLE
  5
3A
102
{ACAD_REACTORS
330
2A
102
}
330
2A
100
AcDbVisualStyle
  2
ColorChange
 70
    16
 71
     2
 72
     2
 73
     3
 90
        0
 40
-0.6
 41
-30.0
 62
     5
 63
     8
 74
     1
 91
        4
 64
     7
 65
   257
 75
     1
175
     1
 42
1.0
 92
        8
 66
     8
 43
1.0
 76
     1
 77
     6
 78
     2
 67
     7
 79
     5
170
     0
171
     0
290
     0
174
     0
 93
        1
 44
0.0
173
     0
291
     1
 45
0.0
1001
ACAD
1000
AcDbSavedByObjectVersion
1070
     0
  0
VISUALSTYLE
  5
34
102
{ACAD_REACTORS
330
2A
102
}
330
2A
100
AcDbVisualStyle
  2
Conceptual
 70
     9
 71
     3
 72
     2
 73
     0
 90
        0
 40
-0.6
 41
-30.0
 62
     5
 63
     7
 74
     2
 91
        2
 64
     7
 65
   257
 75
     1
175
     1
 42
40.0
 92
        8
 66
     7
 43
1.0
 76
     1
 77
     6
 78
     2
 67
     7
 79
     3
170
     0
171
     0
290
     0
174
     0
 93
        1
 44
0.0
173
     0
291
     0
 45
0.0
1001
ACAD
1000
AcDbSavedByObjectVersion
1070
     0
  0
VISUALSTYLE
  5
35
102
{ACAD_REACTORS
330
2A
102
}
330
2A
100
AcDbVisualStyle
  2
Dim
 70
    11
 71
     2
 72
     2
 73
     0
 90
        0
 40
-0.6
 41
-30.0
 62
     5
 63
     7
 74
     1
 91
        4
 64
     7
 65
   257
 75
     1
175
     1
 42
1.0
 92
        8
 66
     7
 43
1.0
 76
     1
 77
     6
 78
     2
 67
     7
 79
     5
170
     0
171
     0
290
     0
174
     0
 93
        1
 44
-50.0
173
     0
291
     1
 45
0.0
1001
ACAD
1000
AcDbSavedByObjectVersion
1070
     0
  0
VISUALSTYLE
  5
39
102
{ACAD_REACTORS
330
2A
102
}
330
2A
100
AcDbVisualStyle
  2
Facepattern
 70
    15
 71
     2
 72
     2
 73
     0
 90
        0
 40
-0.6
 41
-30.0
 62
     5
 63
     7
 74
     1
 91
        4
 64
     7
 65
   257
 75
     1
175
     1
 42
1.0
 92
        8
 66
     7
 43
1.0
 76
     1
 77
     6
 78
     2
 67
     7
 79
     5
170
     0
171
     0
290
     0
174
     0
 93
        1
 44
0.0
173
     0
291
     1
 45
0.0
1001
ACAD
1000
AcDbSavedByObjectVersion
1070
     0
  0
VISUALSTYLE
  5
2B
102
{ACAD_REACTORS
330
2A
102
}
330
2A
100
AcDbVisualStyle
  2
Flat
 70
     0
 71
     2
 72
     1
 73
     1
 90
        2
 40
-0.6
 41
30.0
 62
     5
 63
     7
 74
     0
 91
        4
 64
     7
 65
   257
 75
     1
175
     1
 42
1.0
 92
        8
 66
     7
 43
1.0
 76
     1
 77
     6
 78
     2
 67
     7
 79
     5
170
     0
171
     0
290
     0
174
     0
 93
       13
 44
0.0
173
     0
291
     1
 45
0.0
1001
ACAD
1000
AcDbSavedByObjectVersion
1070
     0
  0
VISUALSTYLE
  5
2C
102
{ACAD_REACTORS
330
2A
102
}
330
2A
100
AcDbVisualStyle
  2
FlatWithEdges
 70
     1
 71
     2
 72
     1
 73
     1
 90
        2
 40
-0.6
 41
30.0
 62
     5
 63
     7
 74
     1
 91
        4
 64
     7
 65
   257
 75
     1
175
     1
 42
1.0
 92
        0
 66
   257
 43
1.0
 76
     1
 77
     6
 78
     2
 67
     7
 79
     5
170
     0
171
     0
290
     0
174
     0
 93
       13
 44
0.0
173
     0
291
     1
 45
0.0
1001
ACAD
1000
AcDbSavedByObjectVersion
1070
     0
  0
VISUALSTYLE
  5
2D
102
{ACAD_REACTORS
330
2A
102
}
330
2A
100
AcDbVisualStyle
  2
Gouraud
 70
     2
 71
     2
 72
     2
 73
     1
 90
        2
 40
-0.6
 41
30.0
 62
     5
 63
     7
 74
     0
 91
        4
 64
     7
 65
   257
 75
     1
175
     1
 42
1.0
 92
        0
 66
     7
 43
1.0
 76
     1
 77
     6
 78
     2
 67
     7
 79
     5
170
     0
171
     0
290
     0
174
     0
 93
       13
 44
0.0
173
     0
291
     1
 45
0.0
1001
ACAD
1000
AcDbSavedByObjectVersion
1070
     0
  0
VISUALSTYLE
  5
2E
102
{ACAD_REACTORS
330
2A
102
}
330
2A
100
AcDbVisualStyle
  2
GouraudWithEdges
 70
     3
 71
     2
 72
     2
 73
     1
 90
        2
 40
-0.6
 41
30.0
 62
     5
 63
     7
 74
     1
 91
        4
 64
     7
 65
   257
 75
     1
175
     1
 42
1.0
 92
        0
 66
   257
 43
1.0
 76
     1
 77
     6
 78
     2
 67
     7
 79
     5
170
     0
171
     0
290
     0
174
     0
 93
       13
 44
0.0
173
     0
291
     1
 45
0.0
1001
ACAD
1000
AcDbSavedByObjectVersion
1070
     0
  0
VISUALSTYLE
  5
38
102
{ACAD_REACTORS
330
2A
102
}
330
2A
100
AcDbVisualStyle
  2
Linepattern
 70
    14
 71
     2
 72
     2
 73
     0
 90
        0
 40
-0.6
 41
-30.0
 62
     5
 63
     7
 74
     1
 91
        4
 64
     7
 65
   257
 75
     7
175
     7
 42
1.0
 92
        8
 66
     7
 43
1.0
 76
     1
 77
     6
 78
     2
 67
     7
 79
     5
170
     0
171
     0
290
     0
174
     0
 93
        1
 44
0.0
173
     0
291
     1
 45
0.0
1001
ACAD
1000
AcDbSavedByObjectVersion
1070
     0
  0
VISUALSTYLE
  5
33
102
{ACAD_REACTORS
330
2A
102
}
330
2A
100
AcDbVisualStyle
  2
Realistic
 70
     8
 71
     2
 72
     2
 73
     0
 90
        0
 40
-0.6
 41
-30.0
 62
     5
 63
     7
 74
     1
 91
        0
 64
     7
 65
   257
 75
     1
175
     1
 42
1.0
 92
        8
 66
     8
 43
1.0
 76
     1
 77
     6
 78
     2
 67
     7
 79
     5
170
     0
171
     0
290
     0
174
     0
 93
       13
 44
0.0
173
     0
291
     0
 45
0.0
1001
ACAD
1000
AcDbSavedByObjectVersion
1070
     0
  0
VISUALSTYLE
  5
37
102
{ACAD_REACTORS
330
2A
102
}
330
2A
100
AcDbVisualStyle
  2
Thicken
 70
    13
 71
     2
 72
     2
 73
     0
 90
        0
 40
-0.6
 41
-30.0
 62
     5
 63
     7
 74
     1
 91
        4
 64
     7
 65
   257
 75
     1
175
     1
 42
1.0
 92
       12
 66
     7
 43
1.0
 76
     1
 77
     6
 78
     2
 67
     7
 79
     5
170
     0
171
     0
290
     0
174
     0
 93
        1
 44
0.0
173
     0
291
     1
 45
0.0
1001
ACAD
1000
AcDbSavedByObjectVersion
1070
     0
  0
DICTIONARYVAR
  5
18C
102
{ACAD_REACTORS
330
18B
102
}
330
18B
100
DictionaryVariables
280
     0
  1
1:1
  0
DICTIONARYVAR
  5
190
102
{ACAD_REACTORS
330
18B
102
}
330
18B
100
DictionaryVariables
280
     0
  1
80.000000
  0
DICTIONARYVAR
  5
18F
102
{ACAD_REACTORS
330
18B
102
}
330
18B
100
DictionaryVariables
280
     0
  1
5.000000
  0
ENDSEC
  0
EOF
