  0
SECTION
  2
HEADER
  9
$ACADVER
  1
AC1015
  9
$ACADMAINTVER
 70
     6
  9
$DWGCODEPAGE
  3
ANSI_1252
  9
$INSBASE
 10
0.0
 20
0.0
 30
0.0
  9
$EXTMIN
 10
0.0
 20
0.0
 30
0.0
  9
$EXTMAX
 10
1682.0
 20
2378.0
 30
0.0
  9
$LIMMIN
 10
0.0
 20
0.0
  9
$LIMMAX
 10
1682.0
 20
2378.0
  9
$ORTHOMODE
 70
     0
  9
$REGENMODE
 70
     1
  9
$FILLMODE
 70
     1
  9
$QTEXTMODE
 70
     0
  9
$MIRRTEXT
 70
     1
  9
$LTSCALE
 40
1.0
  9
$ATTMODE
 70
     1
  9
$TEXTSIZE
 40
2.5
  9
$TRACEWID
 40
1.0
  9
$TEXTSTYLE
  7
Standard
  9
$CLAYER
  8
0
  9
$CELTYPE
  6
ByLayer
  9
$CECOLOR
 62
   256
  9
$CELTSCALE
 40
1.0
  9
$DISPSILH
 70
     0
  9
$DIMSCALE
 40
1.0
  9
$DIMASZ
 40
2.5
  9
$DIMEXO
 40
0.625
  9
$DIMDLI
 40
3.75
  9
$DIMRND
 40
0.0
  9
$DIMDLE
 40
0.0
  9
$DIMEXE
 40
1.25
  9
$DIMTP
 40
0.0
  9
$DIMTM
 40
0.0
  9
$DIMTXT
 40
2.5
  9
$DIMCEN
 40
2.5
  9
$DIMTSZ
 40
0.0
  9
$DIMTOL
 70
     0
  9
$DIMLIM
 70
     0
  9
$DIMTIH
 70
     0
  9
$DIMTOH
 70
     0
  9
$DIMSE1
 70
     0
  9
$DIMSE2
 70
     0
  9
$DIMTAD
 70
     1
  9
$DIMZIN
 70
     8
  9
$DIMBLK
  1

  9
$DIMASO
 70
     1
  9
$DIMSHO
 70
     1
  9
$DIMPOST
  1

  9
$DIMAPOST
  1

  9
$DIMALT
 70
     0
  9
$DIMALTD
 70
     3
  9
$DIMALTF
 40
0.0393700787
  9
$DIMLFAC
 40
1.0
  9
$DIMTOFL
 70
     1
  9
$DIMTVP
 40
0.0
  9
$DIMTIX
 70
     0
  9
$DIMSOXD
 70
     0
  9
$DIMSAH
 70
     0
  9
$DIMBLK1
  1

  9
$DIMBLK2
  1

  9
$DIMSTYLE
  2
ISO-25
  9
$DIMCLRD
 70
     0
  9
$DIMCLRE
 70
     0
  9
$DIMCLRT
 70
     0
  9
$DIMTFAC
 40
1.0
  9
$DIMGAP
 40
0.625
  9
$DIMJUST
 70
     0
  9
$DIMSD1
 70
     0
  9
$DIMSD2
 70
     0
  9
$DIMTOLJ
 70
     0
  9
$DIMTZIN
 70
     8
  9
$DIMALTZ
 70
     0
  9
$DIMALTTZ
 70
     0
  9
$DIMUPT
 70
     0
  9
$DIMDEC
 70
     2
  9
$DIMTDEC
 70
     2
  9
$DIMALTU
 70
     2
  9
$DIMALTTD
 70
     3
  9
$DIMTXSTY
  7
Standard
  9
$DIMAUNIT
 70
     0
  9
$DIMADEC
 70
     0
  9
$DIMALTRND
 40
0.0
  9
$DIMAZIN
 70
     0
  9
$DIMDSEP
 70
    44
  9
$DIMATFIT
 70
     3
  9
$DIMFRAC
 70
     0
  9
$DIMLDRBLK
  1

  9
$DIMLUNIT
 70
     2
  9
$DIMLWD
 70
    -2
  9
$DIMLWE
 70
    -2
  9
$DIMTMOVE
 70
     0
  9
$LUNITS
 70
     2
  9
$LUPREC
 70
     4
  9
$SKETCHINC
 40
1.0
  9
$FILLETRAD
 40
10.0
  9
$AUNITS
 70
     0
  9
$AUPREC
 70
     0
  9
$MENU
  1
.
  9
$ELEVATION
 40
0.0
  9
$PELEVATION
 40
0.0
  9
$THICKNESS
 40
0.0
  9
$LIMCHECK
 70
     0
  9
$CHAMFERA
 40
10.0
  9
$CHAMFERB
 40
10.0
  9
$CHAMFERC
 40
20.0
  9
$CHAMFERD
 40
0.0
  9
$SKPOLY
 70
     0
  9
$TDCREATE
 40
2455306.461916933
  9
$TDUCREATE
 40
2455306.378583599
  9
$TDUPDATE
 40
2455306.461916944
  9
$TDUUPDATE
 40
2455306.378583611
  9
$TDINDWG
 40
0.0000000116
  9
$TDUSRTIMER
 40
0.0000000116
  9
$USRTIMER
 70
     1
  9
$ANGBASE
 50
0.0
  9
$ANGDIR
 70
     0
  9
$PDMODE
 70
     0
  9
$PDSIZE
 40
0.0
  9
$PLINEWID
 40
0.0
  9
$SPLFRAME
 70
     0
  9
$SPLINETYPE
 70
     6
  9
$SPLINESEGS
 70
     8
  9
$HANDSEED
  5
18D
  9
$SURFTAB1
 70
     6
  9
$SURFTAB2
 70
     6
  9
$SURFTYPE
 70
     6
  9
$SURFU
 70
     6
  9
$SURFV
 70
     6
  9
$UCSBASE
  2

  9
$UCSNAME
  2

  9
$UCSORG
 10
0.0
 20
0.0
 30
0.0
  9
$UCSXDIR
 10
1.0
 20
0.0
 30
0.0
  9
$UCSYDIR
 10
0.0
 20
1.0
 30
0.0
  9
$UCSORTHOREF
  2

  9
$UCSORTHOVIEW
 70
     0
  9
$UCSORGTOP
 10
0.0
 20
0.0
 30
0.0
  9
$UCSORGBOTTOM
 10
0.0
 20
0.0
 30
0.0
  9
$UCSORGLEFT
 10
0.0
 20
0.0
 30
0.0
  9
$UCSORGRIGHT
 10
0.0
 20
0.0
 30
0.0
  9
$UCSORGFRONT
 10
0.0
 20
0.0
 30
0.0
  9
$UCSORGBACK
 10
0.0
 20
0.0
 30
0.0
  9
$PUCSBASE
  2

  9
$PUCSNAME
  2

  9
$PUCSORG
 10
0.0
 20
0.0
 30
0.0
  9
$PUCSXDIR
 10
1.0
 20
0.0
 30
0.0
  9
$PUCSYDIR
 10
0.0
 20
1.0
 30
0.0
  9
$PUCSORTHOREF
  2

  9
$PUCSORTHOVIEW
 70
     0
  9
$PUCSORGTOP
 10
0.0
 20
0.0
 30
0.0
  9
$PUCSORGBOTTOM
 10
0.0
 20
0.0
 30
0.0
  9
$PUCSORGLEFT
 10
0.0
 20
0.0
 30
0.0
  9
$PUCSORGRIGHT
 10
0.0
 20
0.0
 30
0.0
  9
$PUCSORGFRONT
 10
0.0
 20
0.0
 30
0.0
  9
$PUCSORGBACK
 10
0.0
 20
0.0
 30
0.0
  9
$USERI1
 70
     0
  9
$USERI2
 70
     0
  9
$USERI3
 70
     0
  9
$USERI4
 70
     0
  9
$USERI5
 70
     0
  9
$USERR1
 40
0.0
  9
$USERR2
 40
0.0
  9
$USERR3
 40
0.0
  9
$USERR4
 40
0.0
  9
$USERR5
 40
0.0
  9
$WORLDVIEW
 70
     1
  9
$SHADEDGE
 70
     3
  9
$SHADEDIF
 70
    70
  9
$TILEMODE
 70
     1
  9
$MAXACTVP
 70
    64
  9
$PINSBASE
 10
0.0
 20
0.0
 30
0.0
  9
$PLIMCHECK
 70
     0
  9
$PEXTMIN
 10
0.0
 20
0.0
 30
0.0
  9
$PEXTMAX
 10
1682.0
 20
2378.0
 30
0.0
  9
$PLIMMIN
 10
0.0
 20
0.0
  9
$PLIMMAX
 10
1682.0
 20
2378.0
  9
$UNITMODE
 70
     0
  9
$VISRETAIN
 70
     1
  9
$PLINEGEN
 70
     0
  9
$PSLTSCALE
 70
     1
  9
$TREEDEPTH
 70
  3020
  9
$CMLSTYLE
  2
Standard
  9
$CMLJUST
 70
     0
  9
$CMLSCALE
 40
20.0
  9
$PROXYGRAPHICS
 70
     1
  9
$MEASUREMENT
 70
     1
  9
$CELWEIGHT
370
    -1
  9
$ENDCAPS
280
     0
  9
$JOINSTYLE
280
     0
  9
$LWDISPLAY
290
     0
  9
$INSUNITS
 70
     4
  9
$HYPERLINKBASE
  1

  9
$STYLESHEET
  1

  9
$XEDIT
290
     1
  9
$CEPSNTYPE
380
     0
  9
$PSTYLEMODE
290
     1
  9
$FINGERPRINTGUID
  2
{77DB291A-2CA8-4585-9547-66DC4652AA7C}
  9
$VERSIONGUID
  2
{FAEB1C32-E019-11D5-929B-00C0DF256EC4}
  9
$EXTNAMES
290
     1
  9
$PSVPSCALE
 40
0.0
  9
$OLESTARTUP
290
     0
  0
ENDSEC
  0
SECTION
  2
CLASSES
  0
CLASS
  1
ACDBDICTIONARYWDFLT
  2
AcDbDictionaryWithDefault
  3
ObjectDBX Classes
 90
        0
280
     0
281
     0
  0
CLASS
  1
VISUALSTYLE
  2
AcDbVisualStyle
  3
ObjectDBX Classes
 90
     4095
280
     0
281
     0
  0
CLASS
  1
SCALE
  2
AcDbScale
  3
ObjectDBX Classes
 90
     1153
280
     0
281
     0
  0
CLASS
  1
DICTIONARYVAR
  2
AcDbDictionaryVar
  3
ObjectDBX Classes
 90
        0
280
     0
281
     0
  0
CLASS
  1
ACDBPLACEHOLDER
  2
AcDbPlaceHolder
  3
ObjectDBX Classes
 90
        0
280
     0
281
     0
  0
CLASS
  1
LAYOUT
  2
AcDbLayout
  3
ObjectDBX Classes
 90
        0
280
     0
281
     0
  0
ENDSEC
  0
SECTION
  2
TABLES
  0
TABLE
  2
VPORT
  5
8
330
0
100
AcDbSymbolTable
 70
     1
  0
VPORT
  5
29
330
8
100
AcDbSymbolTableRecord
100
AcDbViewportTableRecord
  2
*Active
 70
     0
 10
0.0
 20
0.0
 11
1.0
 21
1.0
 12
344.1869158879
 22
148.5
 13
0.0
 23
0.0
 14
10.0
 24
10.0
 15
10.0
 25
10.0
 16
0.0
 26
0.0
 36
1.0
 17
0.0
 27
0.0
 37
0.0
 40
297.0
 41
1.9729729729
 42
50.0
 43
0.0
 44
0.0
 50
0.0
 51
0.0
 71
     0
 72
   100
 73
     1
 74
     3
 75
     0
 76
     0
 77
     0
 78
     0
281
     0
 65
     1
110
0.0
120
0.0
130
0.0
111
1.0
121
0.0
131
0.0
112
0.0
122
1.0
132
0.0
 79
     0
146
0.0
  0
ENDTAB
  0
TABLE
  2
LTYPE
  5
5
330
0
100
AcDbSymbolTable
 70
     2
  0
LTYPE
  5
14
330
5
100
AcDbSymbolTableRecord
100
AcDbLinetypeTableRecord
  2
ByBlock
 70
     0
  3

 72
    65
 73
     0
 40
0.0
  0
LTYPE
  5
15
330
5
100
AcDbSymbolTableRecord
100
AcDbLinetypeTableRecord
  2
ByLayer
 70
     0
  3

 72
    65
 73
     0
 40
0.0
  0
LTYPE
  5
16
330
5
100
AcDbSymbolTableRecord
100
AcDbLinetypeTableRecord
  2
Continuous
 70
     0
  3
Solid line
 72
    65
 73
     0
 40
0.0
  0
LTYPE
  5
60
330
5
100
AcDbSymbolTableRecord
100
AcDbLinetypeTableRecord
  2
CENTER2
 70
     0
  3
Center (.5x) ___ _ ___ _ ___ _ ___ _ ___ _ ___
 72
    65
 73
     4
 40
28.575
 49
19.05
 74
     4
 75
     0
340
0
 46
0.0
 50
0.0
 44
0.0
 45
0.0
 49
-3.175
 74
     4
 75
     0
340
0
 46
0.0
 50
0.0
 44
0.0
 45
0.0
 49
3.175
 74
     4
 75
     0
340
0
 46
0.0
 50
0.0
 44
0.0
 45
0.0
 49
-3.175
 74
     4
 75
     0
340
0
 46
0.0
 50
0.0
 44
0.0
 45
0.0
  0
ENDTAB
  0
TABLE
  2
LAYER
  5
2
330
0
100
AcDbSymbolTable
 70
    11
  0
LAYER
  5
10
330
2
100
AcDbSymbolTableRecord
100
AcDbLayerTableRecord
  2
0
 70
     0
 62
     7
  6
Continuous
370
    -3
390
F
  0
LAYER
  5
5D
330
2
100
AcDbSymbolTableRecord
100
AcDbLayerTableRecord
  2
Default
 70
     0
 62
     7
  6
Continuous
370
    -3
390
F
  0
LAYER
  5
75
330
2
100
AcDbSymbolTableRecord
100
AcDbLayerTableRecord
  2
$DDT_AUDIT_GENERATED_(75)
 70
     0
 62
     7
  6
Continuous
370
    -3
390
F
  0
LAYER
  5
78
330
2
100
AcDbSymbolTableRecord
100
AcDbLayerTableRecord
  2
$DDT_AUDIT_GENERATED_(78)
 70
     0
 62
     7
  6
Continuous
370
    -3
390
F
  0
LAYER
  5
7B
330
2
100
AcDbSymbolTableRecord
100
AcDbLayerTableRecord
  2
$DDT_AUDIT_GENERATED_(7B)
 70
     0
 62
     7
  6
Continuous
370
    -3
390
F
  0
LAYER
  5
8A
330
2
100
AcDbSymbolTableRecord
100
AcDbLayerTableRecord
  2
$DDT_AUDIT_GENERATED_(8A)
 70
     0
 62
     7
  6
Continuous
370
    -3
390
F
  0
LAYER
  5
C6
330
2
100
AcDbSymbolTableRecord
100
AcDbLayerTableRecord
  2
$DDT_AUDIT_GENERATED_(C6)
 70
     0
 62
     7
  6
Continuous
370
    -3
390
F
  0
LAYER
  5
D5
330
2
100
AcDbSymbolTableRecord
100
AcDbLayerTableRecord
  2
$DDT_AUDIT_GENERATED_(D5)
 70
     0
 62
     7
  6
Continuous
370
    -3
390
F
  0
LAYER
  5
EC
330
2
100
AcDbSymbolTableRecord
100
AcDbLayerTableRecord
  2
$DDT_AUDIT_GENERATED_(EC)
 70
     0
 62
     7
  6
Continuous
370
    -3
390
F
  0
LAYER
  5
EE
330
2
100
AcDbSymbolTableRecord
100
AcDbLayerTableRecord
  2
$DDT_AUDIT_GENERATED_(EE)
 70
     0
 62
     7
  6
Continuous
370
    -3
390
F
  0
LAYER
  5
120
330
2
100
AcDbSymbolTableRecord
100
AcDbLayerTableRecord
  2
$DDT_AUDIT_GENERATED_(120)
 70
     0
 62
     7
  6
Continuous
370
    -3
390
F
  0
ENDTAB
  0
TABLE
  2
STYLE
  5
3
330
0
100
AcDbSymbolTable
 70
     2
  0
STYLE
  5
11
330
3
100
AcDbSymbolTableRecord
100
AcDbTextStyleTableRecord
  2
Standard
 70
     0
 40
0.0
 41
1.0
 50
0.0
 71
     0
 42
2.5
  3
txt
  4

  0
STYLE
  5
17C
330
3
100
AcDbSymbolTableRecord
100
AcDbTextStyleTableRecord
  2
SEACAD_seiso_ttf
 70
     0
 40
0.0
 41
1.0
 50
0.0
 71
     0
 42
0.2
  3
seiso.ttf
  4

  0
ENDTAB
  0
TABLE
  2
VIEW
  5
6
330
0
100
AcDbSymbolTable
 70
     0
  0
ENDTAB
  0
TABLE
  2
UCS
  5
7
330
0
100
AcDbSymbolTable
 70
     0
  0
ENDTAB
  0
TABLE
  2
APPID
  5
9
330
0
100
AcDbSymbolTable
 70
     1
  0
APPID
  5
12
330
9
100
AcDbSymbolTableRecord
100
AcDbRegAppTableRecord
  2
ACAD
 70
     0
  0
ENDTAB
  0
TABLE
  2
DIMSTYLE
  5
A
330
0
100
AcDbSymbolTable
 70
     1
100
AcDbDimStyleTable
  0
DIMSTYLE
105
27
330
A
100
AcDbSymbolTableRecord
100
AcDbDimStyleTableRecord
  2
ISO-25
 70
     0
 41
2.5
 42
0.625
 43
3.75
 44
1.25
 73
     0
 74
     0
 77
     1
 78
     8
140
2.5
141
2.5
143
0.0393700787
147
0.625
171
     3
172
     1
271
     2
272
     2
274
     3
278
    44
283
     0
284
     8
340
11
  0
ENDTAB
  0
TABLE
  2
BLOCK_RECORD
  5
1
330
0
100
AcDbSymbolTable
 70
     8
  0
BLOCK_RECORD
  5
1F
330
1
100
AcDbSymbolTableRecord
100
AcDbBlockTableRecord
  2
*Model_Space
340
22
  0
BLOCK_RECORD
  5
1B
330
1
100
AcDbSymbolTableRecord
100
AcDbBlockTableRecord
  2
*Paper_Space
340
1E
  0
BLOCK_RECORD
  5
5E
330
1
100
AcDbSymbolTableRecord
100
AcDbBlockTableRecord
  2
SEANNOT_GROUP
340
0
102
{BLKREFS
331
5F
102
}
  0
BLOCK_RECORD
  5
64
330
1
100
AcDbSymbolTableRecord
100
AcDbBlockTableRecord
  2
SEANNOT_GROUP1
340
0
102
{BLKREFS
331
65
102
}
  0
BLOCK_RECORD
  5
69
330
1
100
AcDbSymbolTableRecord
100
AcDbBlockTableRecord
  2
SEANNOT_GROUP2
340
0
102
{BLKREFS
331
6A
102
}
  0
BLOCK_RECORD
  5
6E
330
1
100
AcDbSymbolTableRecord
100
AcDbBlockTableRecord
  2
SEANNOT_GROUP3
340
0
102
{BLKREFS
331
6F
102
}
  0
BLOCK_RECORD
  5
73
330
1
100
AcDbSymbolTableRecord
100
AcDbBlockTableRecord
  2
SE
340
0
102
{BLKREFS
331
74
102
}
  0
BLOCK_RECORD
  5
9A
330
1
100
AcDbSymbolTableRecord
100
AcDbBlockTableRecord
  2
SE1
340
0
102
{BLKREFS
331
9B
102
}
  0
BLOCK_RECORD
  5
FD
330
1
100
AcDbSymbolTableRecord
100
AcDbBlockTableRecord
  2
SE2
340
0
102
{BLKREFS
331
FE
102
}
  0
ENDTAB
  0
ENDSEC
  0
SECTION
  2
BLOCKS
  0
BLOCK
  5
20
330
1F
100
AcDbEntity
  8
0
100
AcDbBlockBegin
  2
*Model_Space
 70
     0
 10
0.0
 20
0.0
 30
0.0
  3
*Model_Space
  1

  0
ENDBLK
  5
21
330
1F
100
AcDbEntity
  8
0
100
AcDbBlockEnd
  0
BLOCK
  5
1C
330
1B
100
AcDbEntity
 67
     1
  8
0
100
AcDbBlockBegin
  2
*Paper_Space
 70
     0
 10
0.0
 20
0.0
 30
0.0
  3
*Paper_Space
  1

  0
ENDBLK
  5
1D
330
1B
100
AcDbEntity
 67
     1
  8
0
100
AcDbBlockEnd
  0
BLOCK
  5
62
330
5E
100
AcDbEntity
  8
0
100
AcDbBlockBegin
  2
SEANNOT_GROUP
 70
     0
 10
0.0
 20
0.0
 30
0.0
  3
SEANNOT_GROUP
  1

  0
LINE
  5
61
330
5E
100
AcDbEntity
  8
Default
  6
CENTER2
 62
     7
100
AcDbLine
 10
116.3499087831
 20
223.3802657137
 30
0.0
 11
116.3499087831
 21
282.6194671575
 31
0.0
  0
ENDBLK
  5
63
330
5E
100
AcDbEntity
  8
0
100
AcDbBlockEnd
  0
BLOCK
  5
67
330
64
100
AcDbEntity
  8
0
100
AcDbBlockBegin
  2
SEANNOT_GROUP1
 70
     0
 10
0.0
 20
0.0
 30
0.0
  3
SEANNOT_GROUP1
  1

  0
LINE
  5
66
330
64
100
AcDbEntity
  8
Default
  6
CENTER2
 62
     7
100
AcDbLine
 10
311.5586751163
 20
482.6111628481
 30
0.0
 11
293.0408743211
 21
482.6111628481
 31
0.0
  0
ENDBLK
  5
68
330
64
100
AcDbEntity
  8
0
100
AcDbBlockEnd
  0
BLOCK
  5
6C
330
69
100
AcDbEntity
  8
0
100
AcDbBlockBegin
  2
SEANNOT_GROUP2
 70
     0
 10
0.0
 20
0.0
 30
0.0
  3
SEANNOT_GROUP2
  1

  0
LINE
  5
6B
330
69
100
AcDbEntity
  8
Default
  6
CENTER2
 62
     7
100
AcDbLine
 10
362.5586751163
 20
432.2111628481
 30
0.0
 11
362.5586751163
 21
412.9489234954
 31
0.0
  0
ENDBLK
  5
6D
330
69
100
AcDbEntity
  8
0
100
AcDbBlockEnd
  0
BLOCK
  5
71
330
6E
100
AcDbEntity
  8
0
100
AcDbBlockBegin
  2
SEANNOT_GROUP3
 70
     0
 10
0.0
 20
0.0
 30
0.0
  3
SEANNOT_GROUP3
  1

  0
LINE
  5
70
330
6E
100
AcDbEntity
  8
Default
  6
CENTER2
 62
     7
100
AcDbLine
 10
116.3579128709
 20
500.0795761102
 30
0.0
 11
116.3579128709
 21
528.8163163435
 31
0.0
  0
ENDBLK
  5
72
330
6E
100
AcDbEntity
  8
0
100
AcDbBlockEnd
  0
BLOCK
  5
98
330
73
100
AcDbEntity
  8
0
100
AcDbBlockBegin
  2
SE
 70
     0
 10
0.0
 20
0.0
 30
0.0
  3
SE
  1

  0
SPLINE
  5
76
330
73
100
AcDbEntity
  8
$DDT_AUDIT_GENERATED_(75)
  6
Continuous
 62
     7
100
AcDbSpline
210
0.0
220
0.0
230
1.0
 70
     8
 71
     3
 72
    54
 73
    50
 74
     0
 42
0.0000000000876374
 43
0.0000000001
 40
0.1152445644484514
 40
0.1152445644484514
 40
0.1152445644484514
 40
0.1152445644484514
 40
0.1197804329703472
 40
0.1382342989491091
 40
0.1545390868486534
 40
0.1683345639449391
 40
0.1793928809360103
 40
0.1882498438238505
 40
0.1958963565898103
 40
0.2032924002859798
 40
0.2113291711946538
 40
0.2208651178021203
 40
0.2326623952977728
 40
0.2467756825428042
 40
0.2629547836307212
 40
0.2809787736044299
 40
0.300365516265701
 40
0.34066171102454
 40
0.3811444169398763
 40
0.4213838107716772
 40
0.4612024912153854
 40
0.5004979801924169
 40
0.5391868965975206
 40
0.5677567544113702
 40
0.5959104897673927
 40
0.6237557343288139
 40
0.6516801506379833
 40
0.6703730883517134
 40
0.689232210167417
 40
0.7080879300073099
 40
0.7222940803954996
 40
0.7366029207486614
 40
0.7510587544177617
 40
0.7656954866981456
 40
0.7805809903068761
 40
0.7957165284225339
 40
0.81116946967241
 40
0.8268092972980499
 40
0.8425582101236259
 40
0.8583073343678567
 40
0.8739346027102547
 40
0.8893335419624803
 40
0.9043953330471891
 40
0.9190375075866255
 40
0.9332172831899762
 40
0.9470190464586209
 40
0.9649739459630642
 40
0.9825709499524711
 40
1.0
 40
1.0
 40
1.0
 40
1.0
 10
136.9043977904662
 20
450.4213076183387
 30
0.0
 10
137.032264138869
 20
450.5375947408436
 30
0.0
 10
137.6754674116044
 20
451.1323053967777
 30
0.0
 10
138.7318831654535
 20
452.1937407152334
 30
0.0
 10
139.9530610400506
 20
453.5816196872444
 30
0.0
 10
140.9256566779695
 20
454.8069972944884
 30
0.0
 10
141.669158925606
 20
455.8426711868838
 30
0.0
 10
142.2653830423292
 20
456.6850511866403
 30
0.0
 10
142.7852694943249
 20
457.4027296179313
 30
0.0
 10
143.3044654584492
 20
458.0838433141349
 30
0.0
 10
143.9012818614136
 20
458.8064523327982
 30
0.0
 10
144.6634630600223
 20
459.619501940248
 30
0.0
 10
145.6787667966609
 20
460.5137097282541
 30
0.0
 10
147.0183203942833
 20
461.4064654857908
 30
0.0
 10
148.6935039230939
 20
462.186727305324
 30
0.0
 10
150.6501441012206
 20
462.7879075711477
 30
0.0
 10
153.55852609799
 20
463.3612932411733
 30
0.0
 10
157.3657644036401
 20
463.7121212211533
 30
0.0
 10
161.970395475949
 20
463.926327650206
 30
0.0
 10
166.5565147401053
 20
464.1036048067831
 30
0.0
 10
171.0909246859876
 20
464.3324060344015
 30
0.0
 10
175.5571427907695
 20
464.6437402312609
 30
0.0
 10
179.5860102641133
 20
465.012115484988
 30
0.0
 10
183.185466601192
 20
465.3966021965239
 30
0.0
 10
186.3702189039466
 20
465.7727134259876
 30
0.0
 10
189.5313771038681
 20
466.1309233494318
 30
0.0
 10
192.3209738960193
 20
466.5751606783201
 30
0.0
 10
194.7378825565979
 20
467.1578425604974
 30
0.0
 10
196.745272291489
 20
467.9172143657143
 30
0.0
 10
198.4792518442539
 20
468.8656550435422
 30
0.0
 10
199.9470251168644
 20
469.9095980371654
 30
0.0
 10
201.1761190228314
 20
470.9878457085506
 30
0.0
 10
202.300244285337
 20
472.1987928848696
 30
0.0
 10
203.3078741563743
 20
473.5371094705891
 30
0.0
 10
204.1837436469709
 20
474.9967072857461
 30
0.0
 10
204.9149211019909
 20
476.5692674136705
 30
0.0
 10
205.4828289133111
 20
478.2393520915002
 30
0.0
 10
205.8705043375897
 20
479.984803561719
 30
0.0
 10
206.0680373081829
 20
481.7737006959004
 30
0.0
 10
206.0641818549097
 20
483.5732788223705
 30
0.0
 10
205.8612854444558
 20
485.347496712906
 30
0.0
 10
205.4752037537456
 20
487.0634974820426
 30
0.0
 10
204.9209320177849
 20
488.6922580775685
 30
0.0
 10
204.2190380726872
 20
490.210848402839
 30
0.0
 10
203.3937797369979
 20
491.6083234907249
 30
0.0
 10
202.358083509632
 20
493.0192130840084
 30
0.0
 10
201.0920792691028
 20
494.3929436814988
 30
0.0
 10
199.5219282423284
 20
495.719700536657
 30
0.0
 10
198.4721160548414
 20
496.3670676651465
 30
0.0
 10
197.8502159393636
 20
496.7427425888455
 30
0.0
  0
SPLINE
  5
77
330
73
100
AcDbEntity
  8
$DDT_AUDIT_GENERATED_(75)
  6
Continuous
 62
     7
100
AcDbSpline
210
0.0
220
0.0
230
1.0
 70
     8
 71
     3
 72
    73
 73
    69
 74
     0
 42
0.0000000000359337
 43
0.0000000001
 40
0.0
 40
0.0
 40
0.0
 40
0.0
 40
0.0093592308837154
 40
0.0186951944439676
 40
0.0278329082852235
 40
0.036902970636474
 40
0.0458602442506511
 40
0.085467841954533
 40
0.1260895303163161
 40
0.1679134719753572
 40
0.2106419635514107
 40
0.2539233781239916
 40
0.2974080354423065
 40
0.3407461543150904
 40
0.3835873781351108
 40
0.4077117731724286
 40
0.4314956763489157
 40
0.4548742596349446
 40
0.4777822011374399
 40
0.5001864690817385
 40
0.5222504455647565
 40
0.544205711494899
 40
0.5664606542271952
 40
0.5740834924507381
 40
0.5819268754854668
 40
0.5898625130135491
 40
0.5958561859643849
 40
0.601895630761908
 40
0.6079790905301069
 40
0.6141194629315537
 40
0.6202926114246231
 40
0.6265115136779518
 40
0.6327485716925196
 40
0.6390041901116112
 40
0.6452698002706989
 40
0.6515333145929668
 40
0.6577932643606487
 40
0.664027782764665
 40
0.6702408691260519
 40
0.6764260380035005
 40
0.6825736811548094
 40
0.6886866771806106
 40
0.6947548664846935
 40
0.7007731070353094
 40
0.706738578483758
 40
0.7126509388395973
 40
0.7204638575857373
 40
0.7282260300659054
 40
0.7358092177380103
 40
0.7469771394871924
 40
0.7579334790213598
 40
0.7799865925413212
 40
0.8027118830913331
 40
0.8264509094084433
 40
0.8507359778533042
 40
0.862774904018126
 40
0.8745376258407663
 40
0.8821330238027872
 40
0.8894403317707782
 40
0.8963965774594828
 40
0.9013864310526827
 40
0.906232169943072
 40
0.9133689413194906
 40
0.9205170163155347
 40
0.9277843879961307
 40
0.9351575026225938
 40
0.9449803935324694
 40
0.9526279431025096
 40
0.9526279431025096
 40
0.9526279431025096
 40
0.9526279431025096
 10
197.8502159393636
 20
496.7427425888455
 30
0.0
 10
197.0004653809756
 20
497.1729405593295
 30
0.0
 10
195.5591622514395
 20
497.8928374201549
 30
0.0
 10
193.0067748826384
 20
498.5551362568887
 30
0.0
 10
190.5176413995737
 20
499.0123779287349
 30
0.0
 10
188.0198317348566
 20
499.3124302989966
 30
0.0
 10
182.7332893709251
 20
499.9503748033279
 30
0.0
 10
174.5266518561864
 20
500.8266453838268
 30
0.0
 10
163.2641799895671
 20
501.8145950755855
 30
0.0
 10
151.6806043450966
 20
502.5998047747257
 30
0.0
 10
139.8265574284981
 20
503.1700336942938
 30
0.0
 10
127.8015520142297
 20
503.5126977351147
 30
0.0
 10
115.7115633174393
 20
503.6189554949272
 30
0.0
 10
103.6630523995294
 20
503.4875821517495
 30
0.0
 10
93.42148218211327
 20
503.1751700794493
 30
0.0
 10
85.0058849723057
 20
502.7896825720845
 30
0.0
 10
78.40236145741163
 20
502.4141375042626
 30
0.0
 10
71.92018608312286
 20
501.9736253109399
 30
0.0
 10
65.57531552629192
 20
501.4733125509151
 30
0.0
 10
59.36322975796374
 20
500.9130318745929
 30
0.0
 10
53.24852397063732
 20
500.3039530728533
 30
0.0
 10
47.16452290940834
 20
499.5956007843892
 30
0.0
 10
42.39771480973933
 20
499.0904677514915
 30
0.0
 10
38.97979373638727
 20
498.3841451966624
 30
0.0
 10
36.90011354206765
 20
497.763356670503
 30
0.0
 10
35.06907004770035
 20
496.9041199711598
 30
0.0
 10
33.49831439833989
 20
495.9238825162145
 30
0.0
 10
32.1742373519775
 20
494.8879025533782
 30
0.0
 10
30.95540536655958
 20
493.7094562890102
 30
0.0
 10
29.85956940511447
 20
492.3982016141489
 30
0.0
 10
28.90240262743687
 20
490.9664704579143
 30
0.0
 10
28.09626990111408
 20
489.4332476442406
 30
0.0
 10
27.45789462215292
 20
487.8138245791951
 30
0.0
 10
26.99271999885266
 20
486.1313336878662
 30
0.0
 10
26.70865252338875
 20
484.4059422593621
 30
0.0
 10
26.61089488198967
 20
482.6593419376853
 30
0.0
 10
26.70311836448128
 20
480.9153864417239
 30
0.0
 10
26.98030887723374
 20
479.1963432158872
 30
0.0
 10
27.43627257108328
 20
477.5237042593283
 30
0.0
 10
28.06306672418379
 20
475.9168505674394
 30
0.0
 10
28.85057625968224
 20
474.3938892043846
 30
0.0
 10
29.78760425680493
 20
472.9722914488497
 30
0.0
 10
30.86097635117349
 20
471.6675814398232
 30
0.0
 10
32.05295891555968
 20
470.4912506699242
 30
0.0
 10
33.34994106390182
 20
469.456203011965
 30
0.0
 10
34.88497889206099
 20
468.4707416135495
 30
0.0
 10
36.6784389749282
 20
467.5996421488482
 30
0.0
 10
38.72478492486747
 20
466.9530183992248
 30
0.0
 10
41.12092083644605
 20
466.4333912485587
 30
0.0
 10
43.84112606947832
 20
466.055196624545
 30
0.0
 10
47.89470030223117
 20
465.5824151111678
 30
0.0
 10
53.01571519125278
 20
464.9994827720207
 30
0.0
 10
59.3418540100287
 20
464.4574346654014
 30
0.0
 10
65.90142336951726
 20
464.1002581408022
 30
0.0
 10
71.47847611463676
 20
463.9059336682652
 30
0.0
 10
75.93967389854964
 20
463.6562681191764
 30
0.0
 10
78.84518184568893
 20
463.3725453406424
 30
0.0
 10
81.29010746569246
 20
462.9592746988194
 30
0.0
 10
83.25897676580371
 20
462.4471137539883
 30
0.0
 10
84.92797934413069
 20
461.7868923806628
 30
0.0
 10
86.2898911646963
 20
461.0191694584909
 30
0.0
 10
87.55920910195265
 20
460.0786717980141
 30
0.0
 10
88.82072298529579
 20
458.8188746794125
 30
0.0
 10
90.04808896668537
 20
457.2393451957426
 30
0.0
 10
91.2006797654541
 20
455.5824536035324
 30
0.0
 10
92.56533353705066
 20
453.7726554290625
 30
0.0
 10
94.09097102694074
 20
452.0474003952005
 30
0.0
 10
95.2509557959135
 20
450.9166345894597
 30
0.0
 10
95.77489605017966
 20
450.4392896726607
 30
0.0
  0
ARC
  5
79
330
73
100
AcDbEntity
  8
$DDT_AUDIT_GENERATED_(78)
  6
Continuous
 62
     7
100
AcDbCircle
 10
191.35
 20
482.6111628481
 30
0.0
 40
35.0
100
AcDbArc
 50
212.3331894681
 51
0.0
  0
ARC
  5
7A
330
73
100
AcDbEntity
  8
$DDT_AUDIT_GENERATED_(78)
  6
Continuous
 62
     7
100
AcDbCircle
 10
191.35
 20
482.6111628481
 30
0.0
 40
35.0
100
AcDbArc
 50
0.0
 51
146.5863941962
  0
ARC
  5
7C
330
73
100
AcDbEntity
  8
$DDT_AUDIT_GENERATED_(7B)
  6
Continuous
 62
     7
100
AcDbCircle
 10
41.35
 20
482.6111628481
 30
0.0
 40
16.25
100
AcDbArc
 50
232.619864948
 51
247.380135052
  0
ARC
  5
7D
330
73
100
AcDbEntity
  8
$DDT_AUDIT_GENERATED_(7B)
  6
Continuous
 62
     7
100
AcDbCircle
 10
41.35
 20
482.6111628481
 30
0.0
 40
16.25
100
AcDbArc
 50
112.619864948
 51
127.380135052
  0
ARC
  5
7E
330
73
100
AcDbEntity
  8
$DDT_AUDIT_GENERATED_(7B)
  6
Continuous
 62
     7
100
AcDbCircle
 10
41.35
 20
482.6111628481
 30
0.0
 40
16.25000000000001
100
AcDbArc
 50
172.619864948
 51
187.380135052
  0
LINE
  5
7F
330
73
100
AcDbEntity
  8
$DDT_AUDIT_GENERATED_(7B)
  6
Continuous
 62
     7
100
AcDbLine
 10
35.1
 20
467.6111628481
 30
0.0
 11
36.797980259
 21
467.6111628481
 31
0.0
  0
LINE
  5
80
330
73
100
AcDbEntity
  8
$DDT_AUDIT_GENERATED_(7B)
  6
Continuous
 62
     7
100
AcDbLine
 10
36.6828100092
 20
497.6111628481
 30
0.0
 11
35.1
 21
497.6111628481
 31
0.0
  0
LINE
  5
81
330
73
100
AcDbEntity
  8
$DDT_AUDIT_GENERATED_(7B)
  6
Continuous
 62
     7
100
AcDbLine
 10
31.4846189432
 20
495.5238216218
 30
0.0
 11
25.2346189432
 21
484.6985040745
 31
0.0
  0
LINE
  5
82
330
73
100
AcDbEntity
  8
$DDT_AUDIT_GENERATED_(7B)
  6
Continuous
 62
     7
100
AcDbLine
 10
25.2346189432
 20
480.5238216218
 30
0.0
 11
31.4846189432
 21
469.6985040745
 31
0.0
  0
ARC
  5
83
330
73
100
AcDbEntity
  8
$DDT_AUDIT_GENERATED_(7B)
  6
Continuous
 62
     7
100
AcDbCircle
 10
191.35
 20
482.6111628481
 30
0.0
 40
16.25
100
AcDbArc
 50
292.619864948
 51
307.380135052
  0
ARC
  5
84
330
73
100
AcDbEntity
  8
$DDT_AUDIT_GENERATED_(7B)
  6
Continuous
 62
     7
100
AcDbCircle
 10
191.35
 20
482.6111628481
 30
0.0
 40
16.25000000000001
100
AcDbArc
 50
352.619864948
 51
7.380135052
  0
ARC
  5
85
330
73
100
AcDbEntity
  8
$DDT_AUDIT_GENERATED_(7B)
  6
Continuous
 62
     7
100
AcDbCircle
 10
191.35
 20
482.6111628481
 30
0.0
 40
16.25
100
AcDbArc
 50
52.619864948
 51
67.380135052
  0
LINE
  5
86
330
73
100
AcDbEntity
  8
$DDT_AUDIT_GENERATED_(7B)
  6
Continuous
 62
     7
100
AcDbLine
 10
195.8182966807
 20
467.6111628481
 30
0.0
 11
197.6
 21
467.6111628481
 31
0.0
  0
LINE
  5
87
330
73
100
AcDbEntity
  8
$DDT_AUDIT_GENERATED_(7B)
  6
Continuous
 62
     7
100
AcDbLine
 10
201.2153810568
 20
469.6985040745
 30
0.0
 11
207.4653810568
 21
480.5238216218
 31
0.0
  0
LINE
  5
88
330
73
100
AcDbEntity
  8
$DDT_AUDIT_GENERATED_(7B)
  6
Continuous
 62
     7
100
AcDbLine
 10
207.4653810568
 20
484.6985040745
 30
0.0
 11
201.2153810568
 21
495.5238216218
 31
0.0
  0
LINE
  5
89
330
73
100
AcDbEntity
  8
$DDT_AUDIT_GENERATED_(7B)
  6
Continuous
 62
     7
100
AcDbLine
 10
197.6
 20
497.6111628481
 30
0.0
 11
195.9693489916
 21
497.6111628481
 31
0.0
  0
SPLINE
  5
8B
330
73
100
AcDbEntity
  8
$DDT_AUDIT_GENERATED_(8A)
  6
Continuous
 62
     7
100
AcDbSpline
210
0.0
220
0.0
230
1.0
 70
     8
 71
     3
 72
     8
 73
     4
 74
     0
 42
0.0000000001122432
 43
0.0000000001
 40
0.8471968219659061
 40
0.8471968219659061
 40
0.8471968219659061
 40
0.8471968219659061
 40
0.8489989598218042
 40
0.8489989598218042
 40
0.8489989598218042
 40
0.8489989598218042
 10
92.10280648388957
 20
464.5876860287046
 30
0.0
 10
92.08557969651191
 20
464.638602833941
 30
0.0
 10
92.06841073611739
 20
464.6892914748401
 30
0.0
 10
92.05129925556832
 20
464.7397563981374
 30
0.0
  0
SPLINE
  5
8C
330
73
100
AcDbEntity
  8
$DDT_AUDIT_GENERATED_(8A)
  6
Continuous
 62
     7
100
AcDbSpline
210
0.0
220
0.0
230
1.0
 70
     8
 71
     3
 72
     8
 73
     4
 74
     0
 42
0.0000000001256232
 43
0.0000000001
 40
0.8157882937131995
 40
0.8157882937131995
 40
0.8157882937131995
 40
0.8157882937131995
 40
0.8169005210194035
 40
0.8169005210194035
 40
0.8169005210194035
 40
0.8169005210194035
 10
140.6285636072364
 20
464.6579685399334
 30
0.0
 10
140.638052672012
 20
464.6859835731975
 30
0.0
 10
140.6475259484932
 20
464.7139349335608
 30
0.0
 10
140.6569824550621
 20
464.7418203981519
 30
0.0
  0
ARC
  5
8D
330
73
100
AcDbEntity
  8
$DDT_AUDIT_GENERATED_(8A)
  6
Continuous
 62
     7
100
AcDbCircle
 10
137.947876589
 20
473.4499685637
 30
0.0
 40
5.978120672835934
100
AcDbArc
 50
354.7135619421
 51
4.5236997319
  0
SPLINE
  5
8E
330
73
100
AcDbEntity
  8
$DDT_AUDIT_GENERATED_(8A)
  6
Continuous
 62
     7
100
AcDbSpline
210
0.0
220
0.0
230
1.0
 70
     8
 71
     3
 72
    34
 73
    30
 74
     0
 42
0.000000000118135
 43
0.0000000001
 40
0.0
 40
0.0
 40
0.0
 40
0.0
 40
0.1249999999999999
 40
0.1249999999999999
 40
0.1874999999999999
 40
0.1874999999999999
 40
0.2499999999999998
 40
0.2499999999999998
 40
0.3124999999999998
 40
0.3124999999999998
 40
0.3749999999999998
 40
0.3749999999999998
 40
0.4999999999999997
 40
0.4999999999999997
 40
0.5624999999999998
 40
0.5624999999999998
 40
0.6249999999999998
 40
0.6249999999999998
 40
0.6874999999999997
 40
0.6874999999999997
 40
0.7499999999999997
 40
0.7499999999999997
 40
0.8124999999999997
 40
0.8124999999999997
 40
0.8749999999999997
 40
0.8749999999999997
 40
0.9374999999999998
 40
0.9374999999999998
 40
1.0
 40
1.0
 40
1.0
 40
1.0
 10
143.9073741889876
 20
473.9214716229075
 30
0.0
 10
143.5193101117207
 20
477.4426314772809
 30
0.0
 10
142.6448099001366
 20
480.8838201336853
 30
0.0
 10
140.497937482744
 20
485.7039717846313
 30
0.0
 10
139.6313256852445
 20
487.2652784973174
 30
0.0
 10
137.6515990094439
 20
490.1561088973243
 30
0.0
 10
136.5366368189338
 20
491.5040121464298
 30
0.0
 10
134.0512675157699
 20
494.0007041526645
 30
0.0
 10
132.6827950378891
 20
495.1401458422516
 30
0.0
 10
129.7940629065367
 20
497.1094505508892
 30
0.0
 10
128.2599239163405
 20
497.9513259661394
 30
0.0
 10
123.378092369781
 20
500.0325647214705
 30
0.0
 10
119.9001075316669
 20
500.77386545553
 30
0.0
 10
114.5969731992534
 20
500.7769856424646
 30
0.0
 10
112.8559185313406
 20
500.591540243648
 30
0.0
 10
109.4226936760841
 20
499.8786631402986
 30
0.0
 10
107.7157918504999
 20
499.3427392393765
 30
0.0
 10
104.4832371594066
 20
497.9685016881256
 30
0.0
 10
102.9447911041905
 20
497.1292280529912
 30
0.0
 10
100.0256290189355
 20
495.1423293905252
 30
0.0
 10
98.66206980148739
 20
494.0049257728348
 30
0.0
 10
96.18861688637665
 20
491.5231049342818
 30
0.0
 10
95.06073678347398
 20
490.1640742419364
 30
0.0
 10
93.06193807293957
 20
487.2434425552614
 30
0.0
 10
92.2131095798483
 20
485.709721632325
 30
0.0
 10
90.78627933588248
 20
482.5102493197338
 30
0.0
 10
90.20544613981366
 20
480.8335581020988
 30
0.0
 10
89.31032863410272
 20
477.4170541374963
 30
0.0
 10
88.99422396084425
 20
475.6820454298594
 30
0.0
 10
88.80018286729025
 20
473.9214713680574
 30
0.0
  0
ARC
  5
8F
330
73
100
AcDbEntity
  8
$DDT_AUDIT_GENERATED_(8A)
  6
Continuous
 62
     7
100
AcDbCircle
 10
94.7610594093
 20
473.4499789052
 30
0.0
 40
5.97949448463374
100
AcDbArc
 50
175.4774436216
 51
185.2853185893
  0
SPLINE
  5
90
330
73
100
AcDbEntity
  8
$DDT_AUDIT_GENERATED_(8A)
  6
Continuous
 62
     7
100
AcDbSpline
210
0.0
220
0.0
230
1.0
 70
     8
 71
     3
 72
    14
 73
    10
 74
     0
 42
0.0000000001162157
 43
0.0000000001
 40
0.0
 40
0.0
 40
0.0
 40
0.0
 40
0.0625
 40
0.0625
 40
0.125
 40
0.125
 40
0.1875000000000001
 40
0.1875000000000001
 40
0.2004383840959039
 40
0.2004383840959039
 40
0.2004383840959039
 40
0.2004383840959039
 10
88.80698773545747
 20
472.8991751340608
 30
0.0
 10
88.89839409793134
 20
471.0983765462078
 30
0.0
 10
89.1440139154309
 20
469.3017971173437
 30
0.0
 10
89.93542760281281
 20
465.8180926198593
 30
0.0
 10
90.47879203344175
 20
464.1229723683904
 30
0.0
 10
91.87766537565433
 20
460.831521666168
 30
0.0
 10
92.7380919917782
 20
459.2321592743274
 30
0.0
 10
93.92974286666913
 20
457.4435136674911
 30
0.0
 10
94.13983241590654
 20
457.1410238095154
 30
0.0
 10
94.35568683022835
 20
456.842854295385
 30
0.0
  0
SPLINE
  5
91
330
73
100
AcDbEntity
  8
$DDT_AUDIT_GENERATED_(8A)
  6
Continuous
 62
     7
100
AcDbSpline
210
0.0
220
0.0
230
1.0
 70
     8
 71
     3
 72
    14
 73
    10
 74
     0
 42
0.0000000001161656
 43
0.0000000001
 40
0.7993722382030297
 40
0.7993722382030297
 40
0.7993722382030297
 40
0.7993722382030297
 40
0.8125
 40
0.8125
 40
0.875
 40
0.875
 40
0.9375
 40
0.9375
 40
1.0
 40
1.0
 40
1.0
 40
1.0
 10
138.3377866907622
 20
456.823928527778
 30
0.0
 10
138.5593550434349
 20
457.1292275940672
 30
0.0
 10
138.7747665043058
 20
457.4389310672094
 30
0.0
 10
139.9782541611583
 20
459.246006592413
 30
0.0
 10
140.8223381098852
 20
460.8154682060701
 30
0.0
 10
142.2203274092433
 20
464.1010549521797
 30
0.0
 10
142.7763734023578
 20
465.8297977904146
 30
0.0
 10
143.5678081458181
 20
469.3232690366772
 30
0.0
 10
143.8091934797116
 20
471.0983756712405
 30
0.0
 10
143.90056953156
 20
472.8991750355489
 30
0.0
  0
ARC
  5
92
330
73
100
AcDbEntity
  8
$DDT_AUDIT_GENERATED_(8A)
  6
Continuous
 62
     7
100
AcDbCircle
 10
214.1008600223
 20
379.0034951982
 30
0.0
 40
114.204300961896
100
AcDbArc
 50
182.0158338784
 51
183.4672363376
  0
ARC
  5
93
330
73
100
AcDbEntity
  8
$DDT_AUDIT_GENERATED_(8A)
  6
Continuous
 62
     7
100
AcDbCircle
 10
21.8805991292
 20
379.1691712461
 30
0.0
 40
110.9394235167555
100
AcDbArc
 50
356.3449865839
 51
357.8113570594
  0
SPLINE
  5
94
330
73
100
AcDbEntity
  8
$DDT_AUDIT_GENERATED_(8A)
  6
Continuous
 62
     7
100
AcDbSpline
210
0.0
220
0.0
230
1.0
 70
     8
 71
     3
 72
    42
 73
    38
 74
     0
 42
0.0000000001716531
 43
0.0000000001
 40
0.0
 40
0.0
 40
0.0
 40
0.0
 40
0.037471584522595
 40
0.0797696245576608
 40
0.1193231321031807
 40
0.1561944486429671
 40
0.1905390108325183
 40
0.2222770190405647
 40
0.251471544191246
 40
0.278248967686438
 40
0.3025302802731955
 40
0.3343893109878883
 40
0.3608979007490099
 40
0.3821893155459973
 40
0.3990719417595937
 40
0.4169944076235023
 40
0.4367930646777679
 40
0.466085332419643
 40
0.4986867712757557
 40
0.5343431190245505
 40
0.5610136515454025
 40
0.5872693606323354
 40
0.6130459911638975
 40
0.6382979887397763
 40
0.6710167439672127
 40
0.6993387968751789
 40
0.7225054264739347
 40
0.7339036099400362
 40
0.7457103297008884
 40
0.761996457234517
 40
0.7828303277357007
 40
0.8082971967434555
 40
0.8384819259235682
 40
0.8733276009059312
 40
0.9130398149413643
 40
0.9578119219354821
 40
1.0
 40
1.0
 40
1.0
 40
1.0
 10
100.106016911312
 20
372.0935229491303
 30
0.0
 10
100.1681706967152
 20
371.3183247840133
 30
0.0
 10
100.278670689406
 20
369.9255329499787
 30
0.0
 10
100.4696282678537
 20
367.6362543909471
 30
0.0
 10
100.6299798381466
 20
365.4120734937566
 30
0.0
 10
101.0987514663168
 20
363.360158724812
 30
0.0
 10
101.7702923877083
 20
361.5203101820559
 30
0.0
 10
102.6007902465035
 20
359.8962463024795
 30
0.0
 10
103.534164236385
 20
358.4884560334227
 30
0.0
 10
104.5239046132348
 20
357.2885063283766
 30
0.0
 10
105.6669734371582
 20
356.1452245860947
 30
0.0
 10
106.9300153737047
 20
355.1227537453906
 30
0.0
 10
108.256110690471
 20
354.2712707074278
 30
0.0
 10
109.3959383182148
 20
353.676418757618
 30
0.0
 10
110.4220684928802
 20
353.2308700157225
 30
0.0
 10
111.4502288457454
 20
352.8625952665265
 30
0.0
 10
112.7442943344185
 20
352.4992910435521
 30
0.0
 10
114.3625717208077
 20
352.2018635327723
 30
0.0
 10
116.327727014313
 20
352.0716101292331
 30
0.0
 10
118.2422823009161
 20
352.189611592415
 30
0.0
 10
119.9971671248467
 20
352.5052119423719
 30
0.0
 10
121.5161869210161
 20
352.9370507418447
 30
0.0
 10
122.9532880706781
 20
353.5014043982552
 30
0.0
 10
124.4371363772709
 20
354.2547747375187
 30
0.0
 10
125.8651397416788
 20
355.1871754448894
 30
0.0
 10
127.1352174189662
 20
356.2410809414322
 30
0.0
 10
127.9974741077344
 20
357.1101892406684
 30
0.0
 10
128.5881934189333
 20
357.7872439404286
 30
0.0
 10
129.0646403933855
 20
358.3841931650035
 30
0.0
 10
129.6139760544273
 20
359.1516462499549
 30
0.0
 10
130.2447867989765
 20
360.175951387952
 30
0.0
 10
130.9033597670298
 20
361.4840058465169
 30
0.0
 10
131.5138333567719
 20
363.0961318445555
 30
0.0
 10
132.0074434152378
 20
365.0283455405345
 30
0.0
 10
132.2105874506536
 20
367.2660390738315
 30
0.0
 10
132.3999930925339
 20
369.6998792669341
 30
0.0
 10
132.5236572901889
 20
371.2192807456227
 30
0.0
 10
132.5939159693175
 20
372.0934965617128
 30
0.0
  0
SPLINE
  5
95
330
73
100
AcDbEntity
  8
$DDT_AUDIT_GENERATED_(8A)
  6
Continuous
 62
     7
100
AcDbSpline
210
0.0
220
0.0
230
1.0
 70
     8
 71
     3
 72
    43
 73
    39
 74
     0
 42
0.0000000001105175
 43
0.0000000001
 40
0.0026677805083892
 40
0.0026677805083892
 40
0.0026677805083892
 40
0.0026677805083892
 40
0.0215325300631485
 40
0.0386390260136954
 40
0.0512623549101228
 40
0.0610107036323064
 40
0.0682636355417455
 40
0.0764563432212628
 40
0.0855862404318686
 40
0.0956472828883479
 40
0.1066409208395412
 40
0.1185729640955911
 40
0.1685643356323001
 40
0.218330265287234
 40
0.2676398418948369
 40
0.3161031837320818
 40
0.363565018427497
 40
0.410075935919661
 40
0.4564947538701187
 40
0.513033328898091
 40
0.571761796534293
 40
0.6312426885537695
 40
0.6875910100474879
 40
0.7077522296934482
 40
0.7268205886031566
 40
0.7412252707958927
 40
0.7472609671652922
 40
0.7514787077821163
 40
0.75596567444473
 40
0.7640528323645422
 40
0.7776563139882245
 40
0.795962272287205
 40
0.8189766588422307
 40
0.8466606003307036
 40
0.8789784882213162
 40
0.9159836998902581
 40
0.9575947458759583
 40
1.0
 40
1.0
 40
1.0
 40
1.0
 10
92.10708201434024
 20
464.5713112598797
 30
0.0
 10
92.22949724537305
 20
464.2012153001632
 30
0.0
 10
92.4353526236103
 20
463.5747952807656
 30
0.0
 10
92.74584365923172
 20
462.5739362695687
 30
0.0
 10
93.0003136189854
 20
461.7352784187877
 30
0.0
 10
93.198300180906
 20
461.0680113031927
 30
0.0
 10
93.37412998041457
 20
460.4655994032775
 30
0.0
 10
93.54606128373683
 20
459.8668119114412
 30
0.0
 10
93.73887344743986
 20
459.1830095168372
 30
0.0
 10
93.95163226506081
 20
458.413324472329
 30
0.0
 10
94.18330981651268
 20
457.5550257273306
 30
0.0
 10
94.69059007307818
 20
455.6208272234141
 30
0.0
 10
95.42499562331558
 20
452.537654263371
 30
0.0
 10
96.24921069991065
 20
448.2324075400596
 30
0.0
 10
96.87745075965182
 20
443.8233317590194
 30
0.0
 10
97.27577299662842
 20
439.37983155643
 30
0.0
 10
97.5773761882358
 20
434.9683202795763
 30
0.0
 10
97.8348282598567
 20
430.5906753666941
 30
0.0
 10
98.09021254376583
 20
425.9116402249363
 30
0.0
 10
98.35768505566593
 20
420.8353353776017
 30
0.0
 10
98.62872625627708
 20
415.3530662971455
 30
0.0
 10
98.87034564210448
 20
409.8756155299471
 30
0.0
 10
99.03823090253671
 20
405.6052658758759
 30
0.0
 10
99.14933305134494
 20
402.6029226102515
 30
0.0
 10
99.20975229369535
 20
400.9177987248644
 30
0.0
 10
99.25313876759625
 20
399.6763332769776
 30
0.0
 10
99.27979933752802
 20
398.9013990916213
 30
0.0
 10
99.29561284071747
 20
398.4381092321804
 30
0.0
 10
99.31351428985164
 20
397.9101046317259
 30
0.0
 10
99.3411563622617
 20
397.0868452892531
 30
0.0
 10
99.38270443856494
 20
395.8288522451627
 30
0.0
 10
99.43843380034697
 20
394.1012044531589
 30
0.0
 10
99.50646778816525
 20
391.9301908042753
 30
0.0
 10
99.58563936699692
 20
389.3190113091156
 30
0.0
 10
99.67480766336246
 20
386.2625794920107
 30
0.0
 10
99.77128444542734
 20
382.7886682842615
 30
0.0
 10
99.87555524057518
 20
378.9039459946781
 30
0.0
 10
99.93270678510804
 20
376.4534126566739
 30
0.0
 10
99.96685548433729
 20
374.9848469376077
 30
0.0
  0
SPLINE
  5
96
330
73
100
AcDbEntity
  8
$DDT_AUDIT_GENERATED_(8A)
  6
Continuous
 62
     7
100
AcDbSpline
210
0.0
220
0.0
230
1.0
 70
     8
 71
     3
 72
    46
 73
    42
 74
     0
 42
0.0000000001105427
 43
0.0000000001
 40
0.0
 40
0.0
 40
0.0
 40
0.0
 40
0.0310130840702001
 40
0.0618864248324454
 40
0.0888493688105303
 40
0.1118995038384345
 40
0.1309899176328219
 40
0.1638776840518356
 40
0.1985684635690561
 40
0.2164123683072342
 40
0.2310953844441545
 40
0.2421709587717725
 40
0.2526822708972356
 40
0.2667943057815473
 40
0.2844682067266887
 40
0.3031391802231359
 40
0.358867401246355
 40
0.4119236252671553
 40
0.4640181050432217
 40
0.5160403998757404
 40
0.5634213250581336
 40
0.610217619501258
 40
0.6571256336676248
 40
0.7041480260855145
 40
0.7511824248074312
 40
0.7754957996045391
 40
0.8008919302543202
 40
0.827296461949984
 40
0.8530209827913573
 40
0.8751260040357788
 40
0.8870600310425609
 40
0.8995720357338237
 40
0.914167206222486
 40
0.9307889910696745
 40
0.9400840567207871
 40
0.9486136415274352
 40
0.9563901361708596
 40
0.9634280551712788
 40
0.9712591366835696
 40
0.9833893101319242
 40
1.0
 40
1.0
 40
1.0
 40
1.0
 10
132.7393134039917
 20
374.9310009607501
 30
0.0
 10
132.7640018666093
 20
376.0060790832291
 30
0.0
 10
132.8056679785641
 20
377.8132090289781
 30
0.0
 10
132.8794311634078
 20
380.6685578677866
 30
0.0
 10
132.9479616288482
 20
383.2040250296291
 30
0.0
 10
133.0084182471286
 20
385.3834143560075
 30
0.0
 10
133.0758388390427
 20
387.7457637720935
 30
0.0
 10
133.156451605475
 20
390.4750206508006
 30
0.0
 10
133.2393804605074
 20
393.1640159867181
 30
0.0
 10
133.30700770263
 20
395.2796181048412
 30
0.0
 10
133.3519270531152
 20
396.6517753615562
 30
0.0
 10
133.3900220578591
 20
397.7930303115921
 30
0.0
 10
133.4281390786549
 20
398.916028410136
 30
0.0
 10
133.4741624308955
 20
400.2463510810702
 30
0.0
 10
133.5304132315066
 20
401.8330924025132
 30
0.0
 10
133.6360172264167
 20
404.7280326166171
 30
0.0
 10
133.7910190235083
 20
408.7336007461503
 30
0.0
 10
134.0072708126799
 20
413.7864647822482
 30
0.0
 10
134.2436153439105
 20
418.7190918468445
 30
0.0
 10
134.4880580175567
 20
423.4767958794554
 30
0.0
 10
134.7350417900339
 20
428.0644660511304
 30
0.0
 10
134.9804778431559
 20
432.4787308748838
 30
0.0
 10
135.2527784340636
 20
436.8610974198614
 30
0.0
 10
135.5803373321462
 20
441.2147876429139
 30
0.0
 10
135.9654061663264
 20
444.8116023587471
 30
0.0
 10
136.3957351605237
 20
447.691448100637
 30
0.0
 10
136.7842531658908
 20
449.9206299622036
 30
0.0
 10
137.2231517027176
 20
452.1450666902543
 30
0.0
 10
137.6857704414216
 20
454.2246449492376
 30
0.0
 10
138.0834661803902
 20
455.8558804517225
 30
0.0
 10
138.4034248704162
 20
457.0984616881815
 30
0.0
 10
138.6752309527545
 20
458.1192374045347
 30
0.0
 10
138.9817088050887
 20
459.234256305159
 30
0.0
 10
139.2662870104255
 20
460.2362768494261
 30
0.0
 10
139.5069662593052
 20
461.06076652569
 30
0.0
 10
139.6843975438587
 20
461.6577756302154
 30
0.0
 10
139.8441190673676
 20
462.1860311162382
 30
0.0
 10
139.9982929377692
 20
462.6876179614189
 30
0.0
 10
140.1737216425491
 20
463.2479554494961
 30
0.0
 10
140.3957197303665
 20
463.9497342238512
 30
0.0
 10
140.5491604107701
 20
464.4154185978052
 30
0.0
 10
140.6536782068539
 20
464.7320761197722
 30
0.0
  0
ARC
  5
97
330
73
100
AcDbEntity
  8
$DDT_AUDIT_GENERATED_(78)
  6
Continuous
 62
     7
100
AcDbCircle
 10
41.35
 20
482.6111628481
 30
0.0
 40
35.0
100
AcDbArc
 50
33.4177165143
 51
327.6718205167
  0
ENDBLK
  5
99
330
73
100
AcDbEntity
  8
0
100
AcDbBlockEnd
  0
BLOCK
  5
FB
330
9A
100
AcDbEntity
  8
0
100
AcDbBlockBegin
  2
SE1
 70
     0
 10
0.0
 20
0.0
 30
0.0
  3
SE1
  1

  0
LINE
  5
9C
330
9A
100
AcDbEntity
  8
$DDT_AUDIT_GENERATED_(75)
  6
Continuous
 62
     7
100
AcDbLine
 10
380.771448409
 20
446.0114153993
 30
0.0
 11
380.771448409
 21
447.0111628481
 31
0.0
  0
SPLINE
  5
9D
330
9A
100
AcDbEntity
  8
$DDT_AUDIT_GENERATED_(75)
  6
Continuous
 62
     7
100
AcDbSpline
210
0.0
220
0.0
230
1.0
 70
     8
 71
     3
 72
    60
 73
    56
 74
     0
 42
0.0000000001538491
 43
0.0000000001
 40
0.0
 40
0.0
 40
0.0
 40
0.0
 40
0.0312500000000001
 40
0.0312500000000001
 40
0.0625000000000003
 40
0.0625000000000003
 40
0.0937500000000004
 40
0.0937500000000004
 40
0.1250000000000005
 40
0.1250000000000005
 40
0.1406250000000006
 40
0.1406250000000006
 40
0.1562500000000007
 40
0.1562500000000007
 40
0.1718750000000007
 40
0.1718750000000007
 40
0.1875000000000008
 40
0.1875000000000008
 40
0.2187500000000009
 40
0.2187500000000009
 40
0.2500000000000011
 40
0.2500000000000011
 40
0.3125000000000014
 40
0.3125000000000014
 40
0.3750000000000018
 40
0.3750000000000018
 40
0.4062500000000019
 40
0.4062500000000019
 40
0.4218750000000019
 40
0.4218750000000019
 40
0.4375000000000018
 40
0.4375000000000018
 40
0.4687500000000016
 40
0.4687500000000016
 40
0.5000000000000013
 40
0.5000000000000013
 40
0.5312500000000011
 40
0.5312500000000011
 40
0.546875000000001
 40
0.546875000000001
 40
0.5625000000000008
 40
0.5625000000000008
 40
0.5781250000000007
 40
0.5781250000000007
 40
0.5937500000000006
 40
0.5937500000000006
 40
0.6250000000000004
 40
0.6250000000000004
 40
0.6875000000000002
 40
0.6875000000000002
 40
0.7500000000000001
 40
0.7500000000000001
 40
0.8750000000000001
 40
0.8750000000000001
 40
1.0
 40
1.0
 40
1.0
 40
1.0
 10
380.7714484090108
 20
446.0114153992693
 30
0.0
 10
380.7714484090108
 20
446.0114876137508
 30
0.0
 10
380.7537463191598
 20
446.2491688133687
 30
0.0
 10
380.6866490033389
 20
447.1892497597478
 30
0.0
 10
380.636532645215
 20
447.9020115074934
 30
0.0
 10
380.5162583581402
 20
449.7367056348528
 30
0.0
 10
380.4452008328103
 20
450.8716107648725
 30
0.0
 10
380.2949274154618
 20
453.5296304174915
 30
0.0
 10
380.2176649490796
 20
455.0146501837438
 30
0.0
 10
380.1066185601657
 20
457.4592715935543
 30
0.0
 10
380.0709684173308
 20
458.3181767026698
 30
0.0
 10
379.9984518808089
 20
460.0548493898783
 30
0.0
 10
379.9605696263586
 20
460.9173308012988
 30
0.0
 10
379.8711550812708
 20
462.5228125098951
 30
0.0
 10
379.8189818354983
 20
463.2698233287736
 30
0.0
 10
379.6979236322469
 20
464.5278746712343
 30
0.0
 10
379.62815724653
 20
465.0516208797104
 30
0.0
 10
379.3941728021331
 20
466.2966518196886
 30
0.0
 10
379.2105743791864
 20
466.6921725928295
 30
0.0
 10
378.8027521031136
 20
467.1813789889388
 30
0.0
 10
378.5792051150428
 20
467.2720818863818
 30
0.0
 10
377.8498440534759
 20
467.4753346573229
 30
0.0
 10
377.2862326018879
 20
467.5274163095294
 30
0.0
 10
375.993619829026
 20
467.9515736706021
 30
0.0
 10
375.2646673519504
 20
468.3107142621733
 30
0.0
 10
374.0358635877158
 20
468.9321624668929
 30
0.0
 10
373.6031248197011
 20
469.1398054716544
 30
0.0
 10
372.9174621810627
 20
469.4793720661484
 30
0.0
 10
372.6830907786079
 20
469.6090272029818
 30
0.0
 10
372.2040797596229
 20
469.9644651911601
 30
0.0
 10
371.9569014623432
 20
470.1765961817212
 30
0.0
 10
371.2300496406299
 20
471.1448229480133
 30
0.0
 10
370.7560162856366
 20
472.2562516340566
 30
0.0
 10
369.9659716122877
 20
475.1718951191012
 30
0.0
 10
369.647828010954
 20
476.9911065726382
 30
0.0
 10
369.2958543003451
 20
480.9347563585152
 30
0.0
 10
369.2641475837503
 20
483.061175340853
 30
0.0
 10
369.4405666854877
 20
486.0840110965734
 30
0.0
 10
369.5372608248541
 20
487.0816597649132
 30
0.0
 10
369.7888209015746
 20
488.9332830733582
 30
0.0
 10
369.9451327290759
 20
489.8068028198244
 30
0.0
 10
370.3074050919311
 20
491.4083571513909
 30
0.0
 10
370.508477835189
 20
492.1158143699186
 30
0.0
 10
370.9419501561091
 20
493.3605959739885
 30
0.0
 10
371.1773355307424
 20
493.8893922258697
 30
0.0
 10
371.8891271008239
 20
495.1419162799145
 30
0.0
 10
372.3906478839684
 20
495.4752645195826
 30
0.0
 10
373.7957668126378
 20
496.2510993530017
 30
0.0
 10
374.6342455659658
 20
496.6910807289529
 30
0.0
 10
376.1325232865161
 20
497.5060287606633
 30
0.0
 10
376.7933785188991
 20
497.8676385219034
 30
0.0
 10
378.5365087011207
 20
498.8246802965995
 30
0.0
 10
379.3803553717271
 20
499.2918099938272
 30
0.0
 10
380.4970337777172
 20
499.911525926654
 30
0.0
 10
380.7714484090109
 20
500.0640905538396
 30
0.0
 10
380.7714484090108
 20
500.0644131295064
 30
0.0
  0
ARC
  5
9E
330
9A
100
AcDbEntity
  8
$DDT_AUDIT_GENERATED_(75)
  6
Continuous
 62
     7
100
AcDbCircle
 10
378.7714484097
 20
500.0644131295
 30
0.0
 40
1.999999999334427
100
AcDbArc
 50
0.0
 51
77.4440709047
  0
ARC
  5
9F
330
9A
100
AcDbEntity
  8
$DDT_AUDIT_GENERATED_(75)
  6
Continuous
 62
     7
100
AcDbCircle
 10
378.7714484095
 20
446.0114153993
 30
0.0
 40
1.999999999467039
100
AcDbArc
 50
282.8534748174
 51
0.0
  0
LINE
  5
A0
330
9A
100
AcDbEntity
  8
$DDT_AUDIT_GENERATED_(75)
  6
Continuous
 62
     7
100
AcDbLine
 10
351.5586757584
 20
466.5506412653
 30
0.0
 11
351.5586738891
 21
444.7303529641
 31
0.0
  0
SPLINE
  5
A1
330
9A
100
AcDbEntity
  8
$DDT_AUDIT_GENERATED_(75)
  6
Continuous
 62
     7
100
AcDbSpline
210
0.0
220
0.0
230
1.0
 70
     8
 71
     3
 72
    10
 73
     6
 74
     0
 42
0.0000000341993567
 43
0.0000000001
 40
0.0
 40
0.0
 40
0.0
 40
0.0
 40
0.5
 40
0.5
 40
0.5312410696835175
 40
0.5312410696835175
 40
0.5312410696835175
 40
0.5312410696835175
 10
353.4597390060154
 20
442.7786486784014
 30
0.0
 10
353.3581942555552
 20
442.7531241734128
 30
0.0
 10
353.3086755705712
 20
442.7460487873279
 30
0.0
 10
353.3086750878828
 20
442.7460237795476
 30
0.0
 10
353.3088683794448
 20
442.7460499250649
 30
0.0
 10
353.3092556027635
 20
442.7461064711952
 30
0.0
  0
ARC
  5
A2
330
9A
100
AcDbEntity
  8
$DDT_AUDIT_GENERATED_(75)
  6
Continuous
 62
     7
100
AcDbCircle
 10
362.8097261201
 20
404.1647375128
 30
0.0
 40
39.72973667341404
100
AcDbArc
 50
76.9086601212
 51
103.6116556687
  0
LINE
  5
A3
330
9A
100
AcDbEntity
  8
$DDT_AUDIT_GENERATED_(75)
  6
Continuous
 62
     7
100
AcDbLine
 10
380.771448409
 20
499.3111628481
 30
0.0
 11
380.771448409
 21
500.0644131295
 31
0.0
  0
ARC
  5
A4
330
9A
100
AcDbEntity
  8
$DDT_AUDIT_GENERATED_(75)
  6
Continuous
 62
     7
100
AcDbCircle
 10
749.533125457
 20
473.1611628481
 30
0.0
 40
369.6877019312587
100
AcDbArc
 50
175.9437739176
 51
184.0562260824
  0
LINE
  5
A5
330
9A
100
AcDbEntity
  8
$DDT_AUDIT_GENERATED_(75)
  6
Continuous
 62
     7
100
AcDbLine
 10
351.5586787349
 20
501.294877958
 30
0.0
 11
351.558678529
 21
498.890617191
 31
0.0
  0
LINE
  5
A6
330
9A
100
AcDbEntity
  8
$DDT_AUDIT_GENERATED_(75)
  6
Continuous
 62
     7
100
AcDbLine
 10
351.558678529
 20
498.890617191
 30
0.0
 11
351.5586783765
 21
497.1111603148
 31
0.0
  0
LINE
  5
A7
330
9A
100
AcDbEntity
  8
$DDT_AUDIT_GENERATED_(75)
  6
Continuous
 62
     7
100
AcDbLine
 10
351.5586758921
 20
468.111163451
 30
0.0
 11
351.5586757584
 21
466.5506412653
 31
0.0
  0
ARC
  5
A8
330
9A
100
AcDbEntity
  8
$DDT_AUDIT_GENERATED_(75)
  6
Continuous
 62
     7
100
AcDbCircle
 10
367.3002704483
 20
494.1832110731
 30
0.0
 40
51.49718632310167
100
AcDbArc
 50
274.9975815531
 51
283.3743654007
  0
ARC
  5
A9
330
9A
100
AcDbEntity
  8
$DDT_AUDIT_GENERATED_(75)
  6
Continuous
 62
     7
100
AcDbCircle
 10
361.8133440008
 20
413.2859071714
 30
0.0
 40
90.3914411903528
100
AcDbArc
 50
78.9115445955
 51
95.302782433
  0
ARC
  5
AA
330
9A
100
AcDbEntity
  8
$DDT_AUDIT_GENERATED_(75)
  6
Continuous
 62
     7
100
AcDbCircle
 10
353.5586787349
 20
501.2948775894
 30
0.0
 40
1.999999999936989
100
AcDbArc
 50
92.8102965604
 51
179.9917857021
  0
ARC
  5
AB
330
9A
100
AcDbEntity
  8
$DDT_AUDIT_GENERATED_(75)
  6
Continuous
 62
     7
100
AcDbCircle
 10
353.5586711549
 20
444.7304979403
 30
0.0
 40
1.999997269728776
100
AcDbArc
 50
179.9908472624
 51
263.1655406785
  0
LINE
  5
AC
330
9A
100
AcDbEntity
  8
$DDT_AUDIT_GENERATED_(7B)
  6
Continuous
 62
     7
100
AcDbLine
 10
348.0586751163
 20
469.6985040745
 30
0.0
 11
348.0586751163
 21
467.6111628481
 31
0.0
  0
LINE
  5
AD
330
9A
100
AcDbEntity
  8
$DDT_AUDIT_GENERATED_(7B)
  6
Continuous
 62
     7
100
AcDbLine
 10
351.5586751163
 20
468.1111628481
 30
0.0
 11
351.5586751163
 21
497.1111628481
 31
0.0
  0
LINE
  5
AE
330
9A
100
AcDbEntity
  8
$DDT_AUDIT_GENERATED_(7B)
  6
Continuous
 62
     7
100
AcDbLine
 10
334.5586751163
 20
468.1111628481
 30
0.0
 11
334.5586751163
 21
497.1111628481
 31
0.0
  0
LINE
  5
AF
330
9A
100
AcDbEntity
  8
$DDT_AUDIT_GENERATED_(7B)
  6
Continuous
 62
     7
100
AcDbLine
 10
338.0586751163
 20
469.6985040745
 30
0.0
 11
338.0586751163
 21
467.6111628481
 31
0.0
  0
LINE
  5
B0
330
9A
100
AcDbEntity
  8
$DDT_AUDIT_GENERATED_(7B)
  6
Continuous
 62
     7
100
AcDbLine
 10
338.0586751163
 20
497.6111628481
 30
0.0
 11
338.0586751163
 21
495.5238216218
 31
0.0
  0
LINE
  5
B1
330
9A
100
AcDbEntity
  8
$DDT_AUDIT_GENERATED_(7B)
  6
Continuous
 62
     7
100
AcDbLine
 10
338.0586751163
 20
484.6985040745
 30
0.0
 11
338.0586751163
 21
480.5238216218
 31
0.0
  0
ARC
  5
B2
330
9A
100
AcDbEntity
  8
$DDT_AUDIT_GENERATED_(7B)
  6
Continuous
 62
     7
100
AcDbCircle
 10
341.8372346354
 20
475.1111628481
 30
0.0
 40
6.601089837288614
100
AcDbArc
 50
124.9187681796
 51
235.0812318204
  0
ARC
  5
B3
330
9A
100
AcDbEntity
  8
$DDT_AUDIT_GENERATED_(7B)
  6
Continuous
 62
     7
100
AcDbCircle
 10
341.8372346354
 20
490.1111628481
 30
0.0
 40
6.601089837288617
100
AcDbArc
 50
124.9187681796
 51
235.0812318204
  0
LINE
  5
B4
330
9A
100
AcDbEntity
  8
$DDT_AUDIT_GENERATED_(7B)
  6
Continuous
 62
     7
100
AcDbLine
 10
338.0586751163
 20
497.6111628481
 30
0.0
 11
335.2629463872
 21
497.6111628481
 31
0.0
  0
LINE
  5
B5
330
9A
100
AcDbEntity
  8
$DDT_AUDIT_GENERATED_(7B)
  6
Continuous
 62
     7
100
AcDbLine
 10
335.2629463872
 20
467.6111628481
 30
0.0
 11
338.0586751163
 21
467.6111628481
 31
0.0
  0
LINE
  5
B6
330
9A
100
AcDbEntity
  8
$DDT_AUDIT_GENERATED_(7B)
  6
Continuous
 62
     7
100
AcDbLine
 10
348.0586751163
 20
497.6111628481
 30
0.0
 11
348.0586751163
 21
495.5238216218
 31
0.0
  0
LINE
  5
B7
330
9A
100
AcDbEntity
  8
$DDT_AUDIT_GENERATED_(7B)
  6
Continuous
 62
     7
100
AcDbLine
 10
348.0586751163
 20
484.6985040745
 30
0.0
 11
348.0586751163
 21
480.5238216218
 31
0.0
  0
LINE
  5
B8
330
9A
100
AcDbEntity
  8
$DDT_AUDIT_GENERATED_(7B)
  6
Continuous
 62
     7
100
AcDbLine
 10
338.0586751163
 20
467.6111628481
 30
0.0
 11
348.0586751163
 21
467.6111628481
 31
0.0
  0
LINE
  5
B9
330
9A
100
AcDbEntity
  8
$DDT_AUDIT_GENERATED_(7B)
  6
Continuous
 62
     7
100
AcDbLine
 10
348.0586751163
 20
467.6111628481
 30
0.0
 11
350.8544038454
 21
467.6111628481
 31
0.0
  0
LINE
  5
BA
330
9A
100
AcDbEntity
  8
$DDT_AUDIT_GENERATED_(7B)
  6
Continuous
 62
     7
100
AcDbLine
 10
350.8544038454
 20
497.6111628481
 30
0.0
 11
348.0586751163
 21
497.6111628481
 31
0.0
  0
LINE
  5
BB
330
9A
100
AcDbEntity
  8
$DDT_AUDIT_GENERATED_(7B)
  6
Continuous
 62
     7
100
AcDbLine
 10
348.0586751163
 20
497.6111628481
 30
0.0
 11
338.0586751163
 21
497.6111628481
 31
0.0
  0
LINE
  5
BC
330
9A
100
AcDbEntity
  8
$DDT_AUDIT_GENERATED_(7B)
  6
Continuous
 62
     7
100
AcDbLine
 10
338.0586751163
 20
495.5238216218
 30
0.0
 11
348.0586751163
 21
495.5238216218
 31
0.0
  0
ARC
  5
BD
330
9A
100
AcDbEntity
  8
$DDT_AUDIT_GENERATED_(7B)
  6
Continuous
 62
     7
100
AcDbCircle
 10
344.2801155971
 20
490.1111628481
 30
0.0
 40
6.601089837288606
100
AcDbArc
 50
304.9187681795
 51
55.0812318205
  0
LINE
  5
BE
330
9A
100
AcDbEntity
  8
$DDT_AUDIT_GENERATED_(7B)
  6
Continuous
 62
     7
100
AcDbLine
 10
348.0586751163
 20
484.6985040745
 30
0.0
 11
338.0586751163
 21
484.6985040745
 31
0.0
  0
LINE
  5
BF
330
9A
100
AcDbEntity
  8
$DDT_AUDIT_GENERATED_(7B)
  6
Continuous
 62
     7
100
AcDbLine
 10
338.0586751163
 20
480.5238216218
 30
0.0
 11
348.0586751163
 21
480.5238216218
 31
0.0
  0
ARC
  5
C0
330
9A
100
AcDbEntity
  8
$DDT_AUDIT_GENERATED_(7B)
  6
Continuous
 62
     7
100
AcDbCircle
 10
344.2801155971
 20
475.1111628481
 30
0.0
 40
6.601089837288611
100
AcDbArc
 50
304.9187681795
 51
55.0812318205
  0
LINE
  5
C1
330
9A
100
AcDbEntity
  8
$DDT_AUDIT_GENERATED_(7B)
  6
Continuous
 62
     7
100
AcDbLine
 10
348.0586751163
 20
469.6985040745
 30
0.0
 11
338.0586751163
 21
469.6985040745
 31
0.0
  0
ARC
  5
C2
330
9A
100
AcDbEntity
  8
$DDT_AUDIT_GENERATED_(7B)
  6
Continuous
 62
     7
100
AcDbCircle
 10
345.4229739181
 20
489.2147604517
 30
0.0
 40
10.0
100
AcDbArc
 50
52.1519040322
 51
57.0986264453
  0
ARC
  5
C3
330
9A
100
AcDbEntity
  8
$DDT_AUDIT_GENERATED_(7B)
  6
Continuous
 62
     7
100
AcDbCircle
 10
345.4229739181
 20
476.0075652445
 30
0.0
 40
9.999999999999998
100
AcDbArc
 50
302.8922304319
 51
307.8480959678
  0
ARC
  5
C4
330
9A
100
AcDbEntity
  8
$DDT_AUDIT_GENERATED_(7B)
  6
Continuous
 62
     7
100
AcDbCircle
 10
340.6943763145
 20
489.2147604517
 30
0.0
 40
9.999999999999998
100
AcDbArc
 50
122.8922304319
 51
127.8480959678
  0
ARC
  5
C5
330
9A
100
AcDbEntity
  8
$DDT_AUDIT_GENERATED_(7B)
  6
Continuous
 62
     7
100
AcDbCircle
 10
340.6943763145
 20
476.0075652445
 30
0.0
 40
10.0
100
AcDbArc
 50
232.1519040322
 51
237.0986264453
  0
LINE
  5
C7
330
9A
100
AcDbEntity
  8
$DDT_AUDIT_GENERATED_(C6)
  6
Continuous
 62
     7
100
AcDbLine
 10
371.5586751163
 20
437.6111628481
 30
0.0
 11
353.5586751163
 21
437.6111628481
 31
0.0
  0
LINE
  5
C8
330
9A
100
AcDbEntity
  8
$DDT_AUDIT_GENERATED_(C6)
  6
Continuous
 62
     7
100
AcDbLine
 10
373.0386751163
 20
436.1311628481
 30
0.0
 11
352.0786751163
 21
436.1311628481
 31
0.0
  0
LINE
  5
C9
330
9A
100
AcDbEntity
  8
$DDT_AUDIT_GENERATED_(C6)
  6
Continuous
 62
     7
100
AcDbLine
 10
371.8386751163
 20
428.7111628481
 30
0.0
 11
353.2786751163
 21
428.7111628481
 31
0.0
  0
LINE
  5
CA
330
9A
100
AcDbEntity
  8
$DDT_AUDIT_GENERATED_(C6)
  6
Continuous
 62
     7
100
AcDbLine
 10
373.0386751163
 20
429.9111628481
 30
0.0
 11
352.0786751163
 21
429.9111628481
 31
0.0
  0
LINE
  5
CB
330
9A
100
AcDbEntity
  8
$DDT_AUDIT_GENERATED_(C6)
  6
Continuous
 62
     7
100
AcDbLine
 10
352.0786751163
 20
436.1311628481
 30
0.0
 11
352.0786751163
 21
429.9111628481
 31
0.0
  0
LINE
  5
CC
330
9A
100
AcDbEntity
  8
$DDT_AUDIT_GENERATED_(C6)
  6
Continuous
 62
     7
100
AcDbLine
 10
373.0386751163
 20
429.9111628481
 30
0.0
 11
373.0386751163
 21
436.1311628481
 31
0.0
  0
LINE
  5
CD
330
9A
100
AcDbEntity
  8
$DDT_AUDIT_GENERATED_(C6)
  6
Continuous
 62
     7
100
AcDbLine
 10
353.5586751163
 20
442.8031130512
 30
0.0
 11
353.5586751163
 21
437.6111628481
 31
0.0
  0
LINE
  5
CE
330
9A
100
AcDbEntity
  8
$DDT_AUDIT_GENERATED_(C6)
  6
Continuous
 62
     7
100
AcDbLine
 10
371.5586751163
 20
437.6111628481
 30
0.0
 11
371.5586751163
 21
442.9127126536
 31
0.0
  0
LINE
  5
CF
330
9A
100
AcDbEntity
  8
$DDT_AUDIT_GENERATED_(C6)
  6
Continuous
 62
     7
100
AcDbLine
 10
373.0386751163
 20
436.1311628481
 30
0.0
 11
371.5586751163
 21
437.6111628481
 31
0.0
  0
LINE
  5
D0
330
9A
100
AcDbEntity
  8
$DDT_AUDIT_GENERATED_(C6)
  6
Continuous
 62
     7
100
AcDbLine
 10
353.5586751163
 20
437.6111628481
 30
0.0
 11
352.0786751163
 21
436.1311628481
 31
0.0
  0
LINE
  5
D1
330
9A
100
AcDbEntity
  8
$DDT_AUDIT_GENERATED_(C6)
  6
Continuous
 62
     7
100
AcDbLine
 10
352.0786751163
 20
429.9111628481
 30
0.0
 11
353.2786751163
 21
428.7111628481
 31
0.0
  0
LINE
  5
D2
330
9A
100
AcDbEntity
  8
$DDT_AUDIT_GENERATED_(C6)
  6
Continuous
 62
     7
100
AcDbLine
 10
371.8386751163
 20
428.7111628481
 30
0.0
 11
373.0386751163
 21
429.9111628481
 31
0.0
  0
LINE
  5
D3
330
9A
100
AcDbEntity
  8
$DDT_AUDIT_GENERATED_(C6)
  6
Continuous
 62
     7
100
AcDbLine
 10
371.8736751163
 20
437.2961628481
 30
0.0
 11
371.8736751163
 21
428.7461628481
 31
0.0
  0
LINE
  5
D4
330
9A
100
AcDbEntity
  8
$DDT_AUDIT_GENERATED_(C6)
  6
Continuous
 62
     7
100
AcDbLine
 10
353.2436751163
 20
437.2961628481
 30
0.0
 11
353.2436751163
 21
428.7461628481
 31
0.0
  0
ARC
  5
D6
330
9A
100
AcDbEntity
  8
$DDT_AUDIT_GENERATED_(D5)
  6
Continuous
 62
     7
100
AcDbCircle
 10
407.4086751163
 20
473.1611628481
 30
0.0
 40
26.00000000000001
100
AcDbArc
 50
66.137049031
 51
90.0
  0
ARC
  5
D7
330
9A
100
AcDbEntity
  8
$DDT_AUDIT_GENERATED_(D5)
  6
Continuous
 62
     7
100
AcDbCircle
 10
407.4086751163
 20
473.1611628481
 30
0.0
 40
26.0
100
AcDbArc
 50
270.0
 51
293.8618667958
  0
LINE
  5
D8
330
9A
100
AcDbEntity
  8
$DDT_AUDIT_GENERATED_(D5)
  6
Continuous
 62
     7
100
AcDbLine
 10
407.4086751163
 20
499.1611628481
 30
0.0
 11
380.7609467362
 21
499.1611628481
 31
0.0
  0
LINE
  5
D9
330
9A
100
AcDbEntity
  8
$DDT_AUDIT_GENERATED_(D5)
  6
Continuous
 62
     7
100
AcDbLine
 10
380.7609546801
 20
447.1611628481
 30
0.0
 11
407.4086751163
 21
447.1611628481
 31
0.0
  0
ARC
  5
DA
330
9A
100
AcDbEntity
  8
$DDT_AUDIT_GENERATED_(8A)
  6
Continuous
 62
     7
100
AcDbCircle
 10
428.8109023824
 20
428.5691448397
 30
0.0
 40
16.63029899826921
100
AcDbArc
 50
71.3336409362
 51
96.3043694519
  0
LINE
  5
DB
330
9A
100
AcDbEntity
  8
$DDT_AUDIT_GENERATED_(8A)
  6
Continuous
 62
     7
100
AcDbLine
 10
417.919133304
 20
472.9141096584
 30
0.0
 11
417.919133304
 21
445.7350718721
 31
0.0
  0
LINE
  5
DC
330
9A
100
AcDbEntity
  8
$DDT_AUDIT_GENERATED_(8A)
  6
Continuous
 62
     7
100
AcDbLine
 10
417.919133304
 20
472.9141089437
 30
0.0
 11
417.919133304
 21
473.8889838645
 31
0.0
  0
LINE
  5
DD
330
9A
100
AcDbEntity
  8
$DDT_AUDIT_GENERATED_(8A)
  6
Continuous
 62
     7
100
AcDbLine
 10
417.919133304
 20
500.4870785405
 30
0.0
 11
417.919133304
 21
473.8889824061
 31
0.0
  0
ARC
  5
DE
330
9A
100
AcDbEntity
  8
$DDT_AUDIT_GENERATED_(8A)
  6
Continuous
 62
     7
100
AcDbCircle
 10
442.1069679689
 20
368.4559953463
 30
0.0
 40
20.18904768256892
100
AcDbArc
 50
4.8844778281
 51
14.4936481152
  0
ARC
  5
DF
330
9A
100
AcDbEntity
  8
$DDT_AUDIT_GENERATED_(8A)
  6
Continuous
 62
     7
100
AcDbCircle
 10
441.4909052539
 20
368.3229456318
 30
0.0
 40
20.81415691291176
100
AcDbArc
 50
5.0893757587
 51
14.2924343905
  0
ARC
  5
E0
330
9A
100
AcDbEntity
  8
$DDT_AUDIT_GENERATED_(8A)
  6
Continuous
 62
     7
100
AcDbCircle
 10
465.8395472689
 20
370.187384382
 30
0.0
 40
3.616732382309032
100
AcDbArc
 50
180.2407290136
 51
199.3087886891
  0
ARC
  5
E1
330
9A
100
AcDbEntity
  8
$DDT_AUDIT_GENERATED_(8A)
  6
Continuous
 62
     7
100
AcDbCircle
 10
476.4645217821
 20
372.7224978112
 30
0.0
 40
10.21423554518236
100
AcDbArc
 50
185.5904225922
 51
199.3399476239
  0
SPLINE
  5
E2
330
9A
100
AcDbEntity
  8
$DDT_AUDIT_GENERATED_(8A)
  6
Continuous
 62
     7
100
AcDbSpline
210
0.0
220
0.0
230
1.0
 70
     8
 71
     3
 72
    19
 73
    15
 74
     0
 42
0.0000000021400867
 43
0.0000000001
 40
0.0
 40
0.0
 40
0.0
 40
0.0
 40
0.0701856162065131
 40
0.1323242918390765
 40
0.1865658190544158
 40
0.2331198198424254
 40
0.3023558159962383
 40
0.3749947706924371
 40
0.4810213942522446
 40
0.5466759710447916
 40
0.6206001164264506
 40
0.7030434062796982
 40
0.7939657124903003
 40
1.0
 40
1.0
 40
1.0
 40
1.0
 10
469.6559096000803
 20
352.88070794036
 30
0.0
 10
469.7089297964183
 20
352.7743273718756
 30
0.0
 10
469.7970593513338
 20
352.6062972584671
 30
0.0
 10
469.9940397417964
 20
352.3858345608974
 30
0.0
 10
470.2019559604064
 20
352.2434894980378
 30
0.0
 10
470.4460750951473
 20
352.1441834012072
 30
0.0
 10
470.7368186203539
 20
352.1003822897497
 30
0.0
 10
471.1197897575007
 20
352.1494902449416
 30
0.0
 10
471.4665008437937
 20
352.3202311999079
 30
0.0
 10
471.7428769983343
 20
352.5821560852345
 30
0.0
 10
471.9313633416037
 20
352.8718708935378
 30
0.0
 10
472.0557022278625
 20
353.2343258197866
 30
0.0
 10
472.1127657898665
 20
353.828649180565
 30
0.0
 10
471.9967196221871
 20
354.243488773618
 30
0.0
 10
471.8925315938411
 20
354.5764948189636
 30
0.0
  0
LINE
  5
E3
330
9A
100
AcDbEntity
  8
$DDT_AUDIT_GENERATED_(8A)
  6
Continuous
 62
     7
100
AcDbLine
 10
462.4262426141
 20
368.9915221433
 30
0.0
 11
469.6559095512
 21
352.8807080644
 31
0.0
  0
LINE
  5
E4
330
9A
100
AcDbEntity
  8
$DDT_AUDIT_GENERATED_(8A)
  6
Continuous
 62
     7
100
AcDbLine
 10
471.8925317702
 20
354.5764943716
 30
0.0
 11
466.8266243731
 21
369.3399469124
 31
0.0
  0
SPLINE
  5
E5
330
9A
100
AcDbEntity
  8
$DDT_AUDIT_GENERATED_(8A)
  6
Continuous
 62
     7
100
AcDbSpline
210
0.0
220
0.0
230
1.0
 70
     8
 71
     3
 72
    40
 73
    36
 74
     0
 42
0.0000000000685213
 43
0.0000000001
 40
0.0
 40
0.0
 40
0.0
 40
0.0
 40
0.0532898962140645
 40
0.1092392439418291
 40
0.1621682852805587
 40
0.2120511725594336
 40
0.2588308555828489
 40
0.3019728868924711
 40
0.343049670550569
 40
0.3811147336345139
 40
0.4161363685793619
 40
0.4473582789956567
 40
0.4757073781853024
 40
0.5011802361578297
 40
0.5238106181553978
 40
0.54046620699828
 40
0.5575024883221731
 40
0.5762279914113609
 40
0.5969034051799202
 40
0.6193982360593279
 40
0.6438087768920373
 40
0.6701054052119502
 40
0.6982630228631586
 40
0.7221623249620004
 40
0.7472681500955459
 40
0.7735570872306727
 40
0.8012579296493576
 40
0.8317191931650042
 40
0.8580138022440171
 40
0.8851960404103484
 40
0.9132547121657637
 40
0.9348810051304542
 40
0.9570303431865075
 40
0.9796395719259444
 40
1.0
 40
1.0
 40
1.0
 40
1.0
 10
466.2987316058999
 20
371.7278276640897
 30
0.0
 10
465.9919344387001
 20
374.5620013166441
 30
0.0
 10
465.4617416934676
 20
379.4598948977746
 30
0.0
 10
464.5958247081265
 20
387.459160074665
 30
0.0
 10
463.7692949527072
 20
395.0946729805731
 30
0.0
 10
462.985264793153
 20
402.3372201189762
 30
0.0
 10
462.2539224292116
 20
409.0942486508447
 30
0.0
 10
461.5679077773223
 20
415.4284839810432
 30
0.0
 10
460.9290787175336
 20
421.340697842382
 30
0.0
 10
460.3272502583939
 20
426.8602816026097
 30
0.0
 10
459.6516635886092
 20
431.8880985939413
 30
0.0
 10
459.0035192529469
 20
436.4424415126069
 30
0.0
 10
458.3606146200456
 20
440.5281669023811
 30
0.0
 10
457.7275614073155
 20
444.1920250436481
 30
0.0
 10
457.1403631760593
 20
447.2862794071851
 30
0.0
 10
456.5891350295085
 20
449.9693590407157
 30
0.0
 10
456.041821878749
 20
452.4591372501767
 30
0.0
 10
455.4127114265563
 20
455.130814328674
 30
0.0
 10
454.6694652564148
 20
458.0479296341387
 30
0.0
 10
453.779653521006
 20
461.2121888997137
 30
0.0
 10
452.7056518209358
 20
464.6070895013555
 30
0.0
 10
451.3956094977451
 20
468.2132292217441
 30
0.0
 10
449.9048534557076
 20
471.7224832158192
 30
0.0
 10
448.2408061754433
 20
475.087896596564
 30
0.0
 10
446.43226799863
 20
478.2743049154574
 30
0.0
 10
444.3242733304988
 20
481.4952033608193
 30
0.0
 10
441.8389064248708
 20
484.7692614471515
 30
0.0
 10
439.1062344050724
 20
487.8421061951238
 30
0.0
 10
436.162955098086
 20
490.6752624649644
 30
0.0
 10
433.1111160079854
 20
493.2133168838105
 30
0.0
 10
430.057933538081
 20
495.3747564750911
 30
0.0
 10
427.0574360101482
 20
497.1786095402578
 30
0.0
 10
424.193241801284
 20
498.6347946066623
 30
0.0
 10
421.2089751970041
 20
499.8889549783111
 30
0.0
 10
419.3498854426881
 20
500.4489190851479
 30
0.0
 10
418.3054081293755
 20
500.7577430930059
 30
0.0
  0
ARC
  5
E6
330
9A
100
AcDbEntity
  8
$DDT_AUDIT_GENERATED_(8A)
  6
Continuous
 62
     7
100
AcDbCircle
 10
429.8404422218
 20
408.1738974845
 30
0.0
 40
36.37810965764582
100
AcDbArc
 50
59.3863292092
 51
83.2289594291
  0
ARC
  5
E7
330
9A
100
AcDbEntity
  8
$DDT_AUDIT_GENERATED_(8A)
  6
Continuous
 62
     7
100
AcDbCircle
 10
415.9392229006
 20
272.0664239301
 30
0.0
 40
173.3835874499176
100
AcDbArc
 50
86.3347337955
 51
89.2489583095
  0
SPLINE
  5
E8
330
9A
100
AcDbEntity
  8
$DDT_AUDIT_GENERATED_(8A)
  6
Continuous
 62
     7
100
AcDbSpline
210
0.0
220
0.0
230
1.0
 70
     8
 71
     3
 72
    39
 73
    35
 74
     0
 42
0.0000000001475083
 43
0.0000000001
 40
0.0
 40
0.0
 40
0.0
 40
0.0
 40
0.0365562416234429
 40
0.0680192330607434
 40
0.0943302362655763
 40
0.1155006515160321
 40
0.1315847789277114
 40
0.1425637074999102
 40
0.146522129393515
 40
0.1502299111148677
 40
0.1538977795281561
 40
0.1577407929685602
 40
0.1677335821220032
 40
0.178976451972136
 40
0.1886117674521324
 40
0.1989011452378997
 40
0.2214069560620478
 40
0.2324852556254092
 40
0.2437479665940974
 40
0.2879820528801356
 40
0.330210596845697
 40
0.3742680637967786
 40
0.4224412563935406
 40
0.4691712555446622
 40
0.518859706006878
 40
0.5725991817822643
 40
0.6321274823110051
 40
0.6976430541440605
 40
0.7437289581144407
 40
0.792470641291872
 40
0.8436665907266495
 40
0.8974188468370341
 40
0.9535545512334185
 40
1.0
 40
1.0
 40
1.0
 40
1.0
 10
448.3674951111622
 20
439.480614306889
 30
0.0
 10
448.4107309394271
 20
439.4504416434266
 30
0.0
 10
448.4794026316205
 20
439.4019762959953
 30
0.0
 10
448.5995129203134
 20
439.3045159117329
 30
0.0
 10
448.7123155985626
 20
439.2069402472076
 30
0.0
 10
448.8118451833088
 20
439.1044343409038
 30
0.0
 10
448.9060859162105
 20
438.9860490151661
 30
0.0
 10
448.977564448473
 20
438.8809897171429
 30
0.0
 10
449.0667870508197
 20
438.7545897741593
 30
0.0
 10
449.1604508992202
 20
438.6212903342762
 30
0.0
 10
449.2820529740201
 20
438.4420134536696
 30
0.0
 10
449.5024692571072
 20
438.1031085219128
 30
0.0
 10
449.8526641632001
 20
437.5340461612651
 30
0.0
 10
450.2191291908611
 20
436.8616389174543
 30
0.0
 10
450.531775042843
 20
436.2005390245129
 30
0.0
 10
450.8880915133037
 20
435.351413227852
 30
0.0
 10
451.2807190470683
 20
434.3565516178404
 30
0.0
 10
451.6540478801184
 20
433.2656877215035
 30
0.0
 10
452.1786128946259
 20
431.5949413081285
 30
0.0
 10
452.7988817821589
 20
429.09427584153
 30
0.0
 10
453.4272776194293
 20
425.706737797433
 30
0.0
 10
453.9406360617123
 20
422.198545777785
 30
0.0
 10
454.4016282268761
 20
418.5643778563513
 30
0.0
 10
454.8685663817823
 20
414.7828543887159
 30
0.0
 10
455.3918501918054
 20
410.8618425782832
 30
0.0
 10
456.0024858993997
 20
406.6137455921889
 30
0.0
 10
456.7083220069096
 20
401.9570179858341
 30
0.0
 10
457.4251990740019
 20
397.5054861658922
 30
0.0
 10
458.1265234100379
 20
393.3381868774297
 30
0.0
 10
458.7843661449479
 20
389.5476651493385
 30
0.0
 10
459.491830968444
 20
385.5525811567874
 30
0.0
 10
460.2360511137847
 20
381.3957960432237
 30
0.0
 10
461.0364037446282
 20
377.2616451988958
 30
0.0
 10
461.4254877545403
 20
374.7780343736958
 30
0.0
 10
461.6354211804104
 20
373.4470903677233
 30
0.0
  0
ARC
  5
E9
330
9A
100
AcDbEntity
  8
$DDT_AUDIT_GENERATED_(8A)
  6
Continuous
 62
     7
100
AcDbCircle
 10
434.1722713446
 20
444.5476525503
 30
0.0
 40
0.2265051396511122
100
AcDbArc
 50
249.9622040628
 51
253.4371245081
  0
ARC
  5
EA
330
9A
100
AcDbEntity
  8
$DDT_AUDIT_GENERATED_(8A)
  6
Continuous
 62
     7
100
AcDbCircle
 10
418.2191332119
 20
445.7351488619
 30
0.0
 40
0.2999990434882733
100
AcDbArc
 50
179.9704930018
 51
267.1495836412
  0
ARC
  5
EB
330
9A
100
AcDbEntity
  8
$DDT_AUDIT_GENERATED_(8A)
  6
Continuous
 62
     7
100
AcDbCircle
 10
418.2191333059
 20
500.4870776813
 30
0.0
 40
0.3000000019549628
100
AcDbArc
 50
72.7817012235
 51
179.9980050329
  0
LINE
  5
ED
330
9A
100
AcDbEntity
  8
$DDT_AUDIT_GENERATED_(EC)
  6
Continuous
 62
     7
100
AcDbLine
 10
433.7393014009
 20
444.3703534319
 30
0.0
 11
429.7095313225
 21
445.1536613854
 31
0.0
  0
LINE
  5
EF
330
9A
100
AcDbEntity
  8
$DDT_AUDIT_GENERATED_(EE)
  6
Continuous
 62
     7
100
AcDbLine
 10
334.5586751163
 20
493.6111628481
 30
0.0
 11
334.0586751163
 21
493.6111628481
 31
0.0
  0
LINE
  5
F0
330
9A
100
AcDbEntity
  8
$DDT_AUDIT_GENERATED_(EE)
  6
Continuous
 62
     7
100
AcDbLine
 10
334.5586751163
 20
471.6111628481
 30
0.0
 11
334.0586751163
 21
471.6111628481
 31
0.0
  0
LINE
  5
F1
330
9A
100
AcDbEntity
  8
$DDT_AUDIT_GENERATED_(78)
  6
Continuous
 62
     7
100
AcDbLine
 10
308.0586751163
 20
517.6111628481
 30
0.0
 11
308.0586751163
 21
447.6111628481
 31
0.0
  0
LINE
  5
F2
330
9A
100
AcDbEntity
  8
$DDT_AUDIT_GENERATED_(78)
  6
Continuous
 62
     7
100
AcDbLine
 10
334.0586751163
 20
467.7436345066
 30
0.0
 11
334.0586751163
 21
497.4786911896
 31
0.0
  0
LINE
  5
F3
330
9A
100
AcDbEntity
  8
$DDT_AUDIT_GENERATED_(78)
  6
Continuous
 62
     7
100
AcDbLine
 10
308.0586751163
 20
447.6111628481
 30
0.0
 11
313.2450386602
 21
447.6111628481
 31
0.0
  0
LINE
  5
F4
330
9A
100
AcDbEntity
  8
$DDT_AUDIT_GENERATED_(78)
  6
Continuous
 62
     7
100
AcDbLine
 10
313.2450386602
 20
517.6111628481
 30
0.0
 11
308.0586751163
 21
517.6111628481
 31
0.0
  0
LINE
  5
F5
330
9A
100
AcDbEntity
  8
$DDT_AUDIT_GENERATED_(78)
  6
Continuous
 62
     7
100
AcDbLine
 10
314.6412389324
 20
448.1791625689
 30
0.0
 11
333.6058253205
 21
466.6696342972
 31
0.0
  0
LINE
  5
F6
330
9A
100
AcDbEntity
  8
$DDT_AUDIT_GENERATED_(78)
  6
Continuous
 62
     7
100
AcDbLine
 10
333.6058253205
 20
498.552691399
 30
0.0
 11
314.6412389324
 21
517.0431631273
 31
0.0
  0
ARC
  5
F7
330
9A
100
AcDbEntity
  8
$DDT_AUDIT_GENERATED_(78)
  6
Continuous
 62
     7
100
AcDbCircle
 10
332.5586751163
 20
467.7436345066
 30
0.0
 40
1.500000000000003
100
AcDbArc
 50
314.2747757009
 51
0.0
  0
ARC
  5
F8
330
9A
100
AcDbEntity
  8
$DDT_AUDIT_GENERATED_(78)
  6
Continuous
 62
     7
100
AcDbCircle
 10
332.5586751163
 20
497.4786911896
 30
0.0
 40
1.500000000000001
100
AcDbArc
 50
0.0
 51
45.7252242991
  0
ARC
  5
F9
330
9A
100
AcDbEntity
  8
$DDT_AUDIT_GENERATED_(78)
  6
Continuous
 62
     7
100
AcDbCircle
 10
313.2450386602
 20
515.6111628481
 30
0.0
 40
2.0
100
AcDbArc
 50
45.7252242991
 51
90.0
  0
ARC
  5
FA
330
9A
100
AcDbEntity
  8
$DDT_AUDIT_GENERATED_(78)
  6
Continuous
 62
     7
100
AcDbCircle
 10
313.2450386602
 20
449.6111628481
 30
0.0
 40
2.000000000000002
100
AcDbArc
 50
270.0
 51
314.2747757009
  0
ENDBLK
  5
FC
330
9A
100
AcDbEntity
  8
0
100
AcDbBlockEnd
  0
BLOCK
  5
17A
330
FD
100
AcDbEntity
  8
0
100
AcDbBlockBegin
  2
SE2
 70
     0
 10
0.0
 20
0.0
 30
0.0
  3
SE2
  1

  0
ARC
  5
FF
330
FD
100
AcDbEntity
  8
$DDT_AUDIT_GENERATED_(75)
  6
Continuous
 62
     7
100
AcDbCircle
 10
113.2039899555
 20
510.5825137054
 30
0.0
 40
312.9308350462482
100
AcDbArc
 50
254.4361050709
 51
270.5760254797
  0
ARC
  5
100
330
FD
100
AcDbEntity
  8
$DDT_AUDIT_GENERATED_(75)
  6
Continuous
 62
     7
100
AcDbCircle
 10
119.4200963442
 20
511.1567071418
 30
0.0
 40
313.5042469173928
100
AcDbArc
 50
269.4389027371
 51
285.5499004445
  0
ARC
  5
101
330
FD
100
AcDbEntity
  8
$DDT_AUDIT_GENERATED_(75)
  6
Continuous
 62
     7
100
AcDbCircle
 10
113.8952531298
 20
532.675446857
 30
0.0
 40
333.4517738549978
100
AcDbArc
 50
255.0525190825
 51
255.0525641267
  0
LINE
  5
102
330
FD
100
AcDbEntity
  8
$DDT_AUDIT_GENERATED_(75)
  6
Continuous
 62
     7
100
AcDbLine
 10
170.903311432
 20
226.8802657137
 30
0.0
 11
61.7965061342
 21
226.8802657137
 31
0.0
  0
ARC
  5
103
330
FD
100
AcDbEntity
  8
$DDT_AUDIT_GENERATED_(75)
  6
Continuous
 62
     7
100
AcDbCircle
 10
170.0827495865
 20
220.0818757279
 30
0.0
 40
6.870743983065423
100
AcDbArc
 50
57.5569099014
 51
81.6774349373
  0
LINE
  5
104
330
FD
100
AcDbEntity
  8
$DDT_AUDIT_GENERATED_(75)
  6
Continuous
 62
     7
100
AcDbLine
 10
165.3500020181
 20
226.8802643378
 30
0.0
 11
171.0772616034
 21
226.8802629432
 31
0.0
  0
LINE
  5
105
330
FD
100
AcDbEntity
  8
$DDT_AUDIT_GENERATED_(75)
  6
Continuous
 62
     7
100
AcDbLine
 10
173.7686401174
 20
225.8802663559
 30
0.0
 11
205.6930903653
 21
225.8802663559
 31
0.0
  0
LINE
  5
106
330
FD
100
AcDbEntity
  8
$DDT_AUDIT_GENERATED_(75)
  6
Continuous
 62
     7
100
AcDbLine
 10
61.6226216568
 20
226.8802629431
 30
0.0
 11
171.0772616034
 21
226.8802629432
 31
0.0
  0
ARC
  5
107
330
FD
100
AcDbEntity
  8
$DDT_AUDIT_GENERATED_(75)
  6
Continuous
 62
     7
100
AcDbCircle
 10
62.6233407849
 20
220.0647827994
 30
0.0
 40
6.888556333774857
100
AcDbArc
 50
98.3530705398
 51
122.4111269405
  0
LINE
  5
108
330
FD
100
AcDbEntity
  8
$DDT_AUDIT_GENERATED_(75)
  6
Continuous
 62
     7
100
AcDbLine
 10
61.6226216567
 20
226.8802629431
 30
0.0
 11
67.3499979819
 21
226.8802643378
 31
0.0
  0
LINE
  5
109
330
FD
100
AcDbEntity
  8
$DDT_AUDIT_GENERATED_(75)
  6
Continuous
 62
     7
100
AcDbLine
 10
27.0071726412
 20
225.8802663559
 30
0.0
 11
58.9311382758
 21
225.8802663559
 31
0.0
  0
ARC
  5
10A
330
FD
100
AcDbEntity
  8
$DDT_AUDIT_GENERATED_(75)
  6
Continuous
 62
     7
100
AcDbCircle
 10
69.0950700627
 20
221.1000248821
 30
0.0
 40
42.5163585905342
100
AcDbArc
 50
174.782843035
 51
194.4349378247
  0
ARC
  5
10B
330
FD
100
AcDbEntity
  8
$DDT_AUDIT_GENERATED_(75)
  6
Continuous
 62
     7
100
AcDbCircle
 10
163.6264069599
 20
221.0983918337
 30
0.0
 40
42.49553576710369
100
AcDbArc
 50
345.5466063222
 51
5.2244264901
  0
ARC
  5
10C
330
FD
100
AcDbEntity
  8
$DDT_AUDIT_GENERATED_(75)
  6
Continuous
 62
     7
100
AcDbCircle
 10
29.8038880111
 20
211.0069561993
 30
0.0
 40
1.963985482982558
100
AcDbArc
 50
195.1308190194
 51
249.5810315403
  0
ARC
  5
10D
330
FD
100
AcDbEntity
  8
$DDT_AUDIT_GENERATED_(75)
  6
Continuous
 62
     7
100
AcDbCircle
 10
202.9246526578
 20
210.9928955403
 30
0.0
 40
1.940529073937832
100
AcDbArc
 50
289.1361353493
 51
344.8433919589
  0
ARC
  5
10E
330
FD
100
AcDbEntity
  8
$DDT_AUDIT_GENERATED_(75)
  6
Continuous
 62
     7
100
AcDbCircle
 10
203.9610363298
 20
224.8802644108
 30
0.0
 40
2.000003930036156
100
AcDbArc
 50
2.7288109683
 51
30.5595631307
  0
ARC
  5
10F
330
FD
100
AcDbEntity
  8
$DDT_AUDIT_GENERATED_(75)
  6
Continuous
 62
     7
100
AcDbCircle
 10
28.7392727102
 20
224.8802644115
 30
0.0
 40
2.000004105827832
100
AcDbArc
 50
149.4682920779
 51
177.5554375089
  0
LINE
  5
110
330
FD
100
AcDbEntity
  8
$DDT_AUDIT_GENERATED_(EE)
  6
Continuous
 62
     7
100
AcDbLine
 10
184.0173060885
 20
243.8802663559
 30
0.0
 11
184.0173060885
 21
244.3802663559
 31
0.0
  0
LINE
  5
111
330
FD
100
AcDbEntity
  8
$DDT_AUDIT_GENERATED_(EE)
  6
Continuous
 62
     7
100
AcDbLine
 10
198.6826939115
 20
244.3802663559
 30
0.0
 11
198.6826939115
 21
243.8802663559
 31
0.0
  0
LINE
  5
112
330
FD
100
AcDbEntity
  8
$DDT_AUDIT_GENERATED_(EE)
  6
Continuous
 62
     7
100
AcDbLine
 10
204.57
 20
243.8802663559
 30
0.0
 11
204.57
 21
244.3802663559
 31
0.0
  0
LINE
  5
113
330
FD
100
AcDbEntity
  8
$DDT_AUDIT_GENERATED_(EE)
  6
Continuous
 62
     7
100
AcDbLine
 10
178.13
 20
244.3802663559
 30
0.0
 11
178.13
 21
243.8802663559
 31
0.0
  0
LINE
  5
114
330
FD
100
AcDbEntity
  8
$DDT_AUDIT_GENERATED_(EE)
  6
Continuous
 62
     7
100
AcDbLine
 10
203.4
 20
244.3802663559
 30
0.0
 11
203.4
 21
243.8802663559
 31
0.0
  0
LINE
  5
115
330
FD
100
AcDbEntity
  8
$DDT_AUDIT_GENERATED_(EE)
  6
Continuous
 62
     7
100
AcDbLine
 10
179.3
 20
244.3802663559
 30
0.0
 11
179.3
 21
243.8802663559
 31
0.0
  0
LINE
  5
116
330
FD
100
AcDbEntity
  8
$DDT_AUDIT_GENERATED_(78)
  6
Continuous
 62
     7
100
AcDbLine
 10
226.35
 20
270.3802663559
 30
0.0
 11
156.35
 21
270.3802663559
 31
0.0
  0
LINE
  5
117
330
FD
100
AcDbEntity
  8
$DDT_AUDIT_GENERATED_(78)
  6
Continuous
 62
     7
100
AcDbLine
 10
176.4824716585
 20
244.3802663559
 30
0.0
 11
206.2175283415
 21
244.3802663559
 31
0.0
  0
LINE
  5
118
330
FD
100
AcDbEntity
  8
$DDT_AUDIT_GENERATED_(78)
  6
Continuous
 62
     7
100
AcDbLine
 10
156.35
 20
270.3802663559
 30
0.0
 11
156.35
 21
265.193902812
 31
0.0
  0
LINE
  5
119
330
FD
100
AcDbEntity
  8
$DDT_AUDIT_GENERATED_(78)
  6
Continuous
 62
     7
100
AcDbLine
 10
226.35
 20
265.193902812
 30
0.0
 11
226.35
 21
270.3802663559
 31
0.0
  0
LINE
  5
11A
330
FD
100
AcDbEntity
  8
$DDT_AUDIT_GENERATED_(78)
  6
Continuous
 62
     7
100
AcDbLine
 10
156.9179997208
 20
263.7977025397
 30
0.0
 11
175.4084714491
 21
244.8331161517
 31
0.0
  0
LINE
  5
11B
330
FD
100
AcDbEntity
  8
$DDT_AUDIT_GENERATED_(78)
  6
Continuous
 62
     7
100
AcDbLine
 10
207.2915285509
 20
244.8331161517
 30
0.0
 11
225.7820002792
 21
263.7977025397
 31
0.0
  0
ARC
  5
11C
330
FD
100
AcDbEntity
  8
$DDT_AUDIT_GENERATED_(78)
  6
Continuous
 62
     7
100
AcDbCircle
 10
176.4824716585
 20
245.8802663559
 30
0.0
 40
1.500000000000002
100
AcDbArc
 50
224.2747757009
 51
270.0
  0
ARC
  5
11D
330
FD
100
AcDbEntity
  8
$DDT_AUDIT_GENERATED_(78)
  6
Continuous
 62
     7
100
AcDbCircle
 10
206.2175283415
 20
245.8802663559
 30
0.0
 40
1.500000000000001
100
AcDbArc
 50
270.0
 51
315.7252242991
  0
ARC
  5
11E
330
FD
100
AcDbEntity
  8
$DDT_AUDIT_GENERATED_(78)
  6
Continuous
 62
     7
100
AcDbCircle
 10
224.35
 20
265.193902812
 30
0.0
 40
2.0
100
AcDbArc
 50
315.7252242991
 51
0.0
  0
ARC
  5
11F
330
FD
100
AcDbEntity
  8
$DDT_AUDIT_GENERATED_(78)
  6
Continuous
 62
     7
100
AcDbCircle
 10
158.35
 20
265.193902812
 30
0.0
 40
2.000000000000002
100
AcDbArc
 50
180.0
 51
224.2747757009
  0
LINE
  5
121
330
FD
100
AcDbEntity
  8
$DDT_AUDIT_GENERATED_(120)
  6
Continuous
 62
     7
100
AcDbLine
 10
201.85
 20
225.8802663559
 30
0.0
 11
201.85
 21
226.8802663559
 31
0.0
  0
LINE
  5
122
330
FD
100
AcDbEntity
  8
$DDT_AUDIT_GENERATED_(120)
  6
Continuous
 62
     7
100
AcDbLine
 10
180.85
 20
226.8802663559
 30
0.0
 11
180.85
 21
225.8802663559
 31
0.0
  0
LINE
  5
123
330
FD
100
AcDbEntity
  8
$DDT_AUDIT_GENERATED_(120)
  6
Continuous
 62
     7
100
AcDbLine
 10
51.85
 20
225.8802663559
 30
0.0
 11
51.85
 21
226.8802663559
 31
0.0
  0
LINE
  5
124
330
FD
100
AcDbEntity
  8
$DDT_AUDIT_GENERATED_(120)
  6
Continuous
 62
     7
100
AcDbLine
 10
30.85
 20
226.8802663559
 30
0.0
 11
30.85
 21
225.8802663559
 31
0.0
  0
LINE
  5
125
330
FD
100
AcDbEntity
  8
$DDT_AUDIT_GENERATED_(7B)
  6
Continuous
 62
     7
100
AcDbLine
 10
26.85
 20
226.8802663559
 30
0.0
 11
55.85
 21
226.8802663559
 31
0.0
  0
LINE
  5
126
330
FD
100
AcDbEntity
  8
$DDT_AUDIT_GENERATED_(7B)
  6
Continuous
 62
     7
100
AcDbLine
 10
26.85
 20
243.8802663559
 30
0.0
 11
55.85
 21
243.8802663559
 31
0.0
  0
LINE
  5
127
330
FD
100
AcDbEntity
  8
$DDT_AUDIT_GENERATED_(7B)
  6
Continuous
 62
     7
100
AcDbLine
 10
57.4653810568
 20
240.3802663559
 30
0.0
 11
57.6
 21
240.3802663559
 31
0.0
  0
LINE
  5
128
330
FD
100
AcDbEntity
  8
$DDT_AUDIT_GENERATED_(7B)
  6
Continuous
 62
     7
100
AcDbLine
 10
51.2153810568
 20
240.3802663559
 30
0.0
 11
47.6
 21
240.3802663559
 31
0.0
  0
LINE
  5
129
330
FD
100
AcDbEntity
  8
$DDT_AUDIT_GENERATED_(7B)
  6
Continuous
 62
     7
100
AcDbLine
 10
35.1
 20
240.3802663559
 30
0.0
 11
31.4846189432
 21
240.3802663559
 31
0.0
  0
LINE
  5
12A
330
FD
100
AcDbEntity
  8
$DDT_AUDIT_GENERATED_(7B)
  6
Continuous
 62
     7
100
AcDbLine
 10
25.2346189432
 20
240.3802663559
 30
0.0
 11
25.1
 21
240.3802663559
 31
0.0
  0
SPLINE
  5
12B
330
FD
100
AcDbEntity
  8
$DDT_AUDIT_GENERATED_(7B)
  6
Continuous
 62
     7
100
AcDbSpline
210
0.0
220
0.0
230
1.0
 70
     8
 71
     3
 72
    14
 73
    10
 74
     0
 42
0.0000000011014719
 43
0.0000000001
 40
0.0
 40
0.0
 40
0.0
 40
0.0
 40
0.25
 40
0.25
 40
0.5
 40
0.5
 40
0.75
 40
0.75
 40
1.0
 40
1.0
 40
1.0
 40
1.0
 10
31.48461894323343
 20
240.3802663558558
 30
0.0
 10
31.13730109460616
 20
241.3580729243089
 30
0.0
 10
30.63937378202275
 20
242.0549314184898
 30
0.0
 10
29.54946571745451
 20
242.9616133703594
 30
0.0
 10
28.95559153604949
 20
243.1755604706785
 30
0.0
 10
27.7671864326606
 20
243.1764276237204
 30
0.0
 10
27.18163265026355
 20
242.9691090654513
 30
0.0
 10
26.08135090715707
 20
242.058510569528
 30
0.0
 10
25.58155418098324
 20
241.3569957570122
 30
0.0
 10
25.23461894323342
 20
240.3802663558558
 30
0.0
  0
SPLINE
  5
12C
330
FD
100
AcDbEntity
  8
$DDT_AUDIT_GENERATED_(7B)
  6
Continuous
 62
     7
100
AcDbSpline
210
0.0
220
0.0
230
1.0
 70
     8
 71
     3
 72
    14
 73
    10
 74
     0
 42
0.0000000006969408
 43
0.0000000001
 40
0.0
 40
0.0
 40
0.0
 40
0.0
 40
0.25
 40
0.25
 40
0.5
 40
0.5
 40
0.75
 40
0.75
 40
1.0
 40
1.0
 40
1.0
 40
1.0
 10
47.6
 20
240.3802663558558
 30
0.0
 10
46.90691164748787
 20
241.3558947986255
 30
0.0
 10
45.89935147965701
 20
242.0618734872729
 30
0.0
 10
43.70870602728324
 20
242.9675872516691
 30
0.0
 10
42.52449172379386
 20
243.1778896483591
 30
0.0
 10
40.14440371496939
 20
243.1740748102221
 30
0.0
 10
38.96138010542577
 20
242.9587755676723
 30
0.0
 10
36.7893770655833
 20
242.0535892530341
 30
0.0
 10
35.78787435235001
 20
241.3485552915621
 30
0.0
 10
35.09999999999999
 20
240.3802663558558
 30
0.0
  0
SPLINE
  5
12D
330
FD
100
AcDbEntity
  8
$DDT_AUDIT_GENERATED_(7B)
  6
Continuous
 62
     7
100
AcDbSpline
210
0.0
220
0.0
230
1.0
 70
     8
 71
     3
 72
    14
 73
    10
 74
     0
 42
0.0000000011014719
 43
0.0000000001
 40
0.0
 40
0.0
 40
0.0
 40
0.0
 40
0.25
 40
0.25
 40
0.5
 40
0.5
 40
0.75
 40
0.75
 40
1.0
 40
1.0
 40
1.0
 40
1.0
 10
57.46538105676659
 20
240.3802663558558
 30
0.0
 10
57.1180632081393
 20
241.3580729243089
 30
0.0
 10
56.62013589555592
 20
242.0549314184898
 30
0.0
 10
55.53022783098766
 20
242.9616133703595
 30
0.0
 10
54.93635364958265
 20
243.1755604706785
 30
0.0
 10
53.74794854619375
 20
243.1764276237204
 30
0.0
 10
53.1623947637967
 20
242.9691090654514
 30
0.0
 10
52.06211302069022
 20
242.058510569528
 30
0.0
 10
51.56231629451638
 20
241.3569957570122
 30
0.0
 10
51.21538105676657
 20
240.3802663558558
 30
0.0
  0
LINE
  5
12E
330
FD
100
AcDbEntity
  8
$DDT_AUDIT_GENERATED_(7B)
  6
Continuous
 62
     7
100
AcDbLine
 10
57.4653810568
 20
230.3802663559
 30
0.0
 11
57.6
 21
230.3802663559
 31
0.0
  0
LINE
  5
12F
330
FD
100
AcDbEntity
  8
$DDT_AUDIT_GENERATED_(7B)
  6
Continuous
 62
     7
100
AcDbLine
 10
51.2153810568
 20
230.3802663559
 30
0.0
 11
47.6
 21
230.3802663559
 31
0.0
  0
LINE
  5
130
330
FD
100
AcDbEntity
  8
$DDT_AUDIT_GENERATED_(7B)
  6
Continuous
 62
     7
100
AcDbLine
 10
35.1
 20
230.3802663559
 30
0.0
 11
31.4846189432
 21
230.3802663559
 31
0.0
  0
LINE
  5
131
330
FD
100
AcDbEntity
  8
$DDT_AUDIT_GENERATED_(7B)
  6
Continuous
 62
     7
100
AcDbLine
 10
25.2346189432
 20
230.3802663559
 30
0.0
 11
25.1
 21
230.3802663559
 31
0.0
  0
LINE
  5
132
330
FD
100
AcDbEntity
  8
$DDT_AUDIT_GENERATED_(7B)
  6
Continuous
 62
     7
100
AcDbLine
 10
57.4653810568
 20
240.3802663559
 30
0.0
 11
57.4653810568
 21
230.3802663559
 31
0.0
  0
SPLINE
  5
133
330
FD
100
AcDbEntity
  8
$DDT_AUDIT_GENERATED_(7B)
  6
Continuous
 62
     7
100
AcDbSpline
210
0.0
220
0.0
230
1.0
 70
     8
 71
     3
 72
    14
 73
    10
 74
     0
 42
0.0000000011014719
 43
0.0000000001
 40
0.0
 40
0.0
 40
0.0
 40
0.0
 40
0.2499999999999999
 40
0.2499999999999999
 40
0.4999999999999999
 40
0.4999999999999999
 40
0.7499999999999999
 40
0.7499999999999999
 40
1.0
 40
1.0
 40
1.0
 40
1.0
 10
57.46538105676659
 20
230.3802663558558
 30
0.0
 10
57.11806320813931
 20
229.4024597874026
 30
0.0
 10
56.62013589555592
 20
228.7056012932217
 30
0.0
 10
55.53022783098766
 20
227.7989193413521
 30
0.0
 10
54.93635364958264
 20
227.584972241033
 30
0.0
 10
53.74794854619375
 20
227.5841050879911
 30
0.0
 10
53.1623947637967
 20
227.7914236462602
 30
0.0
 10
52.06211302069022
 20
228.7020221421836
 30
0.0
 10
51.56231629451638
 20
229.4035369546994
 30
0.0
 10
51.21538105676657
 20
230.3802663558558
 30
0.0
  0
LINE
  5
134
330
FD
100
AcDbEntity
  8
$DDT_AUDIT_GENERATED_(7B)
  6
Continuous
 62
     7
100
AcDbLine
 10
51.2153810568
 20
230.3802663559
 30
0.0
 11
51.2153810568
 21
240.3802663559
 31
0.0
  0
LINE
  5
135
330
FD
100
AcDbEntity
  8
$DDT_AUDIT_GENERATED_(7B)
  6
Continuous
 62
     7
100
AcDbLine
 10
47.6
 20
240.3802663559
 30
0.0
 11
47.6
 21
230.3802663559
 31
0.0
  0
SPLINE
  5
136
330
FD
100
AcDbEntity
  8
$DDT_AUDIT_GENERATED_(7B)
  6
Continuous
 62
     7
100
AcDbSpline
210
0.0
220
0.0
230
1.0
 70
     8
 71
     3
 72
    14
 73
    10
 74
     0
 42
0.0000000006969408
 43
0.0000000001
 40
0.0
 40
0.0
 40
0.0
 40
0.0
 40
0.25
 40
0.25
 40
0.5
 40
0.5
 40
0.75
 40
0.75
 40
1.0
 40
1.0
 40
1.0
 40
1.0
 10
47.6
 20
230.3802663558558
 30
0.0
 10
46.9069116474879
 20
229.404637913086
 30
0.0
 10
45.89935147965701
 20
228.6986592244387
 30
0.0
 10
43.70870602728324
 20
227.7929454600424
 30
0.0
 10
42.52449172379386
 20
227.5826430633525
 30
0.0
 10
40.14440371496939
 20
227.5864579014895
 30
0.0
 10
38.96138010542577
 20
227.8017571440392
 30
0.0
 10
36.78937706558327
 20
228.7069434586774
 30
0.0
 10
35.78787435234998
 20
229.4119774201494
 30
0.0
 10
35.09999999999999
 20
230.3802663558558
 30
0.0
  0
LINE
  5
137
330
FD
100
AcDbEntity
  8
$DDT_AUDIT_GENERATED_(7B)
  6
Continuous
 62
     7
100
AcDbLine
 10
35.1
 20
230.3802663559
 30
0.0
 11
35.1
 21
240.3802663559
 31
0.0
  0
LINE
  5
138
330
FD
100
AcDbEntity
  8
$DDT_AUDIT_GENERATED_(7B)
  6
Continuous
 62
     7
100
AcDbLine
 10
31.4846189432
 20
240.3802663559
 30
0.0
 11
31.4846189432
 21
230.3802663559
 31
0.0
  0
SPLINE
  5
139
330
FD
100
AcDbEntity
  8
$DDT_AUDIT_GENERATED_(7B)
  6
Continuous
 62
     7
100
AcDbSpline
210
0.0
220
0.0
230
1.0
 70
     8
 71
     3
 72
    14
 73
    10
 74
     0
 42
0.0000000011014719
 43
0.0000000001
 40
0.0
 40
0.0
 40
0.0
 40
0.0
 40
0.2500000000000001
 40
0.2500000000000001
 40
0.5000000000000001
 40
0.5000000000000001
 40
0.7500000000000002
 40
0.7500000000000002
 40
1.0
 40
1.0
 40
1.0
 40
1.0
 10
31.48461894323343
 20
230.3802663558558
 30
0.0
 10
31.13730109460616
 20
229.4024597874026
 30
0.0
 10
30.63937378202275
 20
228.7056012932218
 30
0.0
 10
29.54946571745451
 20
227.7989193413521
 30
0.0
 10
28.95559153604949
 20
227.584972241033
 30
0.0
 10
27.7671864326606
 20
227.5841050879911
 30
0.0
 10
27.18163265026355
 20
227.7914236462602
 30
0.0
 10
26.08135090715707
 20
228.7020221421836
 30
0.0
 10
25.58155418098324
 20
229.4035369546994
 30
0.0
 10
25.23461894323342
 20
230.3802663558558
 30
0.0
  0
LINE
  5
13A
330
FD
100
AcDbEntity
  8
$DDT_AUDIT_GENERATED_(7B)
  6
Continuous
 62
     7
100
AcDbLine
 10
25.2346189432
 20
230.3802663559
 30
0.0
 11
25.2346189432
 21
240.3802663559
 31
0.0
  0
LINE
  5
13B
330
FD
100
AcDbEntity
  8
$DDT_AUDIT_GENERATED_(7B)
  6
Continuous
 62
     7
100
AcDbLine
 10
25.1
 20
240.3802663559
 30
0.0
 11
25.1
 21
230.3802663559
 31
0.0
  0
ARC
  5
13C
330
FD
100
AcDbEntity
  8
$DDT_AUDIT_GENERATED_(7B)
  6
Continuous
 62
     7
100
AcDbCircle
 10
47.9535976036
 20
233.0159675541
 30
0.0
 40
9.999999999999993
100
AcDbArc
 50
322.1519040322
 51
344.7179936136
  0
ARC
  5
13D
330
FD
100
AcDbEntity
  8
$DDT_AUDIT_GENERATED_(7B)
  6
Continuous
 62
     7
100
AcDbCircle
 10
34.7464023964
 20
233.0159675541
 30
0.0
 40
9.999999999999991
100
AcDbArc
 50
195.2820063864
 51
217.8480959678
  0
ARC
  5
13E
330
FD
100
AcDbEntity
  8
$DDT_AUDIT_GENERATED_(7B)
  6
Continuous
 62
     7
100
AcDbCircle
 10
47.9535976036
 20
237.7445651576
 30
0.0
 40
9.999999999999993
100
AcDbArc
 50
15.2820063864
 51
37.8480959678
  0
ARC
  5
13F
330
FD
100
AcDbEntity
  8
$DDT_AUDIT_GENERATED_(7B)
  6
Continuous
 62
     7
100
AcDbCircle
 10
34.7464023964
 20
237.7445651576
 30
0.0
 40
10.0
100
AcDbArc
 50
142.1519040322
 51
164.7179936136
  0
LINE
  5
140
330
FD
100
AcDbEntity
  8
$DDT_AUDIT_GENERATED_(7B)
  6
Continuous
 62
     7
100
AcDbLine
 10
57.6
 20
230.3802663559
 30
0.0
 11
57.6
 21
240.3802663559
 31
0.0
  0
LINE
  5
141
330
FD
100
AcDbEntity
  8
$DDT_AUDIT_GENERATED_(7B)
  6
Continuous
 62
     7
100
AcDbLine
 10
176.85
 20
226.8802663559
 30
0.0
 11
205.85
 21
226.8802663559
 31
0.0
  0
LINE
  5
142
330
FD
100
AcDbEntity
  8
$DDT_AUDIT_GENERATED_(7B)
  6
Continuous
 62
     7
100
AcDbLine
 10
176.85
 20
243.8802663559
 30
0.0
 11
205.85
 21
243.8802663559
 31
0.0
  0
LINE
  5
143
330
FD
100
AcDbEntity
  8
$DDT_AUDIT_GENERATED_(7B)
  6
Continuous
 62
     7
100
AcDbLine
 10
207.4653810568
 20
240.3802663559
 30
0.0
 11
207.6
 21
240.3802663559
 31
0.0
  0
LINE
  5
144
330
FD
100
AcDbEntity
  8
$DDT_AUDIT_GENERATED_(7B)
  6
Continuous
 62
     7
100
AcDbLine
 10
201.2153810568
 20
240.3802663559
 30
0.0
 11
197.6
 21
240.3802663559
 31
0.0
  0
LINE
  5
145
330
FD
100
AcDbEntity
  8
$DDT_AUDIT_GENERATED_(7B)
  6
Continuous
 62
     7
100
AcDbLine
 10
185.1
 20
240.3802663559
 30
0.0
 11
181.4846189432
 21
240.3802663559
 31
0.0
  0
LINE
  5
146
330
FD
100
AcDbEntity
  8
$DDT_AUDIT_GENERATED_(7B)
  6
Continuous
 62
     7
100
AcDbLine
 10
175.2346189432
 20
240.3802663559
 30
0.0
 11
175.1
 21
240.3802663559
 31
0.0
  0
SPLINE
  5
147
330
FD
100
AcDbEntity
  8
$DDT_AUDIT_GENERATED_(7B)
  6
Continuous
 62
     7
100
AcDbSpline
210
0.0
220
0.0
230
1.0
 70
     8
 71
     3
 72
    14
 73
    10
 74
     0
 42
0.0000000011014719
 43
0.0000000001
 40
0.0
 40
0.0
 40
0.0
 40
0.0
 40
0.25
 40
0.25
 40
0.5
 40
0.5
 40
0.75
 40
0.75
 40
1.0
 40
1.0
 40
1.0
 40
1.0
 10
181.4846189432334
 20
240.3802663558558
 30
0.0
 10
181.1373010946062
 20
241.3580729243089
 30
0.0
 10
180.6393737820227
 20
242.0549314184897
 30
0.0
 10
179.5494657174545
 20
242.9616133703594
 30
0.0
 10
178.9555915360495
 20
243.1755604706785
 30
0.0
 10
177.7671864326606
 20
243.1764276237204
 30
0.0
 10
177.1816326502635
 20
242.9691090654513
 30
0.0
 10
176.0813509071571
 20
242.058510569528
 30
0.0
 10
175.5815541809832
 20
241.3569957570121
 30
0.0
 10
175.2346189432334
 20
240.3802663558558
 30
0.0
  0
SPLINE
  5
148
330
FD
100
AcDbEntity
  8
$DDT_AUDIT_GENERATED_(7B)
  6
Continuous
 62
     7
100
AcDbSpline
210
0.0
220
0.0
230
1.0
 70
     8
 71
     3
 72
    14
 73
    10
 74
     0
 42
0.0000000006969408
 43
0.0000000001
 40
0.0
 40
0.0
 40
0.0
 40
0.0
 40
0.25
 40
0.25
 40
0.5
 40
0.5
 40
0.75
 40
0.75
 40
1.0
 40
1.0
 40
1.0
 40
1.0
 10
197.6
 20
240.3802663558558
 30
0.0
 10
196.9069116474878
 20
241.3558947986255
 30
0.0
 10
195.899351479657
 20
242.0618734872729
 30
0.0
 10
193.7087060272832
 20
242.9675872516691
 30
0.0
 10
192.5244917237939
 20
243.177889648359
 30
0.0
 10
190.1444037149694
 20
243.174074810222
 30
0.0
 10
188.9613801054258
 20
242.9587755676723
 30
0.0
 10
186.7893770655833
 20
242.0535892530341
 30
0.0
 10
185.78787435235
 20
241.3485552915621
 30
0.0
 10
185.1
 20
240.3802663558558
 30
0.0
  0
SPLINE
  5
149
330
FD
100
AcDbEntity
  8
$DDT_AUDIT_GENERATED_(7B)
  6
Continuous
 62
     7
100
AcDbSpline
210
0.0
220
0.0
230
1.0
 70
     8
 71
     3
 72
    14
 73
    10
 74
     0
 42
0.0000000011014719
 43
0.0000000001
 40
0.0
 40
0.0
 40
0.0
 40
0.0
 40
0.25
 40
0.25
 40
0.5
 40
0.5
 40
0.75
 40
0.75
 40
1.0
 40
1.0
 40
1.0
 40
1.0
 10
207.4653810567666
 20
240.3802663558558
 30
0.0
 10
207.1180632081393
 20
241.3580729243089
 30
0.0
 10
206.6201358955559
 20
242.0549314184897
 30
0.0
 10
205.5302278309877
 20
242.9616133703594
 30
0.0
 10
204.9363536495827
 20
243.1755604706785
 30
0.0
 10
203.7479485461938
 20
243.1764276237204
 30
0.0
 10
203.1623947637967
 20
242.9691090654513
 30
0.0
 10
202.0621130206902
 20
242.058510569528
 30
0.0
 10
201.5623162945164
 20
241.3569957570121
 30
0.0
 10
201.2153810567666
 20
240.3802663558558
 30
0.0
  0
LINE
  5
14A
330
FD
100
AcDbEntity
  8
$DDT_AUDIT_GENERATED_(7B)
  6
Continuous
 62
     7
100
AcDbLine
 10
207.4653810568
 20
230.3802663559
 30
0.0
 11
207.6
 21
230.3802663559
 31
0.0
  0
LINE
  5
14B
330
FD
100
AcDbEntity
  8
$DDT_AUDIT_GENERATED_(7B)
  6
Continuous
 62
     7
100
AcDbLine
 10
201.2153810568
 20
230.3802663559
 30
0.0
 11
197.6
 21
230.3802663559
 31
0.0
  0
LINE
  5
14C
330
FD
100
AcDbEntity
  8
$DDT_AUDIT_GENERATED_(7B)
  6
Continuous
 62
     7
100
AcDbLine
 10
185.1
 20
230.3802663559
 30
0.0
 11
181.4846189432
 21
230.3802663559
 31
0.0
  0
LINE
  5
14D
330
FD
100
AcDbEntity
  8
$DDT_AUDIT_GENERATED_(7B)
  6
Continuous
 62
     7
100
AcDbLine
 10
175.2346189432
 20
230.3802663559
 30
0.0
 11
175.1
 21
230.3802663559
 31
0.0
  0
LINE
  5
14E
330
FD
100
AcDbEntity
  8
$DDT_AUDIT_GENERATED_(7B)
  6
Continuous
 62
     7
100
AcDbLine
 10
207.4653810568
 20
240.3802663559
 30
0.0
 11
207.4653810568
 21
230.3802663559
 31
0.0
  0
SPLINE
  5
14F
330
FD
100
AcDbEntity
  8
$DDT_AUDIT_GENERATED_(7B)
  6
Continuous
 62
     7
100
AcDbSpline
210
0.0
220
0.0
230
1.0
 70
     8
 71
     3
 72
    14
 73
    10
 74
     0
 42
0.0000000011014719
 43
0.0000000001
 40
0.0
 40
0.0
 40
0.0
 40
0.0
 40
0.2499999999999999
 40
0.2499999999999999
 40
0.4999999999999999
 40
0.4999999999999999
 40
0.7499999999999999
 40
0.7499999999999999
 40
1.0
 40
1.0
 40
1.0
 40
1.0
 10
207.4653810567666
 20
230.3802663558557
 30
0.0
 10
207.1180632081393
 20
229.4024597874026
 30
0.0
 10
206.6201358955559
 20
228.7056012932217
 30
0.0
 10
205.5302278309877
 20
227.798919341352
 30
0.0
 10
204.9363536495827
 20
227.584972241033
 30
0.0
 10
203.7479485461938
 20
227.5841050879911
 30
0.0
 10
203.1623947637967
 20
227.7914236462602
 30
0.0
 10
202.0621130206902
 20
228.7020221421835
 30
0.0
 10
201.5623162945164
 20
229.4035369546993
 30
0.0
 10
201.2153810567666
 20
230.3802663558557
 30
0.0
  0
LINE
  5
150
330
FD
100
AcDbEntity
  8
$DDT_AUDIT_GENERATED_(7B)
  6
Continuous
 62
     7
100
AcDbLine
 10
201.2153810568
 20
230.3802663559
 30
0.0
 11
201.2153810568
 21
240.3802663559
 31
0.0
  0
LINE
  5
151
330
FD
100
AcDbEntity
  8
$DDT_AUDIT_GENERATED_(7B)
  6
Continuous
 62
     7
100
AcDbLine
 10
197.6
 20
240.3802663559
 30
0.0
 11
197.6
 21
230.3802663559
 31
0.0
  0
SPLINE
  5
152
330
FD
100
AcDbEntity
  8
$DDT_AUDIT_GENERATED_(7B)
  6
Continuous
 62
     7
100
AcDbSpline
210
0.0
220
0.0
230
1.0
 70
     8
 71
     3
 72
    14
 73
    10
 74
     0
 42
0.0000000006969408
 43
0.0000000001
 40
0.0
 40
0.0
 40
0.0
 40
0.0
 40
0.25
 40
0.25
 40
0.5
 40
0.5
 40
0.75
 40
0.75
 40
1.0
 40
1.0
 40
1.0
 40
1.0
 10
197.6
 20
230.3802663558557
 30
0.0
 10
196.9069116474879
 20
229.404637913086
 30
0.0
 10
195.899351479657
 20
228.6986592244386
 30
0.0
 10
193.7087060272832
 20
227.7929454600424
 30
0.0
 10
192.5244917237939
 20
227.5826430633525
 30
0.0
 10
190.1444037149694
 20
227.5864579014895
 30
0.0
 10
188.9613801054258
 20
227.8017571440392
 30
0.0
 10
186.7893770655833
 20
228.7069434586774
 30
0.0
 10
185.78787435235
 20
229.4119774201494
 30
0.0
 10
185.1
 20
230.3802663558557
 30
0.0
  0
LINE
  5
153
330
FD
100
AcDbEntity
  8
$DDT_AUDIT_GENERATED_(7B)
  6
Continuous
 62
     7
100
AcDbLine
 10
185.1
 20
230.3802663559
 30
0.0
 11
185.1
 21
240.3802663559
 31
0.0
  0
LINE
  5
154
330
FD
100
AcDbEntity
  8
$DDT_AUDIT_GENERATED_(7B)
  6
Continuous
 62
     7
100
AcDbLine
 10
181.4846189432
 20
240.3802663559
 30
0.0
 11
181.4846189432
 21
230.3802663559
 31
0.0
  0
SPLINE
  5
155
330
FD
100
AcDbEntity
  8
$DDT_AUDIT_GENERATED_(7B)
  6
Continuous
 62
     7
100
AcDbSpline
210
0.0
220
0.0
230
1.0
 70
     8
 71
     3
 72
    14
 73
    10
 74
     0
 42
0.0000000011014719
 43
0.0000000001
 40
0.0
 40
0.0
 40
0.0
 40
0.0
 40
0.2500000000000001
 40
0.2500000000000001
 40
0.5000000000000001
 40
0.5000000000000001
 40
0.7500000000000002
 40
0.7500000000000002
 40
1.0
 40
1.0
 40
1.0
 40
1.0
 10
181.4846189432334
 20
230.3802663558557
 30
0.0
 10
181.1373010946062
 20
229.4024597874026
 30
0.0
 10
180.6393737820227
 20
228.7056012932217
 30
0.0
 10
179.5494657174545
 20
227.7989193413521
 30
0.0
 10
178.9555915360495
 20
227.584972241033
 30
0.0
 10
177.7671864326606
 20
227.5841050879911
 30
0.0
 10
177.1816326502635
 20
227.7914236462602
 30
0.0
 10
176.0813509071571
 20
228.7020221421836
 30
0.0
 10
175.5815541809832
 20
229.4035369546993
 30
0.0
 10
175.2346189432334
 20
230.3802663558557
 30
0.0
  0
LINE
  5
156
330
FD
100
AcDbEntity
  8
$DDT_AUDIT_GENERATED_(7B)
  6
Continuous
 62
     7
100
AcDbLine
 10
175.2346189432
 20
230.3802663559
 30
0.0
 11
175.2346189432
 21
240.3802663559
 31
0.0
  0
LINE
  5
157
330
FD
100
AcDbEntity
  8
$DDT_AUDIT_GENERATED_(7B)
  6
Continuous
 62
     7
100
AcDbLine
 10
175.1
 20
240.3802663559
 30
0.0
 11
175.1
 21
230.3802663559
 31
0.0
  0
ARC
  5
158
330
FD
100
AcDbEntity
  8
$DDT_AUDIT_GENERATED_(7B)
  6
Continuous
 62
     7
100
AcDbCircle
 10
197.9535976036
 20
233.0159675541
 30
0.0
 40
9.999999999999998
100
AcDbArc
 50
322.1519040322
 51
344.7179936136
  0
ARC
  5
159
330
FD
100
AcDbEntity
  8
$DDT_AUDIT_GENERATED_(7B)
  6
Continuous
 62
     7
100
AcDbCircle
 10
184.7464023964
 20
233.0159675541
 30
0.0
 40
9.999999999999991
100
AcDbArc
 50
195.2820063864
 51
217.8480959678
  0
ARC
  5
15A
330
FD
100
AcDbEntity
  8
$DDT_AUDIT_GENERATED_(7B)
  6
Continuous
 62
     7
100
AcDbCircle
 10
197.9535976036
 20
237.7445651576
 30
0.0
 40
9.999999999999993
100
AcDbArc
 50
15.2820063864
 51
37.8480959678
  0
ARC
  5
15B
330
FD
100
AcDbEntity
  8
$DDT_AUDIT_GENERATED_(7B)
  6
Continuous
 62
     7
100
AcDbCircle
 10
184.7464023964
 20
237.7445651576
 30
0.0
 40
9.999999999999998
100
AcDbArc
 50
142.1519040322
 51
164.7179936136
  0
LINE
  5
15C
330
FD
100
AcDbEntity
  8
$DDT_AUDIT_GENERATED_(7B)
  6
Continuous
 62
     7
100
AcDbLine
 10
207.6
 20
230.3802663559
 30
0.0
 11
207.6
 21
240.3802663559
 31
0.0
  0
ARC
  5
15D
330
FD
100
AcDbEntity
  8
$DDT_AUDIT_GENERATED_(D5)
  6
Continuous
 62
     7
100
AcDbCircle
 10
116.3499999964
 20
171.0302663559
 30
0.0
 40
26.00000000000001
100
AcDbArc
 50
336.1223974414
 51
0.0
  0
ARC
  5
15E
330
FD
100
AcDbEntity
  8
$DDT_AUDIT_GENERATED_(D5)
  6
Continuous
 62
     7
100
AcDbCircle
 10
116.3499999964
 20
171.0302663559
 30
0.0
 40
26.00000000000001
100
AcDbArc
 50
180.0
 51
203.8903715992
  0
LINE
  5
15F
330
FD
100
AcDbEntity
  8
$DDT_AUDIT_GENERATED_(D5)
  6
Continuous
 62
     7
100
AcDbLine
 10
142.3499999964
 20
171.0302663559
 30
0.0
 11
142.3499999964
 21
198.6126690495
 31
0.0
  0
LINE
  5
160
330
FD
100
AcDbEntity
  8
$DDT_AUDIT_GENERATED_(D5)
  6
Continuous
 62
     7
100
AcDbLine
 10
90.3499999964
 20
198.6173787563
 30
0.0
 11
90.3499999964
 21
171.0302663559
 31
0.0
  0
LINE
  5
161
330
FD
100
AcDbEntity
  8
$DDT_AUDIT_GENERATED_(8A)
  6
Continuous
 62
     7
100
AcDbLine
 10
89.0965453918
 20
160.5198081682
 30
0.0
 11
143.6110135675
 21
160.5198081682
 31
0.0
  0
SPLINE
  5
162
330
FD
100
AcDbEntity
  8
$DDT_AUDIT_GENERATED_(8A)
  6
Continuous
 62
     7
100
AcDbSpline
210
0.0
220
0.0
230
1.0
 70
     8
 71
     3
 72
     8
 73
     4
 74
     0
 42
0.0000004037095229
 43
0.0000000001
 40
0.354902886101766
 40
0.354902886101766
 40
0.354902886101766
 40
0.354902886101766
 40
0.3952738383953885
 40
0.3952738383953885
 40
0.3952738383953885
 40
0.3952738383953885
 10
88.78132469848971
 20
160.1883988896965
 30
0.0
 10
88.78128259468711
 20
160.1884361813589
 30
0.0
 10
88.78130269781269
 20
160.1884698518894
 30
0.0
 10
88.78138011344238
 20
160.188500097222
 30
0.0
  0
ARC
  5
163
330
FD
100
AcDbEntity
  8
$DDT_AUDIT_GENERATED_(8A)
  6
Continuous
 62
     7
100
AcDbCircle
 10
85.2301863687
 20
112.5016481452
 30
0.0
 40
15.09174633849031
100
AcDbArc
 50
8.9733934736
 51
12.1701997779
  0
ARC
  5
164
330
FD
100
AcDbEntity
  8
$DDT_AUDIT_GENERATED_(8A)
  6
Continuous
 62
     7
100
AcDbCircle
 10
145.9047913641
 20
112.6614981566
 30
0.0
 40
13.52129107138023
100
AcDbArc
 50
167.1221994901
 51
170.6632474723
  0
SPLINE
  5
165
330
FD
100
AcDbEntity
  8
$DDT_AUDIT_GENERATED_(8A)
  6
Continuous
 62
     7
100
AcDbSpline
210
0.0
220
0.0
230
1.0
 70
     8
 71
     3
 72
    40
 73
    36
 74
     0
 42
0.0000000002470652
 43
0.0000000001
 40
0.0
 40
0.0
 40
0.0
 40
0.0
 40
0.0327429439601959
 40
0.0681580245814951
 40
0.0974682489473508
 40
0.1206671504908219
 40
0.1383972876930543
 40
0.1551996875321836
 40
0.1896753894739654
 40
0.2240008326251762
 40
0.2569802496413519
 40
0.2902623033722403
 40
0.3250591182245744
 40
0.3614146060475933
 40
0.3902704271676004
 40
0.420768266557939
 40
0.4529299181817886
 40
0.486779064581221
 40
0.5223031231597426
 40
0.5595413940779145
 40
0.5953756445899266
 40
0.6275424258334692
 40
0.6648211615724614
 40
0.6956342163321781
 40
0.7224248044108932
 40
0.7510789973587462
 40
0.7807130483685474
 40
0.8082733078731591
 40
0.8182798999849333
 40
0.8315869638204203
 40
0.8493043337510465
 40
0.8716206987266581
 40
0.9086309485439902
 40
0.9544026106573141
 40
1.0
 40
1.0
 40
1.0
 40
1.0
 10
100.1414930575731
 20
114.8379133258272
 30
0.0
 10
100.1984157916955
 20
114.5661668667218
 30
0.0
 10
100.2985612847237
 20
114.0877449211171
 30
0.0
 10
100.4713665839135
 20
113.3117789652692
 30
0.0
 10
100.6274690840361
 20
112.6050089435329
 30
0.0
 10
100.7890820596224
 20
112.0146230409853
 30
0.0
 10
101.0381941468263
 20
111.4925107327206
 30
0.0
 10
101.4176583756507
 20
110.8816355570657
 30
0.0
 10
102.0357517478696
 20
110.1592275103455
 30
0.0
 10
102.9936815391891
 20
109.3841785333996
 30
0.0
 10
104.1020293684532
 20
108.7230922776373
 30
0.0
 10
105.3845885094465
 20
108.1358554190264
 30
0.0
 10
106.8913516238862
 20
107.6060864712895
 30
0.0
 10
108.4888040538945
 20
107.1833492364076
 30
0.0
 10
110.1373575866529
 20
106.8555303089584
 30
0.0
 10
111.8008090143322
 20
106.6123804840974
 30
0.0
 10
113.6264033865959
 20
106.4384919654778
 30
0.0
 10
115.5951028773359
 20
106.35
 30
0.0
 10
117.6775533817744
 20
106.3632228669026
 30
0.0
 10
119.7722374432899
 20
106.4898429979887
 30
0.0
 10
121.7331177675791
 20
106.719913189105
 30
0.0
 10
123.5941795249835
 20
107.0453881363083
 30
0.0
 10
125.2421778908036
 20
107.4432370156629
 30
0.0
 10
126.6573306605268
 20
107.894002276932
 30
0.0
 10
127.8266508784177
 20
108.3594786353472
 30
0.0
 10
128.8721200095912
 20
108.8763267879419
 30
0.0
 10
129.7930657602795
 20
109.4555937711191
 30
0.0
 10
130.4183836969305
 20
109.9642635725586
 30
0.0
 10
130.8472467128712
 20
110.3912517525298
 30
0.0
 10
131.1444002503109
 20
110.7275551580009
 30
0.0
 10
131.4662012304818
 20
111.1633900558928
 30
0.0
 10
131.8277540993073
 20
111.7949120657948
 30
0.0
 10
132.064013525426
 20
112.6584682625176
 30
0.0
 10
132.3150565910991
 20
113.7288130313371
 30
0.0
 10
132.4653544379298
 20
114.4149316552123
 30
0.0
 10
132.5529550896425
 20
114.8210325282231
 30
0.0
  0
SPLINE
  5
166
330
FD
100
AcDbEntity
  8
$DDT_AUDIT_GENERATED_(8A)
  6
Continuous
 62
     7
100
AcDbSpline
210
0.0
220
0.0
230
1.0
 70
     8
 71
     3
 72
    46
 73
    42
 74
     0
 42
0.0000000002166101
 43
0.0000000001
 40
0.0
 40
0.0
 40
0.0
 40
0.0
 40
0.0268296689727434
 40
0.0546350761187834
 40
0.0805945764395144
 40
0.1046631834847443
 40
0.1268506916528813
 40
0.1471641151555216
 40
0.1759734182535119
 40
0.2054011845431751
 40
0.2354060447590295
 40
0.2660542398073705
 40
0.291014908565749
 40
0.314914160910415
 40
0.3359563133183953
 40
0.3541169012648537
 40
0.3694429932629474
 40
0.3842070661718106
 40
0.402814899882093
 40
0.4252479300699806
 40
0.4493332986751197
 40
0.470849322046141
 40
0.4904809425167649
 40
0.5079257474552064
 40
0.5267675180620079
 40
0.5475780739924474
 40
0.5704900605721912
 40
0.5952739821855418
 40
0.6332248607572771
 40
0.6682574768659872
 40
0.7003864365334748
 40
0.7153731124198608
 40
0.7319511383303103
 40
0.751550759854078
 40
0.774133640496344
 40
0.7997520568845315
 40
0.8283015434456443
 40
0.8657967763816088
 40
0.9073701193434439
 40
0.9530601741621464
 40
1.0
 40
1.0
 40
1.0
 40
1.0
 10
88.78163214654464
 20
160.1888349202309
 30
0.0
 10
88.90019997963775
 20
159.0336043111533
 30
0.0
 10
89.10588373234334
 20
157.0491856279831
 30
0.0
 10
89.45017840260468
 20
153.878365934664
 30
0.0
 10
89.8061960092008
 20
150.9697659303554
 30
0.0
 10
90.18328596425162
 20
148.3356652322147
 30
0.0
 10
90.58022892427914
 20
145.9875962219263
 30
0.0
 10
91.05792401759852
 20
143.5610743776895
 30
0.0
 10
91.65220864763361
 20
141.0226872914459
 30
0.0
 10
92.38580191143954
 20
138.4022413725611
 30
0.0
 10
93.1760213863117
 20
136.0496635426167
 30
0.0
 10
93.94448444850852
 20
134.1158249410453
 30
0.0
 10
94.6466698123734
 20
132.524075406258
 30
0.0
 10
95.22693243018108
 20
131.2623954034399
 30
0.0
 10
95.70691592058638
 20
130.2290318283382
 30
0.0
 10
96.0812907324017
 20
129.4156550767248
 30
0.0
 10
96.38093689393871
 20
128.7578464881
 30
0.0
 10
96.64967178480033
 20
128.151362861856
 30
0.0
 10
96.91802148255887
 20
127.506600150469
 30
0.0
 10
97.16469097558621
 20
126.838840479075
 30
0.0
 10
97.37096227871245
 20
126.2224903997989
 30
0.0
 10
97.5394868701338
 20
125.6849525676705
 30
0.0
 10
97.67792841043473
 20
125.2328072914794
 30
0.0
 10
97.80562692906591
 20
124.8122488586535
 30
0.0
 10
97.9301285328209
 20
124.4002929345472
 30
0.0
 10
98.06172009575546
 20
123.9676123796823
 30
0.0
 10
98.20144852537919
 20
123.5135568248865
 30
0.0
 10
98.37159788747617
 20
122.9730097560099
 30
0.0
 10
98.554233056437
 20
122.3516523896967
 30
0.0
 10
98.73789993390137
 20
121.6860896292474
 30
0.0
 10
98.8710011742823
 20
121.1703722773813
 30
0.0
 10
98.96937126102108
 20
120.7725935469662
 30
0.0
 10
99.04569023333748
 20
120.4554962727437
 30
0.0
 10
99.13016769113936
 20
120.0941506127469
 30
0.0
 10
99.22386997299148
 20
119.680091489563
 30
0.0
 10
99.32557554213618
 20
119.2145977487886
 30
0.0
 10
99.44121957176684
 20
118.662728717836
 30
0.0
 10
99.57008328921638
 20
118.018821459796
 30
0.0
 10
99.7096303356857
 20
117.2834141446037
 30
0.0
 10
99.85543005291025
 20
116.4797087345094
 30
0.0
 10
99.93493734673824
 20
115.9806923211721
 30
0.0
 10
99.98254666795405
 20
115.6806296512321
 30
0.0
  0
SPLINE
  5
167
330
FD
100
AcDbEntity
  8
$DDT_AUDIT_GENERATED_(8A)
  6
Continuous
 62
     7
100
AcDbSpline
210
0.0
220
0.0
230
1.0
 70
     8
 71
     3
 72
    56
 73
    52
 74
     0
 42
0.0000000002165725
 43
0.0000000001
 40
0.0
 40
0.0
 40
0.0
 40
0.0
 40
0.0256336632576307
 40
0.050669189255753
 40
0.0723432446823595
 40
0.0906528276463501
 40
0.1055639956483743
 40
0.1185856687583734
 40
0.1346606994965573
 40
0.1515726838242881
 40
0.1693144149796394
 40
0.1867309098897111
 40
0.2045490501822999
 40
0.2193624679251067
 40
0.2353812661498217
 40
0.2542287866305563
 40
0.2736317801458434
 40
0.2924199581650125
 40
0.3173858422957131
 40
0.3435531867085766
 40
0.3706885848153524
 40
0.3979308796771108
 40
0.4251862350585711
 40
0.4529672653692735
 40
0.4813396306515465
 40
0.5075269797361059
 40
0.5218924857205071
 40
0.5355111304257162
 40
0.5519828481709268
 40
0.5715184281149254
 40
0.5917765046874931
 40
0.6084426492313164
 40
0.6213153086378493
 40
0.6353886529842068
 40
0.6528457372511557
 40
0.6735808663197527
 40
0.6944746270963789
 40
0.7132571618512713
 40
0.7299683740343605
 40
0.7561367259803723
 40
0.7851657853885957
 40
0.8153378817942779
 40
0.845912489488361
 40
0.8606680592401245
 40
0.8750159964618012
 40
0.8889536761143871
 40
0.9041318543145502
 40
0.9230998870170952
 40
0.9458883987677584
 40
0.9724625427108828
 40
1.0
 40
1.0
 40
1.0
 40
1.0
 10
132.7233968634805
 20
115.6719029236965
 30
0.0
 10
132.7483830818219
 20
115.8334954786065
 30
0.0
 10
132.7901384326404
 20
116.1026241326436
 30
0.0
 10
132.863051342552
 20
116.5286971390584
 30
0.0
 10
132.9298381792892
 20
116.9046358845213
 30
0.0
 10
132.9882562962576
 20
117.2261120117187
 30
0.0
 10
133.0389159391107
 20
117.4985084203712
 30
0.0
 10
133.0884579895259
 20
117.7598518694512
 30
0.0
 10
133.1414064891868
 20
118.0338554215516
 30
0.0
 10
133.2012920237133
 20
118.3373110868949
 30
0.0
 10
133.2643979348427
 20
118.6500757278004
 30
0.0
 10
133.3304884064076
 20
118.9695810140647
 30
0.0
 10
133.3948851020087
 20
119.2727769887944
 30
0.0
 10
133.4593925424612
 20
119.5690075785267
 30
0.0
 10
133.5271974105374
 20
119.8733930537405
 30
0.0
 10
133.6035990541614
 20
120.2075136643927
 30
0.0
 10
133.6868271775519
 20
120.5607657982512
 30
0.0
 10
133.7825248505281
 20
120.9544466415733
 30
0.0
 10
133.8935507268634
 20
121.393817348281
 30
0.0
 10
134.0255400959834
 20
121.8906724189994
 30
0.0
 10
134.1699460683828
 20
122.4064793011789
 30
0.0
 10
134.3235238639349
 20
122.930068860198
 30
0.0
 10
134.4882498782355
 20
123.4566530893438
 30
0.0
 10
134.6595653172861
 20
124.0095036429725
 30
0.0
 10
134.833222984087
 20
124.5827253871638
 30
0.0
 10
134.9885465708676
 20
125.0961130763406
 30
0.0
 10
135.1193936743763
 20
125.5225819641104
 30
0.0
 10
135.2302234514538
 20
125.8803353646098
 30
0.0
 10
135.3605021452251
 20
126.2902711569376
 30
0.0
 10
135.527859722582
 20
126.7899046120358
 30
0.0
 10
135.7276119385122
 20
127.342714627558
 30
0.0
 10
135.9482508469376
 20
127.8915920808949
 30
0.0
 10
136.1726585448193
 20
128.4126868830468
 30
0.0
 10
136.4305761089044
 20
128.9874141570341
 30
0.0
 10
136.7680364840827
 20
129.724901560271
 30
0.0
 10
137.1900989699415
 20
130.6374098956953
 30
0.0
 10
137.6660877459146
 20
131.6633664141155
 30
0.0
 10
138.1419972595907
 20
132.7082439247306
 30
0.0
 10
138.6869726638234
 20
133.9484109333224
 30
0.0
 10
139.3350823679528
 20
135.5371929255448
 30
0.0
 10
140.0940293139693
 20
137.6794807261035
 30
0.0
 10
140.8553885623702
 20
140.2559646355831
 30
0.0
 10
141.4442311206105
 20
142.6496902279536
 30
0.0
 10
141.863645614015
 20
144.6373217208217
 30
0.0
 10
142.1441267023951
 20
146.1117722530423
 30
0.0
 10
142.4061996077513
 20
147.6355407942816
 30
0.0
 10
142.6733309167537
 20
149.3589637056008
 30
0.0
 10
142.9615474189034
 20
151.4523862575781
 30
0.0
 10
143.2721232825818
 20
154.0132802727546
 30
0.0
 10
143.6009434577596
 20
157.0382247960261
 30
0.0
 10
143.8043229053533
 20
159.0026266313695
 30
0.0
 10
143.9259457101311
 20
160.1888418946287
 30
0.0
  0
ARC
  5
168
330
FD
100
AcDbEntity
  8
$DDT_AUDIT_GENERATED_(8A)
  6
Continuous
 62
     7
100
AcDbCircle
 10
89.079542164
 20
160.2198081682
 30
0.0
 40
0.2999999999848051
100
AcDbArc
 50
90.0008060096
 51
185.916519522
  0
ARC
  5
169
330
FD
100
AcDbEntity
  8
$DDT_AUDIT_GENERATED_(8A)
  6
Continuous
 62
     7
100
AcDbCircle
 10
143.6280002546
 20
160.2198081677
 30
0.0
 40
0.3000000004699245
100
AcDbArc
 50
354.0616552478
 51
89.9978942529
  0
LINE
  5
16A
330
FD
100
AcDbEntity
  8
$DDT_AUDIT_GENERATED_(EE)
  6
Continuous
 62
     7
100
AcDbLine
 10
34.0173060885
 20
243.8802663559
 30
0.0
 11
34.0173060885
 21
244.3802663559
 31
0.0
  0
LINE
  5
16B
330
FD
100
AcDbEntity
  8
$DDT_AUDIT_GENERATED_(EE)
  6
Continuous
 62
     7
100
AcDbLine
 10
48.6826939115
 20
244.3802663559
 30
0.0
 11
48.6826939115
 21
243.8802663559
 31
0.0
  0
LINE
  5
16C
330
FD
100
AcDbEntity
  8
$DDT_AUDIT_GENERATED_(EE)
  6
Continuous
 62
     7
100
AcDbLine
 10
54.57
 20
243.8802663559
 30
0.0
 11
54.57
 21
244.3802663559
 31
0.0
  0
LINE
  5
16D
330
FD
100
AcDbEntity
  8
$DDT_AUDIT_GENERATED_(EE)
  6
Continuous
 62
     7
100
AcDbLine
 10
28.13
 20
244.3802663559
 30
0.0
 11
28.13
 21
243.8802663559
 31
0.0
  0
LINE
  5
16E
330
FD
100
AcDbEntity
  8
$DDT_AUDIT_GENERATED_(EE)
  6
Continuous
 62
     7
100
AcDbLine
 10
53.4
 20
244.3802663559
 30
0.0
 11
53.4
 21
243.8802663559
 31
0.0
  0
LINE
  5
16F
330
FD
100
AcDbEntity
  8
$DDT_AUDIT_GENERATED_(EE)
  6
Continuous
 62
     7
100
AcDbLine
 10
29.3
 20
244.3802663559
 30
0.0
 11
29.3
 21
243.8802663559
 31
0.0
  0
LINE
  5
170
330
FD
100
AcDbEntity
  8
$DDT_AUDIT_GENERATED_(78)
  6
Continuous
 62
     7
100
AcDbLine
 10
76.35
 20
270.3802663559
 30
0.0
 11
6.35
 21
270.3802663559
 31
0.0
  0
LINE
  5
171
330
FD
100
AcDbEntity
  8
$DDT_AUDIT_GENERATED_(78)
  6
Continuous
 62
     7
100
AcDbLine
 10
26.4824716585
 20
244.3802663559
 30
0.0
 11
56.2175283415
 21
244.3802663559
 31
0.0
  0
LINE
  5
172
330
FD
100
AcDbEntity
  8
$DDT_AUDIT_GENERATED_(78)
  6
Continuous
 62
     7
100
AcDbLine
 10
6.35
 20
270.3802663559
 30
0.0
 11
6.35
 21
265.193902812
 31
0.0
  0
LINE
  5
173
330
FD
100
AcDbEntity
  8
$DDT_AUDIT_GENERATED_(78)
  6
Continuous
 62
     7
100
AcDbLine
 10
76.35
 20
265.193902812
 30
0.0
 11
76.35
 21
270.3802663559
 31
0.0
  0
LINE
  5
174
330
FD
100
AcDbEntity
  8
$DDT_AUDIT_GENERATED_(78)
  6
Continuous
 62
     7
100
AcDbLine
 10
6.9179997208
 20
263.7977025397
 30
0.0
 11
25.4084714491
 21
244.8331161517
 31
0.0
  0
LINE
  5
175
330
FD
100
AcDbEntity
  8
$DDT_AUDIT_GENERATED_(78)
  6
Continuous
 62
     7
100
AcDbLine
 10
57.2915285509
 20
244.8331161517
 30
0.0
 11
75.7820002792
 21
263.7977025397
 31
0.0
  0
ARC
  5
176
330
FD
100
AcDbEntity
  8
$DDT_AUDIT_GENERATED_(78)
  6
Continuous
 62
     7
100
AcDbCircle
 10
26.4824716585
 20
245.8802663559
 30
0.0
 40
1.500000000000002
100
AcDbArc
 50
224.2747757009
 51
270.0
  0
ARC
  5
177
330
FD
100
AcDbEntity
  8
$DDT_AUDIT_GENERATED_(78)
  6
Continuous
 62
     7
100
AcDbCircle
 10
56.2175283415
 20
245.8802663559
 30
0.0
 40
1.500000000000001
100
AcDbArc
 50
270.0
 51
315.7252242991
  0
ARC
  5
178
330
FD
100
AcDbEntity
  8
$DDT_AUDIT_GENERATED_(78)
  6
Continuous
 62
     7
100
AcDbCircle
 10
74.35
 20
265.193902812
 30
0.0
 40
2.000000000000005
100
AcDbArc
 50
315.7252242991
 51
0.0
  0
ARC
  5
179
330
FD
100
AcDbEntity
  8
$DDT_AUDIT_GENERATED_(78)
  6
Continuous
 62
     7
100
AcDbCircle
 10
8.35
 20
265.193902812
 30
0.0
 40
2.000000000000002
100
AcDbArc
 50
180.0
 51
224.2747757009
  0
ENDBLK
  5
17B
330
FD
100
AcDbEntity
  8
0
100
AcDbBlockEnd
  0
ENDSEC
  0
SECTION
  2
ENTITIES
  0
INSERT
  5
5F
330
1F
100
AcDbEntity
  8
Default
100
AcDbBlockReference
  2
SEANNOT_GROUP
 10
0.0
 20
0.0
 30
0.0
  0
INSERT
  5
65
330
1F
100
AcDbEntity
  8
Default
100
AcDbBlockReference
  2
SEANNOT_GROUP1
 10
0.0
 20
0.0
 30
0.0
  0
INSERT
  5
6A
330
1F
100
AcDbEntity
  8
Default
100
AcDbBlockReference
  2
SEANNOT_GROUP2
 10
0.0
 20
0.0
 30
0.0
  0
INSERT
  5
6F
330
1F
100
AcDbEntity
  8
Default
100
AcDbBlockReference
  2
SEANNOT_GROUP3
 10
0.0
 20
0.0
 30
0.0
  0
INSERT
  5
74
330
1F
100
AcDbEntity
  8
Default
100
AcDbBlockReference
  2
SE
 10
0.0
 20
0.0
 30
0.0
  0
INSERT
  5
9B
330
1F
100
AcDbEntity
  8
Default
100
AcDbBlockReference
  2
SE1
 10
0.0
 20
0.0
 30
0.0
  0
INSERT
  5
FE
330
1F
100
AcDbEntity
  8
Default
100
AcDbBlockReference
  2
SE2
 10
0.0
 20
0.0
 30
0.0
  0
TEXT
  5
17D
330
1F
100
AcDbEntity
  8
Default
  6
Continuous
 62
     7
100
AcDbText
 10
5.9362635081
 20
53.4225120485
 30
0.0
 40
10.0
  1
Grohe AG^J
  7
SEACAD_seiso_ttf
 11
5.9362635081
 21
63.4225120485
 31
0.0
100
AcDbText
 73
     3
  0
TEXT
  5
17E
330
1F
100
AcDbEntity
  8
Default
  6
Continuous
 62
     7
100
AcDbText
 10
5.9362635081
 20
37.0588756849
 30
0.0
 40
10.0
  1
 
  7
SEACAD_seiso_ttf
 11
5.9362635081
 21
47.0588756849
 31
0.0
100
AcDbText
 73
     3
  0
TEXT
  5
17F
330
1F
100
AcDbEntity
  8
Default
  6
Continuous
 62
     7
100
AcDbText
 10
5.9362635081
 20
20.6952393213
 30
0.0
 40
10.0
  1
ecn: 
  7
SEACAD_seiso_ttf
 11
5.9362635081
 21
30.6952393213
 31
0.0
100
AcDbText
 73
     3
  0
TEXT
  5
180
330
1F
100
AcDbEntity
  8
Default
  6
Continuous
 62
     7
100
AcDbText
 10
5.9362635081
 20
4.3316029576
 30
0.0
 40
10.0
  1
unit: mm
  7
SEACAD_seiso_ttf
 11
5.9362635081
 21
14.3316029576
 31
0.0
100
AcDbText
 73
     3
  0
LINE
  5
181
330
1F
100
AcDbEntity
  8
Default
  6
Continuous
 62
     7
100
AcDbLine
 10
0.0
 20
0.0
 30
0.0
 11
100.0
 21
0.0
 31
0.0
  0
LINE
  5
182
330
1F
100
AcDbEntity
  8
Default
  6
Continuous
 62
     7
100
AcDbLine
 10
0.0
 20
0.0
 30
0.0
 11
0.0
 21
100.0
 31
0.0
  0
TEXT
  5
183
330
1F
100
AcDbEntity
  8
Default
  6
Continuous
 62
     7
100
AcDbText
 10
24.3923665681
 20
-18.2375342018
 30
0.0
 40
10.0
  1
100 mm
  7
SEACAD_seiso_ttf
 11
24.3923665681
 21
-8.2375342018
 31
0.0
100
AcDbText
 73
     3
  0
TEXT
  5
184
330
1F
100
AcDbEntity
  8
Default
  6
Continuous
 62
     7
100
AcDbText
 10
-7.6150308803
 20
24.6231930421
 30
0.0
 40
10.0
  1
100 mm
 50
90.0
  7
SEACAD_seiso_ttf
 11
-17.6150308803
 21
24.6231930421
 31
0.0
100
AcDbText
 73
     3
  0
TEXT
  5
185
330
1F
100
AcDbEntity
  8
Default
  6
Continuous
 62
     7
100
AcDbText
 10
28.4878128572
 20
20.0907663715
 30
0.0
 40
10.0
  1
216682
  7
SEACAD_seiso_ttf
 11
28.4878128572
 21
30.0907663715
 31
0.0
100
AcDbText
 73
     3
  0
TEXT
  5
186
330
1F
100
AcDbEntity
  8
Default
  6
Continuous
 62
     7
100
AcDbText
 10
5.9012241913
 20
36.7242780188
 30
0.0
 40
10.0
  1
32780000
  7
SEACAD_seiso_ttf
 11
5.9012241913
 21
46.7242780188
 31
0.0
100
AcDbText
 73
     3
  0
ENDSEC
  0
SECTION
  2
OBJECTS
  0
DICTIONARY
  5
C
330
0
100
AcDbDictionary
281
     1
  3
ACAD_GROUP
350
D
  3
ACAD_LAYOUT
350
1A
  3
ACAD_MLEADERSTYLE
350
18A
  3
ACAD_MLINESTYLE
350
17
  3
ACAD_PLOTSETTINGS
350
19
  3
ACAD_PLOTSTYLENAME
350
E
  3
ACAD_SCALELIST
350
3B
  3
ACAD_TABLESTYLE
350
189
  3
ACAD_VISUALSTYLE
350
2A
  3
AcDbVariableDictionary
350
187
  0
DICTIONARY
  5
D
102
{ACAD_REACTORS
330
C
102
}
330
C
100
AcDbDictionary
281
     1
  0
DICTIONARY
  5
1A
102
{ACAD_REACTORS
330
C
102
}
330
C
100
AcDbDictionary
281
     1
  3
Layout1
350
1E
  3
Model
350
22
  0
DICTIONARY
  5
18A
102
{ACAD_REACTORS
330
C
102
}
330
C
100
AcDbDictionary
281
     1
  0
DICTIONARY
  5
17
102
{ACAD_REACTORS
330
C
102
}
330
C
100
AcDbDictionary
281
     1
  3
Standard
350
18
  0
DICTIONARY
  5
19
102
{ACAD_REACTORS
330
C
102
}
330
C
100
AcDbDictionary
281
     1
  0
ACDBDICTIONARYWDFLT
  5
E
102
{ACAD_REACTORS
330
C
102
}
330
C
100
AcDbDictionary
281
     1
  3
Normal
350
F
100
AcDbDictionaryWithDefault
340
F
  0
DICTIONARY
  5
3B
102
{ACAD_REACTORS
330
C
102
}
330
C
100
AcDbDictionary
281
     1
  3
A0
350
3C
  3
A1
350
3D
  3
A2
350
3E
  3
A3
350
3F
  3
A4
350
40
  3
A5
350
41
  3
A6
350
42
  3
A7
350
43
  3
A8
350
44
  3
A9
350
45
  3
B0
350
46
  3
B1
350
47
  3
B2
350
48
  3
B3
350
49
  3
B4
350
4A
  3
B5
350
4B
  3
B6
350
4C
  3
B7
350
4D
  3
B8
350
4E
  3
B9
350
4F
  3
C0
350
50
  3
C1
350
51
  3
C2
350
52
  3
C3
350
53
  3
C4
350
54
  3
C5
350
55
  3
C6
350
56
  3
C7
350
57
  3
C8
350
58
  3
C9
350
59
  3
D0
350
5A
  3
D1
350
5B
  3
D2
350
5C
  0
DICTIONARY
  5
189
102
{ACAD_REACTORS
330
C
102
}
330
C
100
AcDbDictionary
281
     1
  0
DICTIONARY
  5
2A
102
{ACAD_REACTORS
330
C
102
}
330
C
100
AcDbDictionary
281
     1
  3
2dWireframe
350
2F
  3
3D Hidden
350
31
  3
3dWireframe
350
30
  3
Basic
350
32
  3
Brighten
350
36
  3
ColorChange
350
3A
  3
Conceptual
350
34
  3
Dim
350
35
  3
Facepattern
350
39
  3
Flat
350
2B
  3
FlatWithEdges
350
2C
  3
Gouraud
350
2D
  3
GouraudWithEdges
350
2E
  3
Linepattern
350
38
  3
Realistic
350
33
  3
Thicken
350
37
  0
DICTIONARY
  5
187
102
{ACAD_REACTORS
330
C
102
}
330
C
100
AcDbDictionary
281
     1
  3
CANNOSCALE
350
188
  3
PSOLHEIGHT
350
18C
  3
PSOLWIDTH
350
18B
  0
LAYOUT
  5
1E
102
{ACAD_REACTORS
330
1A
102
}
330
1A
100
AcDbPlotSettings
  1

  2
none_device
  4

  6

 40
0.0
 41
0.0
 42
0.0
 43
0.0
 44
0.0
 45
0.0
 46
0.0
 47
0.0
 48
0.0
 49
0.0
140
0.0
141
0.0
142
1.0
143
1.0
 70
   688
 72
     0
 73
     0
 74
     5
  7

 75
    16
147
1.0
148
0.0
149
0.0
100
AcDbLayout
  1
Layout1
 70
     1
 71
     1
 10
0.0
 20
0.0
 11
1682.0
 21
2378.0
 12
0.0
 22
0.0
 32
0.0
 14
0.0
 24
0.0
 34
0.0
 15
1682.0
 25
2378.0
 35
0.0
146
0.0
 13
0.0
 23
0.0
 33
0.0
 16
1.0
 26
0.0
 36
0.0
 17
0.0
 27
1.0
 37
0.0
 76
     0
330
1B
  0
LAYOUT
  5
22
102
{ACAD_REACTORS
330
1A
102
}
330
1A
100
AcDbPlotSettings
  1

  2
none_device
  4

  6

 40
0.0
 41
0.0
 42
0.0
 43
0.0
 44
0.0
 45
0.0
 46
0.0
 47
0.0
 48
0.0
 49
0.0
140
0.0
141
0.0
142
1.0
143
1.0
 70
  1712
 72
     0
 73
     0
 74
     0
  7

 75
     0
147
1.0
148
0.0
149
0.0
100
AcDbLayout
  1
Model
 70
     1
 71
     0
 10
0.0
 20
0.0
 11
1682.0
 21
2378.0
 12
0.0
 22
0.0
 32
0.0
 14
0.0
 24
0.0
 34
0.0
 15
1682.0
 25
2378.0
 35
0.0
146
0.0
 13
0.0
 23
0.0
 33
0.0
 16
1.0
 26
0.0
 36
0.0
 17
0.0
 27
1.0
 37
0.0
 76
     0
330
1F
331
29
  0
MLINESTYLE
  5
18
102
{ACAD_REACTORS
330
17
102
}
330
17
100
AcDbMlineStyle
  2
Standard
 70
     0
  3

 62
   256
 51
90.0
 52
90.0
 71
     2
 49
0.5
 62
   256
  6
BYLAYER
 49
-0.5
 62
   256
  6
BYLAYER
  0
ACDBPLACEHOLDER
  5
F
102
{ACAD_REACTORS
330
E
102
}
330
E
  0
SCALE
  5
3C
102
{ACAD_REACTORS
330
3B
102
}
330
3B
100
AcDbScale
 70
     0
300
1:1
140
1.0
141
1.0
290
     1
  0
SCALE
  5
3D
102
{ACAD_REACTORS
330
3B
102
}
330
3B
100
AcDbScale
 70
     0
300
1:2
140
1.0
141
2.0
290
     0
  0
SCALE
  5
3E
102
{ACAD_REACTORS
330
3B
102
}
330
3B
100
AcDbScale
 70
     0
300
1:4
140
1.0
141
4.0
290
     0
  0
SCALE
  5
3F
102
{ACAD_REACTORS
330
3B
102
}
330
3B
100
AcDbScale
 70
     0
300
1:5
140
1.0
141
5.0
290
     0
  0
SCALE
  5
40
102
{ACAD_REACTORS
330
3B
102
}
330
3B
100
AcDbScale
 70
     0
300
1:8
140
1.0
141
8.0
290
     0
  0
SCALE
  5
41
102
{ACAD_REACTORS
330
3B
102
}
330
3B
100
AcDbScale
 70
     0
300
1:10
140
1.0
141
10.0
290
     0
  0
SCALE
  5
42
102
{ACAD_REACTORS
330
3B
102
}
330
3B
100
AcDbScale
 70
     0
300
1:16
140
1.0
141
16.0
290
     0
  0
SCALE
  5
43
102
{ACAD_REACTORS
330
3B
102
}
330
3B
100
AcDbScale
 70
     0
300
1:20
140
1.0
141
20.0
290
     0
  0
SCALE
  5
44
102
{ACAD_REACTORS
330
3B
102
}
330
3B
100
AcDbScale
 70
     0
300
1:30
140
1.0
141
30.0
290
     0
  0
SCALE
  5
45
102
{ACAD_REACTORS
330
3B
102
}
330
3B
100
AcDbScale
 70
     0
300
1:40
140
1.0
141
40.0
290
     0
  0
SCALE
  5
46
102
{ACAD_REACTORS
330
3B
102
}
330
3B
100
AcDbScale
 70
     0
300
1:50
140
1.0
141
50.0
290
     0
  0
SCALE
  5
47
102
{ACAD_REACTORS
330
3B
102
}
330
3B
100
AcDbScale
 70
     0
300
1:100
140
1.0
141
100.0
290
     0
  0
SCALE
  5
48
102
{ACAD_REACTORS
330
3B
102
}
330
3B
100
AcDbScale
 70
     0
300
2:1
140
2.0
141
1.0
290
     0
  0
SCALE
  5
49
102
{ACAD_REACTORS
330
3B
102
}
330
3B
100
AcDbScale
 70
     0
300
4:1
140
4.0
141
1.0
290
     0
  0
SCALE
  5
4A
102
{ACAD_REACTORS
330
3B
102
}
330
3B
100
AcDbScale
 70
     0
300
8:1
140
8.0
141
1.0
290
     0
  0
SCALE
  5
4B
102
{ACAD_REACTORS
330
3B
102
}
330
3B
100
AcDbScale
 70
     0
300
10:1
140
10.0
141
1.0
290
     0
  0
SCALE
  5
4C
102
{ACAD_REACTORS
330
3B
102
}
330
3B
100
AcDbScale
 70
     0
300
100:1
140
100.0
141
1.0
290
     0
  0
SCALE
  5
4D
102
{ACAD_REACTORS
330
3B
102
}
330
3B
100
AcDbScale
 70
     0
300
1/128" = 1'-0"
140
0.0078125
141
12.0
290
     0
  0
SCALE
  5
4E
102
{ACAD_REACTORS
330
3B
102
}
330
3B
100
AcDbScale
 70
     0
300
1/64" = 1'-0"
140
0.015625
141
12.0
290
     0
  0
SCALE
  5
4F
102
{ACAD_REACTORS
330
3B
102
}
330
3B
100
AcDbScale
 70
     0
300
1/32" = 1'-0"
140
0.03125
141
12.0
290
     0
  0
SCALE
  5
50
102
{ACAD_REACTORS
330
3B
102
}
330
3B
100
AcDbScale
 70
     0
300
1/16" = 1'-0"
140
0.0625
141
12.0
290
     0
  0
SCALE
  5
51
102
{ACAD_REACTORS
330
3B
102
}
330
3B
100
AcDbScale
 70
     0
300
3/32" = 1'-0"
140
0.09375
141
12.0
290
     0
  0
SCALE
  5
52
102
{ACAD_REACTORS
330
3B
102
}
330
3B
100
AcDbScale
 70
     0
300
1/8" = 1'-0"
140
0.125
141
12.0
290
     0
  0
SCALE
  5
53
102
{ACAD_REACTORS
330
3B
102
}
330
3B
100
AcDbScale
 70
     0
300
3/16" = 1'-0"
140
0.1875
141
12.0
290
     0
  0
SCALE
  5
54
102
{ACAD_REACTORS
330
3B
102
}
330
3B
100
AcDbScale
 70
     0
300
1/4" = 1'-0"
140
0.25
141
12.0
290
     0
  0
SCALE
  5
55
102
{ACAD_REACTORS
330
3B
102
}
330
3B
100
AcDbScale
 70
     0
300
3/8" = 1'-0"
140
0.375
141
12.0
290
     0
  0
SCALE
  5
56
102
{ACAD_REACTORS
330
3B
102
}
330
3B
100
AcDbScale
 70
     0
300
1/2" = 1'-0"
140
0.5
141
12.0
290
     0
  0
SCALE
  5
57
102
{ACAD_REACTORS
330
3B
102
}
330
3B
100
AcDbScale
 70
     0
300
3/4" = 1'-0"
140
0.75
141
12.0
290
     0
  0
SCALE
  5
58
102
{ACAD_REACTORS
330
3B
102
}
330
3B
100
AcDbScale
 70
     0
300
1" = 1'-0"
140
1.0
141
12.0
290
     0
  0
SCALE
  5
59
102
{ACAD_REACTORS
330
3B
102
}
330
3B
100
AcDbScale
 70
     0
300
1-1/2" = 1'-0"
140
1.5
141
12.0
290
     0
  0
SCALE
  5
5A
102
{ACAD_REACTORS
330
3B
102
}
330
3B
100
AcDbScale
 70
     0
300
3" = 1'-0"
140
3.0
141
12.0
290
     0
  0
SCALE
  5
5B
102
{ACAD_REACTORS
330
3B
102
}
330
3B
100
AcDbScale
 70
     0
300
6" = 1'-0"
140
6.0
141
12.0
290
     0
  0
SCALE
  5
5C
102
{ACAD_REACTORS
330
3B
102
}
330
3B
100
AcDbScale
 70
     0
300
1'-0" = 1'-0"
140
12.0
141
12.0
290
     0
  0
VISUALSTYLE
  5
2F
102
{ACAD_REACTORS
330
2A
102
}
330
2A
100
AcDbVisualStyle
  2
2dWireframe
 70
     4
 71
     0
 72
     2
 73
     0
 90
        0
 40
-0.6
 41
-30.0
 62
     5
 63
     7
 74
     1
 91
        4
 64
     7
 65
   257
 75
     1
175
     1
 42
1.0
 92
        0
 66
   257
 43
1.0
 76
     1
 77
     6
 78
     2
 67
     7
 79
     5
170
     0
171
     0
290
     0
174
     0
 93
        1
 44
0.0
173
     0
291
     0
 45
0.0
1001
ACAD
1000
AcDbSavedByObjectVersion
1070
     0
  0
VISUALSTYLE
  5
31
102
{ACAD_REACTORS
330
2A
102
}
330
2A
100
AcDbVisualStyle
  2
3D Hidden
 70
     6
 71
     1
 72
     2
 73
     2
 90
        0
 40
-0.6
 41
-30.0
 62
     5
 63
     7
 74
     2
 91
        2
 64
     7
 65
   257
 75
     2
175
     1
 42
40.0
 92
        0
 66
   257
 43
1.0
 76
     1
 77
     6
 78
     2
 67
     7
 79
     3
170
     0
171
     0
290
     0
174
     0
 93
        1
 44
0.0
173
     0
291
     0
 45
0.0
1001
ACAD
1000
AcDbSavedByObjectVersion
1070
     0
  0
VISUALSTYLE
  5
30
102
{ACAD_REACTORS
330
2A
102
}
330
2A
100
AcDbVisualStyle
  2
3dWireframe
 70
     5
 71
     0
 72
     2
 73
     0
 90
        0
 40
-0.6
 41
-30.0
 62
     5
 63
     7
 74
     1
 91
        4
 64
     7
 65
   257
 75
     1
175
     1
 42
1.0
 92
        0
 66
   257
 43
1.0
 76
     1
 77
     6
 78
     2
 67
     7
 79
     5
170
     0
171
     0
290
     0
174
     0
 93
        1
 44
0.0
173
     0
291
     0
 45
0.0
1001
ACAD
1000
AcDbSavedByObjectVersion
1070
     0
  0
VISUALSTYLE
  5
32
102
{ACAD_REACTORS
330
2A
102
}
330
2A
100
AcDbVisualStyle
  2
Basic
 70
     7
 71
     1
 72
     0
 73
     1
 90
        0
 40
-0.6
 41
-30.0
 62
     5
 63
     7
 74
     0
 91
        4
 64
     7
 65
   257
 75
     1
175
     1
 42
1.0
 92
        8
 66
     7
 43
1.0
 76
     1
 77
     6
 78
     2
 67
     7
 79
     5
170
     0
171
     0
290
     0
174
     0
 93
        1
 44
0.0
173
     0
291
     1
 45
0.0
1001
ACAD
1000
AcDbSavedByObjectVersion
1070
     0
  0
VISUALSTYLE
  5
36
102
{ACAD_REACTORS
330
2A
102
}
330
2A
100
AcDbVisualStyle
  2
Brighten
 70
    12
 71
     2
 72
     2
 73
     0
 90
        0
 40
-0.6
 41
-30.0
 62
     5
 63
     7
 74
     1
 91
        4
 64
     7
 65
   257
 75
     1
175
     1
 42
1.0
 92
        8
 66
     7
 43
1.0
 76
     1
 77
     6
 78
     2
 67
     7
 79
     5
170
     0
171
     0
290
     0
174
     0
 93
        1
 44
50.0
173
     0
291
     1
 45
0.0
1001
ACAD
1000
AcDbSavedByObjectVersion
1070
     0
  0
VISUALSTYLE
  5
3A
102
{ACAD_REACTORS
330
2A
102
}
330
2A
100
AcDbVisualStyle
  2
ColorChange
 70
    16
 71
     2
 72
     2
 73
     3
 90
        0
 40
-0.6
 41
-30.0
 62
     5
 63
     8
 74
     1
 91
        4
 64
     7
 65
   257
 75
     1
175
     1
 42
1.0
 92
        8
 66
     8
 43
1.0
 76
     1
 77
     6
 78
     2
 67
     7
 79
     5
170
     0
171
     0
290
     0
174
     0
 93
        1
 44
0.0
173
     0
291
     1
 45
0.0
1001
ACAD
1000
AcDbSavedByObjectVersion
1070
     0
  0
VISUALSTYLE
  5
34
102
{ACAD_REACTORS
330
2A
102
}
330
2A
100
AcDbVisualStyle
  2
Conceptual
 70
     9
 71
     3
 72
     2
 73
     0
 90
        0
 40
-0.6
 41
-30.0
 62
     5
 63
     7
 74
     2
 91
        2
 64
     7
 65
   257
 75
     1
175
     1
 42
40.0
 92
        8
 66
     7
 43
1.0
 76
     1
 77
     6
 78
     2
 67
     7
 79
     3
170
     0
171
     0
290
     0
174
     0
 93
        1
 44
0.0
173
     0
291
     0
 45
0.0
1001
ACAD
1000
AcDbSavedByObjectVersion
1070
     0
  0
VISUALSTYLE
  5
35
102
{ACAD_REACTORS
330
2A
102
}
330
2A
100
AcDbVisualStyle
  2
Dim
 70
    11
 71
     2
 72
     2
 73
     0
 90
        0
 40
-0.6
 41
-30.0
 62
     5
 63
     7
 74
     1
 91
        4
 64
     7
 65
   257
 75
     1
175
     1
 42
1.0
 92
        8
 66
     7
 43
1.0
 76
     1
 77
     6
 78
     2
 67
     7
 79
     5
170
     0
171
     0
290
     0
174
     0
 93
        1
 44
-50.0
173
     0
291
     1
 45
0.0
1001
ACAD
1000
AcDbSavedByObjectVersion
1070
     0
  0
VISUALSTYLE
  5
39
102
{ACAD_REACTORS
330
2A
102
}
330
2A
100
AcDbVisualStyle
  2
Facepattern
 70
    15
 71
     2
 72
     2
 73
     0
 90
        0
 40
-0.6
 41
-30.0
 62
     5
 63
     7
 74
     1
 91
        4
 64
     7
 65
   257
 75
     1
175
     1
 42
1.0
 92
        8
 66
     7
 43
1.0
 76
     1
 77
     6
 78
     2
 67
     7
 79
     5
170
     0
171
     0
290
     0
174
     0
 93
        1
 44
0.0
173
     0
291
     1
 45
0.0
1001
ACAD
1000
AcDbSavedByObjectVersion
1070
     0
  0
VISUALSTYLE
  5
2B
102
{ACAD_REACTORS
330
2A
102
}
330
2A
100
AcDbVisualStyle
  2
Flat
 70
     0
 71
     2
 72
     1
 73
     1
 90
        2
 40
-0.6
 41
30.0
 62
     5
 63
     7
 74
     0
 91
        4
 64
     7
 65
   257
 75
     1
175
     1
 42
1.0
 92
        8
 66
     7
 43
1.0
 76
     1
 77
     6
 78
     2
 67
     7
 79
     5
170
     0
171
     0
290
     0
174
     0
 93
       13
 44
0.0
173
     0
291
     1
 45
0.0
1001
ACAD
1000
AcDbSavedByObjectVersion
1070
     0
  0
VISUALSTYLE
  5
2C
102
{ACAD_REACTORS
330
2A
102
}
330
2A
100
AcDbVisualStyle
  2
FlatWithEdges
 70
     1
 71
     2
 72
     1
 73
     1
 90
        2
 40
-0.6
 41
30.0
 62
     5
 63
     7
 74
     1
 91
        4
 64
     7
 65
   257
 75
     1
175
     1
 42
1.0
 92
        0
 66
   257
 43
1.0
 76
     1
 77
     6
 78
     2
 67
     7
 79
     5
170
     0
171
     0
290
     0
174
     0
 93
       13
 44
0.0
173
     0
291
     1
 45
0.0
1001
ACAD
1000
AcDbSavedByObjectVersion
1070
     0
  0
VISUALSTYLE
  5
2D
102
{ACAD_REACTORS
330
2A
102
}
330
2A
100
AcDbVisualStyle
  2
Gouraud
 70
     2
 71
     2
 72
     2
 73
     1
 90
        2
 40
-0.6
 41
30.0
 62
     5
 63
     7
 74
     0
 91
        4
 64
     7
 65
   257
 75
     1
175
     1
 42
1.0
 92
        0
 66
     7
 43
1.0
 76
     1
 77
     6
 78
     2
 67
     7
 79
     5
170
     0
171
     0
290
     0
174
     0
 93
       13
 44
0.0
173
     0
291
     1
 45
0.0
1001
ACAD
1000
AcDbSavedByObjectVersion
1070
     0
  0
VISUALSTYLE
  5
2E
102
{ACAD_REACTORS
330
2A
102
}
330
2A
100
AcDbVisualStyle
  2
GouraudWithEdges
 70
     3
 71
     2
 72
     2
 73
     1
 90
        2
 40
-0.6
 41
30.0
 62
     5
 63
     7
 74
     1
 91
        4
 64
     7
 65
   257
 75
     1
175
     1
 42
1.0
 92
        0
 66
   257
 43
1.0
 76
     1
 77
     6
 78
     2
 67
     7
 79
     5
170
     0
171
     0
290
     0
174
     0
 93
       13
 44
0.0
173
     0
291
     1
 45
0.0
1001
ACAD
1000
AcDbSavedByObjectVersion
1070
     0
  0
VISUALSTYLE
  5
38
102
{ACAD_REACTORS
330
2A
102
}
330
2A
100
AcDbVisualStyle
  2
Linepattern
 70
    14
 71
     2
 72
     2
 73
     0
 90
        0
 40
-0.6
 41
-30.0
 62
     5
 63
     7
 74
     1
 91
        4
 64
     7
 65
   257
 75
     7
175
     7
 42
1.0
 92
        8
 66
     7
 43
1.0
 76
     1
 77
     6
 78
     2
 67
     7
 79
     5
170
     0
171
     0
290
     0
174
     0
 93
        1
 44
0.0
173
     0
291
     1
 45
0.0
1001
ACAD
1000
AcDbSavedByObjectVersion
1070
     0
  0
VISUALSTYLE
  5
33
102
{ACAD_REACTORS
330
2A
102
}
330
2A
100
AcDbVisualStyle
  2
Realistic
 70
     8
 71
     2
 72
     2
 73
     0
 90
        0
 40
-0.6
 41
-30.0
 62
     5
 63
     7
 74
     1
 91
        0
 64
     7
 65
   257
 75
     1
175
     1
 42
1.0
 92
        8
 66
     8
 43
1.0
 76
     1
 77
     6
 78
     2
 67
     7
 79
     5
170
     0
171
     0
290
     0
174
     0
 93
       13
 44
0.0
173
     0
291
     0
 45
0.0
1001
ACAD
1000
AcDbSavedByObjectVersion
1070
     0
  0
VISUALSTYLE
  5
37
102
{ACAD_REACTORS
330
2A
102
}
330
2A
100
AcDbVisualStyle
  2
Thicken
 70
    13
 71
     2
 72
     2
 73
     0
 90
        0
 40
-0.6
 41
-30.0
 62
     5
 63
     7
 74
     1
 91
        4
 64
     7
 65
   257
 75
     1
175
     1
 42
1.0
 92
       12
 66
     7
 43
1.0
 76
     1
 77
     6
 78
     2
 67
     7
 79
     5
170
     0
171
     0
290
     0
174
     0
 93
        1
 44
0.0
173
     0
291
     1
 45
0.0
1001
ACAD
1000
AcDbSavedByObjectVersion
1070
     0
  0
DICTIONARYVAR
  5
188
102
{ACAD_REACTORS
330
187
102
}
330
187
100
DictionaryVariables
280
     0
  1
1:1
  0
DICTIONARYVAR
  5
18C
102
{ACAD_REACTORS
330
187
102
}
330
187
100
DictionaryVariables
280
     0
  1
80.000000
  0
DICTIONARYVAR
  5
18B
102
{ACAD_REACTORS
330
187
102
}
330
187
100
DictionaryVariables
280
     0
  1
5.000000
  0
ENDSEC
  0
EOF
