  0
SECTION
  2
HEADER
  9
$ACADVER
  1
AC1015
  9
$ACADMAINTVER
 70
     6
  9
$DWGCODEPAGE
  3
ANSI_1252
  9
$INSBASE
 10
0.0
 20
0.0
 30
0.0
  9
$EXTMIN
 10
0.0
 20
0.0
 30
0.0
  9
$EXTMAX
 10
1682.0
 20
2378.0
 30
0.0
  9
$LIMMIN
 10
0.0
 20
0.0
  9
$LIMMAX
 10
1682.0
 20
2378.0
  9
$ORTHOMODE
 70
     0
  9
$REGENMODE
 70
     1
  9
$FILLMODE
 70
     1
  9
$QTEXTMODE
 70
     0
  9
$MIRRTEXT
 70
     1
  9
$LTSCALE
 40
1.0
  9
$ATTMODE
 70
     1
  9
$TEXTSIZE
 40
2.5
  9
$TRACEWID
 40
1.0
  9
$TEXTSTYLE
  7
Standard
  9
$CLAYER
  8
0
  9
$CELTYPE
  6
ByLayer
  9
$CECOLOR
 62
   256
  9
$CELTSCALE
 40
1.0
  9
$DISPSILH
 70
     0
  9
$DIMSCALE
 40
1.0
  9
$DIMASZ
 40
2.5
  9
$DIMEXO
 40
0.625
  9
$DIMDLI
 40
3.75
  9
$DIMRND
 40
0.0
  9
$DIMDLE
 40
0.0
  9
$DIMEXE
 40
1.25
  9
$DIMTP
 40
0.0
  9
$DIMTM
 40
0.0
  9
$DIMTXT
 40
2.5
  9
$DIMCEN
 40
2.5
  9
$DIMTSZ
 40
0.0
  9
$DIMTOL
 70
     0
  9
$DIMLIM
 70
     0
  9
$DIMTIH
 70
     0
  9
$DIMTOH
 70
     0
  9
$DIMSE1
 70
     0
  9
$DIMSE2
 70
     0
  9
$DIMTAD
 70
     1
  9
$DIMZIN
 70
     8
  9
$DIMBLK
  1

  9
$DIMASO
 70
     1
  9
$DIMSHO
 70
     1
  9
$DIMPOST
  1

  9
$DIMAPOST
  1

  9
$DIMALT
 70
     0
  9
$DIMALTD
 70
     3
  9
$DIMALTF
 40
0.0393700787
  9
$DIMLFAC
 40
1.0
  9
$DIMTOFL
 70
     1
  9
$DIMTVP
 40
0.0
  9
$DIMTIX
 70
     0
  9
$DIMSOXD
 70
     0
  9
$DIMSAH
 70
     0
  9
$DIMBLK1
  1

  9
$DIMBLK2
  1

  9
$DIMSTYLE
  2
ISO-25
  9
$DIMCLRD
 70
     0
  9
$DIMCLRE
 70
     0
  9
$DIMCLRT
 70
     0
  9
$DIMTFAC
 40
1.0
  9
$DIMGAP
 40
0.625
  9
$DIMJUST
 70
     0
  9
$DIMSD1
 70
     0
  9
$DIMSD2
 70
     0
  9
$DIMTOLJ
 70
     0
  9
$DIMTZIN
 70
     8
  9
$DIMALTZ
 70
     0
  9
$DIMALTTZ
 70
     0
  9
$DIMUPT
 70
     0
  9
$DIMDEC
 70
     2
  9
$DIMTDEC
 70
     2
  9
$DIMALTU
 70
     2
  9
$DIMALTTD
 70
     3
  9
$DIMTXSTY
  7
Standard
  9
$DIMAUNIT
 70
     0
  9
$DIMADEC
 70
     0
  9
$DIMALTRND
 40
0.0
  9
$DIMAZIN
 70
     0
  9
$DIMDSEP
 70
    44
  9
$DIMATFIT
 70
     3
  9
$DIMFRAC
 70
     0
  9
$DIMLDRBLK
  1

  9
$DIMLUNIT
 70
     2
  9
$DIMLWD
 70
    -2
  9
$DIMLWE
 70
    -2
  9
$DIMTMOVE
 70
     0
  9
$LUNITS
 70
     2
  9
$LUPREC
 70
     4
  9
$SKETCHINC
 40
1.0
  9
$FILLETRAD
 40
10.0
  9
$AUNITS
 70
     0
  9
$AUPREC
 70
     0
  9
$MENU
  1
.
  9
$ELEVATION
 40
0.0
  9
$PELEVATION
 40
0.0
  9
$THICKNESS
 40
0.0
  9
$LIMCHECK
 70
     0
  9
$CHAMFERA
 40
10.0
  9
$CHAMFERB
 40
10.0
  9
$CHAMFERC
 40
20.0
  9
$CHAMFERD
 40
0.0
  9
$SKPOLY
 70
     0
  9
$TDCREATE
 40
2455299.568179792
  9
$TDUCREATE
 40
2455299.484846458
  9
$TDUPDATE
 40
2455299.568179803
  9
$TDUUPDATE
 40
2455299.48484647
  9
$TDINDWG
 40
0.0000000116
  9
$TDUSRTIMER
 40
0.0000000116
  9
$USRTIMER
 70
     1
  9
$ANGBASE
 50
0.0
  9
$ANGDIR
 70
     0
  9
$PDMODE
 70
     0
  9
$PDSIZE
 40
0.0
  9
$PLINEWID
 40
0.0
  9
$SPLFRAME
 70
     0
  9
$SPLINETYPE
 70
     6
  9
$SPLINESEGS
 70
     8
  9
$HANDSEED
  5
197
  9
$SURFTAB1
 70
     6
  9
$SURFTAB2
 70
     6
  9
$SURFTYPE
 70
     6
  9
$SURFU
 70
     6
  9
$SURFV
 70
     6
  9
$UCSBASE
  2

  9
$UCSNAME
  2

  9
$UCSORG
 10
0.0
 20
0.0
 30
0.0
  9
$UCSXDIR
 10
1.0
 20
0.0
 30
0.0
  9
$UCSYDIR
 10
0.0
 20
1.0
 30
0.0
  9
$UCSORTHOREF
  2

  9
$UCSORTHOVIEW
 70
     0
  9
$UCSORGTOP
 10
0.0
 20
0.0
 30
0.0
  9
$UCSORGBOTTOM
 10
0.0
 20
0.0
 30
0.0
  9
$UCSORGLEFT
 10
0.0
 20
0.0
 30
0.0
  9
$UCSORGRIGHT
 10
0.0
 20
0.0
 30
0.0
  9
$UCSORGFRONT
 10
0.0
 20
0.0
 30
0.0
  9
$UCSORGBACK
 10
0.0
 20
0.0
 30
0.0
  9
$PUCSBASE
  2

  9
$PUCSNAME
  2

  9
$PUCSORG
 10
0.0
 20
0.0
 30
0.0
  9
$PUCSXDIR
 10
1.0
 20
0.0
 30
0.0
  9
$PUCSYDIR
 10
0.0
 20
1.0
 30
0.0
  9
$PUCSORTHOREF
  2

  9
$PUCSORTHOVIEW
 70
     0
  9
$PUCSORGTOP
 10
0.0
 20
0.0
 30
0.0
  9
$PUCSORGBOTTOM
 10
0.0
 20
0.0
 30
0.0
  9
$PUCSORGLEFT
 10
0.0
 20
0.0
 30
0.0
  9
$PUCSORGRIGHT
 10
0.0
 20
0.0
 30
0.0
  9
$PUCSORGFRONT
 10
0.0
 20
0.0
 30
0.0
  9
$PUCSORGBACK
 10
0.0
 20
0.0
 30
0.0
  9
$USERI1
 70
     0
  9
$USERI2
 70
     0
  9
$USERI3
 70
     0
  9
$USERI4
 70
     0
  9
$USERI5
 70
     0
  9
$USERR1
 40
0.0
  9
$USERR2
 40
0.0
  9
$USERR3
 40
0.0
  9
$USERR4
 40
0.0
  9
$USERR5
 40
0.0
  9
$WORLDVIEW
 70
     1
  9
$SHADEDGE
 70
     3
  9
$SHADEDIF
 70
    70
  9
$TILEMODE
 70
     1
  9
$MAXACTVP
 70
    64
  9
$PINSBASE
 10
0.0
 20
0.0
 30
0.0
  9
$PLIMCHECK
 70
     0
  9
$PEXTMIN
 10
0.0
 20
0.0
 30
0.0
  9
$PEXTMAX
 10
1682.0
 20
2378.0
 30
0.0
  9
$PLIMMIN
 10
0.0
 20
0.0
  9
$PLIMMAX
 10
1682.0
 20
2378.0
  9
$UNITMODE
 70
     0
  9
$VISRETAIN
 70
     1
  9
$PLINEGEN
 70
     0
  9
$PSLTSCALE
 70
     1
  9
$TREEDEPTH
 70
  3020
  9
$CMLSTYLE
  2
Standard
  9
$CMLJUST
 70
     0
  9
$CMLSCALE
 40
20.0
  9
$PROXYGRAPHICS
 70
     1
  9
$MEASUREMENT
 70
     1
  9
$CELWEIGHT
370
    -1
  9
$ENDCAPS
280
     0
  9
$JOINSTYLE
280
     0
  9
$LWDISPLAY
290
     0
  9
$INSUNITS
 70
     4
  9
$HYPERLINKBASE
  1

  9
$STYLESHEET
  1

  9
$XEDIT
290
     1
  9
$CEPSNTYPE
380
     0
  9
$PSTYLEMODE
290
     1
  9
$FINGERPRINTGUID
  2
{C588386F-C18E-4B1B-970A-5E15670AFB7E}
  9
$VERSIONGUID
  2
{FAEB1C32-E019-11D5-929B-00C0DF256EC4}
  9
$EXTNAMES
290
     1
  9
$PSVPSCALE
 40
0.0
  9
$OLESTARTUP
290
     0
  0
ENDSEC
  0
SECTION
  2
CLASSES
  0
CLASS
  1
ACDBDICTIONARYWDFLT
  2
AcDbDictionaryWithDefault
  3
ObjectDBX Classes
 90
        0
280
     0
281
     0
  0
CLASS
  1
VISUALSTYLE
  2
AcDbVisualStyle
  3
ObjectDBX Classes
 90
     4095
280
     0
281
     0
  0
CLASS
  1
SCALE
  2
AcDbScale
  3
ObjectDBX Classes
 90
     1153
280
     0
281
     0
  0
CLASS
  1
DICTIONARYVAR
  2
AcDbDictionaryVar
  3
ObjectDBX Classes
 90
        0
280
     0
281
     0
  0
CLASS
  1
ACDBPLACEHOLDER
  2
AcDbPlaceHolder
  3
ObjectDBX Classes
 90
        0
280
     0
281
     0
  0
CLASS
  1
LAYOUT
  2
AcDbLayout
  3
ObjectDBX Classes
 90
        0
280
     0
281
     0
  0
ENDSEC
  0
SECTION
  2
TABLES
  0
TABLE
  2
VPORT
  5
8
330
0
100
AcDbSymbolTable
 70
     1
  0
VPORT
  5
29
330
8
100
AcDbSymbolTableRecord
100
AcDbViewportTableRecord
  2
*Active
 70
     0
 10
0.0
 20
0.0
 11
1.0
 21
1.0
 12
344.1869158879
 22
148.5
 13
0.0
 23
0.0
 14
10.0
 24
10.0
 15
10.0
 25
10.0
 16
0.0
 26
0.0
 36
1.0
 17
0.0
 27
0.0
 37
0.0
 40
297.0
 41
1.9729729729
 42
50.0
 43
0.0
 44
0.0
 50
0.0
 51
0.0
 71
     0
 72
   100
 73
     1
 74
     3
 75
     0
 76
     0
 77
     0
 78
     0
281
     0
 65
     1
110
0.0
120
0.0
130
0.0
111
1.0
121
0.0
131
0.0
112
0.0
122
1.0
132
0.0
 79
     0
146
0.0
  0
ENDTAB
  0
TABLE
  2
LTYPE
  5
5
330
0
100
AcDbSymbolTable
 70
     2
  0
LTYPE
  5
14
330
5
100
AcDbSymbolTableRecord
100
AcDbLinetypeTableRecord
  2
ByBlock
 70
     0
  3

 72
    65
 73
     0
 40
0.0
  0
LTYPE
  5
15
330
5
100
AcDbSymbolTableRecord
100
AcDbLinetypeTableRecord
  2
ByLayer
 70
     0
  3

 72
    65
 73
     0
 40
0.0
  0
LTYPE
  5
16
330
5
100
AcDbSymbolTableRecord
100
AcDbLinetypeTableRecord
  2
Continuous
 70
     0
  3
Solid line
 72
    65
 73
     0
 40
0.0
  0
LTYPE
  5
60
330
5
100
AcDbSymbolTableRecord
100
AcDbLinetypeTableRecord
  2
CENTER2
 70
     0
  3
Center (.5x) ___ _ ___ _ ___ _ ___ _ ___ _ ___
 72
    65
 73
     4
 40
28.575
 49
19.05
 74
     4
 75
     0
340
0
 46
0.0
 50
0.0
 44
0.0
 45
0.0
 49
-3.175
 74
     4
 75
     0
340
0
 46
0.0
 50
0.0
 44
0.0
 45
0.0
 49
3.175
 74
     4
 75
     0
340
0
 46
0.0
 50
0.0
 44
0.0
 45
0.0
 49
-3.175
 74
     4
 75
     0
340
0
 46
0.0
 50
0.0
 44
0.0
 45
0.0
  0
ENDTAB
  0
TABLE
  2
LAYER
  5
2
330
0
100
AcDbSymbolTable
 70
    10
  0
LAYER
  5
10
330
2
100
AcDbSymbolTableRecord
100
AcDbLayerTableRecord
  2
0
 70
     0
 62
     7
  6
Continuous
370
    -3
390
F
  0
LAYER
  5
5D
330
2
100
AcDbSymbolTableRecord
100
AcDbLayerTableRecord
  2
Default
 70
     0
 62
     7
  6
Continuous
370
    -3
390
F
  0
LAYER
  5
6B
330
2
100
AcDbSymbolTableRecord
100
AcDbLayerTableRecord
  2
$DDT_AUDIT_GENERATED_(6B)
 70
     0
 62
     7
  6
Continuous
370
    -3
390
F
  0
LAYER
  5
8E
330
2
100
AcDbSymbolTableRecord
100
AcDbLayerTableRecord
  2
$DDT_AUDIT_GENERATED_(8E)
 70
     0
 62
     7
  6
Continuous
370
    -3
390
F
  0
LAYER
  5
90
330
2
100
AcDbSymbolTableRecord
100
AcDbLayerTableRecord
  2
02636038_GEHÄUSE
 70
     0
 62
     7
  6
Continuous
370
    -3
390
F
  0
LAYER
  5
A4
330
2
100
AcDbSymbolTableRecord
100
AcDbLayerTableRecord
  2
$DDT_AUDIT_GENERATED_(A4)
 70
     0
 62
     7
  6
Continuous
370
    -3
390
F
  0
LAYER
  5
D3
330
2
100
AcDbSymbolTableRecord
100
AcDbLayerTableRecord
  2
$DDT_AUDIT_GENERATED_(D3)
 70
     0
 62
     7
  6
Continuous
370
    -3
390
F
  0
LAYER
  5
EB
330
2
100
AcDbSymbolTableRecord
100
AcDbLayerTableRecord
  2
$DDT_AUDIT_GENERATED_(EB)
 70
     0
 62
     7
  6
Continuous
370
    -3
390
F
  0
LAYER
  5
138
330
2
100
AcDbSymbolTableRecord
100
AcDbLayerTableRecord
  2
$DDT_AUDIT_GENERATED_(138)
 70
     0
 62
     7
  6
Continuous
370
    -3
390
F
  0
LAYER
  5
140
330
2
100
AcDbSymbolTableRecord
100
AcDbLayerTableRecord
  2
$DDT_AUDIT_GENERATED_(140)
 70
     0
 62
     7
  6
Continuous
370
    -3
390
F
  0
ENDTAB
  0
TABLE
  2
STYLE
  5
3
330
0
100
AcDbSymbolTable
 70
     2
  0
STYLE
  5
11
330
3
100
AcDbSymbolTableRecord
100
AcDbTextStyleTableRecord
  2
Standard
 70
     0
 40
0.0
 41
1.0
 50
0.0
 71
     0
 42
2.5
  3
txt
  4

  0
STYLE
  5
186
330
3
100
AcDbSymbolTableRecord
100
AcDbTextStyleTableRecord
  2
SEACAD_seiso_ttf
 70
     0
 40
0.0
 41
1.0
 50
0.0
 71
     0
 42
0.2
  3
seiso.ttf
  4

  0
ENDTAB
  0
TABLE
  2
VIEW
  5
6
330
0
100
AcDbSymbolTable
 70
     0
  0
ENDTAB
  0
TABLE
  2
UCS
  5
7
330
0
100
AcDbSymbolTable
 70
     0
  0
ENDTAB
  0
TABLE
  2
APPID
  5
9
330
0
100
AcDbSymbolTable
 70
     1
  0
APPID
  5
12
330
9
100
AcDbSymbolTableRecord
100
AcDbRegAppTableRecord
  2
ACAD
 70
     0
  0
ENDTAB
  0
TABLE
  2
DIMSTYLE
  5
A
330
0
100
AcDbSymbolTable
 70
     1
100
AcDbDimStyleTable
  0
DIMSTYLE
105
27
330
A
100
AcDbSymbolTableRecord
100
AcDbDimStyleTableRecord
  2
ISO-25
 70
     0
 41
2.5
 42
0.625
 43
3.75
 44
1.25
 73
     0
 74
     0
 77
     1
 78
     8
140
2.5
141
2.5
143
0.0393700787
147
0.625
171
     3
172
     1
271
     2
272
     2
274
     3
278
    44
283
     0
284
     8
340
11
  0
ENDTAB
  0
TABLE
  2
BLOCK_RECORD
  5
1
330
0
100
AcDbSymbolTable
 70
     6
  0
BLOCK_RECORD
  5
1F
330
1
100
AcDbSymbolTableRecord
100
AcDbBlockTableRecord
  2
*Model_Space
340
22
  0
BLOCK_RECORD
  5
1B
330
1
100
AcDbSymbolTableRecord
100
AcDbBlockTableRecord
  2
*Paper_Space
340
1E
  0
BLOCK_RECORD
  5
5E
330
1
100
AcDbSymbolTableRecord
100
AcDbBlockTableRecord
  2
SEANNOT_GROUP
340
0
102
{BLKREFS
331
5F
102
}
  0
BLOCK_RECORD
  5
64
330
1
100
AcDbSymbolTableRecord
100
AcDbBlockTableRecord
  2
SEANNOT_GROUP1
340
0
102
{BLKREFS
331
65
102
}
  0
BLOCK_RECORD
  5
69
330
1
100
AcDbSymbolTableRecord
100
AcDbBlockTableRecord
  2
SE
340
0
102
{BLKREFS
331
6A
102
}
  0
BLOCK_RECORD
  5
F5
330
1
100
AcDbSymbolTableRecord
100
AcDbBlockTableRecord
  2
SE1
340
0
102
{BLKREFS
331
F6
102
}
  0
BLOCK_RECORD
  5
14C
330
1
100
AcDbSymbolTableRecord
100
AcDbBlockTableRecord
  2
SE2
340
0
102
{BLKREFS
331
14D
102
}
  0
ENDTAB
  0
ENDSEC
  0
SECTION
  2
BLOCKS
  0
BLOCK
  5
20
330
1F
100
AcDbEntity
  8
0
100
AcDbBlockBegin
  2
*Model_Space
 70
     0
 10
0.0
 20
0.0
 30
0.0
  3
*Model_Space
  1

  0
ENDBLK
  5
21
330
1F
100
AcDbEntity
  8
0
100
AcDbBlockEnd
  0
BLOCK
  5
1C
330
1B
100
AcDbEntity
 67
     1
  8
0
100
AcDbBlockBegin
  2
*Paper_Space
 70
     0
 10
0.0
 20
0.0
 30
0.0
  3
*Paper_Space
  1

  0
ENDBLK
  5
1D
330
1B
100
AcDbEntity
 67
     1
  8
0
100
AcDbBlockEnd
  0
BLOCK
  5
62
330
5E
100
AcDbEntity
  8
0
100
AcDbBlockBegin
  2
SEANNOT_GROUP
 70
     0
 10
0.0
 20
0.0
 30
0.0
  3
SEANNOT_GROUP
  1

  0
LINE
  5
61
330
5E
100
AcDbEntity
  8
Default
  6
CENTER2
 62
     7
100
AcDbLine
 10
33.937321445
 20
511.4365594853
 30
0.0
 11
33.937321445
 21
482.774516343
 31
0.0
  0
ENDBLK
  5
63
330
5E
100
AcDbEntity
  8
0
100
AcDbBlockEnd
  0
BLOCK
  5
67
330
64
100
AcDbEntity
  8
0
100
AcDbBlockBegin
  2
SEANNOT_GROUP1
 70
     0
 10
0.0
 20
0.0
 30
0.0
  3
SEANNOT_GROUP1
  1

  0
LINE
  5
66
330
64
100
AcDbEntity
  8
Default
  6
CENTER2
 62
     7
100
AcDbLine
 10
33.937321445
 20
272.5754789158
 30
0.0
 11
33.937321445
 21
332.7988868381
 31
0.0
  0
ENDBLK
  5
68
330
64
100
AcDbEntity
  8
0
100
AcDbBlockEnd
  0
BLOCK
  5
F3
330
69
100
AcDbEntity
  8
0
100
AcDbBlockBegin
  2
SE
 70
     0
 10
0.0
 20
0.0
 30
0.0
  3
SE
  1

  0
LINE
  5
6C
330
69
100
AcDbEntity
  8
$DDT_AUDIT_GENERATED_(6B)
  6
Continuous
 62
     7
100
AcDbLine
 10
16.0577158006
 20
612.3003861971
 30
0.0
 11
16.0577158006
 21
605.4968780147
 31
0.0
  0
SPLINE
  5
6D
330
69
100
AcDbEntity
  8
$DDT_AUDIT_GENERATED_(6B)
  6
Continuous
 62
     7
100
AcDbSpline
210
0.0
220
0.0
230
1.0
 70
     8
 71
     3
 72
    38
 73
    34
 74
     0
 42
0.0000000004987879
 43
0.0000000001
 40
0.0
 40
0.0
 40
0.0
 40
0.0
 40
0.0220697334014297
 40
0.034049889924773
 40
0.0460300464481163
 40
0.069990359494803
 40
0.0939506725414895
 40
0.1179109855881762
 40
0.1418712986348628
 40
0.1658316116815494
 40
0.189791924728236
 40
0.2137522377749226
 40
0.2377125508216092
 40
0.2856331769149824
 40
0.309593489961669
 40
0.3215736464850123
 40
0.3275637247466839
 40
0.3335538030083556
 40
0.3455339595316989
 40
0.3575141160550422
 40
0.3814744291017288
 40
0.429395055195102
 40
0.4773156812884752
 40
0.5731569334752217
 40
0.6210775595685948
 40
0.668998185661968
 40
0.7648394378487144
 40
0.8606806900354609
 40
0.9086013161288341
 40
0.9565219422222073
 40
0.9804822552688939
 40
0.9924624117922372
 40
1.0
 40
1.0
 40
1.0
 40
1.0
 10
7.893900923703189
 20
631.186071812922
 30
0.0
 10
7.909049850533663
 20
630.6392271262857
 30
0.0
 10
7.936128273096321
 20
629.8362518689304
 30
0.0
 10
7.975552545811341
 20
628.8504024143533
 30
0.0
 10
8.019700439828043
 20
627.8996289283448
 30
0.0
 10
8.079948565711641
 20
626.8447524909395
 30
0.0
 10
8.15951684131664
 20
625.765348586476
 30
0.0
 10
8.24566301401334
 20
624.8387396409449
 30
0.0
 10
8.337887643239588
 20
624.0384291347625
 30
0.0
 10
8.435834026945237
 20
623.3425898948979
 30
0.0
 10
8.539244419299239
 20
622.7335649773111
 30
0.0
 10
8.647868747204038
 20
622.1943217763678
 30
0.0
 10
8.799406212484092
 20
621.5553139106713
 30
0.0
 10
8.960615545415891
 20
621.0154431415594
 30
0.0
 10
9.10948222358304
 20
620.6052758905669
 30
0.0
 10
9.185793167602139
 20
620.4132773440563
 30
0.0
 10
9.229925233733592
 20
620.306949648759
 30
0.0
 10
9.27440429275354
 20
620.2027615153147
 30
0.0
 10
9.330647074352791
 20
620.0763175056436
 30
0.0
 10
9.42200659973429
 20
619.8813426328607
 30
0.0
 10
9.58547774815479
 20
619.5574177246635
 30
0.0
 10
9.82923022929734
 20
619.1327585940801
 30
0.0
 10
10.24110193962139
 20
618.5026865890999
 30
0.0
 10
10.68586561027053
 20
617.8988720335173
 30
0.0
 10
11.16471818572554
 20
617.2620274012716
 30
0.0
 10
11.66671697723529
 20
616.5977499084767
 30
0.0
 10
12.33811654405069
 20
615.738096557674
 30
0.0
 10
13.07078822661034
 20
614.850457484031
 30
0.0
 10
13.69633852295593
 20
614.1351203395129
 30
0.0
 10
14.10424647534329
 20
613.6895121277897
 30
0.0
 10
14.39835356100579
 20
613.3802675725226
 30
0.0
 10
14.55434135902652
 20
613.2209206786987
 30
0.0
 10
14.6237871050177
 20
613.1496170372666
 30
0.0
 10
14.65120110906894
 20
613.1221440071621
 30
0.0
  0
ARC
  5
6E
330
69
100
AcDbEntity
  8
$DDT_AUDIT_GENERATED_(6B)
  6
Continuous
 62
     7
100
AcDbCircle
 10
17.3518365806
 20
616.1300318574
 30
0.0
 40
4.042378170061954
100
AcDbArc
 50
228.0808833399
 51
251.329230758
  0
ARC
  5
6F
330
69
100
AcDbEntity
  8
$DDT_AUDIT_GENERATED_(6B)
  6
Continuous
 62
     7
100
AcDbCircle
 10
32.5411273105
 20
698.5863004236
 30
0.0
 40
87.84623040585652
100
AcDbArc
 50
259.1849709345
 51
270.9106753839
  0
ARC
  5
70
330
69
100
AcDbEntity
  8
$DDT_AUDIT_GENERATED_(6B)
  6
Continuous
 62
     7
100
AcDbCircle
 10
9.9078451846
 20
561.0798838808
 30
0.0
 40
1.970676748255575
100
AcDbArc
 50
179.9804713608
 51
191.5850207423
  0
ARC
  5
71
330
69
100
AcDbEntity
  8
$DDT_AUDIT_GENERATED_(6B)
  6
Continuous
 62
     7
100
AcDbCircle
 10
281.010628311
 20
582.926548258
 30
0.0
 40
272.8236631202441
100
AcDbArc
 50
176.6844785021
 51
178.4246429777
  0
ARC
  5
72
330
69
100
AcDbEntity
  8
$DDT_AUDIT_GENERATED_(6B)
  6
Continuous
 62
     7
100
AcDbCircle
 10
18.8241338648
 20
605.4013670837
 30
0.0
 40
2.812167913686771
100
AcDbArc
 50
177.7908609247
 51
242.9519863842
  0
ARC
  5
73
330
69
100
AcDbEntity
  8
$DDT_AUDIT_GENERATED_(6B)
  6
Continuous
 62
     7
100
AcDbCircle
 10
9.4461208099
 20
576.7839488871
 30
0.0
 40
27.34002819206221
100
AcDbArc
 50
72.7680780713
 51
75.5406253531
  0
SPLINE
  5
74
330
69
100
AcDbEntity
  8
$DDT_AUDIT_GENERATED_(6B)
  6
Continuous
 62
     7
100
AcDbSpline
210
0.0
220
0.0
230
1.0
 70
     8
 71
     3
 72
    19
 73
    15
 74
     0
 42
0.0000000006088386
 43
0.0000000001
 40
0.0
 40
0.0
 40
0.0
 40
0.0
 40
0.0313522873894289
 40
0.0631342674815204
 40
0.1258977933994772
 40
0.2505952678048137
 40
0.3758530028775961
 40
0.5002729549262861
 40
0.6255264095992759
 40
0.750142283775436
 40
0.812960295872126
 40
0.8754549837265271
 40
0.9377014188373037
 40
1.0
 40
1.0
 40
1.0
 40
1.0
 10
33.93732144502386
 20
602.1829335341512
 30
0.0
 10
33.6989258722358
 20
602.1853764276542
 30
0.0
 10
33.21886744228816
 20
602.190295695264
 30
0.0
 10
32.26218675805178
 20
602.207156509374
 30
0.0
 10
30.60499987564184
 20
602.2480094826675
 30
0.0
 10
28.28941742311122
 20
602.3020169811172
 30
0.0
 10
25.67349920694664
 20
602.3519152528843
 30
0.0
 10
23.30230876054144
 20
602.4144061481802
 30
0.0
 10
21.27225830225564
 20
602.4926170699194
 30
0.0
 10
19.90476883611169
 20
602.5735301494252
 30
0.0
 10
19.00832265255016
 20
602.6488828263408
 30
0.0
 10
18.43031249762984
 20
602.7148205393431
 30
0.0
 10
17.93794259473584
 20
602.796862393677
 30
0.0
 10
17.67620357741395
 20
602.8633815427521
 30
0.0
 10
17.54533706457609
 20
602.8967778721902
 30
0.0
  0
ARC
  5
75
330
69
100
AcDbEntity
  8
$DDT_AUDIT_GENERATED_(6B)
  6
Continuous
 62
     7
100
AcDbCircle
 10
33.1702839431
 20
605.3778732942
 30
0.0
 40
25.41814813752712
100
AcDbArc
 50
195.2195001037
 51
271.7292638395
  0
SPLINE
  5
76
330
69
100
AcDbEntity
  8
$DDT_AUDIT_GENERATED_(6B)
  6
Continuous
 62
     7
100
AcDbSpline
210
0.0
220
0.0
230
1.0
 70
     8
 71
     2
 72
    28
 73
    25
 74
     0
 42
0.0000000003605227
 43
0.0000000001
 40
0.0098886638412512
 40
0.0098886638412512
 40
0.0098886638412512
 40
0.125
 40
0.125
 40
0.1875
 40
0.1875
 40
0.25
 40
0.25
 40
0.375
 40
0.375
 40
0.4375
 40
0.4375
 40
0.5
 40
0.5
 40
0.625
 40
0.625
 40
0.75
 40
0.75
 40
0.875
 40
0.875
 40
0.9375
 40
0.9375
 40
0.96875
 40
0.96875
 40
1.0
 40
1.0
 40
1.0
 10
33.54650675349331
 20
553.8873828420743
 30
0.0
 10
31.2729015987553
 20
553.896822965666
 30
0.0
 10
29.02444944459983
 20
554.0158277019185
 30
0.0
 10
27.80944368474809
 20
554.0801348030186
 30
0.0
 10
26.62293822350485
 20
554.175651109678
 30
0.0
 10
25.43351040999974
 20
554.2714026721403
 30
0.0
 10
24.28762706321476
 20
554.397387835015
 30
0.0
 10
21.99484943524003
 20
554.6494693088462
 30
0.0
 10
19.90117284201928
 20
555.019354855574
 30
0.0
 10
18.86067569181574
 20
555.2031773516167
 30
0.0
 10
17.88772662380451
 20
555.4132614248095
 30
0.0
 10
16.91307877823202
 20
555.6237123066271
 30
0.0
 10
16.01858157922675
 20
555.8579300644096
 30
0.0
 10
14.22873114432562
 20
556.3265897271732
 30
0.0
 10
12.78615622389418
 20
556.8831737877531
 30
0.0
 10
11.34383040372529
 20
557.4396617387764
 30
0.0
 10
10.31297832351646
 20
558.0592386953191
 30
0.0
 10
9.288373993634032
 20
558.6750605426595
 30
0.0
 10
8.696603905700206
 20
559.341143408462
 30
0.0
 10
8.40365663189908
 20
559.670878154508
 30
0.0
 10
8.223085314634272
 20
560.0078466222993
 30
0.0
 10
8.133029695117727
 20
560.1759015746812
 30
0.0
 10
8.07170838982427
 20
560.3449192540514
 30
0.0
 10
8.012461686690061
 20
560.5082187830839
 30
0.0
 10
7.977315485958331
 20
560.6841289960421
 30
0.0
  0
SPLINE
  5
77
330
69
100
AcDbEntity
  8
$DDT_AUDIT_GENERATED_(6B)
  6
Continuous
 62
     7
100
AcDbSpline
210
0.0
220
0.0
230
1.0
 70
     8
 71
     3
 72
    35
 73
    31
 74
     0
 42
0.0000000008331268
 43
0.0000000001
 40
0.0
 40
0.0
 40
0.0
 40
0.0
 40
0.0313855805223449
 40
0.0627716299283073
 40
0.1255446818987792
 40
0.1883142348243156
 40
0.2197005063130162
 40
0.2510854535308684
 40
0.3138505391198683
 40
0.3766113001092237
 40
0.4393458775834977
 40
0.4705194972305322
 40
0.501648403522595
 40
0.5639413612965737
 40
0.5950857834470666
 40
0.6262280149899606
 40
0.688513641871428
 40
0.7507730151549908
 40
0.777436079852109
 40
0.8129963024244369
 40
0.8441550883387698
 40
0.8753132485198118
 40
0.8908928858238032
 40
0.9064802054725203
 40
0.9220702430556577
 40
0.9376592908292298
 40
0.9532463298350475
 40
0.9688369024901444
 40
0.984189620928533
 40
1.0
 40
1.0
 40
1.0
 40
1.0
 10
16.27274758685024
 20
603.2579797171963
 30
0.0
 10
16.15799331561502
 20
603.2864616716363
 30
0.0
 10
15.92841102030792
 20
603.3433096296827
 30
0.0
 10
15.51159667865194
 20
603.433903609597
 30
0.0
 10
14.97505210476417
 20
603.5553996511163
 30
0.0
 10
14.41094922162164
 20
603.7073051248699
 30
0.0
 10
13.9576557349189
 20
603.8391061014356
 30
0.0
 10
13.51268980123899
 20
603.9709564656462
 30
0.0
 10
12.98213639400152
 20
604.1197908923393
 30
0.0
 10
12.40891575092553
 20
604.2313934001988
 30
0.0
 10
11.98029497146704
 20
604.2582589695178
 30
0.0
 10
11.6541551138878
 20
604.2540368412682
 30
0.0
 10
11.33634432480406
 20
604.2376671285938
 30
0.0
 10
11.02556947197533
 20
604.2130588750172
 30
0.0
 10
10.72320743199035
 20
604.1770305451143
 30
0.0
 10
10.42990039102863
 20
604.1278706013085
 30
0.0
 10
10.08359146898277
 20
604.0264890334378
 30
0.0
 10
9.784503000394254
 20
603.8151643099324
 30
0.0
 10
9.562378969155821
 20
603.5224401584891
 30
0.0
 10
9.406372832900717
 20
603.2235500731125
 30
0.0
 10
9.255270266820391
 20
602.7991863425634
 30
0.0
 10
9.142826212870212
 20
602.3637926198655
 30
0.0
 10
9.052491374138949
 20
601.9464707030321
 30
0.0
 10
8.98376243141168
 20
601.5973452205019
 30
0.0
 10
8.915429488441225
 20
601.2114289517642
 30
0.0
 10
8.849706438587738
 20
600.7881222383526
 30
0.0
 10
8.787841742774367
 20
600.3268070886049
 30
0.0
 10
8.732385923164003
 20
599.8287960438325
 30
0.0
 10
8.683380615503202
 20
599.291934404012
 30
0.0
 10
8.657078063670616
 20
598.9026715177835
 30
0.0
 10
8.643621308175288
 20
598.7051620958856
 30
0.0
  0
ARC
  5
78
330
69
100
AcDbEntity
  8
$DDT_AUDIT_GENERATED_(6B)
  6
Continuous
 62
     7
100
AcDbCircle
 10
35.0994645648
 20
701.2874813097
 30
0.0
 40
90.54377375448563
100
AcDbArc
 50
269.2645797545
 51
280.6397739271
  0
ARC
  5
79
330
69
100
AcDbEntity
  8
$DDT_AUDIT_GENERATED_(6B)
  6
Continuous
 62
     7
100
AcDbCircle
 10
50.5660408639
 20
616.0560297912
 30
0.0
 40
3.958467560554127
100
AcDbArc
 50
288.420812625
 51
312.169073277
  0
SPLINE
  5
7A
330
69
100
AcDbEntity
  8
$DDT_AUDIT_GENERATED_(6B)
  6
Continuous
 62
     7
100
AcDbSpline
210
0.0
220
0.0
230
1.0
 70
     8
 71
     3
 72
    26
 73
    22
 74
     0
 42
0.0000000004986651
 43
0.0000000001
 40
0.0
 40
0.0
 40
0.0
 40
0.0
 40
0.0105686695457192
 40
0.0211487440199176
 40
0.0317819361710247
 40
0.0473491571148881
 40
0.0636838577789343
 40
0.1278131327114464
 40
0.1923681501972154
 40
0.256922103982727
 40
0.3210832086160816
 40
0.384520824173706
 40
0.447214619084348
 40
0.509301287957642
 40
0.5709100808614005
 40
0.6321753602357533
 40
0.7542064067363647
 40
0.8152389465462465
 40
0.8764601539160535
 40
0.9380028223802027
 40
1.0
 40
1.0
 40
1.0
 40
1.0
 10
59.9807419663406
 20
631.186071812922
 30
0.0
 10
59.97307902652106
 20
630.9316116034378
 30
0.0
 10
59.95791043393278
 20
630.4223630813296
 30
0.0
 10
59.93296848424973
 20
629.7059009895735
 30
0.0
 10
59.9023075892331
 20
628.9221399586758
 30
0.0
 10
59.86409770406485
 20
628.0885842974659
 30
0.0
 10
59.77113912112715
 20
626.3934692453169
 30
0.0
 10
59.60711030284238
 20
624.4691882419284
 30
0.0
 10
59.35058697715142
 20
622.7208640584543
 30
0.0
 10
59.05844973596111
 20
621.4487625538658
 30
0.0
 10
58.73418861171913
 20
620.4834224345557
 30
0.0
 10
58.38027642241973
 20
619.7118220998093
 30
0.0
 10
57.99815471333286
 20
619.050326871461
 30
0.0
 10
57.58815191395125
 20
618.4437354001259
 30
0.0
 10
57.14987704383738
 20
617.8467458507242
 30
0.0
 10
56.52777463998322
 20
617.0187989214211
 30
0.0
 10
55.84475250411128
 20
616.125539024827
 30
0.0
 10
55.10077872104213
 20
615.2080572505467
 30
0.0
 10
54.50982890764736
 20
614.5099811854006
 30
0.0
 10
53.88728795112729
 20
613.808009159174
 30
0.0
 10
53.44521314466166
 20
613.3513276392614
 30
0.0
 10
53.22344178097484
 20
613.1221440071621
 30
0.0
  0
LINE
  5
7B
330
69
100
AcDbEntity
  8
$DDT_AUDIT_GENERATED_(6B)
  6
Continuous
 62
     7
100
AcDbLine
 10
51.8169270894
 20
612.3003861971
 30
0.0
 11
51.8169270894
 21
605.4968780147
 31
0.0
  0
ARC
  5
7C
330
69
100
AcDbEntity
  8
$DDT_AUDIT_GENERATED_(6B)
  6
Continuous
 62
     7
100
AcDbCircle
 10
57.9664542728
 20
561.0798557096
 30
0.0
 40
1.971007529392816
100
AcDbArc
 50
348.4177863631
 51
0.0203366143
  0
ARC
  5
7D
330
69
100
AcDbEntity
  8
$DDT_AUDIT_GENERATED_(6B)
  6
Continuous
 62
     7
100
AcDbCircle
 10
-215.0720176326
 20
582.8438663192
 30
0.0
 40
274.7612382160647
100
AcDbArc
 50
1.5814931787
 51
3.3093853416
  0
SPLINE
  5
7E
330
69
100
AcDbEntity
  8
$DDT_AUDIT_GENERATED_(6B)
  6
Continuous
 62
     7
100
AcDbSpline
210
0.0
220
0.0
230
1.0
 70
     8
 71
     3
 72
    38
 73
    34
 74
     0
 42
0.0000000008335262
 43
0.0000000001
 40
0.0
 40
0.0
 40
0.0
 40
0.0
 40
0.0729478508842253
 40
0.0729478508842253
 40
0.1458957017684506
 40
0.1458957017684506
 40
0.2917914035369013
 40
0.2917914035369013
 40
0.3647392544211266
 40
0.3647392544211266
 40
0.4376871053053519
 40
0.4376871053053519
 40
0.5106349561895773
 40
0.5106349561895773
 40
0.5835828070738026
 40
0.5835828070738026
 40
0.6565306579580279
 40
0.6565306579580279
 40
0.7294785088422533
 40
0.7294785088422533
 40
0.7659524342843659
 40
0.7659524342843659
 40
0.8024263597264786
 40
0.8024263597264786
 40
0.8753742106107039
 40
0.8753742106107039
 40
0.9483220614949293
 40
0.9483220614949293
 40
0.9665590242159856
 40
0.9665590242159856
 40
0.984795986937042
 40
0.984795986937042
 40
1.0
 40
1.0
 40
1.0
 40
1.0
 10
51.60189530319354
 20
603.2579797171963
 30
0.0
 10
51.87938556336628
 20
603.3291585282321
 30
0.0
 10
52.11820405720403
 20
603.3806050864183
 30
0.0
 10
52.61343148989209
 20
603.4897961045208
 30
0.0
 10
52.86641468649948
 20
603.5505675842913
 30
0.0
 10
53.64883394278024
 20
603.7526102708616
 30
0.0
 10
54.19381804337178
 20
603.9280785735941
 30
0.0
 10
54.92060591863194
 20
604.1218361557562
 30
0.0
 10
55.15134605306274
 20
604.17230849769
 30
0.0
 10
55.58104515072074
 20
604.2383397701808
 30
0.0
 10
55.78387459357843
 20
604.2525146889051
 30
0.0
 10
56.17008551094584
 20
604.2574983300452
 30
0.0
 10
56.35523833728544
 20
604.2481988044512
 30
0.0
 10
56.72182462716288
 20
604.2236465752753
 30
0.0
 10
56.90179532014503
 20
604.2075554921131
 30
0.0
 10
57.25264998491388
 20
604.162886663097
 30
0.0
 10
57.42219765777594
 20
604.1333674250434
 30
0.0
 10
57.74415600881289
 20
604.0310215506664
 30
0.0
 10
57.89621725128404
 20
603.9582141565361
 30
0.0
 10
58.10676179454344
 20
603.7772234894794
 30
0.0
 10
58.17370437349119
 20
603.705271243721
 30
0.0
 10
58.30304176449309
 20
603.5284583326381
 30
0.0
 10
58.36464413311423
 20
603.4236688557548
 30
0.0
 10
58.54415469613744
 20
603.0450071365976
 30
0.0
 10
58.65146206177469
 20
602.7077221936935
 30
0.0
 10
58.86071779371849
 20
601.7855544184197
 30
0.0
 10
58.97273456265209
 20
601.1958957489238
 30
0.0
 10
59.09118413335329
 20
600.2838383551893
 30
0.0
 10
59.11322868891764
 20
600.0925885663202
 30
0.0
 10
59.15473400223703
 20
599.6925706543392
 30
0.0
 10
59.17378124695374
 20
599.4843244674839
 30
0.0
 10
59.20577883430482
 20
599.0852906138442
 30
0.0
 10
59.21881453484108
 20
598.8981034517508
 30
0.0
 10
59.23102158186848
 20
598.7051620958856
 30
0.0
  0
ARC
  5
7F
330
69
100
AcDbEntity
  8
$DDT_AUDIT_GENERATED_(6B)
  6
Continuous
 62
     7
100
AcDbCircle
 10
49.0505090253
 20
605.4013670837
 30
0.0
 40
2.812167913686729
100
AcDbArc
 50
297.0480136158
 51
2.2091390753
  0
ARC
  5
80
330
69
100
AcDbEntity
  8
$DDT_AUDIT_GENERATED_(6B)
  6
Continuous
 62
     7
100
AcDbCircle
 10
37.7010491894
 20
704.3178004096
 30
0.0
 40
102.2041910989767
100
AcDbArc
 50
267.8895729932
 51
277.0975525399
  0
ARC
  5
81
330
69
100
AcDbEntity
  8
$DDT_AUDIT_GENERATED_(6B)
  6
Continuous
 62
     7
100
AcDbCircle
 10
34.5974619388
 20
605.5222013041
 30
0.0
 40
25.55942652434426
100
AcDbArc
 50
268.5200188069
 51
344.5312172499
  0
SPLINE
  5
82
330
69
100
AcDbEntity
  8
$DDT_AUDIT_GENERATED_(6B)
  6
Continuous
 62
     7
100
AcDbSpline
210
0.0
220
0.0
230
1.0
 70
     8
 71
     3
 72
    24
 73
    20
 74
     0
 42
0.0000000003611987
 43
0.0000000001
 40
0.0130899418871393
 40
0.0130899418871393
 40
0.0130899418871393
 40
0.0130899418871393
 40
0.2470679086129381
 40
0.2470679086129381
 40
0.493842892468592
 40
0.493842892468592
 40
0.617288076309883
 40
0.617288076309883
 40
0.7407220920194388
 40
0.7407220920194388
 40
0.8026288265438786
 40
0.8026288265438786
 40
0.8645108455349746
 40
0.8645108455349746
 40
0.9264710832834053
 40
0.9264710832834053
 40
0.9810875867056587
 40
0.9810875867056587
 40
1.0
 40
1.0
 40
1.0
 40
1.0
 10
34.45479122492686
 20
553.8880028973591
 30
0.0
 10
37.53762855554809
 20
553.9050686020253
 30
0.0
 10
40.61045612012227
 20
554.0743283551778
 30
0.0
 10
46.50497282834846
 20
554.7139329124541
 30
0.0
 10
49.30080027547143
 20
555.200960773237
 30
0.0
 10
52.86846703746943
 20
556.1176183713528
 30
0.0
 10
53.94921352056643
 20
556.4534652529895
 30
0.0
 10
55.87047300322248
 20
557.1767179448626
 30
0.0
 10
56.70782474521243
 20
557.5630272208489
 30
0.0
 10
57.75702279326743
 20
558.1707211385117
 30
0.0
 10
58.07064593882643
 20
558.3771324471475
 30
0.0
 10
58.62861261438343
 20
558.799494965233
 30
0.0
 10
58.87011993322643
 20
559.0130843856199
 30
0.0
 10
59.28289829494543
 20
559.4481285040362
 30
0.0
 10
59.45185611225743
 20
559.6672512463881
 30
0.0
 10
59.70120316518548
 20
560.0849283082583
 30
0.0
 10
59.78861368820843
 20
560.2809899343813
 30
0.0
 10
59.86707160431293
 20
560.5470653970501
 30
0.0
 10
59.88363780814725
 20
560.6155686734076
 30
0.0
 10
59.89732740408543
 20
560.684128996042
 30
0.0
  0
SPLINE
  5
83
330
69
100
AcDbEntity
  8
$DDT_AUDIT_GENERATED_(6B)
  6
Continuous
 62
     7
100
AcDbSpline
210
0.0
220
0.0
230
1.0
 70
     8
 71
     3
 72
    18
 73
    14
 74
     0
 42
0.0000000004428667
 43
0.0000000001
 40
0.415560120318854
 40
0.415560120318854
 40
0.415560120318854
 40
0.415560120318854
 40
0.4374999999999992
 40
0.4374999999999992
 40
0.4999999999999989
 40
0.4999999999999989
 40
0.6249999999999991
 40
0.6249999999999991
 40
0.7499999999999994
 40
0.7499999999999994
 40
0.8749999999999997
 40
0.8749999999999997
 40
1.0
 40
1.0
 40
1.0
 40
1.0
 10
22.13241378067306
 20
600.402714043991
 30
0.0
 10
22.05655308945486
 20
600.4632062249817
 30
0.0
 10
21.99008495290045
 20
600.5204131222157
 30
0.0
 10
21.7727312878467
 20
600.7258216752354
 30
0.0
 10
21.69081492895157
 20
600.8465418457996
 30
0.0
 10
21.68065948457598
 20
601.1305451746342
 30
0.0
 10
21.99232172217205
 20
601.2277881957717
 30
0.0
 10
23.21896151449818
 20
601.3797133646635
 30
0.0
 10
24.11794319154466
 20
601.4230899861725
 30
0.0
 10
26.37918748075336
 20
601.4838909295297
 30
0.0
 10
27.74080470883143
 20
601.4979380905527
 30
0.0
 10
30.69799654832585
 20
601.4939591477685
 30
0.0
 10
32.310435182496
 20
601.4760693617001
 30
0.0
 10
33.93732144502189
 20
601.4759697059575
 30
0.0
  0
SPLINE
  5
84
330
69
100
AcDbEntity
  8
$DDT_AUDIT_GENERATED_(6B)
  6
Continuous
 62
     7
100
AcDbSpline
210
0.0
220
0.0
230
1.0
 70
     8
 71
     3
 72
    18
 73
    14
 74
     0
 42
0.0000000004429175
 43
0.0000000001
 40
0.0
 40
0.0
 40
0.0
 40
0.0
 40
0.1249999999999995
 40
0.1249999999999995
 40
0.2499999999999989
 40
0.2499999999999989
 40
0.3749999999999984
 40
0.3749999999999984
 40
0.4999999999999979
 40
0.4999999999999979
 40
0.5624999999999981
 40
0.5624999999999981
 40
0.5836198460158563
 40
0.5836198460158563
 40
0.5836198460158563
 40
0.5836198460158563
 10
33.93732144502189
 20
601.4759697059575
 30
0.0
 10
35.56349631701057
 20
601.4760693181242
 30
0.0
 10
37.16179172371928
 20
601.4938882605268
 30
0.0
 10
40.13287035824939
 20
601.4979874179999
 30
0.0
 10
41.49398988688775
 20
601.4838620197311
 30
0.0
 10
43.74762215702791
 20
601.4234020617434
 30
0.0
 10
44.65632405829346
 20
601.379238807243
 30
0.0
 10
45.87116604835477
 20
601.2295613601483
 30
0.0
 10
46.19039929611707
 20
601.1320234409699
 30
0.0
 10
46.18574820814153
 20
600.8507001591661
 30
0.0
 10
46.10316929162139
 20
600.7275035457845
 30
0.0
 10
45.8897600520088
 20
600.5251680282779
 30
0.0
 10
45.82725322700978
 20
600.470929014064
 30
0.0
 10
45.75612269836019
 20
600.4136729363913
 30
0.0
  0
LINE
  5
85
330
69
100
AcDbEntity
  8
$DDT_AUDIT_GENERATED_(6B)
  6
Continuous
 62
     7
100
AcDbLine
 10
7.8542597763
 20
633.7882929927
 30
0.0
 11
7.8542597763
 21
588.9389204415
 31
0.0
  0
ARC
  5
86
330
69
100
AcDbEntity
  8
$DDT_AUDIT_GENERATED_(6B)
  6
Continuous
 62
     7
100
AcDbCircle
 10
-698.8050324269
 20
636.8119977927
 30
0.0
 40
706.6657849565869
100
AcDbArc
 50
359.7535038584
 51
0.7340108894
  0
ARC
  5
87
330
69
100
AcDbEntity
  8
$DDT_AUDIT_GENERATED_(6B)
  6
Continuous
 62
     7
100
AcDbCircle
 10
-1395.1720866816
 20
570.8536711849
 30
0.0
 40
1403.143248130519
100
AcDbArc
 50
359.6009195995
 51
0.7395690474
  0
LINE
  5
88
330
69
100
AcDbEntity
  8
$DDT_AUDIT_GENERATED_(6B)
  6
Continuous
 62
     7
100
AcDbLine
 10
60.0203831138
 20
588.9389209581
 30
0.0
 11
60.0203831138
 21
633.7882837104
 31
0.0
  0
ARC
  5
89
330
69
100
AcDbEntity
  8
$DDT_AUDIT_GENERATED_(6B)
  6
Continuous
 62
     7
100
AcDbCircle
 10
717.9213091147
 20
637.0194466124
 30
0.0
 40
657.9088947446253
100
AcDbArc
 50
179.2296556241
 51
180.2828302689
  0
LINE
  5
8A
330
69
100
AcDbEntity
  8
$DDT_AUDIT_GENERATED_(6B)
  6
Continuous
 62
     7
100
AcDbLine
 10
60.0203070771
 20
588.9079248546
 30
0.0
 11
60.0203716605
 21
588.9648219172
 31
0.0
  0
ARC
  5
8B
330
69
100
AcDbEntity
  8
$DDT_AUDIT_GENERATED_(6B)
  6
Continuous
 62
     7
100
AcDbCircle
 10
1444.4557859551
 20
570.8752644919
 30
0.0
 40
1384.552914126456
100
AcDbArc
 50
179.2537486044
 51
180.4053325246
  0
SPLINE
  5
8C
330
69
100
AcDbEntity
  8
$DDT_AUDIT_GENERATED_(6B)
  6
Continuous
 62
     7
100
AcDbSpline
210
0.0
220
0.0
230
1.0
 70
     8
 71
     3
 72
    11
 73
     7
 74
     0
 42
0.0000000101762472
 43
0.0000000001
 40
0.0
 40
0.0
 40
0.0
 40
0.0
 40
0.1308283185522018
 40
0.3277134842895851
 40
0.5577237817234196
 40
0.6809443993542531
 40
0.6809443993542531
 40
0.6809443993542531
 40
0.6809443993542531
 10
60.06861573572718
 20
645.8648567078038
 30
0.0
 10
60.06794060831302
 20
645.9165689167894
 30
0.0
 10
60.0661141568671
 20
646.0258803409772
 30
0.0
 10
60.02492436648224
 20
646.2149808609673
 30
0.0
 10
59.97161812728122
 20
646.3794331332853
 30
0.0
 10
59.93411067620625
 20
646.4782598370587
 30
0.0
 10
59.92125833449433
 20
646.5118790202312
 30
0.0
  0
SPLINE
  5
8D
330
69
100
AcDbEntity
  8
$DDT_AUDIT_GENERATED_(6B)
  6
Continuous
 62
     7
100
AcDbSpline
210
0.0
220
0.0
230
1.0
 70
     8
 71
     3
 72
    11
 73
     7
 74
     0
 42
0.0000000101459004
 43
0.0000000001
 40
0.3187792646655987
 40
0.3187792646655987
 40
0.3187792646655987
 40
0.3187792646655987
 40
0.56194298622141
 40
0.7857286774947659
 40
0.9778759942155014
 40
1.0
 40
1.0
 40
1.0
 40
1.0
 10
7.9531386944214
 20
646.5117001222299
 30
0.0
 10
7.928666640672089
 20
646.4462970177466
 30
0.0
 10
7.87687480041541
 20
646.3107942153339
 30
0.0
 10
7.82427628480464
 20
646.101896518303
 30
0.0
 10
7.798810041840007
 20
645.9464011206215
 30
0.0
 10
7.804190011040425
 20
645.8720153126161
 30
0.0
 10
7.804842657820034
 20
645.8630744154832
 30
0.0
  0
ELLIPSE
  5
8F
330
69
100
AcDbEntity
  8
$DDT_AUDIT_GENERATED_(8E)
  6
Continuous
 62
     7
100
AcDbEllipse
 10
33.937321445
 20
647.5649924369
 30
0.0
 11
25.02159067685346
 21
0.0
 31
0.0
210
0.0
220
0.0
230
1.0
 40
0.2756373558
 41
3.605811470587523
 42
5.811065318188058
  0
ELLIPSE
  5
91
330
69
100
AcDbEntity
  8
02636038_GEHÄUSE
  6
Continuous
 62
     7
100
AcDbEllipse
 10
33.937321445
 20
593.8076905172
 30
0.0
 11
10.02278736572428
 21
0.0
 31
0.0
210
0.0
220
0.0
230
1.0
 40
0.1684893796
 41
5.722804595097402
 42
6.283185307179586
  0
ELLIPSE
  5
92
330
69
100
AcDbEntity
  8
02636038_GEHÄUSE
  6
Continuous
 62
     7
100
AcDbEllipse
 10
33.937321445
 20
593.8076905172
 30
0.0
 11
10.02278736572428
 21
0.0
 31
0.0
210
0.0
220
0.0
230
1.0
 40
0.1684893796
 41
0.0
 42
3.701973365671976
  0
ELLIPSE
  5
93
330
69
100
AcDbEntity
  8
02636038_GEHÄUSE
  6
Continuous
 62
     7
100
AcDbEllipse
 10
33.937321445
 20
593.8076905172
 30
0.0
 11
10.75000000000001
 21
0.0
 31
0.0
210
0.0
220
0.0
230
1.0
 40
0.1684893796
 41
5.362851084008678
 42
6.283185307179586
  0
ELLIPSE
  5
94
330
69
100
AcDbEntity
  8
02636038_GEHÄUSE
  6
Continuous
 62
     7
100
AcDbEllipse
 10
33.937321445
 20
593.8076905172
 30
0.0
 11
10.75000000000001
 21
0.0
 31
0.0
210
0.0
220
0.0
230
1.0
 40
0.1684893796
 41
0.0
 42
4.061926876760699
  0
LINE
  5
95
330
69
100
AcDbEntity
  8
02636038_GEHÄUSE
  6
Continuous
 62
     7
100
AcDbLine
 10
22.937321445
 20
594.5564917654
 30
0.0
 11
22.937321445
 21
593.6848950486
 31
0.0
  0
ELLIPSE
  5
96
330
69
100
AcDbEntity
  8
02636038_GEHÄUSE
  6
Continuous
 62
     7
100
AcDbEllipse
 10
33.937321445
 20
596.7648009245
 30
0.0
 11
11.79999999999967
 21
0.0
 31
0.0
210
0.0
220
0.0
230
1.0
 40
0.1684893796
 41
2.771250021498071
 42
3.511935285681516
  0
LINE
  5
97
330
69
100
AcDbEntity
  8
02636038_GEHÄUSE
  6
Continuous
 62
     7
100
AcDbLine
 10
22.937321445
 20
597.4843906406
 30
0.0
 11
22.937321445
 21
595.6939273679
 31
0.0
  0
LINE
  5
98
330
69
100
AcDbEntity
  8
02636038_GEHÄUSE
  6
Continuous
 62
     7
100
AcDbLine
 10
22.937321445
 20
595.6939273679
 30
0.0
 11
22.937321445
 21
594.5564917654
 31
0.0
  0
ELLIPSE
  5
99
330
69
100
AcDbEntity
  8
02636038_GEHÄUSE
  6
Continuous
 62
     7
100
AcDbEllipse
 10
33.937321445
 20
594.120693407
 30
0.0
 11
11.29999999999999
 21
0.0
 31
0.0
210
0.0
220
0.0
230
1.0
 40
0.1684893796
 41
-0.3005701738269835
 42
-0.2309414791401494
  0
ELLIPSE
  5
9A
330
69
100
AcDbEntity
  8
02636038_GEHÄUSE
  6
Continuous
 62
     7
100
AcDbEllipse
 10
33.937321445
 20
594.120693407
 30
0.0
 11
11.29999999999999
 21
0.0
 31
0.0
210
0.0
220
0.0
230
1.0
 40
0.1684893796
 41
3.372534132729942
 42
3.442162827416783
  0
LINE
  5
9B
330
69
100
AcDbEntity
  8
02636038_GEHÄUSE
  6
Continuous
 62
     7
100
AcDbLine
 10
44.937321445
 20
593.6848950486
 30
0.0
 11
44.937321445
 21
594.5564917654
 31
0.0
  0
ELLIPSE
  5
9C
330
69
100
AcDbEntity
  8
02636038_GEHÄUSE
  6
Continuous
 62
     7
100
AcDbEllipse
 10
33.937321445
 20
596.7648009245
 30
0.0
 11
-11.80000000000008
 21
0.0
 31
0.0
210
0.0
220
0.0
230
1.0
 40
0.1684893796
 41
2.771250021498077
 42
3.511935285681508
  0
LINE
  5
9D
330
69
100
AcDbEntity
  8
02636038_GEHÄUSE
  6
Continuous
 62
     7
100
AcDbLine
 10
44.937321445
 20
594.5564917654
 30
0.0
 11
44.937321445
 21
595.6939273679
 31
0.0
  0
LINE
  5
9E
330
69
100
AcDbEntity
  8
02636038_GEHÄUSE
  6
Continuous
 62
     7
100
AcDbLine
 10
44.937321445
 20
595.6939273679
 30
0.0
 11
44.937321445
 21
597.4843906406
 31
0.0
  0
LINE
  5
9F
330
69
100
AcDbEntity
  8
02636038_GEHÄUSE
  6
Continuous
 62
     7
100
AcDbLine
 10
23.1439248987
 20
593.5570066291
 30
0.0
 11
23.6692672085
 21
593.2714398214
 31
0.0
  0
LINE
  5
A0
330
69
100
AcDbEntity
  8
02636038_GEHÄUSE
  6
Continuous
 62
     7
100
AcDbLine
 10
44.2053756816
 20
593.2714398214
 30
0.0
 11
44.7307179914
 21
593.5570066291
 31
0.0
  0
ARC
  5
A1
330
69
100
AcDbEntity
  8
02636038_GEHÄUSE
  6
Continuous
 62
     7
100
AcDbCircle
 10
40.1825049399
 20
601.7372599323
 30
0.0
 40
9.355730531569325
100
AcDbArc
 50
298.6638162426
 51
300.5532180139
  0
LINE
  5
A2
330
69
100
AcDbEntity
  8
02636038_GEHÄUSE
  6
Continuous
 62
     7
100
AcDbLine
 10
22.137321445
 20
601.2264610021
 30
0.0
 11
22.137321445
 21
596.7648009245
 31
0.0
  0
LINE
  5
A3
330
69
100
AcDbEntity
  8
02636038_GEHÄUSE
  6
Continuous
 62
     7
100
AcDbLine
 10
45.737321445
 20
596.7648009245
 30
0.0
 11
45.737321445
 21
601.2208501335
 31
0.0
  0
ELLIPSE
  5
A5
330
69
100
AcDbEntity
  8
$DDT_AUDIT_GENERATED_(A4)
  6
Continuous
 62
     7
100
AcDbEllipse
 10
33.937321445
 20
593.4134091296
 30
0.0
 11
-9.0
 21
0.0
 31
0.0
210
0.0
220
0.0
230
1.0
 40
0.1684893796
 41
0.0
 42
6.283185307179586
  0
ELLIPSE
  5
A6
330
69
100
AcDbEntity
  8
$DDT_AUDIT_GENERATED_(A4)
  6
Continuous
 62
     7
100
AcDbEllipse
 10
33.937321445
 20
593.4134091296
 30
0.0
 11
-5.249999999999997
 21
0.0
 31
0.0
210
0.0
220
0.0
230
1.0
 40
0.1684893796
 41
0.0
 42
6.283185307179586
  0
ELLIPSE
  5
A7
330
69
100
AcDbEntity
  8
$DDT_AUDIT_GENERATED_(A4)
  6
Continuous
 62
     7
100
AcDbEllipse
 10
33.937321445
 20
593.4134091296
 30
0.0
 11
-6.25
 21
0.0
 31
0.0
210
0.0
220
0.0
230
1.0
 40
0.1684893796
 41
0.0
 42
6.283185307179586
  0
ELLIPSE
  5
A8
330
69
100
AcDbEntity
  8
$DDT_AUDIT_GENERATED_(A4)
  6
Continuous
 62
     7
100
AcDbEllipse
 10
33.937321445
 20
593.4134091296
 30
0.0
 11
-2.750000000000002
 21
0.0
 31
0.0
210
0.0
220
0.0
230
1.0
 40
0.1684893796
 41
0.0
 42
6.283185307179586
  0
ELLIPSE
  5
A9
330
69
100
AcDbEntity
  8
$DDT_AUDIT_GENERATED_(A4)
  6
Continuous
 62
     7
100
AcDbEllipse
 10
33.937321445
 20
593.4134091296
 30
0.0
 11
2.150000000000001
 21
0.0
 31
0.0
210
0.0
220
0.0
230
1.0
 40
0.1684893796
 41
0.0
 42
6.283185307179586
  0
ELLIPSE
  5
AA
330
69
100
AcDbEntity
  8
$DDT_AUDIT_GENERATED_(A4)
  6
Continuous
 62
     7
100
AcDbEllipse
 10
33.937321445
 20
593.6105498234
 30
0.0
 11
0.5196299438963558
 21
0.0
 31
0.0
210
0.0
220
0.0
230
1.0
 40
0.1684893796
 41
0.0
 42
6.283185307179586
  0
ELLIPSE
  5
AB
330
69
100
AcDbEntity
  8
$DDT_AUDIT_GENERATED_(A4)
  6
Continuous
 62
     7
100
AcDbEllipse
 10
33.937321445
 20
593.4134091296
 30
0.0
 11
-8.699999999999999
 21
1.387778780781446E-14
 31
0.0
210
0.0
220
0.0
230
1.0
 40
0.1684893796
 41
0.0
 42
6.283185307179586
  0
ARC
  5
AC
330
69
100
AcDbEntity
  8
$DDT_AUDIT_GENERATED_(A4)
  6
Continuous
 62
     7
100
AcDbCircle
 10
42.1954461854
 20
593.6105498234
 30
0.0
 40
0.2418745645457693
100
AcDbArc
 50
356.0055515153
 51
3.9944484847
  0
ARC
  5
AD
330
69
100
AcDbEntity
  8
$DDT_AUDIT_GENERATED_(A4)
  6
Continuous
 62
     7
100
AcDbCircle
 10
40.0091149123
 20
593.6105498234
 30
0.0
 40
0.1782047878052384
100
AcDbArc
 50
0.0
 51
5.4253152536
  0
ELLIPSE
  5
AE
330
69
100
AcDbEntity
  8
$DDT_AUDIT_GENERATED_(A4)
  6
Continuous
 62
     7
100
AcDbEllipse
 10
33.937321445
 20
593.6105498234
 30
0.0
 11
8.500000000031012
 21
1.942890293094024E-13
 31
0.0
210
0.0
220
0.0
230
1.0
 40
0.1684893796
 41
0.011764977288027
 42
0.1043067827328057
  0
ELLIPSE
  5
AF
330
69
100
AcDbEntity
  8
$DDT_AUDIT_GENERATED_(A4)
  6
Continuous
 62
     7
100
AcDbEllipse
 10
33.9373219007
 20
593.6105498028
 30
0.0
 11
8.499999544019845
 21
2.047566283192026E-8
 31
0.0
210
0.0
220
0.0
230
1.0
 40
0.1684893836
 41
-0.2735643727580532
 42
-0.250034417528874
  0
ELLIPSE
  5
B0
330
69
100
AcDbEntity
  8
$DDT_AUDIT_GENERATED_(A4)
  6
Continuous
 62
     7
100
AcDbEllipse
 10
33.937321445
 20
593.6105498234
 30
0.0
 11
8.500000000026077
 21
-5.967448757360216E-13
 31
0.0
210
0.0
220
0.0
230
1.0
 40
0.1684893796
 41
6.033150896668922
 42
6.271420329891531
  0
ELLIPSE
  5
B1
330
69
100
AcDbEntity
  8
$DDT_AUDIT_GENERATED_(A4)
  6
Continuous
 62
     7
100
AcDbEllipse
 10
33.9373218839
 20
593.6105497806
 30
0.0
 11
8.499999556537659
 21
3.813958870946266E-8
 31
0.0
210
0.0
220
0.0
230
1.0
 40
0.1684893821
 41
-0.5353637669014422
 42
-0.5118338116237044
  0
ELLIPSE
  5
B2
330
69
100
AcDbEntity
  8
$DDT_AUDIT_GENERATED_(A4)
  6
Continuous
 62
     7
100
AcDbEllipse
 10
33.937321445
 20
593.6105498234
 30
0.0
 11
8.499999999995399
 21
7.910339050454240E-13
 31
0.0
210
0.0
220
0.0
230
1.0
 40
0.1684893796
 41
-0.5118337983103602
 42
-0.2735643650873314
  0
ELLIPSE
  5
B3
330
69
100
AcDbEntity
  8
$DDT_AUDIT_GENERATED_(A4)
  6
Continuous
 62
     7
100
AcDbEllipse
 10
33.9373217553
 20
593.6105497712
 30
0.0
 11
8.499999670929428
 21
3.801775561029785E-8
 31
0.0
210
0.0
220
0.0
230
1.0
 40
0.1684893796
 41
-0.797163154652238
 42
-0.7736331994688497
  0
ELLIPSE
  5
B4
330
69
100
AcDbEntity
  8
$DDT_AUDIT_GENERATED_(A4)
  6
Continuous
 62
     7
100
AcDbEllipse
 10
33.937321445
 20
593.6105498234
 30
0.0
 11
8.500000000022045
 21
-2.484124017598788E-12
 31
0.0
210
0.0
220
0.0
230
1.0
 40
0.1684893796
 41
-0.7736331861083388
 42
-0.535363752885754
  0
ELLIPSE
  5
B5
330
69
100
AcDbEntity
  8
$DDT_AUDIT_GENERATED_(A4)
  6
Continuous
 62
     7
100
AcDbEllipse
 10
33.9373216809
 20
593.6105497546
 30
0.0
 11
8.49999970512107
 21
3.540447102157174E-8
 31
0.0
210
0.0
220
0.0
230
1.0
 40
0.1684893772
 41
-1.058962541533084
 42
-1.035432586303879
  0
ELLIPSE
  5
B6
330
69
100
AcDbEntity
  8
$DDT_AUDIT_GENERATED_(A4)
  6
Continuous
 62
     7
100
AcDbEllipse
 10
33.937321445
 20
593.6105498234
 30
0.0
 11
8.50000000001986
 21
-2.137179322403426E-12
 31
0.0
210
0.0
220
0.0
230
1.0
 40
0.1684893796
 41
-1.035432573907418
 42
-0.7971631406848516
  0
ELLIPSE
  5
B7
330
69
100
AcDbEntity
  8
$DDT_AUDIT_GENERATED_(A4)
  6
Continuous
 62
     7
100
AcDbEllipse
 10
33.9373215583
 20
593.6105497522
 30
0.0
 11
8.499999766620149
 21
1.898546597711714E-8
 31
0.0
210
0.0
220
0.0
230
1.0
 40
0.1684893758
 41
-1.320761923406285
 42
-1.297231968224638
  0
ELLIPSE
  5
B8
330
69
100
AcDbEntity
  8
$DDT_AUDIT_GENERATED_(A4)
  6
Continuous
 62
     7
100
AcDbEllipse
 10
33.937321445
 20
593.6105498234
 30
0.0
 11
8.500000000018929
 21
-2.192690473634684E-12
 31
0.0
210
0.0
220
0.0
230
1.0
 40
0.1684893796
 41
-1.297231961706711
 42
-1.058962528484209
  0
ARC
  5
B9
330
69
100
AcDbEntity
  8
$DDT_AUDIT_GENERATED_(A4)
  6
Continuous
 62
     7
100
AcDbCircle
 10
33.937321445
 20
642.6232814367
 30
0.0
 40
50.44489134293335
100
AcDbArc
 50
269.8864189901
 51
270.1135810099
  0
ELLIPSE
  5
BA
330
69
100
AcDbEntity
  8
$DDT_AUDIT_GENERATED_(A4)
  6
Continuous
 62
     7
100
AcDbEllipse
 10
33.937321445
 20
593.6105498234
 30
0.0
 11
8.500000000007935
 21
-3.053113317719180E-13
 31
0.0
210
0.0
220
0.0
230
1.0
 40
0.1684893796
 41
4.724153957672999
 42
4.962423390895747
  0
ELLIPSE
  5
BB
330
69
100
AcDbEntity
  8
$DDT_AUDIT_GENERATED_(A4)
  6
Continuous
 62
     7
100
AcDbEllipse
 10
33.9373213314
 20
593.6105497519
 30
0.0
 11
-8.499999765671483
 21
1.904160162879975E-8
 31
0.0
210
0.0
220
0.0
230
1.0
 40
0.1684893758
 41
1.297231968230625
 42
1.320761923414953
  0
ELLIPSE
  5
BC
330
69
100
AcDbEntity
  8
$DDT_AUDIT_GENERATED_(A4)
  6
Continuous
 62
     7
100
AcDbEllipse
 10
33.937321445
 20
593.6105498234
 30
0.0
 11
-8.500000000008329
 21
-4.163336342344337E-13
 31
0.0
210
0.0
220
0.0
230
1.0
 40
0.1684893796
 41
1.320761916283783
 42
1.559031349506534
  0
ELLIPSE
  5
BD
330
69
100
AcDbEntity
  8
$DDT_AUDIT_GENERATED_(A4)
  6
Continuous
 62
     7
100
AcDbEllipse
 10
33.9373212258
 20
593.6105497594
 30
0.0
 11
-8.499999725917091
 21
3.295230754929435E-8
 31
0.0
210
0.0
220
0.0
230
1.0
 40
0.1684893774
 41
1.035432585424112
 42
1.058962540607332
  0
ELLIPSE
  5
BE
330
69
100
AcDbEntity
  8
$DDT_AUDIT_GENERATED_(A4)
  6
Continuous
 62
     7
100
AcDbEllipse
 10
33.937321445
 20
593.6105498234
 30
0.0
 11
-8.500000000011026
 21
-1.318389841742373E-12
 31
0.0
210
0.0
220
0.0
230
1.0
 40
0.1684893796
 41
1.05896252848442
 42
1.297231961707119
  0
ELLIPSE
  5
BF
330
69
100
AcDbEntity
  8
$DDT_AUDIT_GENERATED_(A4)
  6
Continuous
 62
     7
100
AcDbEllipse
 10
33.9373211366
 20
593.6105497714
 30
0.0
 11
-8.499999672902195
 21
3.785739777217856E-8
 31
0.0
210
0.0
220
0.0
230
1.0
 40
0.1684893796
 41
0.7736331993836075
 42
0.7971631545635213
  0
ELLIPSE
  5
C0
330
69
100
AcDbEntity
  8
$DDT_AUDIT_GENERATED_(A4)
  6
Continuous
 62
     7
100
AcDbEllipse
 10
33.937321445
 20
593.6105498234
 30
0.0
 11
-8.499999999978822
 21
2.317590563905014E-12
 31
0.0
210
0.0
220
0.0
230
1.0
 40
0.1684893796
 41
0.7971631406862598
 42
1.035432573909656
  0
ELLIPSE
  5
C1
330
69
100
AcDbEntity
  8
$DDT_AUDIT_GENERATED_(A4)
  6
Continuous
 62
     7
100
AcDbEllipse
 10
33.937321006
 20
593.6105497807
 30
0.0
 11
-8.499999556437453
 21
3.806016612983854E-8
 31
0.0
210
0.0
220
0.0
230
1.0
 40
0.1684893821
 41
0.511833811628799
 42
0.5353637669065329
  0
ELLIPSE
  5
C2
330
69
100
AcDbEntity
  8
$DDT_AUDIT_GENERATED_(A4)
  6
Continuous
 62
     7
100
AcDbEllipse
 10
33.937321445
 20
593.6105498234
 30
0.0
 11
-8.500000000006999
 21
-9.159339953157541E-13
 31
0.0
210
0.0
220
0.0
230
1.0
 40
0.1684893796
 41
0.5353637528861862
 42
0.7736331861090265
  0
ELLIPSE
  5
C3
330
69
100
AcDbEntity
  8
$DDT_AUDIT_GENERATED_(A4)
  6
Continuous
 62
     7
100
AcDbEllipse
 10
33.937320989
 20
593.6105498028
 30
0.0
 11
-8.499999543736701
 21
2.048836100776441E-8
 31
0.0
210
0.0
220
0.0
230
1.0
 40
0.1684893836
 41
0.2500344175333102
 42
0.2735643727628822
  0
ELLIPSE
  5
C4
330
69
100
AcDbEntity
  8
$DDT_AUDIT_GENERATED_(A4)
  6
Continuous
 62
     7
100
AcDbEllipse
 10
33.937321445
 20
593.6105498234
 30
0.0
 11
-8.500000000025224
 21
-2.137179322403426E-12
 31
0.0
210
0.0
220
0.0
230
1.0
 40
0.1684893796
 41
0.2735643650868166
 42
0.5118337983093938
  0
ARC
  5
C5
330
69
100
AcDbEntity
  8
$DDT_AUDIT_GENERATED_(A4)
  6
Continuous
 62
     7
100
AcDbCircle
 10
25.6791967046
 20
593.6105498234
 30
0.0
 40
0.2418745645455919
100
AcDbArc
 50
176.0055515153
 51
183.9944484847
  0
ELLIPSE
  5
C6
330
69
100
AcDbEntity
  8
$DDT_AUDIT_GENERATED_(A4)
  6
Continuous
 62
     7
100
AcDbEllipse
 10
33.9373214451
 20
593.6105498234
 30
0.0
 11
-8.500000000031076
 21
-7.077671781985373E-13
 31
0.0
210
0.0
220
0.0
230
1.0
 40
0.1684893796
 41
0.0117649772880648
 42
0.2500344105106014
  0
ARC
  5
C7
330
69
100
AcDbEntity
  8
$DDT_AUDIT_GENERATED_(A4)
  6
Continuous
 62
     7
100
AcDbCircle
 10
27.8655279778
 20
593.6105498234
 30
0.0
 40
0.178204787805191
100
AcDbArc
 50
174.5746847464
 51
180.0
  0
ELLIPSE
  5
C8
330
69
100
AcDbEntity
  8
$DDT_AUDIT_GENERATED_(A4)
  6
Continuous
 62
     7
100
AcDbEllipse
 10
33.937321445
 20
593.6105498234
 30
0.0
 11
-8.500000000027242
 21
6.245004513516506E-13
 31
0.0
210
0.0
220
0.0
230
1.0
 40
0.1684893796
 41
6.178878524446758
 42
6.271420329891568
  0
ELLIPSE
  5
C9
330
69
100
AcDbEntity
  8
$DDT_AUDIT_GENERATED_(A4)
  6
Continuous
 62
     7
100
AcDbEllipse
 10
33.937321445
 20
593.6105498234
 30
0.0
 11
-2.74999999999768
 21
-1.762479051592436E-12
 31
0.0
210
0.0
220
0.0
230
1.0
 40
0.1684893796
 41
3.141592653589793
 42
3.205272045846684
  0
ELLIPSE
  5
CA
330
69
100
AcDbEntity
  8
$DDT_AUDIT_GENERATED_(A4)
  6
Continuous
 62
     7
100
AcDbEllipse
 10
33.937321445
 20
593.6105498234
 30
0.0
 11
2.749999999995533
 21
1.762479051592436E-12
 31
0.0
210
0.0
220
0.0
230
1.0
 40
0.1684893796
 41
3.077913261332564
 42
3.14159265358967
  0
LINE
  5
CB
330
69
100
AcDbEntity
  8
$DDT_AUDIT_GENERATED_(A4)
  6
Continuous
 62
     7
100
AcDbLine
 10
24.937321445
 20
594.5508846718
 30
0.0
 11
24.937321445
 21
593.4134091296
 31
0.0
  0
LINE
  5
CC
330
69
100
AcDbEntity
  8
$DDT_AUDIT_GENERATED_(A4)
  6
Continuous
 62
     7
100
AcDbLine
 10
42.937321445
 20
593.4134091296
 30
0.0
 11
42.937321445
 21
594.5508846718
 31
0.0
  0
LINE
  5
CD
330
69
100
AcDbEntity
  8
$DDT_AUDIT_GENERATED_(A4)
  6
Continuous
 62
     7
100
AcDbLine
 10
27.687321445
 20
593.6105498234
 30
0.0
 11
27.687321445
 21
593.4134091296
 31
0.0
  0
LINE
  5
CE
330
69
100
AcDbEntity
  8
$DDT_AUDIT_GENERATED_(A4)
  6
Continuous
 62
     7
100
AcDbLine
 10
40.187321445
 20
593.4134091296
 30
0.0
 11
40.187321445
 21
593.6105498234
 31
0.0
  0
LINE
  5
CF
330
69
100
AcDbEntity
  8
$DDT_AUDIT_GENERATED_(A4)
  6
Continuous
 62
     7
100
AcDbLine
 10
31.187321445
 20
593.6105498234
 30
0.0
 11
31.187321445
 21
593.4134091296
 31
0.0
  0
LINE
  5
D0
330
69
100
AcDbEntity
  8
$DDT_AUDIT_GENERATED_(A4)
  6
Continuous
 62
     7
100
AcDbLine
 10
36.687321445
 20
593.4134091296
 30
0.0
 11
36.687321445
 21
593.6105498234
 31
0.0
  0
LINE
  5
D1
330
69
100
AcDbEntity
  8
$DDT_AUDIT_GENERATED_(A4)
  6
Continuous
 62
     7
100
AcDbLine
 10
33.4176915011
 20
593.7649219415
 30
0.0
 11
33.4176915011
 21
593.6105498234
 31
0.0
  0
LINE
  5
D2
330
69
100
AcDbEntity
  8
$DDT_AUDIT_GENERATED_(A4)
  6
Continuous
 62
     7
100
AcDbLine
 10
34.4569513889
 20
593.6105498234
 30
0.0
 11
34.4569513889
 21
593.7649219415
 31
0.0
  0
SPLINE
  5
D4
330
69
100
AcDbEntity
  8
$DDT_AUDIT_GENERATED_(D3)
  6
Continuous
 62
     7
100
AcDbSpline
210
0.0
220
0.0
230
1.0
 70
     8
 71
     3
 72
    23
 73
    19
 74
     0
 42
0.0000000022318377
 43
0.0000000001
 40
0.0
 40
0.0
 40
0.0
 40
0.0
 40
0.0227272727272727
 40
0.0454545454545454
 40
0.0681818181818183
 40
0.090909090909091
 40
0.1136363636363637
 40
0.1363636363636364
 40
0.1590909090909093
 40
0.181818181818182
 40
0.2045454545454546
 40
0.2272727272727269
 40
0.2500000000000011
 40
0.2727272727272732
 40
0.3636363636363635
 40
0.454545454545456
 40
0.5454545454545463
 40
0.5828234757163918
 40
0.5828234757163918
 40
0.5828234757163918
 40
0.5828234757163918
 10
18.67272595243973
 20
663.3532710097713
 30
0.0
 10
18.64040177139772
 20
663.3558032348795
 30
0.0
 10
18.57568504492323
 20
663.3642664371788
 30
0.0
 10
18.47931906620093
 20
663.3867544945451
 30
0.0
 10
18.38457640262943
 20
663.4186328034987
 30
0.0
 10
18.29237125837012
 20
663.4594983617095
 30
0.0
 10
18.20361783758413
 20
663.5089481668475
 30
0.0
 10
18.11931958758073
 20
663.5667648146823
 30
0.0
 10
18.04047995566953
 20
663.6327309009832
 30
0.0
 10
17.96810238915942
 20
663.7066290215197
 30
0.0
 10
17.90319033535953
 20
663.788241772061
 30
0.0
 10
17.84623468115862
 20
663.8763404751345
 30
0.0
 10
17.79772631344532
 20
663.9696964532669
 30
0.0
 10
17.71858592477142
 20
664.164465604704
 30
0.0
 10
17.67059329374723
 20
664.4776187327079
 30
0.0
 10
17.74062481643463
 20
664.8806748153189
 30
0.0
 10
17.87922247995939
 20
665.1671047065532
 30
0.0
 10
17.98489630850121
 20
665.3156118742156
 30
0.0
 10
18.01753099813663
 20
665.3572337161127
 30
0.0
  0
SPLINE
  5
D5
330
69
100
AcDbEntity
  8
$DDT_AUDIT_GENERATED_(D3)
  6
Continuous
 62
     7
100
AcDbSpline
210
0.0
220
0.0
230
1.0
 70
     8
 71
     3
 72
     8
 73
     4
 74
     0
 42
0.0000000023560683
 43
0.0000000001
 40
0.5828234757163918
 40
0.5828234757163918
 40
0.5828234757163918
 40
0.5828234757163918
 40
0.5884428299991049
 40
0.5884428299991049
 40
0.5884428299991049
 40
0.5884428299991049
 10
18.01753099813663
 20
665.3572337161127
 30
0.0
 10
18.02243844080846
 20
665.3634926021413
 30
0.0
 10
18.02738773118937
 20
665.3697144015661
 30
0.0
 10
18.03237807487239
 20
665.3758990560999
 30
0.0
  0
SPLINE
  5
D6
330
69
100
AcDbEntity
  8
$DDT_AUDIT_GENERATED_(D3)
  6
Continuous
 62
     7
100
AcDbSpline
210
0.0
220
0.0
230
1.0
 70
     8
 71
     3
 72
    14
 73
    10
 74
     0
 42
0.0000000022102392
 43
0.0000000001
 40
0.0
 40
0.0
 40
0.0
 40
0.0
 40
0.0625776936706771
 40
0.1252893888607017
 40
0.1876219193980399
 40
0.2501404259063286
 40
0.3743892914823107
 40
0.4990216123886316
 40
0.5874509868357721
 40
0.5874509868357721
 40
0.5874509868357721
 40
0.5874509868357721
 10
49.20194568887852
 20
663.3532493517655
 30
0.0
 10
49.29114750857799
 20
663.3679303340516
 30
0.0
 10
49.46974216139822
 20
663.397323735927
 30
0.0
 10
49.71924700791597
 20
663.5277181047703
 30
0.0
 10
49.93194242660945
 20
663.7185285380327
 30
0.0
 10
50.13804371709222
 20
664.0452756284712
 30
0.0
 10
50.22240008208716
 20
664.535803901437
 30
0.0
 10
50.08528055036113
 20
665.0220261386293
 30
0.0
 10
49.92057305631846
 20
665.2787637901042
 30
0.0
 10
49.84212759627938
 20
665.376001531802
 30
0.0
  0
ARC
  5
D7
330
69
100
AcDbEntity
  8
$DDT_AUDIT_GENERATED_(D3)
  6
Continuous
 62
     7
100
AcDbCircle
 10
33.9374795838
 20
866.0024317093
 30
0.0
 40
203.2232640119041
100
AcDbArc
 50
265.6922723477
 51
274.3076463589
  0
SPLINE
  5
D8
330
69
100
AcDbEntity
  8
$DDT_AUDIT_GENERATED_(D3)
  6
Continuous
 62
     7
100
AcDbSpline
210
0.0
220
0.0
230
1.0
 70
     8
 71
     3
 72
    32
 73
    28
 74
     0
 42
0.0000000001556425
 43
0.0000000001
 40
0.6061148433785466
 40
0.6061148433785466
 40
0.6061148433785466
 40
0.6061148433785466
 40
0.625
 40
0.625
 40
0.640625
 40
0.640625
 40
0.65625
 40
0.65625
 40
0.6875
 40
0.6875
 40
0.75
 40
0.75
 40
0.8125
 40
0.8125
 40
0.84375
 40
0.84375
 40
0.859375
 40
0.859375
 40
0.875
 40
0.875
 40
0.90625
 40
0.90625
 40
0.9375
 40
0.9375
 40
0.96875
 40
0.96875
 40
1.0
 40
1.0
 40
1.0
 40
1.0
 10
15.46135127006609
 20
670.9827798089586
 30
0.0
 10
15.39988244057518
 20
671.00406066541
 30
0.0
 10
15.33526328037867
 20
671.0187382784896
 30
0.0
 10
15.21058655806995
 20
671.0323485137567
 30
0.0
 10
15.15505669079913
 20
671.0342002852972
 30
0.0
 10
15.03583955607382
 20
671.0270647983119
 30
0.0
 10
14.96713291721187
 20
671.017286271862
 30
0.0
 10
14.70979195937417
 20
670.9632229541498
 30
0.0
 10
14.50941304409622
 20
670.9005718814411
 30
0.0
 10
13.8280363130181
 20
670.6142742155365
 30
0.0
 10
13.28194096596616
 20
670.261179005364
 30
0.0
 10
12.0523030196025
 20
669.1868121129907
 30
0.0
 10
11.37541789221627
 20
668.4648525337119
 30
0.0
 10
10.40651084172515
 20
666.8547371131485
 30
0.0
 10
10.09218954110253
 20
666.2333360688198
 30
0.0
 10
9.638320775954671
 20
665.180877947127
 30
0.0
 10
9.491428147931504
 20
664.8147360106126
 30
0.0
 10
9.205984303069753
 20
664.0512331788207
 30
0.0
 10
9.048097955165597
 20
663.6015528173698
 30
0.0
 10
8.602325271427878
 20
662.2219950050377
 30
0.0
 10
8.336179296408813
 20
661.2452753415643
 30
0.0
 10
7.851615778849501
 20
659.1370250319363
 30
0.0
 10
7.635268355780822
 20
658.0121013954586
 30
0.0
 10
7.241355614803401
 20
655.6240131912159
 30
0.0
 10
7.062316199597216
 20
654.3509742623064
 30
0.0
 10
6.720013392779442
 20
651.7148941950604
 30
0.0
 10
6.556056472997711
 20
650.3591889829961
 30
0.0
 10
6.394309184045148
 20
648.9558717013535
 30
0.0
  0
SPLINE
  5
D9
330
69
100
AcDbEntity
  8
$DDT_AUDIT_GENERATED_(D3)
  6
Continuous
 62
     7
100
AcDbSpline
210
0.0
220
0.0
230
1.0
 70
     8
 71
     3
 72
    40
 73
    36
 74
     0
 42
0.0000000001777133
 43
0.0000000001
 40
0.5504877846508439
 40
0.5504877846508439
 40
0.5504877846508439
 40
0.5504877846508439
 40
0.5580146332075484
 40
0.5722524634014654
 40
0.5864902935953817
 40
0.6007281237892987
 40
0.6149659539832157
 40
0.6277897732071812
 40
0.6406135924311456
 40
0.6534374116551109
 40
0.6662612308790754
 40
0.6790850501030407
 40
0.691908869327006
 40
0.7047326885509705
 40
0.7175565077749357
 40
0.7303803269989003
 40
0.7432041462228656
 40
0.75602796544683
 40
0.7688517846707954
 40
0.7816756038947605
 40
0.794499423118725
 40
0.8073232423426904
 40
0.8201470615666548
 40
0.8329708807906159
 40
0.8484138443331979
 40
0.8638568078757799
 40
0.8792997714183534
 40
0.8947427349609354
 40
0.9101856985035173
 40
0.9256286620460908
 40
0.9410716255886727
 40
0.9565145891312548
 40
0.9719575526738283
 40
0.9874005162164102
 40
1.0
 40
1.0
 40
1.0
 40
1.0
 10
52.41338730367016
 20
670.9794264926041
 30
0.0
 10
52.43829251129294
 20
670.9886961547373
 30
0.0
 10
52.51194705432892
 20
671.0120650236918
 30
0.0
 10
52.64266714423577
 20
671.0331112498159
 30
0.0
 10
52.81139711660391
 20
671.034097417476
 30
0.0
 10
53.00372595343847
 20
671.0018356325047
 30
0.0
 10
53.20842784199176
 20
670.9488723301122
 30
0.0
 10
53.44309783495585
 20
670.8697385559396
 30
0.0
 10
53.69065565058091
 20
670.7697121992649
 30
0.0
 10
53.95633583375008
 20
670.6372680185655
 30
0.0
 10
54.23826679131537
 20
670.4698586935359
 30
0.0
 10
54.53771669548052
 20
670.2666404864162
 30
0.0
 10
54.85165504982275
 20
670.030211909745
 30
0.0
 10
55.18296168397486
 20
669.7564414117008
 30
0.0
 10
55.524746981692
 20
669.4474760640197
 30
0.0
 10
55.87764884740834
 20
669.0952967448023
 30
0.0
 10
56.2355197721719
 20
668.6942947109765
 30
0.0
 10
56.59624193200808
 20
668.2371314604711
 30
0.0
 10
56.95623858296644
 20
667.718604311375
 30
0.0
 10
57.30986486674112
 20
667.1362933689875
 30
0.0
 10
57.6601332261079
 20
666.4778946259914
 30
0.0
 10
57.99801886773623
 20
665.7619371100288
 30
0.0
 10
58.32927042161138
 20
664.9752349133558
 30
0.0
 10
58.6663458650481
 20
664.0867038321011
 30
0.0
 10
59.01430270891998
 20
663.0682123968994
 30
0.0
 10
59.35666685959563
 20
661.9223022454513
 30
0.0
 10
59.67450384626047
 20
660.7029290058357
 30
0.0
 10
59.96510717090596
 20
659.4187952250721
 30
0.0
 10
60.2318627727139
 20
658.0660076082074
 30
0.0
 10
60.47832279852401
 20
656.6375690799671
 30
0.0
 10
60.70550903788648
 20
655.1475969075253
 30
0.0
 10
60.92106729932894
 20
653.5851662851878
 30
0.0
 10
61.12664959621689
 20
651.9806535805435
 30
0.0
 10
61.31515595173688
 20
650.4353202866018
 30
0.0
 10
61.43454583247178
 20
649.4185734750245
 30
0.0
 10
61.4878909801477
 20
648.9558703076259
 30
0.0
  0
SPLINE
  5
DA
330
69
100
AcDbEntity
  8
$DDT_AUDIT_GENERATED_(D3)
  6
Continuous
 62
     7
100
AcDbSpline
210
0.0
220
0.0
230
1.0
 70
    11
 71
     3
 72
    22
 73
    18
 74
     0
 42
0.0000000004549732
 43
0.0000000001
 40
0.0
 40
0.0
 40
0.0
 40
0.0
 40
0.1250000000000001
 40
0.1250000000000001
 40
0.2500000000000001
 40
0.2500000000000001
 40
0.3750000000000001
 40
0.3750000000000001
 40
0.5
 40
0.5
 40
0.625
 40
0.625
 40
0.75
 40
0.75
 40
0.8750000000000001
 40
0.8750000000000001
 40
1.0
 40
1.0
 40
1.0
 40
1.0
 10
33.93732693501264
 20
656.3472085726007
 30
0.0
 10
34.87572866499004
 20
656.3471620684728
 30
0.0
 10
35.79544192173095
 20
656.0367450801227
 30
0.0
 10
37.08651179068025
 20
654.9022114602351
 30
0.0
 10
37.44101680110454
 20
654.0674678087075
 30
0.0
 10
37.40205439033871
 20
652.3398450389135
 30
0.0
 10
37.03534549408519
 20
651.4608831962437
 30
0.0
 10
35.77132582433212
 20
650.1204898053148
 30
0.0
 10
34.87174310564173
 20
649.6904914359914
 30
0.0
 10
33.01523046711317
 20
649.6869750384216
 30
0.0
 10
32.10711263457883
 20
650.1191502930799
 30
0.0
 10
30.84482080954684
 20
651.4532125876024
 30
0.0
 10
30.47425432708825
 20
652.3303911299406
 30
0.0
 10
30.43197500934987
 20
654.0672887327156
 30
0.0
 10
30.78421381595252
 20
654.8977503597046
 30
0.0
 10
32.07529985560215
 20
656.0356219876414
 30
0.0
 10
32.99892520503525
 20
656.3472550767286
 30
0.0
 10
33.93732693501264
 20
656.3472085726007
 30
0.0
  0
SPLINE
  5
DB
330
69
100
AcDbEntity
  8
$DDT_AUDIT_GENERATED_(D3)
  6
Continuous
 62
     7
100
AcDbSpline
210
0.0
220
0.0
230
1.0
 70
     8
 71
     3
 72
     8
 73
     4
 74
     0
 42
0.0000000003135503
 43
0.0000000001
 40
0.3542202467578714
 40
0.3542202467578714
 40
0.3542202467578714
 40
0.3542202467578714
 40
0.3547216931225396
 40
0.3547216931225396
 40
0.3547216931225396
 40
0.3547216931225396
 10
13.75853998993934
 20
672.6553285466309
 30
0.0
 10
13.7627357034757
 20
672.6586290584244
 30
0.0
 10
13.7669284066218
 20
672.6619213035419
 30
0.0
 10
13.77111813844747
 20
672.6652053441933
 30
0.0
  0
ARC
  5
DC
330
69
100
AcDbEntity
  8
$DDT_AUDIT_GENERATED_(D3)
  6
Continuous
 62
     7
100
AcDbCircle
 10
18.8028233892
 20
664.539097326
 30
0.0
 40
1.243218208397155
100
AcDbArc
 50
187.3967874323
 51
261.9535092412
  0
ARC
  5
DD
330
69
100
AcDbEntity
  8
$DDT_AUDIT_GENERATED_(D3)
  6
Continuous
 62
     7
100
AcDbCircle
 10
49.0781756859
 20
664.5395627391
 30
0.0
 40
1.244145851893744
100
AcDbArc
 50
277.8781309699
 51
352.2790668633
  0
ARC
  5
DE
330
69
100
AcDbEntity
  8
$DDT_AUDIT_GENERATED_(D3)
  6
Continuous
 62
     7
100
AcDbCircle
 10
33.9467406733
 20
918.1826554155
 30
0.0
 40
255.3344251357906
100
AcDbArc
 50
266.5606653476
 51
267.8153290596
  0
ARC
  5
DF
330
69
100
AcDbEntity
  8
$DDT_AUDIT_GENERATED_(D3)
  6
Continuous
 62
     7
100
AcDbCircle
 10
33.9467406733
 20
918.1826554155
 30
0.0
 40
255.3344251357906
100
AcDbArc
 50
272.1815012991
 51
273.4357439419
  0
SPLINE
  5
E0
330
69
100
AcDbEntity
  8
$DDT_AUDIT_GENERATED_(D3)
  6
Continuous
 62
     7
100
AcDbSpline
210
0.0
220
0.0
230
1.0
 70
     8
 71
     3
 72
    68
 73
    64
 74
     0
 42
0.0000000003020543
 43
0.0000000001
 40
0.0
 40
0.0
 40
0.0
 40
0.0
 40
0.0167080857415323
 40
0.0423215992555275
 40
0.064868290233954
 40
0.0844268338047581
 40
0.101091969292415
 40
0.1149591604587375
 40
0.1261980980178296
 40
0.1349847171012732
 40
0.1430791348861063
 40
0.1510836285112037
 40
0.1680373030910703
 40
0.187564831138323
 40
0.2096900671294395
 40
0.2342000599651784
 40
0.2603401385164537
 40
0.2831205257348305
 40
0.3067654668777402
 40
0.3313822872896468
 40
0.3569068906398982
 40
0.3833517818092602
 40
0.4107804786594624
 40
0.4319599710446594
 40
0.4526737756438854
 40
0.4716568590942807
 40
0.4888499516902368
 40
0.5042632963356962
 40
0.5178808000719081
 40
0.529749339918029
 40
0.5398458974108163
 40
0.5481563650098998
 40
0.55468310329771
 40
0.559426862900387
 40
0.5623871520964593
 40
0.5637530400210716
 40
0.5660253231388636
 40
0.5693147341587305
 40
0.5761566808383585
 40
0.5852884815847375
 40
0.5967076382848193
 40
0.6104143082807435
 40
0.6264152815549531
 40
0.644692196528702
 40
0.6708822767553774
 40
0.6963967015234638
 40
0.7213659168802794
 40
0.7455818054707406
 40
0.7692793722824725
 40
0.7920739582724413
 40
0.8128298643701938
 40
0.8313047144929645
 40
0.8475902578710726
 40
0.8565751502409252
 40
0.8651756886252101
 40
0.8740871473316651
 40
0.885395622099542
 40
0.8993192414581628
 40
0.9159919961635361
 40
0.9355241582580642
 40
0.9579588759271682
 40
0.9834447277196545
 40
1.0
 40
1.0
 40
1.0
 40
1.0
 10
49.84181171605384
 20
665.3754302226556
 30
0.0
 10
49.80136756350679
 20
665.4276806907453
 30
0.0
 10
49.71427270850423
 20
665.5399065491623
 30
0.0
 10
49.55894580793993
 20
665.7324108205387
 30
0.0
 10
49.3927136221448
 20
665.9305837929832
 30
0.0
 10
49.24134184493364
 20
666.107353986112
 30
0.0
 10
49.10179122403053
 20
666.2606998613358
 30
0.0
 10
48.95900709309018
 20
666.392590969057
 30
0.0
 10
48.80517078960806
 20
666.5012459224564
 30
0.0
 10
48.63411020915176
 20
666.5993552899972
 30
0.0
 10
48.47603067231712
 20
666.6771647940645
 30
0.0
 10
48.2664430792448
 20
666.7677842448896
 30
0.0
 10
47.9783852904018
 20
666.8711234448897
 30
0.0
 10
47.55675011417092
 20
666.9909613960018
 30
0.0
 10
47.01659361759817
 20
667.1120636961303
 30
0.0
 10
46.33793705294103
 20
667.2330279498419
 30
0.0
 10
45.5472465777779
 20
667.34592992223
 30
0.0
 10
44.6716617807242
 20
667.4482629138187
 30
0.0
 10
43.7316392788233
 20
667.5395221389508
 30
0.0
 10
42.67315604778238
 20
667.6241337225233
 30
0.0
 10
41.49447514552595
 20
667.7003248415092
 30
0.0
 10
40.19693384303859
 20
667.7659974283014
 30
0.0
 10
38.90733951396144
 20
667.814240120951
 30
0.0
 10
37.67491860824236
 20
667.8465207835677
 30
0.0
 10
36.56662165375474
 20
667.8652760308711
 30
0.0
 10
35.51359272036567
 20
667.8746602831095
 30
0.0
 10
34.54929326543346
 20
667.8761473799193
 30
0.0
 10
33.68136101734791
 20
667.8718495342519
 30
0.0
 10
32.91293012513636
 20
667.8635637467406
 30
0.0
 10
32.24582206075499
 20
667.8530335627953
 30
0.0
 10
31.68041166316902
 20
667.8416608579158
 30
0.0
 10
31.21704181729781
 20
667.8307011877049
 30
0.0
 10
30.85492949686181
 20
667.8211146530059
 30
0.0
 10
30.59312645782821
 20
667.8138746961315
 30
0.0
 10
30.42676306746769
 20
667.8090027037013
 30
0.0
 10
30.30681546342415
 20
667.806266473395
 30
0.0
 10
30.18204389726402
 20
667.8041639257924
 30
0.0
 10
29.95960855398679
 20
667.8003342437365
 30
0.0
 10
29.61696488650966
 20
667.7942165383403
 30
0.0
 10
29.13540671467222
 20
667.7841491749223
 30
0.0
 10
28.54288676106917
 20
667.7691894136848
 30
0.0
 10
27.84701290302573
 20
667.7475663943233
 30
0.0
 10
27.05844494177976
 20
667.7172294219431
 30
0.0
 10
26.10280525246989
 20
667.6719715311036
 30
0.0
 10
25.05687775744762
 20
667.6083403680171
 30
0.0
 10
23.98810464817197
 20
667.5238680399741
 30
0.0
 10
23.02936267934773
 20
667.4294502012685
 30
0.0
 10
22.1785718549726
 20
667.3266209326739
 30
0.0
 10
21.4386009664289
 20
667.2170484651888
 30
0.0
 10
20.81878769672835
 20
667.1039522281872
 30
0.0
 10
20.31352324196654
 20
666.989556547003
 30
0.0
 10
19.91114965808109
 20
666.8755753786766
 30
0.0
 10
19.62250483375077
 20
666.7733282824142
 30
0.0
 10
19.40786347832831
 20
666.6815921118749
 30
0.0
 10
19.24157316267917
 20
666.5999884390284
 30
0.0
 10
19.06714388079871
 20
666.4999008987132
 30
0.0
 10
18.91326778514594
 20
666.3906525612488
 30
0.0
 10
18.77100604372136
 20
666.2585877967086
 30
0.0
 10
18.63210125725991
 20
666.1050613974459
 30
0.0
 10
18.4805358712122
 20
665.9286356485911
 30
0.0
 10
18.31429264222834
 20
665.730713760058
 30
0.0
 10
18.1596214844213
 20
665.5390008184472
 30
0.0
 10
18.07287871630932
 20
665.4272218043639
 30
0.0
 10
18.03270797702458
 20
665.3753164615096
 30
0.0
  0
ARC
  5
E1
330
69
100
AcDbEntity
  8
$DDT_AUDIT_GENERATED_(D3)
  6
Continuous
 62
     7
100
AcDbCircle
 10
-2.3696960436
 20
661.6293997804
 30
0.0
 40
20.12819086834035
100
AcDbArc
 50
7.8368421429
 51
27.6429364986
  0
SPLINE
  5
E2
330
69
100
AcDbEntity
  8
$DDT_AUDIT_GENERATED_(D3)
  6
Continuous
 62
     7
100
AcDbSpline
210
0.0
220
0.0
230
1.0
 70
     8
 71
     3
 72
    36
 73
    32
 74
     0
 42
0.0000000003960293
 43
0.0000000001
 40
0.0031934897737428
 40
0.0031934897737428
 40
0.0031934897737428
 40
0.0031934897737428
 40
0.0419729808505304
 40
0.0814654161293538
 40
0.1171107930058223
 40
0.1488689650560538
 40
0.1756247418680253
 40
0.1986078196177465
 40
0.2177681852088793
 40
0.23308845724716
 40
0.2470170287863511
 40
0.2617625609012155
 40
0.2773252968434819
 40
0.3000774224076481
 40
0.3244163766409984
 40
0.3503217315394338
 40
0.3783907276583521
 40
0.4104054121328575
 40
0.4461910068871451
 40
0.4857323988712594
 40
0.528843187266784
 40
0.5756905791888377
 40
0.6262896470114846
 40
0.6667011517855306
 40
0.709218226742109
 40
0.753853750623062
 40
0.8006298031556562
 40
0.8494991678363013
 40
0.9004252300996672
 40
0.9534550179727167
 40
1.0
 40
1.0
 40
1.0
 40
1.0
 10
13.7194384880583
 20
672.6232433196526
 30
0.0
 10
13.57451364504612
 20
672.5064753509531
 30
0.0
 10
13.32180428053233
 20
672.3002298740266
 30
0.0
 10
12.9199686262583
 20
671.9306125555645
 30
0.0
 10
12.55763729335892
 20
671.5648363507592
 30
0.0
 10
12.24123657442135
 20
671.2171665293314
 30
0.0
 10
11.9763302587827
 20
670.9042341726664
 30
0.0
 10
11.74895468456873
 20
670.6173773004034
 30
0.0
 10
11.55698390957657
 20
670.3604583927906
 30
0.0
 10
11.39079533560306
 20
670.1260330679224
 30
0.0
 10
11.23973030980519
 20
669.9024884916254
 30
0.0
 10
11.09268624643873
 20
669.6749863782253
 30
0.0
 10
10.91980348956582
 20
669.3947070855038
 30
0.0
 10
10.72075600184628
 20
669.0522979907007
 30
0.0
 10
10.494782098754
 20
668.6340353661593
 30
0.0
 10
10.25846132693012
 20
668.1604253347139
 30
0.0
 10
10.00524149015915
 20
667.6080333937819
 30
0.0
 10
9.729049048396798
 20
666.9478055606542
 30
0.0
 10
9.428949274195169
 20
666.1555978555666
 30
0.0
 10
9.110753043119056
 20
665.2210215423157
 30
0.0
 10
8.78076408952956
 20
664.1359909680307
 30
0.0
 10
8.447548222376664
 20
662.8922783436717
 30
0.0
 10
8.14785647501445
 20
661.608819684987
 30
0.0
 10
7.881090044703509
 20
660.3137225281033
 30
0.0
 10
7.645737713106098
 20
659.0336753570339
 30
0.0
 10
7.418022848096027
 20
657.6434145428318
 30
0.0
 10
7.196939425681864
 20
656.1349582587186
 30
0.0
 10
6.981314073376776
 20
654.5000183752541
 30
0.0
 10
6.768961503047701
 20
652.7475803440748
 30
0.0
 10
6.560483807851115
 20
650.9190797772668
 30
0.0
 10
6.437944230104666
 20
649.791878321879
 30
0.0
 10
6.370272483636849
 20
649.1666978873685
 30
0.0
  0
LINE
  5
E3
330
69
100
AcDbEntity
  8
$DDT_AUDIT_GENERATED_(D3)
  6
Continuous
 62
     7
100
AcDbLine
 10
13.7711108734
 20
672.6651950113
 30
0.0
 11
13.7556575918
 21
672.6524022361
 31
0.0
  0
ARC
  5
E4
330
69
100
AcDbEntity
  8
$DDT_AUDIT_GENERATED_(D3)
  6
Continuous
 62
     7
100
AcDbCircle
 10
33.9411096764
 20
648.2715060233
 30
0.0
 40
31.65242259033567
100
AcDbArc
 50
50.4198191559
 51
129.5799844656
  0
LINE
  5
E5
330
69
100
AcDbEntity
  8
$DDT_AUDIT_GENERATED_(D3)
  6
Continuous
 62
     7
100
AcDbLine
 10
54.137564322
 20
672.6434795848
 30
0.0
 11
54.1111532975
 21
672.6651332208
 31
0.0
  0
SPLINE
  5
E6
330
69
100
AcDbEntity
  8
$DDT_AUDIT_GENERATED_(D3)
  6
Continuous
 62
     7
100
AcDbSpline
210
0.0
220
0.0
230
1.0
 70
     8
 71
     3
 72
    35
 73
    31
 74
     0
 42
0.0000000003962477
 43
0.0000000001
 40
0.0
 40
0.0
 40
0.0
 40
0.0
 40
0.0419723855098094
 40
0.0894019207074271
 40
0.1336965224017937
 40
0.1748850328423927
 40
0.2129734751924311
 40
0.2473267949463872
 40
0.2786407643300071
 40
0.3069252928133773
 40
0.3321953595978338
 40
0.384973524991512
 40
0.4386569251340715
 40
0.4932796896603587
 40
0.54830625352383
 40
0.5908684126699429
 40
0.6319433972605962
 40
0.6714966226646478
 40
0.7089259509085744
 40
0.7440453542570789
 40
0.763060058944691
 40
0.7834633515188182
 40
0.8054960056719584
 40
0.8291423211732102
 40
0.8547556406252366
 40
0.8780445200159102
 40
0.9044784803429513
 40
0.9340023078466869
 40
0.9666697611277926
 40
0.9967865519741012
 40
0.9967865519741012
 40
0.9967865519741012
 40
0.9967865519741012
 10
61.51186070080875
 20
649.1676974784561
 30
0.0
 10
61.45087518075069
 20
649.7312580869223
 30
0.0
 10
61.34098972561301
 20
650.7429746135923
 30
0.0
 10
61.15653922336401
 20
652.3720253807193
 30
0.0
 10
60.97339027658384
 20
653.9092286467597
 30
0.0
 10
60.79604522422079
 20
655.3065934455058
 30
0.0
 10
60.62447410808039
 20
656.5545291134606
 30
0.0
 10
60.45898122857348
 20
657.6639311131124
 30
0.0
 10
60.30068833252039
 20
658.6431338010373
 30
0.0
 10
60.14967641599848
 20
659.5077801707595
 30
0.0
 10
59.9505449994467
 20
660.5684921241625
 30
0.0
 10
59.68477170483967
 20
661.8420906549771
 30
0.0
 10
59.32583976730955
 20
663.3258681243223
 30
0.0
 10
58.92506334753612
 20
664.7463245703258
 30
0.0
 10
58.5199246387127
 20
665.9795595706814
 30
0.0
 10
58.12859623496127
 20
667.0173786501831
 30
0.0
 10
57.76595301975961
 20
667.8667956465332
 30
0.0
 10
57.40485883040853
 20
668.6114577313198
 30
0.0
 10
57.05345285170224
 20
669.2506071132518
 30
0.0
 10
56.76126107945796
 20
669.7249781450834
 30
0.0
 10
56.52121476501412
 20
670.084320932222
 30
0.0
 10
56.32224918220369
 20
670.3654142395685
 30
0.0
 10
56.10729651665017
 20
670.6513058683057
 30
0.0
 10
55.87474046098283
 20
670.9418823173557
 30
0.0
 10
55.63950423209711
 20
671.2175126805741
 30
0.0
 10
55.38807310246121
 20
671.4950426772652
 30
0.0
 10
55.11889194398126
 20
671.7743231543884
 30
0.0
 10
54.81579269803846
 20
672.0671381250305
 30
0.0
 10
54.48885546929404
 20
672.3597800434009
 30
0.0
 10
54.28577675201097
 20
672.5245622539563
 30
0.0
 10
54.17389471612671
 20
672.6143493149931
 30
0.0
  0
ARC
  5
E7
330
69
100
AcDbEntity
  8
$DDT_AUDIT_GENERATED_(D3)
  6
Continuous
 62
     7
100
AcDbCircle
 10
70.3879915097
 20
661.5852547125
 30
0.0
 40
20.26940441363114
100
AcDbArc
 50
152.4259612671
 51
172.1114589538
  0
SPLINE
  5
E8
330
69
100
AcDbEntity
  8
$DDT_AUDIT_GENERATED_(D3)
  6
Continuous
 62
     7
100
AcDbSpline
210
0.0
220
0.0
230
1.0
 70
     8
 71
     3
 72
    87
 73
    83
 74
     0
 42
0.0000000001678456
 43
0.0000000001
 40
0.0
 40
0.0
 40
0.0
 40
0.0
 40
0.0082350668507372
 40
0.0167921944309196
 40
0.0298628077858859
 40
0.0429399377293545
 40
0.0560668187401969
 40
0.0692607879708756
 40
0.0825209174369651
 40
0.0958400133271908
 40
0.1092140642382415
 40
0.1226231896056961
 40
0.1356377838228213
 40
0.148664862906945
 40
0.1616820846301488
 40
0.1746847052780909
 40
0.1876690268194169
 40
0.2006318536808719
 40
0.2135702320186623
 40
0.226481369101342
 40
0.2393626564949527
 40
0.252211748972269
 40
0.2650266695009579
 40
0.2778059221653962
 40
0.2905486019527611
 40
0.3032544947238207
 40
0.3159241634817013
 40
0.3285590188950091
 40
0.3411588929740262
 40
0.3537094858350393
 40
0.3663587749353182
 40
0.3789496391147972
 40
0.3914904304862604
 40
0.4039901172131504
 40
0.4164581653780022
 40
0.4289045316596773
 40
0.4413396522778297
 40
0.4537707722939416
 40
0.4661440732672523
 40
0.4784615101798202
 40
0.4907473273524524
 40
0.503016323730102
 40
0.5152833592422059
 40
0.5275615230022966
 40
0.5398625519627478
 40
0.5522013326315494
 40
0.5645917826906747
 40
0.5769880372467514
 40
0.5893413264300345
 40
0.6017399728994883
 40
0.6141845283462289
 40
0.6266747490547323
 40
0.6392093648169617
 40
0.6517861451538702
 40
0.6644019843918215
 40
0.6770530064910847
 40
0.6897346889740785
 40
0.7024420045720152
 40
0.7151695784706082
 40
0.7279118583297334
 40
0.7406632936076942
 40
0.7534179292071924
 40
0.7661697337218759
 40
0.7789144670479248
 40
0.7916465666227458
 40
0.8043449874181995
 40
0.8171656056324159
 40
0.8300446647571538
 40
0.8429857591879522
 40
0.8559912778543375
 40
0.8690623978441641
 40
0.8821986787198534
 40
0.8953973672903165
 40
0.9086389436288466
 40
0.9218875933547369
 40
0.9352227873409529
 40
0.9485448805452366
 40
0.9604724946635506
 40
0.97176302603157
 40
0.9836493020415057
 40
0.9967279588242797
 40
1.0
 40
1.0
 40
1.0
 40
1.0
 10
6.39796648019423
 20
648.8731969456848
 30
0.0
 10
6.413482884311195
 20
648.7958800294557
 30
0.0
 10
6.44093752371894
 20
648.6630163282463
 30
0.0
 10
6.520970129247259
 20
648.4004681901407
 30
0.0
 10
6.641139429604953
 20
648.1071311755809
 30
0.0
 10
6.819877338758329
 20
647.7769534162417
 30
0.0
 10
7.039946417878834
 20
647.4523092537765
 30
0.0
 10
7.302006951230615
 20
647.1319152619069
 30
0.0
 10
7.605985437716158
 20
646.8161246602828
 30
0.0
 10
7.951853738887324
 20
646.5049398527727
 30
0.0
 10
8.338931609941719
 20
646.1987656348709
 30
0.0
 10
8.762944560020983
 20
645.9004953844684
 30
0.0
 10
9.223406089443023
 20
645.6110195148814
 30
0.0
 10
9.717301696739941
 20
645.3305938810253
 30
0.0
 10
10.24858183455016
 20
645.0565859861644
 30
0.0
 10
10.81604339920915
 20
644.7894166413046
 30
0.0
 10
11.41869444486416
 20
644.5293963701654
 30
0.0
 10
12.05547759931438
 20
644.2768445404358
 30
0.0
 10
12.72528113425481
 20
644.0320871514202
 30
0.0
 10
13.42693329099145
 20
643.7954532231925
 30
0.0
 10
14.15920721330889
 20
643.5672698689934
 30
0.0
 10
14.92082761255514
 20
643.3478573757573
 30
0.0
 10
15.71048032583025
 20
643.1375247712879
 30
0.0
 10
16.52682287188759
 20
642.9365658808368
 30
0.0
 10
17.3684974161079
 20
642.7452570145597
 30
0.0
 10
18.23413832375365
 20
642.5638524443206
 30
0.0
 10
19.12240069060917
 20
642.3925920188215
 30
0.0
 10
20.03185020777231
 20
642.2316779739145
 30
0.0
 10
20.96082522005358
 20
642.0814545949743
 30
0.0
 10
21.91041973858396
 20
641.9412733705582
 30
0.0
 10
22.87884223615448
 20
641.8114970277468
 30
0.0
 10
23.86479039995155
 20
641.6924607284839
 30
0.0
 10
24.86307650545481
 20
641.5847861913451
 30
0.0
 10
25.87277994494459
 20
641.4885279558389
 30
0.0
 10
26.89301828874305
 20
641.4037336601077
 30
0.0
 10
27.92294629435552
 20
641.3304473089563
 30
0.0
 10
28.96165586052518
 20
641.2687173226451
 30
0.0
 10
30.00644138611521
 20
641.2186696385488
 30
0.0
 10
31.0543179469743
 20
641.180355469156
 30
0.0
 10
32.10280728784539
 20
641.1538406904307
 30
0.0
 10
33.15134851307962
 20
641.1390897523726
 30
0.0
 10
34.19975569468237
 20
641.1360800217201
 30
0.0
 10
35.24752660509151
 20
641.1448032656989
 30
0.0
 10
36.29407178992278
 20
641.1652572058193
 30
0.0
 10
37.33880586881672
 20
641.1974390347965
 30
0.0
 10
38.38116185210488
 20
641.2413604518887
 30
0.0
 10
39.41899271876529
 20
641.296913740977
 30
0.0
 10
40.44834152737837
 20
641.3639530866146
 30
0.0
 10
41.467408697536
 20
641.4423241359052
 30
0.0
 10
42.47575526573423
 20
641.531921388187
 30
0.0
 10
43.47417504428604
 20
641.6328458341234
 30
0.0
 10
44.46102673817033
 20
641.7449887337237
 30
0.0
 10
45.43461444135205
 20
641.8682182130467
 30
0.0
 10
46.39319262033813
 20
642.0023755737259
 30
0.0
 10
47.33497842014138
 20
642.1472746484175
 30
0.0
 10
48.25816600107476
 20
642.3027012995417
 30
0.0
 10
49.16094196202054
 20
642.4684137676784
 30
0.0
 10
50.04150170368649
 20
642.644143757683
 30
0.0
 10
50.89806610691463
 20
642.8295983893557
 30
0.0
 10
51.72889862676821
 20
643.0244629163366
 30
0.0
 10
52.53230778308994
 20
643.2284015294698
 30
0.0
 10
53.30666062343363
 20
643.4410576719882
 30
0.0
 10
54.05040696816133
 20
643.6620693130892
 30
0.0
 10
54.76213095808765
 20
643.8910528530038
 30
0.0
 10
55.44002939558062
 20
644.1275640809786
 30
0.0
 10
56.08591939225576
 20
644.3719145072566
 30
0.0
 10
56.70020448381739
 20
644.6243001485743
 30
0.0
 10
57.28316910211528
 20
644.8851343257016
 30
0.0
 10
57.83287486762159
 20
645.1538182441178
 30
0.0
 10
58.34843842462449
 20
645.4302040060733
 30
0.0
 10
58.82896640246294
 20
645.7141549005452
 30
0.0
 10
59.27352919567294
 20
646.0055286982024
 30
0.0
 10
59.68107344671958
 20
646.3041363900588
 30
0.0
 10
60.0501408937452
 20
646.6093792438579
 30
0.0
 10
60.38090775531464
 20
646.921519649805
 30
0.0
 10
60.67213162788526
 20
647.240471483963
 30
0.0
 10
60.91325046723046
 20
647.5543099206935
 30
0.0
 10
61.10794186057888
 20
647.8581829301957
 30
0.0
 10
61.25716226867348
 20
648.1592723041844
 30
0.0
 10
61.37099068440303
 20
648.463590161655
 30
0.0
 10
61.44219992741146
 20
648.708360428851
 30
0.0
 10
61.46817877912325
 20
648.8337856908615
 30
0.0
 10
61.47418344187175
 20
648.8631195182626
 30
0.0
  0
ARC
  5
E9
330
69
100
AcDbEntity
  8
$DDT_AUDIT_GENERATED_(D3)
  6
Continuous
 62
     7
100
AcDbCircle
 10
7.1926186917
 20
649.0893744131
 30
0.0
 40
0.8238307918456286
100
AcDbArc
 50
174.6313043216
 51
195.118172458
  0
SPLINE
  5
EA
330
69
100
AcDbEntity
  8
$DDT_AUDIT_GENERATED_(D3)
  6
Continuous
 62
     7
100
AcDbSpline
210
0.0
220
0.0
230
1.0
 70
     8
 71
     3
 72
    11
 73
     7
 74
     0
 42
0.0000000339253189
 43
0.0000000001
 40
0.0
 40
0.0
 40
0.0
 40
0.0
 40
0.1131204459476366
 40
0.4908422225128389
 40
0.820432435205777
 40
1.0
 40
1.0
 40
1.0
 40
1.0
 10
61.48496754965562
 20
648.8750886206673
 30
0.0
 10
61.48656682692799
 20
648.8837777275835
 30
0.0
 10
61.49259863033728
 20
648.9166214184996
 30
0.0
 10
61.50300755877679
 20
648.9755848435417
 30
0.0
 10
61.51957384970149
 20
649.0721815833933
 30
0.0
 10
61.51188253340639
 20
649.1384778727725
 30
0.0
 10
61.50875574523066
 20
649.1662161821037
 30
0.0
  0
ELLIPSE
  5
EC
330
69
100
AcDbEntity
  8
$DDT_AUDIT_GENERATED_(EB)
  6
Continuous
 62
     7
100
AcDbEllipse
 10
33.937321445
 20
561.0514398024
 30
0.0
 11
26.00000000000001
 21
6.938893903907228E-15
 31
0.0
210
0.0
220
0.0
230
1.0
 40
0.2756373558
 41
0.0
 42
0.036211334140806
  0
ELLIPSE
  5
ED
330
69
100
AcDbEntity
  8
$DDT_AUDIT_GENERATED_(EB)
  6
Continuous
 62
     7
100
AcDbEllipse
 10
33.937321445
 20
561.0514398024
 30
0.0
 11
26.00000000000001
 21
6.938893903907228E-15
 31
0.0
210
0.0
220
0.0
230
1.0
 40
0.2756373558
 41
3.117974052833846
 42
3.170201083540849
  0
ELLIPSE
  5
EE
330
69
100
AcDbEntity
  8
$DDT_AUDIT_GENERATED_(EB)
  6
Continuous
 62
     7
100
AcDbEllipse
 10
33.937321445
 20
561.0514398024
 30
0.0
 11
26.00000000000001
 21
6.938893903907228E-15
 31
0.0
210
0.0
220
0.0
230
1.0
 40
0.2756373558
 41
3.19288033422558
 42
6.231897958224221
  0
ELLIPSE
  5
EF
330
69
100
AcDbEntity
  8
$DDT_AUDIT_GENERATED_(EB)
  6
Continuous
 62
     7
100
AcDbEllipse
 10
33.937321445
 20
561.0514398024
 30
0.0
 11
26.00000000000001
 21
6.938893903907228E-15
 31
0.0
210
0.0
220
0.0
230
1.0
 40
0.2756373558
 41
6.243689188684831
 42
6.283185307179585
  0
LINE
  5
F0
330
69
100
AcDbEntity
  8
$DDT_AUDIT_GENERATED_(EB)
  6
Continuous
 62
     7
100
AcDbLine
 10
59.937321445
 20
507.9365594853
 30
0.0
 11
7.937321445
 21
507.9365594853
 31
0.0
  0
LINE
  5
F1
330
69
100
AcDbEntity
  8
$DDT_AUDIT_GENERATED_(EB)
  6
Continuous
 62
     7
100
AcDbLine
 10
7.937321445
 20
561.0514398024
 30
0.0
 11
7.937321445
 21
507.9365594853
 31
0.0
  0
LINE
  5
F2
330
69
100
AcDbEntity
  8
$DDT_AUDIT_GENERATED_(EB)
  6
Continuous
 62
     7
100
AcDbLine
 10
59.937321445
 20
507.9365594853
 30
0.0
 11
59.937321445
 21
561.0514398024
 31
0.0
  0
ENDBLK
  5
F4
330
69
100
AcDbEntity
  8
0
100
AcDbBlockEnd
  0
BLOCK
  5
14A
330
F5
100
AcDbEntity
  8
0
100
AcDbBlockBegin
  2
SE1
 70
     0
 10
0.0
 20
0.0
 30
0.0
  3
SE1
  1

  0
LINE
  5
F7
330
F5
100
AcDbEntity
  8
$DDT_AUDIT_GENERATED_(6B)
  6
Continuous
 62
     7
100
AcDbLine
 10
162.8762778623
 20
568.2196571348
 30
0.0
 11
184.8542731899
 21
561.9175683864
 31
0.0
  0
LINE
  5
F8
330
F5
100
AcDbEntity
  8
$DDT_AUDIT_GENERATED_(6B)
  6
Continuous
 62
     7
100
AcDbLine
 10
320.0945856777
 20
610.7511660043
 30
0.0
 11
318.3183832782
 21
604.5568121012
 31
0.0
  0
LINE
  5
F9
330
F5
100
AcDbEntity
  8
$DDT_AUDIT_GENERATED_(6B)
  6
Continuous
 62
     7
100
AcDbLine
 10
185.3167767259
 20
561.7849476315
 30
0.0
 11
184.8542731899
 21
561.9175683864
 31
0.0
  0
SPLINE
  5
FA
330
F5
100
AcDbEntity
  8
$DDT_AUDIT_GENERATED_(6B)
  6
Continuous
 62
     7
100
AcDbSpline
210
0.0
220
0.0
230
1.0
 70
     8
 71
     3
 72
    21
 73
    17
 74
     0
 42
0.000000003058417
 43
0.0000000001
 40
0.0
 40
0.0
 40
0.0
 40
0.0
 40
0.0625
 40
0.125
 40
0.1875
 40
0.25
 40
0.3125
 40
0.375
 40
0.5
 40
0.625
 40
0.6875
 40
0.75
 40
0.8125
 40
0.875
 40
0.9375
 40
1.0
 40
1.0
 40
1.0
 40
1.0
 10
318.709195851185
 20
613.22786107409
 30
0.0
 10
318.7746134883272
 20
613.2094885118853
 30
0.0
 10
318.9054088555453
 20
613.1725395863589
 30
0.0
 10
319.098504230145
 20
613.1068246015576
 30
0.0
 10
319.2853273974414
 20
613.024663999342
 30
0.0
 10
319.4624440715723
 20
612.9230992285512
 30
0.0
 10
319.6264899048101
 20
612.8014634692199
 30
0.0
 10
319.8243719435248
 20
612.6144669571469
 30
0.0
 10
320.0264752362767
 20
612.3382954045297
 30
0.0
 10
320.1571770806403
 20
612.021982288073
 30
0.0
 10
320.2134085489937
 20
611.755579330463
 30
0.0
 10
320.2312404591626
 20
611.5521289829248
 30
0.0
 10
320.2247762245546
 20
611.3480509900292
 30
0.0
 10
320.1964326193569
 20
611.1459322335429
 30
0.0
 10
320.150683337438
 20
610.9471576379894
 30
0.0
 10
320.1133148622315
 20
610.8164824329714
 30
0.0
 10
320.0945856776998
 20
610.751166004314
 30
0.0
  0
LINE
  5
FB
330
F5
100
AcDbEntity
  8
$DDT_AUDIT_GENERATED_(6B)
  6
Continuous
 62
     7
100
AcDbLine
 10
189.1557875354
 20
560.684128996
 30
0.0
 11
185.3167767259
 21
561.7849476315
 31
0.0
  0
SPLINE
  5
FC
330
F5
100
AcDbEntity
  8
$DDT_AUDIT_GENERATED_(6B)
  6
Continuous
 62
     7
100
AcDbSpline
210
0.0
220
0.0
230
1.0
 70
     8
 71
     5
 72
    12
 73
     6
 74
     0
 42
0.0000000025963492
 43
0.0000000001
 40
0.0
 40
0.0
 40
0.0
 40
0.0
 40
0.0
 40
0.0
 40
1.0
 40
1.0
 40
1.0
 40
1.0
 40
1.0
 40
1.0
 10
318.3183832782188
 20
604.556812101179
 30
0.0
 10
318.1187384994645
 20
603.860568016114
 30
0.0
 10
317.9190937207102
 20
603.1643239310489
 30
0.0
 10
317.2280060430283
 20
602.5041615472471
 30
0.0
 10
316.5227780569291
 20
602.3420625455387
 30
0.0
 10
315.8168805520673
 20
602.1829335341512
 30
0.0
  0
SPLINE
  5
FD
330
F5
100
AcDbEntity
  8
$DDT_AUDIT_GENERATED_(6B)
  6
Continuous
 62
     7
100
AcDbSpline
210
0.0
220
0.0
230
1.0
 70
     8
 71
     3
 72
    16
 73
    12
 74
     0
 42
0.000000000142409
 43
0.0000000001
 40
0.0
 40
0.0
 40
0.0
 40
0.0
 40
0.25
 40
0.25
 40
0.5
 40
0.5
 40
0.75
 40
0.75
 40
0.875
 40
0.875
 40
1.0
 40
1.0
 40
1.0
 40
1.0
 10
249.5920047474515
 20
625.3979825380137
 30
0.0
 10
255.3722977378212
 20
624.4712942235112
 30
0.0
 10
261.160789157671
 20
623.5970845546263
 30
0.0
 10
272.7402363639953
 20
621.8644488615173
 30
0.0
 10
278.5312172949468
 20
621.00630221352
 30
0.0
 10
290.0971892743162
 20
619.1860928932412
 30
0.0
 10
295.8733776717772
 20
618.2261790790993
 30
0.0
 10
304.4882350026577
 20
616.5784112010588
 30
0.0
 10
307.3518835429308
 20
615.9940337234158
 30
0.0
 10
313.0538161055164
 20
614.7135125607747
 30
0.0
 10
315.8924573399131
 20
614.0189428950409
 30
0.0
 10
318.709195851185
 20
613.22786107409
 30
0.0
  0
SPLINE
  5
FE
330
F5
100
AcDbEntity
  8
$DDT_AUDIT_GENERATED_(6B)
  6
Continuous
 62
     7
100
AcDbSpline
210
0.0
220
0.0
230
1.0
 70
     8
 71
     3
 72
     8
 73
     4
 74
     0
 42
0.0000000004659385
 43
0.0000000001
 40
0.0
 40
0.0
 40
0.0
 40
0.0
 40
1.0
 40
1.0
 40
1.0
 40
1.0
 10
236.0771267982212
 20
634.8438001579301
 30
0.0
 10
234.4824291138133
 20
629.2824260616144
 30
0.0
 10
241.3988853464557
 20
626.7115010968424
 30
0.0
 10
249.5920047474515
 20
625.3979825380137
 30
0.0
  0
LINE
  5
FF
330
F5
100
AcDbEntity
  8
$DDT_AUDIT_GENERATED_(6B)
  6
Continuous
 62
     7
100
AcDbLine
 10
236.0771267982
 20
634.8438001579
 30
0.0
 11
237.2346630154
 21
638.8806086808
 31
0.0
  0
LINE
  5
100
330
F5
100
AcDbEntity
  8
$DDT_AUDIT_GENERATED_(6B)
  6
Continuous
 62
     7
100
AcDbLine
 10
315.8168805521
 20
602.1829335342
 30
0.0
 11
312.5759856109
 21
601.475969706
 31
0.0
  0
SPLINE
  5
101
330
F5
100
AcDbEntity
  8
$DDT_AUDIT_GENERATED_(6B)
  6
Continuous
 62
     7
100
AcDbSpline
210
0.0
220
0.0
230
1.0
 70
     8
 71
     5
 72
    12
 73
     6
 74
     0
 42
0.0000000003480128
 43
0.0000000001
 40
0.0
 40
0.0
 40
0.0
 40
0.0
 40
0.0
 40
0.0
 40
1.0
 40
1.0
 40
1.0
 40
1.0
 40
1.0
 40
1.0
 10
213.2751507914983
 20
555.3284620313547
 30
0.0
 10
214.7313187636921
 20
560.4067232502418
 30
0.0
 10
216.187486735886
 20
565.4849844691291
 30
0.0
 10
219.4178085210395
 20
575.2404839914728
 30
0.0
 10
222.5271465326798
 20
577.6731659007344
 30
0.0
 10
225.7329370190991
 20
579.971301148137
 30
0.0
  0
LINE
  5
102
330
F5
100
AcDbEntity
  8
$DDT_AUDIT_GENERATED_(6B)
  6
Continuous
 62
     7
100
AcDbLine
 10
212.8616947571
 20
553.886569485
 30
0.0
 11
189.1557875354
 21
560.684128996
 31
0.0
  0
LINE
  5
103
330
F5
100
AcDbEntity
  8
$DDT_AUDIT_GENERATED_(6B)
  6
Continuous
 62
     7
100
AcDbLine
 10
213.2751507915
 20
555.3284620314
 30
0.0
 11
212.8616947571
 21
553.886569485
 31
0.0
  0
LINE
  5
104
330
F5
100
AcDbEntity
  8
$DDT_AUDIT_GENERATED_(6B)
  6
Continuous
 62
     7
100
AcDbLine
 10
237.2373724578
 20
639.0358678006
 30
0.0
 11
236.8796983012
 21
640.4704218469
 31
0.0
  0
ARC
  5
105
330
F5
100
AcDbEntity
  8
$DDT_AUDIT_GENERATED_(6B)
  6
Continuous
 62
     7
100
AcDbCircle
 10
187.5376432215
 20
653.1306114599
 30
0.0
 40
0.3013951909576782
100
AcDbArc
 50
134.0710464454
 51
163.9289463502
  0
ARC
  5
106
330
F5
100
AcDbEntity
  8
$DDT_AUDIT_GENERATED_(6B)
  6
Continuous
 62
     7
100
AcDbCircle
 10
236.9447672482
 20
638.9633205811
 30
0.0
 40
0.3014644494088403
100
AcDbArc
 50
344.0757042176
 51
13.9248537384
  0
LINE
  5
107
330
F5
100
AcDbEntity
  8
$DDT_AUDIT_GENERATED_(6B)
  6
Continuous
 62
     7
100
AcDbLine
 10
214.220066099
 20
647.1240119981
 30
0.0
 11
236.6713006291
 21
640.686224092
 31
0.0
  0
LINE
  5
108
330
F5
100
AcDbEntity
  8
$DDT_AUDIT_GENERATED_(6B)
  6
Continuous
 62
     7
100
AcDbLine
 10
188.682612349
 20
654.4467590249
 30
0.0
 11
209.7823282512
 21
648.3965128492
 31
0.0
  0
LINE
  5
109
330
F5
100
AcDbEntity
  8
$DDT_AUDIT_GENERATED_(6B)
  6
Continuous
 62
     7
100
AcDbLine
 10
209.7823282512
 20
648.3965128492
 30
0.0
 11
210.5875670312
 21
648.1656143446
 31
0.0
  0
LINE
  5
10A
330
F5
100
AcDbEntity
  8
$DDT_AUDIT_GENERATED_(6B)
  6
Continuous
 62
     7
100
AcDbLine
 10
210.5875670312
 20
648.1656143446
 30
0.0
 11
214.220066099
 21
647.1240119981
 31
0.0
  0
LINE
  5
10B
330
F5
100
AcDbEntity
  8
$DDT_AUDIT_GENERATED_(6B)
  6
Continuous
 62
     7
100
AcDbLine
 10
188.3914550953
 20
654.3742533871
 30
0.0
 11
187.3279393514
 21
653.3472281715
 31
0.0
  0
ARC
  5
10C
330
F5
100
AcDbEntity
  8
$DDT_AUDIT_GENERATED_(6B)
  6
Continuous
 62
     7
100
AcDbCircle
 10
188.6013308307
 20
654.1527264797
 30
0.0
 40
0.3050603594032127
100
AcDbArc
 50
74.547223717
 51
133.4527748302
  0
ARC
  5
10D
330
F5
100
AcDbEntity
  8
$DDT_AUDIT_GENERATED_(6B)
  6
Continuous
 62
     7
100
AcDbCircle
 10
236.5844178725
 20
640.3937979422
 30
0.0
 40
0.3050601030578395
100
AcDbArc
 50
14.5471358936
 51
73.4527848153
  0
SPLINE
  5
10E
330
F5
100
AcDbEntity
  8
$DDT_AUDIT_GENERATED_(6B)
  6
Continuous
 62
     7
100
AcDbSpline
210
0.0
220
0.0
230
1.0
 70
     8
 71
     3
 72
    16
 73
    12
 74
     0
 42
0.0000000001526924
 43
0.0000000001
 40
0.0
 40
0.0
 40
0.0
 40
0.0
 40
0.5000000000000001
 40
0.5000000000000001
 40
0.7500000000000002
 40
0.7500000000000002
 40
0.8750000000000003
 40
0.8750000000000003
 40
0.9375000000000002
 40
0.9375000000000002
 40
1.0
 40
1.0
 40
1.0
 40
1.0
 10
288.4977933185345
 20
596.9294378712871
 30
0.0
 10
277.7510295287967
 20
595.007190602815
 30
0.0
 10
266.9936601759841
 20
593.1246862294095
 30
0.0
 10
250.9827901160741
 20
589.6960589792058
 30
0.0
 10
245.6585449769138
 20
588.4674685868298
 30
0.0
 10
237.814082011746
 20
586.1136035568097
 30
0.0
 10
235.2217112273109
 20
585.2448542201523
 30
0.0
 10
231.4784969699679
 20
583.5807933845246
 30
0.0
 10
230.2702371488408
 20
582.955960128424
 30
0.0
 10
227.9537642178845
 20
581.5434394629756
 30
0.0
 10
226.8391786503427
 20
580.7643326627276
 30
0.0
 10
225.7329370190991
 20
579.971301148137
 30
0.0
  0
SPLINE
  5
10F
330
F5
100
AcDbEntity
  8
$DDT_AUDIT_GENERATED_(6B)
  6
Continuous
 62
     7
100
AcDbSpline
210
0.0
220
0.0
230
1.0
 70
     8
 71
     3
 72
    24
 73
    20
 74
     0
 42
0.0000000004020505
 43
0.0000000001
 40
0.0
 40
0.0
 40
0.0
 40
0.0
 40
0.1250000000000001
 40
0.1250000000000001
 40
0.2500000000000002
 40
0.2500000000000002
 40
0.3750000000000003
 40
0.3750000000000003
 40
0.4375000000000002
 40
0.4375000000000002
 40
0.5
 40
0.5
 40
0.625
 40
0.625
 40
0.75
 40
0.75
 40
0.875
 40
0.875
 40
1.0
 40
1.0
 40
1.0
 40
1.0
 10
288.4977933185345
 20
596.9294378712871
 30
0.0
 10
288.4977656292182
 20
596.9295998604387
 30
0.0
 10
288.7949051390656
 20
597.1141438575469
 30
0.0
 10
289.9294509224362
 20
597.7476895374873
 30
0.0
 10
290.7682653734881
 20
598.1976803683888
 30
0.0
 10
292.8674777736212
 20
599.1383539503403
 30
0.0
 10
294.1531373653577
 20
599.6338829515511
 30
0.0
 10
296.286809110555
 20
600.2385802456961
 30
0.0
 10
297.0474095376699
 20
600.4217465246737
 30
0.0
 10
298.5986309731891
 20
600.7258216752352
 30
0.0
 10
299.387062767005
 20
600.8465418457996
 30
0.0
 10
301.7882392107175
 20
601.1305451746341
 30
0.0
 10
303.3966479575141
 20
601.2277881957717
 30
0.0
 10
306.4009440376238
 20
601.3797133646635
 30
0.0
 10
307.7637503662189
 20
601.4230899861725
 30
0.0
 10
310.0616056787778
 20
601.4838909295297
 30
0.0
 10
310.9875444262487
 20
601.4979380905527
 30
0.0
 10
312.2402469876552
 20
601.4939591477685
 30
0.0
 10
312.575968576463
 20
601.4760693617001
 30
0.0
 10
312.5759856109311
 20
601.4759697059575
 30
0.0
  0
ARC
  5
110
330
F5
100
AcDbEntity
  8
$DDT_AUDIT_GENERATED_(6B)
  6
Continuous
 62
     7
100
AcDbCircle
 10
-40.8268954788
 20
665.2333581092
 30
0.0
 40
222.6498664100671
100
AcDbArc
 50
342.3068599149
 51
345.6931458953
  0
LINE
  5
111
330
F5
100
AcDbEntity
  8
$DDT_AUDIT_GENERATED_(6B)
  6
Continuous
 62
     7
100
AcDbLine
 10
171.2943572284
 20
597.5769887058
 30
0.0
 11
162.8762778623
 21
568.2196571348
 31
0.0
  0
LINE
  5
112
330
F5
100
AcDbEntity
  8
$DDT_AUDIT_GENERATED_(6B)
  6
Continuous
 62
     7
100
AcDbLine
 10
187.2480267984
 20
653.2140463961
 30
0.0
 11
174.9177473384
 21
610.213251711
 31
0.0
  0
LINE
  5
113
330
F5
100
AcDbEntity
  8
$DDT_AUDIT_GENERATED_(8E)
  6
Continuous
 62
     7
100
AcDbLine
 10
236.7344812365
 20
640.6681073444
 30
0.0
 11
188.6298878583
 21
654.4618775294
 31
0.0
  0
ARC
  5
114
330
F5
100
AcDbEntity
  8
$DDT_AUDIT_GENERATED_(8E)
  6
Continuous
 62
     7
100
AcDbCircle
 10
210.4495219653
 20
639.7787726998
 30
0.0
 40
26.3
100
AcDbArc
 50
143.2682460746
 51
146.0621734783
  0
ARC
  5
115
330
F5
100
AcDbEntity
  8
$DDT_AUDIT_GENERATED_(8E)
  6
Continuous
 62
     7
100
AcDbCircle
 10
210.4495219653
 20
639.7787726998
 30
0.0
 40
26.3
100
AcDbArc
 50
1.9378265217
 51
4.7450156605
  0
LINE
  5
116
330
F5
100
AcDbEntity
  8
02636038_GEHÄUSE
  6
Continuous
 62
     7
100
AcDbLine
 10
312.0553882642
 20
595.6189513476
 30
0.0
 11
290.8627636788
 21
591.9964296869
 31
0.0
  0
SPLINE
  5
117
330
F5
100
AcDbEntity
  8
02636038_GEHÄUSE
  6
Continuous
 62
     7
100
AcDbSpline
210
0.0
220
0.0
230
1.0
 70
     8
 71
     3
 72
    10
 73
     6
 74
     0
 42
0.0000000019260148
 43
0.0000000001
 40
0.0
 40
0.0
 40
0.0
 40
0.0
 40
0.5
 40
0.5
 40
1.0
 40
1.0
 40
1.0
 40
1.0
 10
303.9550988127335
 20
594.5564917653966
 30
0.0
 10
303.1245958445153
 20
594.2989612012173
 30
0.0
 10
302.2848170009489
 20
594.0952783004818
 30
0.0
 10
300.5851368312806
 20
593.8047261286181
 30
0.0
 10
299.7252352341206
 20
593.7178584310184
 30
0.0
 10
298.8560480026964
 20
593.6848950486399
 30
0.0
  0
LINE
  5
118
330
F5
100
AcDbEntity
  8
02636038_GEHÄUSE
  6
Continuous
 62
     7
100
AcDbLine
 10
305.1633810619
 20
597.4843906406
 30
0.0
 11
296.7438346037
 21
596.0452112084
 31
0.0
  0
LINE
  5
119
330
F5
100
AcDbEntity
  8
02636038_GEHÄUSE
  6
Continuous
 62
     7
100
AcDbLine
 10
305.1633810619
 20
597.4843906406
 30
0.0
 11
305.4694305538
 21
595.6939273679
 31
0.0
  0
SPLINE
  5
11A
330
F5
100
AcDbEntity
  8
02636038_GEHÄUSE
  6
Continuous
 62
     7
100
AcDbSpline
210
0.0
220
0.0
230
1.0
 70
     8
 71
     3
 72
    14
 73
    10
 74
     0
 42
0.0000000049321089
 43
0.0000000001
 40
0.0
 40
0.0
 40
0.0
 40
0.0
 40
0.1250000000000004
 40
0.1250000000000004
 40
0.2500000000000009
 40
0.2500000000000009
 40
0.5000000000000008
 40
0.5000000000000008
 40
1.0
 40
1.0
 40
1.0
 40
1.0
 10
305.469430553848
 20
595.6939273679483
 30
0.0
 10
305.4836243180377
 20
595.6108904273569
 30
0.0
 10
305.4661284293913
 20
595.5225422288843
 30
0.0
 10
305.3951537715175
 20
595.3691934966721
 30
0.0
 10
305.342872871018
 20
595.300385603063
 30
0.0
 10
305.1689175188574
 20
595.1173381209653
 30
0.0
 10
305.0271889560169
 20
595.0206716471914
 30
0.0
 10
304.5920275749007
 20
594.7724304728059
 30
0.0
 10
304.2747605390727
 20
594.6556156311514
 30
0.0
 10
303.9550988127335
 20
594.5564917653966
 30
0.0
  0
SPLINE
  5
11B
330
F5
100
AcDbEntity
  8
02636038_GEHÄUSE
  6
Continuous
 62
     7
100
AcDbSpline
210
0.0
220
0.0
230
1.0
 70
     8
 71
     3
 72
    18
 73
    14
 74
     0
 42
0.0000000049401632
 43
0.0000000001
 40
0.0
 40
0.0
 40
0.0
 40
0.0
 40
0.2499999999999998
 40
0.2499999999999998
 40
0.4999999999999997
 40
0.4999999999999997
 40
0.6249999999999992
 40
0.6249999999999992
 40
0.7499999999999989
 40
0.7499999999999989
 40
0.8749999999999994
 40
0.8749999999999994
 40
1.0
 40
1.0
 40
1.0
 40
1.0
 10
298.8560480026964
 20
593.6848950486399
 30
0.0
 10
298.6883291236092
 20
593.6785344149997
 30
0.0
 10
298.5205816697642
 20
593.677327757159
 30
0.0
 10
298.1849936683606
 20
593.6917055810306
 30
0.0
 10
298.0172293773732
 20
593.7071121660864
 30
0.0
 10
297.7706456176224
 20
593.7521388001553
 30
0.0
 10
297.6891598488052
 20
593.7708453979635
 30
0.0
 10
297.5283398962944
 20
593.8194828591935
 30
0.0
 10
297.4485531533949
 20
593.8496062790059
 30
0.0
 10
297.2995516747367
 20
593.9258905625846
 30
0.0
 10
297.2282743079476
 20
593.9726588743739
 30
0.0
 10
297.1095547897595
 20
594.0945571685099
 30
0.0
 10
297.0643322256003
 20
594.1702228941042
 30
0.0
 10
297.0498840956396
 20
594.254747935747
 30
0.0
  0
LINE
  5
11C
330
F5
100
AcDbEntity
  8
02636038_GEHÄUSE
  6
Continuous
 62
     7
100
AcDbLine
 10
297.0498840956
 20
594.2547479357
 30
0.0
 11
296.7438346037
 21
596.0452112084
 31
0.0
  0
LINE
  5
11D
330
F5
100
AcDbEntity
  8
02636038_GEHÄUSE
  6
Continuous
 62
     7
100
AcDbLine
 10
290.267124207
 20
592.2167634179
 30
0.0
 11
290.8627636788
 21
591.9964296869
 31
0.0
  0
LINE
  5
11E
330
F5
100
AcDbEntity
  8
02636038_GEHÄUSE
  6
Continuous
 62
     7
100
AcDbLine
 10
312.0553882642
 20
595.6189513476
 30
0.0
 11
312.5440226084
 21
596.0246233961
 31
0.0
  0
ARC
  5
11F
330
F5
100
AcDbEntity
  8
02636038_GEHÄUSE
  6
Continuous
 62
     7
100
AcDbCircle
 10
290.6140598586
 20
593.1546523525
 30
0.0
 40
1.000000000000004
100
AcDbArc
 50
189.7
 51
249.7
  0
ARC
  5
120
330
F5
100
AcDbEntity
  8
02636038_GEHÄUSE
  6
Continuous
 62
     7
100
AcDbCircle
 10
311.9052547909
 20
596.7940229511
 30
0.0
 40
0.9999999999999927
100
AcDbArc
 50
309.7
 51
9.7
  0
LINE
  5
121
330
F5
100
AcDbEntity
  8
02636038_GEHÄUSE
  6
Continuous
 62
     7
100
AcDbLine
 10
288.9125189671
 20
597.1739843799
 30
0.0
 11
289.6283563895
 21
592.986162973
 31
0.0
  0
LINE
  5
122
330
F5
100
AcDbEntity
  8
02636038_GEHÄUSE
  6
Continuous
 62
     7
100
AcDbLine
 10
312.89095826
 20
596.9625123307
 30
0.0
 11
312.117233588
 21
601.488988096
 31
0.0
  0
LINE
  5
123
330
F5
100
AcDbEntity
  8
$DDT_AUDIT_GENERATED_(A4)
  6
Continuous
 62
     7
100
AcDbLine
 10
310.3978029451
 20
594.9298135457
 30
0.0
 11
292.6551405015
 21
591.8970047135
 31
0.0
  0
LINE
  5
124
330
F5
100
AcDbEntity
  8
$DDT_AUDIT_GENERATED_(A4)
  6
Continuous
 62
     7
100
AcDbLine
 10
292.5877447497
 20
592.2912861012
 30
0.0
 11
292.6551405015
 21
591.8970047135
 31
0.0
  0
LINE
  5
125
330
F5
100
AcDbEntity
  8
$DDT_AUDIT_GENERATED_(A4)
  6
Continuous
 62
     7
100
AcDbLine
 10
310.3978029451
 20
594.9298135457
 30
0.0
 11
310.3304071933
 21
595.3240949333
 31
0.0
  0
ARC
  5
126
330
F5
100
AcDbEntity
  8
$DDT_AUDIT_GENERATED_(D3)
  6
Continuous
 62
     7
100
AcDbCircle
 10
321.9559803636
 20
672.7395954389
 30
0.0
 40
9.52193252935582
100
AcDbArc
 50
263.9283816968
 51
269.6127493217
  0
ARC
  5
127
330
F5
100
AcDbEntity
  8
$DDT_AUDIT_GENERATED_(D3)
  6
Continuous
 62
     7
100
AcDbCircle
 10
258.8770967179
 20
646.8879492579
 30
0.0
 40
16.63029899826971
100
AcDbArc
 50
145.3336409364
 51
170.3043694521
  0
LINE
  5
128
330
F5
100
AcDbEntity
  8
$DDT_AUDIT_GENERATED_(D3)
  6
Continuous
 62
     7
100
AcDbLine
 10
213.247802201
 20
648.6412376882
 30
0.0
 11
239.3739701575
 21
641.1496795791
 31
0.0
  0
LINE
  5
129
330
F5
100
AcDbEntity
  8
$DDT_AUDIT_GENERATED_(D3)
  6
Continuous
 62
     7
100
AcDbLine
 10
213.247802888
 20
648.6412374912
 30
0.0
 11
212.3106929683
 21
648.9099494366
 31
0.0
  0
LINE
  5
12A
330
F5
100
AcDbEntity
  8
$DDT_AUDIT_GENERATED_(D3)
  6
Continuous
 62
     7
100
AcDbLine
 10
186.7429633713
 20
656.2413779228
 30
0.0
 11
212.3106943702
 21
648.9099490346
 31
0.0
  0
ARC
  5
12B
330
F5
100
AcDbEntity
  8
$DDT_AUDIT_GENERATED_(D3)
  6
Continuous
 62
     7
100
AcDbCircle
 10
321.19772335
 20
649.6378342353
 30
0.0
 40
13.61146194517044
100
AcDbArc
 50
77.1769610333
 51
88.8619429664
  0
ARC
  5
12C
330
F5
100
AcDbEntity
  8
$DDT_AUDIT_GENERATED_(D3)
  6
Continuous
 62
     7
100
AcDbCircle
 10
321.1884962563
 20
649.3074381109
 30
0.0
 40
13.93578049761039
100
AcDbArc
 50
77.4181051559
 51
88.6843226037
  0
ARC
  5
12D
330
F5
100
AcDbEntity
  8
$DDT_AUDIT_GENERATED_(D3)
  6
Continuous
 62
     7
100
AcDbCircle
 10
325.2037245534
 20
666.3899731592
 30
0.0
 40
3.616732382312331
100
AcDbArc
 50
254.2407290136
 51
273.3087886891
  0
ARC
  5
12E
330
F5
100
AcDbEntity
  8
$DDT_AUDIT_GENERATED_(D3)
  6
Continuous
 62
     7
100
AcDbCircle
 10
325.6954569994
 20
677.3021261414
 30
0.0
 40
10.2142355451837
100
AcDbArc
 50
259.5904225922
 51
273.3399476239
  0
SPLINE
  5
12F
330
F5
100
AcDbEntity
  8
$DDT_AUDIT_GENERATED_(D3)
  6
Continuous
 62
     7
100
AcDbSpline
210
0.0
220
0.0
230
1.0
 70
     8
 71
     3
 72
    17
 73
    13
 74
     0
 42
0.0000000021317137
 43
0.0000000001
 40
0.0
 40
0.0
 40
0.0
 40
0.0
 40
0.0838226376434254
 40
0.1594472268956194
 40
0.2274229639086942
 40
0.2875405523892601
 40
0.3834928437240939
 40
0.4541502868813483
 40
0.5449889146249571
 40
0.6659438405448547
 40
0.8176376866815137
 40
1.0
 40
1.0
 40
1.0
 40
1.0
 10
342.8919017224802
 20
665.2881295536558
 30
0.0
 10
343.0311770813736
 20
665.3148321628779
 30
0.0
 10
343.255155581462
 20
665.3638917550894
 30
0.0
 10
343.568609807047
 20
665.5460058362404
 30
0.0
 10
343.7796608979996
 20
665.7817166210745
 30
0.0
 10
343.9376544860197
 20
666.0916181689574
 30
0.0
 10
343.9951354634271
 20
666.4444159885219
 30
0.0
 10
343.9378326329224
 20
666.8398557380793
 30
0.0
 10
343.7540789448083
 20
667.2421209513574
 30
0.0
 10
343.3488704876804
 20
667.6450791514154
 30
0.0
 10
342.6690112500095
 20
667.9152505935059
 30
0.0
 10
342.1866367975449
 20
667.9163297698738
 30
0.0
 10
341.8783033239347
 20
667.9055308157994
 30
0.0
  0
LINE
  5
130
330
F5
100
AcDbEntity
  8
$DDT_AUDIT_GENERATED_(D3)
  6
Continuous
 62
     7
100
AcDbLine
 10
325.3075821812
 20
662.7642212935
 30
0.0
 11
342.8919015898
 21
665.2881295408
 31
0.0
  0
LINE
  5
131
330
F5
100
AcDbEntity
  8
$DDT_AUDIT_GENERATED_(D3)
  6
Continuous
 62
     7
100
AcDbLine
 10
341.8783038026
 20
667.905530862
 30
0.0
 11
326.1969624072
 21
667.100429469
 31
0.0
  0
SPLINE
  5
132
330
F5
100
AcDbEntity
  8
$DDT_AUDIT_GENERATED_(D3)
  6
Continuous
 62
     7
100
AcDbSpline
210
0.0
220
0.0
230
1.0
 70
     8
 71
     3
 72
    32
 73
    28
 74
     0
 42
0.0000000000685122
 43
0.0000000001
 40
0.0
 40
0.0
 40
0.0
 40
0.0
 40
0.0690056270271197
 40
0.1388398093340482
 40
0.2036316643207821
 40
0.2634688482089894
 40
0.3189198552098024
 40
0.370112336834904
 40
0.41618514686342
 40
0.4571876108116004
 40
0.4930677279628961
 40
0.523871177144453
 40
0.5460067783947696
 40
0.5698211165266489
 40
0.5969717904338214
 40
0.6274128083986411
 40
0.661202986892139
 40
0.6983365391453699
 40
0.728395578350675
 40
0.7603231835084928
 40
0.7941119371241041
 40
0.8317938891634625
 40
0.8715558659678289
 40
0.9133142704438176
 40
0.9422643435446979
 40
0.9721092540365764
 40
1.0
 40
1.0
 40
1.0
 40
1.0
 10
323.8495237851519
 20
667.2559731873416
 30
0.0
 10
320.2126133654033
 20
667.8856039291337
 30
0.0
 10
314.0468113711602
 20
668.9529650137445
 30
0.0
 10
304.0956442558593
 20
670.6760788661618
 30
0.0
 10
294.8260471731724
 20
672.2797074777374
 30
0.0
 10
286.1870179717131
 20
673.7791178366479
 30
0.0
 10
278.2111040192427
 20
675.1472903249512
 30
0.0
 10
270.8999398202062
 20
676.4545744700611
 30
0.0
 10
264.2496320386626
 20
677.4463994663012
 30
0.0
 10
258.3258807924066
 20
678.2573753501422
 30
0.0
 10
253.1244500861324
 20
678.8644482032448
 30
0.0
 10
248.8246512672906
 20
679.2741129400472
 30
0.0
 10
245.1025735552394
 20
679.5514939060121
 30
0.0
 10
241.5532681087462
 20
679.7491997285533
 30
0.0
 10
237.5965796668272
 20
679.8815099835003
 30
0.0
 10
233.1519194834452
 20
679.8842883614504
 30
0.0
 10
228.2258290242019
 20
679.655576566862
 30
0.0
 10
223.3414337340919
 20
679.1039948460883
 30
0.0
 10
218.6018338876715
 20
678.2083636267218
 30
0.0
 10
214.0964450187947
 20
677.010328479598
 30
0.0
 10
209.3552829470556
 20
675.3182414901115
 30
0.0
 10
204.4478729557549
 20
673.0197612898709
 30
0.0
 10
199.479186988446
 20
670.019080974581
 30
0.0
 10
195.2006401464184
 20
666.7325926482553
 30
0.0
 10
191.6778445124979
 20
663.3707147552138
 30
0.0
 10
188.842111342805
 20
660.1233188092529
 30
0.0
 10
187.4093026167162
 20
657.9424394741193
 30
0.0
 10
186.5983562598153
 20
656.6902662419375
 30
0.0
  0
ARC
  5
133
330
F5
100
AcDbEntity
  8
$DDT_AUDIT_GENERATED_(D3)
  6
Continuous
 62
     7
100
AcDbCircle
 10
279.1356179931
 20
641.9679064655
 30
0.0
 40
36.84134801207838
100
AcDbArc
 50
133.4963524215
 51
157.0371181476
  0
ARC
  5
134
330
F5
100
AcDbEntity
  8
$DDT_AUDIT_GENERATED_(D3)
  6
Continuous
 62
     7
100
AcDbCircle
 10
389.1990035072
 20
596.6654998916
 30
0.0
 40
155.991984754218
100
AcDbArc
 50
160.1158022726
 51
163.3551285899
  0
SPLINE
  5
135
330
F5
100
AcDbEntity
  8
$DDT_AUDIT_GENERATED_(D3)
  6
Continuous
 62
     7
100
AcDbSpline
210
0.0
220
0.0
230
1.0
 70
     8
 71
     3
 72
    33
 73
    29
 74
     0
 42
0.0000000001474535
 43
0.0000000001
 40
0.0
 40
0.0
 40
0.0
 40
0.0
 40
0.0453801692056471
 40
0.0829182221143332
 40
0.1125867483375221
 40
0.1298716406671462
 40
0.1430173992359503
 40
0.1523529169010054
 40
0.1603753289134394
 40
0.1788463670768514
 40
0.2005800440707881
 40
0.2208399553831295
 40
0.2386537826721585
 40
0.2647746415400906
 40
0.2971631315550195
 40
0.3363220664526401
 40
0.3909921389979085
 40
0.4528362496569832
 40
0.5129905945728881
 40
0.5693730219172152
 40
0.6220733941611544
 40
0.6709952902519347
 40
0.7193981298319251
 40
0.7644707551596022
 40
0.816299660427277
 40
0.8748477361738006
 40
0.9402317540897551
 40
1.0
 40
1.0
 40
1.0
 40
1.0
 10
253.778634634605
 20
668.6943740299629
 30
0.0
 10
253.8715632196873
 20
668.7743172921209
 30
0.0
 10
254.0227121038963
 20
668.8969972215333
 30
0.0
 10
254.3521068367044
 20
669.1155059104087
 30
0.0
 10
254.6926032742363
 20
669.2752741395055
 30
0.0
 10
255.0557562704829
 20
669.3879746096962
 30
0.0
 10
255.3895205239615
 20
669.4625250366201
 30
0.0
 10
255.8034336667392
 20
669.5547841774428
 30
0.0
 10
256.4960927610894
 20
669.7101202823875
 30
0.0
 10
257.5134047128387
 20
669.8829587330816
 30
0.0
 10
258.9112160206721
 20
670.0404045202145
 30
0.0
 10
260.3671214528007
 20
670.1378694968187
 30
0.0
 10
262.0253652279072
 20
670.1739715225821
 30
0.0
 10
264.0219342776697
 20
670.1424447387578
 30
0.0
 10
266.560465558199
 20
669.9786715937053
 30
0.0
 10
269.8325520277764
 20
669.6251814197266
 30
0.0
 10
273.846002508169
 20
669.0301599835376
 30
0.0
 10
278.3896485060839
 20
668.2845284539095
 30
0.0
 10
282.9868699569464
 20
667.5889789481412
 30
0.0
 10
287.3569411929446
 20
666.9890319764428
 30
0.0
 10
291.4409154604406
 20
666.4597411330714
 30
0.0
 10
295.3220579646911
 20
665.9868657748498
 30
0.0
 10
299.0085144361812
 20
665.5606099073341
 30
0.0
 10
302.7703131526798
 20
665.144547168585
 30
0.0
 10
306.8037353492784
 20
664.7206642395951
 30
0.0
 10
311.3339950242445
 20
664.2397982992784
 30
0.0
 10
316.2018715275349
 20
663.8097959570913
 30
0.0
 10
319.2071747666923
 20
663.4470950156774
 30
0.0
 10
320.9088551124711
 20
663.2441632091601
 30
0.0
  0
ARC
  5
136
330
F5
100
AcDbEntity
  8
$DDT_AUDIT_GENERATED_(D3)
  6
Continuous
 62
     7
100
AcDbCircle
 10
239.4565873157
 20
641.4380791719
 30
0.0
 40
0.2999990419323535
100
AcDbArc
 50
253.9704933216
 51
339.5593338324
  0
ARC
  5
137
330
F5
100
AcDbEntity
  8
$DDT_AUDIT_GENERATED_(D3)
  6
Continuous
 62
     7
100
AcDbCircle
 10
186.8256554046
 20
656.5297561968
 30
0.0
 40
0.3000000020677791
100
AcDbArc
 50
145.7543175177
 51
253.9980050329
  0
LINE
  5
139
330
F5
100
AcDbEntity
  8
$DDT_AUDIT_GENERATED_(138)
  6
Continuous
 62
     7
100
AcDbLine
 10
245.1542624272
 20
656.1924256069
 30
0.0
 11
243.1872663166
 21
652.3319783759
 31
0.0
  0
LINE
  5
13A
330
F5
100
AcDbEntity
  8
$DDT_AUDIT_GENERATED_(138)
  6
Continuous
 62
     7
100
AcDbLine
 10
245.1542624272
 20
656.1924256069
 30
0.0
 11
245.0112401868
 21
656.3082427336
 31
0.0
  0
LINE
  5
13B
330
F5
100
AcDbEntity
  8
$DDT_AUDIT_GENERATED_(EB)
  6
Continuous
 62
     7
100
AcDbLine
 10
212.8676266182
 20
553.8848685512
 30
0.0
 11
184.8542731899
 21
561.9175683864
 31
0.0
  0
LINE
  5
13C
330
F5
100
AcDbEntity
  8
$DDT_AUDIT_GENERATED_(EB)
  6
Continuous
 62
     7
100
AcDbLine
 10
145.5965903454
 20
507.9365594853
 30
0.0
 11
199.6921610102
 21
507.9365594853
 31
0.0
  0
LINE
  5
13D
330
F5
100
AcDbEntity
  8
$DDT_AUDIT_GENERATED_(EB)
  6
Continuous
 62
     7
100
AcDbLine
 10
162.8820184295
 20
568.2180110537
 30
0.0
 11
145.5965903454
 21
507.9365594853
 31
0.0
  0
LINE
  5
13E
330
F5
100
AcDbEntity
  8
$DDT_AUDIT_GENERATED_(EB)
  6
Continuous
 62
     7
100
AcDbLine
 10
199.6921610102
 20
507.9365594853
 30
0.0
 11
212.8676266182
 21
553.8848685512
 31
0.0
  0
ARC
  5
13F
330
F5
100
AcDbEntity
  8
$DDT_AUDIT_GENERATED_(EB)
  6
Continuous
 62
     7
100
AcDbCircle
 10
211.6147878394
 20
554.764264008
 30
0.0
 40
0.5000000000000048
100
AcDbArc
 50
174.6719292858
 51
254.0
  0
LINE
  5
141
330
F5
100
AcDbEntity
  8
$DDT_AUDIT_GENERATED_(140)
  6
Continuous
 62
     7
100
AcDbLine
 10
157.4460753421
 20
619.7362379226
 30
0.0
 11
165.95085233
 21
617.7232678437
 31
0.0
  0
LINE
  5
142
330
F5
100
AcDbEntity
  8
$DDT_AUDIT_GENERATED_(140)
  6
Continuous
 62
     7
100
AcDbLine
 10
166.6034355704
 20
620.5499164054
 30
0.0
 11
157.8621304987
 21
622.5177976485
 31
0.0
  0
SPLINE
  5
143
330
F5
100
AcDbEntity
  8
$DDT_AUDIT_GENERATED_(140)
  6
Continuous
 62
     7
100
AcDbSpline
210
0.0
220
0.0
230
1.0
 70
     8
 71
     3
 72
    13
 73
     9
 74
     0
 42
0.0000000014092874
 43
0.0000000001
 40
0.0
 40
0.0
 40
0.0
 40
0.0
 40
0.3011066625657371
 40
0.4222878232020567
 40
0.5420372059562987
 40
0.6600583067009804
 40
0.7759470261848022
 40
1.0
 40
1.0
 40
1.0
 40
1.0
 10
165.9508523300262
 20
617.723267843689
 30
0.0
 10
166.7111520113895
 20
617.5656915640998
 30
0.0
 10
167.6060331513465
 20
617.355056041722
 30
0.0
 10
168.7463669897799
 20
616.7462486675981
 30
0.0
 10
169.3875450124497
 20
616.1932073991378
 30
0.0
 10
169.8948708093884
 20
615.5341935701422
 30
0.0
 10
170.3713993369518
 20
614.5438668437541
 30
0.0
 10
170.4223536493713
 20
613.7934601229753
 30
0.0
 10
170.4473797477908
 20
613.2162418088865
 30
0.0
  0
SPLINE
  5
144
330
F5
100
AcDbEntity
  8
$DDT_AUDIT_GENERATED_(140)
  6
Continuous
 62
     7
100
AcDbSpline
210
0.0
220
0.0
230
1.0
 70
     8
 71
     3
 72
    15
 73
    11
 74
     0
 42
0.0000000008728688
 43
0.0000000001
 40
0.0
 40
0.0
 40
0.0
 40
0.0
 40
0.134057207869087
 40
0.266217656903863
 40
0.396896781101609
 40
0.526225213091149
 40
0.6544022597503591
 40
0.7816236743790674
 40
0.8989125893178912
 40
1.0
 40
1.0
 40
1.0
 40
1.0
 10
174.4376359488301
 20
613.495267703863
 30
0.0
 10
174.3352853178549
 20
614.046279155541
 30
0.0
 10
174.1504329759822
 20
614.9709503856388
 30
0.0
 10
173.5106781158595
 20
616.3816924483414
 30
0.0
 10
172.6627136751271
 20
617.607253244323
 30
0.0
 10
171.6071865065177
 20
618.6530704039518
 30
0.0
 10
170.3887224071044
 20
619.4765454538962
 30
0.0
 10
169.0919622874603
 20
620.0546944866519
 30
0.0
 10
167.7746174753801
 20
620.3247734759299
 30
0.0
 10
167.0191722662281
 20
620.474041392584
 30
0.0
 10
166.6034355704233
 20
620.5499164054312
 30
0.0
  0
LINE
  5
145
330
F5
100
AcDbEntity
  8
$DDT_AUDIT_GENERATED_(140)
  6
Continuous
 62
     7
100
AcDbLine
 10
170.4473797478
 20
613.2162418089
 30
0.0
 11
171.4967874388
 21
598.2090126532
 31
0.0
  0
LINE
  5
146
330
F5
100
AcDbEntity
  8
$DDT_AUDIT_GENERATED_(140)
  6
Continuous
 62
     7
100
AcDbLine
 10
174.720374656
 20
609.4519158152
 30
0.0
 11
174.4376359488
 21
613.4952677039
 31
0.0
  0
LINE
  5
147
330
F5
100
AcDbEntity
  8
$DDT_AUDIT_GENERATED_(140)
  6
Continuous
 62
     7
100
AcDbLine
 10
157.3214362434
 20
622.0697095792
 30
0.0
 11
156.9951411262
 21
620.3910667237
 31
0.0
  0
ARC
  5
148
330
F5
100
AcDbEntity
  8
$DDT_AUDIT_GENERATED_(140)
  6
Continuous
 62
     7
100
AcDbCircle
 10
157.5223199659
 20
620.2731113318
 30
0.0
 40
0.5400000008122133
100
AcDbArc
 50
167.5180263842
 51
262.5583912202
  0
SPLINE
  5
149
330
F5
100
AcDbEntity
  8
$DDT_AUDIT_GENERATED_(140)
  6
Continuous
 62
     7
100
AcDbSpline
210
0.0
220
0.0
230
1.0
 70
     8
 71
     3
 72
    16
 73
    12
 74
     0
 42
0.0000000086234458
 43
0.0000000001
 40
0.0
 40
0.0
 40
0.0
 40
0.0
 40
0.0201096065934171
 40
0.1630289091249366
 40
0.3259276159474824
 40
0.4971084800421319
 40
0.6627387843146602
 40
0.7949064209867638
 40
0.906100579232155
 40
0.9994616533164513
 40
1.0
 40
1.0
 40
1.0
 40
1.0
 10
157.9836978297554
 20
622.4865098257249
 30
0.0
 10
157.9759788566227
 20
622.4898374931207
 30
0.0
 10
157.9219853953601
 20
622.5129353119817
 30
0.0
 10
157.7888489089381
 20
622.5095409605813
 30
0.0
 10
157.6137322410537
 20
622.464879578944
 30
0.0
 10
157.4550969768316
 20
622.3502025101359
 30
0.0
 10
157.3543053547878
 20
622.199471822142
 30
0.0
 10
157.311169489981
 20
622.0471460004411
 30
0.0
 10
157.3105110504508
 20
621.9199721332639
 30
0.0
 10
157.3230253869156
 20
621.8390028203031
 30
0.0
 10
157.3355461884715
 20
621.8075226731565
 30
0.0
 10
157.3356293460128
 20
621.8073136539003
 30
0.0
  0
ENDBLK
  5
14B
330
F5
100
AcDbEntity
  8
0
100
AcDbBlockEnd
  0
BLOCK
  5
184
330
14C
100
AcDbEntity
  8
0
100
AcDbBlockBegin
  2
SE2
 70
     0
 10
0.0
 20
0.0
 30
0.0
  3
SE2
  1

  0
ELLIPSE
  5
14E
330
14C
100
AcDbEntity
  8
$DDT_AUDIT_GENERATED_(6B)
  6
Continuous
 62
     7
100
AcDbEllipse
 10
33.937321445
 20
262.4636920064
 30
0.0
 11
-26.00597190878842
 21
-4.943961906533900E-13
 31
0.0
210
0.0
220
0.0
230
1.0
 40
0.9612616959
 41
4.83125649142111
 42
6.162060341198618
  0
ELLIPSE
  5
14F
330
14C
100
AcDbEntity
  8
$DDT_AUDIT_GENERATED_(6B)
  6
Continuous
 62
     7
100
AcDbEllipse
 10
33.937321445
 20
262.4636920064
 30
0.0
 11
-26.00597190878842
 21
-4.943961906533900E-13
 31
0.0
210
0.0
220
0.0
230
1.0
 40
0.9612616959
 41
3.262717619570721
 42
4.593523575658579
  0
LINE
  5
150
330
14C
100
AcDbEntity
  8
$DDT_AUDIT_GENERATED_(6B)
  6
Continuous
 62
     7
100
AcDbLine
 10
8.0676136901
 20
265.0217378043
 30
0.0
 11
8.1218865675
 21
265.4842413404
 31
0.0
  0
ARC
  5
151
330
14C
100
AcDbEntity
  8
$DDT_AUDIT_GENERATED_(6B)
  6
Continuous
 62
     7
100
AcDbCircle
 10
31.1766312983
 20
262.5576182332
 30
0.0
 40
23.24002108602184
100
AcDbArc
 50
174.8335330065
 51
180.4677653382
  0
LINE
  5
152
330
14C
100
AcDbEntity
  8
$DDT_AUDIT_GENERATED_(6B)
  6
Continuous
 62
     7
100
AcDbLine
 10
59.8070292
 20
265.0217378043
 30
0.0
 11
59.7527563226
 21
265.4842413404
 31
0.0
  0
ARC
  5
153
330
14C
100
AcDbEntity
  8
$DDT_AUDIT_GENERATED_(6B)
  6
Continuous
 62
     7
100
AcDbCircle
 10
36.6946531327
 20
262.5575392381
 30
0.0
 40
23.24336899095136
100
AcDbArc
 50
359.5325000312
 51
6.0857790918
  0
ELLIPSE
  5
154
330
14C
100
AcDbEntity
  8
$DDT_AUDIT_GENERATED_(6B)
  6
Continuous
 62
     7
100
AcDbEllipse
 10
33.937321445
 20
276.0754789158
 30
0.0
 11
7.519085790384886E-14
 21
-2.301644993287623
 31
0.0
210
0.0
220
0.0
230
1.0
 40
0.9775617033
 41
1.846312708159518
 42
2.046678576455233
  0
ELLIPSE
  5
155
330
14C
100
AcDbEntity
  8
$DDT_AUDIT_GENERATED_(6B)
  6
Continuous
 62
     7
100
AcDbEllipse
 10
33.937321445
 20
276.0754789158
 30
0.0
 11
7.519085790384886E-14
 21
-2.301644993287623
 31
0.0
210
0.0
220
0.0
230
1.0
 40
0.9775617033
 41
4.236506730724233
 42
4.438408694187737
  0
SPLINE
  5
156
330
14C
100
AcDbEntity
  8
$DDT_AUDIT_GENERATED_(6B)
  6
Continuous
 62
     7
100
AcDbSpline
210
0.0
220
0.0
230
1.0
 70
     8
 71
     3
 72
    16
 73
    12
 74
     0
 42
0.0000000008704403
 43
0.0000000001
 40
0.0
 40
0.0
 40
0.0
 40
0.0
 40
0.0312499999999997
 40
0.0312499999999997
 40
0.0624999999999995
 40
0.0624999999999995
 40
0.1249999999999996
 40
0.1249999999999996
 40
0.2500000000000005
 40
0.2500000000000005
 40
0.3475050463755077
 40
0.3475050463755077
 40
0.3475050463755077
 40
0.3475050463755077
 10
33.93732144502189
 20
275.4207671917474
 30
0.0
 10
33.62263998686704
 20
275.4207671917474
 30
0.0
 10
33.3532337140532
 20
275.47330025254
 30
0.0
 10
32.95260302886825
 20
275.5909298400032
 30
0.0
 10
32.79912455872957
 20
275.6597417404159
 30
0.0
 10
32.40912965848984
 20
275.8703244632098
 30
0.0
 10
32.23359846114627
 20
276.0229635349152
 30
0.0
 10
31.82345507045916
 20
276.4870290636852
 30
0.0
 10
31.70524881850979
 20
276.8089077149352
 30
0.0
 10
31.67638374033429
 20
277.4044858342227
 30
0.0
 10
31.72674017130225
 20
277.6739277790459
 30
0.0
 10
31.87497836081603
 20
277.9449800359673
 30
0.0
  0
SPLINE
  5
157
330
14C
100
AcDbEntity
  8
$DDT_AUDIT_GENERATED_(6B)
  6
Continuous
 62
     7
100
AcDbSpline
210
0.0
220
0.0
230
1.0
 70
     8
 71
     3
 72
    16
 73
    12
 74
     0
 42
0.0000000008684679
 43
0.0000000001
 40
0.6529797544029812
 40
0.6529797544029812
 40
0.6529797544029812
 40
0.6529797544029812
 40
0.7500000000000001
 40
0.7500000000000001
 40
0.8749999999999997
 40
0.8749999999999997
 40
0.9374999999999999
 40
0.9374999999999999
 40
0.9687499999999999
 40
0.9687499999999999
 40
1.0
 40
1.0
 40
1.0
 40
1.0
 10
35.99813273386324
 20
277.9478422566081
 30
0.0
 10
36.14643152481021
 20
277.6778153854997
 30
0.0
 10
36.19728756111774
 20
277.4093231067062
 30
0.0
 10
36.17127100495988
 20
276.8162993070964
 30
0.0
 10
36.05438291984385
 20
276.4912878969467
 30
0.0
 10
35.64131007162752
 20
276.0229444388691
 30
0.0
 10
35.46620577034935
 20
275.8705101531215
 30
0.0
 10
35.07344893974888
 20
275.6587190945949
 30
0.0
 10
34.9195214970167
 20
275.5899599353712
 30
0.0
 10
34.51850508035572
 20
275.4726812017292
 30
0.0
 10
34.25200290317674
 20
275.4207671917474
 30
0.0
 10
33.93732144502189
 20
275.4207671917474
 30
0.0
  0
LINE
  5
158
330
14C
100
AcDbEntity
  8
$DDT_AUDIT_GENERATED_(6B)
  6
Continuous
 62
     7
100
AcDbLine
 10
31.8953891781
 20
276.9575607128
 30
0.0
 11
31.937321445
 21
277.0241618355
 31
0.0
  0
LINE
  5
159
330
14C
100
AcDbEntity
  8
$DDT_AUDIT_GENERATED_(6B)
  6
Continuous
 62
     7
100
AcDbLine
 10
35.937321445
 20
277.0241618355
 30
0.0
 11
35.9792537119
 21
276.9575607128
 31
0.0
  0
ELLIPSE
  5
15A
330
14C
100
AcDbEntity
  8
$DDT_AUDIT_GENERATED_(6B)
  6
Continuous
 62
     7
100
AcDbEllipse
 10
33.937321445
 20
276.2178071009
 30
0.0
 11
2.249322078179521
 21
-0.06855172939369435
 31
0.0
210
0.0
220
0.0
230
1.0
 40
0.8056472676
 41
0.3073514753036381
 42
0.4579905830305743
  0
ELLIPSE
  5
15B
330
14C
100
AcDbEntity
  8
$DDT_AUDIT_GENERATED_(6B)
  6
Continuous
 62
     7
100
AcDbEllipse
 10
33.937321445
 20
276.2178071009
 30
0.0
 11
-2.249322078144662
 21
-0.06855172942047219
 31
0.0
210
0.0
220
0.0
230
1.0
 40
0.8056472676
 41
5.825194724135447
 42
5.982990282912874
  0
SPLINE
  5
15C
330
14C
100
AcDbEntity
  8
$DDT_AUDIT_GENERATED_(6B)
  6
Continuous
 62
     7
100
AcDbSpline
210
0.0
220
0.0
230
1.0
 70
     8
 71
     3
 72
     8
 73
     4
 74
     0
 42
0.0000000011068231
 43
0.0000000001
 40
0.2857227488026468
 40
0.2857227488026468
 40
0.2857227488026468
 40
0.2857227488026468
 40
0.3587024759267482
 40
0.3587024759267482
 40
0.3587024759267482
 40
0.3587024759267482
 10
31.70194055261627
 20
276.9696582625483
 30
0.0
 10
31.7303691115588
 20
277.1696372245247
 30
0.0
 10
31.8015412915746
 20
277.3733212721863
 30
0.0
 10
31.93049557358946
 20
277.5776423973715
 30
0.0
  0
SPLINE
  5
15D
330
14C
100
AcDbEntity
  8
$DDT_AUDIT_GENERATED_(6B)
  6
Continuous
 62
     7
100
AcDbSpline
210
0.0
220
0.0
230
1.0
 70
     8
 71
     3
 72
     8
 73
     4
 74
     0
 42
0.0000000011113197
 43
0.0000000001
 40
0.6405498212879731
 40
0.6405498212879731
 40
0.6405498212879731
 40
0.6405498212879731
 40
0.7149467528856271
 40
0.7149467528856271
 40
0.7149467528856271
 40
0.7149467528856271
 10
35.94257106168923
 20
277.5801294958289
 30
0.0
 10
36.07433288415341
 20
277.3721960220641
 30
0.0
 10
36.14595888977229
 20
277.1655799615597
 30
0.0
 10
36.17373568432401
 20
276.9628720677146
 30
0.0
  0
LINE
  5
15E
330
14C
100
AcDbEntity
  8
$DDT_AUDIT_GENERATED_(6B)
  6
Continuous
 62
     7
100
AcDbLine
 10
7.8542597763
 20
252.6896211419
 30
0.0
 11
7.8542597763
 21
244.6668558821
 31
0.0
  0
SPLINE
  5
15F
330
14C
100
AcDbEntity
  8
$DDT_AUDIT_GENERATED_(6B)
  6
Continuous
 62
     7
100
AcDbSpline
210
0.0
220
0.0
230
1.0
 70
     8
 71
     3
 72
    45
 73
    41
 74
     0
 42
0.0000000000786041
 43
0.0000000001
 40
0.1446382333344259
 40
0.1446382333344259
 40
0.1446382333344259
 40
0.1446382333344259
 40
0.1506577490518438
 40
0.161911061138326
 40
0.1829257683323704
 40
0.2039892249609062
 40
0.2250666090612166
 40
0.2480343462745561
 40
0.270932638925917
 40
0.2937235219238339
 40
0.3159460630519703
 40
0.336918490631859
 40
0.3566690506899642
 40
0.3752283378080389
 40
0.391215831362999
 40
0.4062388933985667
 40
0.4203104518862356
 40
0.4334408755848891
 40
0.4456381741258146
 40
0.4574411556532404
 40
0.4763944629935121
 40
0.4964897507992779
 40
0.5177281010914561
 40
0.5401134468572563
 40
0.5636530450342256
 40
0.5879063782331685
 40
0.6132977068086517
 40
0.6398452841810173
 40
0.6675753656121093
 40
0.692270726628934
 40
0.7182051371097526
 40
0.7454049988532334
 40
0.7586748039569404
 40
0.7722384420211366
 40
0.7860992221247497
 40
0.8002546120049191
 40
0.8147106000763283
 40
0.8251662360748298
 40
0.8357746829256386
 40
0.8390333247209357
 40
0.8390333247209357
 40
0.8390333247209357
 40
0.8390333247209357
 10
8.306776017608708
 20
228.0667781933045
 30
0.0
 10
8.317461506373819
 20
227.826797855598
 30
0.0
 10
8.348444390369334
 20
227.1354659576429
 30
0.0
 10
8.419106007396222
 20
225.5880689275006
 30
0.0
 10
8.52261779547241
 20
223.400689380273
 30
0.0
 10
8.652825440625282
 20
220.7788398108193
 30
0.0
 10
8.794824425220012
 20
218.0530821705044
 30
0.0
 10
8.949119001347913
 20
215.2334959473698
 30
0.0
 10
9.116281682891396
 20
212.3292646111583
 30
0.0
 10
9.290312983700495
 20
209.4475013181033
 30
0.0
 10
9.468684497394422
 20
206.6431623256432
 30
0.0
 10
9.646556860015435
 20
203.9669597672372
 30
0.0
 10
9.820850318058957
 20
201.4459570739094
 30
0.0
 10
9.985973030225068
 20
199.1370094333463
 30
0.0
 10
10.14089519201645
 20
197.029491403347
 30
0.0
 10
10.28489760122839
 20
195.1133701381935
 30
0.0
 10
10.42224236166618
 20
193.3194145879527
 30
0.0
 10
10.55239460103072
 20
191.6463074009478
 30
0.0
 10
10.67649828696323
 20
190.0705632280018
 30
0.0
 10
10.82218884922924
 20
188.2486483817419
 30
0.0
 10
10.99996112212776
 20
186.0916379064911
 30
0.0
 10
11.21779220966486
 20
183.5350809120933
 30
0.0
 10
11.45597379944577
 20
180.8338198865557
 30
0.0
 10
11.71563198547037
 20
177.9873554011609
 30
0.0
 10
11.99628361300519
 20
175.0139506550067
 30
0.0
 10
12.29898407939186
 20
171.9141580591741
 30
0.0
 10
12.62484952885917
 20
168.6880246869126
 30
0.0
 10
12.97735669715267
 20
165.3158238602596
 30
0.0
 10
13.33894680734544
 20
161.974210178355
 30
0.0
 10
13.70978968128502
 20
158.6596466931665
 30
0.0
 10
14.08849034473914
 20
155.3684000856223
 30
0.0
 10
14.42540483919193
 20
152.5614533264033
 30
0.0
 10
14.70084773626476
 20
150.2774026847348
 30
0.0
 10
14.93128092673778
 20
148.5591916746986
 30
0.0
 10
15.26993305694519
 20
146.8195361067137
 30
0.0
 10
15.67938845402494
 20
145.0564490946838
 30
0.0
 10
16.09853348154967
 20
143.4435289732114
 30
0.0
 10
16.58570351004149
 20
142.0075402816073
 30
0.0
 10
16.9842308494712
 20
141.0479349106833
 30
0.0
 10
17.23569124411316
 20
140.511609678499
 30
0.0
 10
17.29610860456111
 20
140.3862019480129
 30
0.0
  0
LINE
  5
160
330
14C
100
AcDbEntity
  8
$DDT_AUDIT_GENERATED_(6B)
  6
Continuous
 62
     7
100
AcDbLine
 10
7.8543612471
 20
252.7204513328
 30
0.0
 11
7.8542712462
 21
252.6828583199
 31
0.0
  0
ARC
  5
161
330
14C
100
AcDbEntity
  8
$DDT_AUDIT_GENERATED_(6B)
  6
Continuous
 62
     7
100
AcDbCircle
 10
-105.26017713
 20
258.5254531794
 30
0.0
 40
113.2633958465555
100
AcDbArc
 50
357.0857872393
 51
1.9440465856
  0
LINE
  5
162
330
14C
100
AcDbEntity
  8
$DDT_AUDIT_GENERATED_(6B)
  6
Continuous
 62
     7
100
AcDbLine
 10
60.0203831138
 20
244.6981188147
 30
0.0
 11
60.0203831138
 21
252.6896209938
 31
0.0
  0
SPLINE
  5
163
330
14C
100
AcDbEntity
  8
$DDT_AUDIT_GENERATED_(6B)
  6
Continuous
 62
     7
100
AcDbSpline
210
0.0
220
0.0
230
1.0
 70
     8
 71
     3
 72
    50
 73
    46
 74
     0
 42
0.0000000000786025
 43
0.0000000001
 40
0.1611064059454258
 40
0.1611064059454258
 40
0.1611064059454258
 40
0.1611064059454258
 40
0.1642253774945229
 40
0.174833828248287
 40
0.1852894680935231
 40
0.2025620335271928
 40
0.2194067925602081
 40
0.2358272202254927
 40
0.2518242598503534
 40
0.2674073736129882
 40
0.2871975690502087
 40
0.3062994663618467
 40
0.3247236616432868
 40
0.3484016985380067
 40
0.371202927474047
 40
0.3931793681932138
 40
0.4143435560766107
 40
0.4384941989782629
 40
0.4615219968129637
 40
0.4834370230559485
 40
0.5042459411066733
 40
0.5239523458183918
 40
0.5425571934023949
 40
0.5538278232898746
 40
0.5654101817277639
 40
0.577842182879331
 40
0.591130575208848
 40
0.6052840277962352
 40
0.6203133345268983
 40
0.6362314476960219
 40
0.6530539542077084
 40
0.6716679427023691
 40
0.6913209986211472
 40
0.7119608139449367
 40
0.7328756749771136
 40
0.7538762062681348
 40
0.7749321461565865
 40
0.7864289666148423
 40
0.7979262091337499
 40
0.8094182891910824
 40
0.8209007497038872
 40
0.8323665322884729
 40
0.8438044644171196
 40
0.8546315478490034
 40
0.8551647543634558
 40
0.8551647543634558
 40
0.8551647543634558
 40
0.8551647543634558
 10
50.58629089633872
 20
140.4023330958868
 30
0.0
 10
50.6440103293728
 20
140.5224165340664
 30
0.0
 10
50.89270257348616
 20
141.0534445047133
 30
0.0
 10
51.28900228906156
 20
142.0075132894555
 30
0.0
 10
51.81444492061193
 20
143.5575224379978
 30
0.0
 10
52.27980930676082
 20
145.4011438829274
 30
0.0
 10
52.75634840005151
 20
147.5017606792433
 30
0.0
 10
53.09381521620307
 20
149.574149139365
 30
0.0
 10
53.3313245060235
 20
151.6043058301579
 30
0.0
 10
53.59742338321151
 20
153.7751868416198
 30
0.0
 10
53.86710053251162
 20
156.0785176926931
 30
0.0
 10
54.14637214878956
 20
158.5022456589996
 30
0.0
 10
54.43735485532648
 20
161.0910210398446
 30
0.0
 10
54.73823250553045
 20
163.8369628818037
 30
0.0
 10
55.04642185533552
 20
166.7340345705591
 30
0.0
 10
55.33489318858718
 20
169.525514744163
 30
0.0
 10
55.6210295052658
 20
172.3749271652594
 30
0.0
 10
55.90284513993183
 20
175.2697308226167
 30
0.0
 10
56.17840417668319
 20
178.1972429840822
 30
0.0
 10
56.43206721151833
 20
180.9839296193416
 30
0.0
 10
56.66507700777521
 20
183.6305978429255
 30
0.0
 10
56.87849927345975
 20
186.1376956585407
 30
0.0
 10
57.0517707144921
 20
188.2408441338693
 30
0.0
 10
57.19247877292145
 20
189.9993275507364
 30
0.0
 10
57.31049396519231
 20
191.4966612271934
 30
0.0
 10
57.43391588462642
 20
193.0806396418606
 30
0.0
 10
57.56394993201883
 20
194.7745772151366
 30
0.0
 10
57.70015405723534
 20
196.5795840167358
 30
0.0
 10
57.84193167814407
 20
198.4969665999701
 30
0.0
 10
57.98858051712571
 20
200.5282429057855
 30
0.0
 10
58.14191713845103
 20
202.7121199622518
 30
0.0
 10
58.30108761570449
 20
205.0546806142002
 30
0.0
 10
58.46489498033115
 20
207.5587915644816
 30
0.0
 10
58.62792539479539
 20
210.1594172559759
 30
0.0
 10
58.78650687353419
 20
212.8122420364051
 30
0.0
 10
58.9388153796837
 20
215.4746957193905
 30
0.0
 10
59.06195881787013
 20
217.7297311247923
 30
0.0
 10
59.15921343804297
 20
219.5762197539753
 30
0.0
 10
59.23311538310785
 20
221.0161865766441
 30
0.0
 10
59.30474295114178
 20
222.4486447684287
 30
0.0
 10
59.37404003213141
 20
223.8715391175234
 30
0.0
 10
59.44095394648397
 20
225.2818600153456
 30
0.0
 10
59.50433030926937
 20
226.6524712378504
 30
0.0
 10
59.54566030074474
 20
227.5685219773408
 30
0.0
 10
59.56585880263325
 20
228.0216986510564
 30
0.0
 10
59.56680596433063
 20
228.0429616041301
 30
0.0
  0
ARC
  5
164
330
14C
100
AcDbEntity
  8
$DDT_AUDIT_GENERATED_(6B)
  6
Continuous
 62
     7
100
AcDbCircle
 10
188.1752036353
 20
258.6339706627
 30
0.0
 40
128.2929331680875
100
AcDbArc
 50
182.4530528972
 51
182.6587280544
  0
ARC
  5
165
330
14C
100
AcDbEntity
  8
$DDT_AUDIT_GENERATED_(6B)
  6
Continuous
 62
     7
100
AcDbCircle
 10
188.1752036353
 20
258.6339706627
 30
0.0
 40
128.2929331680875
100
AcDbArc
 50
178.3322566227
 51
181.4663793575
  0
ARC
  5
166
330
14C
100
AcDbEntity
  8
$DDT_AUDIT_GENERATED_(6B)
  6
Continuous
 62
     7
100
AcDbCircle
 10
33.9960633955
 20
261.6928357314
 30
0.0
 40
15.44523142164947
100
AcDbArc
 50
97.6954995577
 51
97.8406432767
  0
ARC
  5
167
330
14C
100
AcDbEntity
  8
$DDT_AUDIT_GENERATED_(6B)
  6
Continuous
 62
     7
100
AcDbCircle
 10
33.9960633955
 20
261.6928357314
 30
0.0
 40
15.44523142164947
100
AcDbArc
 50
82.5209244302
 51
82.738571801
  0
SPLINE
  5
168
330
14C
100
AcDbEntity
  8
$DDT_AUDIT_GENERATED_(D3)
  6
Continuous
 62
     7
100
AcDbSpline
210
0.0
220
0.0
230
1.0
 70
     8
 71
     3
 72
     8
 73
     4
 74
     0
 42
0.0000000000992793
 43
0.0000000001
 40
0.9090658381064849
 40
0.9090658381064849
 40
0.9090658381064849
 40
0.9090658381064849
 40
0.9097953493891209
 40
0.9097953493891209
 40
0.9097953493891209
 40
0.9097953493891209
 10
8.029030735721172
 20
230.2295018203287
 30
0.0
 10
8.023482687696701
 20
230.2533985442328
 30
0.0
 10
8.017948451521972
 20
230.2772588235922
 30
0.0
 10
8.012427943955146
 20
230.3010822967843
 30
0.0
  0
SPLINE
  5
169
330
14C
100
AcDbEntity
  8
$DDT_AUDIT_GENERATED_(D3)
  6
Continuous
 62
     7
100
AcDbSpline
210
0.0
220
0.0
230
1.0
 70
     8
 71
     3
 72
     8
 73
     4
 74
     0
 42
0.0000000001213378
 43
0.0000000001
 40
0.8882715805377389
 40
0.8882715805377389
 40
0.8882715805377389
 40
0.8882715805377389
 40
0.8897131099182134
 40
0.8897131099182134
 40
0.8897131099182134
 40
0.8897131099182134
 10
59.84222063653647
 20
230.1821489087381
 30
0.0
 10
59.8512119684321
 20
230.2208226136094
 30
0.0
 10
59.8601666075624
 20
230.2593982849244
 30
0.0
 10
59.8690850129208
 20
230.2978746397137
 30
0.0
  0
ARC
  5
16A
330
14C
100
AcDbEntity
  8
$DDT_AUDIT_GENERATED_(D3)
  6
Continuous
 62
     7
100
AcDbCircle
 10
55.9949012226
 20
237.5141372815
 30
0.0
 40
5.518420868766657
100
AcDbArc
 50
354.4972496058
 51
4.708879125
  0
ARC
  5
16B
330
14C
100
AcDbEntity
  8
$DDT_AUDIT_GENERATED_(D3)
  6
Continuous
 62
     7
100
AcDbCircle
 10
33.9411000757
 20
238.162073899
 30
0.0
 40
27.57192947079884
100
AcDbArc
 50
182.4468503958
 51
204.4832793009
  0
ARC
  5
16C
330
14C
100
AcDbEntity
  8
$DDT_AUDIT_GENERATED_(D3)
  6
Continuous
 62
     7
100
AcDbCircle
 10
33.9411000757
 20
238.162073899
 30
0.0
 40
27.57192947079884
100
AcDbArc
 50
335.515658889
 51
357.5531502223
  0
ARC
  5
16D
330
14C
100
AcDbEntity
  8
$DDT_AUDIT_GENERATED_(D3)
  6
Continuous
 62
     7
100
AcDbCircle
 10
129.4832582025
 20
134.3568599065
 30
0.0
 40
111.9900564571447
100
AcDbArc
 50
181.8967567213
 51
183.4234188095
  0
ARC
  5
16E
330
14C
100
AcDbEntity
  8
$DDT_AUDIT_GENERATED_(D3)
  6
Continuous
 62
     7
100
AcDbCircle
 10
-83.6946865611
 20
135.7624722878
 30
0.0
 40
134.1206410815612
100
AcDbArc
 50
356.5406931505
 51
357.7923625721
  0
SPLINE
  5
16F
330
14C
100
AcDbEntity
  8
$DDT_AUDIT_GENERATED_(D3)
  6
Continuous
 62
     7
100
AcDbSpline
210
0.0
220
0.0
230
1.0
 70
     8
 71
     3
 72
    70
 73
    66
 74
     0
 42
0.0000000001655189
 43
0.0000000001
 40
0.0
 40
0.0
 40
0.0
 40
0.0
 40
0.0109836880351434
 40
0.0274435841931253
 40
0.0416429475767136
 40
0.0558069653856548
 40
0.0724147594845302
 40
0.0908227954181283
 40
0.1109400148726138
 40
0.1294676494211101
 40
0.1492417331946304
 40
0.1702976887122841
 40
0.1925431315577869
 40
0.214296192982055
 40
0.2346491957210935
 40
0.2537685378273415
 40
0.2715938138606653
 40
0.2900145186724468
 40
0.3068139539760378
 40
0.32202462067372
 40
0.3356172893427579
 40
0.3428280449600996
 40
0.3487641433858777
 40
0.3534303428407169
 40
0.3569473340215018
 40
0.3612928259006045
 40
0.3680823377104943
 40
0.3768343967814631
 40
0.3875254752787508
 40
0.4001299604202287
 40
0.4147142779214771
 40
0.4312466379723479
 40
0.4489389805696055
 40
0.4662338021434172
 40
0.4830288415415884
 40
0.4993045463319984
 40
0.5190485551338532
 40
0.5380158616437904
 40
0.556255767466734
 40
0.5737762146115578
 40
0.5906555467778121
 40
0.6065754731569212
 40
0.6200901557517013
 40
0.6309858361706917
 40
0.6374237935767285
 40
0.6423952337869502
 40
0.6476087239153279
 40
0.6545180922612949
 40
0.6631240448231062
 40
0.6734065520231907
 40
0.6908008106488239
 40
0.7088721325415639
 40
0.7277515057034082
 40
0.7500725886621604
 40
0.7733630126810395
 40
0.7970358715606694
 40
0.8206166619201973
 40
0.8439880957789941
 40
0.8671473637904825
 40
0.8901932486482368
 40
0.9130242100652969
 40
0.9360622455082295
 40
0.9595366438520804
 40
0.9834478408958108
 40
1.0
 40
1.0
 40
1.0
 40
1.0
 10
17.69328903115824
 20
127.6670368445501
 30
0.0
 10
17.71148542164281
 20
127.4247948796456
 30
0.0
 10
17.74999271298253
 20
126.9122130649707
 30
0.0
 10
17.81444566881978
 20
126.0575397228191
 30
0.0
 10
17.8819411905075
 20
125.1640369762165
 30
0.0
 10
17.95045070505415
 20
124.2611630776878
 30
0.0
 10
18.02618313960087
 20
123.2759300471726
 30
0.0
 10
18.10734412612407
 20
122.170772506285
 30
0.0
 10
18.1998246588725
 20
121.0276549705903
 30
0.0
 10
18.37188602427338
 20
119.86538879832
 30
0.0
 10
18.62761592171901
 20
118.6993621254303
 30
0.0
 10
18.98271566932682
 20
117.4813479162846
 30
0.0
 10
19.44322078898626
 20
116.2560784181601
 30
0.0
 10
19.99116559602995
 20
115.0827175080255
 30
0.0
 10
20.59465492503196
 20
114.0083559984363
 30
0.0
 10
21.22959570104851
 20
113.0454696879721
 30
0.0
 10
21.90432779530024
 20
112.1582398880899
 30
0.0
 10
22.60651661254306
 20
111.3531160602232
 30
0.0
 10
23.3227821285076
 20
110.6328720020757
 30
0.0
 10
24.00862276904451
 20
110.0217213174283
 30
0.0
 10
24.57576787030186
 20
109.5691993718269
 30
0.0
 10
25.00978970060849
 20
109.2502683186357
 30
0.0
 10
25.30422945683311
 20
109.0451633442165
 30
0.0
 10
25.54090143624513
 20
108.887383802166
 30
0.0
 10
25.7531046037951
 20
108.7507022909127
 30
0.0
 10
26.00370444937379
 20
108.5946151317389
 30
0.0
 10
26.34838378270441
 20
108.3900840219261
 30
0.0
 10
26.8110628191783
 20
108.134057336288
 30
0.0
 10
27.38781076410185
 20
107.8426858631978
 30
0.0
 10
28.08472105936486
 20
107.5296432366519
 30
0.0
 10
28.90761019959617
 20
107.2119813886209
 30
0.0
 10
29.8464773046813
 20
106.9138453520605
 30
0.0
 10
30.85697164244996
 20
106.6675870179752
 30
0.0
 10
31.88738444699825
 20
106.4908580512884
 30
0.0
 10
32.89908417753534
 20
106.387877007275
 30
0.0
 10
33.9647387584273
 20
106.3499999999999
 30
0.0
 10
35.07464685364961
 20
106.3907626815994
 30
0.0
 10
36.21724674894378
 20
106.5218756235173
 30
0.0
 10
37.30273162010236
 20
106.7287116439009
 30
0.0
 10
38.32968974661809
 20
107.0016466990029
 30
0.0
 10
39.29119380416881
 20
107.3284226268743
 30
0.0
 10
40.15456906639015
 20
107.6857522191087
 30
0.0
 10
40.88691372011936
 20
108.03958369383
 30
0.0
 10
41.43338417041738
 20
108.3364666096588
 30
0.0
 10
41.82090064535511
 20
108.5642610101994
 30
0.0
 10
42.1058587897144
 20
108.7402940541151
 30
0.0
 10
42.39527120406925
 20
108.9269895034813
 30
0.0
 10
42.7408276119568
 20
109.1614820573112
 30
0.0
 10
43.16194112316965
 20
109.4660249465291
 30
0.0
 10
43.73819865715691
 20
109.9154899246022
 30
0.0
 10
44.43445783608092
 20
110.5195355817508
 30
0.0
 10
45.21137104034813
 20
111.2906931848142
 30
0.0
 10
45.99884097434818
 20
112.1876791113637
 30
0.0
 10
46.77905944175241
 20
113.22594708207
 30
0.0
 10
47.52187379240995
 20
114.4065987854148
 30
0.0
 10
48.17400625380641
 20
115.6678743489759
 30
0.0
 10
48.71953291277695
 20
116.9803272064966
 30
0.0
 10
49.1511106789111
 20
118.3233599393639
 30
0.0
 10
49.47507955843187
 20
119.6852011623868
 30
0.0
 10
49.68155091737707
 20
121.0591557622355
 30
0.0
 10
49.78706534212202
 20
122.4401455458271
 30
0.0
 10
49.89101089621603
 20
123.8324010699828
 30
0.0
 10
49.99827601880176
 20
125.2354865042842
 30
0.0
 10
50.09699063596214
 20
126.5467268035636
 30
0.0
 10
50.15386381101897
 20
127.302220093796
 30
0.0
 10
50.18131876826941
 20
127.6672731261951
 30
0.0
  0
SPLINE
  5
170
330
14C
100
AcDbEntity
  8
$DDT_AUDIT_GENERATED_(D3)
  6
Continuous
 62
     7
100
AcDbSpline
210
0.0
220
0.0
230
1.0
 70
     8
 71
     3
 72
    85
 73
    81
 74
     0
 42
0.0000000000995696
 43
0.0000000001
 40
0.0
 40
0.0
 40
0.0
 40
0.0
 40
0.0060355964289503
 40
0.0125336297543741
 40
0.0194887577466674
 40
0.0262542744177209
 40
0.0314893693502336
 40
0.0351558401476101
 40
0.0377701067525969
 40
0.0407436030571852
 40
0.0445255365512806
 40
0.049116965799056
 40
0.0553149462096688
 40
0.0625470156354699
 40
0.0708030016244078
 40
0.0796985862040917
 40
0.0884253514470068
 40
0.096921647251222
 40
0.1051936893368439
 40
0.1132717211392117
 40
0.1305961879476726
 40
0.1468740424453767
 40
0.1623747339105991
 40
0.1786122264569354
 40
0.1967202135898996
 40
0.2159877718149215
 40
0.2363645259950292
 40
0.245611240104213
 40
0.2534157068081366
 40
0.2597753914095493
 40
0.2647050500378709
 40
0.2682060652428223
 40
0.2707172571350124
 40
0.2740427072970393
 40
0.2783431670395324
 40
0.2836150213147107
 40
0.292706676658401
 40
0.3024691457376468
 40
0.3125660196164518
 40
0.3229857689811942
 40
0.3337847078740236
 40
0.3539795528181813
 40
0.3753353655427749
 40
0.3977817996930719
 40
0.420177107076953
 40
0.4422541477936764
 40
0.4773128365890655
 40
0.5119041778278346
 40
0.5456431811086221
 40
0.5793164384150546
 40
0.613900930046605
 40
0.6494150747843065
 40
0.6857955780470021
 40
0.6976950171216013
 40
0.7085670504299487
 40
0.7182838164369935
 40
0.7268492553541452
 40
0.7342720090800684
 40
0.740556676422358
 40
0.7441487424808471
 40
0.7472585000743377
 40
0.7500838596500928
 40
0.7526573020649436
 40
0.7550533794387506
 40
0.758355176737012
 40
0.7629178419595033
 40
0.7696302717727002
 40
0.7779606454597371
 40
0.7879018639601512
 40
0.7994557631855891
 40
0.8126323311315912
 40
0.827434101145706
 40
0.8438485376941275
 40
0.8618614536900997
 40
0.8814641291464204
 40
0.902678867950924
 40
0.9255103976776641
 40
0.9499148349224962
 40
0.9759097983025059
 40
1.0
 40
1.0
 40
1.0
 40
1.0
 10
8.012803835962409
 20
230.2991538324744
 30
0.0
 10
8.041223918838089
 20
230.1837375321604
 30
0.0
 10
8.091487463948145
 20
229.9795233796592
 30
0.0
 10
8.186785940813003
 20
229.5712767163815
 30
0.0
 10
8.292759615769887
 20
229.1168966927622
 30
0.0
 10
8.401130022230866
 20
228.6582455324829
 30
0.0
 10
8.492000236180829
 20
228.2777707360135
 30
0.0
 10
8.560292021736412
 20
227.9940757039287
 30
0.0
 10
8.616565572471272
 20
227.7615896422795
 30
0.0
 10
8.674431657405938
 20
227.5236811334178
 30
0.0
 10
8.745453554705032
 20
227.2333373175295
 30
0.0
 10
8.838221799894542
 20
226.8567112167551
 30
0.0
 10
8.95523331263853
 20
226.3853118907581
 30
0.0
 10
9.09909874689152
 20
225.8099347967351
 30
0.0
 10
9.264315145005863
 20
225.1528074006756
 30
0.0
 10
9.443648050702667
 20
224.4425988351952
 30
0.0
 10
9.62862131695268
 20
223.7117695150251
 30
0.0
 10
9.812543373335632
 20
222.9849129815299
 30
0.0
 10
9.994728818534877
 20
222.2635673787297
 30
0.0
 10
10.24516876588353
 20
221.2693236413766
 30
0.0
 10
10.56096523974509
 20
220.006970662926
 30
0.0
 10
10.93942457282997
 20
218.47775105222
 30
0.0
 10
11.31178000459023
 20
216.9509763972073
 30
0.0
 10
11.69745337372578
 20
215.3404664548228
 30
0.0
 10
12.10558151351002
 20
213.5840423436884
 30
0.0
 10
12.52868845283934
 20
211.6690033267611
 30
0.0
 10
12.86684308791999
 20
210.0304126860552
 30
0.0
 10
13.11184297575831
 20
208.767725725702
 30
0.0
 10
13.25993620098633
 20
207.9751825671667
 30
0.0
 10
13.37712915548663
 20
207.3270293077603
 30
0.0
 10
13.46571710377503
 20
206.8239302974844
 30
0.0
 10
13.53005631914913
 20
206.4511933500457
 30
0.0
 10
13.58424213105658
 20
206.1326898712816
 30
0.0
 10
13.64228485380007
 20
205.7865805772384
 30
0.0
 10
13.71480761911851
 20
205.3457168522239
 30
0.0
 10
13.81730778235938
 20
204.7069164901801
 30
0.0
 10
13.94467630547174
 20
203.8796141448979
 30
0.0
 10
14.08826701076726
 20
202.8846904729912
 30
0.0
 10
14.2275180959149
 20
201.8419180483556
 30
0.0
 10
14.35930188324132
 20
200.7613330250854
 30
0.0
 10
14.51775332398018
 20
199.3299717498542
 30
0.0
 10
14.69015057942591
 20
197.5172346769344
 30
0.0
 10
14.87099052149403
 20
195.2993516077849
 30
0.0
 10
15.03291816070527
 20
193.0051724402005
 30
0.0
 10
15.18129452459127
 20
190.6873207662705
 30
0.0
 10
15.34520059455983
 20
187.9347334122626
 30
0.0
 10
15.5205655458881
 20
184.7634775615915
 30
0.0
 10
15.71206343492925
 20
181.1933854917143
 30
0.0
 10
15.89574659016247
 20
177.675001030062
 30
0.0
 10
16.07209487703541
 20
174.1550769818142
 30
0.0
 10
16.24267277531576
 20
170.5734208967194
 30
0.0
 10
16.40478787310278
 20
166.8979695801082
 30
0.0
 10
16.52270252523678
 20
164.0053916473275
 30
0.0
 10
16.60221752467351
 20
161.9634007775858
 30
0.0
 10
16.64497353859042
 20
160.8419022521217
 30
0.0
 10
16.68263617468542
 20
159.8355227069931
 30
0.0
 10
16.71531070964041
 20
158.9482435252951
 30
0.0
 10
16.74323122832271
 20
158.1794719235455
 30
0.0
 10
16.76466362761971
 20
157.5824033271899
 30
0.0
 10
16.78061821224929
 20
157.1342290450451
 30
0.0
 10
16.79225631808522
 20
156.8054715752397
 30
0.0
 10
16.80259827267747
 20
156.5118747782417
 30
0.0
 10
16.81202967566534
 20
156.2429176082758
 30
0.0
 10
16.82199561193732
 20
155.9575351871261
 30
0.0
 10
16.8342976115339
 20
155.6035824573655
 30
0.0
 10
16.85165991237699
 20
155.1007627204451
 30
0.0
 10
16.87479303146478
 20
154.4245232481641
 30
0.0
 10
16.90390385139377
 20
153.5627976768904
 30
0.0
 10
16.93812997295817
 20
152.5341188641928
 30
0.0
 10
16.97722476492677
 20
151.3383315781282
 30
0.0
 10
17.02093294201553
 20
149.9749493525689
 30
0.0
 10
17.06897906561028
 20
148.4439874004584
 30
0.0
 10
17.12107999376301
 20
146.746278711045
 30
0.0
 10
17.17689537318754
 20
144.8831258746277
 30
0.0
 10
17.23608397923465
 20
142.8542775185946
 30
0.0
 10
17.29820608204675
 20
140.6603121175265
 30
0.0
 10
17.36310025691402
 20
138.2968212709749
 30
0.0
 10
17.43020098410445
 20
135.7853062993208
 30
0.0
 10
17.49672618879051
 20
133.1643656655771
 30
0.0
 10
17.53348909527379
 20
131.562396133747
 30
0.0
 10
17.55436839246318
 20
130.648745646899
 30
0.0
  0
SPLINE
  5
171
330
14C
100
AcDbEntity
  8
$DDT_AUDIT_GENERATED_(D3)
  6
Continuous
 62
     7
100
AcDbSpline
210
0.0
220
0.0
230
1.0
 70
     8
 71
     3
 72
    91
 73
    87
 74
     0
 42
0.0000000000995161
 43
0.0000000001
 40
0.0
 40
0.0
 40
0.0
 40
0.0
 40
0.0166514367160558
 40
0.0353294664705824
 40
0.0525902093600561
 40
0.0684298698806999
 40
0.0828571500639346
 40
0.093197956966023
 40
0.1026554846418347
 40
0.1112257186426981
 40
0.118909772590135
 40
0.1259418697497963
 40
0.1422083656393767
 40
0.1594686634382199
 40
0.1777221071246434
 40
0.1969538179150451
 40
0.2094219976669963
 40
0.2206301588727352
 40
0.2305853654065174
 40
0.239282112311559
 40
0.2469315110072086
 40
0.2541655195951855
 40
0.2597968351079499
 40
0.2662762980684438
 40
0.2736987536458903
 40
0.2820687002025341
 40
0.2913938900157728
 40
0.3012858180380711
 40
0.3305825615001105
 40
0.358613661785176
 40
0.3856776053188818
 40
0.4124058706983323
 40
0.4388316942521689
 40
0.465137138326422
 40
0.4914697284781929
 40
0.5178218936493223
 40
0.5443005529724908
 40
0.5708638487451149
 40
0.5977213379302755
 40
0.625812069930255
 40
0.6551899892779455
 40
0.6660804180470478
 40
0.6767314319362916
 40
0.6871326505871944
 40
0.6973395573798427
 40
0.7073450180245241
 40
0.716938503163331
 40
0.7223435687263244
 40
0.726698332687173
 40
0.7299990226301669
 40
0.732857246965912
 40
0.7367891136056314
 40
0.7418622464339429
 40
0.7480810155576949
 40
0.7576121227235685
 40
0.7680797483262136
 40
0.7785235625208181
 40
0.7889823265083096
 40
0.7994368949260006
 40
0.8098756506897768
 40
0.8203057008345148
 40
0.8306117066059845
 40
0.8384927708264543
 40
0.8449560903194456
 40
0.8499969421855892
 40
0.8536139342353464
 40
0.8562394290154516
 40
0.8600115772656833
 40
0.8649450957687338
 40
0.8710390006331679
 40
0.8832844111025278
 40
0.89508811506819
 40
0.9062237257569548
 40
0.9167445292892692
 40
0.9270244125505115
 40
0.9375520619329072
 40
0.9466222009418721
 40
0.9557084727049616
 40
0.963748030070485
 40
0.970586331465093
 40
0.9738693009893055
 40
0.9771171880706552
 40
0.9810223886757424
 40
0.9859355223638184
 40
0.9922141767190995
 40
1.0
 40
1.0
 40
1.0
 40
1.0
 10
50.3264883582286
 20
130.5946303727635
 30
0.0
 10
50.34083765143367
 20
131.2263383049215
 30
0.0
 10
50.36662639091326
 20
132.3572364257964
 30
0.0
 10
50.41192757812027
 20
134.2089440186706
 30
0.0
 10
50.45758178725433
 20
135.9851671692753
 30
0.0
 10
50.50123168586779
 20
137.6267256661949
 30
0.0
 10
50.53923749988859
 20
139.0268920452649
 30
0.0
 10
50.57174680458431
 20
140.2075771890254
 30
0.0
 10
50.59905240655976
 20
141.1861527335067
 30
0.0
 10
50.6241237280444
 20
142.0731426139024
 30
0.0
 10
50.64710154655106
 20
142.8764924298323
 30
0.0
 10
50.67800036218696
 20
143.9454125562718
 30
0.0
 10
50.71912622556746
 20
145.344809778651
 30
0.0
 10
50.77288578830883
 20
147.1315229103094
 30
0.0
 10
50.83114742323086
 20
149.0206968112254
 30
0.0
 10
50.88578385925405
 20
150.7446245753021
 30
0.0
 10
50.93390435653952
 20
152.2254875768645
 30
0.0
 10
50.97235608441954
 20
153.3862432970071
 30
0.0
 10
51.00710632477605
 20
154.4168795889509
 30
0.0
 10
51.03820038674885
 20
155.3247308843719
 30
0.0
 10
51.06646240807675
 20
156.138710377451
 30
0.0
 10
51.09136000308364
 20
156.8469276892339
 30
0.0
 10
51.11509374331595
 20
157.5148100993562
 30
0.0
 10
51.1393069841385
 20
158.1892560151074
 30
0.0
 10
51.16724776773692
 20
158.9583042236203
 30
0.0
 10
51.19919693728789
 20
159.8256551212987
 30
0.0
 10
51.23484206638507
 20
160.7783136974504
 30
0.0
 10
51.29862539829423
 20
162.4536839628353
 30
0.0
 10
51.39023165573886
 20
164.775224708721
 30
0.0
 10
51.51210810404257
 20
167.6901717627967
 30
0.0
 10
51.6377601506666
 20
170.5166560565455
 30
0.0
 10
51.76855581447161
 20
173.287371446158
 30
0.0
 10
51.90387667112218
 20
176.0316978833768
 30
0.0
 10
52.04335468586339
 20
178.7614217426583
 30
0.0
 10
52.18674737312058
 20
181.4879396166038
 30
0.0
 10
52.33368723944285
 20
184.223209901707
 30
0.0
 10
52.4839580524084
 20
186.9685805624478
 30
0.0
 10
52.64308583340397
 20
189.7340440827727
 30
0.0
 10
52.81910004712201
 20
192.5579464952897
 30
0.0
 10
53.02249720413277
 20
195.4815906794959
 30
0.0
 10
53.22074381610111
 20
197.8519418511728
 30
0.0
 10
53.39625037116446
 20
199.6150860438056
 30
0.0
 10
53.51809125659295
 20
200.7197688922339
 30
0.0
 10
53.64918950813441
 20
201.7990795303823
 30
0.0
 10
53.78959464960978
 20
202.8540234006543
 30
0.0
 10
53.93727720281726
 20
203.8788938391898
 30
0.0
 10
54.06947955049419
 20
204.7366658399111
 30
0.0
 10
54.17607678427833
 20
205.399282885853
 30
0.0
 10
54.24975252205769
 20
205.8458414194453
 30
0.0
 10
54.31014667138594
 20
206.2049133289159
 30
0.0
 10
54.3689291792908
 20
206.5491667512272
 30
0.0
 10
54.43908451927987
 20
206.9533898594486
 30
0.0
 10
54.53090448388649
 20
207.4713174676143
 30
0.0
 10
54.65960164383721
 20
208.1782843363556
 30
0.0
 10
54.82713007547052
 20
209.0657232535093
 30
0.0
 10
55.02943632405978
 20
210.0918499520741
 30
0.0
 10
55.24587796781078
 20
211.1440269537071
 30
0.0
 10
55.46937008982523
 20
212.1902586536611
 30
0.0
 10
55.69925651575974
 20
213.2302631709689
 30
0.0
 10
55.93437542036425
 20
214.2626611021557
 30
0.0
 10
56.17250731486728
 20
215.2829062681283
 30
0.0
 10
56.39348549195389
 20
216.2119329126179
 30
0.0
 10
56.58472208905524
 20
217.0058383331671
 30
0.0
 10
56.7352632396028
 20
217.6257820387756
 30
0.0
 10
56.85263766783359
 20
218.1062071834885
 30
0.0
 10
56.94010630865932
 20
218.4626898131867
 30
0.0
 10
57.01751319940408
 20
218.7772604812659
 30
0.0
 10
57.10491132066424
 20
219.1314629650108
 30
0.0
 10
57.21872613593697
 20
219.5911761318231
 30
0.0
 10
57.39685159615009
 20
220.3080789462545
 30
0.0
 10
57.62549999980952
 20
221.2227384983568
 30
0.0
 10
57.8880535282368
 20
222.2657318617374
 30
0.0
 10
58.13274012660834
 20
223.2340951022325
 30
0.0
 10
58.3611219562024
 20
224.1362578869903
 30
0.0
 10
58.57962745222689
 20
225.0006826148643
 30
0.0
 10
58.78230823833254
 20
225.8063217821849
 30
0.0
 10
58.97149258619768
 20
226.5635692698044
 30
0.0
 10
59.13944725515933
 20
227.2431953373979
 30
0.0
 10
59.28591034175093
 20
227.8442944314047
 30
0.0
 10
59.39441083993102
 20
228.2952657859456
 30
0.0
 10
59.46701819456882
 20
228.6000789811836
 30
0.0
 10
59.51330841631007
 20
228.7972722081701
 30
0.0
 10
59.57530118252522
 20
229.0579167232129
 30
0.0
 10
59.65983270334605
 20
229.4149205667569
 30
0.0
 10
59.76225983866329
 20
229.84629519656
 30
0.0
 10
59.827000984657
 20
230.1200209222242
 30
0.0
 10
59.8693810641375
 20
230.2991519037437
 30
0.0
  0
ARC
  5
172
330
14C
100
AcDbEntity
  8
$DDT_AUDIT_GENERATED_(D3)
  6
Continuous
 62
     7
100
AcDbCircle
 10
11.4885986899
 20
237.5073376885
 30
0.0
 40
5.121837015980125
100
AcDbArc
 50
174.7224955713
 51
185.7705252041
  0
ARC
  5
173
330
14C
100
AcDbEntity
  8
$DDT_AUDIT_GENERATED_(D3)
  6
Continuous
 62
     7
100
AcDbCircle
 10
56.4543499355
 20
237.511285127
 30
0.0
 40
5.061874383695542
100
AcDbArc
 50
354.1160992875
 51
5.293468583
  0
ARC
  5
174
330
14C
100
AcDbEntity
  8
$DDT_AUDIT_GENERATED_(D3)
  6
Continuous
 62
     7
100
AcDbCircle
 10
33.9423156445
 20
236.3061958671
 30
0.0
 40
27.5993771061561
100
AcDbArc
 50
3.4743436578
 51
176.5262445975
  0
ELLIPSE
  5
175
330
14C
100
AcDbEntity
  8
$DDT_AUDIT_GENERATED_(EB)
  6
Continuous
 62
     7
100
AcDbEllipse
 10
33.937321445
 20
262.4636920064
 30
0.0
 11
-26.00000000000001
 21
3.469446951953614E-14
 31
0.0
210
0.0
220
0.0
230
1.0
 40
0.9612616959
 41
0.0
 42
0.0038511467555603
  0
ELLIPSE
  5
176
330
14C
100
AcDbEntity
  8
$DDT_AUDIT_GENERATED_(EB)
  6
Continuous
 62
     7
100
AcDbEllipse
 10
33.937321445
 20
262.4636920064
 30
0.0
 11
-26.00000000000001
 21
3.469446951953614E-14
 31
0.0
210
0.0
220
0.0
230
1.0
 40
0.9612616959
 41
3.128479757077381
 42
4.593546052359864
  0
ELLIPSE
  5
177
330
14C
100
AcDbEntity
  8
$DDT_AUDIT_GENERATED_(EB)
  6
Continuous
 62
     7
100
AcDbEllipse
 10
33.937321445
 20
262.4636920064
 30
0.0
 11
-26.00000000000001
 21
3.469446951953614E-14
 31
0.0
210
0.0
220
0.0
230
1.0
 40
0.9612616959
 41
4.83123413682611
 42
6.283185307179586
  0
ELLIPSE
  5
178
330
14C
100
AcDbEntity
  8
$DDT_AUDIT_GENERATED_(EB)
  6
Continuous
 62
     7
100
AcDbEllipse
 10
33.937321445
 20
277.6941388524
 30
0.0
 11
-1.346474674435835E-16
 21
-27.04778533240166
 31
0.0
210
0.0
220
0.0
230
1.0
 40
0.9612616959
 41
1.570796326794897
 42
4.71238898038469
  0
LINE
  5
179
330
14C
100
AcDbEntity
  8
$DDT_AUDIT_GENERATED_(EB)
  6
Continuous
 62
     7
100
AcDbLine
 10
59.937321445
 20
262.4636920064
 30
0.0
 11
59.937321445
 21
277.6941388524
 31
0.0
  0
LINE
  5
17A
330
14C
100
AcDbEntity
  8
$DDT_AUDIT_GENERATED_(EB)
  6
Continuous
 62
     7
100
AcDbLine
 10
7.937321445
 20
277.6941388524
 30
0.0
 11
7.937321445
 21
262.4636920064
 31
0.0
  0
ELLIPSE
  5
17B
330
14C
100
AcDbEntity
  8
$DDT_AUDIT_GENERATED_(140)
  6
Continuous
 62
     7
100
AcDbEllipse
 10
33.937321445
 20
284.06137058
 30
0.0
 11
-2.799999999999998
 21
-5.991040996633501E-11
 31
0.0
210
0.0
220
0.0
230
1.0
 40
0.1165327215
 41
0.0112902715121649
 42
3.141592653589793
  0
ELLIPSE
  5
17C
330
14C
100
AcDbEntity
  8
$DDT_AUDIT_GENERATED_(140)
  6
Continuous
 62
     7
100
AcDbEllipse
 10
33.937321445
 20
277.8960066819
 30
0.0
 11
1.999999999999988
 21
-3.273314778950986E-12
 31
0.0
210
0.0
220
0.0
230
1.0
 40
0.9975640503
 41
3.14159265358981
 42
6.051182016073485
  0
LINE
  5
17D
330
14C
100
AcDbEntity
  8
$DDT_AUDIT_GENERATED_(140)
  6
Continuous
 62
     7
100
AcDbLine
 10
30.4485857003
 20
291.9092197131
 30
0.0
 11
31.1374812269
 21
284.0579641941
 31
0.0
  0
LINE
  5
17E
330
14C
100
AcDbEntity
  8
$DDT_AUDIT_GENERATED_(140)
  6
Continuous
 62
     7
100
AcDbLine
 10
36.7371616631
 20
284.0579641942
 30
0.0
 11
37.4260386286
 21
291.9090081738
 31
0.0
  0
ARC
  5
17F
330
14C
100
AcDbEntity
  8
$DDT_AUDIT_GENERATED_(140)
  6
Continuous
 62
     7
100
AcDbCircle
 10
58.9554256392
 20
284.3544877167
 30
0.0
 40
27.81938238840738
100
AcDbArc
 50
180.6135894302
 51
195.0186134999
  0
ARC
  5
180
330
14C
100
AcDbEntity
  8
$DDT_AUDIT_GENERATED_(140)
  6
Continuous
 62
     7
100
AcDbCircle
 10
13.0334054084
 20
283.789736118
 30
0.0
 40
23.70510085456834
100
AcDbArc
 50
343.7228365889
 51
0.6449604811
  0
LINE
  5
181
330
14C
100
AcDbEntity
  8
$DDT_AUDIT_GENERATED_(140)
  6
Continuous
 62
     7
100
AcDbLine
 10
31.937321445
 20
277.6728249816
 30
0.0
 11
31.937321445
 21
276.3877659685
 31
0.0
  0
LINE
  5
182
330
14C
100
AcDbEntity
  8
$DDT_AUDIT_GENERATED_(140)
  6
Continuous
 62
     7
100
AcDbLine
 10
35.937321445
 20
276.4102098117
 30
0.0
 11
35.937321445
 21
277.6567372176
 31
0.0
  0
SPLINE
  5
183
330
14C
100
AcDbEntity
  8
$DDT_AUDIT_GENERATED_(140)
  6
Continuous
 62
     7
100
AcDbSpline
210
0.0
220
0.0
230
1.0
 70
     8
 71
     3
 72
    38
 73
    34
 74
     0
 42
0.0000000012448394
 43
0.0000000001
 40
0.0
 40
0.0
 40
0.0
 40
0.0
 40
0.0065987825149748
 40
0.0210315343471432
 40
0.0340366373417669
 40
0.0457589207892684
 40
0.0563193882111936
 40
0.0660507006891138
 40
0.0764195094289179
 40
0.0911664164218449
 40
0.1220635485560564
 40
0.1580923565744654
 40
0.1975829954080542
 40
0.244985994039295
 40
0.2965774701031331
 40
0.3532028299965975
 40
0.4119698484059167
 40
0.4715147203978129
 40
0.5318340825401843
 40
0.5919044367579687
 40
0.6517642549472266
 40
0.7112245096116705
 40
0.7636673427055458
 40
0.8136422449301579
 40
0.8549798103376373
 40
0.8857640949350849
 40
0.9149199980000132
 40
0.9268545317524808
 40
0.9358751646635006
 40
0.9499254757917582
 40
0.9683846606610492
 40
0.9842822931769193
 40
1.0
 40
1.0
 40
1.0
 40
1.0
 10
37.41296209535
 20
291.9095606312742
 30
0.0
 10
37.41601638764661
 20
291.9291940268639
 30
0.0
 10
37.42394507872093
 20
291.9827463687441
 30
0.0
 10
37.40969240723495
 20
292.0788066854259
 30
0.0
 10
37.37676922960752
 20
292.1802577766837
 30
0.0
 10
37.32971543251126
 20
292.2651288499226
 30
0.0
 10
37.27589085335424
 20
292.3335215925069
 30
0.0
 10
37.2173180536837
 20
292.3898825427311
 30
0.0
 10
37.1497575969382
 20
292.4425304214534
 30
0.0
 10
37.0387464162124
 20
292.517248845461
 30
0.0
 10
36.86520981210993
 20
292.6222357485499
 30
0.0
 10
36.6214822186836
 20
292.7509523325941
 30
0.0
 10
36.32525851488396
 20
292.8861130651567
 30
0.0
 10
35.97758414741544
 20
293.0197333418013
 30
0.0
 10
35.57439087744422
 20
293.1446081820725
 30
0.0
 10
35.13108356978287
 20
293.2479942664191
 30
0.0
 10
34.65809120142327
 20
293.3211233777429
 30
0.0
 10
34.16993480229327
 20
293.3583256436896
 30
0.0
 10
33.6765292211029
 20
293.357235776
 30
0.0
 10
33.18417503660139
 20
293.317194086811
 30
0.0
 10
32.69967169345755
 20
293.2395585349254
 30
0.0
 10
32.2446919748975
 20
293.12972663301
 30
0.0
 10
31.82683229123635
 20
292.9952950994083
 30
0.0
 10
31.46951192461443
 20
292.852374947891
 30
0.0
 10
31.17704074962093
 20
292.712958037128
 30
0.0
 10
30.94840731263626
 20
292.588494300563
 30
0.0
 10
30.79792983321268
 20
292.4929859867664
 30
0.0
 10
30.70933599502649
 20
292.4293655811309
 30
0.0
 10
30.63802634373771
 20
292.3728821059909
 30
0.0
 10
30.56060713071621
 20
292.289888490628
 30
0.0
 10
30.49509170682459
 20
292.1742221289385
 30
0.0
 10
30.45805228573095
 20
292.0378479767081
 30
0.0
 10
30.46068231551143
 20
291.956890737802
 30
0.0
 10
30.46304092194078
 20
291.9096283737231
 30
0.0
  0
ENDBLK
  5
185
330
14C
100
AcDbEntity
  8
0
100
AcDbBlockEnd
  0
ENDSEC
  0
SECTION
  2
ENTITIES
  0
INSERT
  5
5F
330
1F
100
AcDbEntity
  8
Default
100
AcDbBlockReference
  2
SEANNOT_GROUP
 10
0.0
 20
0.0
 30
0.0
  0
INSERT
  5
65
330
1F
100
AcDbEntity
  8
Default
100
AcDbBlockReference
  2
SEANNOT_GROUP1
 10
0.0
 20
0.0
 30
0.0
  0
INSERT
  5
6A
330
1F
100
AcDbEntity
  8
Default
100
AcDbBlockReference
  2
SE
 10
0.0
 20
0.0
 30
0.0
  0
INSERT
  5
F6
330
1F
100
AcDbEntity
  8
Default
100
AcDbBlockReference
  2
SE1
 10
0.0
 20
0.0
 30
0.0
  0
INSERT
  5
14D
330
1F
100
AcDbEntity
  8
Default
100
AcDbBlockReference
  2
SE2
 10
0.0
 20
0.0
 30
0.0
  0
TEXT
  5
187
330
1F
100
AcDbEntity
  8
Default
  6
Continuous
 62
     7
100
AcDbText
 10
5.9362635081
 20
53.4225120485
 30
0.0
 40
10.0
  1
Grohe AG^J
  7
SEACAD_seiso_ttf
 11
5.9362635081
 21
63.4225120485
 31
0.0
100
AcDbText
 73
     3
  0
TEXT
  5
188
330
1F
100
AcDbEntity
  8
Default
  6
Continuous
 62
     7
100
AcDbText
 10
5.9362635081
 20
37.0588756849
 30
0.0
 40
10.0
  1
 
  7
SEACAD_seiso_ttf
 11
5.9362635081
 21
47.0588756849
 31
0.0
100
AcDbText
 73
     3
  0
TEXT
  5
189
330
1F
100
AcDbEntity
  8
Default
  6
Continuous
 62
     7
100
AcDbText
 10
5.9362635081
 20
20.6952393213
 30
0.0
 40
10.0
  1
ecn: 
  7
SEACAD_seiso_ttf
 11
5.9362635081
 21
30.6952393213
 31
0.0
100
AcDbText
 73
     3
  0
TEXT
  5
18A
330
1F
100
AcDbEntity
  8
Default
  6
Continuous
 62
     7
100
AcDbText
 10
5.9362635081
 20
4.3316029576
 30
0.0
 40
10.0
  1
unit: mm
  7
SEACAD_seiso_ttf
 11
5.9362635081
 21
14.3316029576
 31
0.0
100
AcDbText
 73
     3
  0
LINE
  5
18B
330
1F
100
AcDbEntity
  8
Default
  6
Continuous
 62
     7
100
AcDbLine
 10
0.0
 20
0.0
 30
0.0
 11
100.0
 21
0.0
 31
0.0
  0
LINE
  5
18C
330
1F
100
AcDbEntity
  8
Default
  6
Continuous
 62
     7
100
AcDbLine
 10
0.0
 20
0.0
 30
0.0
 11
0.0
 21
100.0
 31
0.0
  0
TEXT
  5
18D
330
1F
100
AcDbEntity
  8
Default
  6
Continuous
 62
     7
100
AcDbText
 10
24.3923665681
 20
-18.2375342018
 30
0.0
 40
10.0
  1
100 mm
  7
SEACAD_seiso_ttf
 11
24.3923665681
 21
-8.2375342018
 31
0.0
100
AcDbText
 73
     3
  0
TEXT
  5
18E
330
1F
100
AcDbEntity
  8
Default
  6
Continuous
 62
     7
100
AcDbText
 10
-7.6150308803
 20
24.6231930421
 30
0.0
 40
10.0
  1
100 mm
 50
90.0
  7
SEACAD_seiso_ttf
 11
-17.6150308803
 21
24.6231930421
 31
0.0
100
AcDbText
 73
     3
  0
TEXT
  5
18F
330
1F
100
AcDbEntity
  8
Default
  6
Continuous
 62
     7
100
AcDbText
 10
28.4878128572
 20
20.0907663715
 30
0.0
 40
10.0
  1
216969
  7
SEACAD_seiso_ttf
 11
28.4878128572
 21
30.0907663715
 31
0.0
100
AcDbText
 73
     3
  0
TEXT
  5
190
330
1F
100
AcDbEntity
  8
Default
  6
Continuous
 62
     7
100
AcDbText
 10
5.9012241913
 20
36.7242780188
 30
0.0
 40
10.0
  1
32766000
  7
SEACAD_seiso_ttf
 11
5.9012241913
 21
46.7242780188
 31
0.0
100
AcDbText
 73
     3
  0
ENDSEC
  0
SECTION
  2
OBJECTS
  0
DICTIONARY
  5
C
330
0
100
AcDbDictionary
281
     1
  3
ACAD_GROUP
350
D
  3
ACAD_LAYOUT
350
1A
  3
ACAD_MLEADERSTYLE
350
194
  3
ACAD_MLINESTYLE
350
17
  3
ACAD_PLOTSETTINGS
350
19
  3
ACAD_PLOTSTYLENAME
350
E
  3
ACAD_SCALELIST
350
3B
  3
ACAD_TABLESTYLE
350
193
  3
ACAD_VISUALSTYLE
350
2A
  3
AcDbVariableDictionary
350
191
  0
DICTIONARY
  5
D
102
{ACAD_REACTORS
330
C
102
}
330
C
100
AcDbDictionary
281
     1
  0
DICTIONARY
  5
1A
102
{ACAD_REACTORS
330
C
102
}
330
C
100
AcDbDictionary
281
     1
  3
Layout1
350
1E
  3
Model
350
22
  0
DICTIONARY
  5
194
102
{ACAD_REACTORS
330
C
102
}
330
C
100
AcDbDictionary
281
     1
  0
DICTIONARY
  5
17
102
{ACAD_REACTORS
330
C
102
}
330
C
100
AcDbDictionary
281
     1
  3
Standard
350
18
  0
DICTIONARY
  5
19
102
{ACAD_REACTORS
330
C
102
}
330
C
100
AcDbDictionary
281
     1
  0
ACDBDICTIONARYWDFLT
  5
E
102
{ACAD_REACTORS
330
C
102
}
330
C
100
AcDbDictionary
281
     1
  3
Normal
350
F
100
AcDbDictionaryWithDefault
340
F
  0
DICTIONARY
  5
3B
102
{ACAD_REACTORS
330
C
102
}
330
C
100
AcDbDictionary
281
     1
  3
A0
350
3C
  3
A1
350
3D
  3
A2
350
3E
  3
A3
350
3F
  3
A4
350
40
  3
A5
350
41
  3
A6
350
42
  3
A7
350
43
  3
A8
350
44
  3
A9
350
45
  3
B0
350
46
  3
B1
350
47
  3
B2
350
48
  3
B3
350
49
  3
B4
350
4A
  3
B5
350
4B
  3
B6
350
4C
  3
B7
350
4D
  3
B8
350
4E
  3
B9
350
4F
  3
C0
350
50
  3
C1
350
51
  3
C2
350
52
  3
C3
350
53
  3
C4
350
54
  3
C5
350
55
  3
C6
350
56
  3
C7
350
57
  3
C8
350
58
  3
C9
350
59
  3
D0
350
5A
  3
D1
350
5B
  3
D2
350
5C
  0
DICTIONARY
  5
193
102
{ACAD_REACTORS
330
C
102
}
330
C
100
AcDbDictionary
281
     1
  0
DICTIONARY
  5
2A
102
{ACAD_REACTORS
330
C
102
}
330
C
100
AcDbDictionary
281
     1
  3
2dWireframe
350
2F
  3
3D Hidden
350
31
  3
3dWireframe
350
30
  3
Basic
350
32
  3
Brighten
350
36
  3
ColorChange
350
3A
  3
Conceptual
350
34
  3
Dim
350
35
  3
Facepattern
350
39
  3
Flat
350
2B
  3
FlatWithEdges
350
2C
  3
Gouraud
350
2D
  3
GouraudWithEdges
350
2E
  3
Linepattern
350
38
  3
Realistic
350
33
  3
Thicken
350
37
  0
DICTIONARY
  5
191
102
{ACAD_REACTORS
330
C
102
}
330
C
100
AcDbDictionary
281
     1
  3
CANNOSCALE
350
192
  3
PSOLHEIGHT
350
196
  3
PSOLWIDTH
350
195
  0
LAYOUT
  5
1E
102
{ACAD_REACTORS
330
1A
102
}
330
1A
100
AcDbPlotSettings
  1

  2
none_device
  4

  6

 40
0.0
 41
0.0
 42
0.0
 43
0.0
 44
0.0
 45
0.0
 46
0.0
 47
0.0
 48
0.0
 49
0.0
140
0.0
141
0.0
142
1.0
143
1.0
 70
   688
 72
     0
 73
     0
 74
     5
  7

 75
    16
147
1.0
148
0.0
149
0.0
100
AcDbLayout
  1
Layout1
 70
     1
 71
     1
 10
0.0
 20
0.0
 11
1682.0
 21
2378.0
 12
0.0
 22
0.0
 32
0.0
 14
0.0
 24
0.0
 34
0.0
 15
1682.0
 25
2378.0
 35
0.0
146
0.0
 13
0.0
 23
0.0
 33
0.0
 16
1.0
 26
0.0
 36
0.0
 17
0.0
 27
1.0
 37
0.0
 76
     0
330
1B
  0
LAYOUT
  5
22
102
{ACAD_REACTORS
330
1A
102
}
330
1A
100
AcDbPlotSettings
  1

  2
none_device
  4

  6

 40
0.0
 41
0.0
 42
0.0
 43
0.0
 44
0.0
 45
0.0
 46
0.0
 47
0.0
 48
0.0
 49
0.0
140
0.0
141
0.0
142
1.0
143
1.0
 70
  1712
 72
     0
 73
     0
 74
     0
  7

 75
     0
147
1.0
148
0.0
149
0.0
100
AcDbLayout
  1
Model
 70
     1
 71
     0
 10
0.0
 20
0.0
 11
1682.0
 21
2378.0
 12
0.0
 22
0.0
 32
0.0
 14
0.0
 24
0.0
 34
0.0
 15
1682.0
 25
2378.0
 35
0.0
146
0.0
 13
0.0
 23
0.0
 33
0.0
 16
1.0
 26
0.0
 36
0.0
 17
0.0
 27
1.0
 37
0.0
 76
     0
330
1F
331
29
  0
MLINESTYLE
  5
18
102
{ACAD_REACTORS
330
17
102
}
330
17
100
AcDbMlineStyle
  2
Standard
 70
     0
  3

 62
   256
 51
90.0
 52
90.0
 71
     2
 49
0.5
 62
   256
  6
BYLAYER
 49
-0.5
 62
   256
  6
BYLAYER
  0
ACDBPLACEHOLDER
  5
F
102
{ACAD_REACTORS
330
E
102
}
330
E
  0
SCALE
  5
3C
102
{ACAD_REACTORS
330
3B
102
}
330
3B
100
AcDbScale
 70
     0
300
1:1
140
1.0
141
1.0
290
     1
  0
SCALE
  5
3D
102
{ACAD_REACTORS
330
3B
102
}
330
3B
100
AcDbScale
 70
     0
300
1:2
140
1.0
141
2.0
290
     0
  0
SCALE
  5
3E
102
{ACAD_REACTORS
330
3B
102
}
330
3B
100
AcDbScale
 70
     0
300
1:4
140
1.0
141
4.0
290
     0
  0
SCALE
  5
3F
102
{ACAD_REACTORS
330
3B
102
}
330
3B
100
AcDbScale
 70
     0
300
1:5
140
1.0
141
5.0
290
     0
  0
SCALE
  5
40
102
{ACAD_REACTORS
330
3B
102
}
330
3B
100
AcDbScale
 70
     0
300
1:8
140
1.0
141
8.0
290
     0
  0
SCALE
  5
41
102
{ACAD_REACTORS
330
3B
102
}
330
3B
100
AcDbScale
 70
     0
300
1:10
140
1.0
141
10.0
290
     0
  0
SCALE
  5
42
102
{ACAD_REACTORS
330
3B
102
}
330
3B
100
AcDbScale
 70
     0
300
1:16
140
1.0
141
16.0
290
     0
  0
SCALE
  5
43
102
{ACAD_REACTORS
330
3B
102
}
330
3B
100
AcDbScale
 70
     0
300
1:20
140
1.0
141
20.0
290
     0
  0
SCALE
  5
44
102
{ACAD_REACTORS
330
3B
102
}
330
3B
100
AcDbScale
 70
     0
300
1:30
140
1.0
141
30.0
290
     0
  0
SCALE
  5
45
102
{ACAD_REACTORS
330
3B
102
}
330
3B
100
AcDbScale
 70
     0
300
1:40
140
1.0
141
40.0
290
     0
  0
SCALE
  5
46
102
{ACAD_REACTORS
330
3B
102
}
330
3B
100
AcDbScale
 70
     0
300
1:50
140
1.0
141
50.0
290
     0
  0
SCALE
  5
47
102
{ACAD_REACTORS
330
3B
102
}
330
3B
100
AcDbScale
 70
     0
300
1:100
140
1.0
141
100.0
290
     0
  0
SCALE
  5
48
102
{ACAD_REACTORS
330
3B
102
}
330
3B
100
AcDbScale
 70
     0
300
2:1
140
2.0
141
1.0
290
     0
  0
SCALE
  5
49
102
{ACAD_REACTORS
330
3B
102
}
330
3B
100
AcDbScale
 70
     0
300
4:1
140
4.0
141
1.0
290
     0
  0
SCALE
  5
4A
102
{ACAD_REACTORS
330
3B
102
}
330
3B
100
AcDbScale
 70
     0
300
8:1
140
8.0
141
1.0
290
     0
  0
SCALE
  5
4B
102
{ACAD_REACTORS
330
3B
102
}
330
3B
100
AcDbScale
 70
     0
300
10:1
140
10.0
141
1.0
290
     0
  0
SCALE
  5
4C
102
{ACAD_REACTORS
330
3B
102
}
330
3B
100
AcDbScale
 70
     0
300
100:1
140
100.0
141
1.0
290
     0
  0
SCALE
  5
4D
102
{ACAD_REACTORS
330
3B
102
}
330
3B
100
AcDbScale
 70
     0
300
1/128" = 1'-0"
140
0.0078125
141
12.0
290
     0
  0
SCALE
  5
4E
102
{ACAD_REACTORS
330
3B
102
}
330
3B
100
AcDbScale
 70
     0
300
1/64" = 1'-0"
140
0.015625
141
12.0
290
     0
  0
SCALE
  5
4F
102
{ACAD_REACTORS
330
3B
102
}
330
3B
100
AcDbScale
 70
     0
300
1/32" = 1'-0"
140
0.03125
141
12.0
290
     0
  0
SCALE
  5
50
102
{ACAD_REACTORS
330
3B
102
}
330
3B
100
AcDbScale
 70
     0
300
1/16" = 1'-0"
140
0.0625
141
12.0
290
     0
  0
SCALE
  5
51
102
{ACAD_REACTORS
330
3B
102
}
330
3B
100
AcDbScale
 70
     0
300
3/32" = 1'-0"
140
0.09375
141
12.0
290
     0
  0
SCALE
  5
52
102
{ACAD_REACTORS
330
3B
102
}
330
3B
100
AcDbScale
 70
     0
300
1/8" = 1'-0"
140
0.125
141
12.0
290
     0
  0
SCALE
  5
53
102
{ACAD_REACTORS
330
3B
102
}
330
3B
100
AcDbScale
 70
     0
300
3/16" = 1'-0"
140
0.1875
141
12.0
290
     0
  0
SCALE
  5
54
102
{ACAD_REACTORS
330
3B
102
}
330
3B
100
AcDbScale
 70
     0
300
1/4" = 1'-0"
140
0.25
141
12.0
290
     0
  0
SCALE
  5
55
102
{ACAD_REACTORS
330
3B
102
}
330
3B
100
AcDbScale
 70
     0
300
3/8" = 1'-0"
140
0.375
141
12.0
290
     0
  0
SCALE
  5
56
102
{ACAD_REACTORS
330
3B
102
}
330
3B
100
AcDbScale
 70
     0
300
1/2" = 1'-0"
140
0.5
141
12.0
290
     0
  0
SCALE
  5
57
102
{ACAD_REACTORS
330
3B
102
}
330
3B
100
AcDbScale
 70
     0
300
3/4" = 1'-0"
140
0.75
141
12.0
290
     0
  0
SCALE
  5
58
102
{ACAD_REACTORS
330
3B
102
}
330
3B
100
AcDbScale
 70
     0
300
1" = 1'-0"
140
1.0
141
12.0
290
     0
  0
SCALE
  5
59
102
{ACAD_REACTORS
330
3B
102
}
330
3B
100
AcDbScale
 70
     0
300
1-1/2" = 1'-0"
140
1.5
141
12.0
290
     0
  0
SCALE
  5
5A
102
{ACAD_REACTORS
330
3B
102
}
330
3B
100
AcDbScale
 70
     0
300
3" = 1'-0"
140
3.0
141
12.0
290
     0
  0
SCALE
  5
5B
102
{ACAD_REACTORS
330
3B
102
}
330
3B
100
AcDbScale
 70
     0
300
6" = 1'-0"
140
6.0
141
12.0
290
     0
  0
SCALE
  5
5C
102
{ACAD_REACTORS
330
3B
102
}
330
3B
100
AcDbScale
 70
     0
300
1'-0" = 1'-0"
140
12.0
141
12.0
290
     0
  0
VISUALSTYLE
  5
2F
102
{ACAD_REACTORS
330
2A
102
}
330
2A
100
AcDbVisualStyle
  2
2dWireframe
 70
     4
 71
     0
 72
     2
 73
     0
 90
        0
 40
-0.6
 41
-30.0
 62
     5
 63
     7
 74
     1
 91
        4
 64
     7
 65
   257
 75
     1
175
     1
 42
1.0
 92
        0
 66
   257
 43
1.0
 76
     1
 77
     6
 78
     2
 67
     7
 79
     5
170
     0
171
     0
290
     0
174
     0
 93
        1
 44
0.0
173
     0
291
     0
 45
0.0
1001
ACAD
1000
AcDbSavedByObjectVersion
1070
     0
  0
VISUALSTYLE
  5
31
102
{ACAD_REACTORS
330
2A
102
}
330
2A
100
AcDbVisualStyle
  2
3D Hidden
 70
     6
 71
     1
 72
     2
 73
     2
 90
        0
 40
-0.6
 41
-30.0
 62
     5
 63
     7
 74
     2
 91
        2
 64
     7
 65
   257
 75
     2
175
     1
 42
40.0
 92
        0
 66
   257
 43
1.0
 76
     1
 77
     6
 78
     2
 67
     7
 79
     3
170
     0
171
     0
290
     0
174
     0
 93
        1
 44
0.0
173
     0
291
     0
 45
0.0
1001
ACAD
1000
AcDbSavedByObjectVersion
1070
     0
  0
VISUALSTYLE
  5
30
102
{ACAD_REACTORS
330
2A
102
}
330
2A
100
AcDbVisualStyle
  2
3dWireframe
 70
     5
 71
     0
 72
     2
 73
     0
 90
        0
 40
-0.6
 41
-30.0
 62
     5
 63
     7
 74
     1
 91
        4
 64
     7
 65
   257
 75
     1
175
     1
 42
1.0
 92
        0
 66
   257
 43
1.0
 76
     1
 77
     6
 78
     2
 67
     7
 79
     5
170
     0
171
     0
290
     0
174
     0
 93
        1
 44
0.0
173
     0
291
     0
 45
0.0
1001
ACAD
1000
AcDbSavedByObjectVersion
1070
     0
  0
VISUALSTYLE
  5
32
102
{ACAD_REACTORS
330
2A
102
}
330
2A
100
AcDbVisualStyle
  2
Basic
 70
     7
 71
     1
 72
     0
 73
     1
 90
        0
 40
-0.6
 41
-30.0
 62
     5
 63
     7
 74
     0
 91
        4
 64
     7
 65
   257
 75
     1
175
     1
 42
1.0
 92
        8
 66
     7
 43
1.0
 76
     1
 77
     6
 78
     2
 67
     7
 79
     5
170
     0
171
     0
290
     0
174
     0
 93
        1
 44
0.0
173
     0
291
     1
 45
0.0
1001
ACAD
1000
AcDbSavedByObjectVersion
1070
     0
  0
VISUALSTYLE
  5
36
102
{ACAD_REACTORS
330
2A
102
}
330
2A
100
AcDbVisualStyle
  2
Brighten
 70
    12
 71
     2
 72
     2
 73
     0
 90
        0
 40
-0.6
 41
-30.0
 62
     5
 63
     7
 74
     1
 91
        4
 64
     7
 65
   257
 75
     1
175
     1
 42
1.0
 92
        8
 66
     7
 43
1.0
 76
     1
 77
     6
 78
     2
 67
     7
 79
     5
170
     0
171
     0
290
     0
174
     0
 93
        1
 44
50.0
173
     0
291
     1
 45
0.0
1001
ACAD
1000
AcDbSavedByObjectVersion
1070
     0
  0
VISUALSTYLE
  5
3A
102
{ACAD_REACTORS
330
2A
102
}
330
2A
100
AcDbVisualStyle
  2
ColorChange
 70
    16
 71
     2
 72
     2
 73
     3
 90
        0
 40
-0.6
 41
-30.0
 62
     5
 63
     8
 74
     1
 91
        4
 64
     7
 65
   257
 75
     1
175
     1
 42
1.0
 92
        8
 66
     8
 43
1.0
 76
     1
 77
     6
 78
     2
 67
     7
 79
     5
170
     0
171
     0
290
     0
174
     0
 93
        1
 44
0.0
173
     0
291
     1
 45
0.0
1001
ACAD
1000
AcDbSavedByObjectVersion
1070
     0
  0
VISUALSTYLE
  5
34
102
{ACAD_REACTORS
330
2A
102
}
330
2A
100
AcDbVisualStyle
  2
Conceptual
 70
     9
 71
     3
 72
     2
 73
     0
 90
        0
 40
-0.6
 41
-30.0
 62
     5
 63
     7
 74
     2
 91
        2
 64
     7
 65
   257
 75
     1
175
     1
 42
40.0
 92
        8
 66
     7
 43
1.0
 76
     1
 77
     6
 78
     2
 67
     7
 79
     3
170
     0
171
     0
290
     0
174
     0
 93
        1
 44
0.0
173
     0
291
     0
 45
0.0
1001
ACAD
1000
AcDbSavedByObjectVersion
1070
     0
  0
VISUALSTYLE
  5
35
102
{ACAD_REACTORS
330
2A
102
}
330
2A
100
AcDbVisualStyle
  2
Dim
 70
    11
 71
     2
 72
     2
 73
     0
 90
        0
 40
-0.6
 41
-30.0
 62
     5
 63
     7
 74
     1
 91
        4
 64
     7
 65
   257
 75
     1
175
     1
 42
1.0
 92
        8
 66
     7
 43
1.0
 76
     1
 77
     6
 78
     2
 67
     7
 79
     5
170
     0
171
     0
290
     0
174
     0
 93
        1
 44
-50.0
173
     0
291
     1
 45
0.0
1001
ACAD
1000
AcDbSavedByObjectVersion
1070
     0
  0
VISUALSTYLE
  5
39
102
{ACAD_REACTORS
330
2A
102
}
330
2A
100
AcDbVisualStyle
  2
Facepattern
 70
    15
 71
     2
 72
     2
 73
     0
 90
        0
 40
-0.6
 41
-30.0
 62
     5
 63
     7
 74
     1
 91
        4
 64
     7
 65
   257
 75
     1
175
     1
 42
1.0
 92
        8
 66
     7
 43
1.0
 76
     1
 77
     6
 78
     2
 67
     7
 79
     5
170
     0
171
     0
290
     0
174
     0
 93
        1
 44
0.0
173
     0
291
     1
 45
0.0
1001
ACAD
1000
AcDbSavedByObjectVersion
1070
     0
  0
VISUALSTYLE
  5
2B
102
{ACAD_REACTORS
330
2A
102
}
330
2A
100
AcDbVisualStyle
  2
Flat
 70
     0
 71
     2
 72
     1
 73
     1
 90
        2
 40
-0.6
 41
30.0
 62
     5
 63
     7
 74
     0
 91
        4
 64
     7
 65
   257
 75
     1
175
     1
 42
1.0
 92
        8
 66
     7
 43
1.0
 76
     1
 77
     6
 78
     2
 67
     7
 79
     5
170
     0
171
     0
290
     0
174
     0
 93
       13
 44
0.0
173
     0
291
     1
 45
0.0
1001
ACAD
1000
AcDbSavedByObjectVersion
1070
     0
  0
VISUALSTYLE
  5
2C
102
{ACAD_REACTORS
330
2A
102
}
330
2A
100
AcDbVisualStyle
  2
FlatWithEdges
 70
     1
 71
     2
 72
     1
 73
     1
 90
        2
 40
-0.6
 41
30.0
 62
     5
 63
     7
 74
     1
 91
        4
 64
     7
 65
   257
 75
     1
175
     1
 42
1.0
 92
        0
 66
   257
 43
1.0
 76
     1
 77
     6
 78
     2
 67
     7
 79
     5
170
     0
171
     0
290
     0
174
     0
 93
       13
 44
0.0
173
     0
291
     1
 45
0.0
1001
ACAD
1000
AcDbSavedByObjectVersion
1070
     0
  0
VISUALSTYLE
  5
2D
102
{ACAD_REACTORS
330
2A
102
}
330
2A
100
AcDbVisualStyle
  2
Gouraud
 70
     2
 71
     2
 72
     2
 73
     1
 90
        2
 40
-0.6
 41
30.0
 62
     5
 63
     7
 74
     0
 91
        4
 64
     7
 65
   257
 75
     1
175
     1
 42
1.0
 92
        0
 66
     7
 43
1.0
 76
     1
 77
     6
 78
     2
 67
     7
 79
     5
170
     0
171
     0
290
     0
174
     0
 93
       13
 44
0.0
173
     0
291
     1
 45
0.0
1001
ACAD
1000
AcDbSavedByObjectVersion
1070
     0
  0
VISUALSTYLE
  5
2E
102
{ACAD_REACTORS
330
2A
102
}
330
2A
100
AcDbVisualStyle
  2
GouraudWithEdges
 70
     3
 71
     2
 72
     2
 73
     1
 90
        2
 40
-0.6
 41
30.0
 62
     5
 63
     7
 74
     1
 91
        4
 64
     7
 65
   257
 75
     1
175
     1
 42
1.0
 92
        0
 66
   257
 43
1.0
 76
     1
 77
     6
 78
     2
 67
     7
 79
     5
170
     0
171
     0
290
     0
174
     0
 93
       13
 44
0.0
173
     0
291
     1
 45
0.0
1001
ACAD
1000
AcDbSavedByObjectVersion
1070
     0
  0
VISUALSTYLE
  5
38
102
{ACAD_REACTORS
330
2A
102
}
330
2A
100
AcDbVisualStyle
  2
Linepattern
 70
    14
 71
     2
 72
     2
 73
     0
 90
        0
 40
-0.6
 41
-30.0
 62
     5
 63
     7
 74
     1
 91
        4
 64
     7
 65
   257
 75
     7
175
     7
 42
1.0
 92
        8
 66
     7
 43
1.0
 76
     1
 77
     6
 78
     2
 67
     7
 79
     5
170
     0
171
     0
290
     0
174
     0
 93
        1
 44
0.0
173
     0
291
     1
 45
0.0
1001
ACAD
1000
AcDbSavedByObjectVersion
1070
     0
  0
VISUALSTYLE
  5
33
102
{ACAD_REACTORS
330
2A
102
}
330
2A
100
AcDbVisualStyle
  2
Realistic
 70
     8
 71
     2
 72
     2
 73
     0
 90
        0
 40
-0.6
 41
-30.0
 62
     5
 63
     7
 74
     1
 91
        0
 64
     7
 65
   257
 75
     1
175
     1
 42
1.0
 92
        8
 66
     8
 43
1.0
 76
     1
 77
     6
 78
     2
 67
     7
 79
     5
170
     0
171
     0
290
     0
174
     0
 93
       13
 44
0.0
173
     0
291
     0
 45
0.0
1001
ACAD
1000
AcDbSavedByObjectVersion
1070
     0
  0
VISUALSTYLE
  5
37
102
{ACAD_REACTORS
330
2A
102
}
330
2A
100
AcDbVisualStyle
  2
Thicken
 70
    13
 71
     2
 72
     2
 73
     0
 90
        0
 40
-0.6
 41
-30.0
 62
     5
 63
     7
 74
     1
 91
        4
 64
     7
 65
   257
 75
     1
175
     1
 42
1.0
 92
       12
 66
     7
 43
1.0
 76
     1
 77
     6
 78
     2
 67
     7
 79
     5
170
     0
171
     0
290
     0
174
     0
 93
        1
 44
0.0
173
     0
291
     1
 45
0.0
1001
ACAD
1000
AcDbSavedByObjectVersion
1070
     0
  0
DICTIONARYVAR
  5
192
102
{ACAD_REACTORS
330
191
102
}
330
191
100
DictionaryVariables
280
     0
  1
1:1
  0
DICTIONARYVAR
  5
196
102
{ACAD_REACTORS
330
191
102
}
330
191
100
DictionaryVariables
280
     0
  1
80.000000
  0
DICTIONARYVAR
  5
195
102
{ACAD_REACTORS
330
191
102
}
330
191
100
DictionaryVariables
280
     0
  1
5.000000
  0
ENDSEC
  0
EOF
