  0
SECTION
  2
HEADER
  9
$ACADVER
  1
AC1015
  9
$ACADMAINTVER
 70
     6
  9
$DWGCODEPAGE
  3
ANSI_1252
  9
$INSBASE
 10
0.0
 20
0.0
 30
0.0
  9
$EXTMIN
 10
0.0
 20
0.0
 30
0.0
  9
$EXTMAX
 10
1682.0
 20
2378.0
 30
0.0
  9
$LIMMIN
 10
0.0
 20
0.0
  9
$LIMMAX
 10
1682.0
 20
2378.0
  9
$ORTHOMODE
 70
     0
  9
$REGENMODE
 70
     1
  9
$FILLMODE
 70
     1
  9
$QTEXTMODE
 70
     0
  9
$MIRRTEXT
 70
     1
  9
$LTSCALE
 40
1.0
  9
$ATTMODE
 70
     1
  9
$TEXTSIZE
 40
2.5
  9
$TRACEWID
 40
1.0
  9
$TEXTSTYLE
  7
Standard
  9
$CLAYER
  8
0
  9
$CELTYPE
  6
ByLayer
  9
$CECOLOR
 62
   256
  9
$CELTSCALE
 40
1.0
  9
$DISPSILH
 70
     0
  9
$DIMSCALE
 40
1.0
  9
$DIMASZ
 40
2.5
  9
$DIMEXO
 40
0.625
  9
$DIMDLI
 40
3.75
  9
$DIMRND
 40
0.0
  9
$DIMDLE
 40
0.0
  9
$DIMEXE
 40
1.25
  9
$DIMTP
 40
0.0
  9
$DIMTM
 40
0.0
  9
$DIMTXT
 40
2.5
  9
$DIMCEN
 40
2.5
  9
$DIMTSZ
 40
0.0
  9
$DIMTOL
 70
     0
  9
$DIMLIM
 70
     0
  9
$DIMTIH
 70
     0
  9
$DIMTOH
 70
     0
  9
$DIMSE1
 70
     0
  9
$DIMSE2
 70
     0
  9
$DIMTAD
 70
     1
  9
$DIMZIN
 70
     8
  9
$DIMBLK
  1

  9
$DIMASO
 70
     1
  9
$DIMSHO
 70
     1
  9
$DIMPOST
  1

  9
$DIMAPOST
  1

  9
$DIMALT
 70
     0
  9
$DIMALTD
 70
     3
  9
$DIMALTF
 40
0.0393700787
  9
$DIMLFAC
 40
1.0
  9
$DIMTOFL
 70
     1
  9
$DIMTVP
 40
0.0
  9
$DIMTIX
 70
     0
  9
$DIMSOXD
 70
     0
  9
$DIMSAH
 70
     0
  9
$DIMBLK1
  1

  9
$DIMBLK2
  1

  9
$DIMSTYLE
  2
ISO-25
  9
$DIMCLRD
 70
     0
  9
$DIMCLRE
 70
     0
  9
$DIMCLRT
 70
     0
  9
$DIMTFAC
 40
1.0
  9
$DIMGAP
 40
0.625
  9
$DIMJUST
 70
     0
  9
$DIMSD1
 70
     0
  9
$DIMSD2
 70
     0
  9
$DIMTOLJ
 70
     0
  9
$DIMTZIN
 70
     8
  9
$DIMALTZ
 70
     0
  9
$DIMALTTZ
 70
     0
  9
$DIMUPT
 70
     0
  9
$DIMDEC
 70
     2
  9
$DIMTDEC
 70
     2
  9
$DIMALTU
 70
     2
  9
$DIMALTTD
 70
     3
  9
$DIMTXSTY
  7
Standard
  9
$DIMAUNIT
 70
     0
  9
$DIMADEC
 70
     0
  9
$DIMALTRND
 40
0.0
  9
$DIMAZIN
 70
     0
  9
$DIMDSEP
 70
    44
  9
$DIMATFIT
 70
     3
  9
$DIMFRAC
 70
     0
  9
$DIMLDRBLK
  1

  9
$DIMLUNIT
 70
     2
  9
$DIMLWD
 70
    -2
  9
$DIMLWE
 70
    -2
  9
$DIMTMOVE
 70
     0
  9
$LUNITS
 70
     2
  9
$LUPREC
 70
     4
  9
$SKETCHINC
 40
1.0
  9
$FILLETRAD
 40
10.0
  9
$AUNITS
 70
     0
  9
$AUPREC
 70
     0
  9
$MENU
  1
.
  9
$ELEVATION
 40
0.0
  9
$PELEVATION
 40
0.0
  9
$THICKNESS
 40
0.0
  9
$LIMCHECK
 70
     0
  9
$CHAMFERA
 40
10.0
  9
$CHAMFERB
 40
10.0
  9
$CHAMFERC
 40
20.0
  9
$CHAMFERD
 40
0.0
  9
$SKPOLY
 70
     0
  9
$TDCREATE
 40
2455295.584231586
  9
$TDUCREATE
 40
2455295.500898252
  9
$TDUPDATE
 40
2455295.584231597
  9
$TDUUPDATE
 40
2455295.500898264
  9
$TDINDWG
 40
0.0000000116
  9
$TDUSRTIMER
 40
0.0000000116
  9
$USRTIMER
 70
     1
  9
$ANGBASE
 50
0.0
  9
$ANGDIR
 70
     0
  9
$PDMODE
 70
     0
  9
$PDSIZE
 40
0.0
  9
$PLINEWID
 40
0.0
  9
$SPLFRAME
 70
     0
  9
$SPLINETYPE
 70
     6
  9
$SPLINESEGS
 70
     8
  9
$HANDSEED
  5
140
  9
$SURFTAB1
 70
     6
  9
$SURFTAB2
 70
     6
  9
$SURFTYPE
 70
     6
  9
$SURFU
 70
     6
  9
$SURFV
 70
     6
  9
$UCSBASE
  2

  9
$UCSNAME
  2

  9
$UCSORG
 10
0.0
 20
0.0
 30
0.0
  9
$UCSXDIR
 10
1.0
 20
0.0
 30
0.0
  9
$UCSYDIR
 10
0.0
 20
1.0
 30
0.0
  9
$UCSORTHOREF
  2

  9
$UCSORTHOVIEW
 70
     0
  9
$UCSORGTOP
 10
0.0
 20
0.0
 30
0.0
  9
$UCSORGBOTTOM
 10
0.0
 20
0.0
 30
0.0
  9
$UCSORGLEFT
 10
0.0
 20
0.0
 30
0.0
  9
$UCSORGRIGHT
 10
0.0
 20
0.0
 30
0.0
  9
$UCSORGFRONT
 10
0.0
 20
0.0
 30
0.0
  9
$UCSORGBACK
 10
0.0
 20
0.0
 30
0.0
  9
$PUCSBASE
  2

  9
$PUCSNAME
  2

  9
$PUCSORG
 10
0.0
 20
0.0
 30
0.0
  9
$PUCSXDIR
 10
1.0
 20
0.0
 30
0.0
  9
$PUCSYDIR
 10
0.0
 20
1.0
 30
0.0
  9
$PUCSORTHOREF
  2

  9
$PUCSORTHOVIEW
 70
     0
  9
$PUCSORGTOP
 10
0.0
 20
0.0
 30
0.0
  9
$PUCSORGBOTTOM
 10
0.0
 20
0.0
 30
0.0
  9
$PUCSORGLEFT
 10
0.0
 20
0.0
 30
0.0
  9
$PUCSORGRIGHT
 10
0.0
 20
0.0
 30
0.0
  9
$PUCSORGFRONT
 10
0.0
 20
0.0
 30
0.0
  9
$PUCSORGBACK
 10
0.0
 20
0.0
 30
0.0
  9
$USERI1
 70
     0
  9
$USERI2
 70
     0
  9
$USERI3
 70
     0
  9
$USERI4
 70
     0
  9
$USERI5
 70
     0
  9
$USERR1
 40
0.0
  9
$USERR2
 40
0.0
  9
$USERR3
 40
0.0
  9
$USERR4
 40
0.0
  9
$USERR5
 40
0.0
  9
$WORLDVIEW
 70
     1
  9
$SHADEDGE
 70
     3
  9
$SHADEDIF
 70
    70
  9
$TILEMODE
 70
     1
  9
$MAXACTVP
 70
    64
  9
$PINSBASE
 10
0.0
 20
0.0
 30
0.0
  9
$PLIMCHECK
 70
     0
  9
$PEXTMIN
 10
0.0
 20
0.0
 30
0.0
  9
$PEXTMAX
 10
1682.0
 20
2378.0
 30
0.0
  9
$PLIMMIN
 10
0.0
 20
0.0
  9
$PLIMMAX
 10
1682.0
 20
2378.0
  9
$UNITMODE
 70
     0
  9
$VISRETAIN
 70
     1
  9
$PLINEGEN
 70
     0
  9
$PSLTSCALE
 70
     1
  9
$TREEDEPTH
 70
  3020
  9
$CMLSTYLE
  2
Standard
  9
$CMLJUST
 70
     0
  9
$CMLSCALE
 40
20.0
  9
$PROXYGRAPHICS
 70
     1
  9
$MEASUREMENT
 70
     1
  9
$CELWEIGHT
370
    -1
  9
$ENDCAPS
280
     0
  9
$JOINSTYLE
280
     0
  9
$LWDISPLAY
290
     0
  9
$INSUNITS
 70
     4
  9
$HYPERLINKBASE
  1

  9
$STYLESHEET
  1

  9
$XEDIT
290
     1
  9
$CEPSNTYPE
380
     0
  9
$PSTYLEMODE
290
     1
  9
$FINGERPRINTGUID
  2
{9C6569FC-5821-44DE-A936-CB36B22E7ECB}
  9
$VERSIONGUID
  2
{FAEB1C32-E019-11D5-929B-00C0DF256EC4}
  9
$EXTNAMES
290
     1
  9
$PSVPSCALE
 40
0.0
  9
$OLESTARTUP
290
     0
  0
ENDSEC
  0
SECTION
  2
CLASSES
  0
CLASS
  1
ACDBDICTIONARYWDFLT
  2
AcDbDictionaryWithDefault
  3
ObjectDBX Classes
 90
        0
280
     0
281
     0
  0
CLASS
  1
VISUALSTYLE
  2
AcDbVisualStyle
  3
ObjectDBX Classes
 90
     4095
280
     0
281
     0
  0
CLASS
  1
SCALE
  2
AcDbScale
  3
ObjectDBX Classes
 90
     1153
280
     0
281
     0
  0
CLASS
  1
DICTIONARYVAR
  2
AcDbDictionaryVar
  3
ObjectDBX Classes
 90
        0
280
     0
281
     0
  0
CLASS
  1
ACDBPLACEHOLDER
  2
AcDbPlaceHolder
  3
ObjectDBX Classes
 90
        0
280
     0
281
     0
  0
CLASS
  1
LAYOUT
  2
AcDbLayout
  3
ObjectDBX Classes
 90
        0
280
     0
281
     0
  0
ENDSEC
  0
SECTION
  2
TABLES
  0
TABLE
  2
VPORT
  5
8
330
0
100
AcDbSymbolTable
 70
     1
  0
VPORT
  5
29
330
8
100
AcDbSymbolTableRecord
100
AcDbViewportTableRecord
  2
*Active
 70
     0
 10
0.0
 20
0.0
 11
1.0
 21
1.0
 12
344.1869158879
 22
148.5
 13
0.0
 23
0.0
 14
10.0
 24
10.0
 15
10.0
 25
10.0
 16
0.0
 26
0.0
 36
1.0
 17
0.0
 27
0.0
 37
0.0
 40
297.0
 41
1.9729729729
 42
50.0
 43
0.0
 44
0.0
 50
0.0
 51
0.0
 71
     0
 72
   100
 73
     1
 74
     3
 75
     0
 76
     0
 77
     0
 78
     0
281
     0
 65
     1
110
0.0
120
0.0
130
0.0
111
1.0
121
0.0
131
0.0
112
0.0
122
1.0
132
0.0
 79
     0
146
0.0
  0
ENDTAB
  0
TABLE
  2
LTYPE
  5
5
330
0
100
AcDbSymbolTable
 70
     2
  0
LTYPE
  5
14
330
5
100
AcDbSymbolTableRecord
100
AcDbLinetypeTableRecord
  2
ByBlock
 70
     0
  3

 72
    65
 73
     0
 40
0.0
  0
LTYPE
  5
15
330
5
100
AcDbSymbolTableRecord
100
AcDbLinetypeTableRecord
  2
ByLayer
 70
     0
  3

 72
    65
 73
     0
 40
0.0
  0
LTYPE
  5
16
330
5
100
AcDbSymbolTableRecord
100
AcDbLinetypeTableRecord
  2
Continuous
 70
     0
  3
Solid line
 72
    65
 73
     0
 40
0.0
  0
LTYPE
  5
60
330
5
100
AcDbSymbolTableRecord
100
AcDbLinetypeTableRecord
  2
CENTER2
 70
     0
  3
Center (.5x) ___ _ ___ _ ___ _ ___ _ ___ _ ___
 72
    65
 73
     4
 40
28.575
 49
19.05
 74
     4
 75
     0
340
0
 46
0.0
 50
0.0
 44
0.0
 45
0.0
 49
-3.175
 74
     4
 75
     0
340
0
 46
0.0
 50
0.0
 44
0.0
 45
0.0
 49
3.175
 74
     4
 75
     0
340
0
 46
0.0
 50
0.0
 44
0.0
 45
0.0
 49
-3.175
 74
     4
 75
     0
340
0
 46
0.0
 50
0.0
 44
0.0
 45
0.0
  0
ENDTAB
  0
TABLE
  2
LAYER
  5
2
330
0
100
AcDbSymbolTable
 70
     9
  0
LAYER
  5
10
330
2
100
AcDbSymbolTableRecord
100
AcDbLayerTableRecord
  2
0
 70
     0
 62
     7
  6
Continuous
370
    -3
390
F
  0
LAYER
  5
5D
330
2
100
AcDbSymbolTableRecord
100
AcDbLayerTableRecord
  2
Default
 70
     0
 62
     7
  6
Continuous
370
    -3
390
F
  0
LAYER
  5
6B
330
2
100
AcDbSymbolTableRecord
100
AcDbLayerTableRecord
  2
$DDT_AUDIT_GENERATED_(6B)
 70
     0
 62
     7
  6
Continuous
370
    -3
390
F
  0
LAYER
  5
8E
330
2
100
AcDbSymbolTableRecord
100
AcDbLayerTableRecord
  2
$DDT_AUDIT_GENERATED_(8E)
 70
     0
 62
     7
  6
Continuous
370
    -3
390
F
  0
LAYER
  5
A2
330
2
100
AcDbSymbolTableRecord
100
AcDbLayerTableRecord
  2
$DDT_AUDIT_GENERATED_(A2)
 70
     0
 62
     7
  6
Continuous
370
    -3
390
F
  0
LAYER
  5
B1
330
2
100
AcDbSymbolTableRecord
100
AcDbLayerTableRecord
  2
$DDT_AUDIT_GENERATED_(B1)
 70
     0
 62
     7
  6
Continuous
370
    -3
390
F
  0
LAYER
  5
F8
330
2
100
AcDbSymbolTableRecord
100
AcDbLayerTableRecord
  2
$DDT_AUDIT_GENERATED_(F8)
 70
     0
 62
     7
  6
Continuous
370
    -3
390
F
  0
LAYER
  5
102
330
2
100
AcDbSymbolTableRecord
100
AcDbLayerTableRecord
  2
$DDT_AUDIT_GENERATED_(102)
 70
     0
 62
     7
  6
Continuous
370
    -3
390
F
  0
LAYER
  5
128
330
2
100
AcDbSymbolTableRecord
100
AcDbLayerTableRecord
  2
$DDT_AUDIT_GENERATED_(128)
 70
     0
 62
     7
  6
Continuous
370
    -3
390
F
  0
ENDTAB
  0
TABLE
  2
STYLE
  5
3
330
0
100
AcDbSymbolTable
 70
     2
  0
STYLE
  5
11
330
3
100
AcDbSymbolTableRecord
100
AcDbTextStyleTableRecord
  2
Standard
 70
     0
 40
0.0
 41
1.0
 50
0.0
 71
     0
 42
2.5
  3
txt
  4

  0
STYLE
  5
12F
330
3
100
AcDbSymbolTableRecord
100
AcDbTextStyleTableRecord
  2
SEACAD_seiso_ttf
 70
     0
 40
0.0
 41
1.0
 50
0.0
 71
     0
 42
0.2
  3
seiso.ttf
  4

  0
ENDTAB
  0
TABLE
  2
VIEW
  5
6
330
0
100
AcDbSymbolTable
 70
     0
  0
ENDTAB
  0
TABLE
  2
UCS
  5
7
330
0
100
AcDbSymbolTable
 70
     0
  0
ENDTAB
  0
TABLE
  2
APPID
  5
9
330
0
100
AcDbSymbolTable
 70
     1
  0
APPID
  5
12
330
9
100
AcDbSymbolTableRecord
100
AcDbRegAppTableRecord
  2
ACAD
 70
     0
  0
ENDTAB
  0
TABLE
  2
DIMSTYLE
  5
A
330
0
100
AcDbSymbolTable
 70
     1
100
AcDbDimStyleTable
  0
DIMSTYLE
105
27
330
A
100
AcDbSymbolTableRecord
100
AcDbDimStyleTableRecord
  2
ISO-25
 70
     0
 41
2.5
 42
0.625
 43
3.75
 44
1.25
 73
     0
 74
     0
 77
     1
 78
     8
140
2.5
141
2.5
143
0.0393700787
147
0.625
171
     3
172
     1
271
     2
272
     2
274
     3
278
    44
283
     0
284
     8
340
11
  0
ENDTAB
  0
TABLE
  2
BLOCK_RECORD
  5
1
330
0
100
AcDbSymbolTable
 70
     6
  0
BLOCK_RECORD
  5
1F
330
1
100
AcDbSymbolTableRecord
100
AcDbBlockTableRecord
  2
*Model_Space
340
22
  0
BLOCK_RECORD
  5
1B
330
1
100
AcDbSymbolTableRecord
100
AcDbBlockTableRecord
  2
*Paper_Space
340
1E
  0
BLOCK_RECORD
  5
5E
330
1
100
AcDbSymbolTableRecord
100
AcDbBlockTableRecord
  2
SEANNOT_GROUP
340
0
102
{BLKREFS
331
5F
102
}
  0
BLOCK_RECORD
  5
64
330
1
100
AcDbSymbolTableRecord
100
AcDbBlockTableRecord
  2
SEANNOT_GROUP1
340
0
102
{BLKREFS
331
65
102
}
  0
BLOCK_RECORD
  5
69
330
1
100
AcDbSymbolTableRecord
100
AcDbBlockTableRecord
  2
SE
340
0
102
{BLKREFS
331
6A
102
}
  0
BLOCK_RECORD
  5
B5
330
1
100
AcDbSymbolTableRecord
100
AcDbBlockTableRecord
  2
SE1
340
0
102
{BLKREFS
331
B6
102
}
  0
BLOCK_RECORD
  5
106
330
1
100
AcDbSymbolTableRecord
100
AcDbBlockTableRecord
  2
SE2
340
0
102
{BLKREFS
331
107
102
}
  0
ENDTAB
  0
ENDSEC
  0
SECTION
  2
BLOCKS
  0
BLOCK
  5
20
330
1F
100
AcDbEntity
  8
0
100
AcDbBlockBegin
  2
*Model_Space
 70
     0
 10
0.0
 20
0.0
 30
0.0
  3
*Model_Space
  1

  0
ENDBLK
  5
21
330
1F
100
AcDbEntity
  8
0
100
AcDbBlockEnd
  0
BLOCK
  5
1C
330
1B
100
AcDbEntity
 67
     1
  8
0
100
AcDbBlockBegin
  2
*Paper_Space
 70
     0
 10
0.0
 20
0.0
 30
0.0
  3
*Paper_Space
  1

  0
ENDBLK
  5
1D
330
1B
100
AcDbEntity
 67
     1
  8
0
100
AcDbBlockEnd
  0
BLOCK
  5
62
330
5E
100
AcDbEntity
  8
0
100
AcDbBlockBegin
  2
SEANNOT_GROUP
 70
     0
 10
0.0
 20
0.0
 30
0.0
  3
SEANNOT_GROUP
  1

  0
LINE
  5
61
330
5E
100
AcDbEntity
  8
Default
  6
CENTER2
 62
     7
100
AcDbLine
 10
33.937321445
 20
377.8671613146
 30
0.0
 11
33.937321445
 21
347.0454807158
 31
0.0
  0
ENDBLK
  5
63
330
5E
100
AcDbEntity
  8
0
100
AcDbBlockEnd
  0
BLOCK
  5
67
330
64
100
AcDbEntity
  8
0
100
AcDbBlockBegin
  2
SEANNOT_GROUP1
 70
     0
 10
0.0
 20
0.0
 30
0.0
  3
SEANNOT_GROUP1
  1

  0
LINE
  5
66
330
64
100
AcDbEntity
  8
Default
  6
CENTER2
 62
     7
100
AcDbLine
 10
33.937321445
 20
227.9624575577
 30
0.0
 11
33.937321445
 21
295.2947009305
 31
0.0
  0
ENDBLK
  5
68
330
64
100
AcDbEntity
  8
0
100
AcDbBlockEnd
  0
BLOCK
  5
B3
330
69
100
AcDbEntity
  8
0
100
AcDbBlockBegin
  2
SE
 70
     0
 10
0.0
 20
0.0
 30
0.0
  3
SE
  1

  0
LINE
  5
6C
330
69
100
AcDbEntity
  8
$DDT_AUDIT_GENERATED_(6B)
  6
Continuous
 62
     7
100
AcDbLine
 10
8.937321445
 20
448.2416179335
 30
0.0
 11
8.937321445
 21
411.2221586281
 31
0.0
  0
SPLINE
  5
6D
330
69
100
AcDbEntity
  8
$DDT_AUDIT_GENERATED_(6B)
  6
Continuous
 62
     7
100
AcDbSpline
210
0.0
220
0.0
230
1.0
 70
     8
 71
     3
 72
     8
 73
     4
 74
     0
 42
0.0000000003016031
 43
0.0000000001
 40
0.0
 40
0.0
 40
0.0
 40
0.0
 40
0.0019774346429558
 40
0.0019774346429558
 40
0.0019774346429558
 40
0.0019774346429558
 10
8.937078592526944
 20
448.2416125793719
 30
0.0
 10
8.937098924543433
 20
448.2197007178494
 30
0.0
 10
8.937122924470845
 20
448.1978458996458
 30
0.0
 10
8.937150347473485
 20
448.1760484924381
 30
0.0
  0
ARC
  5
6E
330
69
100
AcDbEntity
  8
$DDT_AUDIT_GENERATED_(6B)
  6
Continuous
 62
     7
100
AcDbCircle
 10
84.1888664198
 20
414.6321425194
 30
0.0
 40
75.33237648694283
100
AcDbArc
 50
166.2841309388
 51
182.6520494566
  0
ARC
  5
6F
330
69
100
AcDbEntity
  8
$DDT_AUDIT_GENERATED_(6B)
  6
Continuous
 62
     7
100
AcDbCircle
 10
86.968108595
 20
411.2563334831
 30
0.0
 40
78.87633752568217
100
AcDbArc
 50
154.1307192184
 51
164.3802023696
  0
SPLINE
  5
70
330
69
100
AcDbEntity
  8
$DDT_AUDIT_GENERATED_(6B)
  6
Continuous
 62
     7
100
AcDbSpline
210
0.0
220
0.0
230
1.0
 70
     8
 71
     3
 72
    53
 73
    49
 74
     0
 42
0.0000000005247261
 43
0.0000000001
 40
0.0
 40
0.0
 40
0.0
 40
0.0
 40
0.0117265943238526
 40
0.0234531886477052
 40
0.0469063772954104
 40
0.0703595659431156
 40
0.0938127545908208
 40
0.1172659432385259
 40
0.1407191318862311
 40
0.1641723205339363
 40
0.1876255091816415
 40
0.1993521035054941
 40
0.2110786978293467
 40
0.2345318864770519
 40
0.257985075124757
 40
0.2814382637724622
 40
0.3283446410678726
 40
0.3517978297155778
 40
0.3635244240394304
 40
0.375251018363283
 40
0.3987042070109882
 40
0.4221573956586934
 40
0.4456105843063985
 40
0.4690637729541037
 40
0.4925169616018089
 40
0.5042435559256615
 40
0.5159701502495141
 40
0.5394233388972193
 40
0.5628765275449245
 40
0.6097829048403348
 40
0.63323609348804
 40
0.6566892821357452
 40
0.6801424707834505
 40
0.6918690651073031
 40
0.7035956594311557
 40
0.7270488480788608
 40
0.7387754424027134
 40
0.750502036726566
 40
0.7622286310504186
 40
0.7739552253742712
 40
0.7974084140219764
 40
0.8443147913173867
 40
0.8912211686127971
 40
0.9381275459082075
 40
0.9615807345559126
 40
0.9850339232036178
 40
0.9967605175274704
 40
1.0
 40
1.0
 40
1.0
 40
1.0
 10
33.93732144502189
 20
450.3203100168565
 30
0.0
 10
33.83011982087123
 20
450.3203108462617
 30
0.0
 10
33.61571289952541
 20
450.3197895942347
 30
0.0
 10
33.18700532208052
 20
450.3166302042831
 30
0.0
 10
32.65155751911719
 20
450.3086642319434
 30
0.0
 10
32.01047339125184
 20
450.2925288781252
 30
0.0
 10
31.3716441430061
 20
450.2697250841917
 30
0.0
 10
30.73576090791632
 20
450.240170244932
 30
0.0
 10
30.10380469134057
 20
450.2038151014296
 30
0.0
 10
29.47686700902962
 20
450.1606007468746
 30
0.0
 10
28.9591560650097
 20
450.1188619333072
 30
0.0
 10
28.54835749767364
 20
450.0820172000338
 30
0.0
 10
28.14014144085494
 20
450.0428756150947
 30
0.0
 10
27.63479731395115
 20
449.9896835286138
 30
0.0
 10
27.03542026557539
 20
449.9192104928983
 30
0.0
 10
26.24842887824352
 20
449.8164656881581
 30
0.0
 10
25.48183066707921
 20
449.700825330259
 30
0.0
 10
24.83126910918187
 20
449.5890475411247
 30
0.0
 10
24.46536024945266
 20
449.5222750606653
 30
0.0
 10
24.10393059411462
 20
449.4535976596785
 30
0.0
 10
23.66314733140018
 20
449.3641903225724
 30
0.0
 10
23.14984113644423
 20
449.2515417410697
 30
0.0
 10
22.64911947575863
 20
449.13390015481
 30
0.0
 10
22.16774631737459
 20
449.0114717725441
 30
0.0
 10
21.77706353360705
 20
448.9058293459757
 30
0.0
 10
21.47096031370173
 20
448.8193117754182
 30
0.0
 10
21.17036010984977
 20
448.731498241294
 30
0.0
 10
20.80612604058589
 20
448.6193913974715
 30
0.0
 10
20.24735321532247
 20
448.4354981794094
 30
0.0
 10
19.72372042031837
 20
448.2454941010587
 30
0.0
 10
19.23842460322657
 20
448.050733370239
 30
0.0
 10
18.89769657182164
 20
447.9026499476249
 30
0.0
 10
18.62997947906794
 20
447.7778096400932
 30
0.0
 10
18.42331379903819
 20
447.6771475091028
 30
0.0
 10
18.22383862705194
 20
447.5760553965542
 30
0.0
 10
18.0343379738066
 20
447.474384232643
 30
0.0
 10
17.85293788492594
 20
447.3722498594538
 30
0.0
 10
17.72080543872539
 20
447.2954447316946
 30
0.0
 10
17.59295358976719
 20
447.2184745669272
 30
0.0
 10
17.42898071627239
 20
447.1156920818373
 30
0.0
 10
17.15941671940044
 20
446.9355412798063
 30
0.0
 10
16.82186492877629
 20
446.6779299455947
 30
0.0
 10
16.48996836057264
 20
446.3702000365834
 30
0.0
 10
16.27462821678214
 20
446.1162009437434
 30
0.0
 10
16.13442937713899
 20
445.9153764746636
 30
0.0
 10
16.05918178585485
 20
445.7909879064724
 30
0.0
 10
16.01547301789688
 20
445.7101034257968
 30
0.0
 10
15.99925711620972
 20
445.6786980873074
 30
0.0
 10
15.99582359506564
 20
445.6716118250778
 30
0.0
  0
LINE
  5
71
330
69
100
AcDbEntity
  8
$DDT_AUDIT_GENERATED_(6B)
  6
Continuous
 62
     7
100
AcDbLine
 10
9.0120128359
 20
374.3671613141
 30
0.0
 11
8.9375594121
 21
374.3671613141
 31
0.0
  0
SPLINE
  5
72
330
69
100
AcDbEntity
  8
$DDT_AUDIT_GENERATED_(6B)
  6
Continuous
 62
     7
100
AcDbSpline
210
0.0
220
0.0
230
1.0
 70
     8
 71
     3
 72
    31
 73
    27
 74
     0
 42
0.0000000005772888
 43
0.0000000001
 40
0.3614507502749117
 40
0.3614507502749117
 40
0.3614507502749117
 40
0.3614507502749117
 40
0.3869795385600284
 40
0.4349020086922943
 40
0.4828244788245602
 40
0.5307469489568261
 40
0.578669419089092
 40
0.6265918892213578
 40
0.6505531242874908
 40
0.6745143593536237
 40
0.6984755944197566
 40
0.7224368294858896
 40
0.7703592996181554
 40
0.7943205346842884
 40
0.8182817697504213
 40
0.8422430048165542
 40
0.8542236223496208
 40
0.860213931116154
 40
0.8662042398826872
 40
0.8901654749488201
 40
0.914126710014953
 40
0.9380879450810861
 40
0.962049180147219
 40
0.9860104152133519
 40
0.9979910327464184
 40
1.0
 40
1.0
 40
1.0
 40
1.0
 10
11.37461422219551
 20
445.1921271004103
 30
0.0
 10
11.32937119662711
 20
445.2078082140068
 30
0.0
 10
11.1956024091543
 20
445.2599666444438
 30
0.0
 10
10.95827018172484
 20
445.3780068336279
 30
0.0
 10
10.66032148271214
 20
445.564382704413
 30
0.0
 10
10.35640831884854
 20
445.7974107091777
 30
0.0
 10
10.06478763790034
 20
446.0908233105906
 30
0.0
 10
9.842879157793146
 20
446.402071466613
 30
0.0
 10
9.68325012739659
 20
446.7061890772522
 30
0.0
 10
9.57322858884399
 20
446.9670674266469
 30
0.0
 10
9.473846098062094
 20
447.2658712152516
 30
0.0
 10
9.355665205501893
 20
447.7233232689592
 30
0.0
 10
9.259151105230242
 20
448.2809070104965
 30
0.0
 10
9.183808445354643
 20
448.9636240863358
 30
0.0
 10
9.137195321574344
 20
449.540457129761
 30
0.0
 10
9.106232019168846
 20
450.0759705712567
 30
0.0
 10
9.088305623643295
 20
450.4771339793411
 30
0.0
 10
9.079035206520542
 20
450.7130896069246
 30
0.0
 10
9.066069232481794
 20
451.0734294916664
 30
0.0
 10
9.049933613539944
 20
451.6366592842523
 30
0.0
 10
9.034639280191193
 20
452.4230583193373
 30
0.0
 10
9.024337782413342
 20
453.2325325016511
 30
0.0
 10
9.018080581434592
 20
454.0550090965664
 30
0.0
 10
9.015712633148745
 20
454.7451762100195
 30
0.0
 10
9.015270657347855
 20
455.1827423643169
 30
0.0
 10
9.01523533018398
 20
455.3440041035066
 30
0.0
 10
9.015248130555293
 20
455.3671612117396
 30
0.0
  0
LINE
  5
73
330
69
100
AcDbEntity
  8
$DDT_AUDIT_GENERATED_(6B)
  6
Continuous
 62
     7
100
AcDbLine
 10
33.937321445
 20
374.3671613146
 30
0.0
 11
9.0120128359
 21
374.3671613141
 31
0.0
  0
ARC
  5
74
330
69
100
AcDbEntity
  8
$DDT_AUDIT_GENERATED_(6B)
  6
Continuous
 62
     7
100
AcDbCircle
 10
33.6916556836
 20
459.1562686414
 30
0.0
 40
37.62388861275751
100
AcDbArc
 50
234.8864457263
 51
270.3741163363
  0
SPLINE
  5
75
330
69
100
AcDbEntity
  8
$DDT_AUDIT_GENERATED_(6B)
  6
Continuous
 62
     7
100
AcDbSpline
210
0.0
220
0.0
230
1.0
 70
     8
 71
     3
 72
     8
 73
     4
 74
     0
 42
0.0000000002695771
 43
0.0000000001
 40
0.0
 40
0.0
 40
0.0
 40
0.0
 40
1.0
 40
1.0
 40
1.0
 40
1.0
 10
58.93756429751684
 20
448.2416125793719
 30
0.0
 10
58.93787599982426
 20
435.8765690533262
 30
0.0
 10
58.93770394491294
 20
423.5115201736385
 30
0.0
 10
58.93746808702069
 20
411.1464781655575
 30
0.0
  0
SPLINE
  5
76
330
69
100
AcDbEntity
  8
$DDT_AUDIT_GENERATED_(6B)
  6
Continuous
 62
     7
100
AcDbSpline
210
0.0
220
0.0
230
1.0
 70
     8
 71
     3
 72
     8
 73
     4
 74
     0
 42
0.0000000003275324
 43
0.0000000001
 40
0.0
 40
0.0
 40
0.0
 40
0.0
 40
0.0021236897477986
 40
0.0021236897477986
 40
0.0021236897477986
 40
0.0021236897477986
 10
58.93756429751684
 20
448.2416125793719
 30
0.0
 10
58.93751774422126
 20
448.2199970765716
 30
0.0
 10
58.9374738344426
 20
448.1983815413372
 30
0.0
 10
58.93743171256816
 20
448.1767736323727
 30
0.0
  0
ARC
  5
77
330
69
100
AcDbEntity
  8
$DDT_AUDIT_GENERATED_(6B)
  6
Continuous
 62
     7
100
AcDbCircle
 10
-16.2026842345
 20
414.642945231
 30
0.0
 40
75.2214581940841
100
AcDbArc
 50
357.3357999019
 51
13.7280197027
  0
ARC
  5
78
330
69
100
AcDbEntity
  8
$DDT_AUDIT_GENERATED_(6B)
  6
Continuous
 62
     7
100
AcDbCircle
 10
-20.2161996444
 20
410.8310900061
 30
0.0
 40
80.07217816747311
100
AcDbArc
 50
15.6965334249
 51
25.7925449871
  0
SPLINE
  5
79
330
69
100
AcDbEntity
  8
$DDT_AUDIT_GENERATED_(6B)
  6
Continuous
 62
     7
100
AcDbSpline
210
0.0
220
0.0
230
1.0
 70
     8
 71
     3
 72
    33
 73
    29
 74
     0
 42
0.0000000005245082
 43
0.0000000001
 40
0.0
 40
0.0
 40
0.0
 40
0.0
 40
0.0378064417955419
 40
0.0795886895037772
 40
0.1253661407588433
 40
0.1567139432378062
 40
0.1880630758309242
 40
0.2194101773011576
 40
0.250757294117903
 40
0.3134208672822894
 40
0.3760682807997645
 40
0.4073893269423226
 40
0.4230517307530648
 40
0.4387109406460235
 40
0.4700186283070123
 40
0.4856712126079761
 40
0.501321394054554
 40
0.5638709715473883
 40
0.5888870886128768
 40
0.6263930045075427
 40
0.6576332732522584
 40
0.6732495507816049
 40
0.6888626824326312
 40
0.7200742545529653
 40
0.7512717835356926
 40
0.8757430004051225
 40
0.9379141556938455
 40
1.0
 40
1.0
 40
1.0
 40
1.0
 10
33.93732144502189
 20
450.3203100168565
 30
0.0
 10
34.28198771944231
 20
450.318668108397
 30
0.0
 10
35.00756610752816
 20
450.3152116248889
 30
0.0
 10
36.14681134047429
 20
450.2855627243229
 30
0.0
 10
37.21960382084006
 20
450.2380386656189
 30
0.0
 10
38.18732474673274
 20
450.1768301958605
 30
0.0
 10
39.01666120712392
 20
450.1117076912453
 30
0.0
 10
39.83355595726281
 20
450.0342450044501
 30
0.0
 10
40.90472410534345
 20
449.9150360701946
 30
0.0
 10
42.2059359996415
 20
449.7365273734251
 30
0.0
 10
43.44430903534204
 20
449.5213721108286
 30
0.0
 10
44.26350236882319
 20
449.3532084701723
 30
0.0
 10
44.71705796450433
 20
449.2524734752794
 30
0.0
 10
45.16473632386576
 20
449.1487830222758
 30
0.0
 10
45.59514850571907
 20
449.0407203233557
 30
0.0
 10
46.01261112343776
 20
448.9288046497196
 30
0.0
 10
46.63050374824287
 20
448.7573803545815
 30
0.0
 10
47.26821265995692
 20
448.558948755471
 30
0.0
 10
47.97925680096957
 20
448.308449236392
 30
0.0
 10
48.48338072304064
 20
448.1157289093319
 30
0.0
 10
48.89630828988363
 20
447.9384948107256
 30
0.0
 10
49.18452988968144
 20
447.8056998177247
 30
0.0
 10
49.46506161049022
 20
447.6719569417899
 30
0.0
 10
49.79059410718868
 20
447.5032188508868
 30
0.0
 10
50.51433582056104
 20
447.0953677319923
 30
0.0
 10
51.16542745703365
 20
446.6122417381587
 30
0.0
 10
51.65197529862164
 20
446.0686814435178
 30
0.0
 10
51.8032172483652
 20
445.8041026980461
 30
0.0
 10
51.87881929497814
 20
445.6716118250778
 30
0.0
  0
SPLINE
  5
7A
330
69
100
AcDbEntity
  8
$DDT_AUDIT_GENERATED_(6B)
  6
Continuous
 62
     7
100
AcDbSpline
210
0.0
220
0.0
230
1.0
 70
     8
 71
     3
 72
    18
 73
    14
 74
     0
 42
0.000000000559762
 43
0.0000000001
 40
0.3800596795973516
 40
0.3800596795973516
 40
0.3800596795973516
 40
0.3800596795973516
 40
0.394001534427899
 40
0.5211694019699168
 40
0.5837125221462103
 40
0.6454680877705761
 40
0.7063650489882674
 40
0.7663631445395233
 40
0.8255241283792736
 40
0.8840014473298518
 40
0.9420741465257766
 40
0.9710646213706043
 40
1.0
 40
1.0
 40
1.0
 40
1.0
 10
56.49990647737155
 20
445.1923664646074
 30
0.0
 10
56.52388320151202
 20
445.2005847099464
 30
0.0
 10
56.77055217349363
 20
445.2906593308527
 30
0.0
 10
57.18690231533215
 20
445.5201842339807
 30
0.0
 10
57.71409795781588
 20
445.9730113668763
 30
0.0
 10
58.06974048987922
 20
446.4341314528268
 30
0.0
 10
58.36516297828373
 20
447.0784543007286
 30
0.0
 10
58.58718601830234
 20
448.0021915376556
 30
0.0
 10
58.73585689673305
 20
449.3191925262043
 30
0.0
 10
58.81832459684492
 20
451.1058856820167
 30
0.0
 10
58.84797809667341
 20
452.8521473208412
 30
0.0
 10
58.85819680266889
 20
454.284655461501
 30
0.0
 10
58.85900834317544
 20
455.0065547927319
 30
0.0
 10
58.8593947594885
 20
455.3671612117396
 30
0.0
  0
LINE
  5
7B
330
69
100
AcDbEntity
  8
$DDT_AUDIT_GENERATED_(6B)
  6
Continuous
 62
     7
100
AcDbLine
 10
58.8626300541
 20
374.3671613141
 30
0.0
 11
58.937083478
 21
374.3671613141
 31
0.0
  0
LINE
  5
7C
330
69
100
AcDbEntity
  8
$DDT_AUDIT_GENERATED_(6B)
  6
Continuous
 62
     7
100
AcDbLine
 10
33.937321445
 20
374.3671613146
 30
0.0
 11
58.8626300541
 21
374.3671613141
 31
0.0
  0
ARC
  5
7D
330
69
100
AcDbEntity
  8
$DDT_AUDIT_GENERATED_(6B)
  6
Continuous
 62
     7
100
AcDbCircle
 10
34.1531917443
 20
459.2515224652
 30
0.0
 40
37.71895812018047
100
AcDbArc
 50
269.6720873226
 51
305.0673506172
  0
SPLINE
  5
7E
330
69
100
AcDbEntity
  8
$DDT_AUDIT_GENERATED_(6B)
  6
Continuous
 62
     7
100
AcDbSpline
210
0.0
220
0.0
230
1.0
 70
     8
 71
     3
 72
    16
 73
    12
 74
     0
 42
0.0000000003841336
 43
0.0000000001
 40
0.0000145265016503
 40
0.0000145265016503
 40
0.0000145265016503
 40
0.0000145265016503
 40
0.125
 40
0.125
 40
0.2499999999999999
 40
0.2499999999999999
 40
0.3749999999999999
 40
0.3749999999999999
 40
0.4999999999999999
 40
0.4999999999999999
 40
0.5630880835919357
 40
0.5630880835919357
 40
0.5630880835919357
 40
0.5630880835919357
 10
33.93619183892613
 20
445.7410798035628
 30
0.0
 10
32.31474183740809
 20
445.7390310319296
 30
0.0
 10
30.72383452892556
 20
445.609132586771
 30
0.0
 10
27.75473471626096
 20
445.1663719450766
 30
0.0
 10
26.39597291553978
 20
444.8536993356532
 30
0.0
 10
24.139814541825
 20
444.1040057231303
 30
0.0
 10
23.23047351144029
 20
443.6622208574839
 30
0.0
 10
22.01204419306775
 20
442.7015037243978
 30
0.0
 10
21.69007662696434
 20
442.1705646988315
 30
0.0
 10
21.68595802465741
 20
441.3273139644006
 30
0.0
 10
21.76529668546522
 20
441.0346764720902
 30
0.0
 10
21.9229345761929
 20
440.7368624664615
 30
0.0
  0
SPLINE
  5
7F
330
69
100
AcDbEntity
  8
$DDT_AUDIT_GENERATED_(6B)
  6
Continuous
 62
     7
100
AcDbSpline
210
0.0
220
0.0
230
1.0
 70
     8
 71
     3
 72
    16
 73
    12
 74
     0
 42
0.000000000383648
 43
0.0000000001
 40
0.4376889398226754
 40
0.4376889398226754
 40
0.4376889398226754
 40
0.4376889398226754
 40
0.5000000000000001
 40
0.5000000000000001
 40
0.6250000000000001
 40
0.6250000000000001
 40
0.7500000000000001
 40
0.7500000000000001
 40
0.8750000000000002
 40
0.8750000000000002
 40
0.9999564661070243
 40
0.9999564661070243
 40
0.9999564661070243
 40
0.9999564661070243
 10
45.95282898947917
 20
440.7398907223312
 30
0.0
 10
46.10815792773188
 20
441.0342851405283
 30
0.0
 10
46.18754669642083
 20
441.3241347743479
 30
0.0
 10
46.18686809646663
 20
442.1653979222336
 30
0.0
 10
45.87109763162865
 20
442.6932433789221
 30
0.0
 10
44.64606366067598
 20
443.662273121383
 30
0.0
 10
43.75126311995916
 20
444.0981142620792
 30
0.0
 10
41.47266417237054
 20
444.8561234139249
 30
0.0
 10
40.12254845980157
 20
445.1657525458441
 30
0.0
 10
37.15764253295715
 20
445.6083383555819
 30
0.0
 10
35.56059665818179
 20
445.7389702734073
 30
0.0
 10
33.93845263923522
 20
445.741078356221
 30
0.0
  0
ELLIPSE
  5
80
330
69
100
AcDbEntity
  8
$DDT_AUDIT_GENERATED_(6B)
  6
Continuous
 62
     7
100
AcDbEllipse
 10
33.937321445
 20
442.9671613146
 30
0.0
 11
12.24999999999999
 21
0.0
 31
0.0
210
0.0
220
0.0
230
1.0
 40
0.4226182617
 41
-0.2023743359124035
 42
-0.1450424466969329
  0
ELLIPSE
  5
81
330
69
100
AcDbEntity
  8
$DDT_AUDIT_GENERATED_(6B)
  6
Continuous
 62
     7
100
AcDbEllipse
 10
33.937321445
 20
442.9671613146
 30
0.0
 11
12.24999999999999
 21
0.0
 31
0.0
210
0.0
220
0.0
230
1.0
 40
0.4226182617
 41
3.286201005730525
 42
3.343966989502183
  0
ARC
  5
82
330
69
100
AcDbEntity
  8
$DDT_AUDIT_GENERATED_(6B)
  6
Continuous
 62
     7
100
AcDbCircle
 10
556.6869043683
 20
452.8009609873
 30
0.0
 40
547.769261715805
100
AcDbArc
 50
179.5307911418
 51
180.4840129824
  0
SPLINE
  5
83
330
69
100
AcDbEntity
  8
$DDT_AUDIT_GENERATED_(6B)
  6
Continuous
 62
     7
100
AcDbSpline
210
0.0
220
0.0
230
1.0
 70
     8
 71
     3
 72
    86
 73
    82
 74
     0
 42
0.0000000003314405
 43
0.0000000001
 40
0.0
 40
0.0
 40
0.0
 40
0.0
 40
0.0130723983852403
 40
0.0255073120189655
 40
0.0373028450946448
 40
0.0484569718146675
 40
0.0623259880025369
 40
0.0750458950508904
 40
0.0866102560836034
 40
0.0989531251422555
 40
0.1096153469431496
 40
0.1185862240153255
 40
0.1258628845934077
 40
0.1314376950889906
 40
0.1346704397325478
 40
0.1368115001206165
 40
0.1383072775335096
 40
0.1405429236538229
 40
0.1436183930717997
 40
0.1475353692643967
 40
0.1522959304806007
 40
0.1585101553799712
 40
0.1656270887533228
 40
0.1725784551800303
 40
0.1791186514864807
 40
0.1852431525226455
 40
0.1943015816202044
 40
0.202262109843096
 40
0.2094433407574341
 40
0.2170578823784534
 40
0.2252214890689299
 40
0.2338801818820916
 40
0.24239266249969
 40
0.2507720483190679
 40
0.258721422603308
 40
0.2655509273277786
 40
0.2711025977107039
 40
0.275993610075138
 40
0.2817704139276622
 40
0.2898170166844921
 40
0.2992144938773905
 40
0.3099624035116625
 40
0.3220561714959946
 40
0.3409280636035796
 40
0.3589946985102397
 40
0.3759740826706887
 40
0.3918637771034524
 40
0.4066628383739859
 40
0.423956711665802
 40
0.4400351834612545
 40
0.4558071981441348
 40
0.4712862081257284
 40
0.4864730120292794
 40
0.5013835193808218
 40
0.5169388044894897
 40
0.5369598129428443
 40
0.5586544954105993
 40
0.582021621070189
 40
0.6070613327356392
 40
0.6337756507756958
 40
0.6621690664392043
 40
0.6897362950312791
 40
0.7162729629357404
 40
0.7417041632977361
 40
0.766031206520301
 40
0.7892549996027391
 40
0.8102305535375947
 40
0.8302170750013745
 40
0.8492142022475027
 40
0.8670870039434373
 40
0.8833912590564527
 40
0.8980900774457147
 40
0.9031877004152475
 40
0.9080589748987653
 40
0.9128117095827544
 40
0.918392038081984
 40
0.9250253888736757
 40
0.9327159087891368
 40
0.9414662955093391
 40
0.9502898411397079
 40
0.9563602900031183
 40
0.9563602900031183
 40
0.9563602900031183
 40
0.9563602900031183
 10
33.93732145230467
 20
457.1451923744769
 30
0.0
 10
33.51335330889322
 20
457.1438096861954
 30
0.0
 10
32.81630901059124
 20
457.1409082244706
 30
0.0
 10
31.69935912420673
 20
457.1198026485072
 30
0.0
 10
30.67272300705129
 20
457.0884432446297
 30
0.0
 10
29.60962653612325
 20
457.0427480341288
 30
0.0
 10
28.54028617189166
 20
456.980798348666
 30
0.0
 10
27.4842593674903
 20
456.9009997764659
 30
0.0
 10
26.49599880035464
 20
456.8088389573036
 30
0.0
 10
25.5937000110302
 20
456.7070867660559
 30
0.0
 10
24.78854157399391
 20
456.5999687323002
 30
0.0
 10
24.14106925113282
 20
456.5010559633375
 30
0.0
 10
23.63168066767533
 20
456.4151974393138
 30
0.0
 10
23.26881462009234
 20
456.3489132402245
 30
0.0
 10
23.02573145388639
 20
456.3023280565147
 30
0.0
 10
22.87471929943066
 20
456.2725534930826
 30
0.0
 10
22.74550451266902
 20
456.2465904405419
 30
0.0
 10
22.59639782564397
 20
456.21603928495
 30
0.0
 10
22.39635442338737
 20
456.1738970331674
 30
0.0
 10
22.14585975300853
 20
456.1191161291494
 30
0.0
 10
21.83602796937189
 20
456.0481363777599
 30
0.0
 10
21.47115584781903
 20
455.9596523436945
 30
0.0
 10
21.07824331712546
 20
455.8577798833072
 30
0.0
 10
20.69461766368432
 20
455.7514941065379
 30
0.0
 10
20.34795574874067
 20
455.6486460489027
 30
0.0
 10
19.98241715513167
 20
455.5330046633455
 30
0.0
 10
19.611088118128
 20
455.407369675864
 30
0.0
 10
19.24584407073551
 20
455.2734724918492
 30
0.0
 10
18.91625676719597
 20
455.1443347056374
 30
0.0
 10
18.60005301566584
 20
455.0117377276639
 30
0.0
 10
18.284483232885
 20
454.8685062772025
 30
0.0
 10
17.98258882192475
 20
454.7187963774713
 30
0.0
 10
17.69822792749268
 20
454.5635395120815
 30
0.0
 10
17.44041852021022
 20
454.4076082840381
 30
0.0
 10
17.21459794402385
 20
454.2547987592132
 30
0.0
 10
17.03568509643191
 20
454.1200132568174
 30
0.0
 10
16.89558935743198
 20
454.0044849728929
 30
0.0
 10
16.77650438458568
 20
453.8978465219857
 30
0.0
 10
16.66446221379515
 20
453.7876497638903
 30
0.0
 10
16.54613271529773
 20
453.6599100889443
 30
0.0
 10
16.41282373536582
 20
453.5128233904327
 30
0.0
 10
16.27084615557812
 20
453.351153893143
 30
0.0
 10
16.09758935204307
 20
453.1487329330837
 30
0.0
 10
15.90602336353903
 20
452.9179442938629
 30
0.0
 10
15.69867045003259
 20
452.6605370841905
 30
0.0
 10
15.50787652272359
 20
452.4168931131944
 30
0.0
 10
15.33341750855856
 20
452.1884369629022
 30
0.0
 10
15.16188647589722
 20
451.9586657261061
 30
0.0
 10
14.99431779616754
 20
451.7290324133451
 30
0.0
 10
14.82805673362941
 20
451.4960373372157
 30
0.0
 10
14.67054111067639
 20
451.2706828367514
 30
0.0
 10
14.51889007059156
 20
451.0493480617234
 30
0.0
 10
14.37270146027707
 20
450.8318773141972
 30
0.0
 10
14.2289249813645
 20
450.6139672402001
 30
0.0
 10
14.07269570225391
 20
450.3726821157397
 30
0.0
 10
13.89894085831658
 20
450.0983701999775
 30
0.0
 10
13.70599142097415
 20
449.7858216224528
 30
0.0
 10
13.50325238542797
 20
449.4481810292823
 30
0.0
 10
13.29170437784886
 20
449.0852459575871
 30
0.0
 10
13.07233281500211
 20
448.6967726777897
 30
0.0
 10
12.85274457680332
 20
448.294523142466
 30
0.0
 10
12.64016285966336
 20
447.8914723270031
 30
0.0
 10
12.44112488780554
 20
447.5013546766116
 30
0.0
 10
12.25528573249151
 20
447.1258284001894
 30
0.0
 10
12.08188228024528
 20
446.765548785395
 30
0.0
 10
11.92274122786027
 20
446.4264449480701
 30
0.0
 10
11.77665900965161
 20
446.1082559843052
 30
0.0
 10
11.64257411151034
 20
445.8106846704721
 30
0.0
 10
11.51749995012415
 20
445.5283259235173
 30
0.0
 10
11.40235797020266
 20
445.2642015184756
 30
0.0
 10
11.30169230252663
 20
445.0298065151833
 30
0.0
 10
11.23068801845527
 20
444.86585167692
 30
0.0
 10
11.18490586462112
 20
444.7588970814089
 30
0.0
 10
11.1586021573215
 20
444.697372732824
 30
0.0
 10
11.13159298631605
 20
444.6357840486113
 30
0.0
 10
11.1085895452039
 20
444.5841858168709
 30
0.0
 10
11.08688295355863
 20
444.536461265283
 30
0.0
 10
11.06724690532981
 20
444.4941636180243
 30
0.0
 10
11.05081584044726
 20
444.4593996972718
 30
0.0
 10
11.04109972035016
 20
444.4384071212721
 30
0.0
 10
11.03913357112768
 20
444.4328938998157
 30
0.0
 10
11.0395226427092
 20
444.4324812458173
 30
0.0
  0
ARC
  5
84
330
69
100
AcDbEntity
  8
$DDT_AUDIT_GENERATED_(6B)
  6
Continuous
 62
     7
100
AcDbCircle
 10
-8176.3083590674
 20
392.608239975
 30
0.0
 40
8185.266250778896
100
AcDbArc
 50
359.8723147599
 51
0.1297394064
  0
LINE
  5
85
330
69
100
AcDbEntity
  8
$DDT_AUDIT_GENERATED_(6B)
  6
Continuous
 62
     7
100
AcDbLine
 10
8.937093054
 20
411.1977925661
 30
0.0
 11
8.9369070882
 21
411.1427757799
 31
0.0
  0
ARC
  5
86
330
69
100
AcDbEntity
  8
$DDT_AUDIT_GENERATED_(6B)
  6
Continuous
 62
     7
100
AcDbCircle
 10
-494.3590728133
 20
452.8016775818
 30
0.0
 40
553.3158831126245
100
AcDbArc
 50
359.5207648316
 51
0.4644310441
  0
SPLINE
  5
87
330
69
100
AcDbEntity
  8
$DDT_AUDIT_GENERATED_(6B)
  6
Continuous
 62
     7
100
AcDbSpline
210
0.0
220
0.0
230
1.0
 70
     8
 71
     3
 72
    81
 73
    77
 74
     0
 42
0.0000000003314826
 43
0.0000000001
 40
0.0435300230596097
 40
0.0435300230596097
 40
0.0435300230596097
 40
0.0435300230596097
 40
0.0491598104864654
 40
0.0577696848589856
 40
0.0664637913142373
 40
0.0754018700833529
 40
0.0829200392413274
 40
0.0890250106899126
 40
0.0945295530152885
 40
0.1088573837617669
 40
0.1249059642892788
 40
0.1426728133651775
 40
0.168655008697106
 40
0.1965413909151315
 40
0.2263276445005003
 40
0.2580141489811222
 40
0.2847327370198424
 40
0.3126701700695012
 40
0.3416389546618119
 40
0.3695391173752303
 40
0.3957942788126587
 40
0.4199833281187647
 40
0.442591178336748
 40
0.4636178569495344
 40
0.4830621861212847
 40
0.4988892934919157
 40
0.5140751210829742
 40
0.5295515566941361
 40
0.5453309688290685
 40
0.5614141908773171
 40
0.577844728870154
 40
0.5956664538116863
 40
0.6158769982360767
 40
0.6380257494422853
 40
0.6621081340765822
 40
0.674072314110359
 40
0.6853534013414592
 40
0.6955512381554168
 40
0.704661761701737
 40
0.7126824793025087
 40
0.7191160984939631
 40
0.7246322105772524
 40
0.7293727829590375
 40
0.7348964402214456
 40
0.7416372656203896
 40
0.7494249484752081
 40
0.75760856738301
 40
0.7661210493205043
 40
0.7747797434762325
 40
0.7829433514325104
 40
0.7905578942341963
 40
0.7977391262620143
 40
0.8056996557192201
 40
0.8147580862213275
 40
0.8226248973403212
 40
0.8311630143703351
 40
0.8402500396026887
 40
0.8482183157784036
 40
0.8545284074415875
 40
0.8583277500859207
 40
0.8611100872516506
 40
0.8628913789053319
 40
0.8650662935679884
 40
0.8685622845310378
 40
0.8741370958910188
 40
0.8814137575973781
 40
0.890384636060526
 40
0.9010468595146427
 40
0.9133897304871094
 40
0.9249540933129252
 40
0.9376740023335539
 40
0.9515430206718731
 40
0.9626971491213903
 40
0.9744926840260172
 40
0.9869275995878284
 40
1.0
 40
1.0
 40
1.0
 40
1.0
 10
56.83479079517644
 20
444.4328441417862
 30
0.0
 10
56.83518554925452
 20
444.433171718515
 30
0.0
 10
56.83404851038447
 20
444.4374247507531
 30
0.0
 10
56.82491685921479
 20
444.4570586690614
 30
0.0
 10
56.80838632746566
 20
444.4920538213565
 30
0.0
 10
56.78706098272122
 20
444.5379233019721
 30
0.0
 10
56.7621365791389
 20
444.5928690683153
 30
0.0
 10
56.73351956865984
 20
444.6572545148471
 30
0.0
 10
56.68643709404913
 20
444.7661309003368
 30
0.0
 10
56.61935933751383
 20
444.9224046011601
 30
0.0
 10
56.52205756971082
 20
445.1485257888594
 30
0.0
 10
56.39539086434824
 20
445.4414693530175
 30
0.0
 10
56.23768659628012
 20
445.7988288878138
 30
0.0
 10
56.05042353179043
 20
446.2134643563897
 30
0.0
 10
55.84495872784341
 20
446.6562515619714
 30
0.0
 10
55.63627416950273
 20
447.0917741614759
 30
0.0
 10
55.42588458035166
 20
447.5167475740931
 30
0.0
 10
55.21623661595149
 20
447.9268250267338
 30
0.0
 10
54.99696955638738
 20
448.3409655652321
 30
0.0
 10
54.77533267161784
 20
448.745193907845
 30
0.0
 10
54.56016919947625
 20
449.1247759057655
 30
0.0
 10
54.35389595626871
 20
449.4776084380749
 30
0.0
 10
54.15739339254161
 20
449.804207943087
 30
0.0
 10
53.97019644999508
 20
450.1070972370589
 30
0.0
 10
53.79933739236394
 20
450.3767405616926
 30
0.0
 10
53.64317743544734
 20
450.6178786047219
 30
0.0
 10
53.49669315472804
 20
450.8397803730655
 30
0.0
 10
53.34760612998392
 20
451.0613733140233
 30
0.0
 10
53.19283223453277
 20
451.2869864058234
 30
0.0
 10
53.03186618782834
 20
451.516893546422
 30
0.0
 10
52.86125801976631
 20
451.7554722773831
 30
0.0
 10
52.67105631499546
 20
452.015384245396
 30
0.0
 10
52.4541763316067
 20
452.3038155938988
 30
0.0
 10
52.20723657418631
 20
452.6219385223743
 30
0.0
 10
51.98345802803986
 20
452.8998042978319
 30
0.0
 10
51.79814381812387
 20
453.123079166409
 30
0.0
 10
51.66184203863424
 20
453.2837493789593
 30
0.0
 10
51.53063959733399
 20
453.4348357959748
 30
0.0
 10
51.4065230481358
 20
453.5742863440608
 30
0.0
 10
51.29224013319561
 20
453.6992776063707
 30
0.0
 10
51.18725910023589
 20
453.8108687313542
 30
0.0
 10
51.08467490702753
 20
453.9102795358767
 30
0.0
 10
50.96669057716306
 20
454.0150121118256
 30
0.0
 10
50.82817229621367
 20
454.1284246212138
 30
0.0
 10
50.65056603317467
 20
454.261462983065
 30
0.0
 10
50.42853633251341
 20
454.41110067153
 30
0.0
 10
50.17423977848429
 20
454.5647285021207
 30
0.0
 10
49.8920530677108
 20
454.7187965423731
 30
0.0
 10
49.59015992027492
 20
454.8685062292705
 30
0.0
 10
49.2745897781579
 20
455.0117377600629
 30
0.0
 10
48.95838625592282
 20
455.14433462759
 30
0.0
 10
48.6287983817546
 20
455.2734727696579
 30
0.0
 10
48.26355669773265
 20
455.4073684447167
 30
0.0
 10
47.86426317447798
 20
455.5424678294161
 30
0.0
 10
47.43353411830958
 20
455.677691502189
 30
0.0
 10
46.97244682517647
 20
455.8106121644881
 30
0.0
 10
46.48250221570442
 20
455.9403687136833
 30
0.0
 10
46.01245516034018
 20
456.0548280015814
 30
0.0
 10
45.6335328326368
 20
456.1404671107745
 30
0.0
 10
45.35590634728364
 20
456.1998830601519
 30
0.0
 10
45.17331479201364
 20
456.2376310999222
 30
0.0
 10
45.02503632741675
 20
456.2675615280982
 30
0.0
 10
44.86130931168159
 20
456.2999369916832
 30
0.0
 10
44.6117761102657
 20
456.3478268586654
 30
0.0
 10
44.24295845159323
 20
456.4151980851634
 30
0.0
 10
43.73357504331199
 20
456.5010557227949
 30
0.0
 10
43.08610082328919
 20
456.5999688166992
 30
0.0
 10
42.28094304569082
 20
456.7070867375078
 30
0.0
 10
41.37864404575528
 20
456.8088389648285
 30
0.0
 10
40.39038353525484
 20
456.9009997742903
 30
0.0
 10
39.33435671423026
 20
456.9807983493378
 30
0.0
 10
38.26501635477361
 20
457.0427480339827
 30
0.0
 10
37.20191988277208
 20
457.0884432446675
 30
0.0
 10
36.17528376590136
 20
457.1198026484961
 30
0.0
 10
35.05833387943272
 20
457.1409082244741
 30
0.0
 10
34.36128958115057
 20
457.1438096861954
 30
0.0
 10
33.93732143773912
 20
457.1451923744769
 30
0.0
  0
LINE
  5
88
330
69
100
AcDbEntity
  8
$DDT_AUDIT_GENERATED_(6B)
  6
Continuous
 62
     7
100
AcDbLine
 10
58.9377358019
 20
411.1427757799
 30
0.0
 11
58.937549836
 21
411.1977925661
 31
0.0
  0
ARC
  5
89
330
69
100
AcDbEntity
  8
$DDT_AUDIT_GENERATED_(6B)
  6
Continuous
 62
     7
100
AcDbCircle
 10
8039.7729125984
 20
392.6119042267
 30
0.0
 40
7980.856690380668
100
AcDbArc
 50
179.8669639456
 51
180.1309818881
  0
LINE
  5
8A
330
69
100
AcDbEntity
  8
$DDT_AUDIT_GENERATED_(6B)
  6
Continuous
 62
     7
100
AcDbLine
 10
9.1153541052
 20
457.6776196239
 30
0.0
 11
8.9734969284
 21
457.4319754001
 31
0.0
  0
LINE
  5
8B
330
69
100
AcDbEntity
  8
$DDT_AUDIT_GENERATED_(6B)
  6
Continuous
 62
     7
100
AcDbLine
 10
58.9011459703
 20
457.4319753995
 30
0.0
 11
58.7592887931
 21
457.6776196239
 31
0.0
  0
ARC
  5
8C
330
69
100
AcDbEntity
  8
$DDT_AUDIT_GENERATED_(6B)
  6
Continuous
 62
     7
100
AcDbCircle
 10
58.6386024375
 20
457.2867142273
 30
0.0
 40
0.2999999999965439
100
AcDbArc
 50
359.994340784
 51
30.0162048623
  0
ARC
  5
8D
330
69
100
AcDbEntity
  8
$DDT_AUDIT_GENERATED_(6B)
  6
Continuous
 62
     7
100
AcDbCircle
 10
9.2360404526
 20
457.2867142273
 30
0.0
 40
0.2999999999965543
100
AcDbArc
 50
149.9925084819
 51
179.9855306372
  0
ELLIPSE
  5
8F
330
69
100
AcDbEntity
  8
$DDT_AUDIT_GENERATED_(8E)
  6
Continuous
 62
     7
100
AcDbEllipse
 10
33.937321445
 20
434.50423908
 30
0.0
 11
10.75001302019925
 21
-6.938893903907228E-15
 31
0.0
210
0.0
220
0.0
230
1.0
 40
0.4226182617
 41
0.0
 42
6.283185307179586
  0
LINE
  5
90
330
69
100
AcDbEntity
  8
$DDT_AUDIT_GENERATED_(8E)
  6
Continuous
 62
     7
100
AcDbLine
 10
22.9391361513
 20
436.3167632454
 30
0.0
 11
22.9391361513
 21
433.4766460676
 31
0.0
  0
ELLIPSE
  5
91
330
69
100
AcDbEntity
  8
$DDT_AUDIT_GENERATED_(8E)
  6
Continuous
 62
     7
100
AcDbEllipse
 10
33.937321445
 20
437.2231624411
 30
0.0
 11
12.00000332312826
 21
2.775557561562891E-14
 31
0.0
210
0.0
220
0.0
230
1.0
 40
0.4226182617
 41
2.730075928383274
 42
3.55310937879631
  0
LINE
  5
92
330
69
100
AcDbEntity
  8
$DDT_AUDIT_GENERATED_(8E)
  6
Continuous
 62
     7
100
AcDbLine
 10
22.9391361513
 20
433.3306642882
 30
0.0
 11
22.9391361513
 21
433.4766460676
 31
0.0
  0
LINE
  5
93
330
69
100
AcDbEntity
  8
$DDT_AUDIT_GENERATED_(8E)
  6
Continuous
 62
     7
100
AcDbLine
 10
22.9391361513
 20
439.2517300975
 30
0.0
 11
22.9391361513
 21
437.7101332434
 31
0.0
  0
LINE
  5
94
330
69
100
AcDbEntity
  8
$DDT_AUDIT_GENERATED_(8E)
  6
Continuous
 62
     7
100
AcDbLine
 10
22.9391361513
 20
437.7101332434
 30
0.0
 11
22.9391361513
 21
436.3167632454
 31
0.0
  0
ELLIPSE
  5
95
330
69
100
AcDbEntity
  8
$DDT_AUDIT_GENERATED_(8E)
  6
Continuous
 62
     7
100
AcDbEllipse
 10
33.937321445
 20
434.8967046565
 30
0.0
 11
11.50002840768382
 21
0.0
 31
0.0
210
0.0
220
0.0
230
1.0
 40
0.4226182617
 41
-0.9401358561599356
 42
-0.8066199261803249
  0
ELLIPSE
  5
96
330
69
100
AcDbEntity
  8
$DDT_AUDIT_GENERATED_(8E)
  6
Continuous
 62
     7
100
AcDbEllipse
 10
33.937321445
 20
434.8967046565
 30
0.0
 11
11.50002840768382
 21
0.0
 31
0.0
210
0.0
220
0.0
230
1.0
 40
0.4226182617
 41
4.008289316650702
 42
4.081728509749727
  0
LINE
  5
97
330
69
100
AcDbEntity
  8
$DDT_AUDIT_GENERATED_(8E)
  6
Continuous
 62
     7
100
AcDbLine
 10
44.9355067387
 20
433.4766460676
 30
0.0
 11
44.9355067387
 21
436.3167632454
 31
0.0
  0
ELLIPSE
  5
98
330
69
100
AcDbEntity
  8
$DDT_AUDIT_GENERATED_(8E)
  6
Continuous
 62
     7
100
AcDbEllipse
 10
33.937321445
 20
437.2231624411
 30
0.0
 11
-12.00000332312817
 21
2.775557561562891E-14
 31
0.0
210
0.0
220
0.0
230
1.0
 40
0.4226182617
 41
2.730075928383273
 42
3.55310937879631
  0
LINE
  5
99
330
69
100
AcDbEntity
  8
$DDT_AUDIT_GENERATED_(8E)
  6
Continuous
 62
     7
100
AcDbLine
 10
44.9355067387
 20
436.3167632454
 30
0.0
 11
44.9355067387
 21
437.7101332434
 31
0.0
  0
LINE
  5
9A
330
69
100
AcDbEntity
  8
$DDT_AUDIT_GENERATED_(8E)
  6
Continuous
 62
     7
100
AcDbLine
 10
44.9355067387
 20
433.4766460676
 30
0.0
 11
44.9355067387
 21
433.3306829832
 31
0.0
  0
LINE
  5
9B
330
69
100
AcDbEntity
  8
$DDT_AUDIT_GENERATED_(8E)
  6
Continuous
 62
     7
100
AcDbLine
 10
44.9355067387
 20
439.2517300975
 30
0.0
 11
44.9355067387
 21
437.7101332434
 31
0.0
  0
LINE
  5
9C
330
69
100
AcDbEntity
  8
$DDT_AUDIT_GENERATED_(8E)
  6
Continuous
 62
     7
100
AcDbLine
 10
27.1560041534
 20
430.9714843663
 30
0.0
 11
27.5982719579
 21
430.8350160372
 31
0.0
  0
LINE
  5
9D
330
69
100
AcDbEntity
  8
$DDT_AUDIT_GENERATED_(8E)
  6
Continuous
 62
     7
100
AcDbLine
 10
40.2763709321
 20
430.8350160372
 30
0.0
 11
40.7186387366
 21
430.9714843663
 31
0.0
  0
ARC
  5
9E
330
69
100
AcDbEntity
  8
$DDT_AUDIT_GENERATED_(8E)
  6
Continuous
 62
     7
100
AcDbCircle
 10
39.1730633983
 20
438.9944460015
 30
0.0
 40
8.075325561626435
100
AcDbArc
 50
290.0680367693
 51
315.5063311513
  0
ARC
  5
9F
330
69
100
AcDbEntity
  8
$DDT_AUDIT_GENERATED_(8E)
  6
Continuous
 62
     7
100
AcDbCircle
 10
29.1214662663
 20
439.5807157231
 30
0.0
 40
8.79023316778633
100
AcDbArc
 50
225.3102829276
 51
252.5034139852
  0
LINE
  5
A0
330
69
100
AcDbEntity
  8
$DDT_AUDIT_GENERATED_(8E)
  6
Continuous
 62
     7
100
AcDbLine
 10
21.9373181219
 20
442.4183287543
 30
0.0
 11
21.9373181219
 21
437.2231624411
 31
0.0
  0
LINE
  5
A1
330
69
100
AcDbEntity
  8
$DDT_AUDIT_GENERATED_(8E)
  6
Continuous
 62
     7
100
AcDbLine
 10
45.9373247682
 20
437.2231624411
 30
0.0
 11
45.9373247682
 21
442.4339865189
 31
0.0
  0
SPLINE
  5
A3
330
69
100
AcDbEntity
  8
$DDT_AUDIT_GENERATED_(A2)
  6
Continuous
 62
     7
100
AcDbSpline
210
0.0
220
0.0
230
1.0
 70
     8
 71
     3
 72
    21
 73
    17
 74
     0
 42
0.0000000022535241
 43
0.0000000001
 40
0.0
 40
0.0
 40
0.0
 40
0.0
 40
0.0227272727272727
 40
0.0454545454545454
 40
0.0681818181818183
 40
0.090909090909091
 40
0.1136363636363637
 40
0.1363636363636364
 40
0.1590909090909093
 40
0.181818181818182
 40
0.2045454545454546
 40
0.2272727272727269
 40
0.2500000000000011
 40
0.2727272727272732
 40
0.3636363636363635
 40
0.4272474002561932
 40
0.4272474002561932
 40
0.4272474002561932
 40
0.4272474002561932
 10
18.67272595243979
 20
502.0311961819071
 30
0.0
 10
18.64040177139779
 20
502.0302026080996
 30
0.0
 10
18.57568504492329
 20
502.0316245955727
 30
0.0
 10
18.47931906620099
 20
502.043683818809
 30
0.0
 10
18.38457640262949
 20
502.0653681208356
 30
0.0
 10
18.2923712583702
 20
502.0963763384154
 30
0.0
 10
18.20361783758419
 20
502.1364073083114
 30
0.0
 10
18.11931958758079
 20
502.1853733582413
 30
0.0
 10
18.04047995566959
 20
502.2431868159222
 30
0.0
 10
17.96810238915949
 20
502.3097600090713
 30
0.0
 10
17.90319033535959
 20
502.3850052654064
 30
0.0
 10
17.84623468115869
 20
502.4677513763561
 30
0.0
 10
17.79772631344539
 20
502.5568271333501
 30
0.0
 10
17.71858592477149
 20
502.7452955222844
 30
0.0
 10
17.6769982537113
 20
503.0161827084871
 30
0.0
 10
17.70527572494607
 20
503.2532175966899
 30
0.0
 10
17.72604870553482
 20
503.3488353759404
 30
0.0
  0
SPLINE
  5
A4
330
69
100
AcDbEntity
  8
$DDT_AUDIT_GENERATED_(A2)
  6
Continuous
 62
     7
100
AcDbSpline
210
0.0
220
0.0
230
1.0
 70
     8
 71
     3
 72
    13
 73
     9
 74
     0
 42
0.0000000022293294
 43
0.0000000001
 40
0.0
 40
0.0
 40
0.0
 40
0.0
 40
0.0625776936706771
 40
0.1252893888607017
 40
0.1876219193980399
 40
0.2501404259063286
 40
0.3743892914823107
 40
0.4253718745404835
 40
0.4253718745404835
 40
0.4253718745404835
 40
0.4253718745404835
 10
49.20194568887859
 20
502.0311135374241
 30
0.0
 10
49.29114750857806
 20
502.0360766273151
 30
0.0
 10
49.46974216139829
 20
502.0460134348708
 30
0.0
 10
49.71924700791603
 20
502.1499774174703
 30
0.0
 10
49.93194242660952
 20
502.3187810031706
 30
0.0
 10
50.13804371709229
 20
502.6262860618324
 30
0.0
 10
50.20244879662501
 20
502.9992120009479
 30
0.0
 10
50.16634251247757
 20
503.2676398748238
 30
0.0
 10
50.14982782548222
 20
503.3444290036084
 30
0.0
  0
ARC
  5
A5
330
69
100
AcDbEntity
  8
$DDT_AUDIT_GENERATED_(A2)
  6
Continuous
 62
     7
100
AcDbCircle
 10
33.9352979188
 20
-250.7783684855
 30
0.0
 40
752.9642665875742
100
AcDbArc
 50
88.8382258419
 51
91.1614639517
  0
SPLINE
  5
A6
330
69
100
AcDbEntity
  8
$DDT_AUDIT_GENERATED_(A2)
  6
Continuous
 62
     7
100
AcDbSpline
210
0.0
220
0.0
230
1.0
 70
     8
 71
     3
 72
    26
 73
    22
 74
     0
 42
0.0000000002629949
 43
0.0000000001
 40
0.0
 40
0.0
 40
0.0
 40
0.0
 40
0.0625
 40
0.0625
 40
0.1249999999999999
 40
0.1249999999999999
 40
0.2499999999999999
 40
0.2499999999999999
 40
0.3749999999999998
 40
0.3749999999999998
 40
0.4999999999999998
 40
0.4999999999999998
 40
0.6249999999999998
 40
0.6249999999999998
 40
0.7499999999999999
 40
0.7499999999999999
 40
0.8749999999999999
 40
0.8749999999999999
 40
0.9374999999999999
 40
0.9374999999999999
 40
1.0
 40
1.0
 40
1.0
 40
1.0
 10
49.20194568887859
 20
502.0311135374241
 30
0.0
 10
49.15681589681312
 20
502.4691373371144
 30
0.0
 10
49.11095146031609
 20
502.9086189694461
 30
0.0
 10
49.02175916446379
 20
503.7822417253429
 30
0.0
 10
49.01686048467602
 20
504.2235210339374
 30
0.0
 10
48.48769248812475
 20
505.5264241046062
 30
0.0
 10
47.57551295214986
 20
506.3628223034706
 30
0.0
 10
44.81353112854867
 20
507.7944590498042
 30
0.0
 10
42.96631014873994
 20
508.3879701099312
 30
0.0
 10
38.71721200515651
 20
509.1995588975678
 30
0.0
 10
36.33541670530935
 20
509.4143336315659
 30
0.0
 10
31.54131134002613
 20
509.4143879459851
 30
0.0
 10
29.1542074314655
 20
509.1988522239736
 30
0.0
 10
24.9173309063967
 20
508.3897970459971
 30
0.0
 10
23.06740148177595
 20
507.7969814224496
 30
0.0
 10
20.29849976109277
 20
506.3632473387661
 30
0.0
 10
19.3887923723114
 20
505.5261443040041
 30
0.0
 10
18.85874501559096
 20
504.2260675340488
 30
0.0
 10
18.85376827573727
 20
503.7876240304593
 30
0.0
 10
18.7627066770473
 20
502.9075013635718
 30
0.0
 10
18.7179657428016
 20
502.4706201700199
 30
0.0
 10
18.67272595243979
 20
502.0311961819071
 30
0.0
  0
SPLINE
  5
A7
330
69
100
AcDbEntity
  8
$DDT_AUDIT_GENERATED_(A2)
  6
Continuous
 62
     7
100
AcDbSpline
210
0.0
220
0.0
230
1.0
 70
    11
 71
     3
 72
    22
 73
    18
 74
     0
 42
0.0000000004395068
 43
0.0000000001
 40
0.0
 40
0.0
 40
0.0
 40
0.0
 40
0.1250000000000001
 40
0.1250000000000001
 40
0.2500000000000001
 40
0.2500000000000001
 40
0.3750000000000001
 40
0.3750000000000001
 40
0.5
 40
0.5
 40
0.625
 40
0.625
 40
0.75
 40
0.75
 40
0.8750000000000001
 40
0.8750000000000001
 40
1.0
 40
1.0
 40
1.0
 40
1.0
 10
33.93732693501266
 20
473.8920287413339
 30
0.0
 10
34.87572866499005
 20
473.8919975602547
 30
0.0
 10
35.79544192173097
 20
473.5289604582719
 30
0.0
 10
37.08651179068026
 20
472.2483318151004
 30
0.0
 10
37.44101680110455
 20
471.3261501985081
 30
0.0
 10
37.40205439033873
 20
469.4761643186656
 30
0.0
 10
37.03534549408521
 20
468.5603429342879
 30
0.0
 10
35.77132582433214
 20
467.1800377830256
 30
0.0
 10
34.87174310564174
 20
466.7450244833261
 30
0.0
 10
33.01523046711318
 20
466.7414140831867
 30
0.0
 10
32.10711263457885
 20
467.1785761445273
 30
0.0
 10
30.84482080954685
 20
468.5520826222806
 30
0.0
 10
30.47425432708827
 20
469.4657218158284
 30
0.0
 10
30.43197500934989
 20
471.3254166422304
 30
0.0
 10
30.78421381595253
 20
472.2429521098811
 30
0.0
 10
32.07529985560217
 20
473.5274692381815
 30
0.0
 10
32.99892520503526
 20
473.8920599224131
 30
0.0
 10
33.93732693501266
 20
473.8920287413339
 30
0.0
  0
LINE
  5
A8
330
69
100
AcDbEntity
  8
$DDT_AUDIT_GENERATED_(A2)
  6
Continuous
 62
     7
100
AcDbLine
 10
61.1899418057
 20
457.6776196239
 30
0.0
 11
6.6922666741
 21
457.6776196239
 31
0.0
  0
SPLINE
  5
A9
330
69
100
AcDbEntity
  8
$DDT_AUDIT_GENERATED_(A2)
  6
Continuous
 62
     7
100
AcDbSpline
210
0.0
220
0.0
230
1.0
 70
     8
 71
     3
 72
     8
 73
     4
 74
     0
 42
0.0000003493495119
 43
0.0000000001
 40
0.3548740285450072
 40
0.3548740285450072
 40
0.3548740285450072
 40
0.3548740285450072
 40
0.3898089797386878
 40
0.3898089797386878
 40
0.3898089797386878
 40
0.3898089797386878
 10
6.368646237461389
 20
458.0090289823385
 30
0.0
 10
6.368609726030858
 20
458.008996707567
 30
0.0
 10
6.36861979953324
 20
458.0089671445067
 30
0.0
 10
6.368673286393189
 20
458.0089401661928
 30
0.0
  0
ARC
  5
AA
330
69
100
AcDbEntity
  8
$DDT_AUDIT_GENERATED_(A2)
  6
Continuous
 62
     7
100
AcDbCircle
 10
2.8175078173
 20
505.6957796468
 30
0.0
 40
15.09174633848489
100
AcDbArc
 50
347.8298002221
 51
351.0266065264
  0
ARC
  5
AB
330
69
100
AcDbEntity
  8
$DDT_AUDIT_GENERATED_(A2)
  6
Continuous
 62
     7
100
AcDbCircle
 10
63.4921128127
 20
505.5359296355
 30
0.0
 40
13.52129107137863
100
AcDbArc
 50
189.3367525277
 51
192.8778005099
  0
SPLINE
  5
AC
330
69
100
AcDbEntity
  8
$DDT_AUDIT_GENERATED_(A2)
  6
Continuous
 62
     7
100
AcDbSpline
210
0.0
220
0.0
230
1.0
 70
     8
 71
     3
 72
    80
 73
    76
 74
     0
 42
0.0000000002469304
 43
0.0000000001
 40
0.0
 40
0.0
 40
0.0
 40
0.0
 40
0.0124107219802201
 40
0.0316183626667665
 40
0.0487627051634748
 40
0.0638614136577139
 40
0.0769343278743888
 40
0.0879742788627351
 40
0.097005888191886
 40
0.1040524199004029
 40
0.1104205753108757
 40
0.1159740797340411
 40
0.1223607164169703
 40
0.1295670558922568
 40
0.1375756114408054
 40
0.1464382288843107
 40
0.1613112942024588
 40
0.1774877502042423
 40
0.1929227400105817
 40
0.2076146069896925
 40
0.2176097922514892
 40
0.2279177307051185
 40
0.2385576494000674
 40
0.2495674132702003
 40
0.2603324382468981
 40
0.2694296043212762
 40
0.2775812484017559
 40
0.2835983530338124
 40
0.2887082060320115
 40
0.294696779034317
 40
0.3015779469126046
 40
0.3093533553489699
 40
0.3233910939459239
 40
0.3396268481314058
 40
0.3577285341161781
 40
0.3790125678651997
 40
0.4008814694592641
 40
0.4234531446644776
 40
0.4465128215094095
 40
0.4702442655901548
 40
0.4945906791496676
 40
0.513245971572767
 40
0.5322852183783093
 40
0.5517038896088244
 40
0.5711542196313704
 40
0.5956663565528222
 40
0.6184468624219865
 40
0.6395145502392028
 40
0.6588585173821582
 40
0.6764478118319298
 40
0.6922923200668069
 40
0.7063804397455421
 40
0.7181607833365797
 40
0.7274846300422632
 40
0.7347503281395757
 40
0.7445883879369865
 40
0.7570601070748244
 40
0.7715620196962651
 40
0.7861257566794585
 40
0.8003730178289099
 40
0.8145250042668711
 40
0.8279695845357523
 40
0.8396293263110687
 40
0.8475272686193065
 40
0.855223639740115
 40
0.8627303747803791
 40
0.8700795722337558
 40
0.8789337722685439
 40
0.890146736870359
 40
0.9037667621497875
 40
0.9198460589234256
 40
0.9383723835062326
 40
0.9593367880379261
 40
0.9828539265509965
 40
1.0
 40
1.0
 40
1.0
 40
1.0
 10
50.14958394527878
 20
503.3440767548059
 30
0.0
 10
50.12933958978621
 20
503.4410015395388
 30
0.0
 10
50.08558537943275
 20
503.6503195430121
 30
0.0
 10
50.01085402134116
 20
504.0082381594457
 30
0.0
 10
49.93266585882096
 20
504.3780171010732
 30
0.0
 10
49.86226247269749
 20
504.7100294461147
 30
0.0
 10
49.80093118520845
 20
505.0010347817072
 30
0.0
 10
49.74836786611998
 20
505.2517658772279
 30
0.0
 10
49.70167689812288
 20
505.4626092064644
 30
0.0
 10
49.658543596011
 20
505.6426626380688
 30
0.0
 10
49.61412175271732
 20
505.807906987897
 30
0.0
 10
49.55897302594558
 20
505.9859391768053
 30
0.0
 10
49.49085094286713
 20
506.1755059105362
 30
0.0
 10
49.3986176205908
 20
506.3936451048436
 30
0.0
 10
49.27784462551112
 20
506.6387030689443
 30
0.0
 10
49.10190619407692
 20
506.9477522140791
 30
0.0
 10
48.85017869147973
 20
507.3195688644261
 30
0.0
 10
48.51130819216527
 20
507.7297305171312
 30
0.0
 10
48.13345835342128
 20
508.1103966488567
 30
0.0
 10
47.77773830313586
 20
508.4169998333399
 30
0.0
 10
47.44426102948896
 20
508.6727158338978
 30
0.0
 10
47.13204522798605
 20
508.8909672246493
 30
0.0
 10
46.7911420220333
 20
509.1082081726925
 30
0.0
 10
46.42651862777259
 20
509.3201828431727
 30
0.0
 10
46.06098854576741
 20
509.5144667716453
 30
0.0
 10
45.71351336351201
 20
509.6848536198708
 30
0.0
 10
45.41472228330671
 20
509.8216450039558
 30
0.0
 10
45.16170407604977
 20
509.9312026411362
 30
0.0
 10
44.9353261386909
 20
510.0250846090668
 30
0.0
 10
44.69238218968074
 20
510.1216294684883
 30
0.0
 10
44.4071507078094
 20
510.2294851274861
 30
0.0
 10
44.00031241271015
 20
510.3748515672804
 30
0.0
 10
43.4405419882572
 20
510.5585849450889
 30
0.0
 10
42.69461485154275
 20
510.775969774078
 30
0.0
 10
41.79476405768258
 20
511.0037459366479
 30
0.0
 10
40.7553578686044
 20
511.2253260207455
 30
0.0
 10
39.59092217573811
 20
511.427080856748
 30
0.0
 10
38.35119553374261
 20
511.5942573762035
 30
0.0
 10
37.04138924312472
 20
511.722948258254
 30
0.0
 10
35.67108205871511
 20
511.8079509025961
 30
0.0
 10
34.37095446875151
 20
511.8419236163923
 30
0.0
 10
33.16032876577412
 20
511.8350567348706
 30
0.0
 10
32.05007398872402
 20
511.7978820417968
 30
0.0
 10
30.93528503545585
 20
511.728338047417
 30
0.0
 10
29.7343886180164
 20
511.6177061077689
 30
0.0
 10
28.50069746006205
 20
511.4606427219867
 30
0.0
 10
27.28282415293794
 20
511.2566293989641
 30
0.0
 10
26.20408994395505
 20
511.032659863903
 30
0.0
 10
25.25992149206122
 20
510.7983292934363
 30
0.0
 10
24.44295560500495
 20
510.562303282444
 30
0.0
 10
23.74430297186136
 20
510.3318989970509
 30
0.0
 10
23.16173496094244
 20
510.1162144019364
 30
0.0
 10
22.69260512798784
 20
509.92424894361
 30
0.0
 10
22.32944326115213
 20
509.7631767048541
 30
0.0
 10
21.99641893818117
 20
509.6054821189834
 30
0.0
 10
21.63518013236325
 20
509.4220794798709
 30
0.0
 10
21.20796446176485
 20
509.1844730121304
 30
0.0
 10
20.75838520927667
 20
508.9046491698908
 30
0.0
 10
20.32267021914235
 20
508.5960397698589
 30
0.0
 10
19.92413534548286
 20
508.2736019303897
 30
0.0
 10
19.56930309421132
 20
507.9428610027135
 30
0.0
 10
19.26706761545212
 20
507.6161825282307
 30
0.0
 10
19.02995302099234
 20
507.3191935314127
 30
0.0
 10
18.84608263102183
 20
507.0558090662063
 30
0.0
 10
18.70687654833313
 20
506.8325454508959
 30
0.0
 10
18.58491526504107
 20
506.6139219384251
 30
0.0
 10
18.46988996891669
 20
506.3804314785352
 30
0.0
 10
18.36442043546567
 20
506.1307087413017
 30
0.0
 10
18.26993710096565
 20
505.8418643954934
 30
0.0
 10
18.18599510917424
 20
505.50578095078
 30
0.0
 10
18.10349937011971
 20
505.1237824410504
 30
0.0
 10
18.01058387549696
 20
504.6953251239068
 30
0.0
 10
17.90966125398322
 20
504.2242755806676
 30
0.0
 10
17.8117879561867
 20
503.7589980953352
 30
0.0
 10
17.75450076976765
 20
503.4849756069106
 30
0.0
 10
17.72601816797906
 20
503.3485594246953
 30
0.0
  0
SPLINE
  5
AD
330
69
100
AcDbEntity
  8
$DDT_AUDIT_GENERATED_(A2)
  6
Continuous
 62
     7
100
AcDbSpline
210
0.0
220
0.0
230
1.0
 70
     8
 71
     3
 72
    65
 73
    61
 74
     0
 42
0.0000000002166218
 43
0.0000000001
 40
0.0
 40
0.0
 40
0.0
 40
0.0
 40
0.0248370841796687
 40
0.0509931639323761
 40
0.0756738064582636
 40
0.0988721241172779
 40
0.1205569089359853
 40
0.1407578320475809
 40
0.1584421078735833
 40
0.1747810970762357
 40
0.1897663530440845
 40
0.2034247400812564
 40
0.2157563166385628
 40
0.2415739639854349
 40
0.2681126315231649
 40
0.2953819444023801
 40
0.3233969127341429
 40
0.3527266454748779
 40
0.3822850129022576
 40
0.4119164978923526
 40
0.441608793425452
 40
0.4711899551627778
 40
0.4998240571272131
 40
0.5273263802048209
 40
0.549389725200933
 40
0.5712719775013196
 40
0.5932429864249585
 40
0.6033038672600055
 40
0.6129006688055697
 40
0.6219736168016523
 40
0.6300818975277503
 40
0.6370772808797572
 40
0.64147231666355
 40
0.6464873330072617
 40
0.6524692950888061
 40
0.6594031512561849
 40
0.6673090795970344
 40
0.6762055864031098
 40
0.6856750974507074
 40
0.702042618143596
 40
0.7170351772229291
 40
0.7305995910287651
 40
0.7401661247434979
 40
0.7490784720000483
 40
0.7583775325520833
 40
0.7682433013195122
 40
0.7786842969733233
 40
0.7925380348602
 40
0.8072938780871592
 40
0.8229833996639472
 40
0.8395510168218199
 40
0.856971352173387
 40
0.8752551390080929
 40
0.8943910775051415
 40
0.9143797616296738
 40
0.9309971484217673
 40
0.9481570310330262
 40
0.9658448703730688
 40
0.9840720872312758
 40
1.0
 40
1.0
 40
1.0
 40
1.0
 10
17.57016670525396
 20
502.5171049154164
 30
0.0
 10
17.54572005528421
 20
502.3591518006104
 30
0.0
 10
17.50324991985111
 20
502.0856467684418
 30
0.0
 10
17.42627808192752
 20
501.6365654196815
 30
0.0
 10
17.34951210574418
 20
501.2060914740322
 30
0.0
 10
17.27445660787144
 20
500.7967554409447
 30
0.0
 10
17.20173335470447
 20
500.4125040902847
 30
0.0
 10
17.13296150617933
 20
500.0588788244899
 30
0.0
 10
17.0685479247925
 20
499.7354479483025
 30
0.0
 10
17.00872002896519
 20
499.4417498249124
 30
0.0
 10
16.95228450165266
 20
499.1709159962236
 30
0.0
 10
16.89950389585391
 20
498.9230348227581
 30
0.0
 10
16.83108425542074
 20
498.608034351943
 30
0.0
 10
16.74254402656783
 20
498.211596477561
 30
0.0
 10
16.62811497355499
 20
497.7192661135885
 30
0.0
 10
16.50416656168482
 20
497.2086750614241
 30
0.0
 10
16.36836836799309
 20
496.6762184596059
 30
0.0
 10
16.21892258615661
 20
496.123431343377
 30
0.0
 10
16.05899590130253
 20
495.5619653796905
 30
0.0
 10
15.89125876680373
 20
495.0066325631124
 30
0.0
 10
15.71505739627237
 20
494.4465220942166
 30
0.0
 10
15.52997863673321
 20
493.8382486550691
 30
0.0
 10
15.34086373276936
 20
493.2127591815884
 30
0.0
 10
15.15336677766895
 20
492.5996760513655
 30
0.0
 10
14.96341968714966
 20
491.9946144074094
 30
0.0
 10
14.76345684895055
 20
491.3965872319101
 30
0.0
 10
14.57358553199049
 20
490.8741156434771
 30
0.0
 10
14.39648064517612
 20
490.4298485023991
 30
0.0
 10
14.25903797726522
 20
490.1019122786848
 30
0.0
 10
14.11852210832565
 20
489.7785026133954
 30
0.0
 10
13.98165121802023
 20
489.4713592554361
 30
0.0
 10
13.86442273528136
 20
489.212221956334
 30
0.0
 10
13.76129020147076
 20
488.9856706003055
 30
0.0
 10
13.66136649975251
 20
488.7670185453557
 30
0.0
 10
13.54121452786816
 20
488.5051470840158
 30
0.0
 10
13.39678808112971
 20
488.1915518590475
 30
0.0
 10
13.22576350848793
 20
487.8215497760767
 30
0.0
 10
13.02876070160071
 20
487.3964216544205
 30
0.0
 10
12.75784409134342
 20
486.8115357825318
 30
0.0
 10
12.42409099655988
 20
486.0863176652073
 30
0.0
 10
12.0399307958103
 20
485.2339801285409
 30
0.0
 10
11.70466593633735
 20
484.4648184048086
 30
0.0
 10
11.41983601073018
 20
483.7840414065091
 30
0.0
 10
11.17235935167046
 20
483.1689642732458
 30
0.0
 10
10.92211160855929
 20
482.5199449224608
 30
0.0
 10
10.65908961989625
 20
481.8035814861436
 30
0.0
 10
10.35809880658219
 20
480.9362021446366
 30
0.0
 10
10.01903344608317
 20
479.8860492651441
 30
0.0
 10
9.643984344990766
 20
478.6198182257053
 30
0.0
 10
9.259978864325225
 20
477.1985365128236
 30
0.0
 10
8.874476798533108
 20
475.6235917301468
 30
0.0
 10
8.49695574315882
 20
473.8975372254851
 30
0.0
 10
8.13547102854554
 20
472.0199014107438
 30
0.0
 10
7.794235100771776
 20
469.9932109951313
 30
0.0
 10
7.498312919473913
 20
467.9707940756988
 30
0.0
 10
7.238842766159992
 20
465.9756397448214
 30
0.0
 10
7.008285678529694
 20
464.0253921833103
 30
0.0
 10
6.784916199995792
 20
461.9958306552782
 30
0.0
 10
6.567370667509474
 20
459.9366334519166
 30
0.0
 10
6.439287117245285
 20
458.6947274599164
 30
0.0
 10
6.368732739915214
 20
458.0086042133933
 30
0.0
  0
SPLINE
  5
AE
330
69
100
AcDbEntity
  8
$DDT_AUDIT_GENERATED_(A2)
  6
Continuous
 62
     7
100
AcDbSpline
210
0.0
220
0.0
230
1.0
 70
     8
 71
     3
 72
    93
 73
    89
 74
     0
 42
0.0000000002165829
 43
0.0000000001
 40
0.0
 40
0.0
 40
0.0
 40
0.0
 40
0.0134627413057382
 40
0.0286309567672739
 40
0.0426639376619081
 40
0.0555713948705688
 40
0.067352645934498
 40
0.0780797324641608
 40
0.0988253333289076
 40
0.119149989941854
 40
0.1390574235327271
 40
0.1540610426628841
 40
0.1695368107837046
 40
0.1855424287637312
 40
0.2020118597256211
 40
0.2115144340472517
 40
0.2204078429097467
 40
0.2285875119064489
 40
0.2360506550451093
 40
0.2427992745303748
 40
0.2488365215915659
 40
0.2548367990531988
 40
0.2617179409970545
 40
0.269597504888016
 40
0.2784749889815234
 40
0.2883758887590886
 40
0.2992818406419777
 40
0.3099207750782437
 40
0.3195822502658575
 40
0.3282965294731026
 40
0.3352947316468062
 40
0.3414958214613855
 40
0.3470572025890133
 40
0.353137770353988
 40
0.3599876051969396
 40
0.3675880981512596
 40
0.375913099139672
 40
0.3849201500553467
 40
0.3930830406580293
 40
0.4003777036715805
 40
0.4069587457820911
 40
0.4139347631626011
 40
0.4214978722933249
 40
0.4296477331505216
 40
0.4382238648126039
 40
0.4485663653823933
 40
0.4582977648472568
 40
0.467413238907391
 40
0.4759672044421265
 40
0.484894306066129
 40
0.4959713500471919
 40
0.5080047843448515
 40
0.5209731938514611
 40
0.5341933341583343
 40
0.5472722064389094
 40
0.5602548802741332
 40
0.573071460988614
 40
0.6078567859212851
 40
0.6425949547397362
 40
0.6601620851365713
 40
0.6772250145953145
 40
0.693767426438361
 40
0.7098658889300145
 40
0.7262770719716055
 40
0.7431576838980387
 40
0.7599619099291653
 40
0.7698700378496087
 40
0.7788436561342942
 40
0.7869882543357212
 40
0.7957346920718408
 40
0.8055218400565447
 40
0.8163446101273306
 40
0.8275062228338466
 40
0.8390328657280874
 40
0.8502272777551738
 40
0.8610810176507265
 40
0.8715922619223057
 40
0.8800905864097277
 40
0.8883525377666737
 40
0.8965437713665162
 40
0.9058413629512052
 40
0.916480822946032
 40
0.9284573114794763
 40
0.9409630795279991
 40
0.9546433689248898
 40
0.9695050643722276
 40
0.985542883808612
 40
1.0
 40
1.0
 40
1.0
 40
1.0
 10
61.5135758987614
 20
458.0086061643923
 30
0.0
 10
61.45398689736346
 20
458.5890767237921
 30
0.0
 10
61.34680386225442
 20
459.6308141989315
 30
0.0
 10
61.16874924204314
 20
461.3298202620852
 30
0.0
 10
60.99363605657035
 20
462.9506470625746
 30
0.0
 10
60.8265734292851
 20
464.4343575154619
 30
0.0
 10
60.66691812855971
 20
465.7723477196851
 30
0.0
 10
60.46225013475156
 20
467.3844623622331
 30
0.0
 10
60.19819825505439
 20
469.2778019583122
 30
0.0
 10
59.84911001759101
 20
471.4460584665029
 30
0.0
 10
59.49507147739736
 20
473.3498728713789
 30
0.0
 10
59.14115528276169
 20
475.0298848386798
 30
0.0
 10
58.79044237811817
 20
476.5283748039189
 30
0.0
 10
58.40775564977024
 20
478.011046975246
 30
0.0
 10
58.05755649376894
 20
479.2401559936865
 30
0.0
 10
57.75914917145627
 20
480.2090732185065
 30
0.0
 10
57.52806625682151
 20
480.9189473556267
 30
0.0
 10
57.31217303860374
 20
481.5491503926585
 30
0.0
 10
57.11339796281157
 20
482.1041051251015
 30
0.0
 10
56.93255718385861
 20
482.5899573027034
 30
0.0
 10
56.76407747413198
 20
483.0281607324421
 30
0.0
 10
56.59422527008554
 20
483.4573734147898
 30
0.0
 10
56.40829494180534
 20
483.9136728807409
 30
0.0
 10
56.19736234775646
 20
484.4159150914097
 30
0.0
 10
55.96152151772749
 20
484.9611782447025
 30
0.0
 10
55.70298330522063
 20
485.5437284283416
 30
0.0
 10
55.43570341351056
 20
486.1339413505981
 30
0.0
 10
55.17879213336373
 20
486.6935475419925
 30
0.0
 10
54.94817785205824
 20
487.1921298661886
 30
0.0
 10
54.75416249834006
 20
487.6106851007631
 30
0.0
 10
54.59273418020808
 20
487.959302866451
 30
0.0
 10
54.45927701745548
 20
488.2482765879241
 30
0.0
 10
54.33663136443312
 20
488.5146294928384
 30
0.0
 10
54.2139438401887
 20
488.7819811710281
 30
0.0
 10
54.08284403042276
 20
489.0689759434784
 30
0.0
 10
53.94371870617677
 20
489.3753831750992
 30
0.0
 10
53.79949235784942
 20
489.6973116369862
 30
0.0
 10
53.66229827099114
 20
490.0109526169013
 30
0.0
 10
53.54136777629917
 20
490.2962057224109
 30
0.0
 10
53.44166701791358
 20
490.5397919113967
 30
0.0
 10
53.35643220221811
 20
490.7560036106022
 30
0.0
 10
53.27490063645921
 20
490.9703792491796
 30
0.0
 10
53.19305663548279
 20
491.1937776447562
 30
0.0
 10
53.11131502649939
 20
491.4252530216164
 30
0.0
 10
53.02594782278986
 20
491.6747681627182
 30
0.0
 10
52.94197104875707
 20
491.9283608951735
 30
0.0
 10
52.86206586818441
 20
492.1769415473622
 30
0.0
 10
52.79096996724693
 20
492.403222345325
 30
0.0
 10
52.72418369294368
 20
492.6185766894895
 30
0.0
 10
52.65420278414768
 20
492.8457296878154
 30
0.0
 10
52.57829757234332
 20
493.0941966005637
 30
0.0
 10
52.49584104029309
 20
493.3657968214133
 30
0.0
 10
52.41154919750653
 20
493.6443401950941
 30
0.0
 10
52.32758722873529
 20
493.9214651779528
 30
0.0
 10
52.24525015795651
 20
494.1913779267226
 30
0.0
 10
52.16500171856387
 20
494.452886822212
 30
0.0
 10
52.04100953908075
 20
494.8512302355097
 30
0.0
 10
51.8768276683047
 20
495.3770635006941
 30
0.0
 10
51.71592358373803
 20
495.9364608381698
 30
0.0
 10
51.59374853355573
 20
496.3795759256191
 30
0.0
 10
51.50728008212484
 20
496.7045079646061
 30
0.0
 10
51.42651605855622
 20
497.0181207813452
 30
0.0
 10
51.34973603252074
 20
497.3255784738035
 30
0.0
 10
51.27503897095735
 20
497.6333849372136
 30
0.0
 10
51.20172906436039
 20
497.943829253056
 30
0.0
 10
51.13993661640429
 20
498.2125195693791
 30
0.0
 10
51.09054489248697
 20
498.4316848149317
 30
0.0
 10
51.05377081727741
 20
498.5971643181369
 30
0.0
 10
51.0191341152492
 20
498.7550081740016
 30
0.0
 10
50.98396977614422
 20
498.9172942486798
 30
0.0
 10
50.94592550689793
 20
499.0953671454631
 30
0.0
 10
50.90550864668576
 20
499.2875420775086
 30
0.0
 10
50.86368365585544
 20
499.4896804438022
 30
0.0
 10
50.8221862079089
 20
499.6935237390722
 30
0.0
 10
50.78180309127532
 20
499.8949750231869
 30
0.0
 10
50.74329009950942
 20
500.0898113141845
 30
0.0
 10
50.70853433919522
 20
500.2680384350946
 30
0.0
 10
50.6772594025313
 20
500.4304060870919
 30
0.0
 10
50.64902267614314
 20
500.5786255270032
 30
0.0
 10
50.62025780056456
 20
500.7312906220476
 30
0.0
 10
50.5893919842019
 20
500.8970922504984
 30
0.0
 10
50.55500923338876
 20
501.0843560370728
 30
0.0
 10
50.51788692004498
 20
501.2895747229237
 30
0.0
 10
50.47828331108923
 20
501.5115582006771
 30
0.0
 10
50.43655614618656
 20
501.7498121929405
 30
0.0
 10
50.39297664150426
 20
502.0058743821911
 30
0.0
 10
50.34951226162195
 20
502.2723252957243
 30
0.0
 10
50.3245604418024
 20
502.4344821972513
 30
0.0
 10
50.31058937371245
 20
502.5255829029794
 30
0.0
  0
ARC
  5
AF
330
69
100
AcDbEntity
  8
$DDT_AUDIT_GENERATED_(A2)
  6
Continuous
 62
     7
100
AcDbCircle
 10
6.6668636126
 20
457.9776196239
 30
0.0
 40
0.300000000003103
100
AcDbArc
 50
174.0725507805
 51
269.9991939904
  0
ARC
  5
B0
330
69
100
AcDbEntity
  8
$DDT_AUDIT_GENERATED_(A2)
  6
Continuous
 62
     7
100
AcDbCircle
 10
61.2153217032
 20
457.9776196244
 30
0.0
 40
0.2999999977047917
100
AcDbArc
 50
270.0021057471
 51
5.9254875924
  0
LINE
  5
B2
330
69
100
AcDbEntity
  8
$DDT_AUDIT_GENERATED_(B1)
  6
Continuous
 62
     7
100
AcDbLine
 10
53.618795298
 20
374.3671613146
 30
0.0
 11
14.3241757294
 21
374.3671613146
 31
0.0
  0
ENDBLK
  5
B4
330
69
100
AcDbEntity
  8
0
100
AcDbBlockEnd
  0
BLOCK
  5
104
330
B5
100
AcDbEntity
  8
0
100
AcDbBlockBegin
  2
SE1
 70
     0
 10
0.0
 20
0.0
 30
0.0
  3
SE1
  1

  0
LINE
  5
B7
330
B5
100
AcDbEntity
  8
$DDT_AUDIT_GENERATED_(6B)
  6
Continuous
 62
     7
100
AcDbLine
 10
146.7052932336
 20
374.3671613146
 30
0.0
 11
146.7072291374
 21
388.3671613146
 31
0.0
  0
LINE
  5
B8
330
B5
100
AcDbEntity
  8
$DDT_AUDIT_GENERATED_(6B)
  6
Continuous
 62
     7
100
AcDbLine
 10
169.6509394738
 20
374.3671613141
 30
0.0
 11
146.7052932336
 21
374.3671613146
 31
0.0
  0
LINE
  5
B9
330
B5
100
AcDbEntity
  8
$DDT_AUDIT_GENERATED_(6B)
  6
Continuous
 62
     7
100
AcDbLine
 10
276.1273776319
 20
455.1971444602
 30
0.0
 11
276.127391626
 21
450.3203100169
 31
0.0
  0
SPLINE
  5
BA
330
B5
100
AcDbEntity
  8
$DDT_AUDIT_GENERATED_(6B)
  6
Continuous
 62
     7
100
AcDbSpline
210
0.0
220
0.0
230
1.0
 70
     8
 71
     3
 72
    20
 73
    16
 74
     0
 42
0.0000000030898239
 43
0.0000000001
 40
0.0
 40
0.0
 40
0.0
 40
0.0
 40
0.0625
 40
0.125
 40
0.1875
 40
0.25
 40
0.375
 40
0.5
 40
0.625
 40
0.75
 40
0.8125
 40
0.875
 40
0.9375
 40
0.96875
 40
1.0
 40
1.0
 40
1.0
 40
1.0
 10
276.1273776319367
 20
455.1971444602063
 30
0.0
 10
276.1273774390521
 20
455.2643033420492
 30
0.0
 10
276.1272771006307
 20
455.3986375475967
 30
0.0
 10
276.1163863015355
 20
455.5999482970126
 30
0.0
 10
276.0877666044509
 20
455.7996394097947
 30
0.0
 10
276.0208231210223
 20
456.0602670202239
 30
0.0
 10
275.8792450881865
 20
456.3675248642058
 30
0.0
 10
275.6243905497775
 20
456.6835717170877
 30
0.0
 10
275.3011183101435
 20
456.929152787763
 30
0.0
 10
274.9898049997801
 20
457.061646471232
 30
0.0
 10
274.7272495157005
 20
457.1206078089447
 30
0.0
 10
274.5267582254723
 20
457.1429727634053
 30
0.0
 10
274.3587893562469
 20
457.1466145607875
 30
0.0
 10
274.2244982720149
 20
457.144041496463
 30
0.0
 10
274.1573726157445
 20
457.1417939026838
 30
0.0
 10
274.1238127632187
 20
457.140647088887
 30
0.0
  0
LINE
  5
BB
330
B5
100
AcDbEntity
  8
$DDT_AUDIT_GENERATED_(6B)
  6
Continuous
 62
     7
100
AcDbLine
 10
169.6509394738
 20
374.3671613141
 30
0.0
 11
173.647548795
 21
374.3671613141
 31
0.0
  0
SPLINE
  5
BC
330
B5
100
AcDbEntity
  8
$DDT_AUDIT_GENERATED_(6B)
  6
Continuous
 62
     7
100
AcDbSpline
210
0.0
220
0.0
230
1.0
 70
     8
 71
     3
 72
    80
 73
    76
 74
     0
 42
0.0000000001392062
 43
0.0000000001
 40
0.0
 40
0.0
 40
0.0
 40
0.0
 40
0.0015424498621334
 40
0.0033744820642212
 40
0.0107026108725725
 40
0.0180307396809238
 40
0.0326869972976265
 40
0.0473432549143291
 40
0.0619995125310317
 40
0.091312027764437
 40
0.1206245429978422
 40
0.1352808006145449
 40
0.1499370582312475
 40
0.1645933158479501
 40
0.1792495734646528
 40
0.208562088698058
 40
0.2378746039314633
 40
0.2964996343982738
 40
0.3551246648650843
 40
0.4137496953318948
 40
0.4723747257987053
 40
0.5309997562655159
 40
0.5896247867323263
 40
0.6189373019657316
 40
0.6409216883907856
 40
0.6482498171991369
 40
0.6629060748158395
 40
0.6775623324325422
 40
0.6848904612408935
 40
0.6885545256450691
 40
0.6922185900492448
 40
0.6995467188575961
 40
0.7068748476659474
 40
0.7215311052826501
 40
0.7361873628993527
 40
0.7508436205160554
 40
0.7581717493244066
 40
0.7618358137285822
 40
0.7654998781327579
 40
0.7691639425369335
 40
0.7728280069411092
 40
0.7801561357494605
 40
0.7838202001536362
 40
0.7874842645578118
 40
0.7948123933661632
 40
0.8021405221745145
 40
0.8094686509828658
 40
0.8241249085995684
 40
0.8314530374079198
 40
0.8387811662162711
 40
0.8424452306204467
 40
0.8461092950246224
 40
0.8534374238329737
 40
0.860765552641325
 40
0.8680936814496764
 40
0.8754218102580277
 40
0.882749939066379
 40
0.8864140034705547
 40
0.8900780678747303
 40
0.8974061966830816
 40
0.9120624542997843
 40
0.9193905831081355
 40
0.9267187119164868
 40
0.9340468407248381
 40
0.9377109051290138
 40
0.9413749695331894
 40
0.9487030983415408
 40
0.9560312271498921
 40
0.9633593559582434
 40
0.9706874847665947
 40
0.978015613574946
 40
0.9853437423832974
 40
0.9926718711916487
 40
0.9963359355958243
 40
1.0
 40
1.0
 40
1.0
 40
1.0
 10
205.1979920719273
 20
428.3794135340735
 30
0.0
 10
205.2382861170292
 20
428.3895820044311
 30
0.0
 10
205.3265247051598
 20
428.4115708263029
 30
0.0
 10
205.6064367518585
 20
428.4812835740836
 30
0.0
 10
206.0377577924834
 20
428.589045071781
 30
0.0
 10
206.8049634157438
 20
428.7809772003503
 30
0.0
 10
207.7646551350635
 20
429.0219069412429
 30
0.0
 10
208.9173958434749
 20
429.3122816685623
 30
0.0
 10
210.4558431565522
 20
429.7008623152548
 30
0.0
 10
212.3815940133903
 20
430.1887227810683
 30
0.0
 10
214.3107648908955
 20
430.6783136679411
 30
0.0
 10
215.8560483162676
 20
431.0703781344458
 30
0.0
 10
217.0159195647597
 20
431.3645825088989
 30
0.0
 10
218.176639122115
 20
431.6588840894727
 30
0.0
 10
219.7253177354284
 20
432.0513401926798
 30
0.0
 10
221.6629842121216
 20
432.5418757304056
 30
0.0
 10
224.766471971767
 20
433.3261249580995
 30
0.0
 10
228.6505954733968
 20
434.3043887021941
 30
0.0
 10
233.3140750046598
 20
435.4748891041036
 30
0.0
 10
237.974893497821
 20
436.6420218851163
 30
0.0
 10
242.6258736670785
 20
437.8105077888989
 30
0.0
 10
247.2593043056422
 20
438.9847845912814
 30
0.0
 10
251.096455440823
 20
439.9805560731139
 30
0.0
 10
253.9535512525172
 20
440.7482346533018
 30
0.0
 10
255.4695974203752
 20
441.1659977361026
 30
0.0
 10
256.6028167227389
 20
441.4842441162342
 30
0.0
 10
257.5446895288711
 20
441.7528300991091
 30
0.0
 10
258.4829938008988
 20
442.0267511805602
 30
0.0
 10
259.137873235864
 20
442.2218316503674
 30
0.0
 10
259.5115061764718
 20
442.3341983515058
 30
0.0
 10
259.8846660702241
 20
442.4468060287842
 30
0.0
 10
260.3500935105538
 20
442.5874080104796
 30
0.0
 10
261.0918024107756
 20
442.8099757183584
 30
0.0
 10
262.0124561672075
 20
443.0838221282136
 30
0.0
 10
263.1035349231527
 20
443.4062321585938
 30
0.0
 10
263.9977900504395
 20
443.6699758498578
 30
0.0
 10
264.6138284869523
 20
443.8520679824691
 30
0.0
 10
264.9627034901282
 20
443.9553958411901
 30
0.0
 10
265.2227088516762
 20
444.0325292968403
 30
0.0
 10
265.4809759407496
 20
444.1092978378355
 30
0.0
 10
265.822897428541
 20
444.2111649744421
 30
0.0
 10
266.1609976137926
 20
444.312295761884
 30
0.0
 10
266.4949129780061
 20
444.412658363288
 30
0.0
 10
266.8259101422097
 20
444.5124905446266
 30
0.0
 10
267.2339611272373
 20
444.6362600782959
 30
0.0
 10
267.7137014538484
 20
444.7830440730767
 30
0.0
 10
268.3389551975106
 20
444.9763114294282
 30
0.0
 10
268.9410438795609
 20
445.1655378038296
 30
0.0
 10
269.5170567111679
 20
445.3496032200538
 30
0.0
 10
269.8655820194539
 20
445.462213848112
 30
0.0
 10
270.1371308609514
 20
445.550680539147
 30
0.0
 10
270.403696352897
 20
445.6380093695773
 30
0.0
 10
270.7273106462475
 20
445.7449320012132
 30
0.0
 10
271.099501521936
 20
445.8693215608337
 30
0.0
 10
271.4547350321808
 20
445.9894497102009
 30
0.0
 10
271.7922462207861
 20
446.1049989364675
 30
0.0
 10
272.0581484001799
 20
446.1972422213914
 30
0.0
 10
272.2613320316705
 20
446.2684765781638
 30
0.0
 10
272.4580873591206
 20
446.3379716042223
 30
0.0
 10
272.7853038028675
 20
446.4549261353594
 30
0.0
 10
273.1193292866485
 20
446.5775219236926
 30
0.0
 10
273.4123809136461
 20
446.6883142462758
 30
0.0
 10
273.6114687138855
 20
446.7653419088426
 30
0.0
 10
273.7599481761337
 20
446.8243352024726
 30
0.0
 10
273.8682282471389
 20
446.8683243552658
 30
0.0
 10
273.9695133127955
 20
446.9101475606561
 30
0.0
 10
274.0830980773765
 20
446.95830616015
 30
0.0
 10
274.1993198996635
 20
447.0092920850154
 30
0.0
 10
274.2959878670325
 20
447.0532569324255
 30
0.0
 10
274.3734168410719
 20
447.0899112494022
 30
0.0
 10
274.4319671186925
 20
447.1189833085568
 30
0.0
 10
274.4725354152341
 20
447.140242890222
 30
0.0
 10
274.4920213142755
 20
447.1513597440625
 30
0.0
 10
274.4995232910677
 20
447.1559856414784
 30
0.0
 10
274.5004405104781
 20
447.157212014795
 30
0.0
 10
274.5004106387279
 20
447.157194840109
 30
0.0
  0
ARC
  5
BD
330
B5
100
AcDbEntity
  8
$DDT_AUDIT_GENERATED_(6B)
  6
Continuous
 62
     7
100
AcDbCircle
 10
272.5997355513
 20
450.1348115505
 30
0.0
 40
3.532529838774926
100
AcDbArc
 50
302.5509424205
 51
3.0100721836
  0
SPLINE
  5
BE
330
B5
100
AcDbEntity
  8
$DDT_AUDIT_GENERATED_(6B)
  6
Continuous
 62
     7
100
AcDbSpline
210
0.0
220
0.0
230
1.0
 70
     8
 71
     3
 72
    69
 73
    65
 74
     0
 42
0.0000000001441098
 43
0.0000000001
 40
0.0
 40
0.0
 40
0.0
 40
0.0
 40
0.0059630458820325
 40
0.011926091764065
 40
0.0238521835281299
 40
0.0357782752921949
 40
0.0477043670562599
 40
0.0536674129382923
 40
0.0596304588203248
 40
0.0655935047023573
 40
0.0715565505843898
 40
0.0775195964664223
 40
0.0834826423484548
 40
0.0954087341125197
 40
0.1073348258765847
 40
0.1132978717586172
 40
0.1162793946996334
 40
0.1192609176406497
 40
0.1252239635226821
 40
0.1282054864636984
 40
0.1311870094047146
 40
0.1341685323457293
 40
0.1371500552867471
 40
0.1401315782277633
 40
0.1431131011687796
 40
0.1490761470508105
 40
0.1550391929328446
 40
0.161002238814877
 40
0.1669652846969095
 40
0.1788913764609745
 40
0.1908174682250394
 40
0.196780514107072
 40
0.2027435599891044
 40
0.2146696517531694
 40
0.2206326976352019
 40
0.2265957435172344
 40
0.2325587893992668
 40
0.2355403123402831
 40
0.2385218352812993
 40
0.2504479270453643
 40
0.2623740188094292
 40
0.2743001105734942
 40
0.2862262023375592
 40
0.2981522941016241
 40
0.3100783858656891
 40
0.3160414317477216
 40
0.3190229546887379
 40
0.3220044776297541
 40
0.3279675235117865
 40
0.333930569393819
 40
0.3816349364500789
 40
0.4293393035063388
 40
0.4770436705625987
 40
0.5247480376188585
 40
0.5724524046751184
 40
0.6678611387876381
 40
0.7632698729001578
 40
0.8586786070126775
 40
0.9063829740689374
 40
0.9540873411251973
 40
0.9779395246533272
 40
0.9898656164173922
 40
0.9958286622994247
 40
1.0
 40
1.0
 40
1.0
 40
1.0
 10
274.1238127632187
 20
457.140647088887
 30
0.0
 10
274.1251848919069
 20
457.1406939775458
 30
0.0
 10
274.1233699087771
 20
457.1400591435186
 30
0.0
 10
274.1022881390305
 20
457.1358592260384
 30
0.0
 10
274.0442031077221
 20
457.1250551824739
 30
0.0
 10
273.930629836531
 20
457.1033084761939
 30
0.0
 10
273.7979424578865
 20
457.0775705095814
 30
0.0
 10
273.6673388833045
 20
457.0521370531166
 30
0.0
 10
273.5576388932906
 20
457.0306009092297
 30
0.0
 10
273.4355214167905
 20
457.0065412762185
 30
0.0
 10
273.3006830479895
 20
456.9798918602802
 30
0.0
 10
273.1538930404889
 20
456.9506240707249
 30
0.0
 10
272.9443097676011
 20
456.9081005237707
 30
0.0
 10
272.6553439816653
 20
456.8482411320011
 30
0.0
 10
272.3262697989765
 20
456.7792194534446
 30
0.0
 10
272.0761033045937
 20
456.7261189359597
 30
0.0
 10
271.9276425041425
 20
456.6944193523187
 30
0.0
 10
271.7752821692893
 20
456.6618268954424
 30
0.0
 10
271.6168423721729
 20
456.6279109048579
 30
0.0
 10
271.4517269304415
 20
456.5927225501425
 30
0.0
 10
271.3244741792069
 20
456.5657073741831
 30
0.0
 10
271.1944362265018
 20
456.5380657919216
 30
0.0
 10
271.0620286508004
 20
456.5098051368967
 30
0.0
 10
270.9270946005111
 20
456.4809420550865
 30
0.0
 10
270.7436347506701
 20
456.4416817573972
 30
0.0
 10
270.5064422662664
 20
456.3912338483725
 30
0.0
 10
270.2129972812276
 20
456.3284792149764
 30
0.0
 10
269.9114904556135
 20
456.2635925703651
 30
0.0
 10
269.4991889377166
 20
456.1743528960432
 30
0.0
 10
268.9593082249327
 20
456.0584577953124
 30
0.0
 10
268.3899704115408
 20
455.9378741611044
 30
0.0
 10
267.9189345840499
 20
455.8391752750186
 30
0.0
 10
267.4350967285821
 20
455.7396873883961
 30
0.0
 10
266.9340805837887
 20
455.6393011283424
 30
0.0
 10
266.4205903649922
 20
455.5381692384062
 30
0.0
 10
266.0289868274735
 20
455.4622083849892
 30
0.0
 10
265.6975605058043
 20
455.3989578255822
 30
0.0
 10
265.4299103177681
 20
455.3483474620882
 30
0.0
 10
265.0258238498507
 20
455.2725034609113
 30
0.0
 10
264.4100664039772
 20
455.1591453991772
 30
0.0
 10
263.5688650681197
 20
455.010758297137
 30
0.0
 10
262.7099668878377
 20
454.8662208606485
 30
0.0
 10
261.8355799452916
 20
454.7265557873538
 30
0.0
 10
260.9481498437046
 20
454.5925127286807
 30
0.0
 10
260.2003202195315
 20
454.4851112602666
 30
0.0
 10
259.6731297666663
 20
454.4124694922966
 30
0.0
 10
259.3711244777655
 20
454.3713888133038
 30
0.0
 10
259.0687387787538
 20
454.3304378503903
 30
0.0
 10
258.6902679667431
 20
454.2791859627796
 30
0.0
 10
257.1748038560154
 20
454.0723123994662
 30
0.0
 10
254.5847812400728
 20
453.707732102378
 30
0.0
 10
250.8960747150572
 20
453.167950776142
 30
0.0
 10
247.1788494994786
 20
452.6079855094143
 30
0.0
 10
243.4368296269697
 20
452.0323144488393
 30
0.0
 10
238.4190034242544
 20
451.2503200691282
 30
0.0
 10
232.103444118295
 20
450.2509798150996
 30
0.0
 10
224.4863336989203
 20
449.0365324770178
 30
0.0
 10
218.1331184352067
 20
448.0248848806966
 30
0.0
 10
213.0635905187714
 20
447.2192296992418
 30
0.0
 10
209.9040429046342
 20
446.7179514637862
 30
0.0
 10
207.6986322314526
 20
446.3691859085372
 30
0.0
 10
206.5978222561404
 20
446.1951126282553
 30
0.0
 10
206.0164425887002
 20
446.1036080830532
 30
0.0
 10
205.7494862007896
 20
446.0615779086091
 30
0.0
 10
205.6395552030087
 20
446.0448630840198
 30
0.0
  0
SPLINE
  5
BF
330
B5
100
AcDbEntity
  8
$DDT_AUDIT_GENERATED_(6B)
  6
Continuous
 62
     7
100
AcDbSpline
210
0.0
220
0.0
230
1.0
 70
     8
 71
     6
 72
    14
 73
     7
 74
     0
 42
0.000000000159161
 43
0.0000000001
 40
0.0
 40
0.0
 40
0.0
 40
0.0
 40
0.0
 40
0.0
 40
0.0
 40
1.0
 40
1.0
 40
1.0
 40
1.0
 40
1.0
 40
1.0
 40
1.0
 10
274.1238127632187
 20
457.140647088887
 30
0.0
 10
263.6449605090665
 20
456.7825617150035
 30
0.0
 10
252.4094348259992
 20
455.5722984918506
 30
0.0
 10
241.7329813498559
 20
454.1577121510761
 30
0.0
 10
231.5546349883493
 20
452.7485283186354
 30
0.0
 10
221.5581949372057
 20
451.4116740498073
 30
0.0
 10
211.7169264125193
 20
450.2185808670596
 30
0.0
  0
SPLINE
  5
C0
330
B5
100
AcDbEntity
  8
$DDT_AUDIT_GENERATED_(6B)
  6
Continuous
 62
     7
100
AcDbSpline
210
0.0
220
0.0
230
1.0
 70
     8
 71
     3
 72
    16
 73
    12
 74
     0
 42
0.0000000005553606
 43
0.0000000001
 40
0.0
 40
0.0
 40
0.0
 40
0.0
 40
0.1250000000000005
 40
0.1250000000000005
 40
0.250000000000001
 40
0.250000000000001
 40
0.5000000000000007
 40
0.5000000000000007
 40
0.7500000000000003
 40
0.7500000000000003
 40
1.0
 40
1.0
 40
1.0
 40
1.0
 10
196.7183398964699
 20
455.3671613146151
 30
0.0
 10
196.7183245448229
 20
454.612185908637
 30
0.0
 10
196.8538638112122
 20
453.8572718978094
 30
0.0
 10
197.5022696887722
 20
452.510170294661
 30
0.0
 10
198.0159675988071
 20
451.9333318477427
 30
0.0
 10
199.8572968004807
 20
450.6142899812107
 30
0.0
 10
201.3558534076859
 20
450.2454631497256
 30
0.0
 10
204.2873740399514
 20
449.8341139033467
 30
0.0
 10
205.7785089109854
 20
449.8058202302898
 30
0.0
 10
208.7553387772085
 20
449.9055597544307
 30
0.0
 10
210.2378501937479
 20
450.0384120047153
 30
0.0
 10
211.7169264125193
 20
450.2185808670596
 30
0.0
  0
LINE
  5
C1
330
B5
100
AcDbEntity
  8
$DDT_AUDIT_GENERATED_(6B)
  6
Continuous
 62
     7
100
AcDbLine
 10
196.718354695
 20
455.3671613146
 30
0.0
 11
196.718354695
 21
457.2866795142
 31
0.0
  0
SPLINE
  5
C2
330
B5
100
AcDbEntity
  8
$DDT_AUDIT_GENERATED_(6B)
  6
Continuous
 62
     7
100
AcDbSpline
210
0.0
220
0.0
230
1.0
 70
     8
 71
     3
 72
    38
 73
    34
 74
     0
 42
0.0000000002689196
 43
0.0000000001
 40
0.0
 40
0.0
 40
0.0
 40
0.0
 40
0.0035997775019014
 40
0.0515222476341673
 40
0.0994447177664331
 40
0.1952896580309649
 40
0.2432121281632308
 40
0.2911345982954966
 40
0.3390570684277626
 40
0.3869795385600284
 40
0.4349020086922943
 40
0.4828244788245602
 40
0.5307469489568261
 40
0.578669419089092
 40
0.6265918892213578
 40
0.6505531242874908
 40
0.6745143593536237
 40
0.6984755944197566
 40
0.7224368294858896
 40
0.7703592996181554
 40
0.7943205346842884
 40
0.8182817697504213
 40
0.8422430048165542
 40
0.8542236223496208
 40
0.860213931116154
 40
0.8662042398826872
 40
0.8901654749488201
 40
0.914126710014953
 40
0.9380879450810861
 40
0.962049180147219
 40
0.9860104152133519
 40
0.9979910327464184
 40
1.0
 40
1.0
 40
1.0
 40
1.0
 10
205.6395552030087
 20
446.0448630840198
 30
0.0
 10
205.5924158480639
 20
446.0370517152182
 30
0.0
 10
204.9169548823158
 20
445.9319554899497
 30
0.0
 10
203.6130556101319
 20
445.7439794050962
 30
0.0
 10
201.1013360470149
 20
445.4394200444685
 30
0.0
 10
198.5952541462449
 20
445.2304832692732
 30
0.0
 10
196.1048773163816
 20
445.12978874237
 30
0.0
 10
194.2482296544126
 20
445.1109524957922
 30
0.0
 10
192.4061073826125
 20
445.147599927968
 30
0.0
 10
190.5820327810931
 20
445.2381880068972
 30
0.0
 10
188.7784706551868
 20
445.3780068336279
 30
0.0
 10
186.9965941255803
 20
445.564382704413
 30
0.0
 10
185.2369966923965
 20
445.7974107091777
 30
0.0
 10
183.5010987562039
 20
446.0908233105906
 30
0.0
 10
182.0787383889692
 20
446.402071466613
 30
0.0
 10
180.9615166824089
 20
446.7061890772522
 30
0.0
 10
180.1369653730121
 20
446.9670674266469
 30
0.0
 10
179.3290423780829
 20
447.2658712152516
 30
0.0
 10
178.2809404827594
 20
447.7233232689592
 30
0.0
 10
177.2866071788325
 20
448.2809070104965
 30
0.0
 10
176.3840633273773
 20
448.9636240863358
 30
0.0
 10
175.7651765370269
 20
449.540457129761
 30
0.0
 10
175.3098526956728
 20
450.0759705712567
 30
0.0
 10
175.0280371203847
 20
450.4771339793411
 30
0.0
 10
174.8777915714281
 20
450.7130896069246
 30
0.0
 10
174.6634126319692
 20
451.0734294916664
 30
0.0
 10
174.383819958776
 20
451.6366592842523
 30
0.0
 10
174.1001279450165
 20
452.4230583193373
 30
0.0
 10
173.9000524916742
 20
453.2325325016511
 30
0.0
 10
173.7751579933622
 20
454.0550090965664
 30
0.0
 10
173.7258191312295
 20
454.7451762100195
 30
0.0
 10
173.7163953052879
 20
455.1827423643169
 30
0.0
 10
173.7156315970098
 20
455.3440041035066
 30
0.0
 10
173.7155746434594
 20
455.3671612117396
 30
0.0
  0
LINE
  5
C3
330
B5
100
AcDbEntity
  8
$DDT_AUDIT_GENERATED_(6B)
  6
Continuous
 62
     7
100
AcDbLine
 10
196.7170138113
 20
401.3671613146
 30
0.0
 11
196.717092577
 21
374.3671613146
 31
0.0
  0
LINE
  5
C4
330
B5
100
AcDbEntity
  8
$DDT_AUDIT_GENERATED_(6B)
  6
Continuous
 62
     7
100
AcDbLine
 10
196.717092577
 20
374.3671613146
 30
0.0
 11
173.647548795
 21
374.3671613141
 31
0.0
  0
SPLINE
  5
C5
330
B5
100
AcDbEntity
  8
$DDT_AUDIT_GENERATED_(6B)
  6
Continuous
 62
     7
100
AcDbSpline
210
0.0
220
0.0
230
1.0
 70
     8
 71
     3
 72
    43
 73
    39
 74
     0
 42
0.0000000002236488
 43
0.0000000001
 40
0.0
 40
0.0
 40
0.0
 40
0.0
 40
0.0005948240074263
 40
0.0270553028129114
 40
0.040285542215654
 40
0.0535157816183965
 40
0.0667460210211391
 40
0.0799762604238816
 40
0.0932064998266242
 40
0.1064367392293667
 40
0.1196669786321093
 40
0.1328972180348518
 40
0.1461274574375944
 40
0.1593576968403369
 40
0.1725879362430795
 40
0.185818175645822
 40
0.1990484150485646
 40
0.2122786544513071
 40
0.2255088938540497
 40
0.2387391332567922
 40
0.2651996120622773
 40
0.2916600908677625
 40
0.3181205696732475
 40
0.3710415272842177
 40
0.423962484895188
 40
0.4768834425061582
 40
0.5298044001171284
 40
0.5827253577280985
 40
0.6356463153390688
 40
0.6885672729500389
 40
0.7414882305610092
 40
0.7944091881719794
 40
0.9002511033939198
 40
0.9531720610048899
 40
0.9796325398103751
 40
0.9928627792131176
 40
0.9994778989144889
 40
1.0
 40
1.0
 40
1.0
 40
1.0
 10
173.6135268826656
 20
401.3671612259085
 30
0.0
 10
173.6134126823011
 20
401.3762276549973
 30
0.0
 10
173.6081206976949
 20
401.7886052499228
 30
0.0
 10
173.6036184723871
 20
402.4020377287167
 30
0.0
 10
173.6219427891418
 20
403.2063558178882
 30
0.0
 10
173.6524702290177
 20
403.8084373686675
 30
0.0
 10
173.7044931859432
 20
404.4083857313394
 30
0.0
 10
173.7823746983283
 20
405.0050699775227
 30
0.0
 10
173.8897656345931
 20
405.5964998443081
 30
0.0
 10
174.0296653985156
 20
406.1805584943406
 30
0.0
 10
174.1989661923679
 20
406.7561374978829
 30
0.0
 10
174.394868922738
 20
407.3225321137592
 30
0.0
 10
174.6102611159008
 20
407.8811735907574
 30
0.0
 10
174.8442363858637
 20
408.4316877970286
 30
0.0
 10
175.0956472122393
 20
408.9738839950161
 30
0.0
 10
175.363424037473
 20
409.5075762652584
 30
0.0
 10
175.6466696686351
 20
410.0326441251786
 30
0.0
 10
175.9446744609218
 20
410.5488811754607
 30
0.0
 10
176.2569393365817
 20
411.0560374390171
 30
0.0
 10
176.6914289796843
 20
411.7199487607199
 30
0.0
 10
177.2666278619338
 20
412.5267407335065
 30
0.0
 10
178.0026538538206
 20
413.4581532688186
 30
0.0
 10
179.0379867777444
 20
414.6521323943273
 30
0.0
 10
180.4217130551535
 20
416.05781331709
 30
0.0
 10
182.1941491372649
 20
417.6166736144685
 30
0.0
 10
184.0585785490626
 20
419.0558211312985
 30
0.0
 10
185.9970145653989
 20
420.3860896099275
 30
0.0
 10
187.9972841583993
 20
421.6157065527253
 30
0.0
 10
190.0501034588382
 20
422.7516214764785
 30
0.0
 10
192.1478693415933
 20
423.8007914535641
 30
0.0
 10
194.2857868650702
 20
424.7669957031217
 30
0.0
 10
197.1840489772051
 20
425.9503710161804
 30
0.0
 10
200.1478966809617
 20
426.9806228721762
 30
0.0
 10
202.7904892098166
 20
427.7529339349624
 30
0.0
 10
204.1233148798953
 20
428.1071069698243
 30
0.0
 10
204.7923363996091
 20
428.2773901537201
 30
0.0
 10
205.0870301141618
 20
428.3517604681651
 30
0.0
 10
205.1903720807074
 20
428.3776057575856
 30
0.0
 10
205.1979920719273
 20
428.3794135340735
 30
0.0
  0
ARC
  5
C6
330
B5
100
AcDbEntity
  8
$DDT_AUDIT_GENERATED_(6B)
  6
Continuous
 62
     7
100
AcDbCircle
 10
380.5316325805
 20
588.7658213813
 30
0.0
 40
237.6250940370506
100
AcDbArc
 50
222.4507088962
 51
224.7299972854
  0
SPLINE
  5
C7
330
B5
100
AcDbEntity
  8
$DDT_AUDIT_GENERATED_(6B)
  6
Continuous
 62
     7
100
AcDbSpline
210
0.0
220
0.0
230
1.0
 70
     8
 71
     3
 72
    14
 73
    10
 74
     0
 42
0.0000000003741963
 43
0.0000000001
 40
0.0
 40
0.0
 40
0.0
 40
0.0
 40
0.25
 40
0.25
 40
0.5
 40
0.5
 40
0.75
 40
0.75
 40
1.0
 40
1.0
 40
1.0
 40
1.0
 10
211.7153725009936
 20
421.5331820763661
 30
0.0
 10
209.6575734450059
 20
420.6579812248656
 30
0.0
 10
207.736777450925
 20
419.5723335616348
 30
0.0
 10
204.183506336477
 20
416.9552165335382
 30
0.0
 10
202.5378012499582
 20
415.3996658457141
 30
0.0
 10
199.7918173712898
 20
411.9316981521723
 30
0.0
 10
198.6537929912911
 20
409.9635298381193
 30
0.0
 10
197.125961920767
 20
405.8234947827455
 30
0.0
 10
196.7169934211928
 20
403.6141091016796
 30
0.0
 10
196.71701381126
 20
401.367161314615
 30
0.0
  0
ARC
  5
C8
330
B5
100
AcDbEntity
  8
$DDT_AUDIT_GENERATED_(6B)
  6
Continuous
 62
     7
100
AcDbCircle
 10
488.8783382478
 20
-236.0769773518
 30
0.0
 40
713.6318598301718
100
AcDbArc
 50
109.6099079093
 51
112.8539643873
  0
LINE
  5
C9
330
B5
100
AcDbEntity
  8
$DDT_AUDIT_GENERATED_(6B)
  6
Continuous
 62
     7
100
AcDbLine
 10
196.5390224778
 20
457.6776196239
 30
0.0
 11
196.6781465004
 21
457.436707429
 31
0.0
  0
LINE
  5
CA
330
B5
100
AcDbEntity
  8
$DDT_AUDIT_GENERATED_(6B)
  6
Continuous
 62
     7
100
AcDbLine
 10
146.7569724342
 20
457.4367710979
 30
0.0
 11
146.8960708047
 21
457.6776196239
 31
0.0
  0
ARC
  5
CB
330
B5
100
AcDbEntity
  8
$DDT_AUDIT_GENERATED_(6B)
  6
Continuous
 62
     7
100
AcDbCircle
 10
196.4169565973
 20
457.2863055605
 30
0.0
 40
0.3013983297177873
100
AcDbArc
 50
0.0710885692
 51
29.9347708082
  0
ARC
  5
CC
330
B5
100
AcDbEntity
  8
$DDT_AUDIT_GENERATED_(6B)
  6
Continuous
 62
     7
100
AcDbCircle
 10
147.0181543557
 20
457.2863610618
 30
0.0
 40
0.3013953800555256
100
AcDbArc
 50
150.0631230044
 51
179.9210341646
  0
LINE
  5
CD
330
B5
100
AcDbEntity
  8
$DDT_AUDIT_GENERATED_(6B)
  6
Continuous
 62
     7
100
AcDbLine
 10
271.939972107
 20
445.7410804954
 30
0.0
 11
274.5004106387
 21
447.1571948401
 31
0.0
  0
SPLINE
  5
CE
330
B5
100
AcDbEntity
  8
$DDT_AUDIT_GENERATED_(6B)
  6
Continuous
 62
     7
100
AcDbSpline
210
0.0
220
0.0
230
1.0
 70
     8
 71
     3
 72
    22
 73
    18
 74
     0
 42
0.0000000003998123
 43
0.0000000001
 40
0.0172064663057871
 40
0.0172064663057871
 40
0.0172064663057871
 40
0.0172064663057871
 40
0.125
 40
0.125
 40
0.2499999999999999
 40
0.2499999999999999
 40
0.3749999999999999
 40
0.3749999999999999
 40
0.4999999999999999
 40
0.4999999999999999
 40
0.6249999999999999
 40
0.6249999999999999
 40
0.7499999999999998
 40
0.7499999999999998
 40
0.8749999999999998
 40
0.8749999999999998
 40
0.9999974030575103
 40
0.9999974030575103
 40
0.9999974030575103
 40
0.9999974030575103
 10
271.9236445188226
 20
445.7330721434557
 30
0.0
 10
271.8548304922547
 20
445.7015649472842
 30
0.0
 10
271.5688175360414
 20
445.5786831602778
 30
0.0
 10
270.4942388064797
 20
445.1663719450766
 30
0.0
 10
269.6335889688361
 20
444.8536993356532
 30
0.0
 10
267.4895401587056
 20
444.1040057231303
 30
0.0
 10
266.1907577059832
 20
443.6622208574839
 30
0.0
 10
263.3959668234307
 20
442.7015037243978
 30
0.0
 10
261.8719089653993
 20
442.1705646988315
 30
0.0
 10
258.8742238632833
 20
441.0497457740925
 30
0.0
 10
257.3811018295078
 20
440.4508785595455
 30
0.0
 10
254.6628679504733
 20
439.2480961123268
 30
0.0
 10
253.4487089629962
 20
438.6493999761773
 30
0.0
 10
251.4327271488531
 20
437.5473980744038
 30
0.0
 10
250.6659265723458
 20
437.0639633958147
 30
0.0
 10
249.6329883451378
 20
436.3671490361587
 30
0.0
 10
249.3732241641779
 20
436.163784113765
 30
0.0
 10
249.3731593959937
 20
436.163828209751
 30
0.0
  0
SPLINE
  5
CF
330
B5
100
AcDbEntity
  8
$DDT_AUDIT_GENERATED_(6B)
  6
Continuous
 62
     7
100
AcDbSpline
210
0.0
220
0.0
230
1.0
 70
     8
 71
     3
 72
     8
 73
     4
 74
     0
 42
0.0000000049215198
 43
0.0000000001
 40
0.0000077922200976
 40
0.0000077922200976
 40
0.0000077922200976
 40
0.0000077922200976
 40
0.0324795231461582
 40
0.0324795231461582
 40
0.0324795231461582
 40
0.0324795231461582
 10
249.3731594054051
 20
436.1638282052994
 30
0.0
 10
249.3731818101487
 20
436.1638211216996
 30
0.0
 10
249.390670471216
 20
436.1774972457745
 30
0.0
 10
249.4255969903438
 20
436.2038523345682
 30
0.0
  0
SPLINE
  5
D0
330
B5
100
AcDbEntity
  8
$DDT_AUDIT_GENERATED_(6B)
  6
Continuous
 62
     7
100
AcDbSpline
210
0.0
220
0.0
230
1.0
 70
     8
 71
     3
 72
     8
 73
     4
 74
     0
 42
0.0000000019733183
 43
0.0000000001
 40
0.9562934756941543
 40
0.9562934756941543
 40
0.9562934756941543
 40
0.9562934756941543
 40
0.9606175644650027
 40
0.9606175644650027
 40
0.9606175644650027
 40
0.9606175644650027
 10
271.8330770900164
 20
445.6934079256924
 30
0.0
 10
271.840136653599
 20
445.6964289016902
 30
0.0
 10
271.8468483008133
 20
445.6993118309505
 30
0.0
 10
271.8532115111086
 20
445.7020551428834
 30
0.0
  0
SPLINE
  5
D1
330
B5
100
AcDbEntity
  8
$DDT_AUDIT_GENERATED_(6B)
  6
Continuous
 62
     7
100
AcDbSpline
210
0.0
220
0.0
230
1.0
 70
     8
 71
     3
 72
     8
 73
     4
 74
     0
 42
0.0000000092556792
 43
0.0000000001
 40
0.9827862299125171
 40
0.9827862299125171
 40
0.9827862299125171
 40
0.9827862299125171
 40
0.9999564661070243
 40
0.9999564661070243
 40
0.9999564661070243
 40
0.9999564661070243
 10
271.9235349147912
 20
445.733027533248
 30
0.0
 10
271.934561153399
 20
445.7380722991362
 30
0.0
 10
271.9400513270448
 20
445.7407886850983
 30
0.0
 10
271.9399728439627
 20
445.741078356221
 30
0.0
  0
LINE
  5
D2
330
B5
100
AcDbEntity
  8
$DDT_AUDIT_GENERATED_(6B)
  6
Continuous
 62
     7
100
AcDbLine
 10
146.70896276
 20
400.9043119375
 30
0.0
 11
146.7167592619
 21
457.286776449
 31
0.0
  0
ARC
  5
D3
330
B5
100
AcDbEntity
  8
$DDT_AUDIT_GENERATED_(6B)
  6
Continuous
 62
     7
100
AcDbCircle
 10
9.772322585
 20
394.6546719461
 30
0.0
 40
137.0791793908276
100
AcDbArc
 50
2.5978669233
 51
2.6131040599
  0
ARC
  5
D4
330
B5
100
AcDbEntity
  8
$DDT_AUDIT_GENERATED_(6B)
  6
Continuous
 62
     7
100
AcDbCircle
 10
9.7670481555
 20
394.6546726755
 30
0.0
 40
137.0844483026922
100
AcDbArc
 50
357.3711511631
 51
2.613003249
  0
LINE
  5
D5
330
B5
100
AcDbEntity
  8
$DDT_AUDIT_GENERATED_(6B)
  6
Continuous
 62
     7
100
AcDbLine
 10
271.8787753421
 20
445.7380118928
 30
0.0
 11
274.3086550602
 21
447.0609231079
 31
0.0
  0
LINE
  5
D6
330
B5
100
AcDbEntity
  8
$DDT_AUDIT_GENERATED_(8E)
  6
Continuous
 62
     7
100
AcDbLine
 10
273.4062385363
 20
439.0473908963
 30
0.0
 11
253.9205975144
 21
429.9610872637
 31
0.0
  0
SPLINE
  5
D7
330
B5
100
AcDbEntity
  8
$DDT_AUDIT_GENERATED_(8E)
  6
Continuous
 62
     7
100
AcDbSpline
210
0.0
220
0.0
230
1.0
 70
     8
 71
     3
 72
    12
 73
     8
 74
     0
 42
0.0000000014797161
 43
0.0000000001
 40
0.0
 40
0.0
 40
0.0
 40
0.0
 40
0.5
 40
0.5
 40
0.75
 40
0.75
 40
1.0
 40
1.0
 40
1.0
 40
1.0
 10
266.5257337928448
 20
436.3167632453981
 30
0.0
 10
265.5933467451537
 20
435.6741376239893
 30
0.0
 10
264.6224019029795
 20
435.1098102738769
 30
0.0
 10
263.0991360622012
 20
434.3990668485996
 30
0.0
 10
262.5803944257354
 20
434.1844620701672
 30
0.0
 10
261.521565346426
 20
433.7985988654792
 30
0.0
 10
260.9790814414059
 20
433.6267372030811
 30
0.0
 10
260.4350828500961
 20
433.4766460676453
 30
0.0
  0
LINE
  5
D8
330
B5
100
AcDbEntity
  8
$DDT_AUDIT_GENERATED_(8E)
  6
Continuous
 62
     7
100
AcDbLine
 10
266.7458406179
 20
439.2517300975
 30
0.0
 11
258.0452858624
 21
435.1945947848
 31
0.0
  0
SPLINE
  5
D9
330
B5
100
AcDbEntity
  8
$DDT_AUDIT_GENERATED_(8E)
  6
Continuous
 62
     7
100
AcDbSpline
210
0.0
220
0.0
230
1.0
 70
     8
 71
     3
 72
    16
 73
    12
 74
     0
 42
0.0000000055515615
 43
0.0000000001
 40
0.0
 40
0.0
 40
0.0
 40
0.0
 40
0.2499999999999994
 40
0.2499999999999994
 40
0.4999999999999996
 40
0.4999999999999996
 40
0.7499999999999997
 40
0.7499999999999997
 40
0.8749999999999998
 40
0.8749999999999998
 40
1.0
 40
1.0
 40
1.0
 40
1.0
 10
260.4350828500961
 20
433.4766460676453
 30
0.0
 10
260.292717898383
 20
433.4373670739307
 30
0.0
 10
260.1487510008975
 20
433.4032379403417
 30
0.0
 10
259.8556889084195
 20
433.3514658834318
 30
0.0
 10
259.7055582916467
 20
433.3336127498751
 30
0.0
 10
259.4075006716098
 20
433.3284133540494
 30
0.0
 10
259.255930093399
 20
433.33977162008
 30
0.0
 10
259.0400924090808
 20
433.4069945393613
 30
0.0
 10
258.9702687327098
 20
433.4382977674774
 30
0.0
 10
258.848459764399
 20
433.5260782274226
 30
0.0
 10
258.7960905884314
 20
433.5844888537576
 30
0.0
 10
258.7641442812072
 20
433.6529979306847
 30
0.0
  0
LINE
  5
DA
330
B5
100
AcDbEntity
  8
$DDT_AUDIT_GENERATED_(8E)
  6
Continuous
 62
     7
100
AcDbLine
 10
266.7458406179
 20
439.2517300975
 30
0.0
 11
267.4646990368
 21
437.7101332434
 31
0.0
  0
SPLINE
  5
DB
330
B5
100
AcDbEntity
  8
$DDT_AUDIT_GENERATED_(8E)
  6
Continuous
 62
     7
100
AcDbSpline
210
0.0
220
0.0
230
1.0
 70
     8
 71
     3
 72
    16
 73
    12
 74
     0
 42
0.0000000055515655
 43
0.0000000001
 40
0.0
 40
0.0
 40
0.0
 40
0.0
 40
0.1250000000000001
 40
0.1250000000000001
 40
0.2500000000000001
 40
0.2500000000000001
 40
0.5000000000000001
 40
0.5000000000000001
 40
0.7500000000000001
 40
0.7500000000000001
 40
1.0
 40
1.0
 40
1.0
 40
1.0
 10
267.464699036759
 20
437.7101332433955
 30
0.0
 10
267.4967590567204
 20
437.6413803087166
 30
0.0
 10
267.5077098678138
 20
437.5644005251692
 30
0.0
 10
267.4967464958677
 20
437.4145148512421
 30
0.0
 10
267.4757571447626
 20
437.3406752916543
 30
0.0
 10
267.3890846884698
 20
437.1332005648097
 30
0.0
 10
267.3002962551458
 20
437.0092611080209
 30
0.0
 10
267.1042302247801
 20
436.783628520009
 30
0.0
 10
266.9940948819831
 20
436.6801862008065
 30
0.0
 10
266.7663350825326
 20
436.489174076047
 30
0.0
 10
266.6475739269049
 20
436.4007386631785
 30
0.0
 10
266.5257337928448
 20
436.3167632453981
 30
0.0
  0
LINE
  5
DC
330
B5
100
AcDbEntity
  8
$DDT_AUDIT_GENERATED_(8E)
  6
Continuous
 62
     7
100
AcDbLine
 10
258.0452858624
 20
435.1945947848
 30
0.0
 11
258.7641442812
 21
433.6529979307
 31
0.0
  0
LINE
  5
DD
330
B5
100
AcDbEntity
  8
$DDT_AUDIT_GENERATED_(8E)
  6
Continuous
 62
     7
100
AcDbLine
 10
253.0578430244
 20
430.0365826409
 30
0.0
 11
253.9205975144
 21
429.9610872637
 31
0.0
  0
LINE
  5
DE
330
B5
100
AcDbEntity
  8
$DDT_AUDIT_GENERATED_(8E)
  6
Continuous
 62
     7
100
AcDbLine
 10
273.4062385363
 20
439.0473908963
 30
0.0
 11
273.9029736185
 21
439.7568266721
 31
0.0
  0
ARC
  5
DF
330
B5
100
AcDbEntity
  8
$DDT_AUDIT_GENERATED_(8E)
  6
Continuous
 62
     7
100
AcDbCircle
 10
253.1450130523
 20
431.0327540065
 30
0.0
 40
0.9999780014538298
100
AcDbArc
 50
205.0
 51
264.9990681003
  0
ARC
  5
E0
330
B5
100
AcDbEntity
  8
$DDT_AUDIT_GENERATED_(8E)
  6
Continuous
 62
     7
100
AcDbCircle
 10
273.0838302656
 20
440.3303771676
 30
0.0
 40
0.9999780014538354
100
AcDbArc
 50
325.0009318997
 51
25.0
  0
LINE
  5
E1
330
B5
100
AcDbEntity
  8
$DDT_AUDIT_GENERATED_(8E)
  6
Continuous
 62
     7
100
AcDbLine
 10
249.5787029818
 20
436.3145811034
 30
0.0
 11
252.2387252028
 21
430.6101450417
 31
0.0
  0
LINE
  5
E2
330
B5
100
AcDbEntity
  8
$DDT_AUDIT_GENERATED_(8E)
  6
Continuous
 62
     7
100
AcDbLine
 10
273.9901181152
 20
440.7529861323
 30
0.0
 11
271.7101645382
 21
445.6423623566
 31
0.0
  0
ARC
  5
E3
330
B5
100
AcDbEntity
  8
$DDT_AUDIT_GENERATED_(A2)
  6
Continuous
 62
     7
100
AcDbCircle
 10
216.3091101624
 20
468.5693887052
 30
0.0
 40
16.63029899826919
100
AcDbArc
 50
161.3336409464
 51
186.3043694608
  0
LINE
  5
E4
330
B5
100
AcDbEntity
  8
$DDT_AUDIT_GENERATED_(A2)
  6
Continuous
 62
     7
100
AcDbLine
 10
171.9641453427
 20
457.6776196239
 30
0.0
 11
199.1431831291
 21
457.6776196239
 31
0.0
  0
LINE
  5
E5
330
B5
100
AcDbEntity
  8
$DDT_AUDIT_GENERATED_(A2)
  6
Continuous
 62
     7
100
AcDbLine
 10
171.9641460574
 20
457.6776196239
 30
0.0
 11
170.9892711366
 21
457.6776196239
 31
0.0
  0
LINE
  5
E6
330
B5
100
AcDbEntity
  8
$DDT_AUDIT_GENERATED_(A2)
  6
Continuous
 62
     7
100
AcDbLine
 10
144.3911764606
 20
457.6776196239
 30
0.0
 11
170.989272595
 21
457.6776196239
 31
0.0
  0
ARC
  5
E7
330
B5
100
AcDbEntity
  8
$DDT_AUDIT_GENERATED_(A2)
  6
Continuous
 62
     7
100
AcDbCircle
 10
276.4222596548
 20
481.8654542889
 30
0.0
 40
20.18904768256902
100
AcDbArc
 50
94.8844778281
 51
104.4936481152
  0
ARC
  5
E8
330
B5
100
AcDbEntity
  8
$DDT_AUDIT_GENERATED_(A2)
  6
Continuous
 62
     7
100
AcDbCircle
 10
276.5553093694
 20
481.2493915738
 30
0.0
 40
20.81415691291776
100
AcDbArc
 50
95.0893757587
 51
104.0798720155
  0
ARC
  5
E9
330
B5
100
AcDbEntity
  8
$DDT_AUDIT_GENERATED_(A2)
  6
Continuous
 62
     7
100
AcDbCircle
 10
274.6908706191
 20
505.5980335888
 30
0.0
 40
3.616732382311425
100
AcDbArc
 50
270.2407290136
 51
289.3087886891
  0
ARC
  5
EA
330
B5
100
AcDbEntity
  8
$DDT_AUDIT_GENERATED_(A2)
  6
Continuous
 62
     7
100
AcDbCircle
 10
272.1557571899
 20
516.2230081021
 30
0.0
 40
10.21423554519059
100
AcDbArc
 50
275.5904225922
 51
289.3399476239
  0
SPLINE
  5
EB
330
B5
100
AcDbEntity
  8
$DDT_AUDIT_GENERATED_(A2)
  6
Continuous
 62
     7
100
AcDbSpline
210
0.0
220
0.0
230
1.0
 70
     8
 71
     3
 72
    19
 73
    15
 74
     0
 42
0.0000000021400867
 43
0.0000000001
 40
0.0
 40
0.0
 40
0.0
 40
0.0
 40
0.0701856162065178
 40
0.1323242918390775
 40
0.1865658190544155
 40
0.2331198198424255
 40
0.3023558159962395
 40
0.3749947706924329
 40
0.4810213942522479
 40
0.5466759710447994
 40
0.6206001164264516
 40
0.7030434062796961
 40
0.7939657124902992
 40
1.0
 40
1.0
 40
1.0
 40
1.0
 10
291.9975470607446
 20
509.4143959200193
 30
0.0
 10
292.1039276292291
 20
509.4674161163572
 30
0.0
 10
292.2719577426378
 20
509.5555456712728
 30
0.0
 10
292.4924204402074
 20
509.7525260617357
 30
0.0
 10
292.6347655030668
 20
509.9604422803452
 30
0.0
 10
292.7340715998976
 20
510.2045614150863
 30
0.0
 10
292.7778727113549
 20
510.4953049402928
 30
0.0
 10
292.7287647561631
 20
510.8782760774398
 30
0.0
 10
292.558023801197
 20
511.2249871637326
 30
0.0
 10
292.2960989158699
 20
511.5013633182732
 30
0.0
 10
292.0063841075672
 20
511.6898496615425
 30
0.0
 10
291.643929181318
 20
511.8141885478016
 30
0.0
 10
291.0496058205396
 20
511.8712521098054
 30
0.0
 10
290.6347662274868
 20
511.7552059421261
 30
0.0
 10
290.3017601821411
 20
511.65101791378
 30
0.0
  0
LINE
  5
EC
330
B5
100
AcDbEntity
  8
$DDT_AUDIT_GENERATED_(A2)
  6
Continuous
 62
     7
100
AcDbLine
 10
275.8867328578
 20
502.1847289341
 30
0.0
 11
291.9975469367
 21
509.4143958711
 31
0.0
  0
LINE
  5
ED
330
B5
100
AcDbEntity
  8
$DDT_AUDIT_GENERATED_(A2)
  6
Continuous
 62
     7
100
AcDbLine
 10
290.3017606295
 20
511.6510180901
 30
0.0
 11
275.5383080887
 21
506.585110693
 31
0.0
  0
SPLINE
  5
EE
330
B5
100
AcDbEntity
  8
$DDT_AUDIT_GENERATED_(A2)
  6
Continuous
 62
     7
100
AcDbSpline
210
0.0
220
0.0
230
1.0
 70
     8
 71
     3
 72
    40
 73
    36
 74
     0
 42
0.0000000000685213
 43
0.0000000001
 40
0.0
 40
0.0
 40
0.0
 40
0.0
 40
0.0532898962140645
 40
0.1092392439418291
 40
0.1621682852805585
 40
0.2120511725594334
 40
0.258830855582849
 40
0.3019728868924711
 40
0.3430496705505689
 40
0.3811147336345139
 40
0.4161363685793618
 40
0.4473582789956567
 40
0.4757073781853024
 40
0.5011802361578297
 40
0.5238106181553978
 40
0.5404662069982801
 40
0.557502488322173
 40
0.576227991411361
 40
0.5969034051799204
 40
0.619398236059328
 40
0.6438087768920373
 40
0.6701054052119502
 40
0.6982630228631584
 40
0.7221623249620004
 40
0.7472681500955459
 40
0.7735570872306727
 40
0.8012579296493575
 40
0.8317191931650042
 40
0.8580138022440171
 40
0.8851960404103486
 40
0.9132547121657637
 40
0.9348810051304542
 40
0.9570303431865075
 40
0.9796395719259444
 40
1.0
 40
1.0
 40
1.0
 40
1.0
 10
273.150427337015
 20
506.0572179258389
 30
0.0
 10
270.3162536844606
 20
505.7504207586391
 30
0.0
 10
265.4183601033301
 20
505.2202280134065
 30
0.0
 10
257.4190949264397
 20
504.3543110280656
 30
0.0
 10
249.7835820205317
 20
503.5277812726462
 30
0.0
 10
242.5410348821286
 20
502.7437511130921
 30
0.0
 10
235.78400635026
 20
502.0124087491504
 30
0.0
 10
229.4497710200614
 20
501.3263940972612
 30
0.0
 10
223.5375571587228
 20
500.6875650374725
 30
0.0
 10
218.0179733984949
 20
500.085736578333
 30
0.0
 10
212.9901564071635
 20
499.4101499085478
 30
0.0
 10
208.4358134884978
 20
498.762005572886
 30
0.0
 10
204.3500880987235
 20
498.1191009399844
 30
0.0
 10
200.6862299574566
 20
497.4860477272543
 30
0.0
 10
197.5919755939195
 20
496.8988494959983
 30
0.0
 10
194.908895960389
 20
496.3476213494473
 30
0.0
 10
192.419117750928
 20
495.800308198688
 30
0.0
 10
189.7474406724307
 20
495.1711977464951
 30
0.0
 10
186.830325366966
 20
494.4279515763537
 30
0.0
 10
183.666066101391
 20
493.5381398409448
 30
0.0
 10
180.2711654997491
 20
492.4641381408748
 30
0.0
 10
176.6650257793606
 20
491.1540958176839
 30
0.0
 10
173.1557717852854
 20
489.6633397756465
 30
0.0
 10
169.7903584045407
 20
487.9992924953822
 30
0.0
 10
166.6039500856473
 20
486.190754318569
 30
0.0
 10
163.3830516402854
 20
484.0827596504377
 30
0.0
 10
160.1089935539532
 20
481.5973927448097
 30
0.0
 10
157.0361488059808
 20
478.8647207250111
 30
0.0
 10
154.2029925361403
 20
475.921441418025
 30
0.0
 10
151.6649381172942
 20
472.8696023279243
 30
0.0
 10
149.5034985260136
 20
469.81641985802
 30
0.0
 10
147.6996454608469
 20
466.8159223300871
 30
0.0
 10
146.2434603944424
 20
463.9517281212229
 30
0.0
 10
144.9893000227937
 20
460.9674615169429
 30
0.0
 10
144.4293359159568
 20
459.108371762627
 30
0.0
 10
144.1205119080988
 20
458.0638944493143
 30
0.0
  0
ARC
  5
EF
330
B5
100
AcDbEntity
  8
$DDT_AUDIT_GENERATED_(A2)
  6
Continuous
 62
     7
100
AcDbCircle
 10
236.7043575166
 20
469.5989285417
 30
0.0
 40
36.37810965764624
100
AcDbArc
 50
149.3863292092
 51
173.2289594291
  0
ARC
  5
F0
330
B5
100
AcDbEntity
  8
$DDT_AUDIT_GENERATED_(A2)
  6
Continuous
 62
     7
100
AcDbCircle
 10
372.811831071
 20
455.6977092205
 30
0.0
 40
173.3835874499048
100
AcDbArc
 50
176.3347337955
 51
179.2489583095
  0
SPLINE
  5
F1
330
B5
100
AcDbEntity
  8
$DDT_AUDIT_GENERATED_(A2)
  6
Continuous
 62
     7
100
AcDbSpline
210
0.0
220
0.0
230
1.0
 70
     8
 71
     3
 72
    34
 73
    30
 74
     0
 42
0.0000000001474789
 43
0.0000000001
 40
0.0
 40
0.0
 40
0.0
 40
0.0
 40
0.03788324609893
 40
0.0707141750799171
 40
0.0984501395293862
 40
0.1211912893072519
 40
0.1390412234621669
 40
0.1521145963612814
 40
0.160917705028222
 40
0.1685503711860812
 40
0.1847242655612141
 40
0.2026502629829904
 40
0.2225247938569768
 40
0.2445059966222167
 40
0.2880924330113748
 40
0.3298534036267181
 40
0.3738218145369315
 40
0.4219673954341445
 40
0.4687280321975757
 40
0.5184550784064571
 40
0.5723592004465096
 40
0.6320396098594065
 40
0.6976677830584217
 40
0.7438053980170389
 40
0.7925784925268234
 40
0.8437869596066508
 40
0.8975398626788987
 40
0.9536547411325808
 40
1.0
 40
1.0
 40
1.0
 40
1.0
 10
205.3976406942159
 20
488.1259814311015
 30
0.0
 10
205.4476167192209
 20
488.2010410546602
 30
0.0
 10
205.5299483402128
 20
488.3203750139679
 30
0.0
 10
205.7105420204846
 20
488.5424612169145
 30
0.0
 10
205.9155947130853
 20
488.7481507278256
 30
0.0
 10
206.1521867323639
 20
488.9312929211364
 30
0.0
 10
206.4363526820133
 20
489.0987339185915
 30
0.0
 10
206.7283453146267
 20
489.2512197338611
 30
0.0
 10
207.121483812656
 20
489.4709828650606
 30
0.0
 10
207.708530824205
 20
489.7901393287998
 30
0.0
 10
208.5559591487369
 20
490.2148612931379
 30
0.0
 10
209.7857791212438
 20
490.7568373077666
 30
0.0
 10
211.224918117588
 20
491.2945219005584
 30
0.0
 10
213.3543043861345
 20
491.9653962952187
 30
0.0
 10
216.0901965534356
 20
492.6200002231244
 30
0.0
 10
219.4310745166994
 20
493.2274630522454
 30
0.0
 10
222.9063177452137
 20
493.728760533489
 30
0.0
 10
226.5191226251501
 20
494.1852762384457
 30
0.0
 10
230.281423028846
 20
494.6511415843145
 30
0.0
 10
234.1874202636891
 20
495.1740182470433
 30
0.0
 10
238.4219726318873
 20
495.7844527407967
 30
0.0
 10
243.0649784621027
 20
496.489330018064
 30
0.0
 10
247.5009223801541
 20
497.2048450667655
 30
0.0
 10
251.6510665683943
 20
497.9040352890203
 30
0.0
 10
255.4238682287163
 20
498.559342928348
 30
0.0
 10
259.398938913624
 20
499.2631906251663
 30
0.0
 10
263.5333215302415
 20
500.0041886245925
 30
0.0
 10
267.6424846177841
 20
500.799450196012
 30
0.0
 10
270.1101013552455
 20
501.1857848595099
 30
0.0
 10
271.4311524254396
 20
501.3940026227566
 30
0.0
  0
ARC
  5
F2
330
B5
100
AcDbEntity
  8
$DDT_AUDIT_GENERATED_(A2)
  6
Continuous
 62
     7
100
AcDbCircle
 10
200.3412797516
 20
473.9269701744
 30
0.0
 40
0.2151838753955286
100
AcDbArc
 50
339.9084097537
 51
343.702077304
  0
ARC
  5
F3
330
B5
100
AcDbEntity
  8
$DDT_AUDIT_GENERATED_(A2)
  6
Continuous
 62
     7
100
AcDbCircle
 10
199.1431061392
 20
457.9776195318
 30
0.0
 40
0.2999990434882688
100
AcDbArc
 50
269.9704930018
 51
357.1495836412
  0
ARC
  5
F4
330
B5
100
AcDbEntity
  8
$DDT_AUDIT_GENERATED_(A2)
  6
Continuous
 62
     7
100
AcDbCircle
 10
144.3911773198
 20
457.9776196259
 30
0.0
 40
0.3000000019549698
100
AcDbArc
 50
162.7817012235
 51
269.9980050329
  0
LINE
  5
F5
330
B5
100
AcDbEntity
  8
$DDT_AUDIT_GENERATED_(B1)
  6
Continuous
 62
     7
100
AcDbLine
 10
192.5779839295
 20
374.3671613146
 30
0.0
 11
191.0309607997
 21
374.3671613146
 31
0.0
  0
LINE
  5
F6
330
B5
100
AcDbEntity
  8
$DDT_AUDIT_GENERATED_(B1)
  6
Continuous
 62
     7
100
AcDbLine
 10
190.9555882241
 20
374.3671613146
 30
0.0
 11
172.0245928491
 21
374.3671613146
 31
0.0
  0
LINE
  5
F7
330
B5
100
AcDbEntity
  8
$DDT_AUDIT_GENERATED_(B1)
  6
Continuous
 62
     7
100
AcDbLine
 10
169.5107125365
 20
374.3671613146
 30
0.0
 11
154.2749707037
 21
374.3671613146
 31
0.0
  0
LINE
  5
F9
330
B5
100
AcDbEntity
  8
$DDT_AUDIT_GENERATED_(F8)
  6
Continuous
 62
     7
100
AcDbLine
 10
125.1907122741
 20
406.3508897479
 30
0.0
 11
133.8888542895
 21
407.5244335229
 31
0.0
  0
LINE
  5
FA
330
B5
100
AcDbEntity
  8
$DDT_AUDIT_GENERATED_(F8)
  6
Continuous
 62
     7
100
AcDbLine
 10
133.48511298
 20
410.3972022105
 30
0.0
 11
124.7286990999
 21
409.1177767739
 31
0.0
  0
SPLINE
  5
FB
330
B5
100
AcDbEntity
  8
$DDT_AUDIT_GENERATED_(F8)
  6
Continuous
 62
     7
100
AcDbSpline
210
0.0
220
0.0
230
1.0
 70
     8
 71
     3
 72
    15
 73
    11
 74
     0
 42
0.000000001411668
 43
0.0000000001
 40
0.0
 40
0.0
 40
0.0
 40
0.0
 40
0.1100116337979558
 40
0.2333442803985483
 40
0.3370815551762904
 40
0.4521591827153247
 40
0.5769268604399593
 40
0.7104692629782197
 40
0.851884932624646
 40
1.0
 40
1.0
 40
1.0
 40
1.0
 10
133.8888542894917
 20
407.5244335229365
 30
0.0
 10
134.1712414900456
 20
407.554034688082
 30
0.0
 10
134.6770876075909
 20
407.6016264273501
 30
0.0
 10
135.4782593191288
 20
407.7080519945669
 30
0.0
 10
136.2807208148149
 20
407.7051690068621
 30
0.0
 10
137.0777974236217
 20
407.5483025113289
 30
0.0
 10
137.8930380239703
 20
407.2069441469495
 30
0.0
 10
138.6551414867498
 20
406.6538427806097
 30
0.0
 10
139.316349332075
 20
405.8704391247877
 30
0.0
 10
139.5614168563837
 20
405.2837028870582
 30
0.0
 10
139.7018979527598
 20
404.9281735463483
 30
0.0
  0
SPLINE
  5
FC
330
B5
100
AcDbEntity
  8
$DDT_AUDIT_GENERATED_(F8)
  6
Continuous
 62
     7
100
AcDbSpline
210
0.0
220
0.0
230
1.0
 70
     8
 71
     3
 72
    18
 73
    14
 74
     0
 42
0.0000000008742221
 43
0.0000000001
 40
0.0
 40
0.0
 40
0.0
 40
0.0
 40
0.0858945738652121
 40
0.1635587312934394
 40
0.2952694774842341
 40
0.3662965087101521
 40
0.4241352050427371
 40
0.4709195201891443
 40
0.5613675248585095
 40
0.6856979309342095
 40
0.7871597825593937
 40
0.8950737102038634
 40
1.0
 40
1.0
 40
1.0
 40
1.0
 10
143.327129100779
 20
406.6186465935843
 30
0.0
 10
143.1447422847664
 20
406.928173236288
 30
0.0
 10
142.8473626042
 20
407.4230626527076
 30
0.0
 10
142.1244153443785
 20
408.3108307103587
 30
0.0
 10
141.3390026591397
 20
409.0311612189166
 30
0.0
 10
140.5190270486312
 20
409.5919552454206
 30
0.0
 10
139.9350676776599
 20
409.9173989213903
 30
0.0
 10
139.2613850825082
 20
410.2289809848336
 30
0.0
 10
138.3202939542386
 20
410.5587267072252
 30
0.0
 10
137.1295121150288
 20
410.7753082412701
 30
0.0
 10
135.8608887040692
 20
410.8063012732541
 30
0.0
 10
134.6550188609628
 20
410.6064090799536
 30
0.0
 10
133.9163976933654
 20
410.4784350414801
 30
0.0
 10
133.4851129800134
 20
410.3972022105038
 30
0.0
  0
LINE
  5
FD
330
B5
100
AcDbEntity
  8
$DDT_AUDIT_GENERATED_(F8)
  6
Continuous
 62
     7
100
AcDbLine
 10
139.7018979528
 20
404.9281735463
 30
0.0
 11
146.768776727
 21
389.7732031116
 31
0.0
  0
LINE
  5
FE
330
B5
100
AcDbEntity
  8
$DDT_AUDIT_GENERATED_(F8)
  6
Continuous
 62
     7
100
AcDbLine
 10
146.77008283
 20
399.2352084957
 30
0.0
 11
143.3271291008
 21
406.6186465936
 31
0.0
  0
LINE
  5
FF
330
B5
100
AcDbEntity
  8
$DDT_AUDIT_GENERATED_(F8)
  6
Continuous
 62
     7
100
AcDbLine
 10
124.2749749263
 20
408.4896803026
 30
0.0
 11
124.5733757647
 21
406.7973650537
 31
0.0
  0
ARC
  5
100
330
B5
100
AcDbEntity
  8
$DDT_AUDIT_GENERATED_(F8)
  6
Continuous
 62
     7
100
AcDbCircle
 10
125.1063592682
 20
406.8844016325
 30
0.0
 40
0.5400000012324632
100
AcDbArc
 50
189.3236295888
 51
279.1114345876
  0
ARC
  5
101
330
B5
100
AcDbEntity
  8
$DDT_AUDIT_GENERATED_(F8)
  6
Continuous
 62
     7
100
AcDbCircle
 10
124.802354168
 20
408.5856986909
 30
0.0
 40
0.5342559257588191
100
AcDbArc
 50
97.8898709824
 51
201.7091869864
  0
LINE
  5
103
330
B5
100
AcDbEntity
  8
$DDT_AUDIT_GENERATED_(102)
  6
Continuous
 62
     7
100
AcDbLine
 10
200.5532139399
 20
473.7308996593
 30
0.0
 11
199.7209676404
 21
469.4493636168
 31
0.0
  0
ENDBLK
  5
105
330
B5
100
AcDbEntity
  8
0
100
AcDbBlockEnd
  0
BLOCK
  5
12D
330
106
100
AcDbEntity
  8
0
100
AcDbBlockBegin
  2
SE2
 70
     0
 10
0.0
 20
0.0
 30
0.0
  3
SE2
  1

  0
ARC
  5
108
330
106
100
AcDbEntity
  8
$DDT_AUDIT_GENERATED_(6B)
  6
Continuous
 62
     7
100
AcDbCircle
 10
544.0075917084
 20
241.2311030629
 30
0.0
 40
535.2491370117555
100
AcDbArc
 50
183.8261748628
 51
184.2978281756
  0
ARC
  5
109
330
106
100
AcDbEntity
  8
$DDT_AUDIT_GENERATED_(6B)
  6
Continuous
 62
     7
100
AcDbCircle
 10
-470.5921952605
 20
240.9044319423
 30
0.0
 40
529.7018254679305
100
AcDbArc
 50
355.6911534997
 51
355.9980972088
  0
ARC
  5
10A
330
106
100
AcDbEntity
  8
$DDT_AUDIT_GENERATED_(6B)
  6
Continuous
 62
     7
100
AcDbCircle
 10
-457.9915627495
 20
240.2170907023
 30
0.0
 40
517.0878011330352
100
AcDbArc
 50
354.6813246467
 51
355.995209729
  0
ARC
  5
10B
330
106
100
AcDbEntity
  8
$DDT_AUDIT_GENERATED_(6B)
  6
Continuous
 62
     7
100
AcDbCircle
 10
363.797520855
 20
234.2802842086
 30
0.0
 40
354.9316144633243
100
AcDbArc
 50
183.0524088577
 51
184.6477588715
  0
SPLINE
  5
10C
330
106
100
AcDbEntity
  8
$DDT_AUDIT_GENERATED_(6B)
  6
Continuous
 62
     7
100
AcDbSpline
210
0.0
220
0.0
230
1.0
 70
     8
 71
     3
 72
    40
 73
    36
 74
     0
 42
0.0000000001131791
 43
0.0000000001
 40
0.0
 40
0.0
 40
0.0
 40
0.0
 40
0.0144974569972394
 40
0.0275028636951808
 40
0.0390344643850261
 40
0.0491051556678266
 40
0.0577243677037632
 40
0.0648991194751722
 40
0.070345808366691
 40
0.0745178960996025
 40
0.0782084250923523
 40
0.0821383192763833
 40
0.086307296019589
 40
0.0964740715566394
 40
0.1078275742118501
 40
0.1203645553688496
 40
0.1340815737301049
 40
0.151945396345212
 40
0.1714721884628663
 40
0.1926582507179538
 40
0.2154540631195606
 40
0.2386697137844981
 40
0.2617929265417302
 40
0.3437151434661158
 40
0.4248481637976501
 40
0.5055208956983609
 40
0.5567173980439317
 40
0.6068222910385006
 40
0.6554215753053182
 40
0.6778135661929137
 40
0.6998702065816911
 40
0.7215923482572288
 40
0.7429788226123674
 40
0.7640210728943282
 40
0.7667421930445341
 40
0.7667421930445341
 40
0.7667421930445341
 40
0.7667421930445341
 10
10.34793496918839
 20
201.1587195396415
 30
0.0
 10
10.38233229578134
 20
200.6921378562952
 30
0.0
 10
10.43727171566555
 20
199.9476016910362
 30
0.0
 10
10.52479280210147
 20
198.7860816350884
 30
0.0
 10
10.60134022934057
 20
197.7812669568056
 30
0.0
 10
10.66902525595625
 20
196.8990236067286
 30
0.0
 10
10.72699914577255
 20
196.1450762792517
 30
0.0
 10
10.77449489431329
 20
195.5251146519576
 30
0.0
 10
10.8117889553867
 20
195.034205764011
 30
0.0
 10
10.84081951069716
 20
194.6434829712325
 30
0.0
 10
10.86615778641339
 20
194.2962994200988
 30
0.0
 10
10.89155601937121
 20
193.9496038328679
 30
0.0
 10
10.93081997889194
 20
193.4125374736322
 30
0.0
 10
10.9860068914925
 20
192.6576667806806
 30
0.0
 10
11.05892278766313
 20
191.657603475852
 30
0.0
 10
11.14000756723215
 20
190.5537933785109
 30
0.0
 10
11.23599587709004
 20
189.2591558242625
 30
0.0
 10
11.34850460908099
 20
187.7594527911275
 30
0.0
 10
11.47925966871576
 20
186.0407140437758
 30
0.0
 10
11.62320679653684
 20
184.1774142270143
 30
0.0
 10
11.77812437993907
 20
182.2060440583976
 30
0.0
 10
11.94044950195437
 20
180.1779772766009
 30
0.0
 10
12.24734625252068
 20
176.4156667920577
 30
0.0
 10
12.71260001954103
 20
170.9549802283704
 30
0.0
 10
13.36721729862321
 20
163.8076903541273
 30
0.0
 10
13.98324820802563
 20
157.5625432031387
 30
0.0
 10
14.54274647561488
 20
152.2272679730714
 30
0.0
 10
15.02687367493059
 20
147.8323031393603
 30
0.0
 10
15.43414250095485
 20
144.2808758133622
 30
0.0
 10
15.76322368545061
 20
141.5519925262349
 30
0.0
 10
15.98880797596416
 20
139.6095495590996
 30
0.0
 10
16.26576418861647
 20
137.7017824578269
 30
0.0
 10
16.7124323359696
 20
135.8605681527105
 30
0.0
 10
17.14183019530888
 20
134.6009981627595
 30
0.0
 10
17.40494886542347
 20
133.9536848033768
 30
0.0
 10
17.43555056424432
 20
133.8797657490235
 30
0.0
  0
ARC
  5
10D
330
106
100
AcDbEntity
  8
$DDT_AUDIT_GENERATED_(6B)
  6
Continuous
 62
     7
100
AcDbCircle
 10
-322.0414757033
 20
235.3623896502
 30
0.0
 40
381.0680079273175
100
AcDbArc
 50
355.270574043
 51
356.9914461523
  0
SPLINE
  5
10E
330
106
100
AcDbEntity
  8
$DDT_AUDIT_GENERATED_(6B)
  6
Continuous
 62
     7
100
AcDbSpline
210
0.0
220
0.0
230
1.0
 70
     8
 71
     3
 72
    42
 73
    38
 74
     0
 42
0.0000000001131458
 43
0.0000000001
 40
0.2338026025712592
 40
0.2338026025712592
 40
0.2338026025712592
 40
0.2338026025712592
 40
0.2504100313727143
 40
0.26931939440741
 40
0.2879007822706513
 40
0.3061568292949556
 40
0.3241860103866387
 40
0.3425879589907867
 40
0.3614686330346066
 40
0.3973167320844461
 40
0.4347538977493082
 40
0.4737782721572462
 40
0.5025639457330375
 40
0.5321640612095754
 40
0.5625862942384343
 40
0.5938411954384811
 40
0.6259423851052851
 40
0.6583038265757472
 40
0.6873761303203613
 40
0.7149483453039637
 40
0.7410314328174818
 40
0.7656316052444804
 40
0.7887523820489566
 40
0.8089982159412521
 40
0.8279561278411189
 40
0.8456246045630053
 40
0.8554316291956889
 40
0.8647894398747562
 40
0.8738617003153337
 40
0.8840649155464323
 40
0.8959831402542058
 40
0.9094293954136383
 40
0.9244110517224596
 40
0.940938819438557
 40
0.9590287875231388
 40
0.9787045945051289
 40
1.0
 40
1.0
 40
1.0
 40
1.0
 10
50.44952018218972
 20
133.9048099964258
 30
0.0
 10
50.63518854406395
 20
134.3566555058649
 30
0.0
 10
50.99509538098657
 20
135.3391106844097
 30
0.0
 10
51.42275821685203
 20
136.8768736125917
 30
0.0
 10
51.73935126678726
 20
138.4943383698096
 30
0.0
 10
51.93749003272085
 20
140.1053853433997
 30
0.0
 10
52.13252600040539
 20
141.7099673861551
 30
0.0
 10
52.32595486746377
 20
143.3329327361101
 30
0.0
 10
52.57726927495391
 20
145.4783851135032
 30
0.0
 10
52.88588435900252
 20
148.1818814520838
 30
0.0
 10
53.24908321044406
 20
151.4757707344696
 30
0.0
 10
53.57744464581005
 20
154.5623905593819
 30
0.0
 10
53.87192199447925
 20
157.4191864635777
 30
0.0
 10
54.13320782500335
 20
160.023758891749
 30
0.0
 10
54.3944349501529
 20
162.7008589841177
 30
0.0
 10
54.65533790766518
 20
165.4514689032099
 30
0.0
 10
54.91409157497113
 20
168.2591755525071
 30
0.0
 10
55.15975460746267
 20
171.0031061669332
 30
0.0
 10
55.38726353458988
 20
173.6143576081502
 30
0.0
 10
55.59358003782547
 20
176.0415465762299
 30
0.0
 10
55.78433017010525
 20
178.3376432078479
 30
0.0
 10
55.96047066180879
 20
180.5032571287595
 30
0.0
 10
56.11956464993848
 20
182.4977149654305
 30
0.0
 10
56.26297091729262
 20
184.326719244429
 30
0.0
 10
56.3918673940701
 20
185.9958334737039
 30
0.0
 10
56.49567042951368
 20
187.3586709820393
 30
0.0
 10
56.57716971758607
 20
188.4398182447714
 30
0.0
 10
56.63922093785195
 20
189.2686098603397
 30
0.0
 10
56.70166065992892
 20
190.1092941412387
 30
0.0
 10
56.76971690880009
 20
191.0228211609925
 30
0.0
 10
56.84705588585525
 20
192.0627354417021
 30
0.0
 10
56.93481762737008
 20
193.241497231642
 30
0.0
 10
57.03322893420882
 20
194.5546100738554
 30
0.0
 10
57.14248042743023
 20
196.0069327972948
 30
0.0
 10
57.26148552981392
 20
197.5890067287345
 30
0.0
 10
57.39371207886622
 20
199.3544842595133
 30
0.0
 10
57.47593707394023
 20
200.4698152506197
 30
0.0
 10
57.52670792055332
 20
201.1587195355222
 30
0.0
  0
SPLINE
  5
10F
330
106
100
AcDbEntity
  8
$DDT_AUDIT_GENERATED_(A2)
  6
Continuous
 62
     7
100
AcDbSpline
210
0.0
220
0.0
230
1.0
 70
     8
 71
     3
 72
     8
 73
     4
 74
     0
 42
0.0000000001124945
 43
0.0000000001
 40
0.8482563686757754
 40
0.8482563686757754
 40
0.8482563686757754
 40
0.8482563686757754
 40
0.8488659054843914
 40
0.8488659054843914
 40
0.8488659054843914
 40
0.8488659054843914
 10
9.659802941016222
 20
218.920230079644
 30
0.0
 10
9.653999285563563
 20
218.9373614379033
 30
0.0
 10
9.64820222213629
 20
218.9544669933795
 30
0.0
 10
9.642411737302504
 20
218.9715469181317
 30
0.0
  0
SPLINE
  5
110
330
106
100
AcDbEntity
  8
$DDT_AUDIT_GENERATED_(A2)
  6
Continuous
 62
     7
100
AcDbSpline
210
0.0
220
0.0
230
1.0
 70
     8
 71
     3
 72
     8
 73
     4
 74
     0
 42
0.0000000001256773
 43
0.0000000001
 40
0.8161723525550343
 40
0.8161723525550343
 40
0.8161723525550343
 40
0.8161723525550343
 40
0.8167308187280587
 40
0.8167308187280587
 40
0.8167308187280587
 40
0.8167308187280587
 10
58.22570926283782
 20
218.9299388214262
 30
0.0
 10
58.23046833232922
 20
218.9439833811297
 30
0.0
 10
58.23522333582379
 20
218.9580116941262
 30
0.0
 10
58.23997414905549
 20
218.9720234790154
 30
0.0
  0
ARC
  5
111
330
106
100
AcDbEntity
  8
$DDT_AUDIT_GENERATED_(A2)
  6
Continuous
 62
     7
100
AcDbCircle
 10
55.5351980376
 20
227.6929404298
 30
0.0
 40
5.978120672835932
100
AcDbArc
 50
354.7135619421
 51
4.5236997319
  0
SPLINE
  5
112
330
106
100
AcDbEntity
  8
$DDT_AUDIT_GENERATED_(A2)
  6
Continuous
 62
     7
100
AcDbSpline
210
0.0
220
0.0
230
1.0
 70
     8
 71
     3
 72
     8
 73
     4
 74
     0
 42
0.0000000001178501
 43
0.0000000001
 40
0.0
 40
0.0
 40
0.0
 40
0.0
 40
0.0393599275687897
 40
0.0393599275687897
 40
0.0393599275687897
 40
0.0393599275687897
 10
61.4946956375753
 20
228.1644434890359
 30
0.0
 10
61.37250224578909
 20
229.2731842636461
 30
0.0
 10
61.20207917364964
 20
230.3739959699913
 30
0.0
 10
60.98123128296263
 20
231.4622648227496
 30
0.0
  0
SPLINE
  5
113
330
106
100
AcDbEntity
  8
$DDT_AUDIT_GENERATED_(A2)
  6
Continuous
 62
     7
100
AcDbSpline
210
0.0
220
0.0
230
1.0
 70
     8
 71
     3
 72
     8
 73
     4
 74
     0
 42
0.0000000001179141
 43
0.0000000001
 40
0.9646715876553907
 40
0.9646715876553907
 40
0.9646715876553907
 40
0.9646715876553907
 40
1.0
 40
1.0
 40
1.0
 40
1.0
 10
6.835250771491022
 20
231.1252404428181
 30
0.0
 10
6.645870427602053
 20
230.14661994271
 30
0.0
 10
6.49718693611593
 20
229.1596158168828
 30
0.0
 10
6.38750431587793
 20
228.1644432341859
 30
0.0
  0
ARC
  5
114
330
106
100
AcDbEntity
  8
$DDT_AUDIT_GENERATED_(A2)
  6
Continuous
 62
     7
100
AcDbCircle
 10
12.3483808579
 20
227.6929507714
 30
0.0
 40
5.97949448463375
100
AcDbArc
 50
175.4774436216
 51
185.2853185893
  0
SPLINE
  5
115
330
106
100
AcDbEntity
  8
$DDT_AUDIT_GENERATED_(A2)
  6
Continuous
 62
     7
100
AcDbSpline
210
0.0
220
0.0
230
1.0
 70
     8
 71
     3
 72
    14
 73
    10
 74
     0
 42
0.0000000001162165
 43
0.0000000001
 40
0.0
 40
0.0
 40
0.0
 40
0.0
 40
0.0625
 40
0.0625
 40
0.1250000000000001
 40
0.1250000000000001
 40
0.1875000000000001
 40
0.1875000000000001
 40
0.200605709408801
 40
0.200605709408801
 40
0.200605709408801
 40
0.200605709408801
 10
6.394309184045148
 20
227.1421470001892
 30
0.0
 10
6.485715546519041
 20
225.3413484123362
 30
0.0
 10
6.731335364018598
 20
223.5447689834721
 30
0.0
 10
7.522749051400497
 20
220.0610644859877
 30
0.0
 10
8.066113482029436
 20
218.3659442345188
 30
0.0
 10
9.464986824242017
 20
215.0744935322964
 30
0.0
 10
10.32541344036589
 20
213.4751311404559
 30
0.0
 10
11.51970744392261
 20
211.6825182470795
 30
0.0
 10
11.73258877471154
 20
211.376172507078
 30
0.0
 10
11.95138576608719
 20
211.0742601210617
 30
0.0
  0
SPLINE
  5
116
330
106
100
AcDbEntity
  8
$DDT_AUDIT_GENERATED_(A2)
  6
Continuous
 62
     7
100
AcDbSpline
210
0.0
220
0.0
230
1.0
 70
     8
 71
     3
 72
    14
 73
    10
 74
     0
 42
0.0000000001161656
 43
0.0000000001
 40
0.7993256300945355
 40
0.7993256300945355
 40
0.7993256300945355
 40
0.7993256300945355
 40
0.8125
 40
0.8125
 40
0.875
 40
0.875
 40
0.9375000000000001
 40
0.9375000000000001
 40
1.0
 40
1.0
 40
1.0
 40
1.0
 10
55.92274797299637
 20
211.0636488076905
 30
0.0
 10
56.14514683919475
 20
211.3700004007736
 30
0.0
 10
56.3613462638371
 20
211.6807892633027
 30
0.0
 10
57.56557560974597
 20
213.4889784585414
 30
0.0
 10
58.40965955847292
 20
215.0584400721985
 30
0.0
 10
59.80764885783098
 20
218.3440268183082
 30
0.0
 10
60.36369485094549
 20
220.072769656543
 30
0.0
 10
61.15512959440577
 20
223.5662409028055
 30
0.0
 10
61.39651492829933
 20
225.3413475373689
 30
0.0
 10
61.4878909801477
 20
227.1421469016773
 30
0.0
  0
ARC
  5
117
330
106
100
AcDbEntity
  8
$DDT_AUDIT_GENERATED_(A2)
  6
Continuous
 62
     7
100
AcDbCircle
 10
113.1173649736
 20
132.3571967486
 30
0.0
 40
95.613986402662
100
AcDbArc
 50
181.8747252373
 51
183.6083449787
  0
ARC
  5
118
330
106
100
AcDbEntity
  8
$DDT_AUDIT_GENERATED_(A2)
  6
Continuous
 62
     7
100
AcDbCircle
 10
-60.5320794225
 20
133.4121431122
 30
0.0
 40
110.9394235169836
100
AcDbArc
 50
356.3449865839
 51
357.8113570594
  0
SPLINE
  5
119
330
106
100
AcDbEntity
  8
$DDT_AUDIT_GENERATED_(A2)
  6
Continuous
 62
     7
100
AcDbSpline
210
0.0
220
0.0
230
1.0
 70
     8
 71
     3
 72
    62
 73
    58
 74
     0
 42
0.0000000001717656
 43
0.0000000001
 40
0.0
 40
0.0
 40
0.0
 40
0.0
 40
0.0197322674967446
 40
0.0461397398754365
 40
0.0715028540349985
 40
0.0959240253051753
 40
0.1193029430681299
 40
0.1417543630938668
 40
0.1632574149637223
 40
0.1838741397512985
 40
0.203551011280087
 40
0.2222746105854591
 40
0.2443862046839149
 40
0.2651704438061971
 40
0.2845486719520935
 40
0.3025256983538307
 40
0.3191376881440336
 40
0.3343927432384796
 40
0.3482988683751153
 40
0.3609045838686336
 40
0.3737158923999175
 40
0.3848058089793667
 40
0.3943225917227862
 40
0.4039906533554213
 40
0.4143158531776852
 40
0.425269550959798
 40
0.4367961811212459
 40
0.4539600227269531
 40
0.4723602574360373
 40
0.4919181488350699
 40
0.5127198096851642
 40
0.5343706604511753
 40
0.5610357152153501
 40
0.5872860317445736
 40
0.613057368114502
 40
0.6383041792810648
 40
0.6582514948185565
 40
0.6771178579492309
 40
0.6941160960229663
 40
0.7092245339521708
 40
0.7225212184774918
 40
0.7298702887696044
 40
0.7364989618036427
 40
0.7440081952386913
 40
0.7532933776871809
 40
0.7643626497077168
 40
0.7772038958223991
 40
0.79183496225469
 40
0.8083061253846149
 40
0.8266369523939436
 40
0.8467531155771307
 40
0.8687144333756743
 40
0.8926064974292048
 40
0.9183659732773137
 40
0.9461575614642159
 40
0.9759308567507136
 40
1.0
 40
1.0
 40
1.0
 40
1.0
 10
17.6932925077563
 20
126.3364869149761
 30
0.0
 10
17.72600283048257
 20
125.9281812548992
 30
0.0
 10
17.79083542836345
 20
125.1207281882161
 30
0.0
 10
17.9008869936684
 20
123.7457685072062
 30
0.0
 10
18.01883059917671
 20
122.321376619244
 30
0.0
 10
18.12323849937986
 20
120.9431960072174
 30
0.0
 10
18.25588501221045
 20
119.6237906228597
 30
0.0
 10
18.50876050774375
 20
118.3745747013578
 30
0.0
 10
18.83972324722106
 20
117.1961758729062
 30
0.0
 10
19.24479313884033
 20
116.0931873179569
 30
0.0
 10
19.70996629161948
 20
115.0680533126556
 30
0.0
 10
20.26183556520596
 20
114.0495841444098
 30
0.0
 10
20.90395694753079
 20
113.0534418885732
 30
0.0
 10
21.63422798620157
 20
112.0968943274789
 30
0.0
 10
22.38485292412104
 20
111.2535905648661
 30
0.0
 10
23.13792488352644
 20
110.517950785405
 30
0.0
 10
23.87920295562383
 20
109.8823426289918
 30
0.0
 10
24.59625791863613
 20
109.3381461631797
 30
0.0
 10
25.27908800497697
 20
108.8765282084237
 30
0.0
 10
25.94485239195646
 20
108.4733632081983
 30
0.0
 10
26.58186053013575
 20
108.1279625674429
 30
0.0
 10
27.17991053954071
 20
107.8374770736905
 30
0.0
 10
27.73248368249631
 20
107.5949110119057
 30
0.0
 10
28.28021573777554
 20
107.377844274975
 30
0.0
 10
28.86369219905854
 20
107.1715999277467
 30
0.0
 10
29.49133480062361
 20
106.9771624990833
 30
0.0
 10
30.26028110982248
 20
106.7743038182063
 30
0.0
 10
31.18720313763381
 20
106.5821452548849
 30
0.0
 10
32.28654374914658
 20
106.4295091214003
 30
0.0
 10
33.4683634964074
 20
106.35
 30
0.0
 10
34.71891164150185
 20
106.3605458491191
 30
0.0
 10
36.10674785372358
 20
106.4824533814283
 30
0.0
 10
37.58455164409825
 20
106.7481841437188
 30
0.0
 10
39.10349850208006
 20
107.1800343591048
 30
0.0
 10
40.54058817874649
 20
107.7443302719524
 30
0.0
 10
41.79832908602398
 20
108.3830486438007
 30
0.0
 10
42.87482396301499
 20
109.0492512051223
 30
0.0
 10
43.76352756769943
 20
109.6935690032008
 30
0.0
 10
44.53069672264664
 20
110.3318832736037
 30
0.0
 10
45.17578927425114
 20
110.938290843568
 30
0.0
 10
45.65611335619789
 20
111.4403891883147
 30
0.0
 10
46.00673176495216
 20
111.8361764212436
 30
0.0
 10
46.27430653819635
 20
112.1547231678546
 30
0.0
 10
46.5563263625808
 20
112.5091970230844
 30
0.0
 10
46.87785966253369
 20
112.9404925867812
 30
0.0
 10
47.24049241172442
 20
113.4673412016692
 30
0.0
 10
47.63288533747617
 20
114.0956883014867
 30
0.0
 10
48.04202094044766
 20
114.8320570348812
 30
0.0
 10
48.45263696066361
 20
115.6831278685066
 30
0.0
 10
48.84638371758451
 20
116.6531549576513
 30
0.0
 10
49.20094834494662
 20
117.7453554098215
 30
0.0
 10
49.49990089055955
 20
118.9607989112878
 30
0.0
 10
49.70037944586595
 20
120.301334909746
 30
0.0
 10
49.81151698268166
 20
121.7628253317947
 30
0.0
 10
49.93849753913452
 20
123.3233902698257
 30
0.0
 10
50.06575727212984
 20
124.8947499896321
 30
0.0
 10
50.14132930252971
 20
125.8375823426157
 30
0.0
 10
50.1813039157672
 20
126.3364582086049
 30
0.0
  0
SPLINE
  5
11A
330
106
100
AcDbEntity
  8
$DDT_AUDIT_GENERATED_(A2)
  6
Continuous
 62
     7
100
AcDbSpline
210
0.0
220
0.0
230
1.0
 70
     8
 71
     3
 72
    69
 73
    65
 74
     0
 42
0.0000000001105649
 43
0.0000000001
 40
0.0011017415957199
 40
0.0011017415957199
 40
0.0011017415957199
 40
0.0011017415957199
 40
0.0104631621370338
 40
0.0202650697355897
 40
0.0294317002436396
 40
0.037990216049396
 40
0.0456074715963712
 40
0.0520216893122898
 40
0.0572478466201417
 40
0.0614818081158936
 40
0.0733912442379284
 40
0.0866955775688606
 40
0.1015956442500237
 40
0.118140204287891
 40
0.1363460793123201
 40
0.1518281704226248
 40
0.1683053133143025
 40
0.1856952423490194
 40
0.2029571348782005
 40
0.2199597877797495
 40
0.2481048125981156
 40
0.2752253016940461
 40
0.3015447126605457
 40
0.3270533421350175
 40
0.3517500187135484
 40
0.3838333816488743
 40
0.4161065953164358
 40
0.4487173529014687
 40
0.4909103819893464
 40
0.5336475289003567
 40
0.5777354353944596
 40
0.5954437895702593
 40
0.6133720159095419
 40
0.6314953476033498
 40
0.6498211128878579
 40
0.6683495738332151
 40
0.6860559435794781
 40
0.7017193777196143
 40
0.7161954741164775
 40
0.7295065505365632
 40
0.7416459901546381
 40
0.7460911426051766
 40
0.7502002970420245
 40
0.7535721577253155
 40
0.7561864529593914
 40
0.7580443000001101
 40
0.7592411411398361
 40
0.7610924364536175
 40
0.7640189704361803
 40
0.7686485081589272
 40
0.7746641450136361
 40
0.7820660115558716
 40
0.7908565943716931
 40
0.80103774606125
 40
0.8126068452785405
 40
0.8255580601104366
 40
0.8398842777677087
 40
0.8579320105052547
 40
0.8777667292494874
 40
0.8994135540782536
 40
0.9228576811295333
 40
0.9480644655472651
 40
0.9750542630887165
 40
1.0
 40
1.0
 40
1.0
 40
1.0
 10
9.66099639171437
 20
218.9152513268924
 30
0.0
 10
9.715327537347516
 20
218.7511598193822
 30
0.0
 10
9.813364340028018
 20
218.4543277022121
 30
0.0
 10
9.980613426996527
 20
217.9321032406439
 30
0.0
 10
10.15107546292063
 20
217.3967455934048
 30
0.0
 10
10.31997933104531
 20
216.8554556631449
 30
0.0
 10
10.47480798457946
 20
216.3498477768469
 30
0.0
 10
10.60709801199627
 20
215.911125300425
 30
0.0
 10
10.71692579490507
 20
215.5424133273519
 30
0.0
 10
10.86572674220815
 20
215.0380894977488
 30
0.0
 10
11.07241714399299
 20
214.3260460187269
 30
0.0
 10
11.35516183643098
 20
213.3256221510141
 30
0.0
 10
11.67046154080199
 20
212.1767182922146
 30
0.0
 10
12.01647087193797
 20
210.8675652660217
 30
0.0
 10
12.35709653883468
 20
209.5109625910775
 30
0.0
 10
12.68390053128929
 20
208.1292730407154
 30
0.0
 10
12.99075674125318
 20
206.7473118909273
 30
0.0
 10
13.2905089444564
 20
205.2919934253991
 30
0.0
 10
13.57314116262498
 20
203.8004766052977
 30
0.0
 10
13.89136336718421
 20
201.9753191171203
 30
0.0
 10
14.21779216077436
 20
199.8305644319045
 30
0.0
 10
14.51333830565706
 20
197.3728870730558
 30
0.0
 10
14.74142222023482
 20
194.9639621840777
 30
0.0
 10
14.92956984288065
 20
192.6094431674979
 30
0.0
 10
15.10562882995104
 20
190.0607595454614
 30
0.0
 10
15.27899408009195
 20
187.2900554825972
 30
0.0
 10
15.45235548276398
 20
184.2619656894069
 30
0.0
 10
15.63607670652177
 20
180.9102833390735
 30
0.0
 10
15.83295799952213
 20
177.2220014343714
 30
0.0
 10
16.04002842012141
 20
173.1727231935366
 30
0.0
 10
16.19863622657002
 20
169.8923364535375
 30
0.0
 10
16.31263505623543
 20
167.3898536423678
 30
0.0
 10
16.38666377779698
 20
165.7021588158508
 30
0.0
 10
16.45890547589089
 20
163.9948804655891
 30
0.0
 10
16.52941820590516
 20
162.2685601047694
 30
0.0
 10
16.59707786694423
 20
160.5551847865186
 30
0.0
 10
16.65946113474649
 20
158.9251521771996
 30
0.0
 10
16.71541656821256
 20
157.422134858055
 30
0.0
 10
16.76501949970546
 20
156.0569608413788
 30
0.0
 10
16.8096311709225
 20
154.8022851124441
 30
0.0
 10
16.84239476872017
 20
153.8626526395026
 30
0.0
 10
16.86478972993724
 20
153.2121438752909
 30
0.0
 10
16.87761233171825
 20
152.8372146262951
 30
0.0
 10
16.88840390213726
 20
152.5198366329715
 30
0.0
 10
16.89675031439747
 20
152.2732265510319
 30
0.0
 10
16.90276178120415
 20
152.0949913743262
 30
0.0
 10
16.90795237330945
 20
151.9407314718415
 30
0.0
 10
16.91426099134249
 20
151.7528052307175
 30
0.0
 10
16.9241583228992
 20
151.4568974256827
 30
0.0
 10
16.93835630028398
 20
151.0299693519678
 30
0.0
 10
16.95708654287845
 20
150.4622340946848
 30
0.0
 10
16.97990825541022
 20
149.7635625664077
 30
0.0
 10
17.00669384716751
 20
148.9338010291157
 30
0.0
 10
17.03729805211198
 20
147.9728788416384
 30
0.0
 10
17.07155639338578
 20
146.8809852408472
 30
0.0
 10
17.10929331969857
 20
145.6585931649328
 30
0.0
 10
17.15255821631126
 20
144.232234619476
 30
0.0
 10
17.20135512513486
 20
142.5891837256902
 30
0.0
 10
17.25564544272833
 20
140.7153806765526
 30
0.0
 10
17.31317425745858
 20
138.6724506346326
 30
0.0
 10
17.37391218037942
 20
136.4564705253981
 30
0.0
 10
17.43704810312486
 20
134.0877936595973
 30
0.0
 10
17.49976975790698
 20
131.6090720771559
 30
0.0
 10
17.53462128441615
 20
130.091904601505
 30
0.0
 10
17.55438615940157
 20
129.2278317427357
 30
0.0
  0
SPLINE
  5
11B
330
106
100
AcDbEntity
  8
$DDT_AUDIT_GENERATED_(A2)
  6
Continuous
 62
     7
100
AcDbSpline
210
0.0
220
0.0
230
1.0
 70
     8
 71
     3
 72
    67
 73
    63
 74
     0
 42
0.0000000001105003
 43
0.0000000001
 40
0.0
 40
0.0
 40
0.0
 40
0.0
 40
0.0186724047067742
 40
0.039550489756124
 40
0.058865662450767
 40
0.0766154754697638
 40
0.0928096668958368
 40
0.1074372351175696
 40
0.1204827114659865
 40
0.131944675944848
 40
0.1484555218509903
 40
0.1656453470821461
 40
0.1835647583377446
 40
0.202207759164189
 40
0.2107725405297401
 40
0.2186325949595704
 40
0.2253350541308883
 40
0.2308817978763394
 40
0.2352730152076616
 40
0.2384700719639481
 40
0.2418807643444113
 40
0.246436208860771
 40
0.25213943029513
 40
0.2619158955875507
 40
0.272171804439102
 40
0.2827366728597177
 40
0.2936064990229171
 40
0.3047900481076063
 40
0.343750001575485
 40
0.3809094661779516
 40
0.4162417727981551
 40
0.4512701475526459
 40
0.486321064968942
 40
0.5214032967976631
 40
0.5661108610392525
 40
0.610261430788303
 40
0.6545463395871174
 40
0.680691143180796
 40
0.7068523758547229
 40
0.7332828013654037
 40
0.7603141335391355
 40
0.7838825696313267
 40
0.8081412910498367
 40
0.8336850796239808
 40
0.8493350833262244
 40
0.8654793095476405
 40
0.8812349371274869
 40
0.8952768824730645
 40
0.9065479383276677
 40
0.9164006537880263
 40
0.9250745853579153
 40
0.9333319303098832
 40
0.941225948000442
 40
0.9467013793300321
 40
0.9536262131404363
 40
0.9618739763184325
 40
0.9698577444102411
 40
0.9771169443936526
 40
0.9842583991953316
 40
0.9893176151652422
 40
0.9945733981885605
 40
0.9992768003476684
 40
0.9992768003476684
 40
0.9992768003476684
 40
0.9992768003476684
 10
50.32649448173694
 20
129.173983017474
 30
0.0
 10
50.34123266547043
 20
129.821405562521
 30
0.0
 10
50.36767600320725
 20
130.978422628367
 30
0.0
 10
50.41423327194777
 20
132.8723974522357
 30
0.0
 10
50.46116917806311
 20
134.6885892113162
 30
0.0
 10
50.50611044144215
 20
136.3691597770142
 30
0.0
 10
50.54785274421321
 20
137.8990259435894
 30
0.0
 10
50.5862091887485
 20
139.2812122353526
 30
0.0
 10
50.62104078049985
 20
140.5140440774928
 30
0.0
 10
50.65815427603364
 20
141.8061157358696
 30
0.0
 10
50.69977373840097
 20
143.2285389046015
 30
0.0
 10
50.74839226275095
 20
144.8541419867805
 30
0.0
 10
50.80017374809404
 20
146.5466671460003
 30
0.0
 10
50.84468566454004
 20
147.9674263475776
 30
0.0
 10
50.8799361456876
 20
149.071374396745
 30
0.0
 10
50.90345782095279
 20
149.7993919664243
 30
0.0
 10
50.92412866036176
 20
150.4323738199644
 30
0.0
 10
50.9413899256689
 20
150.9561394022193
 30
0.0
 10
50.9551169270102
 20
151.3695470019846
 30
0.0
 10
50.96667751787995
 20
151.7157005626854
 30
0.0
 10
50.97846868146464
 20
152.0669728784662
 30
0.0
 10
50.99299491150932
 20
152.497076154118
 30
0.0
 10
51.01445510518414
 20
153.1274391157839
 30
0.0
 10
51.04235165685083
 20
153.9371022293245
 30
0.0
 10
51.07603064647284
 20
154.899589698578
 30
0.0
 10
51.11147404448291
 20
155.8963474151566
 30
0.0
 10
51.1485653573137
 20
156.9221533293451
 30
0.0
 10
51.21917636861668
 20
158.8407120602628
 30
0.0
 10
51.32433855495979
 20
161.5852180093567
 30
0.0
 10
51.46792139537961
 20
165.0873467087573
 30
0.0
 10
51.61673048160267
 20
168.4640472866128
 30
0.0
 10
51.77389388741121
 20
171.7738818430265
 30
0.0
 10
51.93906355327761
 20
175.0752414049902
 30
0.0
 10
52.12700682644913
 20
178.6828036937515
 30
0.0
 10
52.33689098293715
 20
182.5715859520791
 30
0.0
 10
52.56917191113225
 20
186.7375291579272
 30
0.0
 10
52.79067199972127
 20
190.3070492841727
 30
0.0
 10
53.00418984915267
 20
193.2974494731759
 30
0.0
 10
53.20730048894661
 20
195.7188492451797
 30
0.0
 10
53.45408902943515
 20
198.1448920541315
 30
0.0
 10
53.75521302824309
 20
200.4595115285363
 30
0.0
 10
54.10777875129241
 20
202.6766744924279
 30
0.0
 10
54.49505621735703
 20
204.814226344386
 30
0.0
 10
54.8756272159478
 20
206.6796723833125
 30
0.0
 10
55.23371490461873
 20
208.2810948342644
 30
0.0
 10
55.54447139050731
 20
209.5874237889154
 30
0.0
 10
55.85615831876773
 20
210.8264417750136
 30
0.0
 10
56.14160089346227
 20
211.9120200116373
 30
0.0
 10
56.38870951708057
 20
212.8226753431018
 30
0.0
 10
56.59877497423844
 20
213.5790571685241
 30
0.0
 10
56.78727462684666
 20
214.2448888205725
 30
0.0
 10
56.96140720710104
 20
214.8490377963181
 30
0.0
 10
57.1123482294464
 20
215.3640011757748
 30
0.0
 10
57.25251760286797
 20
215.8358427095568
 30
0.0
 10
57.39360342944866
 20
216.3046990539834
 30
0.0
 10
57.55053246436124
 20
216.8173970586826
 30
0.0
 10
57.70746525754085
 20
217.3208990638597
 30
0.0
 10
57.85502803710879
 20
217.7869308421193
 30
0.0
 10
57.97915648486922
 20
218.1732995703928
 30
0.0
 10
58.08769653300502
 20
218.5071676598239
 30
0.0
 10
58.17546996288211
 20
218.7748182254128
 30
0.0
 10
58.21266990508855
 20
218.8885386840262
 30
0.0
 10
58.23170972838883
 20
218.9467086678106
 30
0.0
  0
SPLINE
  5
11C
330
106
100
AcDbEntity
  8
$DDT_AUDIT_GENERATED_(A2)
  6
Continuous
 62
     7
100
AcDbSpline
210
0.0
220
0.0
230
1.0
 70
     8
 71
     3
 72
    80
 73
    76
 74
     0
 42
0.0000000001279584
 43
0.0000000001
 40
0.0
 40
0.0
 40
0.0
 40
0.0
 40
0.0023503404064496
 40
0.01700919689823
 40
0.0326216670976221
 40
0.0480526915584679
 40
0.0632881899951982
 40
0.078322610536575
 40
0.0931540368652358
 40
0.1077839075814897
 40
0.1222167401099071
 40
0.1364610459771504
 40
0.1505432150756969
 40
0.1646474840166587
 40
0.1787773301232333
 40
0.192920639175101
 40
0.2070630623943551
 40
0.2211904924437807
 40
0.2352913116905272
 40
0.249354812111345
 40
0.2633402688658612
 40
0.2772019574324702
 40
0.2910401516424577
 40
0.3048519747791468
 40
0.3186350493214904
 40
0.3323876442378093
 40
0.3461087771236807
 40
0.3597983023064162
 40
0.3734558328806942
 40
0.3870540592678649
 40
0.4007916607812619
 40
0.4144364950100664
 40
0.4280004583862307
 40
0.4414965864898939
 40
0.4549386627145776
 40
0.4683411730990997
 40
0.4817192605696803
 40
0.4950886787986061
 40
0.5083971765104919
 40
0.5216613624428436
 40
0.5349053247880379
 40
0.5481591027034655
 40
0.5614428621908633
 40
0.5747865878739007
 40
0.5882201202745264
 40
0.601773180974942
 40
0.6154753827040895
 40
0.629320983469761
 40
0.6430247724703638
 40
0.6566571784415465
 40
0.6702712793855338
 40
0.6838922290732915
 40
0.697537455500949
 40
0.7112311956659323
 40
0.724998254712377
 40
0.7388632683090618
 40
0.7528156699512308
 40
0.7668526085036834
 40
0.7809136336651323
 40
0.7949378300596887
 40
0.8089482914755954
 40
0.822967822307754
 40
0.8370119012993646
 40
0.8511033788193589
 40
0.8652649837834329
 40
0.879484532453627
 40
0.8936834227449779
 40
0.9080093578609694
 40
0.9225038429717349
 40
0.9371794991689828
 40
0.9520474875792685
 40
0.9671171053297548
 40
0.9823955844747777
 40
0.9962484163681882
 40
1.0
 40
1.0
 40
1.0
 40
1.0
 10
60.9806906657248
 20
231.4624575576846
 30
0.0
 10
60.96827245412212
 20
231.5286350824886
 30
0.0
 10
60.89098763766187
 20
231.9395898336942
 30
0.0
 10
60.6913477056437
 20
232.7935700499924
 30
0.0
 10
60.39564217234523
 20
233.9356766293463
 30
0.0
 10
60.04829779835406
 20
235.0931345466242
 30
0.0
 10
59.66602174179228
 20
236.2197551785522
 30
0.0
 10
59.24781088612066
 20
237.3178890774567
 30
0.0
 10
58.79538891141074
 20
238.3849909271061
 30
0.0
 10
58.30969993840755
 20
239.4201649555165
 30
0.0
 10
57.7919244749405
 20
240.4224762478271
 30
0.0
 10
57.24253777191299
 20
241.3914608414564
 30
0.0
 10
56.66046865914735
 20
242.3311068117756
 30
0.0
 10
56.04449815096777
 20
243.2452913644861
 30
0.0
 10
55.39301430199179
 20
244.1364911123965
 30
0.0
 10
54.70723934517303
 20
245.002849709031
 30
0.0
 10
53.98876056445243
 20
245.8422037362936
 30
0.0
 10
53.2392927318616
 20
246.6525030702653
 30
0.0
 10
52.46056670270033
 20
247.4318218589548
 30
0.0
 10
51.65505328694638
 20
248.1779964215643
 30
0.0
 10
50.82560500303609
 20
248.8879396371705
 30
0.0
 10
49.97347304724627
 20
249.5610561911013
 30
0.0
 10
49.09924367135706
 20
250.1975601703043
 30
0.0
 10
48.2023400725646
 20
250.7980243430733
 30
0.0
 10
47.28433465812068
 20
251.3614544259015
 30
0.0
 10
46.34680454090563
 20
251.8869505982632
 30
0.0
 10
45.39130909720904
 20
252.3736786863013
 30
0.0
 10
44.4194578286987
 20
252.8209927399074
 30
0.0
 10
43.43337386169473
 20
253.2276507940759
 30
0.0
 10
42.43101024636249
 20
253.5959451429525
 30
0.0
 10
41.41528326015447
 20
253.9245792104144
 30
0.0
 10
40.38808337853441
 20
254.2120960805121
 30
0.0
 10
39.35627172753652
 20
254.4566290763374
 30
0.0
 10
38.32059589722257
 20
254.6582220286291
 30
0.0
 10
37.28174045532591
 20
254.8169376579629
 30
0.0
 10
36.240332289076
 20
254.932823316138
 30
0.0
 10
35.19694540535994
 20
255.0059321719565
 30
0.0
 10
34.15388858064666
 20
255.0361751673185
 30
0.0
 10
33.11343665583431
 20
255.0240235612253
 30
0.0
 10
32.07759550360522
 20
254.9698611325609
 30
0.0
 10
31.04623679946438
 20
254.8736998254361
 30
0.0
 10
30.01913908880329
 20
254.735598296722
 30
0.0
 10
28.99593015850354
 20
254.5555055202695
 30
0.0
 10
27.97624340587408
 20
254.3333050656221
 30
0.0
 10
26.95947813954549
 20
254.0687241851474
 30
0.0
 10
25.94505475829122
 20
253.7613805540896
 30
0.0
 10
24.933307249113
 20
253.4110582382455
 30
0.0
 10
23.93211886574202
 20
253.0206398507587
 30
0.0
 10
22.94892967472111
 20
252.5913887445956
 30
0.0
 10
21.98896946423258
 20
252.1261105380725
 30
0.0
 10
21.05015587615364
 20
251.6240737992363
 30
0.0
 10
20.1317363793101
 20
251.0849759739523
 30
0.0
 10
19.23365961046872
 20
250.5087829443029
 30
0.0
 10
18.35590337429468
 20
249.8954195947064
 30
0.0
 10
17.49831296125584
 20
249.2446534056881
 30
0.0
 10
16.66151683702286
 20
248.5567045115284
 30
0.0
 10
15.84647664496066
 20
247.8325059172489
 30
0.0
 10
15.05558208864221
 20
247.0746108787267
 30
0.0
 10
14.29309475000845
 20
246.2855263916134
 30
0.0
 10
13.56208713101144
 20
245.4681194996724
 30
0.0
 10
12.86391906243582
 20
244.6238918351905
 30
0.0
 10
12.19858864718399
 20
243.7528995609245
 30
0.0
 10
11.56612784207316
 20
242.855172985803
 30
0.0
 10
10.96661509029365
 20
241.9307058449482
 30
0.0
 10
10.40047268593663
 20
240.9801143950031
 30
0.0
 10
9.86955611023671
 20
240.0062192337571
 30
0.0
 10
9.373960895153507
 20
239.0091173554262
 30
0.0
 10
8.912669110708288
 20
237.9878165614579
 30
0.0
 10
8.484368891195636
 20
236.9388929324052
 30
0.0
 10
8.089238233168281
 20
235.8617330049815
 30
0.0
 10
7.728459717449606
 20
234.7577601854712
 30
0.0
 10
7.400810570379196
 20
233.6236391154006
 30
0.0
 10
7.124687344092488
 20
232.5158958876455
 30
0.0
 10
6.931251393357811
 20
231.6556121183459
 30
0.0
 10
6.856219463587138
 20
231.2309277007942
 30
0.0
 10
6.837584319007509
 20
231.1250801839298
 30
0.0
  0
ELLIPSE
  5
11D
330
106
100
AcDbEntity
  8
$DDT_AUDIT_GENERATED_(F8)
  6
Continuous
 62
     7
100
AcDbEllipse
 10
33.937321445
 20
265.4342432325
 30
0.0
 11
-2.799999999999998
 21
3.675532100899659E-11
 31
0.0
210
0.0
220
0.0
230
1.0
 40
0.0720966624
 41
0.0
 42
0.0077003741742708
  0
ELLIPSE
  5
11E
330
106
100
AcDbEntity
  8
$DDT_AUDIT_GENERATED_(F8)
  6
Continuous
 62
     7
100
AcDbEllipse
 10
33.937321445
 20
265.4342432325
 30
0.0
 11
-2.799999999999998
 21
3.675532100899659E-11
 31
0.0
210
0.0
220
0.0
230
1.0
 40
0.0720966624
 41
3.141592653589793
 42
6.283185307179586
  0
ELLIPSE
  5
11F
330
106
100
AcDbEntity
  8
$DDT_AUDIT_GENERATED_(F8)
  6
Continuous
 62
     7
100
AcDbEllipse
 10
33.937321445
 20
257.6067133405
 30
0.0
 11
-2.0
 21
-1.387778780781446E-14
 31
0.0
210
0.0
220
0.0
230
1.0
 40
0.906307787
 41
0.0943332711292856
 42
3.04726722615161
  0
LINE
  5
120
330
106
100
AcDbEntity
  8
$DDT_AUDIT_GENERATED_(F8)
  6
Continuous
 62
     7
100
AcDbLine
 10
30.4485244559
 20
273.4111230712
 30
0.0
 11
31.1373807192
 21
265.4329598908
 31
0.0
  0
LINE
  5
121
330
106
100
AcDbEntity
  8
$DDT_AUDIT_GENERATED_(F8)
  6
Continuous
 62
     7
100
AcDbLine
 10
36.7372621708
 20
265.4329598908
 30
0.0
 11
37.4261187602
 21
273.4111268479
 31
0.0
  0
ARC
  5
122
330
106
100
AcDbEntity
  8
$DDT_AUDIT_GENERATED_(F8)
  6
Continuous
 62
     7
100
AcDbCircle
 10
-111.0601346715
 20
247.0037657777
 30
0.0
 40
143.3867700776866
100
AcDbArc
 50
4.171445637
 51
7.3843193841
  0
ARC
  5
123
330
106
100
AcDbEntity
  8
$DDT_AUDIT_GENERATED_(F8)
  6
Continuous
 62
     7
100
AcDbCircle
 10
180.2241733366
 20
246.8732965831
 30
0.0
 40
144.6822450956777
100
AcDbArc
 50
172.6300682626
 51
175.8141667162
  0
LINE
  5
124
330
106
100
AcDbEntity
  8
$DDT_AUDIT_GENERATED_(F8)
  6
Continuous
 62
     7
100
AcDbLine
 10
31.937321445
 20
257.529289203
 30
0.0
 11
31.937321445
 21
254.9497338639
 31
0.0
  0
LINE
  5
125
330
106
100
AcDbEntity
  8
$DDT_AUDIT_GENERATED_(F8)
  6
Continuous
 62
     7
100
AcDbLine
 10
35.937321445
 20
254.9469169407
 30
0.0
 11
35.937321445
 21
257.5312839282
 31
0.0
  0
SPLINE
  5
126
330
106
100
AcDbEntity
  8
$DDT_AUDIT_GENERATED_(F8)
  6
Continuous
 62
     7
100
AcDbSpline
210
0.0
220
0.0
230
1.0
 70
     8
 71
     3
 72
    25
 73
    21
 74
     0
 42
0.0000000024370962
 43
0.0000000001
 40
0.0
 40
0.0
 40
0.0
 40
0.0
 40
0.0190992348392268
 40
0.0473241638178229
 40
0.0727338110565559
 40
0.0956192876549769
 40
0.1162505707703313
 40
0.135527975776599
 40
0.1502923032291206
 40
0.1660123398172492
 40
0.2238036242001965
 40
0.2821392529670571
 40
0.3484015302716031
 40
0.4373049556623073
 40
0.5370139795030704
 40
0.641942545186919
 40
0.7547076150180662
 40
0.8688225973916922
 40
0.9781630514794122
 40
1.0
 40
1.0
 40
1.0
 40
1.0
 10
37.41300271420737
 20
273.4117143974304
 30
0.0
 10
37.41641069723693
 20
273.4410363727573
 30
0.0
 10
37.42293425126503
 20
273.5030501716863
 30
0.0
 10
37.40328154787689
 20
273.6071806730983
 30
0.0
 10
37.36479803571426
 20
273.7071405899247
 30
0.0
 10
37.31301233978315
 20
273.7898431945043
 30
0.0
 10
37.25616028362754
 20
273.8551633165831
 30
0.0
 10
37.19672264058274
 20
273.9058013274735
 30
0.0
 10
37.15380326868146
 20
273.9375546789428
 30
0.0
 10
37.07025896170102
 20
273.9971924792777
 30
0.0
 10
36.93369528943379
 20
274.0826088733266
 30
0.0
 10
36.72367619635597
 20
274.1971832578657
 30
0.0
 10
36.46494081347173
 20
274.3224687905525
 30
0.0
 10
36.14538997651461
 20
274.4565451144583
 30
0.0
 10
35.76122559476646
 20
274.5883625165973
 30
0.0
 10
35.33443204539569
 20
274.7026401024821
 30
0.0
 10
34.87684026728758
 20
274.7896291877729
 30
0.0
 10
34.41142238001076
 20
274.8424989073063
 30
0.0
 10
34.0557647655761
 20
274.8557190593211
 30
0.0
 10
33.88194925096676
 20
274.8541765592913
 30
0.0
 10
33.84818504740955
 20
274.8538212799463
 30
0.0
  0
SPLINE
  5
127
330
106
100
AcDbEntity
  8
$DDT_AUDIT_GENERATED_(F8)
  6
Continuous
 62
     7
100
AcDbSpline
210
0.0
220
0.0
230
1.0
 70
     8
 71
     3
 72
    22
 73
    18
 74
     0
 42
0.0000000025490017
 43
0.0000000001
 40
0.0
 40
0.0
 40
0.0
 40
0.0
 40
0.0668955692758759
 40
0.1881541431070496
 40
0.3077580979551715
 40
0.4266861074983599
 40
0.5318317427640062
 40
0.6268720873684237
 40
0.7105343508048312
 40
0.7822870869721901
 40
0.826123043231801
 40
0.8575980987977064
 40
0.8814981392108509
 40
0.9182974570763294
 40
0.9518867439407046
 40
0.9827197205201695
 40
1.0
 40
1.0
 40
1.0
 40
1.0
 10
33.84818504740955
 20
274.8538212799463
 30
0.0
 10
33.74932207650554
 20
274.8513799928359
 30
0.0
 10
33.51323039579505
 20
274.8446256551737
 30
0.0
 10
33.09112783401572
 20
274.8038804522133
 30
0.0
 10
32.6193084383858
 20
274.7209753624754
 30
0.0
 10
32.17469070387902
 20
274.6071423711701
 30
0.0
 10
31.77424153532714
 20
274.4734749968129
 30
0.0
 10
31.43119072678826
 20
274.3329388881708
 30
0.0
 10
31.14275993630139
 20
274.1933349984478
 30
0.0
 10
30.92832506123844
 20
274.0732992211422
 30
0.0
 10
30.78211964528554
 20
273.9810708622346
 30
0.0
 10
30.6902931811597
 20
273.9164067182116
 30
0.0
 10
30.60262127026774
 20
273.8387379414674
 30
0.0
 10
30.52514450471064
 20
273.7361094955259
 30
0.0
 10
30.47489185956051
 20
273.6101649458021
 30
0.0
 10
30.45495161605663
 20
273.497799888993
 30
0.0
 10
30.46267535818687
 20
273.4375630169963
 30
0.0
 10
30.46616927868663
 20
273.4122680541464
 30
0.0
  0
LINE
  5
129
330
106
100
AcDbEntity
  8
$DDT_AUDIT_GENERATED_(128)
  6
Continuous
 62
     7
100
AcDbLine
 10
8.9408216584
 20
238.033649099
 30
0.0
 11
8.9408216584
 21
238.9041331371
 31
0.0
  0
LINE
  5
12A
330
106
100
AcDbEntity
  8
$DDT_AUDIT_GENERATED_(128)
  6
Continuous
 62
     7
100
AcDbLine
 10
8.9408216584
 20
238.9041331371
 30
0.0
 11
9.3341389171
 21
238.9041331371
 31
0.0
  0
LINE
  5
12B
330
106
100
AcDbEntity
  8
$DDT_AUDIT_GENERATED_(128)
  6
Continuous
 62
     7
100
AcDbLine
 10
58.9408216584
 20
238.9041331371
 30
0.0
 11
58.9408216584
 21
238.0233706051
 31
0.0
  0
LINE
  5
12C
330
106
100
AcDbEntity
  8
$DDT_AUDIT_GENERATED_(128)
  6
Continuous
 62
     7
100
AcDbLine
 10
58.5438368478
 20
238.9041331371
 30
0.0
 11
58.9408216584
 21
238.9041331371
 31
0.0
  0
ENDBLK
  5
12E
330
106
100
AcDbEntity
  8
0
100
AcDbBlockEnd
  0
ENDSEC
  0
SECTION
  2
ENTITIES
  0
INSERT
  5
5F
330
1F
100
AcDbEntity
  8
Default
100
AcDbBlockReference
  2
SEANNOT_GROUP
 10
0.0
 20
0.0
 30
0.0
  0
INSERT
  5
65
330
1F
100
AcDbEntity
  8
Default
100
AcDbBlockReference
  2
SEANNOT_GROUP1
 10
0.0
 20
0.0
 30
0.0
  0
INSERT
  5
6A
330
1F
100
AcDbEntity
  8
Default
100
AcDbBlockReference
  2
SE
 10
0.0
 20
0.0
 30
0.0
  0
INSERT
  5
B6
330
1F
100
AcDbEntity
  8
Default
100
AcDbBlockReference
  2
SE1
 10
0.0
 20
0.0
 30
0.0
  0
INSERT
  5
107
330
1F
100
AcDbEntity
  8
Default
100
AcDbBlockReference
  2
SE2
 10
0.0
 20
0.0
 30
0.0
  0
TEXT
  5
130
330
1F
100
AcDbEntity
  8
Default
  6
Continuous
 62
     7
100
AcDbText
 10
5.9362635081
 20
53.4225120485
 30
0.0
 40
10.0
  1
Grohe AG^J
  7
SEACAD_seiso_ttf
 11
5.9362635081
 21
63.4225120485
 31
0.0
100
AcDbText
 73
     3
  0
TEXT
  5
131
330
1F
100
AcDbEntity
  8
Default
  6
Continuous
 62
     7
100
AcDbText
 10
5.9362635081
 20
37.0588756849
 30
0.0
 40
10.0
  1
 
  7
SEACAD_seiso_ttf
 11
5.9362635081
 21
47.0588756849
 31
0.0
100
AcDbText
 73
     3
  0
TEXT
  5
132
330
1F
100
AcDbEntity
  8
Default
  6
Continuous
 62
     7
100
AcDbText
 10
5.9362635081
 20
20.6952393213
 30
0.0
 40
10.0
  1
ecn: 
  7
SEACAD_seiso_ttf
 11
5.9362635081
 21
30.6952393213
 31
0.0
100
AcDbText
 73
     3
  0
TEXT
  5
133
330
1F
100
AcDbEntity
  8
Default
  6
Continuous
 62
     7
100
AcDbText
 10
5.9362635081
 20
4.3316029576
 30
0.0
 40
10.0
  1
unit: mm
  7
SEACAD_seiso_ttf
 11
5.9362635081
 21
14.3316029576
 31
0.0
100
AcDbText
 73
     3
  0
LINE
  5
134
330
1F
100
AcDbEntity
  8
Default
  6
Continuous
 62
     7
100
AcDbLine
 10
0.0
 20
0.0
 30
0.0
 11
100.0
 21
0.0
 31
0.0
  0
LINE
  5
135
330
1F
100
AcDbEntity
  8
Default
  6
Continuous
 62
     7
100
AcDbLine
 10
0.0
 20
0.0
 30
0.0
 11
0.0
 21
100.0
 31
0.0
  0
TEXT
  5
136
330
1F
100
AcDbEntity
  8
Default
  6
Continuous
 62
     7
100
AcDbText
 10
24.3923665681
 20
-18.2375342018
 30
0.0
 40
10.0
  1
100 mm
  7
SEACAD_seiso_ttf
 11
24.3923665681
 21
-8.2375342018
 31
0.0
100
AcDbText
 73
     3
  0
TEXT
  5
137
330
1F
100
AcDbEntity
  8
Default
  6
Continuous
 62
     7
100
AcDbText
 10
-7.6150308803
 20
24.6231930421
 30
0.0
 40
10.0
  1
100 mm
 50
90.0
  7
SEACAD_seiso_ttf
 11
-17.6150308803
 21
24.6231930421
 31
0.0
100
AcDbText
 73
     3
  0
TEXT
  5
138
330
1F
100
AcDbEntity
  8
Default
  6
Continuous
 62
     7
100
AcDbText
 10
28.4878128572
 20
20.0907663715
 30
0.0
 40
10.0
  1
216606
  7
SEACAD_seiso_ttf
 11
28.4878128572
 21
30.0907663715
 31
0.0
100
AcDbText
 73
     3
  0
TEXT
  5
139
330
1F
100
AcDbEntity
  8
Default
  6
Continuous
 62
     7
100
AcDbText
 10
5.9012241913
 20
36.7242780188
 30
0.0
 40
10.0
  1
32763000
  7
SEACAD_seiso_ttf
 11
5.9012241913
 21
46.7242780188
 31
0.0
100
AcDbText
 73
     3
  0
ENDSEC
  0
SECTION
  2
OBJECTS
  0
DICTIONARY
  5
C
330
0
100
AcDbDictionary
281
     1
  3
ACAD_GROUP
350
D
  3
ACAD_LAYOUT
350
1A
  3
ACAD_MLEADERSTYLE
350
13D
  3
ACAD_MLINESTYLE
350
17
  3
ACAD_PLOTSETTINGS
350
19
  3
ACAD_PLOTSTYLENAME
350
E
  3
ACAD_SCALELIST
350
3B
  3
ACAD_TABLESTYLE
350
13C
  3
ACAD_VISUALSTYLE
350
2A
  3
AcDbVariableDictionary
350
13A
  0
DICTIONARY
  5
D
102
{ACAD_REACTORS
330
C
102
}
330
C
100
AcDbDictionary
281
     1
  0
DICTIONARY
  5
1A
102
{ACAD_REACTORS
330
C
102
}
330
C
100
AcDbDictionary
281
     1
  3
Layout1
350
1E
  3
Model
350
22
  0
DICTIONARY
  5
13D
102
{ACAD_REACTORS
330
C
102
}
330
C
100
AcDbDictionary
281
     1
  0
DICTIONARY
  5
17
102
{ACAD_REACTORS
330
C
102
}
330
C
100
AcDbDictionary
281
     1
  3
Standard
350
18
  0
DICTIONARY
  5
19
102
{ACAD_REACTORS
330
C
102
}
330
C
100
AcDbDictionary
281
     1
  0
ACDBDICTIONARYWDFLT
  5
E
102
{ACAD_REACTORS
330
C
102
}
330
C
100
AcDbDictionary
281
     1
  3
Normal
350
F
100
AcDbDictionaryWithDefault
340
F
  0
DICTIONARY
  5
3B
102
{ACAD_REACTORS
330
C
102
}
330
C
100
AcDbDictionary
281
     1
  3
A0
350
3C
  3
A1
350
3D
  3
A2
350
3E
  3
A3
350
3F
  3
A4
350
40
  3
A5
350
41
  3
A6
350
42
  3
A7
350
43
  3
A8
350
44
  3
A9
350
45
  3
B0
350
46
  3
B1
350
47
  3
B2
350
48
  3
B3
350
49
  3
B4
350
4A
  3
B5
350
4B
  3
B6
350
4C
  3
B7
350
4D
  3
B8
350
4E
  3
B9
350
4F
  3
C0
350
50
  3
C1
350
51
  3
C2
350
52
  3
C3
350
53
  3
C4
350
54
  3
C5
350
55
  3
C6
350
56
  3
C7
350
57
  3
C8
350
58
  3
C9
350
59
  3
D0
350
5A
  3
D1
350
5B
  3
D2
350
5C
  0
DICTIONARY
  5
13C
102
{ACAD_REACTORS
330
C
102
}
330
C
100
AcDbDictionary
281
     1
  0
DICTIONARY
  5
2A
102
{ACAD_REACTORS
330
C
102
}
330
C
100
AcDbDictionary
281
     1
  3
2dWireframe
350
2F
  3
3D Hidden
350
31
  3
3dWireframe
350
30
  3
Basic
350
32
  3
Brighten
350
36
  3
ColorChange
350
3A
  3
Conceptual
350
34
  3
Dim
350
35
  3
Facepattern
350
39
  3
Flat
350
2B
  3
FlatWithEdges
350
2C
  3
Gouraud
350
2D
  3
GouraudWithEdges
350
2E
  3
Linepattern
350
38
  3
Realistic
350
33
  3
Thicken
350
37
  0
DICTIONARY
  5
13A
102
{ACAD_REACTORS
330
C
102
}
330
C
100
AcDbDictionary
281
     1
  3
CANNOSCALE
350
13B
  3
PSOLHEIGHT
350
13F
  3
PSOLWIDTH
350
13E
  0
LAYOUT
  5
1E
102
{ACAD_REACTORS
330
1A
102
}
330
1A
100
AcDbPlotSettings
  1

  2
none_device
  4

  6

 40
0.0
 41
0.0
 42
0.0
 43
0.0
 44
0.0
 45
0.0
 46
0.0
 47
0.0
 48
0.0
 49
0.0
140
0.0
141
0.0
142
1.0
143
1.0
 70
   688
 72
     0
 73
     0
 74
     5
  7

 75
    16
147
1.0
148
0.0
149
0.0
100
AcDbLayout
  1
Layout1
 70
     1
 71
     1
 10
0.0
 20
0.0
 11
1682.0
 21
2378.0
 12
0.0
 22
0.0
 32
0.0
 14
0.0
 24
0.0
 34
0.0
 15
1682.0
 25
2378.0
 35
0.0
146
0.0
 13
0.0
 23
0.0
 33
0.0
 16
1.0
 26
0.0
 36
0.0
 17
0.0
 27
1.0
 37
0.0
 76
     0
330
1B
  0
LAYOUT
  5
22
102
{ACAD_REACTORS
330
1A
102
}
330
1A
100
AcDbPlotSettings
  1

  2
none_device
  4

  6

 40
0.0
 41
0.0
 42
0.0
 43
0.0
 44
0.0
 45
0.0
 46
0.0
 47
0.0
 48
0.0
 49
0.0
140
0.0
141
0.0
142
1.0
143
1.0
 70
  1712
 72
     0
 73
     0
 74
     0
  7

 75
     0
147
1.0
148
0.0
149
0.0
100
AcDbLayout
  1
Model
 70
     1
 71
     0
 10
0.0
 20
0.0
 11
1682.0
 21
2378.0
 12
0.0
 22
0.0
 32
0.0
 14
0.0
 24
0.0
 34
0.0
 15
1682.0
 25
2378.0
 35
0.0
146
0.0
 13
0.0
 23
0.0
 33
0.0
 16
1.0
 26
0.0
 36
0.0
 17
0.0
 27
1.0
 37
0.0
 76
     0
330
1F
331
29
  0
MLINESTYLE
  5
18
102
{ACAD_REACTORS
330
17
102
}
330
17
100
AcDbMlineStyle
  2
Standard
 70
     0
  3

 62
   256
 51
90.0
 52
90.0
 71
     2
 49
0.5
 62
   256
  6
BYLAYER
 49
-0.5
 62
   256
  6
BYLAYER
  0
ACDBPLACEHOLDER
  5
F
102
{ACAD_REACTORS
330
E
102
}
330
E
  0
SCALE
  5
3C
102
{ACAD_REACTORS
330
3B
102
}
330
3B
100
AcDbScale
 70
     0
300
1:1
140
1.0
141
1.0
290
     1
  0
SCALE
  5
3D
102
{ACAD_REACTORS
330
3B
102
}
330
3B
100
AcDbScale
 70
     0
300
1:2
140
1.0
141
2.0
290
     0
  0
SCALE
  5
3E
102
{ACAD_REACTORS
330
3B
102
}
330
3B
100
AcDbScale
 70
     0
300
1:4
140
1.0
141
4.0
290
     0
  0
SCALE
  5
3F
102
{ACAD_REACTORS
330
3B
102
}
330
3B
100
AcDbScale
 70
     0
300
1:5
140
1.0
141
5.0
290
     0
  0
SCALE
  5
40
102
{ACAD_REACTORS
330
3B
102
}
330
3B
100
AcDbScale
 70
     0
300
1:8
140
1.0
141
8.0
290
     0
  0
SCALE
  5
41
102
{ACAD_REACTORS
330
3B
102
}
330
3B
100
AcDbScale
 70
     0
300
1:10
140
1.0
141
10.0
290
     0
  0
SCALE
  5
42
102
{ACAD_REACTORS
330
3B
102
}
330
3B
100
AcDbScale
 70
     0
300
1:16
140
1.0
141
16.0
290
     0
  0
SCALE
  5
43
102
{ACAD_REACTORS
330
3B
102
}
330
3B
100
AcDbScale
 70
     0
300
1:20
140
1.0
141
20.0
290
     0
  0
SCALE
  5
44
102
{ACAD_REACTORS
330
3B
102
}
330
3B
100
AcDbScale
 70
     0
300
1:30
140
1.0
141
30.0
290
     0
  0
SCALE
  5
45
102
{ACAD_REACTORS
330
3B
102
}
330
3B
100
AcDbScale
 70
     0
300
1:40
140
1.0
141
40.0
290
     0
  0
SCALE
  5
46
102
{ACAD_REACTORS
330
3B
102
}
330
3B
100
AcDbScale
 70
     0
300
1:50
140
1.0
141
50.0
290
     0
  0
SCALE
  5
47
102
{ACAD_REACTORS
330
3B
102
}
330
3B
100
AcDbScale
 70
     0
300
1:100
140
1.0
141
100.0
290
     0
  0
SCALE
  5
48
102
{ACAD_REACTORS
330
3B
102
}
330
3B
100
AcDbScale
 70
     0
300
2:1
140
2.0
141
1.0
290
     0
  0
SCALE
  5
49
102
{ACAD_REACTORS
330
3B
102
}
330
3B
100
AcDbScale
 70
     0
300
4:1
140
4.0
141
1.0
290
     0
  0
SCALE
  5
4A
102
{ACAD_REACTORS
330
3B
102
}
330
3B
100
AcDbScale
 70
     0
300
8:1
140
8.0
141
1.0
290
     0
  0
SCALE
  5
4B
102
{ACAD_REACTORS
330
3B
102
}
330
3B
100
AcDbScale
 70
     0
300
10:1
140
10.0
141
1.0
290
     0
  0
SCALE
  5
4C
102
{ACAD_REACTORS
330
3B
102
}
330
3B
100
AcDbScale
 70
     0
300
100:1
140
100.0
141
1.0
290
     0
  0
SCALE
  5
4D
102
{ACAD_REACTORS
330
3B
102
}
330
3B
100
AcDbScale
 70
     0
300
1/128" = 1'-0"
140
0.0078125
141
12.0
290
     0
  0
SCALE
  5
4E
102
{ACAD_REACTORS
330
3B
102
}
330
3B
100
AcDbScale
 70
     0
300
1/64" = 1'-0"
140
0.015625
141
12.0
290
     0
  0
SCALE
  5
4F
102
{ACAD_REACTORS
330
3B
102
}
330
3B
100
AcDbScale
 70
     0
300
1/32" = 1'-0"
140
0.03125
141
12.0
290
     0
  0
SCALE
  5
50
102
{ACAD_REACTORS
330
3B
102
}
330
3B
100
AcDbScale
 70
     0
300
1/16" = 1'-0"
140
0.0625
141
12.0
290
     0
  0
SCALE
  5
51
102
{ACAD_REACTORS
330
3B
102
}
330
3B
100
AcDbScale
 70
     0
300
3/32" = 1'-0"
140
0.09375
141
12.0
290
     0
  0
SCALE
  5
52
102
{ACAD_REACTORS
330
3B
102
}
330
3B
100
AcDbScale
 70
     0
300
1/8" = 1'-0"
140
0.125
141
12.0
290
     0
  0
SCALE
  5
53
102
{ACAD_REACTORS
330
3B
102
}
330
3B
100
AcDbScale
 70
     0
300
3/16" = 1'-0"
140
0.1875
141
12.0
290
     0
  0
SCALE
  5
54
102
{ACAD_REACTORS
330
3B
102
}
330
3B
100
AcDbScale
 70
     0
300
1/4" = 1'-0"
140
0.25
141
12.0
290
     0
  0
SCALE
  5
55
102
{ACAD_REACTORS
330
3B
102
}
330
3B
100
AcDbScale
 70
     0
300
3/8" = 1'-0"
140
0.375
141
12.0
290
     0
  0
SCALE
  5
56
102
{ACAD_REACTORS
330
3B
102
}
330
3B
100
AcDbScale
 70
     0
300
1/2" = 1'-0"
140
0.5
141
12.0
290
     0
  0
SCALE
  5
57
102
{ACAD_REACTORS
330
3B
102
}
330
3B
100
AcDbScale
 70
     0
300
3/4" = 1'-0"
140
0.75
141
12.0
290
     0
  0
SCALE
  5
58
102
{ACAD_REACTORS
330
3B
102
}
330
3B
100
AcDbScale
 70
     0
300
1" = 1'-0"
140
1.0
141
12.0
290
     0
  0
SCALE
  5
59
102
{ACAD_REACTORS
330
3B
102
}
330
3B
100
AcDbScale
 70
     0
300
1-1/2" = 1'-0"
140
1.5
141
12.0
290
     0
  0
SCALE
  5
5A
102
{ACAD_REACTORS
330
3B
102
}
330
3B
100
AcDbScale
 70
     0
300
3" = 1'-0"
140
3.0
141
12.0
290
     0
  0
SCALE
  5
5B
102
{ACAD_REACTORS
330
3B
102
}
330
3B
100
AcDbScale
 70
     0
300
6" = 1'-0"
140
6.0
141
12.0
290
     0
  0
SCALE
  5
5C
102
{ACAD_REACTORS
330
3B
102
}
330
3B
100
AcDbScale
 70
     0
300
1'-0" = 1'-0"
140
12.0
141
12.0
290
     0
  0
VISUALSTYLE
  5
2F
102
{ACAD_REACTORS
330
2A
102
}
330
2A
100
AcDbVisualStyle
  2
2dWireframe
 70
     4
 71
     0
 72
     2
 73
     0
 90
        0
 40
-0.6
 41
-30.0
 62
     5
 63
     7
 74
     1
 91
        4
 64
     7
 65
   257
 75
     1
175
     1
 42
1.0
 92
        0
 66
   257
 43
1.0
 76
     1
 77
     6
 78
     2
 67
     7
 79
     5
170
     0
171
     0
290
     0
174
     0
 93
        1
 44
0.0
173
     0
291
     0
 45
0.0
1001
ACAD
1000
AcDbSavedByObjectVersion
1070
     0
  0
VISUALSTYLE
  5
31
102
{ACAD_REACTORS
330
2A
102
}
330
2A
100
AcDbVisualStyle
  2
3D Hidden
 70
     6
 71
     1
 72
     2
 73
     2
 90
        0
 40
-0.6
 41
-30.0
 62
     5
 63
     7
 74
     2
 91
        2
 64
     7
 65
   257
 75
     2
175
     1
 42
40.0
 92
        0
 66
   257
 43
1.0
 76
     1
 77
     6
 78
     2
 67
     7
 79
     3
170
     0
171
     0
290
     0
174
     0
 93
        1
 44
0.0
173
     0
291
     0
 45
0.0
1001
ACAD
1000
AcDbSavedByObjectVersion
1070
     0
  0
VISUALSTYLE
  5
30
102
{ACAD_REACTORS
330
2A
102
}
330
2A
100
AcDbVisualStyle
  2
3dWireframe
 70
     5
 71
     0
 72
     2
 73
     0
 90
        0
 40
-0.6
 41
-30.0
 62
     5
 63
     7
 74
     1
 91
        4
 64
     7
 65
   257
 75
     1
175
     1
 42
1.0
 92
        0
 66
   257
 43
1.0
 76
     1
 77
     6
 78
     2
 67
     7
 79
     5
170
     0
171
     0
290
     0
174
     0
 93
        1
 44
0.0
173
     0
291
     0
 45
0.0
1001
ACAD
1000
AcDbSavedByObjectVersion
1070
     0
  0
VISUALSTYLE
  5
32
102
{ACAD_REACTORS
330
2A
102
}
330
2A
100
AcDbVisualStyle
  2
Basic
 70
     7
 71
     1
 72
     0
 73
     1
 90
        0
 40
-0.6
 41
-30.0
 62
     5
 63
     7
 74
     0
 91
        4
 64
     7
 65
   257
 75
     1
175
     1
 42
1.0
 92
        8
 66
     7
 43
1.0
 76
     1
 77
     6
 78
     2
 67
     7
 79
     5
170
     0
171
     0
290
     0
174
     0
 93
        1
 44
0.0
173
     0
291
     1
 45
0.0
1001
ACAD
1000
AcDbSavedByObjectVersion
1070
     0
  0
VISUALSTYLE
  5
36
102
{ACAD_REACTORS
330
2A
102
}
330
2A
100
AcDbVisualStyle
  2
Brighten
 70
    12
 71
     2
 72
     2
 73
     0
 90
        0
 40
-0.6
 41
-30.0
 62
     5
 63
     7
 74
     1
 91
        4
 64
     7
 65
   257
 75
     1
175
     1
 42
1.0
 92
        8
 66
     7
 43
1.0
 76
     1
 77
     6
 78
     2
 67
     7
 79
     5
170
     0
171
     0
290
     0
174
     0
 93
        1
 44
50.0
173
     0
291
     1
 45
0.0
1001
ACAD
1000
AcDbSavedByObjectVersion
1070
     0
  0
VISUALSTYLE
  5
3A
102
{ACAD_REACTORS
330
2A
102
}
330
2A
100
AcDbVisualStyle
  2
ColorChange
 70
    16
 71
     2
 72
     2
 73
     3
 90
        0
 40
-0.6
 41
-30.0
 62
     5
 63
     8
 74
     1
 91
        4
 64
     7
 65
   257
 75
     1
175
     1
 42
1.0
 92
        8
 66
     8
 43
1.0
 76
     1
 77
     6
 78
     2
 67
     7
 79
     5
170
     0
171
     0
290
     0
174
     0
 93
        1
 44
0.0
173
     0
291
     1
 45
0.0
1001
ACAD
1000
AcDbSavedByObjectVersion
1070
     0
  0
VISUALSTYLE
  5
34
102
{ACAD_REACTORS
330
2A
102
}
330
2A
100
AcDbVisualStyle
  2
Conceptual
 70
     9
 71
     3
 72
     2
 73
     0
 90
        0
 40
-0.6
 41
-30.0
 62
     5
 63
     7
 74
     2
 91
        2
 64
     7
 65
   257
 75
     1
175
     1
 42
40.0
 92
        8
 66
     7
 43
1.0
 76
     1
 77
     6
 78
     2
 67
     7
 79
     3
170
     0
171
     0
290
     0
174
     0
 93
        1
 44
0.0
173
     0
291
     0
 45
0.0
1001
ACAD
1000
AcDbSavedByObjectVersion
1070
     0
  0
VISUALSTYLE
  5
35
102
{ACAD_REACTORS
330
2A
102
}
330
2A
100
AcDbVisualStyle
  2
Dim
 70
    11
 71
     2
 72
     2
 73
     0
 90
        0
 40
-0.6
 41
-30.0
 62
     5
 63
     7
 74
     1
 91
        4
 64
     7
 65
   257
 75
     1
175
     1
 42
1.0
 92
        8
 66
     7
 43
1.0
 76
     1
 77
     6
 78
     2
 67
     7
 79
     5
170
     0
171
     0
290
     0
174
     0
 93
        1
 44
-50.0
173
     0
291
     1
 45
0.0
1001
ACAD
1000
AcDbSavedByObjectVersion
1070
     0
  0
VISUALSTYLE
  5
39
102
{ACAD_REACTORS
330
2A
102
}
330
2A
100
AcDbVisualStyle
  2
Facepattern
 70
    15
 71
     2
 72
     2
 73
     0
 90
        0
 40
-0.6
 41
-30.0
 62
     5
 63
     7
 74
     1
 91
        4
 64
     7
 65
   257
 75
     1
175
     1
 42
1.0
 92
        8
 66
     7
 43
1.0
 76
     1
 77
     6
 78
     2
 67
     7
 79
     5
170
     0
171
     0
290
     0
174
     0
 93
        1
 44
0.0
173
     0
291
     1
 45
0.0
1001
ACAD
1000
AcDbSavedByObjectVersion
1070
     0
  0
VISUALSTYLE
  5
2B
102
{ACAD_REACTORS
330
2A
102
}
330
2A
100
AcDbVisualStyle
  2
Flat
 70
     0
 71
     2
 72
     1
 73
     1
 90
        2
 40
-0.6
 41
30.0
 62
     5
 63
     7
 74
     0
 91
        4
 64
     7
 65
   257
 75
     1
175
     1
 42
1.0
 92
        8
 66
     7
 43
1.0
 76
     1
 77
     6
 78
     2
 67
     7
 79
     5
170
     0
171
     0
290
     0
174
     0
 93
       13
 44
0.0
173
     0
291
     1
 45
0.0
1001
ACAD
1000
AcDbSavedByObjectVersion
1070
     0
  0
VISUALSTYLE
  5
2C
102
{ACAD_REACTORS
330
2A
102
}
330
2A
100
AcDbVisualStyle
  2
FlatWithEdges
 70
     1
 71
     2
 72
     1
 73
     1
 90
        2
 40
-0.6
 41
30.0
 62
     5
 63
     7
 74
     1
 91
        4
 64
     7
 65
   257
 75
     1
175
     1
 42
1.0
 92
        0
 66
   257
 43
1.0
 76
     1
 77
     6
 78
     2
 67
     7
 79
     5
170
     0
171
     0
290
     0
174
     0
 93
       13
 44
0.0
173
     0
291
     1
 45
0.0
1001
ACAD
1000
AcDbSavedByObjectVersion
1070
     0
  0
VISUALSTYLE
  5
2D
102
{ACAD_REACTORS
330
2A
102
}
330
2A
100
AcDbVisualStyle
  2
Gouraud
 70
     2
 71
     2
 72
     2
 73
     1
 90
        2
 40
-0.6
 41
30.0
 62
     5
 63
     7
 74
     0
 91
        4
 64
     7
 65
   257
 75
     1
175
     1
 42
1.0
 92
        0
 66
     7
 43
1.0
 76
     1
 77
     6
 78
     2
 67
     7
 79
     5
170
     0
171
     0
290
     0
174
     0
 93
       13
 44
0.0
173
     0
291
     1
 45
0.0
1001
ACAD
1000
AcDbSavedByObjectVersion
1070
     0
  0
VISUALSTYLE
  5
2E
102
{ACAD_REACTORS
330
2A
102
}
330
2A
100
AcDbVisualStyle
  2
GouraudWithEdges
 70
     3
 71
     2
 72
     2
 73
     1
 90
        2
 40
-0.6
 41
30.0
 62
     5
 63
     7
 74
     1
 91
        4
 64
     7
 65
   257
 75
     1
175
     1
 42
1.0
 92
        0
 66
   257
 43
1.0
 76
     1
 77
     6
 78
     2
 67
     7
 79
     5
170
     0
171
     0
290
     0
174
     0
 93
       13
 44
0.0
173
     0
291
     1
 45
0.0
1001
ACAD
1000
AcDbSavedByObjectVersion
1070
     0
  0
VISUALSTYLE
  5
38
102
{ACAD_REACTORS
330
2A
102
}
330
2A
100
AcDbVisualStyle
  2
Linepattern
 70
    14
 71
     2
 72
     2
 73
     0
 90
        0
 40
-0.6
 41
-30.0
 62
     5
 63
     7
 74
     1
 91
        4
 64
     7
 65
   257
 75
     7
175
     7
 42
1.0
 92
        8
 66
     7
 43
1.0
 76
     1
 77
     6
 78
     2
 67
     7
 79
     5
170
     0
171
     0
290
     0
174
     0
 93
        1
 44
0.0
173
     0
291
     1
 45
0.0
1001
ACAD
1000
AcDbSavedByObjectVersion
1070
     0
  0
VISUALSTYLE
  5
33
102
{ACAD_REACTORS
330
2A
102
}
330
2A
100
AcDbVisualStyle
  2
Realistic
 70
     8
 71
     2
 72
     2
 73
     0
 90
        0
 40
-0.6
 41
-30.0
 62
     5
 63
     7
 74
     1
 91
        0
 64
     7
 65
   257
 75
     1
175
     1
 42
1.0
 92
        8
 66
     8
 43
1.0
 76
     1
 77
     6
 78
     2
 67
     7
 79
     5
170
     0
171
     0
290
     0
174
     0
 93
       13
 44
0.0
173
     0
291
     0
 45
0.0
1001
ACAD
1000
AcDbSavedByObjectVersion
1070
     0
  0
VISUALSTYLE
  5
37
102
{ACAD_REACTORS
330
2A
102
}
330
2A
100
AcDbVisualStyle
  2
Thicken
 70
    13
 71
     2
 72
     2
 73
     0
 90
        0
 40
-0.6
 41
-30.0
 62
     5
 63
     7
 74
     1
 91
        4
 64
     7
 65
   257
 75
     1
175
     1
 42
1.0
 92
       12
 66
     7
 43
1.0
 76
     1
 77
     6
 78
     2
 67
     7
 79
     5
170
     0
171
     0
290
     0
174
     0
 93
        1
 44
0.0
173
     0
291
     1
 45
0.0
1001
ACAD
1000
AcDbSavedByObjectVersion
1070
     0
  0
DICTIONARYVAR
  5
13B
102
{ACAD_REACTORS
330
13A
102
}
330
13A
100
DictionaryVariables
280
     0
  1
1:1
  0
DICTIONARYVAR
  5
13F
102
{ACAD_REACTORS
330
13A
102
}
330
13A
100
DictionaryVariables
280
     0
  1
80.000000
  0
DICTIONARYVAR
  5
13E
102
{ACAD_REACTORS
330
13A
102
}
330
13A
100
DictionaryVariables
280
     0
  1
5.000000
  0
ENDSEC
  0
EOF
