  0
SECTION
  2
HEADER
  9
$ACADVER
  1
AC1015
  9
$ACADMAINTVER
 70
     6
  9
$DWGCODEPAGE
  3
ANSI_1252
  9
$INSBASE
 10
0.0
 20
0.0
 30
0.0
  9
$EXTMIN
 10
0.0
 20
0.0
 30
0.0
  9
$EXTMAX
 10
1682.0
 20
2378.0
 30
0.0
  9
$LIMMIN
 10
0.0
 20
0.0
  9
$LIMMAX
 10
1682.0
 20
2378.0
  9
$ORTHOMODE
 70
     0
  9
$REGENMODE
 70
     1
  9
$FILLMODE
 70
     1
  9
$QTEXTMODE
 70
     0
  9
$MIRRTEXT
 70
     1
  9
$LTSCALE
 40
1.0
  9
$ATTMODE
 70
     1
  9
$TEXTSIZE
 40
2.5
  9
$TRACEWID
 40
1.0
  9
$TEXTSTYLE
  7
Standard
  9
$CLAYER
  8
0
  9
$CELTYPE
  6
ByLayer
  9
$CECOLOR
 62
   256
  9
$CELTSCALE
 40
1.0
  9
$DISPSILH
 70
     0
  9
$DIMSCALE
 40
1.0
  9
$DIMASZ
 40
2.5
  9
$DIMEXO
 40
0.625
  9
$DIMDLI
 40
3.75
  9
$DIMRND
 40
0.0
  9
$DIMDLE
 40
0.0
  9
$DIMEXE
 40
1.25
  9
$DIMTP
 40
0.0
  9
$DIMTM
 40
0.0
  9
$DIMTXT
 40
2.5
  9
$DIMCEN
 40
2.5
  9
$DIMTSZ
 40
0.0
  9
$DIMTOL
 70
     0
  9
$DIMLIM
 70
     0
  9
$DIMTIH
 70
     0
  9
$DIMTOH
 70
     0
  9
$DIMSE1
 70
     0
  9
$DIMSE2
 70
     0
  9
$DIMTAD
 70
     1
  9
$DIMZIN
 70
     8
  9
$DIMBLK
  1

  9
$DIMASO
 70
     1
  9
$DIMSHO
 70
     1
  9
$DIMPOST
  1

  9
$DIMAPOST
  1

  9
$DIMALT
 70
     0
  9
$DIMALTD
 70
     3
  9
$DIMALTF
 40
0.0393700787
  9
$DIMLFAC
 40
1.0
  9
$DIMTOFL
 70
     1
  9
$DIMTVP
 40
0.0
  9
$DIMTIX
 70
     0
  9
$DIMSOXD
 70
     0
  9
$DIMSAH
 70
     0
  9
$DIMBLK1
  1

  9
$DIMBLK2
  1

  9
$DIMSTYLE
  2
ISO-25
  9
$DIMCLRD
 70
     0
  9
$DIMCLRE
 70
     0
  9
$DIMCLRT
 70
     0
  9
$DIMTFAC
 40
1.0
  9
$DIMGAP
 40
0.625
  9
$DIMJUST
 70
     0
  9
$DIMSD1
 70
     0
  9
$DIMSD2
 70
     0
  9
$DIMTOLJ
 70
     0
  9
$DIMTZIN
 70
     8
  9
$DIMALTZ
 70
     0
  9
$DIMALTTZ
 70
     0
  9
$DIMUPT
 70
     0
  9
$DIMDEC
 70
     2
  9
$DIMTDEC
 70
     2
  9
$DIMALTU
 70
     2
  9
$DIMALTTD
 70
     3
  9
$DIMTXSTY
  7
Standard
  9
$DIMAUNIT
 70
     0
  9
$DIMADEC
 70
     0
  9
$DIMALTRND
 40
0.0
  9
$DIMAZIN
 70
     0
  9
$DIMDSEP
 70
    44
  9
$DIMATFIT
 70
     3
  9
$DIMFRAC
 70
     0
  9
$DIMLDRBLK
  1

  9
$DIMLUNIT
 70
     2
  9
$DIMLWD
 70
    -2
  9
$DIMLWE
 70
    -2
  9
$DIMTMOVE
 70
     0
  9
$LUNITS
 70
     2
  9
$LUPREC
 70
     4
  9
$SKETCHINC
 40
1.0
  9
$FILLETRAD
 40
10.0
  9
$AUNITS
 70
     0
  9
$AUPREC
 70
     0
  9
$MENU
  1
.
  9
$ELEVATION
 40
0.0
  9
$PELEVATION
 40
0.0
  9
$THICKNESS
 40
0.0
  9
$LIMCHECK
 70
     0
  9
$CHAMFERA
 40
10.0
  9
$CHAMFERB
 40
10.0
  9
$CHAMFERC
 40
20.0
  9
$CHAMFERD
 40
0.0
  9
$SKPOLY
 70
     0
  9
$TDCREATE
 40
2455274.643468901
  9
$TDUCREATE
 40
2455274.601802234
  9
$TDUPDATE
 40
2455274.643468912
  9
$TDUUPDATE
 40
2455274.601802245
  9
$TDINDWG
 40
0.0000000116
  9
$TDUSRTIMER
 40
0.0000000116
  9
$USRTIMER
 70
     1
  9
$ANGBASE
 50
0.0
  9
$ANGDIR
 70
     0
  9
$PDMODE
 70
     0
  9
$PDSIZE
 40
0.0
  9
$PLINEWID
 40
0.0
  9
$SPLFRAME
 70
     0
  9
$SPLINETYPE
 70
     6
  9
$SPLINESEGS
 70
     8
  9
$HANDSEED
  5
170
  9
$SURFTAB1
 70
     6
  9
$SURFTAB2
 70
     6
  9
$SURFTYPE
 70
     6
  9
$SURFU
 70
     6
  9
$SURFV
 70
     6
  9
$UCSBASE
  2

  9
$UCSNAME
  2

  9
$UCSORG
 10
0.0
 20
0.0
 30
0.0
  9
$UCSXDIR
 10
1.0
 20
0.0
 30
0.0
  9
$UCSYDIR
 10
0.0
 20
1.0
 30
0.0
  9
$UCSORTHOREF
  2

  9
$UCSORTHOVIEW
 70
     0
  9
$UCSORGTOP
 10
0.0
 20
0.0
 30
0.0
  9
$UCSORGBOTTOM
 10
0.0
 20
0.0
 30
0.0
  9
$UCSORGLEFT
 10
0.0
 20
0.0
 30
0.0
  9
$UCSORGRIGHT
 10
0.0
 20
0.0
 30
0.0
  9
$UCSORGFRONT
 10
0.0
 20
0.0
 30
0.0
  9
$UCSORGBACK
 10
0.0
 20
0.0
 30
0.0
  9
$PUCSBASE
  2

  9
$PUCSNAME
  2

  9
$PUCSORG
 10
0.0
 20
0.0
 30
0.0
  9
$PUCSXDIR
 10
1.0
 20
0.0
 30
0.0
  9
$PUCSYDIR
 10
0.0
 20
1.0
 30
0.0
  9
$PUCSORTHOREF
  2

  9
$PUCSORTHOVIEW
 70
     0
  9
$PUCSORGTOP
 10
0.0
 20
0.0
 30
0.0
  9
$PUCSORGBOTTOM
 10
0.0
 20
0.0
 30
0.0
  9
$PUCSORGLEFT
 10
0.0
 20
0.0
 30
0.0
  9
$PUCSORGRIGHT
 10
0.0
 20
0.0
 30
0.0
  9
$PUCSORGFRONT
 10
0.0
 20
0.0
 30
0.0
  9
$PUCSORGBACK
 10
0.0
 20
0.0
 30
0.0
  9
$USERI1
 70
     0
  9
$USERI2
 70
     0
  9
$USERI3
 70
     0
  9
$USERI4
 70
     0
  9
$USERI5
 70
     0
  9
$USERR1
 40
0.0
  9
$USERR2
 40
0.0
  9
$USERR3
 40
0.0
  9
$USERR4
 40
0.0
  9
$USERR5
 40
0.0
  9
$WORLDVIEW
 70
     1
  9
$SHADEDGE
 70
     3
  9
$SHADEDIF
 70
    70
  9
$TILEMODE
 70
     1
  9
$MAXACTVP
 70
    64
  9
$PINSBASE
 10
0.0
 20
0.0
 30
0.0
  9
$PLIMCHECK
 70
     0
  9
$PEXTMIN
 10
0.0
 20
0.0
 30
0.0
  9
$PEXTMAX
 10
1682.0
 20
2378.0
 30
0.0
  9
$PLIMMIN
 10
0.0
 20
0.0
  9
$PLIMMAX
 10
1682.0
 20
2378.0
  9
$UNITMODE
 70
     0
  9
$VISRETAIN
 70
     1
  9
$PLINEGEN
 70
     0
  9
$PSLTSCALE
 70
     1
  9
$TREEDEPTH
 70
  3020
  9
$CMLSTYLE
  2
Standard
  9
$CMLJUST
 70
     0
  9
$CMLSCALE
 40
20.0
  9
$PROXYGRAPHICS
 70
     1
  9
$MEASUREMENT
 70
     1
  9
$CELWEIGHT
370
    -1
  9
$ENDCAPS
280
     0
  9
$JOINSTYLE
280
     0
  9
$LWDISPLAY
290
     0
  9
$INSUNITS
 70
     4
  9
$HYPERLINKBASE
  1

  9
$STYLESHEET
  1

  9
$XEDIT
290
     1
  9
$CEPSNTYPE
380
     0
  9
$PSTYLEMODE
290
     1
  9
$FINGERPRINTGUID
  2
{79E341CF-B093-48CF-9E24-A1D96419BF90}
  9
$VERSIONGUID
  2
{FAEB1C32-E019-11D5-929B-00C0DF256EC4}
  9
$EXTNAMES
290
     1
  9
$PSVPSCALE
 40
0.0
  9
$OLESTARTUP
290
     0
  0
ENDSEC
  0
SECTION
  2
CLASSES
  0
CLASS
  1
ACDBDICTIONARYWDFLT
  2
AcDbDictionaryWithDefault
  3
ObjectDBX Classes
 90
        0
280
     0
281
     0
  0
CLASS
  1
VISUALSTYLE
  2
AcDbVisualStyle
  3
ObjectDBX Classes
 90
     4095
280
     0
281
     0
  0
CLASS
  1
SCALE
  2
AcDbScale
  3
ObjectDBX Classes
 90
     1153
280
     0
281
     0
  0
CLASS
  1
DICTIONARYVAR
  2
AcDbDictionaryVar
  3
ObjectDBX Classes
 90
        0
280
     0
281
     0
  0
CLASS
  1
ACDBPLACEHOLDER
  2
AcDbPlaceHolder
  3
ObjectDBX Classes
 90
        0
280
     0
281
     0
  0
CLASS
  1
LAYOUT
  2
AcDbLayout
  3
ObjectDBX Classes
 90
        0
280
     0
281
     0
  0
ENDSEC
  0
SECTION
  2
TABLES
  0
TABLE
  2
VPORT
  5
8
330
0
100
AcDbSymbolTable
 70
     1
  0
VPORT
  5
29
330
8
100
AcDbSymbolTableRecord
100
AcDbViewportTableRecord
  2
*Active
 70
     0
 10
0.0
 20
0.0
 11
1.0
 21
1.0
 12
344.1869158879
 22
148.5
 13
0.0
 23
0.0
 14
10.0
 24
10.0
 15
10.0
 25
10.0
 16
0.0
 26
0.0
 36
1.0
 17
0.0
 27
0.0
 37
0.0
 40
297.0
 41
1.9729729729
 42
50.0
 43
0.0
 44
0.0
 50
0.0
 51
0.0
 71
     0
 72
   100
 73
     1
 74
     3
 75
     0
 76
     0
 77
     0
 78
     0
281
     0
 65
     1
110
0.0
120
0.0
130
0.0
111
1.0
121
0.0
131
0.0
112
0.0
122
1.0
132
0.0
 79
     0
146
0.0
  0
ENDTAB
  0
TABLE
  2
LTYPE
  5
5
330
0
100
AcDbSymbolTable
 70
     2
  0
LTYPE
  5
14
330
5
100
AcDbSymbolTableRecord
100
AcDbLinetypeTableRecord
  2
ByBlock
 70
     0
  3

 72
    65
 73
     0
 40
0.0
  0
LTYPE
  5
15
330
5
100
AcDbSymbolTableRecord
100
AcDbLinetypeTableRecord
  2
ByLayer
 70
     0
  3

 72
    65
 73
     0
 40
0.0
  0
LTYPE
  5
16
330
5
100
AcDbSymbolTableRecord
100
AcDbLinetypeTableRecord
  2
Continuous
 70
     0
  3
Solid line
 72
    65
 73
     0
 40
0.0
  0
LTYPE
  5
D3
330
5
100
AcDbSymbolTableRecord
100
AcDbLinetypeTableRecord
  2
CENTER2
 70
     0
  3
Center (.5x) ___ _ ___ _ ___ _ ___ _ ___ _ ___
 72
    65
 73
     4
 40
28.575
 49
19.05
 74
     4
 75
     0
340
0
 46
0.0
 50
0.0
 44
0.0
 45
0.0
 49
-3.175
 74
     4
 75
     0
340
0
 46
0.0
 50
0.0
 44
0.0
 45
0.0
 49
3.175
 74
     4
 75
     0
340
0
 46
0.0
 50
0.0
 44
0.0
 45
0.0
 49
-3.175
 74
     4
 75
     0
340
0
 46
0.0
 50
0.0
 44
0.0
 45
0.0
  0
ENDTAB
  0
TABLE
  2
LAYER
  5
2
330
0
100
AcDbSymbolTable
 70
    15
  0
LAYER
  5
10
330
2
100
AcDbSymbolTableRecord
100
AcDbLayerTableRecord
  2
0
 70
     0
 62
     7
  6
Continuous
370
    -3
390
F
  0
LAYER
  5
5D
330
2
100
AcDbSymbolTableRecord
100
AcDbLayerTableRecord
  2
Default
 70
     0
 62
     7
  6
Continuous
370
    -3
390
F
  0
LAYER
  5
60
330
2
100
AcDbSymbolTableRecord
100
AcDbLayerTableRecord
  2
$DDT_AUDIT_GENERATED_(60)
 70
     0
 62
     7
  6
Continuous
370
    -3
390
F
  0
LAYER
  5
6D
330
2
100
AcDbSymbolTableRecord
100
AcDbLayerTableRecord
  2
$DDT_AUDIT_GENERATED_(6D)
 70
     0
 62
     7
  6
Continuous
370
    -3
390
F
  0
LAYER
  5
71
330
2
100
AcDbSymbolTableRecord
100
AcDbLayerTableRecord
  2
$DDT_AUDIT_GENERATED_(71)
 70
     0
 62
     7
  6
Continuous
370
    -3
390
F
  0
LAYER
  5
7A
330
2
100
AcDbSymbolTableRecord
100
AcDbLayerTableRecord
  2
$DDT_AUDIT_GENERATED_(7A)
 70
     0
 62
     7
  6
Continuous
370
    -3
390
F
  0
LAYER
  5
82
330
2
100
AcDbSymbolTableRecord
100
AcDbLayerTableRecord
  2
$DDT_AUDIT_GENERATED_(82)
 70
     0
 62
     7
  6
Continuous
370
    -3
390
F
  0
LAYER
  5
94
330
2
100
AcDbSymbolTableRecord
100
AcDbLayerTableRecord
  2
$DDT_AUDIT_GENERATED_(94)
 70
     0
 62
     7
  6
Continuous
370
    -3
390
F
  0
LAYER
  5
A2
330
2
100
AcDbSymbolTableRecord
100
AcDbLayerTableRecord
  2
$DDT_AUDIT_GENERATED_(A2)
 70
     0
 62
     7
  6
Continuous
370
    -3
390
F
  0
LAYER
  5
B1
330
2
100
AcDbSymbolTableRecord
100
AcDbLayerTableRecord
  2
$DDT_AUDIT_GENERATED_(B1)
 70
     0
 62
     7
  6
Continuous
370
    -3
390
F
  0
LAYER
  5
CF
330
2
100
AcDbSymbolTableRecord
100
AcDbLayerTableRecord
  2
$DDT_AUDIT_GENERATED_(CF)
 70
     0
 62
     7
  6
Continuous
370
    -3
390
F
  0
LAYER
  5
D2
330
2
100
AcDbSymbolTableRecord
100
AcDbLayerTableRecord
  2
DV1_Standard
 70
     0
 62
     7
  6
Continuous
370
    -3
390
F
  0
LAYER
  5
10D
330
2
100
AcDbSymbolTableRecord
100
AcDbLayerTableRecord
  2
DV2_Standard
 70
     0
 62
     7
  6
Continuous
370
    -3
390
F
  0
LAYER
  5
129
330
2
100
AcDbSymbolTableRecord
100
AcDbLayerTableRecord
  2
$DDT_AUDIT_GENERATED_(129)
 70
     0
 62
     7
  6
Continuous
370
    -3
390
F
  0
LAYER
  5
156
330
2
100
AcDbSymbolTableRecord
100
AcDbLayerTableRecord
  2
DV3_Standard
 70
     0
 62
     7
  6
Continuous
370
    -3
390
F
  0
ENDTAB
  0
TABLE
  2
STYLE
  5
3
330
0
100
AcDbSymbolTable
 70
     2
  0
STYLE
  5
11
330
3
100
AcDbSymbolTableRecord
100
AcDbTextStyleTableRecord
  2
Standard
 70
     0
 40
0.0
 41
1.0
 50
0.0
 71
     0
 42
2.5
  3
txt
  4

  0
STYLE
  5
15F
330
3
100
AcDbSymbolTableRecord
100
AcDbTextStyleTableRecord
  2
SEACAD_seiso_ttf
 70
     0
 40
0.0
 41
1.0
 50
0.0
 71
     0
 42
0.2
  3
seiso.ttf
  4

  0
ENDTAB
  0
TABLE
  2
VIEW
  5
6
330
0
100
AcDbSymbolTable
 70
     0
  0
ENDTAB
  0
TABLE
  2
UCS
  5
7
330
0
100
AcDbSymbolTable
 70
     0
  0
ENDTAB
  0
TABLE
  2
APPID
  5
9
330
0
100
AcDbSymbolTable
 70
     1
  0
APPID
  5
12
330
9
100
AcDbSymbolTableRecord
100
AcDbRegAppTableRecord
  2
ACAD
 70
     0
  0
ENDTAB
  0
TABLE
  2
DIMSTYLE
  5
A
330
0
100
AcDbSymbolTable
 70
     1
100
AcDbDimStyleTable
  0
DIMSTYLE
105
27
330
A
100
AcDbSymbolTableRecord
100
AcDbDimStyleTableRecord
  2
ISO-25
 70
     0
 41
2.5
 42
0.625
 43
3.75
 44
1.25
 73
     0
 74
     0
 77
     1
 78
     8
140
2.5
141
2.5
143
0.0393700787
147
0.625
171
     3
172
     1
271
     2
272
     2
274
     3
278
    44
283
     0
284
     8
340
11
  0
ENDTAB
  0
TABLE
  2
BLOCK_RECORD
  5
1
330
0
100
AcDbSymbolTable
 70
     4
  0
BLOCK_RECORD
  5
1F
330
1
100
AcDbSymbolTableRecord
100
AcDbBlockTableRecord
  2
*Model_Space
340
22
  0
BLOCK_RECORD
  5
1B
330
1
100
AcDbSymbolTableRecord
100
AcDbBlockTableRecord
  2
*Paper_Space
340
1E
  0
BLOCK_RECORD
  5
5E
330
1
100
AcDbSymbolTableRecord
100
AcDbBlockTableRecord
  2
SE
340
0
102
{BLKREFS
331
5F
102
}
  0
BLOCK_RECORD
  5
D8
330
1
100
AcDbSymbolTableRecord
100
AcDbBlockTableRecord
  2
SE1
340
0
102
{BLKREFS
331
D9
102
}
  0
BLOCK_RECORD
  5
112
330
1
100
AcDbSymbolTableRecord
100
AcDbBlockTableRecord
  2
SE2
340
0
102
{BLKREFS
331
113
102
}
  0
ENDTAB
  0
ENDSEC
  0
SECTION
  2
BLOCKS
  0
BLOCK
  5
20
330
1F
100
AcDbEntity
  8
0
100
AcDbBlockBegin
  2
*Model_Space
 70
     0
 10
0.0
 20
0.0
 30
0.0
  3
*Model_Space
  1

  0
ENDBLK
  5
21
330
1F
100
AcDbEntity
  8
0
100
AcDbBlockEnd
  0
BLOCK
  5
1C
330
1B
100
AcDbEntity
 67
     1
  8
0
100
AcDbBlockBegin
  2
*Paper_Space
 70
     0
 10
0.0
 20
0.0
 30
0.0
  3
*Paper_Space
  1

  0
ENDBLK
  5
1D
330
1B
100
AcDbEntity
 67
     1
  8
0
100
AcDbBlockEnd
  0
BLOCK
  5
D6
330
5E
100
AcDbEntity
  8
0
100
AcDbBlockBegin
  2
SE
 70
     0
 10
0.0
 20
0.0
 30
0.0
  3
SE
  1

  0
LINE
  5
61
330
5E
100
AcDbEntity
  8
$DDT_AUDIT_GENERATED_(60)
  6
Continuous
 62
     7
100
AcDbLine
 10
85.7483873136
 20
615.2348210227
 30
0.0
 11
85.7483873136
 21
564.2348210227
 31
0.0
  0
SPLINE
  5
62
330
5E
100
AcDbEntity
  8
$DDT_AUDIT_GENERATED_(60)
  6
Continuous
 62
     7
100
AcDbSpline
210
0.0
220
0.0
230
1.0
 70
     8
 71
     3
 72
    34
 73
    30
 74
     0
 42
0.0000000001250112
 43
0.0000000001
 40
0.5003300637028526
 40
0.5003300637028526
 40
0.5003300637028526
 40
0.5003300637028526
 40
0.5312500000000008
 40
0.5312500000000008
 40
0.5625000000000007
 40
0.5625000000000007
 40
0.6250000000000008
 40
0.6250000000000008
 40
0.6562500000000007
 40
0.6562500000000007
 40
0.6875000000000007
 40
0.6875000000000007
 40
0.7187500000000007
 40
0.7187500000000007
 40
0.7500000000000006
 40
0.7500000000000006
 40
0.7812500000000006
 40
0.7812500000000006
 40
0.8125000000000006
 40
0.8125000000000006
 40
0.8750000000000003
 40
0.8750000000000003
 40
0.9062500000000003
 40
0.9062500000000003
 40
0.9375000000000003
 40
0.9375000000000003
 40
0.9687500000000001
 40
0.9687500000000001
 40
1.0
 40
1.0
 40
1.0
 40
1.0
 10
59.04838644292317
 20
563.734821783895
 30
0.0
 10
59.04833342595634
 20
563.7348682713877
 30
0.0
 10
58.92322505041047
 20
563.822878394705
 30
0.0
 10
58.4324971605507
 20
564.1627803232835
 30
0.0
 10
58.0700258088091
 20
564.4124594429925
 30
0.0
 10
56.65399012357235
 20
565.3609470130857
 30
0.0
 10
55.30449557389696
 20
566.2414242515692
 30
0.0
 10
52.85901777050605
 20
567.6313054555677
 30
0.0
 10
51.97681166620673
 20
568.1038881389752
 30
0.0
 10
50.06265361199267
 20
569.0235165667727
 30
0.0
 10
49.03300581813574
 20
569.4683467213242
 30
0.0
 10
46.87242216975345
 20
570.2404373060604
 30
0.0
 10
45.71903504913693
 20
570.5748874176188
 30
0.0
 10
43.32390388545174
 20
571.0396871990322
 30
0.0
 10
42.10024378805286
 20
571.1672122426445
 30
0.0
 10
39.59341404879074
 20
571.1670018434892
 30
0.0
 10
38.36604873967598
 20
571.0386622424071
 30
0.0
 10
35.97470624553594
 20
570.5739986109273
 30
0.0
 10
34.81840776721074
 20
570.238562877525
 30
0.0
 10
31.5794978042032
 20
569.0803777702451
 30
0.0
 10
29.648020866111
 20
568.0920648750327
 30
0.0
 10
27.20227063855153
 20
566.7016564206122
 30
0.0
 10
26.45213233052074
 20
566.2453642440735
 30
0.0
 10
25.14554496399774
 20
565.4226495838179
 30
0.0
 10
24.58091603642502
 20
565.0514490501449
 30
0.0
 10
23.64131090770863
 20
564.4223397413244
 30
0.0
 10
23.26895013222131
 20
564.1659905976362
 30
0.0
 10
22.77671007740928
 20
563.8250932004962
 30
0.0
 10
22.64838731358514
 20
563.7348210226766
 30
0.0
 10
22.64838731358514
 20
563.7348210226766
 30
0.0
  0
ARC
  5
63
330
5E
100
AcDbEntity
  8
$DDT_AUDIT_GENERATED_(60)
  6
Continuous
 62
     7
100
AcDbCircle
 10
34.4483872967
 20
638.1305132913
 30
0.0
 40
25.82033202576182
100
AcDbArc
 50
240.1540462407
 51
299.8459547428
  0
ARC
  5
64
330
5E
100
AcDbEntity
  8
$DDT_AUDIT_GENERATED_(60)
  6
Continuous
 62
     7
100
AcDbCircle
 10
113.4083873136
 20
589.7348210227
 30
0.0
 40
100.0
100
AcDbArc
 50
165.1504721945
 51
194.8495278055
  0
ARC
  5
65
330
5E
100
AcDbEntity
  8
$DDT_AUDIT_GENERATED_(60)
  6
Continuous
 62
     7
100
AcDbCircle
 10
85.2483873136
 20
564.2348210227
 30
0.0
 40
0.5000000000000073
100
AcDbArc
 50
270.0
 51
0.0
  0
ARC
  5
66
330
5E
100
AcDbEntity
  8
$DDT_AUDIT_GENERATED_(60)
  6
Continuous
 62
     7
100
AcDbCircle
 10
85.2483873136
 20
615.2348210227
 30
0.0
 40
0.5000000000000004
100
AcDbArc
 50
0.0
 51
90.0
  0
ARC
  5
67
330
5E
100
AcDbEntity
  8
$DDT_AUDIT_GENERATED_(60)
  6
Continuous
 62
     7
100
AcDbCircle
 10
17.2314670052
 20
615.2348210227
 30
0.0
 40
0.5000000000000004
100
AcDbArc
 50
90.0
 51
165.1504721945
  0
ARC
  5
68
330
5E
100
AcDbEntity
  8
$DDT_AUDIT_GENERATED_(60)
  6
Continuous
 62
     7
100
AcDbCircle
 10
17.2314670052
 20
564.2348210227
 30
0.0
 40
0.4999999999999936
100
AcDbArc
 50
194.8495278055
 51
270.0
  0
LINE
  5
69
330
5E
100
AcDbEntity
  8
$DDT_AUDIT_GENERATED_(60)
  6
Continuous
 62
     7
100
AcDbLine
 10
21.6147520731
 20
615.7348210227
 30
0.0
 11
17.2314670052
 21
615.7348210227
 31
0.0
  0
LINE
  5
6A
330
5E
100
AcDbEntity
  8
$DDT_AUDIT_GENERATED_(60)
  6
Continuous
 62
     7
100
AcDbLine
 10
85.2483873136
 20
615.7348210227
 30
0.0
 11
47.2558744765
 21
615.7348210227
 31
0.0
  0
LINE
  5
6B
330
5E
100
AcDbEntity
  8
$DDT_AUDIT_GENERATED_(60)
  6
Continuous
 62
     7
100
AcDbLine
 10
59.0477408544
 20
563.7348210227
 30
0.0
 11
85.2483873136
 21
563.7348210227
 31
0.0
  0
LINE
  5
6C
330
5E
100
AcDbEntity
  8
$DDT_AUDIT_GENERATED_(60)
  6
Continuous
 62
     7
100
AcDbLine
 10
17.2314670052
 20
563.7348210227
 30
0.0
 11
22.6483873136
 21
563.7348210227
 31
0.0
  0
LINE
  5
6E
330
5E
100
AcDbEntity
  8
$DDT_AUDIT_GENERATED_(6D)
  6
Continuous
 62
     7
100
AcDbLine
 10
22.8483873136
 20
506.0348210227
 30
0.0
 11
58.8483873136
 21
506.0348210227
 31
0.0
  0
LINE
  5
6F
330
5E
100
AcDbEntity
  8
$DDT_AUDIT_GENERATED_(6D)
  6
Continuous
 62
     7
100
AcDbLine
 10
22.8483873136
 20
563.8743597452
 30
0.0
 11
22.8483873136
 21
506.0348210227
 31
0.0
  0
LINE
  5
70
330
5E
100
AcDbEntity
  8
$DDT_AUDIT_GENERATED_(6D)
  6
Continuous
 62
     7
100
AcDbLine
 10
58.8483873136
 20
506.0348210227
 30
0.0
 11
58.8483873136
 21
563.8744214093
 31
0.0
  0
LINE
  5
72
330
5E
100
AcDbEntity
  8
$DDT_AUDIT_GENERATED_(71)
  6
Continuous
 62
     7
100
AcDbLine
 10
13.8483873136
 20
501.5348210227
 30
0.0
 11
67.8483873136
 21
501.5348210227
 31
0.0
  0
LINE
  5
73
330
5E
100
AcDbEntity
  8
$DDT_AUDIT_GENERATED_(71)
  6
Continuous
 62
     7
100
AcDbLine
 10
22.8483873136
 20
506.0348210227
 30
0.0
 11
58.8483873136
 21
506.0348210227
 31
0.0
  0
LINE
  5
74
330
5E
100
AcDbEntity
  8
$DDT_AUDIT_GENERATED_(71)
  6
Continuous
 62
     7
100
AcDbLine
 10
13.8483873136
 20
504.4158395941
 30
0.0
 11
13.8483873136
 21
501.5348210227
 31
0.0
  0
LINE
  5
75
330
5E
100
AcDbEntity
  8
$DDT_AUDIT_GENERATED_(71)
  6
Continuous
 62
     7
100
AcDbLine
 10
67.8483873136
 20
501.5348210227
 30
0.0
 11
67.8483873136
 21
504.4158395941
 31
0.0
  0
ARC
  5
76
330
5E
100
AcDbEntity
  8
$DDT_AUDIT_GENERATED_(71)
  6
Continuous
 62
     7
100
AcDbCircle
 10
31.5511328267
 20
406.4142296746
 30
0.0
 40
100.0
100
AcDbArc
 50
94.9926216254
 51
99.9560038527
  0
ARC
  5
77
330
5E
100
AcDbEntity
  8
$DDT_AUDIT_GENERATED_(71)
  6
Continuous
 62
     7
100
AcDbCircle
 10
50.1456418005
 20
406.4142296746
 30
0.0
 40
100.0
100
AcDbArc
 50
80.0439961473
 51
85.0073783746
  0
ARC
  5
78
330
5E
100
AcDbEntity
  8
$DDT_AUDIT_GENERATED_(71)
  6
Continuous
 62
     7
100
AcDbCircle
 10
67.3483873136
 20
504.4158395941
 30
0.0
 40
0.5000000000000004
100
AcDbArc
 50
0.0
 51
80.0439961473
  0
ARC
  5
79
330
5E
100
AcDbEntity
  8
$DDT_AUDIT_GENERATED_(71)
  6
Continuous
 62
     7
100
AcDbCircle
 10
14.3483873136
 20
504.4158395941
 30
0.0
 40
0.5000000000000148
100
AcDbArc
 50
99.9560038527
 51
180.0
  0
ARC
  5
7B
330
5E
100
AcDbEntity
  8
$DDT_AUDIT_GENERATED_(7A)
  6
Continuous
 62
     7
100
AcDbCircle
 10
34.4483873136
 20
817.2348210227
 30
0.0
 40
12.4
100
AcDbArc
 50
0.0
 51
180.0
  0
LINE
  5
7C
330
5E
100
AcDbEntity
  8
$DDT_AUDIT_GENERATED_(7A)
  6
Continuous
 62
     7
100
AcDbLine
 10
22.0483873136
 20
717.2356930321
 30
0.0
 11
22.0483873136
 21
615.5153718012
 31
0.0
  0
LINE
  5
7D
330
5E
100
AcDbEntity
  8
$DDT_AUDIT_GENERATED_(7A)
  6
Continuous
 62
     7
100
AcDbLine
 10
46.8483873136
 20
615.5163623538
 30
0.0
 11
46.8483873136
 21
717.2356930321
 31
0.0
  0
LINE
  5
7E
330
5E
100
AcDbEntity
  8
$DDT_AUDIT_GENERATED_(7A)
  6
Continuous
 62
     7
100
AcDbLine
 10
22.0483873136
 20
817.2348210227
 30
0.0
 11
22.0483873136
 21
769.2348210227
 31
0.0
  0
LINE
  5
7F
330
5E
100
AcDbEntity
  8
$DDT_AUDIT_GENERATED_(7A)
  6
Continuous
 62
     7
100
AcDbLine
 10
46.8483873136
 20
769.2348210227
 30
0.0
 11
46.8483873136
 21
817.2348210227
 31
0.0
  0
LINE
  5
80
330
5E
100
AcDbEntity
  8
$DDT_AUDIT_GENERATED_(7A)
  6
Continuous
 62
     7
100
AcDbLine
 10
46.8483873136
 20
755.2364659597
 30
0.0
 11
46.8483873136
 21
769.2348210227
 31
0.0
  0
LINE
  5
81
330
5E
100
AcDbEntity
  8
$DDT_AUDIT_GENERATED_(7A)
  6
Continuous
 62
     7
100
AcDbLine
 10
22.0483873136
 20
769.2348210227
 30
0.0
 11
22.0483873136
 21
755.2364659597
 31
0.0
  0
LINE
  5
83
330
5E
100
AcDbEntity
  8
$DDT_AUDIT_GENERATED_(82)
  6
Continuous
 62
     7
100
AcDbLine
 10
48.3263984246
 20
717.2356930321
 30
0.0
 11
20.5703762026
 21
717.2356930321
 31
0.0
  0
LINE
  5
84
330
5E
100
AcDbEntity
  8
$DDT_AUDIT_GENERATED_(82)
  6
Continuous
 62
     7
100
AcDbLine
 10
47.6596434471
 20
755.2355747416
 30
0.0
 11
21.23713118
 21
755.2355747416
 31
0.0
  0
LINE
  5
85
330
5E
100
AcDbEntity
  8
$DDT_AUDIT_GENERATED_(82)
  6
Continuous
 62
     7
100
AcDbLine
 10
21.23713118
 20
755.2364659597
 30
0.0
 11
47.6596434471
 21
755.2364659597
 31
0.0
  0
ARC
  5
86
330
5E
100
AcDbEntity
  8
$DDT_AUDIT_GENERATED_(82)
  6
Continuous
 62
     7
100
AcDbCircle
 10
-259.5563230582
 20
740.3723668295
 30
0.0
 40
279.9999999389613
100
AcDbArc
 50
355.4816815638
 51
359.0
  0
ARC
  5
87
330
5E
100
AcDbEntity
  8
$DDT_AUDIT_GENERATED_(82)
  6
Continuous
 62
     7
100
AcDbCircle
 10
328.4530976854
 20
740.3723668295
 30
0.0
 40
279.9999999389613
100
AcDbArc
 50
181.0
 51
184.5183622826
  0
ARC
  5
88
330
5E
100
AcDbEntity
  8
$DDT_AUDIT_GENERATED_(82)
  6
Continuous
 62
     7
100
AcDbCircle
 10
20.5703279417
 20
718.2356484343
 30
0.0
 40
0.9999554033266779
100
AcDbArc
 50
175.4788947155
 51
270.0027652708
  0
ARC
  5
89
330
5E
100
AcDbEntity
  8
$DDT_AUDIT_GENERATED_(82)
  6
Continuous
 62
     7
100
AcDbCircle
 10
48.3264466855
 20
718.2356484343
 30
0.0
 40
0.9999554033267757
100
AcDbArc
 50
269.9972347293
 51
4.5211052845
  0
LINE
  5
8A
330
5E
100
AcDbEntity
  8
$DDT_AUDIT_GENERATED_(82)
  6
Continuous
 62
     7
100
AcDbLine
 10
48.4957431026
 20
735.4856930281
 30
0.0
 11
48.1654653463
 21
754.4072930126
 31
0.0
  0
LINE
  5
8B
330
5E
100
AcDbEntity
  8
$DDT_AUDIT_GENERATED_(82)
  6
Continuous
 62
     7
100
AcDbLine
 10
20.7313092809
 20
754.4072930126
 30
0.0
 11
20.4010315246
 21
735.4856930281
 31
0.0
  0
LINE
  5
8C
330
5E
100
AcDbEntity
  8
$DDT_AUDIT_GENERATED_(82)
  6
Continuous
 62
     7
100
AcDbLine
 10
48.165610139
 20
754.3989978483
 30
0.0
 11
48.1625525081
 21
754.5741694005
 31
0.0
  0
LINE
  5
8D
330
5E
100
AcDbEntity
  8
$DDT_AUDIT_GENERATED_(82)
  6
Continuous
 62
     7
100
AcDbLine
 10
20.734222119
 20
754.5741694005
 30
0.0
 11
20.7311644882
 21
754.3989978483
 31
0.0
  0
ARC
  5
8E
330
5E
100
AcDbEntity
  8
$DDT_AUDIT_GENERATED_(82)
  6
Continuous
 62
     7
100
AcDbCircle
 10
47.6298034768
 20
754.7364659597
 30
0.0
 40
0.5000000000000012
100
AcDbArc
 50
13.6823500812
 51
86.578558208
  0
ARC
  5
8F
330
5E
100
AcDbEntity
  8
$DDT_AUDIT_GENERATED_(82)
  6
Continuous
 62
     7
100
AcDbCircle
 10
21.2669711503
 20
754.7364659597
 30
0.0
 40
0.499999999999986
100
AcDbArc
 50
93.421441792
 51
166.3176499188
  0
ARC
  5
90
330
5E
100
AcDbEntity
  8
$DDT_AUDIT_GENERATED_(82)
  6
Continuous
 62
     7
100
AcDbCircle
 10
47.1628180531
 20
754.5511255285
 30
0.0
 40
0.9999999999999989
100
AcDbArc
 50
1.3204334851
 51
17.674549057
  0
ARC
  5
91
330
5E
100
AcDbEntity
  8
$DDT_AUDIT_GENERATED_(82)
  6
Continuous
 62
     7
100
AcDbCircle
 10
21.7339565741
 20
754.5511255285
 30
0.0
 40
0.9999999999999957
100
AcDbArc
 50
162.325450943
 51
178.6795665149
  0
LINE
  5
92
330
5E
100
AcDbEntity
  8
$DDT_AUDIT_GENERATED_(82)
  6
Continuous
 62
     7
100
AcDbLine
 10
47.6596434471
 20
755.2355747416
 30
0.0
 11
47.6596434471
 21
755.2364659597
 31
0.0
  0
LINE
  5
93
330
5E
100
AcDbEntity
  8
$DDT_AUDIT_GENERATED_(82)
  6
Continuous
 62
     7
100
AcDbLine
 10
21.23713118
 20
755.2364659597
 30
0.0
 11
21.23713118
 21
755.2355747416
 31
0.0
  0
LINE
  5
95
330
5E
100
AcDbEntity
  8
$DDT_AUDIT_GENERATED_(94)
  6
Continuous
 62
     7
100
AcDbLine
 10
45.1983873136
 20
713.2356930296
 30
0.0
 11
23.6983873136
 21
713.2356930296
 31
0.0
  0
SPLINE
  5
96
330
5E
100
AcDbEntity
  8
$DDT_AUDIT_GENERATED_(94)
  6
Continuous
 62
     7
100
AcDbSpline
210
0.0
220
0.0
230
1.0
 70
     8
 71
     3
 72
    10
 73
     6
 74
     0
 42
0.0000000019260148
 43
0.0000000001
 40
0.0
 40
0.0
 40
0.0
 40
0.0
 40
0.5
 40
0.5
 40
1.0
 40
1.0
 40
1.0
 40
1.0
 10
37.0348907448607
 20
713.5532356776201
 30
0.0
 10
36.1728699230218
 20
713.4393178369543
 30
0.0
 10
35.31077859807797
 20
713.3800407114295
 30
0.0
 10
33.58644300332593
 20
713.3800204849185
 30
0.0
 10
32.72419873145748
 20
713.4392789806352
 30
0.0
 10
31.86188388230954
 20
713.5532356776201
 30
0.0
  0
LINE
  5
97
330
5E
100
AcDbEntity
  8
$DDT_AUDIT_GENERATED_(94)
  6
Continuous
 62
     7
100
AcDbLine
 10
38.7192186144
 20
716.2356930296
 30
0.0
 11
30.1775560128
 21
716.2356930296
 31
0.0
  0
LINE
  5
98
330
5E
100
AcDbEntity
  8
$DDT_AUDIT_GENERATED_(94)
  6
Continuous
 62
     7
100
AcDbLine
 10
38.7192186144
 20
716.2356930296
 30
0.0
 11
38.7192186144
 21
714.4192610814
 31
0.0
  0
SPLINE
  5
99
330
5E
100
AcDbEntity
  8
$DDT_AUDIT_GENERATED_(94)
  6
Continuous
 62
     7
100
AcDbSpline
210
0.0
220
0.0
230
1.0
 70
     8
 71
     3
 72
    14
 73
    10
 74
     0
 42
0.0000000049321089
 43
0.0000000001
 40
0.0
 40
0.0
 40
0.0
 40
0.0
 40
0.1250000000000004
 40
0.1250000000000004
 40
0.2500000000000009
 40
0.2500000000000009
 40
0.5000000000000008
 40
0.5000000000000008
 40
1.0
 40
1.0
 40
1.0
 40
1.0
 10
38.71921861439768
 20
714.4192610814047
 30
0.0
 10
38.71921861439768
 20
714.3350197824792
 30
0.0
 10
38.68708712311781
 20
714.2508825281799
 30
0.0
 10
38.59128952388674
 20
714.1116846269279
 30
0.0
 10
38.52816265959385
 20
714.052669223985
 30
0.0
 10
38.32585270881309
 20
713.9015483152309
 30
0.0
 10
38.16986309856126
 20
713.8301435943071
 30
0.0
 10
37.69909701412688
 20
713.6587714786596
 30
0.0
 10
37.36668373608927
 20
713.5970828100227
 30
0.0
 10
37.0348907448607
 20
713.5532356776201
 30
0.0
  0
SPLINE
  5
9A
330
5E
100
AcDbEntity
  8
$DDT_AUDIT_GENERATED_(94)
  6
Continuous
 62
     7
100
AcDbSpline
210
0.0
220
0.0
230
1.0
 70
     8
 71
     3
 72
    18
 73
    14
 74
     0
 42
0.0000000049401632
 43
0.0000000001
 40
0.0
 40
0.0
 40
0.0
 40
0.0
 40
0.2499999999999998
 40
0.2499999999999998
 40
0.4999999999999997
 40
0.4999999999999997
 40
0.6249999999999992
 40
0.6249999999999992
 40
0.7499999999999989
 40
0.7499999999999989
 40
0.8749999999999994
 40
0.8749999999999994
 40
1.0
 40
1.0
 40
1.0
 40
1.0
 10
31.86188388230954
 20
713.5532356776201
 30
0.0
 10
31.69549110214598
 20
713.5752248288543
 30
0.0
 10
31.52993854592917
 20
713.6022990864566
 30
0.0
 10
31.20157079938465
 20
713.6730143714709
 30
0.0
 10
31.03880080172633
 20
713.7164671971087
 30
0.0
 10
30.80332884395724
 20
713.8023968512031
 30
0.0
 10
30.72615990201122
 20
713.8345654961888
 30
0.0
 10
30.57583401258887
 20
713.9096040644712
 30
0.0
 10
30.50226341964017
 20
713.9527400426897
 30
0.0
 10
30.36824523683808
 20
714.0530388923435
 30
0.0
 10
30.30586685296327
 20
714.111148058825
 30
0.0
 10
30.20938317998569
 20
714.2513066081927
 30
0.0
 10
30.17755601277256
 20
714.3335100981795
 30
0.0
 10
30.17755601277256
 20
714.4192610814047
 30
0.0
  0
LINE
  5
9B
330
5E
100
AcDbEntity
  8
$DDT_AUDIT_GENERATED_(94)
  6
Continuous
 62
     7
100
AcDbLine
 10
30.1775560128
 20
714.4192610814
 30
0.0
 11
30.1775560128
 21
716.2356930296
 31
0.0
  0
LINE
  5
9C
330
5E
100
AcDbEntity
  8
$DDT_AUDIT_GENERATED_(94)
  6
Continuous
 62
     7
100
AcDbLine
 10
23.1483873136
 20
713.5532356776
 30
0.0
 11
23.6983873136
 21
713.2356930296
 31
0.0
  0
LINE
  5
9D
330
5E
100
AcDbEntity
  8
$DDT_AUDIT_GENERATED_(94)
  6
Continuous
 62
     7
100
AcDbLine
 10
45.1983873136
 20
713.2356930296
 30
0.0
 11
45.7483873136
 21
713.5532356776
 31
0.0
  0
ARC
  5
9E
330
5E
100
AcDbEntity
  8
$DDT_AUDIT_GENERATED_(94)
  6
Continuous
 62
     7
100
AcDbCircle
 10
23.6483873136
 20
714.4192610814
 30
0.0
 40
1.000000000000001
100
AcDbArc
 50
180.0
 51
240.0
  0
ARC
  5
9F
330
5E
100
AcDbEntity
  8
$DDT_AUDIT_GENERATED_(94)
  6
Continuous
 62
     7
100
AcDbCircle
 10
45.2483873136
 20
714.4192610814
 30
0.0
 40
0.9999999999999799
100
AcDbArc
 50
300.0
 51
0.0
  0
LINE
  5
A0
330
5E
100
AcDbEntity
  8
$DDT_AUDIT_GENERATED_(94)
  6
Continuous
 62
     7
100
AcDbLine
 10
22.6483873136
 20
717.2356930321
 30
0.0
 11
22.6483873136
 21
714.4192610814
 31
0.0
  0
LINE
  5
A1
330
5E
100
AcDbEntity
  8
$DDT_AUDIT_GENERATED_(94)
  6
Continuous
 62
     7
100
AcDbLine
 10
46.2483873136
 20
714.4192610814
 30
0.0
 11
46.2483873136
 21
717.2356930321
 31
0.0
  0
LINE
  5
A3
330
5E
100
AcDbEntity
  8
$DDT_AUDIT_GENERATED_(A2)
  6
Continuous
 62
     7
100
AcDbLine
 10
109.0483873136
 20
615.0358396072
 30
0.0
 11
109.0483873136
 21
564.4338024381
 31
0.0
  0
LINE
  5
A4
330
5E
100
AcDbEntity
  8
$DDT_AUDIT_GENERATED_(A2)
  6
Continuous
 62
     7
100
AcDbLine
 10
122.3483873136
 20
574.5718337592
 30
0.0
 11
122.3483873136
 21
575.6422835545
 31
0.0
  0
SPLINE
  5
A5
330
5E
100
AcDbEntity
  8
$DDT_AUDIT_GENERATED_(A2)
  6
Continuous
 62
     7
100
AcDbSpline
210
0.0
220
0.0
230
1.0
 70
    12
 71
     2
 72
     6
 73
     3
 74
     0
 42
0.0000000404085156
 43
0.0000000001
 40
0.0
 40
0.0
 40
0.0
 40
1.0
 40
1.0
 40
1.0
 10
122.3483873135851
 20
574.5718337592072
 30
0.0
 41
1.0
 10
122.2685659593741
 20
574.4773143140311
 30
0.0
 41
1.0
 10
122.1877600258838
 20
574.3835786789797
 30
0.0
 41
1.0
  0
LINE
  5
A6
330
5E
100
AcDbEntity
  8
$DDT_AUDIT_GENERATED_(A2)
  6
Continuous
 62
     7
100
AcDbLine
 10
122.1877600259
 20
574.383578679
 30
0.0
 11
122.1877600259
 21
573.7348210227
 31
0.0
  0
LINE
  5
A7
330
5E
100
AcDbEntity
  8
$DDT_AUDIT_GENERATED_(A2)
  6
Continuous
 62
     7
100
AcDbLine
 10
85.7483873136
 20
564.2348210227
 30
0.0
 11
85.7483873136
 21
615.2348210227
 31
0.0
  0
LINE
  5
A8
330
5E
100
AcDbEntity
  8
$DDT_AUDIT_GENERATED_(A2)
  6
Continuous
 62
     7
100
AcDbLine
 10
86.2483682771
 20
615.7304579787
 30
0.0
 11
86.2483682771
 21
563.7391840666
 31
0.0
  0
ARC
  5
A9
330
5E
100
AcDbEntity
  8
$DDT_AUDIT_GENERATED_(A2)
  6
Continuous
 62
     7
100
AcDbCircle
 10
102.9783873136
 20
589.7348210227
 30
0.0
 40
25.00000000000012
100
AcDbArc
 50
73.3749131307
 51
75.9481422426
  0
ARC
  5
AA
330
5E
100
AcDbEntity
  8
$DDT_AUDIT_GENERATED_(A2)
  6
Continuous
 62
     7
100
AcDbCircle
 10
102.9783873136
 20
589.7348210227
 30
0.0
 40
25.0000000000001
100
AcDbArc
 50
284.0518577574
 51
320.2081805004
  0
LINE
  5
AB
330
5E
100
AcDbEntity
  8
$DDT_AUDIT_GENERATED_(A2)
  6
Continuous
 62
     7
100
AcDbLine
 10
86.2483682771
 20
563.7391840666
 30
0.0
 11
108.5527503575
 21
563.9338214746
 31
0.0
  0
LINE
  5
AC
330
5E
100
AcDbEntity
  8
$DDT_AUDIT_GENERATED_(A2)
  6
Continuous
 62
     7
100
AcDbLine
 10
108.5527503575
 20
615.5358205707
 30
0.0
 11
86.2483682771
 21
615.7304579787
 31
0.0
  0
ARC
  5
AD
330
5E
100
AcDbEntity
  8
$DDT_AUDIT_GENERATED_(A2)
  6
Continuous
 62
     7
100
AcDbCircle
 10
108.5483873136
 20
615.0358396072
 30
0.0
 40
0.5000000000000004
100
AcDbArc
 50
0.0
 51
89.500025649
  0
ARC
  5
AE
330
5E
100
AcDbEntity
  8
$DDT_AUDIT_GENERATED_(A2)
  6
Continuous
 62
     7
100
AcDbCircle
 10
108.5483873136
 20
564.4338024381
 30
0.0
 40
0.5000000000000059
100
AcDbArc
 50
270.499974351
 51
0.0
  0
LINE
  5
AF
330
5E
100
AcDbEntity
  8
$DDT_AUDIT_GENERATED_(A2)
  6
Continuous
 62
     7
100
AcDbLine
 10
86.2483682771
 20
615.7304579787
 30
0.0
 11
85.7483873136
 21
615.2348210227
 31
0.0
  0
LINE
  5
B0
330
5E
100
AcDbEntity
  8
$DDT_AUDIT_GENERATED_(A2)
  6
Continuous
 62
     7
100
AcDbLine
 10
85.7483873136
 20
564.2348210227
 30
0.0
 11
86.2483682771
 21
563.7391840666
 31
0.0
  0
ARC
  5
B2
330
5E
100
AcDbEntity
  8
$DDT_AUDIT_GENERATED_(B1)
  6
Continuous
 62
     7
100
AcDbCircle
 10
361.7622334417
 20
616.3189037653
 30
0.0
 40
228.2748081443355
100
AcDbArc
 50
180.044192841
 51
182.8253026517
  0
ARC
  5
B3
330
5E
100
AcDbEntity
  8
$DDT_AUDIT_GENERATED_(B1)
  6
Continuous
 62
     7
100
AcDbCircle
 10
135.6881660371
 20
642.4910669958
 30
0.0
 40
26.43997721682854
100
AcDbArc
 50
265.2255894535
 51
277.0046049336
  0
ARC
  5
B4
330
5E
100
AcDbEntity
  8
$DDT_AUDIT_GENERATED_(B1)
  6
Continuous
 62
     7
100
AcDbCircle
 10
140.7962356528
 20
615.5830804034
 30
0.0
 40
0.499474167634692
100
AcDbArc
 50
16.0203349729
 51
85.0369489162
  0
SPLINE
  5
B5
330
5E
100
AcDbEntity
  8
$DDT_AUDIT_GENERATED_(B1)
  6
Continuous
 62
     7
100
AcDbSpline
210
0.0
220
0.0
230
1.0
 70
    12
 71
     3
 72
     8
 73
     4
 74
     0
 42
0.0000000156023001
 43
0.0000000001
 40
0.0
 40
0.0
 40
0.0
 40
0.0
 40
1.0
 40
1.0
 40
1.0
 40
1.0
 10
141.2763376903985
 20
615.7199490869289
 30
0.0
 41
1.113456490516337
 10
141.2175615954999
 20
615.9240853878484
 30
0.0
 41
0.9740574968076379
 10
141.0535047075549
 20
616.0609501616524
 30
0.0
 41
0.9631135568285436
 10
140.8394835790979
 20
616.0798157524733
 30
0.0
 41
1.080624670579054
  0
LINE
  5
B6
330
5E
100
AcDbEntity
  8
$DDT_AUDIT_GENERATED_(B1)
  6
Continuous
 62
     7
100
AcDbLine
 10
131.7673044584
 20
681.3521712187
 30
0.0
 11
127.2621834122
 21
681.1554733799
 31
0.0
  0
SPLINE
  5
B7
330
5E
100
AcDbEntity
  8
$DDT_AUDIT_GENERATED_(B1)
  6
Continuous
 62
     7
100
AcDbSpline
210
0.0
220
0.0
230
1.0
 70
    12
 71
     3
 72
     8
 73
     4
 74
     0
 42
0.0000000115416441
 43
0.0000000001
 40
0.0
 40
0.0
 40
0.0
 40
0.0
 40
1.0
 40
1.0
 40
1.0
 40
1.0
 10
136.7806871279769
 20
680.9046289600949
 30
0.0
 41
1.163242404995534
 10
136.7730614871281
 20
681.1937589345107
 30
0.0
 41
0.9428760857259246
 10
136.5649226398782
 20
681.393982122867
 30
0.0
 41
0.9456196011974826
 10
136.2765457627398
 20
681.3915227653838
 30
0.0
 41
1.171472951410208
  0
LINE
  5
B8
330
5E
100
AcDbEntity
  8
$DDT_AUDIT_GENERATED_(B1)
  6
Continuous
 62
     7
100
AcDbLine
 10
136.2765457627
 20
681.3915227654
 30
0.0
 11
131.7673044584
 21
681.3521712187
 31
0.0
  0
SPLINE
  5
B9
330
5E
100
AcDbEntity
  8
$DDT_AUDIT_GENERATED_(B1)
  6
Continuous
 62
     7
100
AcDbSpline
210
0.0
220
0.0
230
1.0
 70
    12
 71
     3
 72
     8
 73
     4
 74
     0
 42
0.0000000115397766
 43
0.0000000001
 40
0.0
 40
0.0
 40
0.0
 40
0.0
 40
1.0
 40
1.0
 40
1.0
 40
1.0
 10
128.4507122741936
 20
616.9999666817133
 30
0.0
 41
1.167371657067465
 10
128.4582736376456
 20
616.7112096954444
 30
0.0
 41
0.9442094510680739
 10
128.2612743459057
 20
616.4999538109165
 30
0.0
 41
0.944209447644345
 10
127.9726933082842
 20
616.4873540951119
 30
0.0
 41
1.167371646796279
  0
SPLINE
  5
BA
330
5E
100
AcDbEntity
  8
$DDT_AUDIT_GENERATED_(B1)
  6
Continuous
 62
     7
100
AcDbSpline
210
0.0
220
0.0
230
1.0
 70
    12
 71
     3
 72
     8
 73
     4
 74
     0
 42
0.0000000115416441
 43
0.0000000001
 40
0.0
 40
0.0
 40
0.0
 40
0.0
 40
1.0
 40
1.0
 40
1.0
 40
1.0
 10
126.7842150081148
 20
680.6428621251956
 30
0.0
 41
1.163242404999177
 10
126.7766983045948
 20
680.9319949522377
 30
0.0
 41
0.9428760857258672
 10
126.9740730327635
 20
681.1428368872774
 30
0.0
 41
0.9456196011963411
 10
127.2621834122435
 20
681.1554733798774
 30
0.0
 41
1.171472951410599
  0
ARC
  5
BB
330
5E
100
AcDbEntity
  8
$DDT_AUDIT_GENERATED_(B1)
  6
Continuous
 62
     7
100
AcDbCircle
 10
127.9554152125
 20
616.9860740467
 30
0.0
 40
0.4999987688226357
100
AcDbArc
 50
272.5515247176
 51
1.4988821828
  0
LINE
  5
BC
330
5E
100
AcDbEntity
  8
$DDT_AUDIT_GENERATED_(B1)
  6
Continuous
 62
     7
100
AcDbLine
 10
138.9173166708
 20
616.248997466
 30
0.0
 11
138.9124978629
 21
616.2484284184
 31
0.0
  0
LINE
  5
BD
330
5E
100
AcDbEntity
  8
$DDT_AUDIT_GENERATED_(B1)
  6
Continuous
 62
     7
100
AcDbLine
 10
110.3667867727
 20
604.6886994751
 30
0.0
 11
110.0783126988
 21
615.7050799053
 31
0.0
  0
LINE
  5
BE
330
5E
100
AcDbEntity
  8
$DDT_AUDIT_GENERATED_(B1)
  6
Continuous
 62
     7
100
AcDbLine
 10
138.4611047075
 20
616.7340029424
 30
0.0
 11
138.4567255273
 21
616.7334262176
 31
0.0
  0
SPLINE
  5
BF
330
5E
100
AcDbEntity
  8
$DDT_AUDIT_GENERATED_(B1)
  6
Continuous
 62
     7
100
AcDbSpline
210
0.0
220
0.0
230
1.0
 70
    12
 71
     3
 72
     8
 73
     4
 74
     0
 42
0.000000012476068
 43
0.0000000001
 40
0.0
 40
0.0
 40
0.0
 40
0.0
 40
1.0
 40
1.0
 40
1.0
 40
1.0
 10
138.4611047100203
 20
616.7340029424666
 30
0.0
 41
1.145420715203314
 10
138.4680986227806
 20
616.4669163013995
 30
0.0
 41
0.9515264314949649
 10
138.651156988095
 20
616.2723043225092
 30
0.0
 41
0.9515264282656619
 10
138.917316671095
 20
616.248997464345
 30
0.0
 41
1.145420705515406
  0
ARC
  5
C0
330
5E
100
AcDbEntity
  8
$DDT_AUDIT_GENERATED_(B1)
  6
Continuous
 62
     7
100
AcDbCircle
 10
113.5885626407
 20
596.2586929
 30
0.0
 40
2.99999999952638
100
AcDbArc
 50
181.499999999
 51
207.5170947389
  0
LINE
  5
C1
330
5E
100
AcDbEntity
  8
$DDT_AUDIT_GENERATED_(B1)
  6
Continuous
 62
     7
100
AcDbLine
 10
110.5895906662
 20
596.1801620551
 30
0.0
 11
110.3667867724
 21
604.6886994861
 31
0.0
  0
ARC
  5
C2
330
5E
100
AcDbEntity
  8
$DDT_AUDIT_GENERATED_(B1)
  6
Continuous
 62
     7
100
AcDbCircle
 10
288.3157218538
 20
687.2821606716
 30
0.0
 40
200.0148518556247
100
AcDbArc
 50
207.5170939592
 51
217.8375438716
  0
LINE
  5
C3
330
5E
100
AcDbEntity
  8
$DDT_AUDIT_GENERATED_(B1)
  6
Continuous
 62
     7
100
AcDbLine
 10
114.1354886119
 20
588.9603051453
 30
0.0
 11
114.0353816569
 21
589.1378590118
 31
0.0
  0
ARC
  5
C4
330
5E
100
AcDbEntity
  8
$DDT_AUDIT_GENERATED_(B1)
  6
Continuous
 62
     7
100
AcDbCircle
 10
137.6397192391
 20
539.1736779557
 30
0.0
 40
25.91542671261288
100
AcDbArc
 50
85.2495494698
 51
99.7505100506
  0
LINE
  5
C5
330
5E
100
AcDbEntity
  8
$DDT_AUDIT_GENERATED_(B1)
  6
Continuous
 62
     7
100
AcDbLine
 10
127.9803457224
 20
616.4876882085
 30
0.0
 11
110.0782868393
 21
615.7060674376
 31
0.0
  0
LINE
  5
C6
330
5E
100
AcDbEntity
  8
$DDT_AUDIT_GENERATED_(B1)
  6
Continuous
 62
     7
100
AcDbLine
 10
140.8510087111
 20
616.0796694443
 30
0.0
 11
138.9009100039
 21
616.2504341521
 31
0.0
  0
ARC
  5
C7
330
5E
100
AcDbEntity
  8
$DDT_AUDIT_GENERATED_(B1)
  6
Continuous
 62
     7
100
AcDbCircle
 10
45.1799048319
 20
588.0536062465
 30
0.0
 40
99.99999999999987
100
AcDbArc
 50
346.9592706397
 51
1.5
  0
ARC
  5
C8
330
5E
100
AcDbEntity
  8
$DDT_AUDIT_GENERATED_(B1)
  6
Continuous
 62
     7
100
AcDbCircle
 10
45.1799048319
 20
588.0536062465
 30
0.0
 40
100.0
100
AcDbArc
 50
1.5
 51
16.0618862546
  0
LINE
  5
C9
330
5E
100
AcDbEntity
  8
$DDT_AUDIT_GENERATED_(B1)
  6
Continuous
 62
     7
100
AcDbLine
 10
138.4611047075
 20
616.7340029424
 30
0.0
 11
136.7807376929
 21
680.9046302842
 31
0.0
  0
LINE
  5
CA
330
5E
100
AcDbEntity
  8
$DDT_AUDIT_GENERATED_(B1)
  6
Continuous
 62
     7
100
AcDbLine
 10
126.7841644432
 20
680.6428608011
 30
0.0
 11
128.450712277
 21
616.9999666818
 31
0.0
  0
ARC
  5
CB
330
5E
100
AcDbEntity
  8
$DDT_AUDIT_GENERATED_(B1)
  6
Continuous
 62
     7
100
AcDbCircle
 10
142.1137907468
 20
565.6020637286
 30
0.0
 40
0.4999999999959131
100
AcDbArc
 50
272.5000000002
 51
346.9593155761
  0
LINE
  5
CC
330
5E
100
AcDbEntity
  8
$DDT_AUDIT_GENERATED_(B1)
  6
Continuous
 62
     7
100
AcDbLine
 10
139.7410694796
 20
564.9979921383
 30
0.0
 11
142.1356004405
 21
565.1025396178
 31
0.0
  0
LINE
  5
CD
330
5E
100
AcDbEntity
  8
$DDT_AUDIT_GENERATED_(B1)
  6
Continuous
 62
     7
100
AcDbLine
 10
130.3508282173
 20
564.5880053506
 30
0.0
 11
133.1499485648
 21
564.7102175843
 31
0.0
  0
LINE
  5
CE
330
5E
100
AcDbEntity
  8
$DDT_AUDIT_GENERATED_(B1)
  6
Continuous
 62
     7
100
AcDbLine
 10
133.2504997444
 20
564.7146077436
 30
0.0
 11
133.2721839851
 21
564.715554498
 31
0.0
  0
LINE
  5
D0
330
5E
100
AcDbEntity
  8
$DDT_AUDIT_GENERATED_(CF)
  6
Continuous
 62
     7
100
AcDbLine
 10
133.8733876786
 20
564.8132635005
 30
0.0
 11
133.1517309104
 21
564.6989642971
 31
0.0
  0
LINE
  5
D1
330
5E
100
AcDbEntity
  8
$DDT_AUDIT_GENERATED_(CF)
  6
Continuous
 62
     7
100
AcDbLine
 10
133.1499485648
 20
564.7102175843
 30
0.0
 11
133.1517309104
 21
564.6989642971
 31
0.0
  0
LINE
  5
D4
330
5E
100
AcDbEntity
  8
DV1_Standard
  6
CENTER2
 62
     7
100
AcDbLine
 10
60.8483868666
 20
501.5348210227
 30
0.0
 11
20.8483877606
 21
501.5348210227
 31
0.0
  0
LINE
  5
D5
330
5E
100
AcDbEntity
  8
DV1_Standard
  6
CENTER2
 62
     7
100
AcDbLine
 10
40.8483873136
 20
521.5348205756
 30
0.0
 11
40.8483873136
 21
481.5348214697
 31
0.0
  0
ENDBLK
  5
D7
330
5E
100
AcDbEntity
  8
0
100
AcDbBlockEnd
  0
BLOCK
  5
110
330
D8
100
AcDbEntity
  8
0
100
AcDbBlockBegin
  2
SE1
 70
     0
 10
0.0
 20
0.0
 30
0.0
  3
SE1
  1

  0
CIRCLE
  5
DA
330
D8
100
AcDbEntity
  8
$DDT_AUDIT_GENERATED_(60)
  6
Continuous
 62
     7
100
AcDbCircle
 10
244.811621215
 20
589.7348210227
 30
0.0
 40
26.0
  0
LINE
  5
DB
330
D8
100
AcDbEntity
  8
$DDT_AUDIT_GENERATED_(6D)
  6
Continuous
 62
     7
100
AcDbLine
 10
262.811621215
 20
506.0348210227
 30
0.0
 11
226.811621215
 21
506.0348210227
 31
0.0
  0
LINE
  5
DC
330
D8
100
AcDbEntity
  8
$DDT_AUDIT_GENERATED_(6D)
  6
Continuous
 62
     7
100
AcDbLine
 10
226.811621215
 20
570.9731579834
 30
0.0
 11
226.811621215
 21
506.0348210227
 31
0.0
  0
LINE
  5
DD
330
D8
100
AcDbEntity
  8
$DDT_AUDIT_GENERATED_(6D)
  6
Continuous
 62
     7
100
AcDbLine
 10
262.811621215
 20
506.0348210227
 30
0.0
 11
262.811621215
 21
570.9731579834
 31
0.0
  0
LINE
  5
DE
330
D8
100
AcDbEntity
  8
$DDT_AUDIT_GENERATED_(71)
  6
Continuous
 62
     7
100
AcDbLine
 10
271.811621215
 20
501.5348210227
 30
0.0
 11
217.811621215
 21
501.5348210227
 31
0.0
  0
LINE
  5
DF
330
D8
100
AcDbEntity
  8
$DDT_AUDIT_GENERATED_(71)
  6
Continuous
 62
     7
100
AcDbLine
 10
262.811621215
 20
506.0348210227
 30
0.0
 11
226.811621215
 21
506.0348210227
 31
0.0
  0
LINE
  5
E0
330
D8
100
AcDbEntity
  8
$DDT_AUDIT_GENERATED_(71)
  6
Continuous
 62
     7
100
AcDbLine
 10
217.811621215
 20
504.4158395941
 30
0.0
 11
217.811621215
 21
501.5348210227
 31
0.0
  0
LINE
  5
E1
330
D8
100
AcDbEntity
  8
$DDT_AUDIT_GENERATED_(71)
  6
Continuous
 62
     7
100
AcDbLine
 10
271.811621215
 20
501.5348210227
 30
0.0
 11
271.811621215
 21
504.4158395941
 31
0.0
  0
ARC
  5
E2
330
D8
100
AcDbEntity
  8
$DDT_AUDIT_GENERATED_(71)
  6
Continuous
 62
     7
100
AcDbCircle
 10
235.5143667281
 20
406.4142296746
 30
0.0
 40
100.0
100
AcDbArc
 50
94.9926216254
 51
99.9560038527
  0
ARC
  5
E3
330
D8
100
AcDbEntity
  8
$DDT_AUDIT_GENERATED_(71)
  6
Continuous
 62
     7
100
AcDbCircle
 10
254.1088757019
 20
406.4142296746
 30
0.0
 40
100.0
100
AcDbArc
 50
80.0439961473
 51
85.0073783746
  0
ARC
  5
E4
330
D8
100
AcDbEntity
  8
$DDT_AUDIT_GENERATED_(71)
  6
Continuous
 62
     7
100
AcDbCircle
 10
271.311621215
 20
504.4158395941
 30
0.0
 40
0.5000000000000004
100
AcDbArc
 50
0.0
 51
80.0439961473
  0
ARC
  5
E5
330
D8
100
AcDbEntity
  8
$DDT_AUDIT_GENERATED_(71)
  6
Continuous
 62
     7
100
AcDbCircle
 10
218.311621215
 20
504.4158395941
 30
0.0
 40
0.5000000000000148
100
AcDbArc
 50
99.9560038527
 51
180.0
  0
LINE
  5
E6
330
D8
100
AcDbEntity
  8
$DDT_AUDIT_GENERATED_(7A)
  6
Continuous
 62
     7
100
AcDbLine
 10
232.411621215
 20
769.2348210227
 30
0.0
 11
232.411621215
 21
612.587391994
 31
0.0
  0
LINE
  5
E7
330
D8
100
AcDbEntity
  8
$DDT_AUDIT_GENERATED_(7A)
  6
Continuous
 62
     7
100
AcDbLine
 10
257.211621215
 20
612.587391994
 30
0.0
 11
257.211621215
 21
769.2348210227
 31
0.0
  0
ARC
  5
E8
330
D8
100
AcDbEntity
  8
$DDT_AUDIT_GENERATED_(7A)
  6
Continuous
 62
     7
100
AcDbCircle
 10
292.811621215
 20
769.2348210227
 30
0.0
 40
35.59999999999992
100
AcDbArc
 50
90.0
 51
180.0
  0
ARC
  5
E9
330
D8
100
AcDbEntity
  8
$DDT_AUDIT_GENERATED_(7A)
  6
Continuous
 62
     7
100
AcDbCircle
 10
292.811621215
 20
769.2348210227
 30
0.0
 40
60.3999999999999
100
AcDbArc
 50
90.0
 51
180.0
  0
LINE
  5
EA
330
D8
100
AcDbEntity
  8
$DDT_AUDIT_GENERATED_(7A)
  6
Continuous
 62
     7
100
AcDbLine
 10
419.811621215
 20
829.6348210227
 30
0.0
 11
292.811621215
 21
829.6348210227
 31
0.0
  0
LINE
  5
EB
330
D8
100
AcDbEntity
  8
$DDT_AUDIT_GENERATED_(7A)
  6
Continuous
 62
     7
100
AcDbLine
 10
292.811621215
 20
804.8348210227
 30
0.0
 11
419.811621215
 21
804.8348210227
 31
0.0
  0
ARC
  5
EC
330
D8
100
AcDbEntity
  8
$DDT_AUDIT_GENERATED_(7A)
  6
Continuous
 62
     7
100
AcDbCircle
 10
419.811621215
 20
769.2348210227
 30
0.0
 40
35.59999999999991
100
AcDbArc
 50
0.0
 51
90.0
  0
ARC
  5
ED
330
D8
100
AcDbEntity
  8
$DDT_AUDIT_GENERATED_(7A)
  6
Continuous
 62
     7
100
AcDbCircle
 10
419.811621215
 20
769.2348210227
 30
0.0
 40
60.3999999999999
100
AcDbArc
 50
0.0
 51
90.0
  0
LINE
  5
EE
330
D8
100
AcDbEntity
  8
$DDT_AUDIT_GENERATED_(7A)
  6
Continuous
 62
     7
100
AcDbLine
 10
480.211621215
 20
755.2364659597
 30
0.0
 11
480.211621215
 21
769.2348210227
 31
0.0
  0
LINE
  5
EF
330
D8
100
AcDbEntity
  8
$DDT_AUDIT_GENERATED_(7A)
  6
Continuous
 62
     7
100
AcDbLine
 10
455.411621215
 20
769.2348210227
 30
0.0
 11
455.411621215
 21
755.2364659597
 31
0.0
  0
LINE
  5
F0
330
D8
100
AcDbEntity
  8
$DDT_AUDIT_GENERATED_(82)
  6
Continuous
 62
     7
100
AcDbLine
 10
481.689632326
 20
717.2356930321
 30
0.0
 11
453.933610104
 21
717.2356930321
 31
0.0
  0
LINE
  5
F1
330
D8
100
AcDbEntity
  8
$DDT_AUDIT_GENERATED_(82)
  6
Continuous
 62
     7
100
AcDbLine
 10
481.0228773486
 20
755.2355747416
 30
0.0
 11
454.6003650815
 21
755.2355747416
 31
0.0
  0
LINE
  5
F2
330
D8
100
AcDbEntity
  8
$DDT_AUDIT_GENERATED_(82)
  6
Continuous
 62
     7
100
AcDbLine
 10
454.6003650815
 20
755.2364659597
 30
0.0
 11
481.0228773486
 21
755.2364659597
 31
0.0
  0
ARC
  5
F3
330
D8
100
AcDbEntity
  8
$DDT_AUDIT_GENERATED_(82)
  6
Continuous
 62
     7
100
AcDbCircle
 10
173.8069108432
 20
740.3723668295
 30
0.0
 40
279.9999999389613
100
AcDbArc
 50
355.4816643675
 51
359.0
  0
ARC
  5
F4
330
D8
100
AcDbEntity
  8
$DDT_AUDIT_GENERATED_(82)
  6
Continuous
 62
     7
100
AcDbCircle
 10
761.8163315868
 20
740.3723668295
 30
0.0
 40
279.9999999389613
100
AcDbArc
 50
181.0
 51
184.5183017145
  0
SPLINE
  5
F5
330
D8
100
AcDbEntity
  8
$DDT_AUDIT_GENERATED_(82)
  6
Continuous
 62
     7
100
AcDbSpline
210
0.0
220
0.0
230
1.0
 70
     8
 71
     3
 72
    15
 73
    11
 74
     0
 42
0.0000000060326096
 43
0.0000000001
 40
0.0
 40
0.0
 40
0.0
 40
0.0
 40
0.1247285240681625
 40
0.2499919821625843
 40
0.3750653229774386
 40
0.5000000000000053
 40
0.6249346770225666
 40
0.7500080178374174
 40
0.875271475931828
 40
1.0
 40
1.0
 40
1.0
 40
1.0
 10
452.936717935848
 20
718.3144712304666
 30
0.0
 10
452.9347432460995
 20
718.23918944768
 30
0.0
 10
452.933343790284
 20
718.1112002986715
 30
0.0
 10
452.9822818556078
 20
717.905168665161
 30
0.0
 10
453.0696770681355
 20
717.7183351113081
 30
0.0
 10
453.1939018687526
 20
717.5521332903077
 30
0.0
 10
453.3498009564708
 20
717.4152014793908
 30
0.0
 10
453.5291690256937
 20
717.313359465658
 30
0.0
 10
453.7307050949559
 20
717.2483426906601
 30
0.0
 10
453.8584067218513
 20
717.2396550426054
 30
0.0
 10
453.9336101040359
 20
717.2356930321164
 30
0.0
  0
SPLINE
  5
F6
330
D8
100
AcDbEntity
  8
$DDT_AUDIT_GENERATED_(82)
  6
Continuous
 62
     7
100
AcDbSpline
210
0.0
220
0.0
230
1.0
 70
     8
 71
     3
 72
    15
 73
    11
 74
     0
 42
0.0000000060326096
 43
0.0000000001
 40
0.0
 40
0.0
 40
0.0
 40
0.0
 40
0.1247285240681739
 40
0.2499919821625796
 40
0.3750653229774453
 40
0.4999999999999941
 40
0.624934677022561
 40
0.7500080178374153
 40
0.8752714759318373
 40
1.0
 40
1.0
 40
1.0
 40
1.0
 10
481.6896323259706
 20
717.2356930321164
 30
0.0
 10
481.7648357081553
 20
717.2396550426055
 30
0.0
 10
481.8925373350508
 20
717.2483426906601
 30
0.0
 10
482.0940734043125
 20
717.3133594656582
 30
0.0
 10
482.2734414735364
 20
717.4152014793908
 30
0.0
 10
482.4293405612536
 20
717.5521332903074
 30
0.0
 10
482.553565361871
 20
717.718335111308
 30
0.0
 10
482.6409605743986
 20
717.9051686651611
 30
0.0
 10
482.6898986397226
 20
718.1112002986715
 30
0.0
 10
482.688499183907
 20
718.23918944768
 30
0.0
 10
482.6865244941586
 20
718.3144712304666
 30
0.0
  0
LINE
  5
F7
330
D8
100
AcDbEntity
  8
$DDT_AUDIT_GENERATED_(82)
  6
Continuous
 62
     7
100
AcDbLine
 10
481.858977004
 20
735.4856930281
 30
0.0
 11
481.5286992477
 21
754.4072930126
 31
0.0
  0
LINE
  5
F8
330
D8
100
AcDbEntity
  8
$DDT_AUDIT_GENERATED_(82)
  6
Continuous
 62
     7
100
AcDbLine
 10
454.0945431823
 20
754.4072930126
 30
0.0
 11
453.764265426
 21
735.4856930281
 31
0.0
  0
LINE
  5
F9
330
D8
100
AcDbEntity
  8
$DDT_AUDIT_GENERATED_(82)
  6
Continuous
 62
     7
100
AcDbLine
 10
481.5288440404
 20
754.3989978483
 30
0.0
 11
481.5257864096
 21
754.5741694005
 31
0.0
  0
LINE
  5
FA
330
D8
100
AcDbEntity
  8
$DDT_AUDIT_GENERATED_(82)
  6
Continuous
 62
     7
100
AcDbLine
 10
454.0974560205
 20
754.5741694005
 30
0.0
 11
454.0943983896
 21
754.3989978483
 31
0.0
  0
ARC
  5
FB
330
D8
100
AcDbEntity
  8
$DDT_AUDIT_GENERATED_(82)
  6
Continuous
 62
     7
100
AcDbCircle
 10
480.9930373783
 20
754.7364659597
 30
0.0
 40
0.4999999999999927
100
AcDbArc
 50
13.6823500812
 51
86.578558208
  0
ARC
  5
FC
330
D8
100
AcDbEntity
  8
$DDT_AUDIT_GENERATED_(82)
  6
Continuous
 62
     7
100
AcDbCircle
 10
454.6302050517
 20
754.7364659597
 30
0.0
 40
0.4999999999999852
100
AcDbArc
 50
93.421441792
 51
166.3176499188
  0
ARC
  5
FD
330
D8
100
AcDbEntity
  8
$DDT_AUDIT_GENERATED_(82)
  6
Continuous
 62
     7
100
AcDbCircle
 10
480.5260519545
 20
754.5511255285
 30
0.0
 40
1.000000000000001
100
AcDbArc
 50
1.3204334851
 51
17.674549057
  0
ARC
  5
FE
330
D8
100
AcDbEntity
  8
$DDT_AUDIT_GENERATED_(82)
  6
Continuous
 62
     7
100
AcDbCircle
 10
455.0971904755
 20
754.5511255285
 30
0.0
 40
0.9999999999999825
100
AcDbArc
 50
162.325450943
 51
178.6795665149
  0
LINE
  5
FF
330
D8
100
AcDbEntity
  8
$DDT_AUDIT_GENERATED_(82)
  6
Continuous
 62
     7
100
AcDbLine
 10
481.0228773486
 20
755.2355747416
 30
0.0
 11
481.0228773486
 21
755.2364659597
 31
0.0
  0
LINE
  5
100
330
D8
100
AcDbEntity
  8
$DDT_AUDIT_GENERATED_(82)
  6
Continuous
 62
     7
100
AcDbLine
 10
454.6003650815
 20
755.2364659597
 30
0.0
 11
454.6003650815
 21
755.2355747416
 31
0.0
  0
LINE
  5
101
330
D8
100
AcDbEntity
  8
$DDT_AUDIT_GENERATED_(94)
  6
Continuous
 62
     7
100
AcDbLine
 10
457.061621215
 20
713.2356930296
 30
0.0
 11
478.561621215
 21
713.2356930296
 31
0.0
  0
LINE
  5
102
330
D8
100
AcDbEntity
  8
$DDT_AUDIT_GENERATED_(94)
  6
Continuous
 62
     7
100
AcDbLine
 10
478.811621215
 20
716.2356930296
 30
0.0
 11
479.611621215
 21
716.2356930296
 31
0.0
  0
LINE
  5
103
330
D8
100
AcDbEntity
  8
$DDT_AUDIT_GENERATED_(94)
  6
Continuous
 62
     7
100
AcDbLine
 10
478.811621215
 20
713.5532356776
 30
0.0
 11
478.811621215
 21
714.4192610814
 31
0.0
  0
LINE
  5
104
330
D8
100
AcDbEntity
  8
$DDT_AUDIT_GENERATED_(94)
  6
Continuous
 62
     7
100
AcDbLine
 10
478.811621215
 20
714.4192610814
 30
0.0
 11
478.811621215
 21
716.2356930296
 31
0.0
  0
LINE
  5
105
330
D8
100
AcDbEntity
  8
$DDT_AUDIT_GENERATED_(94)
  6
Continuous
 62
     7
100
AcDbLine
 10
456.811621215
 20
716.2356930296
 30
0.0
 11
456.011621215
 21
716.2356930296
 31
0.0
  0
LINE
  5
106
330
D8
100
AcDbEntity
  8
$DDT_AUDIT_GENERATED_(94)
  6
Continuous
 62
     7
100
AcDbLine
 10
456.811621215
 20
716.2356930296
 30
0.0
 11
456.811621215
 21
714.4192610814
 31
0.0
  0
LINE
  5
107
330
D8
100
AcDbEntity
  8
$DDT_AUDIT_GENERATED_(94)
  6
Continuous
 62
     7
100
AcDbLine
 10
456.811621215
 20
714.4192610814
 30
0.0
 11
456.811621215
 21
713.5532356776
 31
0.0
  0
LINE
  5
108
330
D8
100
AcDbEntity
  8
$DDT_AUDIT_GENERATED_(94)
  6
Continuous
 62
     7
100
AcDbLine
 10
456.811621215
 20
713.3800305969
 30
0.0
 11
457.061621215
 21
713.2356930296
 31
0.0
  0
LINE
  5
109
330
D8
100
AcDbEntity
  8
$DDT_AUDIT_GENERATED_(94)
  6
Continuous
 62
     7
100
AcDbLine
 10
478.561621215
 20
713.2356930296
 30
0.0
 11
478.811621215
 21
713.3800305969
 31
0.0
  0
LINE
  5
10A
330
D8
100
AcDbEntity
  8
$DDT_AUDIT_GENERATED_(94)
  6
Continuous
 62
     7
100
AcDbLine
 10
456.011621215
 20
717.2356930321
 30
0.0
 11
456.011621215
 21
716.2356930296
 31
0.0
  0
LINE
  5
10B
330
D8
100
AcDbEntity
  8
$DDT_AUDIT_GENERATED_(94)
  6
Continuous
 62
     7
100
AcDbLine
 10
479.611621215
 20
716.2356930296
 30
0.0
 11
479.611621215
 21
717.2356930321
 31
0.0
  0
ARC
  5
10C
330
D8
100
AcDbEntity
  8
$DDT_AUDIT_GENERATED_(B1)
  6
Continuous
 62
     7
100
AcDbCircle
 10
244.597208819
 20
589.1735170799
 30
0.0
 40
26.53522457821199
100
AcDbArc
 50
35.7818965882
 51
38.2690835828
  0
LINE
  5
10E
330
D8
100
AcDbEntity
  8
DV2_Standard
  6
CENTER2
 62
     7
100
AcDbLine
 10
264.811620768
 20
501.5348210227
 30
0.0
 11
224.811621662
 21
501.5348210227
 31
0.0
  0
LINE
  5
10F
330
D8
100
AcDbEntity
  8
DV2_Standard
  6
CENTER2
 62
     7
100
AcDbLine
 10
244.811621215
 20
521.5348205756
 30
0.0
 11
244.811621215
 21
481.5348214697
 31
0.0
  0
ENDBLK
  5
111
330
D8
100
AcDbEntity
  8
0
100
AcDbBlockEnd
  0
BLOCK
  5
15D
330
112
100
AcDbEntity
  8
0
100
AcDbBlockBegin
  2
SE2
 70
     0
 10
0.0
 20
0.0
 30
0.0
  3
SE2
  1

  0
LINE
  5
114
330
112
100
AcDbEntity
  8
$DDT_AUDIT_GENERATED_(60)
  6
Continuous
 62
     7
100
AcDbLine
 10
85.7483873136
 20
318.7249032793
 30
0.0
 11
85.7483873136
 21
369.7249032793
 31
0.0
  0
ARC
  5
115
330
112
100
AcDbEntity
  8
$DDT_AUDIT_GENERATED_(60)
  6
Continuous
 62
     7
100
AcDbCircle
 10
113.4083873136
 20
344.2249032793
 30
0.0
 40
100.0
100
AcDbArc
 50
165.1504721945
 51
194.8495278055
  0
ARC
  5
116
330
112
100
AcDbEntity
  8
$DDT_AUDIT_GENERATED_(60)
  6
Continuous
 62
     7
100
AcDbCircle
 10
85.2483873136
 20
318.7249032793
 30
0.0
 40
0.5000000000000004
100
AcDbArc
 50
270.0
 51
0.0
  0
ARC
  5
117
330
112
100
AcDbEntity
  8
$DDT_AUDIT_GENERATED_(60)
  6
Continuous
 62
     7
100
AcDbCircle
 10
85.2483873136
 20
369.7249032793
 30
0.0
 40
0.5000000000000004
100
AcDbArc
 50
0.0
 51
90.0
  0
ARC
  5
118
330
112
100
AcDbEntity
  8
$DDT_AUDIT_GENERATED_(60)
  6
Continuous
 62
     7
100
AcDbCircle
 10
17.2314670052
 20
369.7249032793
 30
0.0
 40
0.5000000000000004
100
AcDbArc
 50
90.0
 51
165.1504721945
  0
ARC
  5
119
330
112
100
AcDbEntity
  8
$DDT_AUDIT_GENERATED_(60)
  6
Continuous
 62
     7
100
AcDbCircle
 10
17.2314670052
 20
318.7249032793
 30
0.0
 40
0.4999999999999919
100
AcDbArc
 50
194.8495278055
 51
270.0
  0
LINE
  5
11A
330
112
100
AcDbEntity
  8
$DDT_AUDIT_GENERATED_(60)
  6
Continuous
 62
     7
100
AcDbLine
 10
85.2483873136
 20
370.2249032793
 30
0.0
 11
17.2314670052
 21
370.2249032793
 31
0.0
  0
LINE
  5
11B
330
112
100
AcDbEntity
  8
$DDT_AUDIT_GENERATED_(60)
  6
Continuous
 62
     7
100
AcDbLine
 10
17.2314670052
 20
318.2249032793
 30
0.0
 11
22.0483873136
 21
318.2249032793
 31
0.0
  0
LINE
  5
11C
330
112
100
AcDbEntity
  8
$DDT_AUDIT_GENERATED_(60)
  6
Continuous
 62
     7
100
AcDbLine
 10
46.8483873136
 20
318.2249032793
 30
0.0
 11
85.2483873136
 21
318.2249032793
 31
0.0
  0
ARC
  5
11D
330
112
100
AcDbEntity
  8
$DDT_AUDIT_GENERATED_(71)
  6
Continuous
 62
     7
100
AcDbCircle
 10
40.8483873136
 20
344.2249032793
 30
0.0
 40
26.99999999999999
100
AcDbArc
 50
282.8395884069
 51
285.642471013
  0
ARC
  5
11E
330
112
100
AcDbEntity
  8
$DDT_AUDIT_GENERATED_(71)
  6
Continuous
 62
     7
100
AcDbCircle
 10
40.8483873136
 20
344.2249032793
 30
0.0
 40
26.99999999999999
100
AcDbArc
 50
74.357528987
 51
105.642471013
  0
ARC
  5
11F
330
112
100
AcDbEntity
  8
$DDT_AUDIT_GENERATED_(7A)
  6
Continuous
 62
     7
100
AcDbCircle
 10
34.4483873136
 20
344.2249032793
 30
0.0
 40
12.4
100
AcDbArc
 50
0.0
 51
180.0
  0
ARC
  5
120
330
112
100
AcDbEntity
  8
$DDT_AUDIT_GENERATED_(7A)
  6
Continuous
 62
     7
100
AcDbCircle
 10
34.4483873136
 20
121.2249032793
 30
0.0
 40
12.4
100
AcDbArc
 50
180.0
 51
0.0
  0
LINE
  5
121
330
112
100
AcDbEntity
  8
$DDT_AUDIT_GENERATED_(7A)
  6
Continuous
 62
     7
100
AcDbLine
 10
22.0483873136
 20
344.2249032793
 30
0.0
 11
22.0483873136
 21
296.2249032793
 31
0.0
  0
LINE
  5
122
330
112
100
AcDbEntity
  8
$DDT_AUDIT_GENERATED_(7A)
  6
Continuous
 62
     7
100
AcDbLine
 10
46.8483873136
 20
296.2249032793
 30
0.0
 11
46.8483873136
 21
344.2249032793
 31
0.0
  0
LINE
  5
123
330
112
100
AcDbEntity
  8
$DDT_AUDIT_GENERATED_(7A)
  6
Continuous
 62
     7
100
AcDbLine
 10
46.8483873136
 20
169.2249032793
 30
0.0
 11
46.8483873136
 21
296.2249032793
 31
0.0
  0
LINE
  5
124
330
112
100
AcDbEntity
  8
$DDT_AUDIT_GENERATED_(7A)
  6
Continuous
 62
     7
100
AcDbLine
 10
22.0483873136
 20
296.2249032793
 30
0.0
 11
22.0483873136
 21
169.2249032793
 31
0.0
  0
LINE
  5
125
330
112
100
AcDbEntity
  8
$DDT_AUDIT_GENERATED_(7A)
  6
Continuous
 62
     7
100
AcDbLine
 10
22.0483873136
 20
169.2249032793
 30
0.0
 11
22.0483873136
 21
121.2249032793
 31
0.0
  0
LINE
  5
126
330
112
100
AcDbEntity
  8
$DDT_AUDIT_GENERATED_(7A)
  6
Continuous
 62
     7
100
AcDbLine
 10
46.8483873136
 20
121.2249032793
 30
0.0
 11
46.8483873136
 21
169.2249032793
 31
0.0
  0
SPLINE
  5
127
330
112
100
AcDbEntity
  8
$DDT_AUDIT_GENERATED_(82)
  6
Continuous
 62
     7
100
AcDbSpline
210
0.0
220
0.0
230
1.0
 70
    12
 71
     2
 72
     8
 73
     5
 74
     0
 42
0.0000000001780786
 43
0.0000000001
 40
0.0
 40
0.0
 40
0.0
 40
0.5
 40
0.5
 40
0.6892446769251122
 40
0.6892446769251122
 40
0.6892446769251122
 10
34.44838731358513
 20
106.3500000001784
 30
0.0
 41
0.9999999999998759
 10
49.32329059291872
 20
106.35
 30
0.0
 41
0.7071067811864603
 10
49.32329059291872
 20
121.2249032793336
 30
0.0
 41
0.9999999999998759
 10
49.32329059291872
 20
125.7022547744751
 30
0.0
 41
0.8891430348640746
 10
46.85183823297763
 20
129.43569817747
 30
0.0
 41
0.8622024319363656
  0
SPLINE
  5
128
330
112
100
AcDbEntity
  8
$DDT_AUDIT_GENERATED_(82)
  6
Continuous
 62
     7
100
AcDbSpline
210
0.0
220
0.0
230
1.0
 70
    12
 71
     2
 72
     8
 73
     5
 74
     0
 42
0.0000000001780786
 43
0.0000000001
 40
0.3107553230748888
 40
0.3107553230748888
 40
0.3107553230748888
 40
0.5
 40
0.5
 40
1.0
 40
1.0
 40
1.0
 10
22.0449363941926
 20
129.4356981774701
 30
0.0
 41
0.8622024319363645
 10
19.57348403425153
 20
125.7022547744752
 30
0.0
 41
0.8891430348640736
 10
19.57348403425153
 20
121.2249032793336
 30
0.0
 41
0.9999999999998759
 10
19.57348403425153
 20
106.35
 30
0.0
 41
0.7071067811864603
 10
34.44838731358513
 20
106.3500000001784
 30
0.0
 41
0.9999999999998759
  0
ARC
  5
12A
330
112
100
AcDbEntity
  8
$DDT_AUDIT_GENERATED_(129)
  6
Continuous
 62
     7
100
AcDbCircle
 10
47.2746619193
 20
314.4380582635
 30
0.0
 40
1.000000000000003
100
AcDbArc
 50
244.7686314992
 51
303.0
  0
LINE
  5
12B
330
112
100
AcDbEntity
  8
$DDT_AUDIT_GENERATED_(A2)
  6
Continuous
 62
     7
100
AcDbLine
 10
109.0483873136
 20
318.9238846948
 30
0.0
 11
109.0483873136
 21
369.5259218639
 31
0.0
  0
LINE
  5
12C
330
112
100
AcDbEntity
  8
$DDT_AUDIT_GENERATED_(A2)
  6
Continuous
 62
     7
100
AcDbLine
 10
85.7483873136
 20
369.7249032793
 30
0.0
 11
85.7483873136
 21
318.7249032793
 31
0.0
  0
LINE
  5
12D
330
112
100
AcDbEntity
  8
$DDT_AUDIT_GENERATED_(A2)
  6
Continuous
 62
     7
100
AcDbLine
 10
86.2483682771
 20
318.2292663233
 30
0.0
 11
86.2483682771
 21
370.2205402354
 31
0.0
  0
ARC
  5
12E
330
112
100
AcDbEntity
  8
$DDT_AUDIT_GENERATED_(A2)
  6
Continuous
 62
     7
100
AcDbCircle
 10
102.9783873136
 20
344.2249032793
 30
0.0
 40
25.00000000000012
100
AcDbArc
 50
72.5263611986
 51
75.9481422426
  0
ARC
  5
12F
330
112
100
AcDbEntity
  8
$DDT_AUDIT_GENERATED_(A2)
  6
Continuous
 62
     7
100
AcDbCircle
 10
102.9783873136
 20
344.2249032793
 30
0.0
 40
25.00000000000011
100
AcDbArc
 50
284.0518577574
 51
287.4736388014
  0
LINE
  5
130
330
112
100
AcDbEntity
  8
$DDT_AUDIT_GENERATED_(A2)
  6
Continuous
 62
     7
100
AcDbLine
 10
86.2483682771
 20
318.2292663233
 30
0.0
 11
108.5527503575
 21
318.4239037313
 31
0.0
  0
LINE
  5
131
330
112
100
AcDbEntity
  8
$DDT_AUDIT_GENERATED_(A2)
  6
Continuous
 62
     7
100
AcDbLine
 10
108.5527503575
 20
370.0259028274
 30
0.0
 11
86.2483682771
 21
370.2205402354
 31
0.0
  0
ARC
  5
132
330
112
100
AcDbEntity
  8
$DDT_AUDIT_GENERATED_(A2)
  6
Continuous
 62
     7
100
AcDbCircle
 10
108.5483873136
 20
369.5259218639
 30
0.0
 40
0.5000000000000004
100
AcDbArc
 50
0.0
 51
89.500025649
  0
ARC
  5
133
330
112
100
AcDbEntity
  8
$DDT_AUDIT_GENERATED_(A2)
  6
Continuous
 62
     7
100
AcDbCircle
 10
108.5483873136
 20
318.9238846948
 30
0.0
 40
0.5000000000000024
100
AcDbArc
 50
270.499974351
 51
0.0
  0
LINE
  5
134
330
112
100
AcDbEntity
  8
$DDT_AUDIT_GENERATED_(A2)
  6
Continuous
 62
     7
100
AcDbLine
 10
86.2483682771
 20
370.2205402354
 30
0.0
 11
85.7483873136
 21
369.7249032793
 31
0.0
  0
LINE
  5
135
330
112
100
AcDbEntity
  8
$DDT_AUDIT_GENERATED_(A2)
  6
Continuous
 62
     7
100
AcDbLine
 10
85.7483873136
 20
318.7249032793
 30
0.0
 11
86.2483682771
 21
318.2292663233
 31
0.0
  0
ARC
  5
136
330
112
100
AcDbEntity
  8
$DDT_AUDIT_GENERATED_(B1)
  6
Continuous
 62
     7
100
AcDbCircle
 10
469.8388190242
 20
351.4256985422
 30
0.0
 40
336.3561814157254
100
AcDbArc
 50
177.652554933
 51
180.307861098
  0
ARC
  5
137
330
112
100
AcDbEntity
  8
$DDT_AUDIT_GENERATED_(B1)
  6
Continuous
 62
     7
100
AcDbCircle
 10
1101.147081233
 20
344.2249032793
 30
0.0
 40
991.0687943941357
100
AcDbArc
 50
179.9869112065
 51
180.013088782
  0
ARC
  5
138
330
112
100
AcDbEntity
  8
$DDT_AUDIT_GENERATED_(B1)
  6
Continuous
 62
     7
100
AcDbCircle
 10
479.4134682413
 20
337.1945402548
 30
0.0
 40
345.929847706551
100
AcDbArc
 50
179.7288878433
 51
182.3106953525
  0
ARC
  5
139
330
112
100
AcDbEntity
  8
$DDT_AUDIT_GENERATED_(B1)
  6
Continuous
 62
     7
100
AcDbCircle
 10
137.2870413543
 20
349.4994995012
 30
0.0
 40
3.801408251464407
100
AcDbArc
 50
178.2075848318
 51
184.1440929183
  0
ARC
  5
13A
330
112
100
AcDbEntity
  8
$DDT_AUDIT_GENERATED_(B1)
  6
Continuous
 62
     7
100
AcDbCircle
 10
133.4670515847
 20
344.2310676118
 30
0.0
 40
4.993804488426993
100
AcDbArc
 50
2.430770903
 51
89.6727726889
  0
ARC
  5
13B
330
112
100
AcDbEntity
  8
$DDT_AUDIT_GENERATED_(B1)
  6
Continuous
 62
     7
100
AcDbCircle
 10
131.7805845816
 20
344.2250059054
 30
0.0
 40
5.000102547384503
100
AcDbArc
 50
346.2389585977
 51
359.998824156
  0
ARC
  5
13C
330
112
100
AcDbEntity
  8
$DDT_AUDIT_GENERATED_(B1)
  6
Continuous
 62
     7
100
AcDbCircle
 10
131.7805845816
 20
344.2250059054
 30
0.0
 40
5.000102547384503
100
AcDbArc
 50
269.9976772022
 51
346.2389585977
  0
ARC
  5
13D
330
112
100
AcDbEntity
  8
$DDT_AUDIT_GENERATED_(B1)
  6
Continuous
 62
     7
100
AcDbCircle
 10
137.3175437872
 20
338.9496828661
 30
0.0
 40
3.831876455786232
100
AcDbArc
 50
175.8795575559
 51
181.7688209973
  0
ARC
  5
13E
330
112
100
AcDbEntity
  8
$DDT_AUDIT_GENERATED_(B1)
  6
Continuous
 62
     7
100
AcDbCircle
 10
131.7822605898
 20
344.2268575762
 30
0.0
 40
4.998045963766096
100
AcDbArc
 50
90.0212405765
 51
180.0224035572
  0
ARC
  5
13F
330
112
100
AcDbEntity
  8
$DDT_AUDIT_GENERATED_(B1)
  6
Continuous
 62
     7
100
AcDbCircle
 10
131.7805794106
 20
344.2247954809
 30
0.0
 40
5.000107718561973
100
AcDbArc
 50
13.7813930668
 51
90.0019673379
  0
ARC
  5
140
330
112
100
AcDbEntity
  8
$DDT_AUDIT_GENERATED_(B1)
  6
Continuous
 62
     7
100
AcDbCircle
 10
131.7805794106
 20
344.2247954809
 30
0.0
 40
5.000107718561973
100
AcDbArc
 50
0.0012353916
 51
13.7813930668
  0
ARC
  5
141
330
112
100
AcDbEntity
  8
$DDT_AUDIT_GENERATED_(B1)
  6
Continuous
 62
     7
100
AcDbCircle
 10
763.75478647
 20
342.3965066286
 30
0.0
 40
653.6784368084907
100
AcDbArc
 50
179.8595829221
 51
181.7080386212
  0
ELLIPSE
  5
142
330
112
100
AcDbEntity
  8
$DDT_AUDIT_GENERATED_(B1)
  6
Continuous
 62
     7
100
AcDbEllipse
 10
141.9436759666
 20
344.2249032793
 30
0.0
 11
1.046251973946255E-7
 21
-25.10681546381001
 31
0.0
210
0.0
220
0.0
230
1.0
 40
0.0261769454
 41
0.0531354210316095
 42
0.1011294743904307
  0
ELLIPSE
  5
143
330
112
100
AcDbEntity
  8
$DDT_AUDIT_GENERATED_(B1)
  6
Continuous
 62
     7
100
AcDbEllipse
 10
141.9436759666
 20
344.2249032793
 30
0.0
 11
1.046251973946255E-7
 21
-25.10681546381001
 31
0.0
210
0.0
220
0.0
230
1.0
 40
0.0261769454
 41
-3.242722443124556
 42
-3.209370240746999
  0
ARC
  5
144
330
112
100
AcDbEntity
  8
$DDT_AUDIT_GENERATED_(B1)
  6
Continuous
 62
     7
100
AcDbCircle
 10
133.4670687062
 20
344.2187343407
 30
0.0
 40
4.993799794901534
100
AcDbArc
 50
270.3270301579
 51
357.6659604591
  0
LINE
  5
145
330
112
100
AcDbEntity
  8
$DDT_AUDIT_GENERATED_(B1)
  6
Continuous
 62
     7
100
AcDbLine
 10
138.4611047075
 20
344.2249032793
 30
0.0
 11
138.4567255273
 21
344.0153598022
 31
0.0
  0
LINE
  5
146
330
112
100
AcDbEntity
  8
$DDT_AUDIT_GENERATED_(B1)
  6
Continuous
 62
     7
100
AcDbLine
 10
138.4562742797
 20
344.4449709127
 30
0.0
 11
138.4611047075
 21
344.2249032793
 31
0.0
  0
ARC
  5
147
330
112
100
AcDbEntity
  8
$DDT_AUDIT_GENERATED_(B1)
  6
Continuous
 62
     7
100
AcDbCircle
 10
131.7821011391
 20
344.2227896443
 30
0.0
 40
4.997886577888418
100
AcDbArc
 50
179.975769492
 51
269.9802903552
  0
ARC
  5
148
330
112
100
AcDbEntity
  8
$DDT_AUDIT_GENERATED_(B1)
  6
Continuous
 62
     7
100
AcDbCircle
 10
763.8325494772
 20
346.0522360704
 30
0.0
 40
653.7561969758106
100
AcDbArc
 50
178.2920713204
 51
180.1403071269
  0
SPLINE
  5
149
330
112
100
AcDbEntity
  8
$DDT_AUDIT_GENERATED_(B1)
  6
Continuous
 62
     7
100
AcDbSpline
210
0.0
220
0.0
230
1.0
 70
     8
 71
     3
 72
    10
 73
     6
 74
     0
 42
0.0000000210109957
 43
0.0000000001
 40
0.0
 40
0.0
 40
0.0
 40
0.0
 40
0.5
 40
0.5
 40
1.0
 40
1.0
 40
1.0
 40
1.0
 10
110.5895906662208
 20
319.0098272573821
 30
0.0
 10
110.5955262861478
 20
318.9521706162969
 30
0.0
 10
110.6267541291486
 20
318.8990638016566
 30
0.0
 10
110.7391681679431
 20
318.8012588415073
 30
0.0
 10
110.821371813825
 20
318.7563475900498
 30
0.0
 10
110.9279435612223
 20
318.7167387961247
 30
0.0
  0
ELLIPSE
  5
14A
330
112
100
AcDbEntity
  8
$DDT_AUDIT_GENERATED_(B1)
  6
Continuous
 62
     7
100
AcDbEllipse
 10
110.7574253502
 20
344.2249032794
 30
0.0
 11
-6.106226635438361E-13
 21
-26.01745508413989
 31
0.0
210
0.0
220
0.0
230
1.0
 40
0.0261769483
 41
-0.6108652381817548
 42
-0.2489974431180393
  0
ELLIPSE
  5
14B
330
112
100
AcDbEntity
  8
$DDT_AUDIT_GENERATED_(B1)
  6
Continuous
 62
     7
100
AcDbEllipse
 10
110.7574253502
 20
344.2249032793
 30
0.0
 11
0.0
 21
25.21563456024585
 31
0.0
210
0.0
220
0.0
230
1.0
 40
1.0
 41
0.0066560261605515
 42
0.0183272442900513
  0
SPLINE
  5
14C
330
112
100
AcDbEntity
  8
$DDT_AUDIT_GENERATED_(B1)
  6
Continuous
 62
     7
100
AcDbSpline
210
0.0
220
0.0
230
1.0
 70
     8
 71
     3
 72
    10
 73
     6
 74
     0
 42
0.0000000210109257
 43
0.0000000001
 40
0.0
 40
0.0
 40
0.0
 40
0.0
 40
0.5
 40
0.5
 40
1.0
 40
1.0
 40
1.0
 40
1.0
 10
110.9279435617043
 20
369.7330677627247
 30
0.0
 10
110.8213501965313
 20
369.6934509342649
 30
0.0
 10
110.7405662664278
 20
369.6494256677033
 30
0.0
 10
110.6275173468787
 20
369.5517388154788
 30
0.0
 10
110.59552758975
 20
369.4976486051336
 30
0.0
 10
110.589590666221
 20
369.4399792814872
 30
0.0
  0
SPLINE
  5
14D
330
112
100
AcDbEntity
  8
$DDT_AUDIT_GENERATED_(B1)
  6
Continuous
 62
     7
100
AcDbSpline
210
0.0
220
0.0
230
1.0
 70
     8
 71
     3
 72
     8
 73
     4
 74
     0
 42
0.0000000002076339
 43
0.0000000001
 40
0.0
 40
0.0
 40
0.0
 40
0.0
 40
0.0578945538096648
 40
0.0578945538096648
 40
0.0578945538096648
 40
0.0578945538096648
 10
110.9279435617043
 20
369.7330677627247
 30
0.0
 10
111.8098075607292
 20
370.0608241359627
 30
0.0
 10
112.715567166785
 20
370.2084976058767
 30
0.0
 10
113.6451988971612
 20
370.1919706501382
 30
0.0
  0
SPLINE
  5
14E
330
112
100
AcDbEntity
  8
$DDT_AUDIT_GENERATED_(B1)
  6
Continuous
 62
     7
100
AcDbSpline
210
0.0
220
0.0
230
1.0
 70
     8
 71
     3
 72
     8
 73
     4
 74
     0
 42
0.0000000002058542
 43
0.0000000001
 40
0.9425566973074977
 40
0.9425566973074977
 40
0.9425566973074977
 40
0.9425566973074977
 40
1.0
 40
1.0
 40
1.0
 40
1.0
 10
113.6475878142514
 20
318.2583895851481
 30
0.0
 10
112.7156628103257
 20
318.24183865292
 30
0.0
 10
111.8039841166653
 20
318.391146782411
 30
0.0
 10
110.9279435612223
 20
318.7167387961247
 30
0.0
  0
ARC
  5
14F
330
112
100
AcDbEntity
  8
$DDT_AUDIT_GENERATED_(B1)
  6
Continuous
 62
     7
100
AcDbCircle
 10
45.1799048319
 20
344.2249032793
 30
0.0
 40
99.9999999999999
100
AcDbArc
 50
345.5351868885
 51
14.4648131115
  0
LINE
  5
150
330
112
100
AcDbEntity
  8
$DDT_AUDIT_GENERATED_(B1)
  6
Continuous
 62
     7
100
AcDbLine
 10
133.4620754768
 20
349.2249032793
 30
0.0
 11
131.7800954292
 21
349.2249032793
 31
0.0
  0
LINE
  5
151
330
112
100
AcDbEntity
  8
$DDT_AUDIT_GENERATED_(B1)
  6
Continuous
 62
     7
100
AcDbLine
 10
131.7800954292
 20
339.2249032793
 30
0.0
 11
133.4620754757
 21
339.2249032793
 31
0.0
  0
SPLINE
  5
152
330
112
100
AcDbEntity
  8
$DDT_AUDIT_GENERATED_(B1)
  6
Continuous
 62
     7
100
AcDbSpline
210
0.0
220
0.0
230
1.0
 70
     8
 71
     3
 72
    12
 73
     8
 74
     0
 42
0.0000000149313639
 43
0.0000000001
 40
0.0
 40
0.0
 40
0.0
 40
0.0
 40
0.2276147817038415
 40
0.4956822288066456
 40
0.6982954326596927
 40
0.8925871264648652
 40
1.0
 40
1.0
 40
1.0
 40
1.0
 10
141.9675704046217
 20
369.3312496586691
 30
0.0
 10
141.9596859572393
 20
369.3544826795684
 30
0.0
 10
141.9420603949199
 20
369.3985885448473
 30
0.0
 10
141.8882070216208
 20
369.4928731115116
 30
0.0
 10
141.7815548551041
 20
369.6044028291522
 30
0.0
 10
141.6240553372644
 20
369.6967505247894
 30
0.0
 10
141.5170897976761
 20
369.6952413533293
 30
0.0
 10
141.4718440548878
 20
369.6946451079571
 30
0.0
  0
SPLINE
  5
153
330
112
100
AcDbEntity
  8
$DDT_AUDIT_GENERATED_(B1)
  6
Continuous
 62
     7
100
AcDbSpline
210
0.0
220
0.0
230
1.0
 70
     8
 71
     3
 72
    12
 73
     8
 74
     0
 42
0.000000016763741
 43
0.0000000001
 40
0.0
 40
0.0
 40
0.0
 40
0.0
 40
0.1034632499318005
 40
0.3522584707679302
 40
0.5936170760954014
 40
0.8658849738751514
 40
1.0
 40
1.0
 40
1.0
 40
1.0
 10
141.4692835014866
 20
318.7549302031733
 30
0.0
 10
141.5030125474631
 20
318.7525875421317
 30
0.0
 10
141.6000394165868
 20
318.7457609047601
 30
0.0
 10
141.7561230934201
 20
318.8271748094054
 30
0.0
 10
141.8643339813157
 20
318.927992187986
 30
0.0
 10
141.9163668798106
 20
319.0052364980593
 30
0.0
 10
141.9313471457861
 20
319.0369599308596
 30
0.0
 10
141.9366787328338
 20
319.0491364922765
 30
0.0
  0
LINE
  5
154
330
112
100
AcDbEntity
  8
$DDT_AUDIT_GENERATED_(B1)
  6
Continuous
 62
     7
100
AcDbLine
 10
113.6508011026
 20
318.2579668759
 30
0.0
 11
141.468885105
 21
318.7436998377
 31
0.0
  0
LINE
  5
155
330
112
100
AcDbEntity
  8
$DDT_AUDIT_GENERATED_(B1)
  6
Continuous
 62
     7
100
AcDbLine
 10
141.468885105
 20
369.706106721
 30
0.0
 11
113.6471445731
 21
370.1919035296
 31
0.0
  0
LINE
  5
157
330
112
100
AcDbEntity
  8
DV3_Standard
  6
CENTER2
 62
     7
100
AcDbLine
 10
60.8483868666
 20
344.2249032793
 30
0.0
 11
20.8483877606
 21
344.2249032793
 31
0.0
  0
LINE
  5
158
330
112
100
AcDbEntity
  8
DV3_Standard
  6
CENTER2
 62
     7
100
AcDbLine
 10
40.8483873136
 20
364.2249028323
 30
0.0
 11
40.8483873136
 21
324.2249037264
 31
0.0
  0
LINE
  5
159
330
112
100
AcDbEntity
  8
DV3_Standard
  6
CENTER2
 62
     7
100
AcDbLine
 10
65.8483867548
 20
344.2249032793
 30
0.0
 11
71.3483873136
 21
344.2249032793
 31
0.0
  0
LINE
  5
15A
330
112
100
AcDbEntity
  8
DV3_Standard
  6
CENTER2
 62
     7
100
AcDbLine
 10
40.8483873136
 20
369.2249027205
 30
0.0
 11
40.8483873136
 21
374.7249032793
 31
0.0
  0
LINE
  5
15B
330
112
100
AcDbEntity
  8
DV3_Standard
  6
CENTER2
 62
     7
100
AcDbLine
 10
15.8483878724
 20
344.2249032793
 30
0.0
 11
10.3483873136
 21
344.2249032793
 31
0.0
  0
LINE
  5
15C
330
112
100
AcDbEntity
  8
DV3_Standard
  6
CENTER2
 62
     7
100
AcDbLine
 10
40.8483873136
 20
319.2249038381
 30
0.0
 11
40.8483873136
 21
313.7249032793
 31
0.0
  0
ENDBLK
  5
15E
330
112
100
AcDbEntity
  8
0
100
AcDbBlockEnd
  0
ENDSEC
  0
SECTION
  2
ENTITIES
  0
INSERT
  5
5F
330
1F
100
AcDbEntity
  8
Default
100
AcDbBlockReference
  2
SE
 10
0.0
 20
0.0
 30
0.0
  0
INSERT
  5
D9
330
1F
100
AcDbEntity
  8
Default
100
AcDbBlockReference
  2
SE1
 10
0.0
 20
0.0
 30
0.0
  0
INSERT
  5
113
330
1F
100
AcDbEntity
  8
Default
100
AcDbBlockReference
  2
SE2
 10
0.0
 20
0.0
 30
0.0
  0
TEXT
  5
160
330
1F
100
AcDbEntity
  8
Default
  6
Continuous
 62
     7
100
AcDbText
 10
5.9362635081
 20
53.4225120485
 30
0.0
 40
10.0
  1
Grohe AG^J
  7
SEACAD_seiso_ttf
 11
5.9362635081
 21
63.4225120485
 31
0.0
100
AcDbText
 73
     3
  0
TEXT
  5
161
330
1F
100
AcDbEntity
  8
Default
  6
Continuous
 62
     7
100
AcDbText
 10
5.9362635081
 20
37.0588756849
 30
0.0
 40
10.0
  1
 
  7
SEACAD_seiso_ttf
 11
5.9362635081
 21
47.0588756849
 31
0.0
100
AcDbText
 73
     3
  0
TEXT
  5
162
330
1F
100
AcDbEntity
  8
Default
  6
Continuous
 62
     7
100
AcDbText
 10
5.9362635081
 20
20.6952393213
 30
0.0
 40
10.0
  1
ecn: 
  7
SEACAD_seiso_ttf
 11
5.9362635081
 21
30.6952393213
 31
0.0
100
AcDbText
 73
     3
  0
TEXT
  5
163
330
1F
100
AcDbEntity
  8
Default
  6
Continuous
 62
     7
100
AcDbText
 10
5.9362635081
 20
4.3316029576
 30
0.0
 40
10.0
  1
unit: mm
  7
SEACAD_seiso_ttf
 11
5.9362635081
 21
14.3316029576
 31
0.0
100
AcDbText
 73
     3
  0
LINE
  5
164
330
1F
100
AcDbEntity
  8
Default
  6
Continuous
 62
     7
100
AcDbLine
 10
0.0
 20
0.0
 30
0.0
 11
100.0
 21
0.0
 31
0.0
  0
LINE
  5
165
330
1F
100
AcDbEntity
  8
Default
  6
Continuous
 62
     7
100
AcDbLine
 10
0.0
 20
0.0
 30
0.0
 11
0.0
 21
100.0
 31
0.0
  0
TEXT
  5
166
330
1F
100
AcDbEntity
  8
Default
  6
Continuous
 62
     7
100
AcDbText
 10
24.3923665681
 20
-18.2375342018
 30
0.0
 40
10.0
  1
100 mm
  7
SEACAD_seiso_ttf
 11
24.3923665681
 21
-8.2375342018
 31
0.0
100
AcDbText
 73
     3
  0
TEXT
  5
167
330
1F
100
AcDbEntity
  8
Default
  6
Continuous
 62
     7
100
AcDbText
 10
-7.6150308803
 20
24.6231930421
 30
0.0
 40
10.0
  1
100 mm
 50
90.0
  7
SEACAD_seiso_ttf
 11
-17.6150308803
 21
24.6231930421
 31
0.0
100
AcDbText
 73
     3
  0
TEXT
  5
168
330
1F
100
AcDbEntity
  8
Default
  6
Continuous
 62
     7
100
AcDbText
 10
28.4878128572
 20
20.0907663715
 30
0.0
 40
10.0
  1
217532
  7
SEACAD_seiso_ttf
 11
28.4878128572
 21
30.0907663715
 31
0.0
100
AcDbText
 73
     3
  0
TEXT
  5
169
330
1F
100
AcDbEntity
  8
Default
  6
Continuous
 62
     7
100
AcDbText
 10
5.9012241913
 20
36.7242780188
 30
0.0
 40
10.0
  1
32067000
  7
SEACAD_seiso_ttf
 11
5.9012241913
 21
46.7242780188
 31
0.0
100
AcDbText
 73
     3
  0
ENDSEC
  0
SECTION
  2
OBJECTS
  0
DICTIONARY
  5
C
330
0
100
AcDbDictionary
281
     1
  3
ACAD_GROUP
350
D
  3
ACAD_LAYOUT
350
1A
  3
ACAD_MLEADERSTYLE
350
16D
  3
ACAD_MLINESTYLE
350
17
  3
ACAD_PLOTSETTINGS
350
19
  3
ACAD_PLOTSTYLENAME
350
E
  3
ACAD_SCALELIST
350
3B
  3
ACAD_TABLESTYLE
350
16C
  3
ACAD_VISUALSTYLE
350
2A
  3
AcDbVariableDictionary
350
16A
  0
DICTIONARY
  5
D
102
{ACAD_REACTORS
330
C
102
}
330
C
100
AcDbDictionary
281
     1
  0
DICTIONARY
  5
1A
102
{ACAD_REACTORS
330
C
102
}
330
C
100
AcDbDictionary
281
     1
  3
Layout1
350
1E
  3
Model
350
22
  0
DICTIONARY
  5
16D
102
{ACAD_REACTORS
330
C
102
}
330
C
100
AcDbDictionary
281
     1
  0
DICTIONARY
  5
17
102
{ACAD_REACTORS
330
C
102
}
330
C
100
AcDbDictionary
281
     1
  3
Standard
350
18
  0
DICTIONARY
  5
19
102
{ACAD_REACTORS
330
C
102
}
330
C
100
AcDbDictionary
281
     1
  0
ACDBDICTIONARYWDFLT
  5
E
102
{ACAD_REACTORS
330
C
102
}
330
C
100
AcDbDictionary
281
     1
  3
Normal
350
F
100
AcDbDictionaryWithDefault
340
F
  0
DICTIONARY
  5
3B
102
{ACAD_REACTORS
330
C
102
}
330
C
100
AcDbDictionary
281
     1
  3
A0
350
3C
  3
A1
350
3D
  3
A2
350
3E
  3
A3
350
3F
  3
A4
350
40
  3
A5
350
41
  3
A6
350
42
  3
A7
350
43
  3
A8
350
44
  3
A9
350
45
  3
B0
350
46
  3
B1
350
47
  3
B2
350
48
  3
B3
350
49
  3
B4
350
4A
  3
B5
350
4B
  3
B6
350
4C
  3
B7
350
4D
  3
B8
350
4E
  3
B9
350
4F
  3
C0
350
50
  3
C1
350
51
  3
C2
350
52
  3
C3
350
53
  3
C4
350
54
  3
C5
350
55
  3
C6
350
56
  3
C7
350
57
  3
C8
350
58
  3
C9
350
59
  3
D0
350
5A
  3
D1
350
5B
  3
D2
350
5C
  0
DICTIONARY
  5
16C
102
{ACAD_REACTORS
330
C
102
}
330
C
100
AcDbDictionary
281
     1
  0
DICTIONARY
  5
2A
102
{ACAD_REACTORS
330
C
102
}
330
C
100
AcDbDictionary
281
     1
  3
2dWireframe
350
2F
  3
3D Hidden
350
31
  3
3dWireframe
350
30
  3
Basic
350
32
  3
Brighten
350
36
  3
ColorChange
350
3A
  3
Conceptual
350
34
  3
Dim
350
35
  3
Facepattern
350
39
  3
Flat
350
2B
  3
FlatWithEdges
350
2C
  3
Gouraud
350
2D
  3
GouraudWithEdges
350
2E
  3
Linepattern
350
38
  3
Realistic
350
33
  3
Thicken
350
37
  0
DICTIONARY
  5
16A
102
{ACAD_REACTORS
330
C
102
}
330
C
100
AcDbDictionary
281
     1
  3
CANNOSCALE
350
16B
  3
PSOLHEIGHT
350
16F
  3
PSOLWIDTH
350
16E
  0
LAYOUT
  5
1E
102
{ACAD_REACTORS
330
1A
102
}
330
1A
100
AcDbPlotSettings
  1

  2
none_device
  4

  6

 40
0.0
 41
0.0
 42
0.0
 43
0.0
 44
0.0
 45
0.0
 46
0.0
 47
0.0
 48
0.0
 49
0.0
140
0.0
141
0.0
142
1.0
143
1.0
 70
   688
 72
     0
 73
     0
 74
     5
  7

 75
    16
147
1.0
148
0.0
149
0.0
100
AcDbLayout
  1
Layout1
 70
     1
 71
     1
 10
0.0
 20
0.0
 11
1682.0
 21
2378.0
 12
0.0
 22
0.0
 32
0.0
 14
0.0
 24
0.0
 34
0.0
 15
1682.0
 25
2378.0
 35
0.0
146
0.0
 13
0.0
 23
0.0
 33
0.0
 16
1.0
 26
0.0
 36
0.0
 17
0.0
 27
1.0
 37
0.0
 76
     0
330
1B
  0
LAYOUT
  5
22
102
{ACAD_REACTORS
330
1A
102
}
330
1A
100
AcDbPlotSettings
  1

  2
none_device
  4

  6

 40
0.0
 41
0.0
 42
0.0
 43
0.0
 44
0.0
 45
0.0
 46
0.0
 47
0.0
 48
0.0
 49
0.0
140
0.0
141
0.0
142
1.0
143
1.0
 70
  1712
 72
     0
 73
     0
 74
     0
  7

 75
     0
147
1.0
148
0.0
149
0.0
100
AcDbLayout
  1
Model
 70
     1
 71
     0
 10
0.0
 20
0.0
 11
1682.0
 21
2378.0
 12
0.0
 22
0.0
 32
0.0
 14
0.0
 24
0.0
 34
0.0
 15
1682.0
 25
2378.0
 35
0.0
146
0.0
 13
0.0
 23
0.0
 33
0.0
 16
1.0
 26
0.0
 36
0.0
 17
0.0
 27
1.0
 37
0.0
 76
     0
330
1F
331
29
  0
MLINESTYLE
  5
18
102
{ACAD_REACTORS
330
17
102
}
330
17
100
AcDbMlineStyle
  2
Standard
 70
     0
  3

 62
   256
 51
90.0
 52
90.0
 71
     2
 49
0.5
 62
   256
  6
BYLAYER
 49
-0.5
 62
   256
  6
BYLAYER
  0
ACDBPLACEHOLDER
  5
F
102
{ACAD_REACTORS
330
E
102
}
330
E
  0
SCALE
  5
3C
102
{ACAD_REACTORS
330
3B
102
}
330
3B
100
AcDbScale
 70
     0
300
1:1
140
1.0
141
1.0
290
     1
  0
SCALE
  5
3D
102
{ACAD_REACTORS
330
3B
102
}
330
3B
100
AcDbScale
 70
     0
300
1:2
140
1.0
141
2.0
290
     0
  0
SCALE
  5
3E
102
{ACAD_REACTORS
330
3B
102
}
330
3B
100
AcDbScale
 70
     0
300
1:4
140
1.0
141
4.0
290
     0
  0
SCALE
  5
3F
102
{ACAD_REACTORS
330
3B
102
}
330
3B
100
AcDbScale
 70
     0
300
1:5
140
1.0
141
5.0
290
     0
  0
SCALE
  5
40
102
{ACAD_REACTORS
330
3B
102
}
330
3B
100
AcDbScale
 70
     0
300
1:8
140
1.0
141
8.0
290
     0
  0
SCALE
  5
41
102
{ACAD_REACTORS
330
3B
102
}
330
3B
100
AcDbScale
 70
     0
300
1:10
140
1.0
141
10.0
290
     0
  0
SCALE
  5
42
102
{ACAD_REACTORS
330
3B
102
}
330
3B
100
AcDbScale
 70
     0
300
1:16
140
1.0
141
16.0
290
     0
  0
SCALE
  5
43
102
{ACAD_REACTORS
330
3B
102
}
330
3B
100
AcDbScale
 70
     0
300
1:20
140
1.0
141
20.0
290
     0
  0
SCALE
  5
44
102
{ACAD_REACTORS
330
3B
102
}
330
3B
100
AcDbScale
 70
     0
300
1:30
140
1.0
141
30.0
290
     0
  0
SCALE
  5
45
102
{ACAD_REACTORS
330
3B
102
}
330
3B
100
AcDbScale
 70
     0
300
1:40
140
1.0
141
40.0
290
     0
  0
SCALE
  5
46
102
{ACAD_REACTORS
330
3B
102
}
330
3B
100
AcDbScale
 70
     0
300
1:50
140
1.0
141
50.0
290
     0
  0
SCALE
  5
47
102
{ACAD_REACTORS
330
3B
102
}
330
3B
100
AcDbScale
 70
     0
300
1:100
140
1.0
141
100.0
290
     0
  0
SCALE
  5
48
102
{ACAD_REACTORS
330
3B
102
}
330
3B
100
AcDbScale
 70
     0
300
2:1
140
2.0
141
1.0
290
     0
  0
SCALE
  5
49
102
{ACAD_REACTORS
330
3B
102
}
330
3B
100
AcDbScale
 70
     0
300
4:1
140
4.0
141
1.0
290
     0
  0
SCALE
  5
4A
102
{ACAD_REACTORS
330
3B
102
}
330
3B
100
AcDbScale
 70
     0
300
8:1
140
8.0
141
1.0
290
     0
  0
SCALE
  5
4B
102
{ACAD_REACTORS
330
3B
102
}
330
3B
100
AcDbScale
 70
     0
300
10:1
140
10.0
141
1.0
290
     0
  0
SCALE
  5
4C
102
{ACAD_REACTORS
330
3B
102
}
330
3B
100
AcDbScale
 70
     0
300
100:1
140
100.0
141
1.0
290
     0
  0
SCALE
  5
4D
102
{ACAD_REACTORS
330
3B
102
}
330
3B
100
AcDbScale
 70
     0
300
1/128" = 1'-0"
140
0.0078125
141
12.0
290
     0
  0
SCALE
  5
4E
102
{ACAD_REACTORS
330
3B
102
}
330
3B
100
AcDbScale
 70
     0
300
1/64" = 1'-0"
140
0.015625
141
12.0
290
     0
  0
SCALE
  5
4F
102
{ACAD_REACTORS
330
3B
102
}
330
3B
100
AcDbScale
 70
     0
300
1/32" = 1'-0"
140
0.03125
141
12.0
290
     0
  0
SCALE
  5
50
102
{ACAD_REACTORS
330
3B
102
}
330
3B
100
AcDbScale
 70
     0
300
1/16" = 1'-0"
140
0.0625
141
12.0
290
     0
  0
SCALE
  5
51
102
{ACAD_REACTORS
330
3B
102
}
330
3B
100
AcDbScale
 70
     0
300
3/32" = 1'-0"
140
0.09375
141
12.0
290
     0
  0
SCALE
  5
52
102
{ACAD_REACTORS
330
3B
102
}
330
3B
100
AcDbScale
 70
     0
300
1/8" = 1'-0"
140
0.125
141
12.0
290
     0
  0
SCALE
  5
53
102
{ACAD_REACTORS
330
3B
102
}
330
3B
100
AcDbScale
 70
     0
300
3/16" = 1'-0"
140
0.1875
141
12.0
290
     0
  0
SCALE
  5
54
102
{ACAD_REACTORS
330
3B
102
}
330
3B
100
AcDbScale
 70
     0
300
1/4" = 1'-0"
140
0.25
141
12.0
290
     0
  0
SCALE
  5
55
102
{ACAD_REACTORS
330
3B
102
}
330
3B
100
AcDbScale
 70
     0
300
3/8" = 1'-0"
140
0.375
141
12.0
290
     0
  0
SCALE
  5
56
102
{ACAD_REACTORS
330
3B
102
}
330
3B
100
AcDbScale
 70
     0
300
1/2" = 1'-0"
140
0.5
141
12.0
290
     0
  0
SCALE
  5
57
102
{ACAD_REACTORS
330
3B
102
}
330
3B
100
AcDbScale
 70
     0
300
3/4" = 1'-0"
140
0.75
141
12.0
290
     0
  0
SCALE
  5
58
102
{ACAD_REACTORS
330
3B
102
}
330
3B
100
AcDbScale
 70
     0
300
1" = 1'-0"
140
1.0
141
12.0
290
     0
  0
SCALE
  5
59
102
{ACAD_REACTORS
330
3B
102
}
330
3B
100
AcDbScale
 70
     0
300
1-1/2" = 1'-0"
140
1.5
141
12.0
290
     0
  0
SCALE
  5
5A
102
{ACAD_REACTORS
330
3B
102
}
330
3B
100
AcDbScale
 70
     0
300
3" = 1'-0"
140
3.0
141
12.0
290
     0
  0
SCALE
  5
5B
102
{ACAD_REACTORS
330
3B
102
}
330
3B
100
AcDbScale
 70
     0
300
6" = 1'-0"
140
6.0
141
12.0
290
     0
  0
SCALE
  5
5C
102
{ACAD_REACTORS
330
3B
102
}
330
3B
100
AcDbScale
 70
     0
300
1'-0" = 1'-0"
140
12.0
141
12.0
290
     0
  0
VISUALSTYLE
  5
2F
102
{ACAD_REACTORS
330
2A
102
}
330
2A
100
AcDbVisualStyle
  2
2dWireframe
 70
     4
 71
     0
 72
     2
 73
     0
 90
        0
 40
-0.6
 41
-30.0
 62
     5
 63
     7
 74
     1
 91
        4
 64
     7
 65
   257
 75
     1
175
     1
 42
1.0
 92
        0
 66
   257
 43
1.0
 76
     1
 77
     6
 78
     2
 67
     7
 79
     5
170
     0
171
     0
290
     0
174
     0
 93
        1
 44
0.0
173
     0
291
     0
 45
0.0
1001
ACAD
1000
AcDbSavedByObjectVersion
1070
     0
  0
VISUALSTYLE
  5
31
102
{ACAD_REACTORS
330
2A
102
}
330
2A
100
AcDbVisualStyle
  2
3D Hidden
 70
     6
 71
     1
 72
     2
 73
     2
 90
        0
 40
-0.6
 41
-30.0
 62
     5
 63
     7
 74
     2
 91
        2
 64
     7
 65
   257
 75
     2
175
     1
 42
40.0
 92
        0
 66
   257
 43
1.0
 76
     1
 77
     6
 78
     2
 67
     7
 79
     3
170
     0
171
     0
290
     0
174
     0
 93
        1
 44
0.0
173
     0
291
     0
 45
0.0
1001
ACAD
1000
AcDbSavedByObjectVersion
1070
     0
  0
VISUALSTYLE
  5
30
102
{ACAD_REACTORS
330
2A
102
}
330
2A
100
AcDbVisualStyle
  2
3dWireframe
 70
     5
 71
     0
 72
     2
 73
     0
 90
        0
 40
-0.6
 41
-30.0
 62
     5
 63
     7
 74
     1
 91
        4
 64
     7
 65
   257
 75
     1
175
     1
 42
1.0
 92
        0
 66
   257
 43
1.0
 76
     1
 77
     6
 78
     2
 67
     7
 79
     5
170
     0
171
     0
290
     0
174
     0
 93
        1
 44
0.0
173
     0
291
     0
 45
0.0
1001
ACAD
1000
AcDbSavedByObjectVersion
1070
     0
  0
VISUALSTYLE
  5
32
102
{ACAD_REACTORS
330
2A
102
}
330
2A
100
AcDbVisualStyle
  2
Basic
 70
     7
 71
     1
 72
     0
 73
     1
 90
        0
 40
-0.6
 41
-30.0
 62
     5
 63
     7
 74
     0
 91
        4
 64
     7
 65
   257
 75
     1
175
     1
 42
1.0
 92
        8
 66
     7
 43
1.0
 76
     1
 77
     6
 78
     2
 67
     7
 79
     5
170
     0
171
     0
290
     0
174
     0
 93
        1
 44
0.0
173
     0
291
     1
 45
0.0
1001
ACAD
1000
AcDbSavedByObjectVersion
1070
     0
  0
VISUALSTYLE
  5
36
102
{ACAD_REACTORS
330
2A
102
}
330
2A
100
AcDbVisualStyle
  2
Brighten
 70
    12
 71
     2
 72
     2
 73
     0
 90
        0
 40
-0.6
 41
-30.0
 62
     5
 63
     7
 74
     1
 91
        4
 64
     7
 65
   257
 75
     1
175
     1
 42
1.0
 92
        8
 66
     7
 43
1.0
 76
     1
 77
     6
 78
     2
 67
     7
 79
     5
170
     0
171
     0
290
     0
174
     0
 93
        1
 44
50.0
173
     0
291
     1
 45
0.0
1001
ACAD
1000
AcDbSavedByObjectVersion
1070
     0
  0
VISUALSTYLE
  5
3A
102
{ACAD_REACTORS
330
2A
102
}
330
2A
100
AcDbVisualStyle
  2
ColorChange
 70
    16
 71
     2
 72
     2
 73
     3
 90
        0
 40
-0.6
 41
-30.0
 62
     5
 63
     8
 74
     1
 91
        4
 64
     7
 65
   257
 75
     1
175
     1
 42
1.0
 92
        8
 66
     8
 43
1.0
 76
     1
 77
     6
 78
     2
 67
     7
 79
     5
170
     0
171
     0
290
     0
174
     0
 93
        1
 44
0.0
173
     0
291
     1
 45
0.0
1001
ACAD
1000
AcDbSavedByObjectVersion
1070
     0
  0
VISUALSTYLE
  5
34
102
{ACAD_REACTORS
330
2A
102
}
330
2A
100
AcDbVisualStyle
  2
Conceptual
 70
     9
 71
     3
 72
     2
 73
     0
 90
        0
 40
-0.6
 41
-30.0
 62
     5
 63
     7
 74
     2
 91
        2
 64
     7
 65
   257
 75
     1
175
     1
 42
40.0
 92
        8
 66
     7
 43
1.0
 76
     1
 77
     6
 78
     2
 67
     7
 79
     3
170
     0
171
     0
290
     0
174
     0
 93
        1
 44
0.0
173
     0
291
     0
 45
0.0
1001
ACAD
1000
AcDbSavedByObjectVersion
1070
     0
  0
VISUALSTYLE
  5
35
102
{ACAD_REACTORS
330
2A
102
}
330
2A
100
AcDbVisualStyle
  2
Dim
 70
    11
 71
     2
 72
     2
 73
     0
 90
        0
 40
-0.6
 41
-30.0
 62
     5
 63
     7
 74
     1
 91
        4
 64
     7
 65
   257
 75
     1
175
     1
 42
1.0
 92
        8
 66
     7
 43
1.0
 76
     1
 77
     6
 78
     2
 67
     7
 79
     5
170
     0
171
     0
290
     0
174
     0
 93
        1
 44
-50.0
173
     0
291
     1
 45
0.0
1001
ACAD
1000
AcDbSavedByObjectVersion
1070
     0
  0
VISUALSTYLE
  5
39
102
{ACAD_REACTORS
330
2A
102
}
330
2A
100
AcDbVisualStyle
  2
Facepattern
 70
    15
 71
     2
 72
     2
 73
     0
 90
        0
 40
-0.6
 41
-30.0
 62
     5
 63
     7
 74
     1
 91
        4
 64
     7
 65
   257
 75
     1
175
     1
 42
1.0
 92
        8
 66
     7
 43
1.0
 76
     1
 77
     6
 78
     2
 67
     7
 79
     5
170
     0
171
     0
290
     0
174
     0
 93
        1
 44
0.0
173
     0
291
     1
 45
0.0
1001
ACAD
1000
AcDbSavedByObjectVersion
1070
     0
  0
VISUALSTYLE
  5
2B
102
{ACAD_REACTORS
330
2A
102
}
330
2A
100
AcDbVisualStyle
  2
Flat
 70
     0
 71
     2
 72
     1
 73
     1
 90
        2
 40
-0.6
 41
30.0
 62
     5
 63
     7
 74
     0
 91
        4
 64
     7
 65
   257
 75
     1
175
     1
 42
1.0
 92
        8
 66
     7
 43
1.0
 76
     1
 77
     6
 78
     2
 67
     7
 79
     5
170
     0
171
     0
290
     0
174
     0
 93
       13
 44
0.0
173
     0
291
     1
 45
0.0
1001
ACAD
1000
AcDbSavedByObjectVersion
1070
     0
  0
VISUALSTYLE
  5
2C
102
{ACAD_REACTORS
330
2A
102
}
330
2A
100
AcDbVisualStyle
  2
FlatWithEdges
 70
     1
 71
     2
 72
     1
 73
     1
 90
        2
 40
-0.6
 41
30.0
 62
     5
 63
     7
 74
     1
 91
        4
 64
     7
 65
   257
 75
     1
175
     1
 42
1.0
 92
        0
 66
   257
 43
1.0
 76
     1
 77
     6
 78
     2
 67
     7
 79
     5
170
     0
171
     0
290
     0
174
     0
 93
       13
 44
0.0
173
     0
291
     1
 45
0.0
1001
ACAD
1000
AcDbSavedByObjectVersion
1070
     0
  0
VISUALSTYLE
  5
2D
102
{ACAD_REACTORS
330
2A
102
}
330
2A
100
AcDbVisualStyle
  2
Gouraud
 70
     2
 71
     2
 72
     2
 73
     1
 90
        2
 40
-0.6
 41
30.0
 62
     5
 63
     7
 74
     0
 91
        4
 64
     7
 65
   257
 75
     1
175
     1
 42
1.0
 92
        0
 66
     7
 43
1.0
 76
     1
 77
     6
 78
     2
 67
     7
 79
     5
170
     0
171
     0
290
     0
174
     0
 93
       13
 44
0.0
173
     0
291
     1
 45
0.0
1001
ACAD
1000
AcDbSavedByObjectVersion
1070
     0
  0
VISUALSTYLE
  5
2E
102
{ACAD_REACTORS
330
2A
102
}
330
2A
100
AcDbVisualStyle
  2
GouraudWithEdges
 70
     3
 71
     2
 72
     2
 73
     1
 90
        2
 40
-0.6
 41
30.0
 62
     5
 63
     7
 74
     1
 91
        4
 64
     7
 65
   257
 75
     1
175
     1
 42
1.0
 92
        0
 66
   257
 43
1.0
 76
     1
 77
     6
 78
     2
 67
     7
 79
     5
170
     0
171
     0
290
     0
174
     0
 93
       13
 44
0.0
173
     0
291
     1
 45
0.0
1001
ACAD
1000
AcDbSavedByObjectVersion
1070
     0
  0
VISUALSTYLE
  5
38
102
{ACAD_REACTORS
330
2A
102
}
330
2A
100
AcDbVisualStyle
  2
Linepattern
 70
    14
 71
     2
 72
     2
 73
     0
 90
        0
 40
-0.6
 41
-30.0
 62
     5
 63
     7
 74
     1
 91
        4
 64
     7
 65
   257
 75
     7
175
     7
 42
1.0
 92
        8
 66
     7
 43
1.0
 76
     1
 77
     6
 78
     2
 67
     7
 79
     5
170
     0
171
     0
290
     0
174
     0
 93
        1
 44
0.0
173
     0
291
     1
 45
0.0
1001
ACAD
1000
AcDbSavedByObjectVersion
1070
     0
  0
VISUALSTYLE
  5
33
102
{ACAD_REACTORS
330
2A
102
}
330
2A
100
AcDbVisualStyle
  2
Realistic
 70
     8
 71
     2
 72
     2
 73
     0
 90
        0
 40
-0.6
 41
-30.0
 62
     5
 63
     7
 74
     1
 91
        0
 64
     7
 65
   257
 75
     1
175
     1
 42
1.0
 92
        8
 66
     8
 43
1.0
 76
     1
 77
     6
 78
     2
 67
     7
 79
     5
170
     0
171
     0
290
     0
174
     0
 93
       13
 44
0.0
173
     0
291
     0
 45
0.0
1001
ACAD
1000
AcDbSavedByObjectVersion
1070
     0
  0
VISUALSTYLE
  5
37
102
{ACAD_REACTORS
330
2A
102
}
330
2A
100
AcDbVisualStyle
  2
Thicken
 70
    13
 71
     2
 72
     2
 73
     0
 90
        0
 40
-0.6
 41
-30.0
 62
     5
 63
     7
 74
     1
 91
        4
 64
     7
 65
   257
 75
     1
175
     1
 42
1.0
 92
       12
 66
     7
 43
1.0
 76
     1
 77
     6
 78
     2
 67
     7
 79
     5
170
     0
171
     0
290
     0
174
     0
 93
        1
 44
0.0
173
     0
291
     1
 45
0.0
1001
ACAD
1000
AcDbSavedByObjectVersion
1070
     0
  0
DICTIONARYVAR
  5
16B
102
{ACAD_REACTORS
330
16A
102
}
330
16A
100
DictionaryVariables
280
     0
  1
1:1
  0
DICTIONARYVAR
  5
16F
102
{ACAD_REACTORS
330
16A
102
}
330
16A
100
DictionaryVariables
280
     0
  1
80.000000
  0
DICTIONARYVAR
  5
16E
102
{ACAD_REACTORS
330
16A
102
}
330
16A
100
DictionaryVariables
280
     0
  1
5.000000
  0
ENDSEC
  0
EOF
