  0
SECTION
  2
HEADER
  9
$ACADVER
  1
AC1015
  9
$ACADMAINTVER
 70
     6
  9
$DWGCODEPAGE
  3
ANSI_1252
  9
$INSBASE
 10
0.0
 20
0.0
 30
0.0
  9
$EXTMIN
 10
0.0
 20
0.0
 30
0.0
  9
$EXTMAX
 10
1682.0
 20
2378.0
 30
0.0
  9
$LIMMIN
 10
0.0
 20
0.0
  9
$LIMMAX
 10
1682.0
 20
2378.0
  9
$ORTHOMODE
 70
     0
  9
$REGENMODE
 70
     1
  9
$FILLMODE
 70
     1
  9
$QTEXTMODE
 70
     0
  9
$MIRRTEXT
 70
     1
  9
$LTSCALE
 40
1.0
  9
$ATTMODE
 70
     1
  9
$TEXTSIZE
 40
2.5
  9
$TRACEWID
 40
1.0
  9
$TEXTSTYLE
  7
Standard
  9
$CLAYER
  8
0
  9
$CELTYPE
  6
ByLayer
  9
$CECOLOR
 62
   256
  9
$CELTSCALE
 40
1.0
  9
$DISPSILH
 70
     0
  9
$DIMSCALE
 40
1.0
  9
$DIMASZ
 40
2.5
  9
$DIMEXO
 40
0.625
  9
$DIMDLI
 40
3.75
  9
$DIMRND
 40
0.0
  9
$DIMDLE
 40
0.0
  9
$DIMEXE
 40
1.25
  9
$DIMTP
 40
0.0
  9
$DIMTM
 40
0.0
  9
$DIMTXT
 40
2.5
  9
$DIMCEN
 40
2.5
  9
$DIMTSZ
 40
0.0
  9
$DIMTOL
 70
     0
  9
$DIMLIM
 70
     0
  9
$DIMTIH
 70
     0
  9
$DIMTOH
 70
     0
  9
$DIMSE1
 70
     0
  9
$DIMSE2
 70
     0
  9
$DIMTAD
 70
     1
  9
$DIMZIN
 70
     8
  9
$DIMBLK
  1

  9
$DIMASO
 70
     1
  9
$DIMSHO
 70
     1
  9
$DIMPOST
  1

  9
$DIMAPOST
  1

  9
$DIMALT
 70
     0
  9
$DIMALTD
 70
     3
  9
$DIMALTF
 40
0.0393700787
  9
$DIMLFAC
 40
1.0
  9
$DIMTOFL
 70
     1
  9
$DIMTVP
 40
0.0
  9
$DIMTIX
 70
     0
  9
$DIMSOXD
 70
     0
  9
$DIMSAH
 70
     0
  9
$DIMBLK1
  1

  9
$DIMBLK2
  1

  9
$DIMSTYLE
  2
ISO-25
  9
$DIMCLRD
 70
     0
  9
$DIMCLRE
 70
     0
  9
$DIMCLRT
 70
     0
  9
$DIMTFAC
 40
1.0
  9
$DIMGAP
 40
0.625
  9
$DIMJUST
 70
     0
  9
$DIMSD1
 70
     0
  9
$DIMSD2
 70
     0
  9
$DIMTOLJ
 70
     0
  9
$DIMTZIN
 70
     8
  9
$DIMALTZ
 70
     0
  9
$DIMALTTZ
 70
     0
  9
$DIMUPT
 70
     0
  9
$DIMDEC
 70
     2
  9
$DIMTDEC
 70
     2
  9
$DIMALTU
 70
     2
  9
$DIMALTTD
 70
     3
  9
$DIMTXSTY
  7
Standard
  9
$DIMAUNIT
 70
     0
  9
$DIMADEC
 70
     0
  9
$DIMALTRND
 40
0.0
  9
$DIMAZIN
 70
     0
  9
$DIMDSEP
 70
    44
  9
$DIMATFIT
 70
     3
  9
$DIMFRAC
 70
     0
  9
$DIMLDRBLK
  1

  9
$DIMLUNIT
 70
     2
  9
$DIMLWD
 70
    -2
  9
$DIMLWE
 70
    -2
  9
$DIMTMOVE
 70
     0
  9
$LUNITS
 70
     2
  9
$LUPREC
 70
     4
  9
$SKETCHINC
 40
1.0
  9
$FILLETRAD
 40
10.0
  9
$AUNITS
 70
     0
  9
$AUPREC
 70
     0
  9
$MENU
  1
.
  9
$ELEVATION
 40
0.0
  9
$PELEVATION
 40
0.0
  9
$THICKNESS
 40
0.0
  9
$LIMCHECK
 70
     0
  9
$CHAMFERA
 40
10.0
  9
$CHAMFERB
 40
10.0
  9
$CHAMFERC
 40
20.0
  9
$CHAMFERD
 40
0.0
  9
$SKPOLY
 70
     0
  9
$TDCREATE
 40
2455274.628180197
  9
$TDUCREATE
 40
2455274.58651353
  9
$TDUPDATE
 40
2455274.628180208
  9
$TDUUPDATE
 40
2455274.586513542
  9
$TDINDWG
 40
0.0000000116
  9
$TDUSRTIMER
 40
0.0000000116
  9
$USRTIMER
 70
     1
  9
$ANGBASE
 50
0.0
  9
$ANGDIR
 70
     0
  9
$PDMODE
 70
     0
  9
$PDSIZE
 40
0.0
  9
$PLINEWID
 40
0.0
  9
$SPLFRAME
 70
     0
  9
$SPLINETYPE
 70
     6
  9
$SPLINESEGS
 70
     8
  9
$HANDSEED
  5
151
  9
$SURFTAB1
 70
     6
  9
$SURFTAB2
 70
     6
  9
$SURFTYPE
 70
     6
  9
$SURFU
 70
     6
  9
$SURFV
 70
     6
  9
$UCSBASE
  2

  9
$UCSNAME
  2

  9
$UCSORG
 10
0.0
 20
0.0
 30
0.0
  9
$UCSXDIR
 10
1.0
 20
0.0
 30
0.0
  9
$UCSYDIR
 10
0.0
 20
1.0
 30
0.0
  9
$UCSORTHOREF
  2

  9
$UCSORTHOVIEW
 70
     0
  9
$UCSORGTOP
 10
0.0
 20
0.0
 30
0.0
  9
$UCSORGBOTTOM
 10
0.0
 20
0.0
 30
0.0
  9
$UCSORGLEFT
 10
0.0
 20
0.0
 30
0.0
  9
$UCSORGRIGHT
 10
0.0
 20
0.0
 30
0.0
  9
$UCSORGFRONT
 10
0.0
 20
0.0
 30
0.0
  9
$UCSORGBACK
 10
0.0
 20
0.0
 30
0.0
  9
$PUCSBASE
  2

  9
$PUCSNAME
  2

  9
$PUCSORG
 10
0.0
 20
0.0
 30
0.0
  9
$PUCSXDIR
 10
1.0
 20
0.0
 30
0.0
  9
$PUCSYDIR
 10
0.0
 20
1.0
 30
0.0
  9
$PUCSORTHOREF
  2

  9
$PUCSORTHOVIEW
 70
     0
  9
$PUCSORGTOP
 10
0.0
 20
0.0
 30
0.0
  9
$PUCSORGBOTTOM
 10
0.0
 20
0.0
 30
0.0
  9
$PUCSORGLEFT
 10
0.0
 20
0.0
 30
0.0
  9
$PUCSORGRIGHT
 10
0.0
 20
0.0
 30
0.0
  9
$PUCSORGFRONT
 10
0.0
 20
0.0
 30
0.0
  9
$PUCSORGBACK
 10
0.0
 20
0.0
 30
0.0
  9
$USERI1
 70
     0
  9
$USERI2
 70
     0
  9
$USERI3
 70
     0
  9
$USERI4
 70
     0
  9
$USERI5
 70
     0
  9
$USERR1
 40
0.0
  9
$USERR2
 40
0.0
  9
$USERR3
 40
0.0
  9
$USERR4
 40
0.0
  9
$USERR5
 40
0.0
  9
$WORLDVIEW
 70
     1
  9
$SHADEDGE
 70
     3
  9
$SHADEDIF
 70
    70
  9
$TILEMODE
 70
     1
  9
$MAXACTVP
 70
    64
  9
$PINSBASE
 10
0.0
 20
0.0
 30
0.0
  9
$PLIMCHECK
 70
     0
  9
$PEXTMIN
 10
0.0
 20
0.0
 30
0.0
  9
$PEXTMAX
 10
1682.0
 20
2378.0
 30
0.0
  9
$PLIMMIN
 10
0.0
 20
0.0
  9
$PLIMMAX
 10
1682.0
 20
2378.0
  9
$UNITMODE
 70
     0
  9
$VISRETAIN
 70
     1
  9
$PLINEGEN
 70
     0
  9
$PSLTSCALE
 70
     1
  9
$TREEDEPTH
 70
  3020
  9
$CMLSTYLE
  2
Standard
  9
$CMLJUST
 70
     0
  9
$CMLSCALE
 40
20.0
  9
$PROXYGRAPHICS
 70
     1
  9
$MEASUREMENT
 70
     1
  9
$CELWEIGHT
370
    -1
  9
$ENDCAPS
280
     0
  9
$JOINSTYLE
280
     0
  9
$LWDISPLAY
290
     0
  9
$INSUNITS
 70
     4
  9
$HYPERLINKBASE
  1

  9
$STYLESHEET
  1

  9
$XEDIT
290
     1
  9
$CEPSNTYPE
380
     0
  9
$PSTYLEMODE
290
     1
  9
$FINGERPRINTGUID
  2
{2B9C962E-71D6-4EFC-A1B3-CD3013139F57}
  9
$VERSIONGUID
  2
{FAEB1C32-E019-11D5-929B-00C0DF256EC4}
  9
$EXTNAMES
290
     1
  9
$PSVPSCALE
 40
0.0
  9
$OLESTARTUP
290
     0
  0
ENDSEC
  0
SECTION
  2
CLASSES
  0
CLASS
  1
ACDBDICTIONARYWDFLT
  2
AcDbDictionaryWithDefault
  3
ObjectDBX Classes
 90
        0
280
     0
281
     0
  0
CLASS
  1
VISUALSTYLE
  2
AcDbVisualStyle
  3
ObjectDBX Classes
 90
     4095
280
     0
281
     0
  0
CLASS
  1
SCALE
  2
AcDbScale
  3
ObjectDBX Classes
 90
     1153
280
     0
281
     0
  0
CLASS
  1
DICTIONARYVAR
  2
AcDbDictionaryVar
  3
ObjectDBX Classes
 90
        0
280
     0
281
     0
  0
CLASS
  1
ACDBPLACEHOLDER
  2
AcDbPlaceHolder
  3
ObjectDBX Classes
 90
        0
280
     0
281
     0
  0
CLASS
  1
LAYOUT
  2
AcDbLayout
  3
ObjectDBX Classes
 90
        0
280
     0
281
     0
  0
ENDSEC
  0
SECTION
  2
TABLES
  0
TABLE
  2
VPORT
  5
8
330
0
100
AcDbSymbolTable
 70
     1
  0
VPORT
  5
29
330
8
100
AcDbSymbolTableRecord
100
AcDbViewportTableRecord
  2
*Active
 70
     0
 10
0.0
 20
0.0
 11
1.0
 21
1.0
 12
344.1869158879
 22
148.5
 13
0.0
 23
0.0
 14
10.0
 24
10.0
 15
10.0
 25
10.0
 16
0.0
 26
0.0
 36
1.0
 17
0.0
 27
0.0
 37
0.0
 40
297.0
 41
1.9729729729
 42
50.0
 43
0.0
 44
0.0
 50
0.0
 51
0.0
 71
     0
 72
   100
 73
     1
 74
     3
 75
     0
 76
     0
 77
     0
 78
     0
281
     0
 65
     1
110
0.0
120
0.0
130
0.0
111
1.0
121
0.0
131
0.0
112
0.0
122
1.0
132
0.0
 79
     0
146
0.0
  0
ENDTAB
  0
TABLE
  2
LTYPE
  5
5
330
0
100
AcDbSymbolTable
 70
     2
  0
LTYPE
  5
14
330
5
100
AcDbSymbolTableRecord
100
AcDbLinetypeTableRecord
  2
ByBlock
 70
     0
  3

 72
    65
 73
     0
 40
0.0
  0
LTYPE
  5
15
330
5
100
AcDbSymbolTableRecord
100
AcDbLinetypeTableRecord
  2
ByLayer
 70
     0
  3

 72
    65
 73
     0
 40
0.0
  0
LTYPE
  5
16
330
5
100
AcDbSymbolTableRecord
100
AcDbLinetypeTableRecord
  2
Continuous
 70
     0
  3
Solid line
 72
    65
 73
     0
 40
0.0
  0
LTYPE
  5
C2
330
5
100
AcDbSymbolTableRecord
100
AcDbLinetypeTableRecord
  2
CENTER2
 70
     0
  3
Center (.5x) ___ _ ___ _ ___ _ ___ _ ___ _ ___
 72
    65
 73
     4
 40
28.575
 49
19.05
 74
     4
 75
     0
340
0
 46
0.0
 50
0.0
 44
0.0
 45
0.0
 49
-3.175
 74
     4
 75
     0
340
0
 46
0.0
 50
0.0
 44
0.0
 45
0.0
 49
3.175
 74
     4
 75
     0
340
0
 46
0.0
 50
0.0
 44
0.0
 45
0.0
 49
-3.175
 74
     4
 75
     0
340
0
 46
0.0
 50
0.0
 44
0.0
 45
0.0
  0
ENDTAB
  0
TABLE
  2
LAYER
  5
2
330
0
100
AcDbSymbolTable
 70
    16
  0
LAYER
  5
10
330
2
100
AcDbSymbolTableRecord
100
AcDbLayerTableRecord
  2
0
 70
     0
 62
     7
  6
Continuous
370
    -3
390
F
  0
LAYER
  5
5D
330
2
100
AcDbSymbolTableRecord
100
AcDbLayerTableRecord
  2
Default
 70
     0
 62
     7
  6
Continuous
370
    -3
390
F
  0
LAYER
  5
60
330
2
100
AcDbSymbolTableRecord
100
AcDbLayerTableRecord
  2
$DDT_AUDIT_GENERATED_(60)
 70
     0
 62
     7
  6
Continuous
370
    -3
390
F
  0
LAYER
  5
6D
330
2
100
AcDbSymbolTableRecord
100
AcDbLayerTableRecord
  2
$DDT_AUDIT_GENERATED_(6D)
 70
     0
 62
     7
  6
Continuous
370
    -3
390
F
  0
LAYER
  5
71
330
2
100
AcDbSymbolTableRecord
100
AcDbLayerTableRecord
  2
$DDT_AUDIT_GENERATED_(71)
 70
     0
 62
     7
  6
Continuous
370
    -3
390
F
  0
LAYER
  5
7A
330
2
100
AcDbSymbolTableRecord
100
AcDbLayerTableRecord
  2
$DDT_AUDIT_GENERATED_(7A)
 70
     0
 62
     7
  6
Continuous
370
    -3
390
F
  0
LAYER
  5
7E
330
2
100
AcDbSymbolTableRecord
100
AcDbLayerTableRecord
  2
02303031_AUSL_RO
 70
     0
 62
     7
  6
Continuous
370
    -3
390
F
  0
LAYER
  5
8A
330
2
100
AcDbSymbolTableRecord
100
AcDbLayerTableRecord
  2
$DDT_AUDIT_GENERATED_(8A)
 70
     0
 62
     7
  6
Continuous
370
    -3
390
F
  0
LAYER
  5
93
330
2
100
AcDbSymbolTableRecord
100
AcDbLayerTableRecord
  2
$DDT_AUDIT_GENERATED_(93)
 70
     0
 62
     7
  6
Continuous
370
    -3
390
F
  0
LAYER
  5
A2
330
2
100
AcDbSymbolTableRecord
100
AcDbLayerTableRecord
  2
$DDT_AUDIT_GENERATED_(A2)
 70
     0
 62
     7
  6
Continuous
370
    -3
390
F
  0
LAYER
  5
BE
330
2
100
AcDbSymbolTableRecord
100
AcDbLayerTableRecord
  2
$DDT_AUDIT_GENERATED_(BE)
 70
     0
 62
     7
  6
Continuous
370
    -3
390
F
  0
LAYER
  5
C1
330
2
100
AcDbSymbolTableRecord
100
AcDbLayerTableRecord
  2
DV1_Standard
 70
     0
 62
     7
  6
Continuous
370
    -3
390
F
  0
LAYER
  5
E7
330
2
100
AcDbSymbolTableRecord
100
AcDbLayerTableRecord
  2
$DDT_AUDIT_GENERATED_(E7)
 70
     0
 62
     7
  6
Continuous
370
    -3
390
F
  0
LAYER
  5
F1
330
2
100
AcDbSymbolTableRecord
100
AcDbLayerTableRecord
  2
$DDT_AUDIT_GENERATED_(F1)
 70
     0
 62
     7
  6
Continuous
370
    -3
390
F
  0
LAYER
  5
F6
330
2
100
AcDbSymbolTableRecord
100
AcDbLayerTableRecord
  2
DV2_Standard
 70
     0
 62
     7
  6
Continuous
370
    -3
390
F
  0
LAYER
  5
13C
330
2
100
AcDbSymbolTableRecord
100
AcDbLayerTableRecord
  2
$DDT_AUDIT_GENERATED_(13C)
 70
     0
 62
     7
  6
Continuous
370
    -3
390
F
  0
ENDTAB
  0
TABLE
  2
STYLE
  5
3
330
0
100
AcDbSymbolTable
 70
     2
  0
STYLE
  5
11
330
3
100
AcDbSymbolTableRecord
100
AcDbTextStyleTableRecord
  2
Standard
 70
     0
 40
0.0
 41
1.0
 50
0.0
 71
     0
 42
2.5
  3
txt
  4

  0
STYLE
  5
140
330
3
100
AcDbSymbolTableRecord
100
AcDbTextStyleTableRecord
  2
SEACAD_seiso_ttf
 70
     0
 40
0.0
 41
1.0
 50
0.0
 71
     0
 42
0.2
  3
seiso.ttf
  4

  0
ENDTAB
  0
TABLE
  2
VIEW
  5
6
330
0
100
AcDbSymbolTable
 70
     0
  0
ENDTAB
  0
TABLE
  2
UCS
  5
7
330
0
100
AcDbSymbolTable
 70
     0
  0
ENDTAB
  0
TABLE
  2
APPID
  5
9
330
0
100
AcDbSymbolTable
 70
     1
  0
APPID
  5
12
330
9
100
AcDbSymbolTableRecord
100
AcDbRegAppTableRecord
  2
ACAD
 70
     0
  0
ENDTAB
  0
TABLE
  2
DIMSTYLE
  5
A
330
0
100
AcDbSymbolTable
 70
     1
100
AcDbDimStyleTable
  0
DIMSTYLE
105
27
330
A
100
AcDbSymbolTableRecord
100
AcDbDimStyleTableRecord
  2
ISO-25
 70
     0
 41
2.5
 42
0.625
 43
3.75
 44
1.25
 73
     0
 74
     0
 77
     1
 78
     8
140
2.5
141
2.5
143
0.0393700787
147
0.625
171
     3
172
     1
271
     2
272
     2
274
     3
278
    44
283
     0
284
     8
340
11
  0
ENDTAB
  0
TABLE
  2
BLOCK_RECORD
  5
1
330
0
100
AcDbSymbolTable
 70
     4
  0
BLOCK_RECORD
  5
1F
330
1
100
AcDbSymbolTableRecord
100
AcDbBlockTableRecord
  2
*Model_Space
340
22
  0
BLOCK_RECORD
  5
1B
330
1
100
AcDbSymbolTableRecord
100
AcDbBlockTableRecord
  2
*Paper_Space
340
1E
  0
BLOCK_RECORD
  5
5E
330
1
100
AcDbSymbolTableRecord
100
AcDbBlockTableRecord
  2
SE
340
0
102
{BLKREFS
331
5F
102
}
  0
BLOCK_RECORD
  5
C7
330
1
100
AcDbSymbolTableRecord
100
AcDbBlockTableRecord
  2
SE1
340
0
102
{BLKREFS
331
C8
102
}
  0
BLOCK_RECORD
  5
FB
330
1
100
AcDbSymbolTableRecord
100
AcDbBlockTableRecord
  2
SE2
340
0
102
{BLKREFS
331
FC
102
}
  0
ENDTAB
  0
ENDSEC
  0
SECTION
  2
BLOCKS
  0
BLOCK
  5
20
330
1F
100
AcDbEntity
  8
0
100
AcDbBlockBegin
  2
*Model_Space
 70
     0
 10
0.0
 20
0.0
 30
0.0
  3
*Model_Space
  1

  0
ENDBLK
  5
21
330
1F
100
AcDbEntity
  8
0
100
AcDbBlockEnd
  0
BLOCK
  5
1C
330
1B
100
AcDbEntity
 67
     1
  8
0
100
AcDbBlockBegin
  2
*Paper_Space
 70
     0
 10
0.0
 20
0.0
 30
0.0
  3
*Paper_Space
  1

  0
ENDBLK
  5
1D
330
1B
100
AcDbEntity
 67
     1
  8
0
100
AcDbBlockEnd
  0
BLOCK
  5
C5
330
5E
100
AcDbEntity
  8
0
100
AcDbBlockBegin
  2
SE
 70
     0
 10
0.0
 20
0.0
 30
0.0
  3
SE
  1

  0
LINE
  5
61
330
5E
100
AcDbEntity
  8
$DDT_AUDIT_GENERATED_(60)
  6
Continuous
 62
     7
100
AcDbLine
 10
87.8440072532
 20
633.4008084137
 30
0.0
 11
87.8440072532
 21
582.4008084137
 31
0.0
  0
SPLINE
  5
62
330
5E
100
AcDbEntity
  8
$DDT_AUDIT_GENERATED_(60)
  6
Continuous
 62
     7
100
AcDbSpline
210
0.0
220
0.0
230
1.0
 70
     8
 71
     3
 72
    34
 73
    30
 74
     0
 42
0.0000000001250112
 43
0.0000000001
 40
0.5003300637028508
 40
0.5003300637028508
 40
0.5003300637028508
 40
0.5003300637028508
 40
0.5312499999999989
 40
0.5312499999999989
 40
0.562499999999999
 40
0.562499999999999
 40
0.624999999999999
 40
0.624999999999999
 40
0.656249999999999
 40
0.656249999999999
 40
0.6874999999999991
 40
0.6874999999999991
 40
0.7187499999999991
 40
0.7187499999999991
 40
0.7499999999999992
 40
0.7499999999999992
 40
0.7812499999999993
 40
0.7812499999999993
 40
0.8124999999999996
 40
0.8124999999999996
 40
0.8749999999999997
 40
0.8749999999999997
 40
0.9062499999999997
 40
0.9062499999999997
 40
0.9374999999999998
 40
0.9374999999999998
 40
0.9687499999999998
 40
0.9687499999999998
 40
1.0
 40
1.0
 40
1.0
 40
1.0
 10
61.14400638252844
 20
581.9008091749629
 30
0.0
 10
61.14395336556162
 20
581.9008556624555
 30
0.0
 10
61.01884499001575
 20
581.9888657857726
 30
0.0
 10
60.52811710015599
 20
582.3287677143513
 30
0.0
 10
60.16564574841439
 20
582.5784468340603
 30
0.0
 10
58.74961006317763
 20
583.5269344041536
 30
0.0
 10
57.40011551350226
 20
584.407411642637
 30
0.0
 10
54.95463771011133
 20
585.7972928466356
 30
0.0
 10
54.07243160581201
 20
586.269875530043
 30
0.0
 10
52.15827355159796
 20
587.1895039578405
 30
0.0
 10
51.12862575774103
 20
587.634334112392
 30
0.0
 10
48.96804210935874
 20
588.4064246971282
 30
0.0
 10
47.81465498874221
 20
588.7408748086866
 30
0.0
 10
45.41952382505702
 20
589.2056745901001
 30
0.0
 10
44.19586372765817
 20
589.3331996337124
 30
0.0
 10
41.68903398839603
 20
589.3329892345569
 30
0.0
 10
40.46166867928127
 20
589.2046496334749
 30
0.0
 10
38.07032618514122
 20
588.739986001995
 30
0.0
 10
36.91402770681601
 20
588.4045502685929
 30
0.0
 10
33.6751177438085
 20
587.2463651613131
 30
0.0
 10
31.7436408057163
 20
586.2580522661005
 30
0.0
 10
29.29789057815682
 20
584.8676438116798
 30
0.0
 10
28.54775227012599
 20
584.4113516351413
 30
0.0
 10
27.24116490360305
 20
583.5886369748857
 30
0.0
 10
26.67653597603031
 20
583.2174364412128
 30
0.0
 10
25.7369308473139
 20
582.5883271323921
 30
0.0
 10
25.36457007182658
 20
582.331977988704
 30
0.0
 10
24.87233001701456
 20
581.991080591564
 30
0.0
 10
24.7440072531904
 20
581.9008084137445
 30
0.0
 10
24.74400725319041
 20
581.9008084137445
 30
0.0
  0
ARC
  5
63
330
5E
100
AcDbEntity
  8
$DDT_AUDIT_GENERATED_(60)
  6
Continuous
 62
     7
100
AcDbCircle
 10
42.9440075484
 20
655.9563386137
 30
0.0
 40
25.88530322634086
100
AcDbArc
 50
238.4351677547
 51
301.5648318117
  0
ARC
  5
64
330
5E
100
AcDbEntity
  8
$DDT_AUDIT_GENERATED_(60)
  6
Continuous
 62
     7
100
AcDbCircle
 10
115.5040072532
 20
607.9008084137
 30
0.0
 40
100.0
100
AcDbArc
 50
165.1504721945
 51
194.8495278055
  0
ARC
  5
65
330
5E
100
AcDbEntity
  8
$DDT_AUDIT_GENERATED_(60)
  6
Continuous
 62
     7
100
AcDbCircle
 10
87.3440072532
 20
582.4008084137
 30
0.0
 40
0.5000000000000004
100
AcDbArc
 50
270.0
 51
0.0
  0
ARC
  5
66
330
5E
100
AcDbEntity
  8
$DDT_AUDIT_GENERATED_(60)
  6
Continuous
 62
     7
100
AcDbCircle
 10
87.3440072532
 20
633.4008084137
 30
0.0
 40
0.5000000000000004
100
AcDbArc
 50
0.0
 51
90.0
  0
ARC
  5
67
330
5E
100
AcDbEntity
  8
$DDT_AUDIT_GENERATED_(60)
  6
Continuous
 62
     7
100
AcDbCircle
 10
19.3270869448
 20
633.4008084137
 30
0.0
 40
0.5000000000000004
100
AcDbArc
 50
90.0
 51
165.1504721945
  0
ARC
  5
68
330
5E
100
AcDbEntity
  8
$DDT_AUDIT_GENERATED_(60)
  6
Continuous
 62
     7
100
AcDbCircle
 10
19.3270869448
 20
582.4008084137
 30
0.0
 40
0.49999999999999
100
AcDbArc
 50
194.8495278055
 51
270.0
  0
LINE
  5
69
330
5E
100
AcDbEntity
  8
$DDT_AUDIT_GENERATED_(60)
  6
Continuous
 62
     7
100
AcDbLine
 10
29.4055694982
 20
633.9008084137
 30
0.0
 11
19.3270869448
 21
633.9008084137
 31
0.0
  0
LINE
  5
6A
330
5E
100
AcDbEntity
  8
$DDT_AUDIT_GENERATED_(60)
  6
Continuous
 62
     7
100
AcDbLine
 10
87.3440072532
 20
633.9008084137
 30
0.0
 11
56.482577556
 21
633.9008084137
 31
0.0
  0
LINE
  5
6B
330
5E
100
AcDbEntity
  8
$DDT_AUDIT_GENERATED_(60)
  6
Continuous
 62
     7
100
AcDbLine
 10
61.143360794
 20
581.9008084137
 30
0.0
 11
87.3440072532
 21
581.9008084137
 31
0.0
  0
LINE
  5
6C
330
5E
100
AcDbEntity
  8
$DDT_AUDIT_GENERATED_(60)
  6
Continuous
 62
     7
100
AcDbLine
 10
19.3270869448
 20
581.9008084137
 30
0.0
 11
24.7440072532
 21
581.9008084137
 31
0.0
  0
LINE
  5
6E
330
5E
100
AcDbEntity
  8
$DDT_AUDIT_GENERATED_(6D)
  6
Continuous
 62
     7
100
AcDbLine
 10
24.9440072532
 20
524.2008084137
 30
0.0
 11
60.9440072532
 21
524.2008084137
 31
0.0
  0
LINE
  5
6F
330
5E
100
AcDbEntity
  8
$DDT_AUDIT_GENERATED_(6D)
  6
Continuous
 62
     7
100
AcDbLine
 10
24.9440072532
 20
582.0403471363
 30
0.0
 11
24.9440072532
 21
524.2008084137
 31
0.0
  0
LINE
  5
70
330
5E
100
AcDbEntity
  8
$DDT_AUDIT_GENERATED_(6D)
  6
Continuous
 62
     7
100
AcDbLine
 10
60.9440072532
 20
524.2008084137
 30
0.0
 11
60.9440072532
 21
582.0404088003
 31
0.0
  0
LINE
  5
72
330
5E
100
AcDbEntity
  8
$DDT_AUDIT_GENERATED_(71)
  6
Continuous
 62
     7
100
AcDbLine
 10
15.9440072532
 20
519.7008084137
 30
0.0
 11
69.9440072532
 21
519.7008084137
 31
0.0
  0
LINE
  5
73
330
5E
100
AcDbEntity
  8
$DDT_AUDIT_GENERATED_(71)
  6
Continuous
 62
     7
100
AcDbLine
 10
24.9440072532
 20
524.2008084137
 30
0.0
 11
60.9440072532
 21
524.2008084137
 31
0.0
  0
LINE
  5
74
330
5E
100
AcDbEntity
  8
$DDT_AUDIT_GENERATED_(71)
  6
Continuous
 62
     7
100
AcDbLine
 10
15.9440072532
 20
522.5818269852
 30
0.0
 11
15.9440072532
 21
519.7008084137
 31
0.0
  0
LINE
  5
75
330
5E
100
AcDbEntity
  8
$DDT_AUDIT_GENERATED_(71)
  6
Continuous
 62
     7
100
AcDbLine
 10
69.9440072532
 20
519.7008084137
 30
0.0
 11
69.9440072532
 21
522.5818269852
 31
0.0
  0
ARC
  5
76
330
5E
100
AcDbEntity
  8
$DDT_AUDIT_GENERATED_(71)
  6
Continuous
 62
     7
100
AcDbCircle
 10
33.6467527663
 20
424.5802170657
 30
0.0
 40
100.0
100
AcDbArc
 50
94.9926216254
 51
99.9560038527
  0
ARC
  5
77
330
5E
100
AcDbEntity
  8
$DDT_AUDIT_GENERATED_(71)
  6
Continuous
 62
     7
100
AcDbCircle
 10
52.2412617401
 20
424.5802170657
 30
0.0
 40
100.0
100
AcDbArc
 50
80.0439961473
 51
85.0073783746
  0
ARC
  5
78
330
5E
100
AcDbEntity
  8
$DDT_AUDIT_GENERATED_(71)
  6
Continuous
 62
     7
100
AcDbCircle
 10
69.4440072532
 20
522.5818269852
 30
0.0
 40
0.5000000000000004
100
AcDbArc
 50
0.0
 51
80.0439961473
  0
ARC
  5
79
330
5E
100
AcDbEntity
  8
$DDT_AUDIT_GENERATED_(71)
  6
Continuous
 62
     7
100
AcDbCircle
 10
16.4440072532
 20
522.5818269852
 30
0.0
 40
0.5000000000000148
100
AcDbArc
 50
99.9560038527
 51
180.0
  0
LINE
  5
7B
330
5E
100
AcDbEntity
  8
$DDT_AUDIT_GENERATED_(7A)
  6
Continuous
 62
     7
100
AcDbLine
 10
29.4440072532
 20
649.9008084137
 30
0.0
 11
56.4440072532
 21
649.9008084137
 31
0.0
  0
LINE
  5
7C
330
5E
100
AcDbEntity
  8
$DDT_AUDIT_GENERATED_(7A)
  6
Continuous
 62
     7
100
AcDbLine
 10
29.4440072532
 20
649.9008084137
 30
0.0
 11
29.4440072532
 21
633.8881268281
 31
0.0
  0
LINE
  5
7D
330
5E
100
AcDbEntity
  8
$DDT_AUDIT_GENERATED_(7A)
  6
Continuous
 62
     7
100
AcDbLine
 10
56.4440072532
 20
633.8748827633
 30
0.0
 11
56.4440072532
 21
649.9008084137
 31
0.0
  0
ARC
  5
7F
330
5E
100
AcDbEntity
  8
02303031_AUSL_RO
  6
Continuous
 62
     7
100
AcDbCircle
 10
42.9440072532
 20
816.9008084137
 30
0.0
 40
11.5
100
AcDbArc
 50
0.0
 51
180.0
  0
LINE
  5
80
330
5E
100
AcDbEntity
  8
02303031_AUSL_RO
  6
Continuous
 62
     7
100
AcDbLine
 10
31.4440072532
 20
776.9008084137
 30
0.0
 11
31.4440072532
 21
756.9008084137
 31
0.0
  0
LINE
  5
81
330
5E
100
AcDbEntity
  8
02303031_AUSL_RO
  6
Continuous
 62
     7
100
AcDbLine
 10
54.4440072532
 20
756.9008084137
 30
0.0
 11
54.4440072532
 21
776.9008084137
 31
0.0
  0
LINE
  5
82
330
5E
100
AcDbEntity
  8
02303031_AUSL_RO
  6
Continuous
 62
     7
100
AcDbLine
 10
54.4440072532
 20
776.9008084137
 30
0.0
 11
54.4440072532
 21
816.9008084137
 31
0.0
  0
LINE
  5
83
330
5E
100
AcDbEntity
  8
02303031_AUSL_RO
  6
Continuous
 62
     7
100
AcDbLine
 10
31.4440072532
 20
816.9008084137
 30
0.0
 11
31.4440072532
 21
776.9008084137
 31
0.0
  0
LINE
  5
84
330
5E
100
AcDbEntity
  8
02303031_AUSL_RO
  6
Continuous
 62
     7
100
AcDbLine
 10
54.4440072532
 20
649.9008084137
 30
0.0
 11
54.4440072532
 21
744.1453710603
 31
0.0
  0
LINE
  5
85
330
5E
100
AcDbEntity
  8
02303031_AUSL_RO
  6
Continuous
 62
     7
100
AcDbLine
 10
54.4440072532
 20
755.2508084137
 30
0.0
 11
54.4440072532
 21
756.9008084137
 31
0.0
  0
LINE
  5
86
330
5E
100
AcDbEntity
  8
02303031_AUSL_RO
  6
Continuous
 62
     7
100
AcDbLine
 10
31.4440072532
 20
756.9008084137
 30
0.0
 11
31.4440072532
 21
755.2508084137
 31
0.0
  0
LINE
  5
87
330
5E
100
AcDbEntity
  8
02303031_AUSL_RO
  6
Continuous
 62
     7
100
AcDbLine
 10
31.4440072532
 20
744.1453710603
 30
0.0
 11
31.4440072532
 21
649.9008084137
 31
0.0
  0
LINE
  5
88
330
5E
100
AcDbEntity
  8
02303031_AUSL_RO
  6
Continuous
 62
     7
100
AcDbLine
 10
53.9440072532
 20
755.4008084137
 30
0.0
 11
53.9440072532
 21
755.5779327582
 31
0.0
  0
LINE
  5
89
330
5E
100
AcDbEntity
  8
02303031_AUSL_RO
  6
Continuous
 62
     7
100
AcDbLine
 10
31.9440072532
 20
755.5779327582
 30
0.0
 11
31.9440072532
 21
755.4008084137
 31
0.0
  0
LINE
  5
8B
330
5E
100
AcDbEntity
  8
$DDT_AUDIT_GENERATED_(8A)
  6
Continuous
 62
     7
100
AcDbLine
 10
32.4440072532
 20
738.4008084137
 30
0.0
 11
53.4440072532
 21
738.4008084137
 31
0.0
  0
LINE
  5
8C
330
5E
100
AcDbEntity
  8
$DDT_AUDIT_GENERATED_(8A)
  6
Continuous
 62
     7
100
AcDbLine
 10
54.2940072532
 20
755.4008084137
 30
0.0
 11
31.5940072532
 21
755.4008084137
 31
0.0
  0
ARC
  5
8D
330
5E
100
AcDbEntity
  8
$DDT_AUDIT_GENERATED_(8A)
  6
Continuous
 62
     7
100
AcDbCircle
 10
48.4440072532
 20
744.1453710603
 30
0.0
 40
16.99999999999981
100
AcDbArc
 50
180.0
 51
199.7499227956
  0
ARC
  5
8E
330
5E
100
AcDbEntity
  8
$DDT_AUDIT_GENERATED_(8A)
  6
Continuous
 62
     7
100
AcDbCircle
 10
37.4440072532
 20
744.1453710603
 30
0.0
 40
16.99999999999981
100
AcDbArc
 50
340.2500772044
 51
0.0
  0
LINE
  5
8F
330
5E
100
AcDbEntity
  8
$DDT_AUDIT_GENERATED_(8A)
  6
Continuous
 62
     7
100
AcDbLine
 10
54.4440072532
 20
744.1453710603
 30
0.0
 11
54.4440072532
 21
755.2508084137
 31
0.0
  0
LINE
  5
90
330
5E
100
AcDbEntity
  8
$DDT_AUDIT_GENERATED_(8A)
  6
Continuous
 62
     7
100
AcDbLine
 10
31.4440072532
 20
755.2508084137
 30
0.0
 11
31.4440072532
 21
744.1453710603
 31
0.0
  0
ARC
  5
91
330
5E
100
AcDbEntity
  8
$DDT_AUDIT_GENERATED_(8A)
  6
Continuous
 62
     7
100
AcDbCircle
 10
54.2940072532
 20
755.2508084137
 30
0.0
 40
0.1500000000000008
100
AcDbArc
 50
0.0
 51
90.0
  0
ARC
  5
92
330
5E
100
AcDbEntity
  8
$DDT_AUDIT_GENERATED_(8A)
  6
Continuous
 62
     7
100
AcDbCircle
 10
31.5940072532
 20
755.2508084137
 30
0.0
 40
0.1499999999999835
100
AcDbArc
 50
90.0
 51
180.0
  0
LINE
  5
94
330
5E
100
AcDbEntity
  8
$DDT_AUDIT_GENERATED_(93)
  6
Continuous
 62
     7
100
AcDbLine
 10
124.4440072532
 20
592.7378211503
 30
0.0
 11
124.4440072532
 21
593.8092232313
 31
0.0
  0
LINE
  5
95
330
5E
100
AcDbEntity
  8
$DDT_AUDIT_GENERATED_(93)
  6
Continuous
 62
     7
100
AcDbLine
 10
111.1440072532
 20
633.2018269983
 30
0.0
 11
111.1440072532
 21
582.5997898292
 31
0.0
  0
SPLINE
  5
96
330
5E
100
AcDbEntity
  8
$DDT_AUDIT_GENERATED_(93)
  6
Continuous
 62
     7
100
AcDbSpline
210
0.0
220
0.0
230
1.0
 70
    12
 71
     2
 72
     6
 73
     3
 74
     0
 42
0.0000000404085156
 43
0.0000000001
 40
0.0
 40
0.0
 40
0.0
 40
1.0
 40
1.0
 40
1.0
 10
124.4440072531904
 20
592.7378211502751
 30
0.0
 41
1.0
 10
124.3641858989793
 20
592.643301705099
 30
0.0
 41
1.0
 10
124.2833799654891
 20
592.5495660700475
 30
0.0
 41
1.0
  0
LINE
  5
97
330
5E
100
AcDbEntity
  8
$DDT_AUDIT_GENERATED_(93)
  6
Continuous
 62
     7
100
AcDbLine
 10
124.2833799655
 20
592.54956607
 30
0.0
 11
124.2833799655
 21
591.9008084137
 31
0.0
  0
LINE
  5
98
330
5E
100
AcDbEntity
  8
$DDT_AUDIT_GENERATED_(93)
  6
Continuous
 62
     7
100
AcDbLine
 10
87.8440072532
 20
582.4008084137
 30
0.0
 11
87.8440072532
 21
633.4008084137
 31
0.0
  0
LINE
  5
99
330
5E
100
AcDbEntity
  8
$DDT_AUDIT_GENERATED_(93)
  6
Continuous
 62
     7
100
AcDbLine
 10
88.3439882167
 20
633.8964453698
 30
0.0
 11
88.3439882167
 21
581.9051714577
 31
0.0
  0
ARC
  5
9A
330
5E
100
AcDbEntity
  8
$DDT_AUDIT_GENERATED_(93)
  6
Continuous
 62
     7
100
AcDbCircle
 10
105.0740072532
 20
607.9008084137
 30
0.0
 40
25.00000000000012
100
AcDbArc
 50
73.3749131307
 51
75.9481422426
  0
ARC
  5
9B
330
5E
100
AcDbEntity
  8
$DDT_AUDIT_GENERATED_(93)
  6
Continuous
 62
     7
100
AcDbCircle
 10
105.0740072532
 20
607.9008084137
 30
0.0
 40
25.00000000000011
100
AcDbArc
 50
284.0518577574
 51
320.2081805004
  0
LINE
  5
9C
330
5E
100
AcDbEntity
  8
$DDT_AUDIT_GENERATED_(93)
  6
Continuous
 62
     7
100
AcDbLine
 10
88.3439882167
 20
581.9051714577
 30
0.0
 11
110.6483702971
 21
582.0998088657
 31
0.0
  0
LINE
  5
9D
330
5E
100
AcDbEntity
  8
$DDT_AUDIT_GENERATED_(93)
  6
Continuous
 62
     7
100
AcDbLine
 10
110.6483702971
 20
633.7018079618
 30
0.0
 11
88.3439882167
 21
633.8964453698
 31
0.0
  0
ARC
  5
9E
330
5E
100
AcDbEntity
  8
$DDT_AUDIT_GENERATED_(93)
  6
Continuous
 62
     7
100
AcDbCircle
 10
110.6440072532
 20
633.2018269983
 30
0.0
 40
0.5000000000000004
100
AcDbArc
 50
0.0
 51
89.500025649
  0
ARC
  5
9F
330
5E
100
AcDbEntity
  8
$DDT_AUDIT_GENERATED_(93)
  6
Continuous
 62
     7
100
AcDbCircle
 10
110.6440072532
 20
582.5997898292
 30
0.0
 40
0.4999999999999922
100
AcDbArc
 50
270.499974351
 51
0.0
  0
LINE
  5
A0
330
5E
100
AcDbEntity
  8
$DDT_AUDIT_GENERATED_(93)
  6
Continuous
 62
     7
100
AcDbLine
 10
88.3439882167
 20
633.8964453698
 30
0.0
 11
87.8440072532
 21
633.4008084137
 31
0.0
  0
LINE
  5
A1
330
5E
100
AcDbEntity
  8
$DDT_AUDIT_GENERATED_(93)
  6
Continuous
 62
     7
100
AcDbLine
 10
87.8440072532
 20
582.4008084137
 30
0.0
 11
88.3439882167
 21
581.9051714577
 31
0.0
  0
ARC
  5
A3
330
5E
100
AcDbEntity
  8
$DDT_AUDIT_GENERATED_(A2)
  6
Continuous
 62
     7
100
AcDbCircle
 10
363.8578533813
 20
634.4848911563
 30
0.0
 40
228.2748081443169
100
AcDbArc
 50
180.044192841
 51
182.8253026518
  0
ARC
  5
A4
330
5E
100
AcDbEntity
  8
$DDT_AUDIT_GENERATED_(A2)
  6
Continuous
 62
     7
100
AcDbCircle
 10
137.7837859767
 20
660.6570543869
 30
0.0
 40
26.43997721682879
100
AcDbArc
 50
265.2255894535
 51
277.0046049336
  0
ARC
  5
A5
330
5E
100
AcDbEntity
  8
$DDT_AUDIT_GENERATED_(A2)
  6
Continuous
 62
     7
100
AcDbCircle
 10
142.8918555924
 20
633.7490677945
 30
0.0
 40
0.4994741676346816
100
AcDbArc
 50
16.0203349729
 51
85.0369489162
  0
SPLINE
  5
A6
330
5E
100
AcDbEntity
  8
$DDT_AUDIT_GENERATED_(A2)
  6
Continuous
 62
     7
100
AcDbSpline
210
0.0
220
0.0
230
1.0
 70
    12
 71
     3
 72
     8
 73
     4
 74
     0
 42
0.0000000156023001
 43
0.0000000001
 40
0.0
 40
0.0
 40
0.0
 40
0.0
 40
1.0
 40
1.0
 40
1.0
 40
1.0
 10
143.3719576300037
 20
633.8859364779968
 30
0.0
 41
1.113456490516337
 10
143.3131815351052
 20
634.0900727789162
 30
0.0
 41
0.9740574968076379
 10
143.1491246471601
 20
634.2269375527203
 30
0.0
 41
0.9631135568285436
 10
142.9351035187031
 20
634.2458031435411
 30
0.0
 41
1.080624670579054
  0
LINE
  5
A7
330
5E
100
AcDbEntity
  8
$DDT_AUDIT_GENERATED_(A2)
  6
Continuous
 62
     7
100
AcDbLine
 10
133.862924398
 20
699.5181586097
 30
0.0
 11
129.3578033518
 21
699.3214607709
 31
0.0
  0
SPLINE
  5
A8
330
5E
100
AcDbEntity
  8
$DDT_AUDIT_GENERATED_(A2)
  6
Continuous
 62
     7
100
AcDbSpline
210
0.0
220
0.0
230
1.0
 70
    12
 71
     3
 72
     8
 73
     4
 74
     0
 42
0.0000000115416441
 43
0.0000000001
 40
0.0
 40
0.0
 40
0.0
 40
0.0
 40
1.0
 40
1.0
 40
1.0
 40
1.0
 10
138.8763070675822
 20
699.0706163511627
 30
0.0
 41
1.163242404995534
 10
138.8686814267333
 20
699.3597463255785
 30
0.0
 41
0.9428760857259246
 10
138.6605425794834
 20
699.5599695139348
 30
0.0
 41
0.9456196011974826
 10
138.372165702345
 20
699.5575101564517
 30
0.0
 41
1.171472951410208
  0
LINE
  5
A9
330
5E
100
AcDbEntity
  8
$DDT_AUDIT_GENERATED_(A2)
  6
Continuous
 62
     7
100
AcDbLine
 10
138.3721657023
 20
699.5575101565
 30
0.0
 11
133.862924398
 21
699.5181586097
 31
0.0
  0
SPLINE
  5
AA
330
5E
100
AcDbEntity
  8
$DDT_AUDIT_GENERATED_(A2)
  6
Continuous
 62
     7
100
AcDbSpline
210
0.0
220
0.0
230
1.0
 70
    12
 71
     3
 72
     8
 73
     4
 74
     0
 42
0.0000000115397766
 43
0.0000000001
 40
0.0
 40
0.0
 40
0.0
 40
0.0
 40
1.0
 40
1.0
 40
1.0
 40
1.0
 10
130.5463322137988
 20
635.1659540727812
 30
0.0
 41
1.167371657067465
 10
130.5538935772508
 20
634.8771970865124
 30
0.0
 41
0.9442094510680739
 10
130.3568942855109
 20
634.6659412019844
 30
0.0
 41
0.944209447644345
 10
130.0683132478894
 20
634.6533414861797
 30
0.0
 41
1.167371646796279
  0
SPLINE
  5
AB
330
5E
100
AcDbEntity
  8
$DDT_AUDIT_GENERATED_(A2)
  6
Continuous
 62
     7
100
AcDbSpline
210
0.0
220
0.0
230
1.0
 70
    12
 71
     3
 72
     8
 73
     4
 74
     0
 42
0.0000000115416441
 43
0.0000000001
 40
0.0
 40
0.0
 40
0.0
 40
0.0
 40
1.0
 40
1.0
 40
1.0
 40
1.0
 10
128.87983494772
 20
698.8088495162634
 30
0.0
 41
1.163242404999177
 10
128.8723182442
 20
699.0979823433055
 30
0.0
 41
0.9428760857258672
 10
129.0696929723688
 20
699.3088242783452
 30
0.0
 41
0.9456196011963411
 10
129.3578033518487
 20
699.3214607709454
 30
0.0
 41
1.171472951410599
  0
ARC
  5
AC
330
5E
100
AcDbEntity
  8
$DDT_AUDIT_GENERATED_(A2)
  6
Continuous
 62
     7
100
AcDbCircle
 10
130.0510351521
 20
635.1520614378
 30
0.0
 40
0.4999987688226518
100
AcDbArc
 50
272.5515247176
 51
1.4988821828
  0
LINE
  5
AD
330
5E
100
AcDbEntity
  8
$DDT_AUDIT_GENERATED_(A2)
  6
Continuous
 62
     7
100
AcDbLine
 10
141.0129366104
 20
634.4149848571
 30
0.0
 11
141.0081178025
 21
634.4144158094
 31
0.0
  0
LINE
  5
AE
330
5E
100
AcDbEntity
  8
$DDT_AUDIT_GENERATED_(A2)
  6
Continuous
 62
     7
100
AcDbLine
 10
112.4624067123
 20
622.8546868662
 30
0.0
 11
112.1739326384
 21
633.8710672963
 31
0.0
  0
LINE
  5
AF
330
5E
100
AcDbEntity
  8
$DDT_AUDIT_GENERATED_(A2)
  6
Continuous
 62
     7
100
AcDbLine
 10
140.5567246471
 20
634.8999903335
 30
0.0
 11
140.5523454669
 21
634.8994136087
 31
0.0
  0
SPLINE
  5
B0
330
5E
100
AcDbEntity
  8
$DDT_AUDIT_GENERATED_(A2)
  6
Continuous
 62
     7
100
AcDbSpline
210
0.0
220
0.0
230
1.0
 70
    12
 71
     3
 72
     8
 73
     4
 74
     0
 42
0.000000012476068
 43
0.0000000001
 40
0.0
 40
0.0
 40
0.0
 40
0.0
 40
1.0
 40
1.0
 40
1.0
 40
1.0
 10
140.5567246496255
 20
634.8999903335344
 30
0.0
 41
1.145420715203314
 10
140.5637185623859
 20
634.6329036924674
 30
0.0
 41
0.9515264314949649
 10
140.7467769277003
 20
634.4382917135769
 30
0.0
 41
0.9515264282656619
 10
141.0129366107003
 20
634.4149848554129
 30
0.0
 41
1.145420705515406
  0
ARC
  5
B1
330
5E
100
AcDbEntity
  8
$DDT_AUDIT_GENERATED_(A2)
  6
Continuous
 62
     7
100
AcDbCircle
 10
115.6841825803
 20
614.424680291
 30
0.0
 40
2.99999999952638
100
AcDbArc
 50
181.499999999
 51
207.5170947389
  0
LINE
  5
B2
330
5E
100
AcDbEntity
  8
$DDT_AUDIT_GENERATED_(A2)
  6
Continuous
 62
     7
100
AcDbLine
 10
112.6852106058
 20
614.3461494462
 30
0.0
 11
112.462406712
 21
622.8546868772
 31
0.0
  0
ARC
  5
B3
330
5E
100
AcDbEntity
  8
$DDT_AUDIT_GENERATED_(A2)
  6
Continuous
 62
     7
100
AcDbCircle
 10
290.4113417934
 20
705.4481480626
 30
0.0
 40
200.0148518555253
100
AcDbArc
 50
207.5170939592
 51
217.8375438716
  0
LINE
  5
B4
330
5E
100
AcDbEntity
  8
$DDT_AUDIT_GENERATED_(A2)
  6
Continuous
 62
     7
100
AcDbLine
 10
116.2311085515
 20
607.1262925364
 30
0.0
 11
116.1310015965
 21
607.3038464029
 31
0.0
  0
ARC
  5
B5
330
5E
100
AcDbEntity
  8
$DDT_AUDIT_GENERATED_(A2)
  6
Continuous
 62
     7
100
AcDbCircle
 10
139.7353391787
 20
557.3396653468
 30
0.0
 40
25.91542671261271
100
AcDbArc
 50
85.2495494698
 51
89.753815629
  0
LINE
  5
B6
330
5E
100
AcDbEntity
  8
$DDT_AUDIT_GENERATED_(A2)
  6
Continuous
 62
     7
100
AcDbLine
 10
130.075965662
 20
634.6536755995
 30
0.0
 11
112.1739067789
 21
633.8720548287
 31
0.0
  0
LINE
  5
B7
330
5E
100
AcDbEntity
  8
$DDT_AUDIT_GENERATED_(A2)
  6
Continuous
 62
     7
100
AcDbLine
 10
142.9466286507
 20
634.2456568354
 30
0.0
 11
140.9965299435
 21
634.4164215432
 31
0.0
  0
ARC
  5
B8
330
5E
100
AcDbEntity
  8
$DDT_AUDIT_GENERATED_(A2)
  6
Continuous
 62
     7
100
AcDbCircle
 10
47.2755247715
 20
606.2195936376
 30
0.0
 40
99.9999999999999
100
AcDbArc
 50
346.9592706397
 51
16.0616398968
  0
LINE
  5
B9
330
5E
100
AcDbEntity
  8
$DDT_AUDIT_GENERATED_(A2)
  6
Continuous
 62
     7
100
AcDbLine
 10
140.5567246471
 20
634.8999903335
 30
0.0
 11
138.8763576325
 21
699.0706176753
 31
0.0
  0
LINE
  5
BA
330
5E
100
AcDbEntity
  8
$DDT_AUDIT_GENERATED_(A2)
  6
Continuous
 62
     7
100
AcDbLine
 10
128.8797843828
 20
698.8088481921
 30
0.0
 11
130.5463322166
 21
635.1659540729
 31
0.0
  0
ARC
  5
BB
330
5E
100
AcDbEntity
  8
$DDT_AUDIT_GENERATED_(A2)
  6
Continuous
 62
     7
100
AcDbCircle
 10
144.2094106864
 20
583.7680511197
 30
0.0
 40
0.4999999999959131
100
AcDbArc
 50
272.5000000002
 51
346.9593155761
  0
LINE
  5
BC
330
5E
100
AcDbEntity
  8
$DDT_AUDIT_GENERATED_(A2)
  6
Continuous
 62
     7
100
AcDbLine
 10
141.8366894192
 20
583.1639795293
 30
0.0
 11
144.2312203801
 21
583.2685270089
 31
0.0
  0
LINE
  5
BD
330
5E
100
AcDbEntity
  8
$DDT_AUDIT_GENERATED_(A2)
  6
Continuous
 62
     7
100
AcDbLine
 10
132.4464481569
 20
582.7539927417
 30
0.0
 11
135.2455685044
 21
582.8762049754
 31
0.0
  0
LINE
  5
BF
330
5E
100
AcDbEntity
  8
$DDT_AUDIT_GENERATED_(BE)
  6
Continuous
 62
     7
100
AcDbLine
 10
139.9482901008
 20
583.2551445264
 30
0.0
 11
135.3021029127
 21
582.519260769
 31
0.0
  0
LINE
  5
C0
330
5E
100
AcDbEntity
  8
$DDT_AUDIT_GENERATED_(BE)
  6
Continuous
 62
     7
100
AcDbLine
 10
135.2455685044
 20
582.8762049754
 30
0.0
 11
135.3021029127
 21
582.519260769
 31
0.0
  0
LINE
  5
C3
330
5E
100
AcDbEntity
  8
DV1_Standard
  6
CENTER2
 62
     7
100
AcDbLine
 10
62.9440068062
 20
519.7008084137
 30
0.0
 11
22.9440077002
 21
519.7008084137
 31
0.0
  0
LINE
  5
C4
330
5E
100
AcDbEntity
  8
DV1_Standard
  6
CENTER2
 62
     7
100
AcDbLine
 10
42.9440072532
 20
539.7008079667
 30
0.0
 11
42.9440072532
 21
499.7008088608
 31
0.0
  0
ENDBLK
  5
C6
330
5E
100
AcDbEntity
  8
0
100
AcDbBlockEnd
  0
BLOCK
  5
F9
330
C7
100
AcDbEntity
  8
0
100
AcDbBlockBegin
  2
SE1
 70
     0
 10
0.0
 20
0.0
 30
0.0
  3
SE1
  1

  0
CIRCLE
  5
C9
330
C7
100
AcDbEntity
  8
$DDT_AUDIT_GENERATED_(60)
  6
Continuous
 62
     7
100
AcDbCircle
 10
237.9118764437
 20
607.9008084137
 30
0.0
 40
26.0
  0
LINE
  5
CA
330
C7
100
AcDbEntity
  8
$DDT_AUDIT_GENERATED_(6D)
  6
Continuous
 62
     7
100
AcDbLine
 10
255.9118764437
 20
524.2008084137
 30
0.0
 11
219.9118764437
 21
524.2008084137
 31
0.0
  0
LINE
  5
CB
330
C7
100
AcDbEntity
  8
$DDT_AUDIT_GENERATED_(6D)
  6
Continuous
 62
     7
100
AcDbLine
 10
219.9118764437
 20
589.1391453745
 30
0.0
 11
219.9118764437
 21
524.2008084137
 31
0.0
  0
LINE
  5
CC
330
C7
100
AcDbEntity
  8
$DDT_AUDIT_GENERATED_(6D)
  6
Continuous
 62
     7
100
AcDbLine
 10
255.9118764437
 20
524.2008084137
 30
0.0
 11
255.9118764437
 21
589.1391453745
 31
0.0
  0
LINE
  5
CD
330
C7
100
AcDbEntity
  8
$DDT_AUDIT_GENERATED_(71)
  6
Continuous
 62
     7
100
AcDbLine
 10
264.9118764437
 20
519.7008084137
 30
0.0
 11
210.9118764437
 21
519.7008084137
 31
0.0
  0
LINE
  5
CE
330
C7
100
AcDbEntity
  8
$DDT_AUDIT_GENERATED_(71)
  6
Continuous
 62
     7
100
AcDbLine
 10
255.9118764437
 20
524.2008084137
 30
0.0
 11
219.9118764437
 21
524.2008084137
 31
0.0
  0
LINE
  5
CF
330
C7
100
AcDbEntity
  8
$DDT_AUDIT_GENERATED_(71)
  6
Continuous
 62
     7
100
AcDbLine
 10
210.9118764437
 20
522.5818269852
 30
0.0
 11
210.9118764437
 21
519.7008084137
 31
0.0
  0
LINE
  5
D0
330
C7
100
AcDbEntity
  8
$DDT_AUDIT_GENERATED_(71)
  6
Continuous
 62
     7
100
AcDbLine
 10
264.9118764437
 20
519.7008084137
 30
0.0
 11
264.9118764437
 21
522.5818269852
 31
0.0
  0
ARC
  5
D1
330
C7
100
AcDbEntity
  8
$DDT_AUDIT_GENERATED_(71)
  6
Continuous
 62
     7
100
AcDbCircle
 10
228.6146219567
 20
424.5802170657
 30
0.0
 40
100.0
100
AcDbArc
 50
94.9926216254
 51
99.9560038527
  0
ARC
  5
D2
330
C7
100
AcDbEntity
  8
$DDT_AUDIT_GENERATED_(71)
  6
Continuous
 62
     7
100
AcDbCircle
 10
247.2091309306
 20
424.5802170657
 30
0.0
 40
100.0
100
AcDbArc
 50
80.0439961473
 51
85.0073783746
  0
ARC
  5
D3
330
C7
100
AcDbEntity
  8
$DDT_AUDIT_GENERATED_(71)
  6
Continuous
 62
     7
100
AcDbCircle
 10
264.4118764437
 20
522.5818269852
 30
0.0
 40
0.5000000000000004
100
AcDbArc
 50
0.0
 51
80.0439961473
  0
ARC
  5
D4
330
C7
100
AcDbEntity
  8
$DDT_AUDIT_GENERATED_(71)
  6
Continuous
 62
     7
100
AcDbCircle
 10
211.4118764437
 20
522.5818269852
 30
0.0
 40
0.5000000000000148
100
AcDbArc
 50
99.9560038527
 51
180.0
  0
LINE
  5
D5
330
C7
100
AcDbEntity
  8
$DDT_AUDIT_GENERATED_(7A)
  6
Continuous
 62
     7
100
AcDbLine
 10
251.4118764437
 20
649.9008084137
 30
0.0
 11
224.4118764437
 21
649.9008084137
 31
0.0
  0
LINE
  5
D6
330
C7
100
AcDbEntity
  8
$DDT_AUDIT_GENERATED_(7A)
  6
Continuous
 62
     7
100
AcDbLine
 10
224.4118764437
 20
645.2758084137
 30
0.0
 11
224.4118764437
 21
630.121294457
 31
0.0
  0
LINE
  5
D7
330
C7
100
AcDbEntity
  8
$DDT_AUDIT_GENERATED_(7A)
  6
Continuous
 62
     7
100
AcDbLine
 10
224.4118764437
 20
649.9008084137
 30
0.0
 11
224.4118764437
 21
647.1008084137
 31
0.0
  0
LINE
  5
D8
330
C7
100
AcDbEntity
  8
$DDT_AUDIT_GENERATED_(7A)
  6
Continuous
 62
     7
100
AcDbLine
 10
251.4118764437
 20
630.121294457
 30
0.0
 11
251.4118764437
 21
649.9008084137
 31
0.0
  0
LINE
  5
D9
330
C7
100
AcDbEntity
  8
02303031_AUSL_RO
  6
Continuous
 62
     7
100
AcDbLine
 10
449.4118764437
 20
776.9008084137
 30
0.0
 11
449.4118764437
 21
756.9008084137
 31
0.0
  0
LINE
  5
DA
330
C7
100
AcDbEntity
  8
02303031_AUSL_RO
  6
Continuous
 62
     7
100
AcDbLine
 10
472.4118764437
 20
756.9008084137
 30
0.0
 11
472.4118764437
 21
776.9008084137
 31
0.0
  0
ARC
  5
DB
330
C7
100
AcDbEntity
  8
02303031_AUSL_RO
  6
Continuous
 62
     7
100
AcDbCircle
 10
420.9118764437
 20
776.9008084137
 30
0.0
 40
28.49999999999997
100
AcDbArc
 50
0.0
 51
90.0
  0
ARC
  5
DC
330
C7
100
AcDbEntity
  8
02303031_AUSL_RO
  6
Continuous
 62
     7
100
AcDbCircle
 10
420.9118764437
 20
776.9008084137
 30
0.0
 40
51.49999999999999
100
AcDbArc
 50
0.0
 51
90.0
  0
LINE
  5
DD
330
C7
100
AcDbEntity
  8
02303031_AUSL_RO
  6
Continuous
 62
     7
100
AcDbLine
 10
277.9118764437
 20
805.4008084137
 30
0.0
 11
420.9118764437
 21
805.4008084137
 31
0.0
  0
LINE
  5
DE
330
C7
100
AcDbEntity
  8
02303031_AUSL_RO
  6
Continuous
 62
     7
100
AcDbLine
 10
420.9118764437
 20
828.4008084137
 30
0.0
 11
277.9118764437
 21
828.4008084137
 31
0.0
  0
ARC
  5
DF
330
C7
100
AcDbEntity
  8
02303031_AUSL_RO
  6
Continuous
 62
     7
100
AcDbCircle
 10
277.9118764437
 20
776.9008084137
 30
0.0
 40
28.5
100
AcDbArc
 50
90.0
 51
180.0
  0
ARC
  5
E0
330
C7
100
AcDbEntity
  8
02303031_AUSL_RO
  6
Continuous
 62
     7
100
AcDbCircle
 10
277.9118764437
 20
776.9008084137
 30
0.0
 40
51.49999999999999
100
AcDbArc
 50
90.0
 51
180.0
  0
LINE
  5
E1
330
C7
100
AcDbEntity
  8
02303031_AUSL_RO
  6
Continuous
 62
     7
100
AcDbLine
 10
249.4118764437
 20
649.9008084137
 30
0.0
 11
249.4118764437
 21
776.9008084137
 31
0.0
  0
LINE
  5
E2
330
C7
100
AcDbEntity
  8
02303031_AUSL_RO
  6
Continuous
 62
     7
100
AcDbLine
 10
226.4118764437
 20
776.9008084137
 30
0.0
 11
226.4118764437
 21
649.9008084137
 31
0.0
  0
LINE
  5
E3
330
C7
100
AcDbEntity
  8
02303031_AUSL_RO
  6
Continuous
 62
     7
100
AcDbLine
 10
471.9118764437
 20
755.4008084137
 30
0.0
 11
471.9118764437
 21
755.5779327582
 31
0.0
  0
LINE
  5
E4
330
C7
100
AcDbEntity
  8
02303031_AUSL_RO
  6
Continuous
 62
     7
100
AcDbLine
 10
449.9118764437
 20
755.5779327582
 30
0.0
 11
449.9118764437
 21
755.4008084137
 31
0.0
  0
ARC
  5
E5
330
C7
100
AcDbEntity
  8
02303031_AUSL_RO
  6
Continuous
 62
     7
100
AcDbCircle
 10
470.4118764437
 20
756.9008084137
 30
0.0
 40
2.000000000000009
100
AcDbArc
 50
318.5903778907
 51
0.0
  0
ARC
  5
E6
330
C7
100
AcDbEntity
  8
02303031_AUSL_RO
  6
Continuous
 62
     7
100
AcDbCircle
 10
451.4118764437
 20
756.9008084137
 30
0.0
 40
2.000000000000002
100
AcDbArc
 50
180.0
 51
221.4096221093
  0
LINE
  5
E8
330
C7
100
AcDbEntity
  8
$DDT_AUDIT_GENERATED_(E7)
  6
Continuous
 62
     7
100
AcDbLine
 10
224.4118764437
 20
646.7758084137
 30
0.0
 11
224.4118764437
 21
645.2758084137
 31
0.0
  0
LINE
  5
E9
330
C7
100
AcDbEntity
  8
$DDT_AUDIT_GENERATED_(8A)
  6
Continuous
 62
     7
100
AcDbLine
 10
450.4118764437
 20
738.4008084137
 30
0.0
 11
471.4118764437
 21
738.4008084137
 31
0.0
  0
LINE
  5
EA
330
C7
100
AcDbEntity
  8
$DDT_AUDIT_GENERATED_(8A)
  6
Continuous
 62
     7
100
AcDbLine
 10
449.5618764437
 20
755.4008084137
 30
0.0
 11
472.2618764437
 21
755.4008084137
 31
0.0
  0
ARC
  5
EB
330
C7
100
AcDbEntity
  8
$DDT_AUDIT_GENERATED_(8A)
  6
Continuous
 62
     7
100
AcDbCircle
 10
466.4118764437
 20
744.1453710603
 30
0.0
 40
16.99999999999979
100
AcDbArc
 50
180.0
 51
199.7499227956
  0
ARC
  5
EC
330
C7
100
AcDbEntity
  8
$DDT_AUDIT_GENERATED_(8A)
  6
Continuous
 62
     7
100
AcDbCircle
 10
455.4118764437
 20
744.1453710603
 30
0.0
 40
16.99999999999981
100
AcDbArc
 50
340.2500772044
 51
0.0
  0
LINE
  5
ED
330
C7
100
AcDbEntity
  8
$DDT_AUDIT_GENERATED_(8A)
  6
Continuous
 62
     7
100
AcDbLine
 10
472.4118764437
 20
744.1453710603
 30
0.0
 11
472.4118764437
 21
755.2508084137
 31
0.0
  0
LINE
  5
EE
330
C7
100
AcDbEntity
  8
$DDT_AUDIT_GENERATED_(8A)
  6
Continuous
 62
     7
100
AcDbLine
 10
449.4118764437
 20
755.2508084137
 30
0.0
 11
449.4118764437
 21
744.1453710603
 31
0.0
  0
ARC
  5
EF
330
C7
100
AcDbEntity
  8
$DDT_AUDIT_GENERATED_(8A)
  6
Continuous
 62
     7
100
AcDbCircle
 10
472.2618764437
 20
755.2508084137
 30
0.0
 40
0.1499999999999835
100
AcDbArc
 50
0.0
 51
90.0
  0
ARC
  5
F0
330
C7
100
AcDbEntity
  8
$DDT_AUDIT_GENERATED_(8A)
  6
Continuous
 62
     7
100
AcDbCircle
 10
449.5618764437
 20
755.2508084137
 30
0.0
 40
0.1499999999999835
100
AcDbArc
 50
90.0
 51
180.0
  0
LINE
  5
F2
330
C7
100
AcDbEntity
  8
$DDT_AUDIT_GENERATED_(F1)
  6
Continuous
 62
     7
100
AcDbLine
 10
451.9118764437
 20
737.9508084137
 30
0.0
 11
469.9118764437
 21
737.9508084137
 31
0.0
  0
LINE
  5
F3
330
C7
100
AcDbEntity
  8
$DDT_AUDIT_GENERATED_(F1)
  6
Continuous
 62
     7
100
AcDbLine
 10
451.9118764437
 20
738.4008084137
 30
0.0
 11
451.9118764437
 21
737.9508084137
 31
0.0
  0
LINE
  5
F4
330
C7
100
AcDbEntity
  8
$DDT_AUDIT_GENERATED_(F1)
  6
Continuous
 62
     7
100
AcDbLine
 10
469.9118764437
 20
737.9508084137
 30
0.0
 11
469.9118764437
 21
738.4008084137
 31
0.0
  0
ARC
  5
F5
330
C7
100
AcDbEntity
  8
$DDT_AUDIT_GENERATED_(A2)
  6
Continuous
 62
     7
100
AcDbCircle
 10
237.6974640476
 20
607.3395044709
 30
0.0
 40
26.53522457821198
100
AcDbArc
 50
35.7818965882
 51
38.2690835828
  0
LINE
  5
F7
330
C7
100
AcDbEntity
  8
DV2_Standard
  6
CENTER2
 62
     7
100
AcDbLine
 10
257.9118759966
 20
519.7008084137
 30
0.0
 11
217.9118768907
 21
519.7008084137
 31
0.0
  0
LINE
  5
F8
330
C7
100
AcDbEntity
  8
DV2_Standard
  6
CENTER2
 62
     7
100
AcDbLine
 10
237.9118764437
 20
539.7008079667
 30
0.0
 11
237.9118764437
 21
499.7008088608
 31
0.0
  0
ENDBLK
  5
FA
330
C7
100
AcDbEntity
  8
0
100
AcDbBlockEnd
  0
BLOCK
  5
13E
330
FB
100
AcDbEntity
  8
0
100
AcDbBlockBegin
  2
SE2
 70
     0
 10
0.0
 20
0.0
 30
0.0
  3
SE2
  1

  0
LINE
  5
FD
330
FB
100
AcDbEntity
  8
$DDT_AUDIT_GENERATED_(60)
  6
Continuous
 62
     7
100
AcDbLine
 10
87.8440072532
 20
315.35
 30
0.0
 11
87.8440072532
 21
366.35
 31
0.0
  0
ARC
  5
FE
330
FB
100
AcDbEntity
  8
$DDT_AUDIT_GENERATED_(60)
  6
Continuous
 62
     7
100
AcDbCircle
 10
115.5040072532
 20
340.85
 30
0.0
 40
100.0
100
AcDbArc
 50
165.1504721945
 51
194.8495278055
  0
ARC
  5
FF
330
FB
100
AcDbEntity
  8
$DDT_AUDIT_GENERATED_(60)
  6
Continuous
 62
     7
100
AcDbCircle
 10
87.3440072532
 20
315.35
 30
0.0
 40
0.5000000000000004
100
AcDbArc
 50
270.0
 51
0.0
  0
ARC
  5
100
330
FB
100
AcDbEntity
  8
$DDT_AUDIT_GENERATED_(60)
  6
Continuous
 62
     7
100
AcDbCircle
 10
87.3440072532
 20
366.35
 30
0.0
 40
0.5000000000000004
100
AcDbArc
 50
0.0
 51
90.0
  0
ARC
  5
101
330
FB
100
AcDbEntity
  8
$DDT_AUDIT_GENERATED_(60)
  6
Continuous
 62
     7
100
AcDbCircle
 10
19.3270869448
 20
366.35
 30
0.0
 40
0.5000000000000004
100
AcDbArc
 50
90.0
 51
165.1504721945
  0
ARC
  5
102
330
FB
100
AcDbEntity
  8
$DDT_AUDIT_GENERATED_(60)
  6
Continuous
 62
     7
100
AcDbCircle
 10
19.3270869448
 20
315.35
 30
0.0
 40
0.4999999999999919
100
AcDbArc
 50
194.8495278055
 51
270.0
  0
LINE
  5
103
330
FB
100
AcDbEntity
  8
$DDT_AUDIT_GENERATED_(60)
  6
Continuous
 62
     7
100
AcDbLine
 10
87.3440072532
 20
366.85
 30
0.0
 11
19.3270869448
 21
366.85
 31
0.0
  0
LINE
  5
104
330
FB
100
AcDbEntity
  8
$DDT_AUDIT_GENERATED_(60)
  6
Continuous
 62
     7
100
AcDbLine
 10
19.3270869448
 20
314.85
 30
0.0
 11
31.4440072532
 21
314.85
 31
0.0
  0
LINE
  5
105
330
FB
100
AcDbEntity
  8
$DDT_AUDIT_GENERATED_(60)
  6
Continuous
 62
     7
100
AcDbLine
 10
54.4440072532
 20
314.85
 30
0.0
 11
87.3440072532
 21
314.85
 31
0.0
  0
ARC
  5
106
330
FB
100
AcDbEntity
  8
$DDT_AUDIT_GENERATED_(71)
  6
Continuous
 62
     7
100
AcDbCircle
 10
42.9440072532
 20
340.85
 30
0.0
 40
26.99999999999999
100
AcDbArc
 50
74.357528987
 51
105.642471013
  0
ARC
  5
107
330
FB
100
AcDbEntity
  8
$DDT_AUDIT_GENERATED_(7A)
  6
Continuous
 62
     7
100
AcDbCircle
 10
42.9440072532
 20
340.85
 30
0.0
 40
13.5
100
AcDbArc
 50
0.0
 51
211.5863380965
  0
ARC
  5
108
330
FB
100
AcDbEntity
  8
$DDT_AUDIT_GENERATED_(7A)
  6
Continuous
 62
     7
100
AcDbCircle
 10
42.9440072532
 20
340.85
 30
0.0
 40
13.5
100
AcDbArc
 50
328.4136619035
 51
0.0
  0
ARC
  5
109
330
FB
100
AcDbEntity
  8
02303031_AUSL_RO
  6
Continuous
 62
     7
100
AcDbCircle
 10
42.9440072532
 20
117.85
 30
0.0
 40
11.5
100
AcDbArc
 50
180.0
 51
0.0
  0
ARC
  5
10A
330
FB
100
AcDbEntity
  8
02303031_AUSL_RO
  6
Continuous
 62
     7
100
AcDbCircle
 10
42.9440072532
 20
340.85
 30
0.0
 40
11.5
100
AcDbArc
 50
0.0
 51
180.0
  0
LINE
  5
10B
330
FB
100
AcDbEntity
  8
02303031_AUSL_RO
  6
Continuous
 62
     7
100
AcDbLine
 10
54.4440072532
 20
117.85
 30
0.0
 11
54.4440072532
 21
157.85
 31
0.0
  0
LINE
  5
10C
330
FB
100
AcDbEntity
  8
02303031_AUSL_RO
  6
Continuous
 62
     7
100
AcDbLine
 10
31.4440072532
 20
157.85
 30
0.0
 11
31.4440072532
 21
117.85
 31
0.0
  0
LINE
  5
10D
330
FB
100
AcDbEntity
  8
02303031_AUSL_RO
  6
Continuous
 62
     7
100
AcDbLine
 10
31.4440072532
 20
300.85
 30
0.0
 11
31.4440072532
 21
157.85
 31
0.0
  0
LINE
  5
10E
330
FB
100
AcDbEntity
  8
02303031_AUSL_RO
  6
Continuous
 62
     7
100
AcDbLine
 10
54.4440072532
 20
157.85
 30
0.0
 11
54.4440072532
 21
300.85
 31
0.0
  0
LINE
  5
10F
330
FB
100
AcDbEntity
  8
02303031_AUSL_RO
  6
Continuous
 62
     7
100
AcDbLine
 10
54.4440072532
 20
300.85
 30
0.0
 11
54.4440072532
 21
340.85
 31
0.0
  0
LINE
  5
110
330
FB
100
AcDbEntity
  8
02303031_AUSL_RO
  6
Continuous
 62
     7
100
AcDbLine
 10
31.4440072532
 20
340.85
 30
0.0
 11
31.4440072532
 21
300.85
 31
0.0
  0
LINE
  5
111
330
FB
100
AcDbEntity
  8
$DDT_AUDIT_GENERATED_(93)
  6
Continuous
 62
     7
100
AcDbLine
 10
111.1440072532
 20
315.5489814154
 30
0.0
 11
111.1440072532
 21
366.1510185846
 31
0.0
  0
LINE
  5
112
330
FB
100
AcDbEntity
  8
$DDT_AUDIT_GENERATED_(93)
  6
Continuous
 62
     7
100
AcDbLine
 10
87.8440072532
 20
366.35
 30
0.0
 11
87.8440072532
 21
315.35
 31
0.0
  0
LINE
  5
113
330
FB
100
AcDbEntity
  8
$DDT_AUDIT_GENERATED_(93)
  6
Continuous
 62
     7
100
AcDbLine
 10
88.3439882167
 20
314.8543630439
 30
0.0
 11
88.3439882167
 21
366.8456369561
 31
0.0
  0
ARC
  5
114
330
FB
100
AcDbEntity
  8
$DDT_AUDIT_GENERATED_(93)
  6
Continuous
 62
     7
100
AcDbCircle
 10
105.0740072532
 20
340.85
 30
0.0
 40
25.00000000000011
100
AcDbArc
 50
284.0518577574
 51
287.4736388014
  0
ARC
  5
115
330
FB
100
AcDbEntity
  8
$DDT_AUDIT_GENERATED_(93)
  6
Continuous
 62
     7
100
AcDbCircle
 10
105.0740072532
 20
340.85
 30
0.0
 40
25.00000000000012
100
AcDbArc
 50
72.5263611986
 51
75.9481422426
  0
LINE
  5
116
330
FB
100
AcDbEntity
  8
$DDT_AUDIT_GENERATED_(93)
  6
Continuous
 62
     7
100
AcDbLine
 10
88.3439882167
 20
314.8543630439
 30
0.0
 11
110.6483702971
 21
315.049000452
 31
0.0
  0
LINE
  5
117
330
FB
100
AcDbEntity
  8
$DDT_AUDIT_GENERATED_(93)
  6
Continuous
 62
     7
100
AcDbLine
 10
110.6483702971
 20
366.650999548
 30
0.0
 11
88.3439882167
 21
366.8456369561
 31
0.0
  0
ARC
  5
118
330
FB
100
AcDbEntity
  8
$DDT_AUDIT_GENERATED_(93)
  6
Continuous
 62
     7
100
AcDbCircle
 10
110.6440072532
 20
366.1510185846
 30
0.0
 40
0.5000000000000004
100
AcDbArc
 50
0.0
 51
89.500025649
  0
ARC
  5
119
330
FB
100
AcDbEntity
  8
$DDT_AUDIT_GENERATED_(93)
  6
Continuous
 62
     7
100
AcDbCircle
 10
110.6440072532
 20
315.5489814154
 30
0.0
 40
0.5000000000000024
100
AcDbArc
 50
270.499974351
 51
0.0
  0
LINE
  5
11A
330
FB
100
AcDbEntity
  8
$DDT_AUDIT_GENERATED_(93)
  6
Continuous
 62
     7
100
AcDbLine
 10
88.3439882167
 20
366.8456369561
 30
0.0
 11
87.8440072532
 21
366.35
 31
0.0
  0
LINE
  5
11B
330
FB
100
AcDbEntity
  8
$DDT_AUDIT_GENERATED_(93)
  6
Continuous
 62
     7
100
AcDbLine
 10
87.8440072532
 20
315.35
 30
0.0
 11
88.3439882167
 21
314.8543630439
 31
0.0
  0
ARC
  5
11C
330
FB
100
AcDbEntity
  8
$DDT_AUDIT_GENERATED_(A2)
  6
Continuous
 62
     7
100
AcDbCircle
 10
471.9344389637
 20
348.0507952628
 30
0.0
 40
336.3561814157007
100
AcDbArc
 50
177.652554933
 51
180.307861098
  0
ARC
  5
11D
330
FB
100
AcDbEntity
  8
$DDT_AUDIT_GENERATED_(A2)
  6
Continuous
 62
     7
100
AcDbCircle
 10
1103.2427011726
 20
340.85
 30
0.0
 40
991.0687943941352
100
AcDbArc
 50
179.9869112065
 51
180.013088782
  0
ARC
  5
11E
330
FB
100
AcDbEntity
  8
$DDT_AUDIT_GENERATED_(A2)
  6
Continuous
 62
     7
100
AcDbCircle
 10
481.5090881809
 20
333.8196369755
 30
0.0
 40
345.9298477064984
100
AcDbArc
 50
179.7288878433
 51
182.3106953525
  0
ARC
  5
11F
330
FB
100
AcDbEntity
  8
$DDT_AUDIT_GENERATED_(A2)
  6
Continuous
 62
     7
100
AcDbCircle
 10
139.3826612939
 20
346.1245962219
 30
0.0
 40
3.801408251456585
100
AcDbArc
 50
178.2075848318
 51
184.1440929183
  0
ARC
  5
120
330
FB
100
AcDbEntity
  8
$DDT_AUDIT_GENERATED_(A2)
  6
Continuous
 62
     7
100
AcDbCircle
 10
135.5626715243
 20
340.8561643324
 30
0.0
 40
4.993804488427003
100
AcDbArc
 50
2.430770903
 51
89.6727726889
  0
ARC
  5
121
330
FB
100
AcDbEntity
  8
$DDT_AUDIT_GENERATED_(A2)
  6
Continuous
 62
     7
100
AcDbCircle
 10
133.8762045213
 20
340.850102626
 30
0.0
 40
5.000102547384522
100
AcDbArc
 50
346.2389585975
 51
359.998824156
  0
ARC
  5
122
330
FB
100
AcDbEntity
  8
$DDT_AUDIT_GENERATED_(A2)
  6
Continuous
 62
     7
100
AcDbCircle
 10
133.8762045213
 20
340.850102626
 30
0.0
 40
5.000102547384522
100
AcDbArc
 50
269.9976772022
 51
346.2389585975
  0
ARC
  5
123
330
FB
100
AcDbEntity
  8
$DDT_AUDIT_GENERATED_(A2)
  6
Continuous
 62
     7
100
AcDbCircle
 10
139.4131637268
 20
335.5747795868
 30
0.0
 40
3.831876455788313
100
AcDbArc
 50
175.8795575559
 51
181.7688209973
  0
ARC
  5
124
330
FB
100
AcDbEntity
  8
$DDT_AUDIT_GENERATED_(A2)
  6
Continuous
 62
     7
100
AcDbCircle
 10
133.8778805294
 20
340.8519542969
 30
0.0
 40
4.998045963766083
100
AcDbArc
 50
90.0212405765
 51
180.0224035572
  0
ARC
  5
125
330
FB
100
AcDbEntity
  8
$DDT_AUDIT_GENERATED_(A2)
  6
Continuous
 62
     7
100
AcDbCircle
 10
133.8761993502
 20
340.8498922016
 30
0.0
 40
5.00010771856198
100
AcDbArc
 50
13.7813930672
 51
90.0019673379
  0
ARC
  5
126
330
FB
100
AcDbEntity
  8
$DDT_AUDIT_GENERATED_(A2)
  6
Continuous
 62
     7
100
AcDbCircle
 10
133.8761993502
 20
340.8498922016
 30
0.0
 40
5.00010771856198
100
AcDbArc
 50
0.0012353916
 51
13.7813930672
  0
ARC
  5
127
330
FB
100
AcDbEntity
  8
$DDT_AUDIT_GENERATED_(A2)
  6
Continuous
 62
     7
100
AcDbCircle
 10
765.8504064096
 20
339.0216033493
 30
0.0
 40
653.6784368084911
100
AcDbArc
 50
179.8595829221
 51
181.7080386212
  0
ELLIPSE
  5
128
330
FB
100
AcDbEntity
  8
$DDT_AUDIT_GENERATED_(A2)
  6
Continuous
 62
     7
100
AcDbEllipse
 10
144.0392959062
 20
340.85
 30
0.0
 11
1.046251973946255E-7
 21
-25.10681546381003
 31
0.0
210
0.0
220
0.0
230
1.0
 40
0.0261769454
 41
0.0542345737205752
 42
0.101129474390427
  0
ELLIPSE
  5
129
330
FB
100
AcDbEntity
  8
$DDT_AUDIT_GENERATED_(A2)
  6
Continuous
 62
     7
100
AcDbEllipse
 10
144.0392959062
 20
340.85
 30
0.0
 11
1.046251973946255E-7
 21
-25.10681546381003
 31
0.0
210
0.0
220
0.0
230
1.0
 40
0.0261769454
 41
-3.242722443124552
 42
-3.2108561485693
  0
ARC
  5
12A
330
FB
100
AcDbEntity
  8
$DDT_AUDIT_GENERATED_(A2)
  6
Continuous
 62
     7
100
AcDbCircle
 10
135.5626886458
 20
340.8438310614
 30
0.0
 40
4.99379979490153
100
AcDbArc
 50
270.3270301579
 51
357.6659604591
  0
LINE
  5
12B
330
FB
100
AcDbEntity
  8
$DDT_AUDIT_GENERATED_(A2)
  6
Continuous
 62
     7
100
AcDbLine
 10
140.5567246471
 20
340.85
 30
0.0
 11
140.5523454669
 21
340.6404565229
 31
0.0
  0
LINE
  5
12C
330
FB
100
AcDbEntity
  8
$DDT_AUDIT_GENERATED_(A2)
  6
Continuous
 62
     7
100
AcDbLine
 10
140.5518942193
 20
341.0700676334
 30
0.0
 11
140.5567246471
 21
340.85
 31
0.0
  0
ARC
  5
12D
330
FB
100
AcDbEntity
  8
$DDT_AUDIT_GENERATED_(A2)
  6
Continuous
 62
     7
100
AcDbCircle
 10
133.8777210787
 20
340.8478863649
 30
0.0
 40
4.997886577888409
100
AcDbArc
 50
179.975769492
 51
269.9802903552
  0
ARC
  5
12E
330
FB
100
AcDbEntity
  8
$DDT_AUDIT_GENERATED_(A2)
  6
Continuous
 62
     7
100
AcDbCircle
 10
765.9281694168
 20
342.6773327911
 30
0.0
 40
653.7561969758101
100
AcDbArc
 50
178.2920713204
 51
180.1403071269
  0
SPLINE
  5
12F
330
FB
100
AcDbEntity
  8
$DDT_AUDIT_GENERATED_(A2)
  6
Continuous
 62
     7
100
AcDbSpline
210
0.0
220
0.0
230
1.0
 70
     8
 71
     3
 72
    10
 73
     6
 74
     0
 42
0.0000000210109957
 43
0.0000000001
 40
0.0
 40
0.0
 40
0.0
 40
0.0
 40
0.5
 40
0.5
 40
1.0
 40
1.0
 40
1.0
 40
1.0
 10
112.685210605826
 20
315.6349239780487
 30
0.0
 10
112.691146225753
 20
315.5772673369634
 30
0.0
 10
112.7223740687539
 20
315.5241605223231
 30
0.0
 10
112.8347881075483
 20
315.4263555621739
 30
0.0
 10
112.9169917534303
 20
315.3814443107163
 30
0.0
 10
113.0235635008275
 20
315.3418355167913
 30
0.0
  0
ELLIPSE
  5
130
330
FB
100
AcDbEntity
  8
$DDT_AUDIT_GENERATED_(A2)
  6
Continuous
 62
     7
100
AcDbEllipse
 10
112.8530452899
 20
340.85
 30
0.0
 11
-3.747002708109903E-13
 21
-26.0174550841192
 31
0.0
210
0.0
220
0.0
230
1.0
 40
0.0261769483
 41
-0.610865238181999
 42
-0.2489974431181308
  0
ELLIPSE
  5
131
330
FB
100
AcDbEntity
  8
$DDT_AUDIT_GENERATED_(A2)
  6
Continuous
 62
     7
100
AcDbEllipse
 10
112.8530452899
 20
340.85
 30
0.0
 11
0.0
 21
25.21563456023852
 31
0.0
210
0.0
220
0.0
230
1.0
 40
1.0
 41
0.0066560261605666
 42
0.0183272442900728
  0
SPLINE
  5
132
330
FB
100
AcDbEntity
  8
$DDT_AUDIT_GENERATED_(A2)
  6
Continuous
 62
     7
100
AcDbSpline
210
0.0
220
0.0
230
1.0
 70
     8
 71
     3
 72
    10
 73
     6
 74
     0
 42
0.0000000210109257
 43
0.0000000001
 40
0.0
 40
0.0
 40
0.0
 40
0.0
 40
0.5
 40
0.5
 40
1.0
 40
1.0
 40
1.0
 40
1.0
 10
113.0235635013095
 20
366.3581644833913
 30
0.0
 10
112.9169701361365
 20
366.3185476549314
 30
0.0
 10
112.836186206033
 20
366.2745223883698
 30
0.0
 10
112.7231372864839
 20
366.1768355361453
 30
0.0
 10
112.6911475293553
 20
366.1227453258001
 30
0.0
 10
112.6852106058262
 20
366.0650760021538
 30
0.0
  0
SPLINE
  5
133
330
FB
100
AcDbEntity
  8
$DDT_AUDIT_GENERATED_(A2)
  6
Continuous
 62
     7
100
AcDbSpline
210
0.0
220
0.0
230
1.0
 70
     8
 71
     3
 72
     8
 73
     4
 74
     0
 42
0.0000000002076339
 43
0.0000000001
 40
0.0
 40
0.0
 40
0.0
 40
0.0
 40
0.0578945538096646
 40
0.0578945538096646
 40
0.0578945538096646
 40
0.0578945538096646
 10
113.0235635013095
 20
366.3581644833913
 30
0.0
 10
113.9054275003344
 20
366.6859208566292
 30
0.0
 10
114.8111871063902
 20
366.8335943265433
 30
0.0
 10
115.7408188367664
 20
366.8170673708046
 30
0.0
  0
SPLINE
  5
134
330
FB
100
AcDbEntity
  8
$DDT_AUDIT_GENERATED_(A2)
  6
Continuous
 62
     7
100
AcDbSpline
210
0.0
220
0.0
230
1.0
 70
     8
 71
     3
 72
     8
 73
     4
 74
     0
 42
0.0000000002058542
 43
0.0000000001
 40
0.9425566973074978
 40
0.9425566973074978
 40
0.9425566973074978
 40
0.9425566973074978
 40
1.0
 40
1.0
 40
1.0
 40
1.0
 10
115.7432077538567
 20
314.8834863058146
 30
0.0
 10
114.811282749931
 20
314.8669353735864
 30
0.0
 10
113.8996040562705
 20
315.0162435030774
 30
0.0
 10
113.0235635008275
 20
315.3418355167913
 30
0.0
  0
ARC
  5
135
330
FB
100
AcDbEntity
  8
$DDT_AUDIT_GENERATED_(A2)
  6
Continuous
 62
     7
100
AcDbCircle
 10
47.2755247715
 20
340.85
 30
0.0
 40
99.9999999999999
100
AcDbArc
 50
345.5351868885
 51
14.4648131115
  0
LINE
  5
136
330
FB
100
AcDbEntity
  8
$DDT_AUDIT_GENERATED_(A2)
  6
Continuous
 62
     7
100
AcDbLine
 10
135.5576954164
 20
345.85
 30
0.0
 11
133.8757153688
 21
345.85
 31
0.0
  0
LINE
  5
137
330
FB
100
AcDbEntity
  8
$DDT_AUDIT_GENERATED_(A2)
  6
Continuous
 62
     7
100
AcDbLine
 10
133.8757153688
 20
335.85
 30
0.0
 11
135.5576954153
 21
335.85
 31
0.0
  0
SPLINE
  5
138
330
FB
100
AcDbEntity
  8
$DDT_AUDIT_GENERATED_(A2)
  6
Continuous
 62
     7
100
AcDbSpline
210
0.0
220
0.0
230
1.0
 70
     8
 71
     3
 72
    12
 73
     8
 74
     0
 42
0.0000000147850028
 43
0.0000000001
 40
0.0
 40
0.0
 40
0.0
 40
0.0
 40
0.219746503638753
 40
0.5228012786541177
 40
0.7204383671862761
 40
0.9118944410677372
 40
1.0
 40
1.0
 40
1.0
 40
1.0
 10
144.062506484722
 20
365.9528242848187
 30
0.0
 10
144.0563671213153
 20
365.9745072140283
 30
0.0
 10
144.0403245151825
 20
366.0196338737023
 30
0.0
 10
143.9845705476864
 20
366.1199004904798
 30
0.0
 10
143.8639034900686
 20
366.2398778862329
 30
0.0
 10
143.7038897226206
 20
366.3270007957337
 30
0.0
 10
143.6029433996844
 20
366.3215387012086
 30
0.0
 10
143.5652402335015
 20
366.3195319414816
 30
0.0
  0
SPLINE
  5
139
330
FB
100
AcDbEntity
  8
$DDT_AUDIT_GENERATED_(A2)
  6
Continuous
 62
     7
100
AcDbSpline
210
0.0
220
0.0
230
1.0
 70
     8
 71
     3
 72
    12
 73
     8
 74
     0
 42
0.0000000164562758
 43
0.0000000001
 40
0.0
 40
0.0
 40
0.0
 40
0.0
 40
0.0957893448871116
 40
0.337588430849394
 40
0.5716534163618151
 40
0.8356140192993231
 40
1.0
 40
1.0
 40
1.0
 40
1.0
 10
143.5650827027609
 20
315.3800275364264
 30
0.0
 10
143.597439851549
 20
315.3775482689329
 30
0.0
 10
143.6938591588759
 20
315.3700646614095
 30
0.0
 10
143.8508114878861
 20
315.4515026687162
 30
0.0
 10
143.960204169761
 20
315.553217262447
 30
0.0
 10
144.01448740579
 20
315.6344645701773
 30
0.0
 10
144.0305974353484
 20
315.6688108685622
 30
0.0
 10
144.0371405678154
 20
315.6841359445581
 30
0.0
  0
LINE
  5
13A
330
FB
100
AcDbEntity
  8
$DDT_AUDIT_GENERATED_(A2)
  6
Continuous
 62
     7
100
AcDbLine
 10
115.7464210422
 20
314.8830635966
 30
0.0
 11
143.5645050446
 21
315.3687965583
 31
0.0
  0
LINE
  5
13B
330
FB
100
AcDbEntity
  8
$DDT_AUDIT_GENERATED_(A2)
  6
Continuous
 62
     7
100
AcDbLine
 10
143.5645050446
 20
366.3312034417
 30
0.0
 11
115.7427645127
 21
366.8170002502
 31
0.0
  0
LINE
  5
13D
330
FB
100
AcDbEntity
  8
$DDT_AUDIT_GENERATED_(13C)
  6
Continuous
 62
     7
100
AcDbLine
 10
58.849400383
 20
314.85
 30
0.0
 11
54.4440072532
 21
308.0662894675
 31
0.0
  0
ENDBLK
  5
13F
330
FB
100
AcDbEntity
  8
0
100
AcDbBlockEnd
  0
ENDSEC
  0
SECTION
  2
ENTITIES
  0
INSERT
  5
5F
330
1F
100
AcDbEntity
  8
Default
100
AcDbBlockReference
  2
SE
 10
0.0
 20
0.0
 30
0.0
  0
INSERT
  5
C8
330
1F
100
AcDbEntity
  8
Default
100
AcDbBlockReference
  2
SE1
 10
0.0
 20
0.0
 30
0.0
  0
INSERT
  5
FC
330
1F
100
AcDbEntity
  8
Default
100
AcDbBlockReference
  2
SE2
 10
0.0
 20
0.0
 30
0.0
  0
TEXT
  5
141
330
1F
100
AcDbEntity
  8
Default
  6
Continuous
 62
     7
100
AcDbText
 10
5.9362635081
 20
53.4225120485
 30
0.0
 40
10.0
  1
Grohe AG^J
  7
SEACAD_seiso_ttf
 11
5.9362635081
 21
63.4225120485
 31
0.0
100
AcDbText
 73
     3
  0
TEXT
  5
142
330
1F
100
AcDbEntity
  8
Default
  6
Continuous
 62
     7
100
AcDbText
 10
5.9362635081
 20
37.0588756849
 30
0.0
 40
10.0
  1
 
  7
SEACAD_seiso_ttf
 11
5.9362635081
 21
47.0588756849
 31
0.0
100
AcDbText
 73
     3
  0
TEXT
  5
143
330
1F
100
AcDbEntity
  8
Default
  6
Continuous
 62
     7
100
AcDbText
 10
5.9362635081
 20
20.6952393213
 30
0.0
 40
10.0
  1
ecn: 
  7
SEACAD_seiso_ttf
 11
5.9362635081
 21
30.6952393213
 31
0.0
100
AcDbText
 73
     3
  0
TEXT
  5
144
330
1F
100
AcDbEntity
  8
Default
  6
Continuous
 62
     7
100
AcDbText
 10
5.9362635081
 20
4.3316029576
 30
0.0
 40
10.0
  1
unit: mm
  7
SEACAD_seiso_ttf
 11
5.9362635081
 21
14.3316029576
 31
0.0
100
AcDbText
 73
     3
  0
LINE
  5
145
330
1F
100
AcDbEntity
  8
Default
  6
Continuous
 62
     7
100
AcDbLine
 10
0.0
 20
0.0
 30
0.0
 11
100.0
 21
0.0
 31
0.0
  0
LINE
  5
146
330
1F
100
AcDbEntity
  8
Default
  6
Continuous
 62
     7
100
AcDbLine
 10
0.0
 20
0.0
 30
0.0
 11
0.0
 21
100.0
 31
0.0
  0
TEXT
  5
147
330
1F
100
AcDbEntity
  8
Default
  6
Continuous
 62
     7
100
AcDbText
 10
24.3923665681
 20
-18.2375342018
 30
0.0
 40
10.0
  1
100 mm
  7
SEACAD_seiso_ttf
 11
24.3923665681
 21
-8.2375342018
 31
0.0
100
AcDbText
 73
     3
  0
TEXT
  5
148
330
1F
100
AcDbEntity
  8
Default
  6
Continuous
 62
     7
100
AcDbText
 10
-7.6150308803
 20
24.6231930421
 30
0.0
 40
10.0
  1
100 mm
 50
90.0
  7
SEACAD_seiso_ttf
 11
-17.6150308803
 21
24.6231930421
 31
0.0
100
AcDbText
 73
     3
  0
TEXT
  5
149
330
1F
100
AcDbEntity
  8
Default
  6
Continuous
 62
     7
100
AcDbText
 10
28.4878128572
 20
20.0907663715
 30
0.0
 40
10.0
  1
217532
  7
SEACAD_seiso_ttf
 11
28.4878128572
 21
30.0907663715
 31
0.0
100
AcDbText
 73
     3
  0
TEXT
  5
14A
330
1F
100
AcDbEntity
  8
Default
  6
Continuous
 62
     7
100
AcDbText
 10
5.9012241913
 20
36.7242780188
 30
0.0
 40
10.0
  1
32488000
  7
SEACAD_seiso_ttf
 11
5.9012241913
 21
46.7242780188
 31
0.0
100
AcDbText
 73
     3
  0
ENDSEC
  0
SECTION
  2
OBJECTS
  0
DICTIONARY
  5
C
330
0
100
AcDbDictionary
281
     1
  3
ACAD_GROUP
350
D
  3
ACAD_LAYOUT
350
1A
  3
ACAD_MLEADERSTYLE
350
14E
  3
ACAD_MLINESTYLE
350
17
  3
ACAD_PLOTSETTINGS
350
19
  3
ACAD_PLOTSTYLENAME
350
E
  3
ACAD_SCALELIST
350
3B
  3
ACAD_TABLESTYLE
350
14D
  3
ACAD_VISUALSTYLE
350
2A
  3
AcDbVariableDictionary
350
14B
  0
DICTIONARY
  5
D
102
{ACAD_REACTORS
330
C
102
}
330
C
100
AcDbDictionary
281
     1
  0
DICTIONARY
  5
1A
102
{ACAD_REACTORS
330
C
102
}
330
C
100
AcDbDictionary
281
     1
  3
Layout1
350
1E
  3
Model
350
22
  0
DICTIONARY
  5
14E
102
{ACAD_REACTORS
330
C
102
}
330
C
100
AcDbDictionary
281
     1
  0
DICTIONARY
  5
17
102
{ACAD_REACTORS
330
C
102
}
330
C
100
AcDbDictionary
281
     1
  3
Standard
350
18
  0
DICTIONARY
  5
19
102
{ACAD_REACTORS
330
C
102
}
330
C
100
AcDbDictionary
281
     1
  0
ACDBDICTIONARYWDFLT
  5
E
102
{ACAD_REACTORS
330
C
102
}
330
C
100
AcDbDictionary
281
     1
  3
Normal
350
F
100
AcDbDictionaryWithDefault
340
F
  0
DICTIONARY
  5
3B
102
{ACAD_REACTORS
330
C
102
}
330
C
100
AcDbDictionary
281
     1
  3
A0
350
3C
  3
A1
350
3D
  3
A2
350
3E
  3
A3
350
3F
  3
A4
350
40
  3
A5
350
41
  3
A6
350
42
  3
A7
350
43
  3
A8
350
44
  3
A9
350
45
  3
B0
350
46
  3
B1
350
47
  3
B2
350
48
  3
B3
350
49
  3
B4
350
4A
  3
B5
350
4B
  3
B6
350
4C
  3
B7
350
4D
  3
B8
350
4E
  3
B9
350
4F
  3
C0
350
50
  3
C1
350
51
  3
C2
350
52
  3
C3
350
53
  3
C4
350
54
  3
C5
350
55
  3
C6
350
56
  3
C7
350
57
  3
C8
350
58
  3
C9
350
59
  3
D0
350
5A
  3
D1
350
5B
  3
D2
350
5C
  0
DICTIONARY
  5
14D
102
{ACAD_REACTORS
330
C
102
}
330
C
100
AcDbDictionary
281
     1
  0
DICTIONARY
  5
2A
102
{ACAD_REACTORS
330
C
102
}
330
C
100
AcDbDictionary
281
     1
  3
2dWireframe
350
2F
  3
3D Hidden
350
31
  3
3dWireframe
350
30
  3
Basic
350
32
  3
Brighten
350
36
  3
ColorChange
350
3A
  3
Conceptual
350
34
  3
Dim
350
35
  3
Facepattern
350
39
  3
Flat
350
2B
  3
FlatWithEdges
350
2C
  3
Gouraud
350
2D
  3
GouraudWithEdges
350
2E
  3
Linepattern
350
38
  3
Realistic
350
33
  3
Thicken
350
37
  0
DICTIONARY
  5
14B
102
{ACAD_REACTORS
330
C
102
}
330
C
100
AcDbDictionary
281
     1
  3
CANNOSCALE
350
14C
  3
PSOLHEIGHT
350
150
  3
PSOLWIDTH
350
14F
  0
LAYOUT
  5
1E
102
{ACAD_REACTORS
330
1A
102
}
330
1A
100
AcDbPlotSettings
  1

  2
none_device
  4

  6

 40
0.0
 41
0.0
 42
0.0
 43
0.0
 44
0.0
 45
0.0
 46
0.0
 47
0.0
 48
0.0
 49
0.0
140
0.0
141
0.0
142
1.0
143
1.0
 70
   688
 72
     0
 73
     0
 74
     5
  7

 75
    16
147
1.0
148
0.0
149
0.0
100
AcDbLayout
  1
Layout1
 70
     1
 71
     1
 10
0.0
 20
0.0
 11
1682.0
 21
2378.0
 12
0.0
 22
0.0
 32
0.0
 14
0.0
 24
0.0
 34
0.0
 15
1682.0
 25
2378.0
 35
0.0
146
0.0
 13
0.0
 23
0.0
 33
0.0
 16
1.0
 26
0.0
 36
0.0
 17
0.0
 27
1.0
 37
0.0
 76
     0
330
1B
  0
LAYOUT
  5
22
102
{ACAD_REACTORS
330
1A
102
}
330
1A
100
AcDbPlotSettings
  1

  2
none_device
  4

  6

 40
0.0
 41
0.0
 42
0.0
 43
0.0
 44
0.0
 45
0.0
 46
0.0
 47
0.0
 48
0.0
 49
0.0
140
0.0
141
0.0
142
1.0
143
1.0
 70
  1712
 72
     0
 73
     0
 74
     0
  7

 75
     0
147
1.0
148
0.0
149
0.0
100
AcDbLayout
  1
Model
 70
     1
 71
     0
 10
0.0
 20
0.0
 11
1682.0
 21
2378.0
 12
0.0
 22
0.0
 32
0.0
 14
0.0
 24
0.0
 34
0.0
 15
1682.0
 25
2378.0
 35
0.0
146
0.0
 13
0.0
 23
0.0
 33
0.0
 16
1.0
 26
0.0
 36
0.0
 17
0.0
 27
1.0
 37
0.0
 76
     0
330
1F
331
29
  0
MLINESTYLE
  5
18
102
{ACAD_REACTORS
330
17
102
}
330
17
100
AcDbMlineStyle
  2
Standard
 70
     0
  3

 62
   256
 51
90.0
 52
90.0
 71
     2
 49
0.5
 62
   256
  6
BYLAYER
 49
-0.5
 62
   256
  6
BYLAYER
  0
ACDBPLACEHOLDER
  5
F
102
{ACAD_REACTORS
330
E
102
}
330
E
  0
SCALE
  5
3C
102
{ACAD_REACTORS
330
3B
102
}
330
3B
100
AcDbScale
 70
     0
300
1:1
140
1.0
141
1.0
290
     1
  0
SCALE
  5
3D
102
{ACAD_REACTORS
330
3B
102
}
330
3B
100
AcDbScale
 70
     0
300
1:2
140
1.0
141
2.0
290
     0
  0
SCALE
  5
3E
102
{ACAD_REACTORS
330
3B
102
}
330
3B
100
AcDbScale
 70
     0
300
1:4
140
1.0
141
4.0
290
     0
  0
SCALE
  5
3F
102
{ACAD_REACTORS
330
3B
102
}
330
3B
100
AcDbScale
 70
     0
300
1:5
140
1.0
141
5.0
290
     0
  0
SCALE
  5
40
102
{ACAD_REACTORS
330
3B
102
}
330
3B
100
AcDbScale
 70
     0
300
1:8
140
1.0
141
8.0
290
     0
  0
SCALE
  5
41
102
{ACAD_REACTORS
330
3B
102
}
330
3B
100
AcDbScale
 70
     0
300
1:10
140
1.0
141
10.0
290
     0
  0
SCALE
  5
42
102
{ACAD_REACTORS
330
3B
102
}
330
3B
100
AcDbScale
 70
     0
300
1:16
140
1.0
141
16.0
290
     0
  0
SCALE
  5
43
102
{ACAD_REACTORS
330
3B
102
}
330
3B
100
AcDbScale
 70
     0
300
1:20
140
1.0
141
20.0
290
     0
  0
SCALE
  5
44
102
{ACAD_REACTORS
330
3B
102
}
330
3B
100
AcDbScale
 70
     0
300
1:30
140
1.0
141
30.0
290
     0
  0
SCALE
  5
45
102
{ACAD_REACTORS
330
3B
102
}
330
3B
100
AcDbScale
 70
     0
300
1:40
140
1.0
141
40.0
290
     0
  0
SCALE
  5
46
102
{ACAD_REACTORS
330
3B
102
}
330
3B
100
AcDbScale
 70
     0
300
1:50
140
1.0
141
50.0
290
     0
  0
SCALE
  5
47
102
{ACAD_REACTORS
330
3B
102
}
330
3B
100
AcDbScale
 70
     0
300
1:100
140
1.0
141
100.0
290
     0
  0
SCALE
  5
48
102
{ACAD_REACTORS
330
3B
102
}
330
3B
100
AcDbScale
 70
     0
300
2:1
140
2.0
141
1.0
290
     0
  0
SCALE
  5
49
102
{ACAD_REACTORS
330
3B
102
}
330
3B
100
AcDbScale
 70
     0
300
4:1
140
4.0
141
1.0
290
     0
  0
SCALE
  5
4A
102
{ACAD_REACTORS
330
3B
102
}
330
3B
100
AcDbScale
 70
     0
300
8:1
140
8.0
141
1.0
290
     0
  0
SCALE
  5
4B
102
{ACAD_REACTORS
330
3B
102
}
330
3B
100
AcDbScale
 70
     0
300
10:1
140
10.0
141
1.0
290
     0
  0
SCALE
  5
4C
102
{ACAD_REACTORS
330
3B
102
}
330
3B
100
AcDbScale
 70
     0
300
100:1
140
100.0
141
1.0
290
     0
  0
SCALE
  5
4D
102
{ACAD_REACTORS
330
3B
102
}
330
3B
100
AcDbScale
 70
     0
300
1/128" = 1'-0"
140
0.0078125
141
12.0
290
     0
  0
SCALE
  5
4E
102
{ACAD_REACTORS
330
3B
102
}
330
3B
100
AcDbScale
 70
     0
300
1/64" = 1'-0"
140
0.015625
141
12.0
290
     0
  0
SCALE
  5
4F
102
{ACAD_REACTORS
330
3B
102
}
330
3B
100
AcDbScale
 70
     0
300
1/32" = 1'-0"
140
0.03125
141
12.0
290
     0
  0
SCALE
  5
50
102
{ACAD_REACTORS
330
3B
102
}
330
3B
100
AcDbScale
 70
     0
300
1/16" = 1'-0"
140
0.0625
141
12.0
290
     0
  0
SCALE
  5
51
102
{ACAD_REACTORS
330
3B
102
}
330
3B
100
AcDbScale
 70
     0
300
3/32" = 1'-0"
140
0.09375
141
12.0
290
     0
  0
SCALE
  5
52
102
{ACAD_REACTORS
330
3B
102
}
330
3B
100
AcDbScale
 70
     0
300
1/8" = 1'-0"
140
0.125
141
12.0
290
     0
  0
SCALE
  5
53
102
{ACAD_REACTORS
330
3B
102
}
330
3B
100
AcDbScale
 70
     0
300
3/16" = 1'-0"
140
0.1875
141
12.0
290
     0
  0
SCALE
  5
54
102
{ACAD_REACTORS
330
3B
102
}
330
3B
100
AcDbScale
 70
     0
300
1/4" = 1'-0"
140
0.25
141
12.0
290
     0
  0
SCALE
  5
55
102
{ACAD_REACTORS
330
3B
102
}
330
3B
100
AcDbScale
 70
     0
300
3/8" = 1'-0"
140
0.375
141
12.0
290
     0
  0
SCALE
  5
56
102
{ACAD_REACTORS
330
3B
102
}
330
3B
100
AcDbScale
 70
     0
300
1/2" = 1'-0"
140
0.5
141
12.0
290
     0
  0
SCALE
  5
57
102
{ACAD_REACTORS
330
3B
102
}
330
3B
100
AcDbScale
 70
     0
300
3/4" = 1'-0"
140
0.75
141
12.0
290
     0
  0
SCALE
  5
58
102
{ACAD_REACTORS
330
3B
102
}
330
3B
100
AcDbScale
 70
     0
300
1" = 1'-0"
140
1.0
141
12.0
290
     0
  0
SCALE
  5
59
102
{ACAD_REACTORS
330
3B
102
}
330
3B
100
AcDbScale
 70
     0
300
1-1/2" = 1'-0"
140
1.5
141
12.0
290
     0
  0
SCALE
  5
5A
102
{ACAD_REACTORS
330
3B
102
}
330
3B
100
AcDbScale
 70
     0
300
3" = 1'-0"
140
3.0
141
12.0
290
     0
  0
SCALE
  5
5B
102
{ACAD_REACTORS
330
3B
102
}
330
3B
100
AcDbScale
 70
     0
300
6" = 1'-0"
140
6.0
141
12.0
290
     0
  0
SCALE
  5
5C
102
{ACAD_REACTORS
330
3B
102
}
330
3B
100
AcDbScale
 70
     0
300
1'-0" = 1'-0"
140
12.0
141
12.0
290
     0
  0
VISUALSTYLE
  5
2F
102
{ACAD_REACTORS
330
2A
102
}
330
2A
100
AcDbVisualStyle
  2
2dWireframe
 70
     4
 71
     0
 72
     2
 73
     0
 90
        0
 40
-0.6
 41
-30.0
 62
     5
 63
     7
 74
     1
 91
        4
 64
     7
 65
   257
 75
     1
175
     1
 42
1.0
 92
        0
 66
   257
 43
1.0
 76
     1
 77
     6
 78
     2
 67
     7
 79
     5
170
     0
171
     0
290
     0
174
     0
 93
        1
 44
0.0
173
     0
291
     0
 45
0.0
1001
ACAD
1000
AcDbSavedByObjectVersion
1070
     0
  0
VISUALSTYLE
  5
31
102
{ACAD_REACTORS
330
2A
102
}
330
2A
100
AcDbVisualStyle
  2
3D Hidden
 70
     6
 71
     1
 72
     2
 73
     2
 90
        0
 40
-0.6
 41
-30.0
 62
     5
 63
     7
 74
     2
 91
        2
 64
     7
 65
   257
 75
     2
175
     1
 42
40.0
 92
        0
 66
   257
 43
1.0
 76
     1
 77
     6
 78
     2
 67
     7
 79
     3
170
     0
171
     0
290
     0
174
     0
 93
        1
 44
0.0
173
     0
291
     0
 45
0.0
1001
ACAD
1000
AcDbSavedByObjectVersion
1070
     0
  0
VISUALSTYLE
  5
30
102
{ACAD_REACTORS
330
2A
102
}
330
2A
100
AcDbVisualStyle
  2
3dWireframe
 70
     5
 71
     0
 72
     2
 73
     0
 90
        0
 40
-0.6
 41
-30.0
 62
     5
 63
     7
 74
     1
 91
        4
 64
     7
 65
   257
 75
     1
175
     1
 42
1.0
 92
        0
 66
   257
 43
1.0
 76
     1
 77
     6
 78
     2
 67
     7
 79
     5
170
     0
171
     0
290
     0
174
     0
 93
        1
 44
0.0
173
     0
291
     0
 45
0.0
1001
ACAD
1000
AcDbSavedByObjectVersion
1070
     0
  0
VISUALSTYLE
  5
32
102
{ACAD_REACTORS
330
2A
102
}
330
2A
100
AcDbVisualStyle
  2
Basic
 70
     7
 71
     1
 72
     0
 73
     1
 90
        0
 40
-0.6
 41
-30.0
 62
     5
 63
     7
 74
     0
 91
        4
 64
     7
 65
   257
 75
     1
175
     1
 42
1.0
 92
        8
 66
     7
 43
1.0
 76
     1
 77
     6
 78
     2
 67
     7
 79
     5
170
     0
171
     0
290
     0
174
     0
 93
        1
 44
0.0
173
     0
291
     1
 45
0.0
1001
ACAD
1000
AcDbSavedByObjectVersion
1070
     0
  0
VISUALSTYLE
  5
36
102
{ACAD_REACTORS
330
2A
102
}
330
2A
100
AcDbVisualStyle
  2
Brighten
 70
    12
 71
     2
 72
     2
 73
     0
 90
        0
 40
-0.6
 41
-30.0
 62
     5
 63
     7
 74
     1
 91
        4
 64
     7
 65
   257
 75
     1
175
     1
 42
1.0
 92
        8
 66
     7
 43
1.0
 76
     1
 77
     6
 78
     2
 67
     7
 79
     5
170
     0
171
     0
290
     0
174
     0
 93
        1
 44
50.0
173
     0
291
     1
 45
0.0
1001
ACAD
1000
AcDbSavedByObjectVersion
1070
     0
  0
VISUALSTYLE
  5
3A
102
{ACAD_REACTORS
330
2A
102
}
330
2A
100
AcDbVisualStyle
  2
ColorChange
 70
    16
 71
     2
 72
     2
 73
     3
 90
        0
 40
-0.6
 41
-30.0
 62
     5
 63
     8
 74
     1
 91
        4
 64
     7
 65
   257
 75
     1
175
     1
 42
1.0
 92
        8
 66
     8
 43
1.0
 76
     1
 77
     6
 78
     2
 67
     7
 79
     5
170
     0
171
     0
290
     0
174
     0
 93
        1
 44
0.0
173
     0
291
     1
 45
0.0
1001
ACAD
1000
AcDbSavedByObjectVersion
1070
     0
  0
VISUALSTYLE
  5
34
102
{ACAD_REACTORS
330
2A
102
}
330
2A
100
AcDbVisualStyle
  2
Conceptual
 70
     9
 71
     3
 72
     2
 73
     0
 90
        0
 40
-0.6
 41
-30.0
 62
     5
 63
     7
 74
     2
 91
        2
 64
     7
 65
   257
 75
     1
175
     1
 42
40.0
 92
        8
 66
     7
 43
1.0
 76
     1
 77
     6
 78
     2
 67
     7
 79
     3
170
     0
171
     0
290
     0
174
     0
 93
        1
 44
0.0
173
     0
291
     0
 45
0.0
1001
ACAD
1000
AcDbSavedByObjectVersion
1070
     0
  0
VISUALSTYLE
  5
35
102
{ACAD_REACTORS
330
2A
102
}
330
2A
100
AcDbVisualStyle
  2
Dim
 70
    11
 71
     2
 72
     2
 73
     0
 90
        0
 40
-0.6
 41
-30.0
 62
     5
 63
     7
 74
     1
 91
        4
 64
     7
 65
   257
 75
     1
175
     1
 42
1.0
 92
        8
 66
     7
 43
1.0
 76
     1
 77
     6
 78
     2
 67
     7
 79
     5
170
     0
171
     0
290
     0
174
     0
 93
        1
 44
-50.0
173
     0
291
     1
 45
0.0
1001
ACAD
1000
AcDbSavedByObjectVersion
1070
     0
  0
VISUALSTYLE
  5
39
102
{ACAD_REACTORS
330
2A
102
}
330
2A
100
AcDbVisualStyle
  2
Facepattern
 70
    15
 71
     2
 72
     2
 73
     0
 90
        0
 40
-0.6
 41
-30.0
 62
     5
 63
     7
 74
     1
 91
        4
 64
     7
 65
   257
 75
     1
175
     1
 42
1.0
 92
        8
 66
     7
 43
1.0
 76
     1
 77
     6
 78
     2
 67
     7
 79
     5
170
     0
171
     0
290
     0
174
     0
 93
        1
 44
0.0
173
     0
291
     1
 45
0.0
1001
ACAD
1000
AcDbSavedByObjectVersion
1070
     0
  0
VISUALSTYLE
  5
2B
102
{ACAD_REACTORS
330
2A
102
}
330
2A
100
AcDbVisualStyle
  2
Flat
 70
     0
 71
     2
 72
     1
 73
     1
 90
        2
 40
-0.6
 41
30.0
 62
     5
 63
     7
 74
     0
 91
        4
 64
     7
 65
   257
 75
     1
175
     1
 42
1.0
 92
        8
 66
     7
 43
1.0
 76
     1
 77
     6
 78
     2
 67
     7
 79
     5
170
     0
171
     0
290
     0
174
     0
 93
       13
 44
0.0
173
     0
291
     1
 45
0.0
1001
ACAD
1000
AcDbSavedByObjectVersion
1070
     0
  0
VISUALSTYLE
  5
2C
102
{ACAD_REACTORS
330
2A
102
}
330
2A
100
AcDbVisualStyle
  2
FlatWithEdges
 70
     1
 71
     2
 72
     1
 73
     1
 90
        2
 40
-0.6
 41
30.0
 62
     5
 63
     7
 74
     1
 91
        4
 64
     7
 65
   257
 75
     1
175
     1
 42
1.0
 92
        0
 66
   257
 43
1.0
 76
     1
 77
     6
 78
     2
 67
     7
 79
     5
170
     0
171
     0
290
     0
174
     0
 93
       13
 44
0.0
173
     0
291
     1
 45
0.0
1001
ACAD
1000
AcDbSavedByObjectVersion
1070
     0
  0
VISUALSTYLE
  5
2D
102
{ACAD_REACTORS
330
2A
102
}
330
2A
100
AcDbVisualStyle
  2
Gouraud
 70
     2
 71
     2
 72
     2
 73
     1
 90
        2
 40
-0.6
 41
30.0
 62
     5
 63
     7
 74
     0
 91
        4
 64
     7
 65
   257
 75
     1
175
     1
 42
1.0
 92
        0
 66
     7
 43
1.0
 76
     1
 77
     6
 78
     2
 67
     7
 79
     5
170
     0
171
     0
290
     0
174
     0
 93
       13
 44
0.0
173
     0
291
     1
 45
0.0
1001
ACAD
1000
AcDbSavedByObjectVersion
1070
     0
  0
VISUALSTYLE
  5
2E
102
{ACAD_REACTORS
330
2A
102
}
330
2A
100
AcDbVisualStyle
  2
GouraudWithEdges
 70
     3
 71
     2
 72
     2
 73
     1
 90
        2
 40
-0.6
 41
30.0
 62
     5
 63
     7
 74
     1
 91
        4
 64
     7
 65
   257
 75
     1
175
     1
 42
1.0
 92
        0
 66
   257
 43
1.0
 76
     1
 77
     6
 78
     2
 67
     7
 79
     5
170
     0
171
     0
290
     0
174
     0
 93
       13
 44
0.0
173
     0
291
     1
 45
0.0
1001
ACAD
1000
AcDbSavedByObjectVersion
1070
     0
  0
VISUALSTYLE
  5
38
102
{ACAD_REACTORS
330
2A
102
}
330
2A
100
AcDbVisualStyle
  2
Linepattern
 70
    14
 71
     2
 72
     2
 73
     0
 90
        0
 40
-0.6
 41
-30.0
 62
     5
 63
     7
 74
     1
 91
        4
 64
     7
 65
   257
 75
     7
175
     7
 42
1.0
 92
        8
 66
     7
 43
1.0
 76
     1
 77
     6
 78
     2
 67
     7
 79
     5
170
     0
171
     0
290
     0
174
     0
 93
        1
 44
0.0
173
     0
291
     1
 45
0.0
1001
ACAD
1000
AcDbSavedByObjectVersion
1070
     0
  0
VISUALSTYLE
  5
33
102
{ACAD_REACTORS
330
2A
102
}
330
2A
100
AcDbVisualStyle
  2
Realistic
 70
     8
 71
     2
 72
     2
 73
     0
 90
        0
 40
-0.6
 41
-30.0
 62
     5
 63
     7
 74
     1
 91
        0
 64
     7
 65
   257
 75
     1
175
     1
 42
1.0
 92
        8
 66
     8
 43
1.0
 76
     1
 77
     6
 78
     2
 67
     7
 79
     5
170
     0
171
     0
290
     0
174
     0
 93
       13
 44
0.0
173
     0
291
     0
 45
0.0
1001
ACAD
1000
AcDbSavedByObjectVersion
1070
     0
  0
VISUALSTYLE
  5
37
102
{ACAD_REACTORS
330
2A
102
}
330
2A
100
AcDbVisualStyle
  2
Thicken
 70
    13
 71
     2
 72
     2
 73
     0
 90
        0
 40
-0.6
 41
-30.0
 62
     5
 63
     7
 74
     1
 91
        4
 64
     7
 65
   257
 75
     1
175
     1
 42
1.0
 92
       12
 66
     7
 43
1.0
 76
     1
 77
     6
 78
     2
 67
     7
 79
     5
170
     0
171
     0
290
     0
174
     0
 93
        1
 44
0.0
173
     0
291
     1
 45
0.0
1001
ACAD
1000
AcDbSavedByObjectVersion
1070
     0
  0
DICTIONARYVAR
  5
14C
102
{ACAD_REACTORS
330
14B
102
}
330
14B
100
DictionaryVariables
280
     0
  1
1:1
  0
DICTIONARYVAR
  5
150
102
{ACAD_REACTORS
330
14B
102
}
330
14B
100
DictionaryVariables
280
     0
  1
80.000000
  0
DICTIONARYVAR
  5
14F
102
{ACAD_REACTORS
330
14B
102
}
330
14B
100
DictionaryVariables
280
     0
  1
5.000000
  0
ENDSEC
  0
EOF
