  0
SECTION
  2
HEADER
  9
$ACADVER
  1
AC1015
  9
$ACADMAINTVER
 70
     6
  9
$DWGCODEPAGE
  3
ANSI_1252
  9
$INSBASE
 10
0.0
 20
0.0
 30
0.0
  9
$EXTMIN
 10
0.0
 20
0.0
 30
0.0
  9
$EXTMAX
 10
1682.0
 20
2378.0
 30
0.0
  9
$LIMMIN
 10
0.0
 20
0.0
  9
$LIMMAX
 10
1682.0
 20
2378.0
  9
$ORTHOMODE
 70
     0
  9
$REGENMODE
 70
     1
  9
$FILLMODE
 70
     1
  9
$QTEXTMODE
 70
     0
  9
$MIRRTEXT
 70
     1
  9
$LTSCALE
 40
1.0
  9
$ATTMODE
 70
     1
  9
$TEXTSIZE
 40
2.5
  9
$TRACEWID
 40
1.0
  9
$TEXTSTYLE
  7
Standard
  9
$CLAYER
  8
0
  9
$CELTYPE
  6
ByLayer
  9
$CECOLOR
 62
   256
  9
$CELTSCALE
 40
1.0
  9
$DISPSILH
 70
     0
  9
$DIMSCALE
 40
1.0
  9
$DIMASZ
 40
2.5
  9
$DIMEXO
 40
0.625
  9
$DIMDLI
 40
3.75
  9
$DIMRND
 40
0.0
  9
$DIMDLE
 40
0.0
  9
$DIMEXE
 40
1.25
  9
$DIMTP
 40
0.0
  9
$DIMTM
 40
0.0
  9
$DIMTXT
 40
2.5
  9
$DIMCEN
 40
2.5
  9
$DIMTSZ
 40
0.0
  9
$DIMTOL
 70
     0
  9
$DIMLIM
 70
     0
  9
$DIMTIH
 70
     0
  9
$DIMTOH
 70
     0
  9
$DIMSE1
 70
     0
  9
$DIMSE2
 70
     0
  9
$DIMTAD
 70
     1
  9
$DIMZIN
 70
     8
  9
$DIMBLK
  1

  9
$DIMASO
 70
     1
  9
$DIMSHO
 70
     1
  9
$DIMPOST
  1

  9
$DIMAPOST
  1

  9
$DIMALT
 70
     0
  9
$DIMALTD
 70
     3
  9
$DIMALTF
 40
0.0393700787
  9
$DIMLFAC
 40
1.0
  9
$DIMTOFL
 70
     1
  9
$DIMTVP
 40
0.0
  9
$DIMTIX
 70
     0
  9
$DIMSOXD
 70
     0
  9
$DIMSAH
 70
     0
  9
$DIMBLK1
  1

  9
$DIMBLK2
  1

  9
$DIMSTYLE
  2
ISO-25
  9
$DIMCLRD
 70
     0
  9
$DIMCLRE
 70
     0
  9
$DIMCLRT
 70
     0
  9
$DIMTFAC
 40
1.0
  9
$DIMGAP
 40
0.625
  9
$DIMJUST
 70
     0
  9
$DIMSD1
 70
     0
  9
$DIMSD2
 70
     0
  9
$DIMTOLJ
 70
     0
  9
$DIMTZIN
 70
     8
  9
$DIMALTZ
 70
     0
  9
$DIMALTTZ
 70
     0
  9
$DIMUPT
 70
     0
  9
$DIMDEC
 70
     2
  9
$DIMTDEC
 70
     2
  9
$DIMALTU
 70
     2
  9
$DIMALTTD
 70
     3
  9
$DIMTXSTY
  7
Standard
  9
$DIMAUNIT
 70
     0
  9
$DIMADEC
 70
     0
  9
$DIMALTRND
 40
0.0
  9
$DIMAZIN
 70
     0
  9
$DIMDSEP
 70
    44
  9
$DIMATFIT
 70
     3
  9
$DIMFRAC
 70
     0
  9
$DIMLDRBLK
  1

  9
$DIMLUNIT
 70
     2
  9
$DIMLWD
 70
    -2
  9
$DIMLWE
 70
    -2
  9
$DIMTMOVE
 70
     0
  9
$LUNITS
 70
     2
  9
$LUPREC
 70
     4
  9
$SKETCHINC
 40
1.0
  9
$FILLETRAD
 40
10.0
  9
$AUNITS
 70
     0
  9
$AUPREC
 70
     0
  9
$MENU
  1
.
  9
$ELEVATION
 40
0.0
  9
$PELEVATION
 40
0.0
  9
$THICKNESS
 40
0.0
  9
$LIMCHECK
 70
     0
  9
$CHAMFERA
 40
10.0
  9
$CHAMFERB
 40
10.0
  9
$CHAMFERC
 40
20.0
  9
$CHAMFERD
 40
0.0
  9
$SKPOLY
 70
     0
  9
$TDCREATE
 40
2455274.550670359
  9
$TDUCREATE
 40
2455274.509003692
  9
$TDUPDATE
 40
2455274.55067037
  9
$TDUUPDATE
 40
2455274.509003703
  9
$TDINDWG
 40
0.0000000116
  9
$TDUSRTIMER
 40
0.0000000116
  9
$USRTIMER
 70
     1
  9
$ANGBASE
 50
0.0
  9
$ANGDIR
 70
     0
  9
$PDMODE
 70
     0
  9
$PDSIZE
 40
0.0
  9
$PLINEWID
 40
0.0
  9
$SPLFRAME
 70
     0
  9
$SPLINETYPE
 70
     6
  9
$SPLINESEGS
 70
     8
  9
$HANDSEED
  5
173
  9
$SURFTAB1
 70
     6
  9
$SURFTAB2
 70
     6
  9
$SURFTYPE
 70
     6
  9
$SURFU
 70
     6
  9
$SURFV
 70
     6
  9
$UCSBASE
  2

  9
$UCSNAME
  2

  9
$UCSORG
 10
0.0
 20
0.0
 30
0.0
  9
$UCSXDIR
 10
1.0
 20
0.0
 30
0.0
  9
$UCSYDIR
 10
0.0
 20
1.0
 30
0.0
  9
$UCSORTHOREF
  2

  9
$UCSORTHOVIEW
 70
     0
  9
$UCSORGTOP
 10
0.0
 20
0.0
 30
0.0
  9
$UCSORGBOTTOM
 10
0.0
 20
0.0
 30
0.0
  9
$UCSORGLEFT
 10
0.0
 20
0.0
 30
0.0
  9
$UCSORGRIGHT
 10
0.0
 20
0.0
 30
0.0
  9
$UCSORGFRONT
 10
0.0
 20
0.0
 30
0.0
  9
$UCSORGBACK
 10
0.0
 20
0.0
 30
0.0
  9
$PUCSBASE
  2

  9
$PUCSNAME
  2

  9
$PUCSORG
 10
0.0
 20
0.0
 30
0.0
  9
$PUCSXDIR
 10
1.0
 20
0.0
 30
0.0
  9
$PUCSYDIR
 10
0.0
 20
1.0
 30
0.0
  9
$PUCSORTHOREF
  2

  9
$PUCSORTHOVIEW
 70
     0
  9
$PUCSORGTOP
 10
0.0
 20
0.0
 30
0.0
  9
$PUCSORGBOTTOM
 10
0.0
 20
0.0
 30
0.0
  9
$PUCSORGLEFT
 10
0.0
 20
0.0
 30
0.0
  9
$PUCSORGRIGHT
 10
0.0
 20
0.0
 30
0.0
  9
$PUCSORGFRONT
 10
0.0
 20
0.0
 30
0.0
  9
$PUCSORGBACK
 10
0.0
 20
0.0
 30
0.0
  9
$USERI1
 70
     0
  9
$USERI2
 70
     0
  9
$USERI3
 70
     0
  9
$USERI4
 70
     0
  9
$USERI5
 70
     0
  9
$USERR1
 40
0.0
  9
$USERR2
 40
0.0
  9
$USERR3
 40
0.0
  9
$USERR4
 40
0.0
  9
$USERR5
 40
0.0
  9
$WORLDVIEW
 70
     1
  9
$SHADEDGE
 70
     3
  9
$SHADEDIF
 70
    70
  9
$TILEMODE
 70
     1
  9
$MAXACTVP
 70
    64
  9
$PINSBASE
 10
0.0
 20
0.0
 30
0.0
  9
$PLIMCHECK
 70
     0
  9
$PEXTMIN
 10
0.0
 20
0.0
 30
0.0
  9
$PEXTMAX
 10
1682.0
 20
2378.0
 30
0.0
  9
$PLIMMIN
 10
0.0
 20
0.0
  9
$PLIMMAX
 10
1682.0
 20
2378.0
  9
$UNITMODE
 70
     0
  9
$VISRETAIN
 70
     1
  9
$PLINEGEN
 70
     0
  9
$PSLTSCALE
 70
     1
  9
$TREEDEPTH
 70
  3020
  9
$CMLSTYLE
  2
Standard
  9
$CMLJUST
 70
     0
  9
$CMLSCALE
 40
20.0
  9
$PROXYGRAPHICS
 70
     1
  9
$MEASUREMENT
 70
     1
  9
$CELWEIGHT
370
    -1
  9
$ENDCAPS
280
     0
  9
$JOINSTYLE
280
     0
  9
$LWDISPLAY
290
     0
  9
$INSUNITS
 70
     4
  9
$HYPERLINKBASE
  1

  9
$STYLESHEET
  1

  9
$XEDIT
290
     1
  9
$CEPSNTYPE
380
     0
  9
$PSTYLEMODE
290
     1
  9
$FINGERPRINTGUID
  2
{7583BC34-48E4-43D0-BE93-0B72C833DFCD}
  9
$VERSIONGUID
  2
{FAEB1C32-E019-11D5-929B-00C0DF256EC4}
  9
$EXTNAMES
290
     1
  9
$PSVPSCALE
 40
0.0
  9
$OLESTARTUP
290
     0
  0
ENDSEC
  0
SECTION
  2
CLASSES
  0
CLASS
  1
ACDBDICTIONARYWDFLT
  2
AcDbDictionaryWithDefault
  3
ObjectDBX Classes
 90
        0
280
     0
281
     0
  0
CLASS
  1
VISUALSTYLE
  2
AcDbVisualStyle
  3
ObjectDBX Classes
 90
     4095
280
     0
281
     0
  0
CLASS
  1
SCALE
  2
AcDbScale
  3
ObjectDBX Classes
 90
     1153
280
     0
281
     0
  0
CLASS
  1
DICTIONARYVAR
  2
AcDbDictionaryVar
  3
ObjectDBX Classes
 90
        0
280
     0
281
     0
  0
CLASS
  1
ACDBPLACEHOLDER
  2
AcDbPlaceHolder
  3
ObjectDBX Classes
 90
        0
280
     0
281
     0
  0
CLASS
  1
LAYOUT
  2
AcDbLayout
  3
ObjectDBX Classes
 90
        0
280
     0
281
     0
  0
ENDSEC
  0
SECTION
  2
TABLES
  0
TABLE
  2
VPORT
  5
8
330
0
100
AcDbSymbolTable
 70
     1
  0
VPORT
  5
29
330
8
100
AcDbSymbolTableRecord
100
AcDbViewportTableRecord
  2
*Active
 70
     0
 10
0.0
 20
0.0
 11
1.0
 21
1.0
 12
344.1869158879
 22
148.5
 13
0.0
 23
0.0
 14
10.0
 24
10.0
 15
10.0
 25
10.0
 16
0.0
 26
0.0
 36
1.0
 17
0.0
 27
0.0
 37
0.0
 40
297.0
 41
1.9729729729
 42
50.0
 43
0.0
 44
0.0
 50
0.0
 51
0.0
 71
     0
 72
   100
 73
     1
 74
     3
 75
     0
 76
     0
 77
     0
 78
     0
281
     0
 65
     1
110
0.0
120
0.0
130
0.0
111
1.0
121
0.0
131
0.0
112
0.0
122
1.0
132
0.0
 79
     0
146
0.0
  0
ENDTAB
  0
TABLE
  2
LTYPE
  5
5
330
0
100
AcDbSymbolTable
 70
     2
  0
LTYPE
  5
14
330
5
100
AcDbSymbolTableRecord
100
AcDbLinetypeTableRecord
  2
ByBlock
 70
     0
  3

 72
    65
 73
     0
 40
0.0
  0
LTYPE
  5
15
330
5
100
AcDbSymbolTableRecord
100
AcDbLinetypeTableRecord
  2
ByLayer
 70
     0
  3

 72
    65
 73
     0
 40
0.0
  0
LTYPE
  5
16
330
5
100
AcDbSymbolTableRecord
100
AcDbLinetypeTableRecord
  2
Continuous
 70
     0
  3
Solid line
 72
    65
 73
     0
 40
0.0
  0
LTYPE
  5
D3
330
5
100
AcDbSymbolTableRecord
100
AcDbLinetypeTableRecord
  2
CENTER2
 70
     0
  3
Center (.5x) ___ _ ___ _ ___ _ ___ _ ___ _ ___
 72
    65
 73
     4
 40
28.575
 49
19.05
 74
     4
 75
     0
340
0
 46
0.0
 50
0.0
 44
0.0
 45
0.0
 49
-3.175
 74
     4
 75
     0
340
0
 46
0.0
 50
0.0
 44
0.0
 45
0.0
 49
3.175
 74
     4
 75
     0
340
0
 46
0.0
 50
0.0
 44
0.0
 45
0.0
 49
-3.175
 74
     4
 75
     0
340
0
 46
0.0
 50
0.0
 44
0.0
 45
0.0
  0
ENDTAB
  0
TABLE
  2
LAYER
  5
2
330
0
100
AcDbSymbolTable
 70
    14
  0
LAYER
  5
10
330
2
100
AcDbSymbolTableRecord
100
AcDbLayerTableRecord
  2
0
 70
     0
 62
     7
  6
Continuous
370
    -3
390
F
  0
LAYER
  5
5D
330
2
100
AcDbSymbolTableRecord
100
AcDbLayerTableRecord
  2
Default
 70
     0
 62
     7
  6
Continuous
370
    -3
390
F
  0
LAYER
  5
60
330
2
100
AcDbSymbolTableRecord
100
AcDbLayerTableRecord
  2
$DDT_AUDIT_GENERATED_(60)
 70
     0
 62
     7
  6
Continuous
370
    -3
390
F
  0
LAYER
  5
6D
330
2
100
AcDbSymbolTableRecord
100
AcDbLayerTableRecord
  2
$DDT_AUDIT_GENERATED_(6D)
 70
     0
 62
     7
  6
Continuous
370
    -3
390
F
  0
LAYER
  5
71
330
2
100
AcDbSymbolTableRecord
100
AcDbLayerTableRecord
  2
$DDT_AUDIT_GENERATED_(71)
 70
     0
 62
     7
  6
Continuous
370
    -3
390
F
  0
LAYER
  5
7A
330
2
100
AcDbSymbolTableRecord
100
AcDbLayerTableRecord
  2
$DDT_AUDIT_GENERATED_(7A)
 70
     0
 62
     7
  6
Continuous
370
    -3
390
F
  0
LAYER
  5
82
330
2
100
AcDbSymbolTableRecord
100
AcDbLayerTableRecord
  2
$DDT_AUDIT_GENERATED_(82)
 70
     0
 62
     7
  6
Continuous
370
    -3
390
F
  0
LAYER
  5
95
330
2
100
AcDbSymbolTableRecord
100
AcDbLayerTableRecord
  2
$DDT_AUDIT_GENERATED_(95)
 70
     0
 62
     7
  6
Continuous
370
    -3
390
F
  0
LAYER
  5
A3
330
2
100
AcDbSymbolTableRecord
100
AcDbLayerTableRecord
  2
$DDT_AUDIT_GENERATED_(A3)
 70
     0
 62
     7
  6
Continuous
370
    -3
390
F
  0
LAYER
  5
B2
330
2
100
AcDbSymbolTableRecord
100
AcDbLayerTableRecord
  2
$DDT_AUDIT_GENERATED_(B2)
 70
     0
 62
     7
  6
Continuous
370
    -3
390
F
  0
LAYER
  5
CF
330
2
100
AcDbSymbolTableRecord
100
AcDbLayerTableRecord
  2
$DDT_AUDIT_GENERATED_(CF)
 70
     0
 62
     7
  6
Continuous
370
    -3
390
F
  0
LAYER
  5
D2
330
2
100
AcDbSymbolTableRecord
100
AcDbLayerTableRecord
  2
DV1_Standard
 70
     0
 62
     7
  6
Continuous
370
    -3
390
F
  0
LAYER
  5
10C
330
2
100
AcDbSymbolTableRecord
100
AcDbLayerTableRecord
  2
DV2_Standard
 70
     0
 62
     7
  6
Continuous
370
    -3
390
F
  0
LAYER
  5
159
330
2
100
AcDbSymbolTableRecord
100
AcDbLayerTableRecord
  2
DV3_Standard
 70
     0
 62
     7
  6
Continuous
370
    -3
390
F
  0
ENDTAB
  0
TABLE
  2
STYLE
  5
3
330
0
100
AcDbSymbolTable
 70
     2
  0
STYLE
  5
11
330
3
100
AcDbSymbolTableRecord
100
AcDbTextStyleTableRecord
  2
Standard
 70
     0
 40
0.0
 41
1.0
 50
0.0
 71
     0
 42
2.5
  3
txt
  4

  0
STYLE
  5
162
330
3
100
AcDbSymbolTableRecord
100
AcDbTextStyleTableRecord
  2
SEACAD_seiso_ttf
 70
     0
 40
0.0
 41
1.0
 50
0.0
 71
     0
 42
0.2
  3
seiso.ttf
  4

  0
ENDTAB
  0
TABLE
  2
VIEW
  5
6
330
0
100
AcDbSymbolTable
 70
     0
  0
ENDTAB
  0
TABLE
  2
UCS
  5
7
330
0
100
AcDbSymbolTable
 70
     0
  0
ENDTAB
  0
TABLE
  2
APPID
  5
9
330
0
100
AcDbSymbolTable
 70
     1
  0
APPID
  5
12
330
9
100
AcDbSymbolTableRecord
100
AcDbRegAppTableRecord
  2
ACAD
 70
     0
  0
ENDTAB
  0
TABLE
  2
DIMSTYLE
  5
A
330
0
100
AcDbSymbolTable
 70
     1
100
AcDbDimStyleTable
  0
DIMSTYLE
105
27
330
A
100
AcDbSymbolTableRecord
100
AcDbDimStyleTableRecord
  2
ISO-25
 70
     0
 41
2.5
 42
0.625
 43
3.75
 44
1.25
 73
     0
 74
     0
 77
     1
 78
     8
140
2.5
141
2.5
143
0.0393700787
147
0.625
171
     3
172
     1
271
     2
272
     2
274
     3
278
    44
283
     0
284
     8
340
11
  0
ENDTAB
  0
TABLE
  2
BLOCK_RECORD
  5
1
330
0
100
AcDbSymbolTable
 70
     4
  0
BLOCK_RECORD
  5
1F
330
1
100
AcDbSymbolTableRecord
100
AcDbBlockTableRecord
  2
*Model_Space
340
22
  0
BLOCK_RECORD
  5
1B
330
1
100
AcDbSymbolTableRecord
100
AcDbBlockTableRecord
  2
*Paper_Space
340
1E
  0
BLOCK_RECORD
  5
5E
330
1
100
AcDbSymbolTableRecord
100
AcDbBlockTableRecord
  2
SE
340
0
102
{BLKREFS
331
5F
102
}
  0
BLOCK_RECORD
  5
D8
330
1
100
AcDbSymbolTableRecord
100
AcDbBlockTableRecord
  2
SE1
340
0
102
{BLKREFS
331
D9
102
}
  0
BLOCK_RECORD
  5
111
330
1
100
AcDbSymbolTableRecord
100
AcDbBlockTableRecord
  2
SE2
340
0
102
{BLKREFS
331
112
102
}
  0
ENDTAB
  0
ENDSEC
  0
SECTION
  2
BLOCKS
  0
BLOCK
  5
20
330
1F
100
AcDbEntity
  8
0
100
AcDbBlockBegin
  2
*Model_Space
 70
     0
 10
0.0
 20
0.0
 30
0.0
  3
*Model_Space
  1

  0
ENDBLK
  5
21
330
1F
100
AcDbEntity
  8
0
100
AcDbBlockEnd
  0
BLOCK
  5
1C
330
1B
100
AcDbEntity
 67
     1
  8
0
100
AcDbBlockBegin
  2
*Paper_Space
 70
     0
 10
0.0
 20
0.0
 30
0.0
  3
*Paper_Space
  1

  0
ENDBLK
  5
1D
330
1B
100
AcDbEntity
 67
     1
  8
0
100
AcDbBlockEnd
  0
BLOCK
  5
D6
330
5E
100
AcDbEntity
  8
0
100
AcDbBlockBegin
  2
SE
 70
     0
 10
0.0
 20
0.0
 30
0.0
  3
SE
  1

  0
LINE
  5
61
330
5E
100
AcDbEntity
  8
$DDT_AUDIT_GENERATED_(60)
  6
Continuous
 62
     7
100
AcDbLine
 10
85.7483873136
 20
619.3811983607
 30
0.0
 11
85.7483873136
 21
568.3811983607
 31
0.0
  0
SPLINE
  5
62
330
5E
100
AcDbEntity
  8
$DDT_AUDIT_GENERATED_(60)
  6
Continuous
 62
     7
100
AcDbSpline
210
0.0
220
0.0
230
1.0
 70
     8
 71
     3
 72
    34
 73
    30
 74
     0
 42
0.0000000001250112
 43
0.0000000001
 40
0.5003300637028526
 40
0.5003300637028526
 40
0.5003300637028526
 40
0.5003300637028526
 40
0.5312500000000008
 40
0.5312500000000008
 40
0.5625000000000007
 40
0.5625000000000007
 40
0.6250000000000008
 40
0.6250000000000008
 40
0.6562500000000007
 40
0.6562500000000007
 40
0.6875000000000007
 40
0.6875000000000007
 40
0.7187500000000007
 40
0.7187500000000007
 40
0.7500000000000006
 40
0.7500000000000006
 40
0.7812500000000006
 40
0.7812500000000006
 40
0.8125000000000006
 40
0.8125000000000006
 40
0.8750000000000003
 40
0.8750000000000003
 40
0.9062500000000003
 40
0.9062500000000003
 40
0.9375000000000003
 40
0.9375000000000003
 40
0.9687500000000001
 40
0.9687500000000001
 40
1.0
 40
1.0
 40
1.0
 40
1.0
 10
59.04838644292318
 20
567.8811991218981
 30
0.0
 10
59.04833342595636
 20
567.8812456093907
 30
0.0
 10
58.92322505041049
 20
567.9692557327081
 30
0.0
 10
58.43249716055071
 20
568.3091576612867
 30
0.0
 10
58.07002580880911
 20
568.5588367809956
 30
0.0
 10
56.65399012357236
 20
569.5073243510889
 30
0.0
 10
55.30449557389698
 20
570.3878015895724
 30
0.0
 10
52.85901777050606
 20
571.7776827935709
 30
0.0
 10
51.97681166620674
 20
572.2502654769784
 30
0.0
 10
50.06265361199269
 20
573.1698939047758
 30
0.0
 10
49.03300581813576
 20
573.6147240593274
 30
0.0
 10
46.87242216975347
 20
574.3868146440634
 30
0.0
 10
45.71903504913695
 20
574.7212647556219
 30
0.0
 10
43.32390388545176
 20
575.1860645370353
 30
0.0
 10
42.10024378805288
 20
575.3135895806477
 30
0.0
 10
39.59341404879076
 20
575.3133791814922
 30
0.0
 10
38.366048739676
 20
575.1850395804101
 30
0.0
 10
35.97470624553596
 20
574.7203759489304
 30
0.0
 10
34.81840776721076
 20
574.3849402155282
 30
0.0
 10
31.57949780420322
 20
573.2267551082483
 30
0.0
 10
29.64802086611102
 20
572.2384422130358
 30
0.0
 10
27.20227063855155
 20
570.8480337586152
 30
0.0
 10
26.45213233052075
 20
570.3917415820765
 30
0.0
 10
25.14554496399775
 20
569.569026921821
 30
0.0
 10
24.58091603642504
 20
569.1978263881481
 30
0.0
 10
23.64131090770865
 20
568.5687170793276
 30
0.0
 10
23.26895013222133
 20
568.3123679356394
 30
0.0
 10
22.7767100774093
 20
567.9714705384993
 30
0.0
 10
22.64838731358515
 20
567.8811983606797
 30
0.0
 10
22.64838731358515
 20
567.8811983606797
 30
0.0
  0
ARC
  5
63
330
5E
100
AcDbEntity
  8
$DDT_AUDIT_GENERATED_(60)
  6
Continuous
 62
     7
100
AcDbCircle
 10
34.4483872967
 20
642.2768906293
 30
0.0
 40
25.82033202576185
100
AcDbArc
 50
240.1540462407
 51
299.8459547428
  0
ARC
  5
64
330
5E
100
AcDbEntity
  8
$DDT_AUDIT_GENERATED_(60)
  6
Continuous
 62
     7
100
AcDbCircle
 10
113.4083873136
 20
593.8811983607
 30
0.0
 40
100.0
100
AcDbArc
 50
165.1504721945
 51
194.8495278055
  0
ARC
  5
65
330
5E
100
AcDbEntity
  8
$DDT_AUDIT_GENERATED_(60)
  6
Continuous
 62
     7
100
AcDbCircle
 10
85.2483873136
 20
568.3811983607
 30
0.0
 40
0.5000000000000073
100
AcDbArc
 50
270.0
 51
0.0
  0
ARC
  5
66
330
5E
100
AcDbEntity
  8
$DDT_AUDIT_GENERATED_(60)
  6
Continuous
 62
     7
100
AcDbCircle
 10
85.2483873136
 20
619.3811983607
 30
0.0
 40
0.5000000000000004
100
AcDbArc
 50
0.0
 51
90.0
  0
ARC
  5
67
330
5E
100
AcDbEntity
  8
$DDT_AUDIT_GENERATED_(60)
  6
Continuous
 62
     7
100
AcDbCircle
 10
17.2314670052
 20
619.3811983607
 30
0.0
 40
0.5000000000000004
100
AcDbArc
 50
90.0
 51
165.1504721945
  0
ARC
  5
68
330
5E
100
AcDbEntity
  8
$DDT_AUDIT_GENERATED_(60)
  6
Continuous
 62
     7
100
AcDbCircle
 10
17.2314670052
 20
568.3811983607
 30
0.0
 40
0.4999999999999936
100
AcDbArc
 50
194.8495278055
 51
270.0
  0
LINE
  5
69
330
5E
100
AcDbEntity
  8
$DDT_AUDIT_GENERATED_(60)
  6
Continuous
 62
     7
100
AcDbLine
 10
21.6056375859
 20
619.8811983607
 30
0.0
 11
17.2314670052
 21
619.8811983607
 31
0.0
  0
LINE
  5
6A
330
5E
100
AcDbEntity
  8
$DDT_AUDIT_GENERATED_(60)
  6
Continuous
 62
     7
100
AcDbLine
 10
85.2483873136
 20
619.8811983607
 30
0.0
 11
47.2887116715
 21
619.8811983607
 31
0.0
  0
LINE
  5
6B
330
5E
100
AcDbEntity
  8
$DDT_AUDIT_GENERATED_(60)
  6
Continuous
 62
     7
100
AcDbLine
 10
59.0477408544
 20
567.8811983607
 30
0.0
 11
85.2483873136
 21
567.8811983607
 31
0.0
  0
LINE
  5
6C
330
5E
100
AcDbEntity
  8
$DDT_AUDIT_GENERATED_(60)
  6
Continuous
 62
     7
100
AcDbLine
 10
17.2314670052
 20
567.8811983607
 30
0.0
 11
22.6483873136
 21
567.8811983607
 31
0.0
  0
LINE
  5
6E
330
5E
100
AcDbEntity
  8
$DDT_AUDIT_GENERATED_(6D)
  6
Continuous
 62
     7
100
AcDbLine
 10
22.8483873136
 20
510.1811983607
 30
0.0
 11
58.8483873136
 21
510.1811983607
 31
0.0
  0
LINE
  5
6F
330
5E
100
AcDbEntity
  8
$DDT_AUDIT_GENERATED_(6D)
  6
Continuous
 62
     7
100
AcDbLine
 10
22.8483873136
 20
568.0207370832
 30
0.0
 11
22.8483873136
 21
510.1811983607
 31
0.0
  0
LINE
  5
70
330
5E
100
AcDbEntity
  8
$DDT_AUDIT_GENERATED_(6D)
  6
Continuous
 62
     7
100
AcDbLine
 10
58.8483873136
 20
510.1811983607
 30
0.0
 11
58.8483873136
 21
568.0207987473
 31
0.0
  0
LINE
  5
72
330
5E
100
AcDbEntity
  8
$DDT_AUDIT_GENERATED_(71)
  6
Continuous
 62
     7
100
AcDbLine
 10
13.8483873136
 20
505.6811983607
 30
0.0
 11
67.8483873136
 21
505.6811983607
 31
0.0
  0
LINE
  5
73
330
5E
100
AcDbEntity
  8
$DDT_AUDIT_GENERATED_(71)
  6
Continuous
 62
     7
100
AcDbLine
 10
22.8483873136
 20
510.1811983607
 30
0.0
 11
58.8483873136
 21
510.1811983607
 31
0.0
  0
LINE
  5
74
330
5E
100
AcDbEntity
  8
$DDT_AUDIT_GENERATED_(71)
  6
Continuous
 62
     7
100
AcDbLine
 10
13.8483873136
 20
508.5622169321
 30
0.0
 11
13.8483873136
 21
505.6811983607
 31
0.0
  0
LINE
  5
75
330
5E
100
AcDbEntity
  8
$DDT_AUDIT_GENERATED_(71)
  6
Continuous
 62
     7
100
AcDbLine
 10
67.8483873136
 20
505.6811983607
 30
0.0
 11
67.8483873136
 21
508.5622169321
 31
0.0
  0
ARC
  5
76
330
5E
100
AcDbEntity
  8
$DDT_AUDIT_GENERATED_(71)
  6
Continuous
 62
     7
100
AcDbCircle
 10
31.5511328267
 20
410.5606070126
 30
0.0
 40
100.0
100
AcDbArc
 50
94.9926216254
 51
99.9560038527
  0
ARC
  5
77
330
5E
100
AcDbEntity
  8
$DDT_AUDIT_GENERATED_(71)
  6
Continuous
 62
     7
100
AcDbCircle
 10
50.1456418005
 20
410.5606070126
 30
0.0
 40
100.0
100
AcDbArc
 50
80.0439961473
 51
85.0073783746
  0
ARC
  5
78
330
5E
100
AcDbEntity
  8
$DDT_AUDIT_GENERATED_(71)
  6
Continuous
 62
     7
100
AcDbCircle
 10
67.3483873136
 20
508.5622169321
 30
0.0
 40
0.5000000000000004
100
AcDbArc
 50
0.0
 51
80.0439961473
  0
ARC
  5
79
330
5E
100
AcDbEntity
  8
$DDT_AUDIT_GENERATED_(71)
  6
Continuous
 62
     7
100
AcDbCircle
 10
14.3483873136
 20
508.5622169321
 30
0.0
 40
0.5000000000000148
100
AcDbArc
 50
99.9560038527
 51
180.0
  0
LINE
  5
7B
330
5E
100
AcDbEntity
  8
$DDT_AUDIT_GENERATED_(7A)
  6
Continuous
 62
     7
100
AcDbLine
 10
22.0483873136
 20
722.5700245416
 30
0.0
 11
22.0483873136
 21
619.6617491392
 31
0.0
  0
LINE
  5
7C
330
5E
100
AcDbEntity
  8
$DDT_AUDIT_GENERATED_(7A)
  6
Continuous
 62
     7
100
AcDbLine
 10
46.8483873136
 20
619.6627396918
 30
0.0
 11
46.8483873136
 21
722.5680138813
 31
0.0
  0
ARC
  5
7D
330
5E
100
AcDbEntity
  8
$DDT_AUDIT_GENERATED_(7A)
  6
Continuous
 62
     7
100
AcDbCircle
 10
34.4483873136
 20
852.9811983607
 30
0.0
 40
12.4
100
AcDbArc
 50
0.0
 51
180.0
  0
LINE
  5
7E
330
5E
100
AcDbEntity
  8
$DDT_AUDIT_GENERATED_(7A)
  6
Continuous
 62
     7
100
AcDbLine
 10
22.0483873136
 20
852.9811983607
 30
0.0
 11
22.0483873136
 21
767.040608838
 31
0.0
  0
LINE
  5
7F
330
5E
100
AcDbEntity
  8
$DDT_AUDIT_GENERATED_(7A)
  6
Continuous
 62
     7
100
AcDbLine
 10
46.8483873136
 20
767.040608838
 30
0.0
 11
46.8483873136
 21
852.9811983607
 31
0.0
  0
LINE
  5
80
330
5E
100
AcDbEntity
  8
$DDT_AUDIT_GENERATED_(7A)
  6
Continuous
 62
     7
100
AcDbLine
 10
46.8483873136
 20
761.9592864922
 30
0.0
 11
46.8483873136
 21
767.040608838
 31
0.0
  0
LINE
  5
81
330
5E
100
AcDbEntity
  8
$DDT_AUDIT_GENERATED_(7A)
  6
Continuous
 62
     7
100
AcDbLine
 10
22.0483873136
 20
767.040608838
 30
0.0
 11
22.0483873136
 21
761.9629914346
 31
0.0
  0
ELLIPSE
  5
83
330
5E
100
AcDbEntity
  8
$DDT_AUDIT_GENERATED_(82)
  6
Continuous
 62
     7
100
AcDbEllipse
 10
34.4483873136
 20
723.7090677128
 30
0.0
 11
12.81999999731424
 21
0.0
 31
0.0
210
0.0
220
0.0
230
1.0
 40
0.1736481777
 41
0.7978608304777954
 42
2.340177613815012
  0
ELLIPSE
  5
84
330
5E
100
AcDbEntity
  8
$DDT_AUDIT_GENERATED_(82)
  6
Continuous
 62
     7
100
AcDbEllipse
 10
34.4483873136
 20
760.7565922825
 30
0.0
 11
13.66722717911179
 21
0.0
 31
0.0
210
0.0
220
0.0
230
1.0
 40
0.1736481777
 41
0.0581080445242491
 42
3.083233014975702
  0
ARC
  5
85
330
5E
100
AcDbEntity
  8
$DDT_AUDIT_GENERATED_(82)
  6
Continuous
 62
     7
100
AcDbCircle
 10
-239.6402059171
 20
745.8290835248
 30
0.0
 40
260.0652199155641
100
AcDbArc
 50
355.3638271342
 51
359.0879874169
  0
ARC
  5
86
330
5E
100
AcDbEntity
  8
$DDT_AUDIT_GENERATED_(82)
  6
Continuous
 62
     7
100
AcDbCircle
 10
306.8634273837
 20
745.7687734349
 30
0.0
 40
258.3903307321529
100
AcDbArc
 50
180.9045647879
 51
184.6528354373
  0
LINE
  5
87
330
5E
100
AcDbEntity
  8
$DDT_AUDIT_GENERATED_(82)
  6
Continuous
 62
     7
100
AcDbLine
 10
49.3142229313
 20
724.7096179481
 30
0.0
 11
49.3218363103
 21
724.8074739891
 31
0.0
  0
SPLINE
  5
88
330
5E
100
AcDbEntity
  8
$DDT_AUDIT_GENERATED_(82)
  6
Continuous
 62
     7
100
AcDbSpline
210
0.0
220
0.0
230
1.0
 70
     8
 71
     3
 72
    15
 73
    11
 74
     0
 42
0.000000000465582
 43
0.0000000001
 40
0.0
 40
0.0
 40
0.0
 40
0.0
 40
0.0187736761218526
 40
0.0399007109693837
 40
0.0675644162277324
 40
0.0924680846667501
 40
0.116336721355967
 40
0.1394004359480575
 40
0.180033530067378
 40
0.1928446160618627
 40
0.1928446160618627
 40
0.1928446160618627
 40
0.1928446160618627
 10
19.58408581661176
 20
724.7122103934294
 30
0.0
 10
19.58794506368696
 20
724.5629638003917
 30
0.0
 10
19.59808791058622
 20
724.2967053889449
 30
0.0
 10
19.80483937184426
 20
723.8611750948692
 30
0.0
 10
20.12480197440441
 20
723.494968448139
 30
0.0
 10
20.5261561658163
 20
723.2014012695365
 30
0.0
 10
20.95127733989099
 20
722.9716459649803
 30
0.0
 10
21.49502442753418
 20
722.7383173091192
 30
0.0
 10
22.06816958522092
 20
722.5480323105853
 30
0.0
 10
22.51882172260266
 20
722.4249584880562
 30
0.0
 10
22.62970787617508
 20
722.3960043689525
 30
0.0
  0
SPLINE
  5
89
330
5E
100
AcDbEntity
  8
$DDT_AUDIT_GENERATED_(82)
  6
Continuous
 62
     7
100
AcDbSpline
210
0.0
220
0.0
230
1.0
 70
     8
 71
     3
 72
    18
 73
    14
 74
     0
 42
0.0000000004645491
 43
0.0000000001
 40
0.8078456247117678
 40
0.8078456247117678
 40
0.8078456247117678
 40
0.8078456247117678
 40
0.8165434441341
 40
0.8499726334400264
 40
0.862187989170235
 40
0.8742388062216322
 40
0.8861300671436989
 40
0.9001837627004621
 40
0.918999052005666
 40
0.9427357098091917
 40
0.9613592934808269
 40
0.9822194743976413
 40
1.0
 40
1.0
 40
1.0
 40
1.0
 10
46.26142950607803
 20
722.3943265190347
 30
0.0
 10
46.33622968612667
 20
722.4137969873033
 30
0.0
 10
46.69192239022478
 20
722.5091956366285
 30
0.0
 10
47.10954094963567
 20
722.6392018188358
 30
0.0
 10
47.51383439745705
 20
722.7900823354526
 30
0.0
 10
47.75442011445052
 20
722.889968280338
 30
0.0
 10
47.98719114726084
 20
722.9974764663876
 30
0.0
 10
48.26827200826992
 20
723.1459615783
 30
0.0
 10
48.61574952583793
 20
723.3754166198439
 30
0.0
 10
48.92981410329071
 20
723.6706692153612
 30
0.0
 10
49.1655471497917
 20
724.0147521737913
 30
0.0
 10
49.30694474262605
 20
724.3630866912563
 30
0.0
 10
49.31288020016449
 20
724.587221682061
 30
0.0
 10
49.31422293132192
 20
724.709617948108
 30
0.0
  0
LINE
  5
8A
330
5E
100
AcDbEntity
  8
$DDT_AUDIT_GENERATED_(82)
  6
Continuous
 62
     7
100
AcDbLine
 10
19.5749370851
 20
724.807509439
 30
0.0
 11
19.5840858166
 21
724.7122103934
 31
0.0
  0
LINE
  5
8B
330
5E
100
AcDbEntity
  8
$DDT_AUDIT_GENERATED_(82)
  6
Continuous
 62
     7
100
AcDbLine
 10
48.4956765682
 20
741.6893168692
 30
0.0
 11
48.1654003763
 21
760.323278715
 31
0.0
  0
LINE
  5
8C
330
5E
100
AcDbEntity
  8
$DDT_AUDIT_GENERATED_(82)
  6
Continuous
 62
     7
100
AcDbLine
 10
20.7313742509
 20
760.323278715
 30
0.0
 11
20.401098059
 21
741.6893168692
 31
0.0
  0
SPLINE
  5
8D
330
5E
100
AcDbEntity
  8
$DDT_AUDIT_GENERATED_(82)
  6
Continuous
 62
     7
100
AcDbSpline
210
0.0
220
0.0
230
1.0
 70
     8
 71
     3
 72
    17
 73
    13
 74
     0
 42
0.0000000024503067
 43
0.0000000001
 40
0.0
 40
0.0
 40
0.0
 40
0.0
 40
0.0967881262859215
 40
0.194354495464861
 40
0.2914087705835738
 40
0.3877302787802965
 40
0.4829855273027494
 40
0.5766760781096281
 40
0.6680982144938478
 40
0.7564206713278139
 40
0.8411991632830862
 40
0.9020340767433861
 40
0.9020340767433861
 40
0.9020340767433861
 40
0.9020340767433861
 10
43.31895551260492
 20
725.3015750677746
 30
0.0
 10
43.56812668027541
 20
725.2577310791027
 30
0.0
 10
43.98760848952623
 20
725.1831085656449
 30
0.0
 10
44.60718701411189
 20
725.0499796967109
 30
0.0
 10
45.14851313694729
 20
724.9138550469822
 30
0.0
 10
45.62155558777233
 20
724.7727391507138
 30
0.0
 10
46.01727283201145
 20
724.6306285380638
 30
0.0
 10
46.33253302297724
 20
724.4913690040227
 30
0.0
 10
46.56351688779466
 20
724.3614588912693
 30
0.0
 10
46.708670569349
 20
724.2514155394772
 30
0.0
 10
46.76795606742591
 20
724.1831037167806
 30
0.0
 10
46.7725664539966
 20
724.1703289380334
 30
0.0
 10
46.77285433709535
 20
724.1700497296285
 30
0.0
  0
SPLINE
  5
8E
330
5E
100
AcDbEntity
  8
$DDT_AUDIT_GENERATED_(82)
  6
Continuous
 62
     7
100
AcDbSpline
210
0.0
220
0.0
230
1.0
 70
     8
 71
     3
 72
    18
 73
    14
 74
     0
 42
0.0000000024337973
 43
0.0000000001
 40
0.0945036089524566
 40
0.0945036089524566
 40
0.0945036089524566
 40
0.0945036089524566
 40
0.1588408159100694
 40
0.2435036256033895
 40
0.3261601774082306
 40
0.4111303087155507
 40
0.4995543847677134
 40
0.5909390660576915
 40
0.6845343619313728
 40
0.7796847345445265
 40
0.8759061439846374
 40
0.9728653217460419
 40
1.0
 40
1.0
 40
1.0
 40
1.0
 10
22.12382559484899
 20
724.1698022079454
 30
0.0
 10
22.12432963926868
 20
724.1700115407574
 30
0.0
 10
22.12932568823775
 20
724.1844990830447
 30
0.0
 10
22.19096842168683
 20
724.253630447806
 30
0.0
 10
22.33018491128428
 20
724.3586996958295
 30
0.0
 10
22.5424860504051
 20
724.4798027714074
 30
0.0
 10
22.83205901992432
 20
724.6110799809222
 30
0.0
 10
23.20066395143893
 20
724.7477029625016
 30
0.0
 10
23.64638809222526
 20
724.8852905572693
 30
0.0
 10
24.16681447713473
 20
725.0211463839323
 30
0.0
 10
24.75374571427157
 20
725.1504847183111
 30
0.0
 10
25.256423589785
 20
725.2486701806678
 30
0.0
 10
25.54302183539578
 20
725.2946256953281
 30
0.0
 10
25.61643389803483
 20
725.3063579042231
 30
0.0
  0
LINE
  5
8F
330
5E
100
AcDbEntity
  8
$DDT_AUDIT_GENERATED_(82)
  6
Continuous
 62
     7
100
AcDbLine
 10
48.1655451682
 20
760.3151096503
 30
0.0
 11
48.1624875519
 21
760.4876183188
 31
0.0
  0
LINE
  5
90
330
5E
100
AcDbEntity
  8
$DDT_AUDIT_GENERATED_(82)
  6
Continuous
 62
     7
100
AcDbLine
 10
20.7342870753
 20
760.4876183188
 30
0.0
 11
20.7312294589
 21
760.3151096503
 31
0.0
  0
SPLINE
  5
91
330
5E
100
AcDbEntity
  8
$DDT_AUDIT_GENERATED_(82)
  6
Continuous
 62
     7
100
AcDbSpline
210
0.0
220
0.0
230
1.0
 70
     8
 71
     3
 72
    19
 73
    15
 74
     0
 42
0.0000000018033781
 43
0.0000000001
 40
0.0
 40
0.0
 40
0.0
 40
0.0
 40
0.0135760248758429
 40
0.1083979777715621
 40
0.2034737581334812
 40
0.2989052575820664
 40
0.3948485051140039
 40
0.49155080152573
 40
0.5894153334353431
 40
0.6890962748280429
 40
0.7914788293034605
 40
0.8772044394926571
 40
0.9493545467819015
 40
1.0
 40
1.0
 40
1.0
 40
1.0
 10
25.76638261654211
 20
762.8669408612855
 30
0.0
 10
25.72402352578604
 20
762.8609998993636
 30
0.0
 10
25.43376476042564
 20
762.8202186701676
 30
0.0
 10
24.88641511611175
 20
762.726165161828
 30
0.0
 10
24.19019983651283
 20
762.592632364069
 30
0.0
 10
23.54679009108904
 20
762.4464500898824
 30
0.0
 10
22.9640204816196
 20
762.290524946305
 30
0.0
 10
22.4421513279543
 20
762.1234595201679
 30
0.0
 10
21.98193591840117
 20
761.9436030920175
 30
0.0
 10
21.5828697235433
 20
761.746665684095
 30
0.0
 10
21.26382517030109
 20
761.5369068229159
 30
0.0
 10
21.03078723016109
 20
761.3165543396599
 30
0.0
 10
20.87367938899029
 20
761.0983538767781
 30
0.0
 10
20.82835594521943
 20
760.9552900931856
 30
0.0
 10
20.80680445522251
 20
760.8851910031486
 30
0.0
  0
SPLINE
  5
92
330
5E
100
AcDbEntity
  8
$DDT_AUDIT_GENERATED_(82)
  6
Continuous
 62
     7
100
AcDbSpline
210
0.0
220
0.0
230
1.0
 70
     8
 71
     3
 72
    18
 73
    14
 74
     0
 42
0.0000000019813801
 43
0.0000000001
 40
0.0
 40
0.0
 40
0.0
 40
0.0
 40
0.0452255083340973
 40
0.1170477442456566
 40
0.1970187685533084
 40
0.2906594417834097
 40
0.3971698801343738
 40
0.5060544007240244
 40
0.6121978565842007
 40
0.7162206915948663
 40
0.8188968588410226
 40
0.9207139772343754
 40
1.0
 40
1.0
 40
1.0
 40
1.0
 10
48.09386897348507
 20
760.8611822999796
 30
0.0
 10
48.07905197376456
 20
760.9215668671222
 30
0.0
 10
48.04569549656015
 20
761.0533586387646
 30
0.0
 10
47.91371883286318
 20
761.2562942265346
 30
0.0
 10
47.71937584874071
 20
761.4631335266091
 30
0.0
 10
47.44684099566489
 20
761.6659690266949
 30
0.0
 10
47.0879276994002
 20
761.864601849683
 30
0.0
 10
46.64281097997058
 20
762.0549246356508
 30
0.0
 10
46.12895736379692
 20
762.2315717256158
 30
0.0
 10
45.55456136410291
 20
762.3949076443288
 30
0.0
 10
44.92649793435725
 20
762.5449881064551
 30
0.0
 10
44.27760046742746
 20
762.6782263931697
 30
0.0
 10
43.86222643981937
 20
762.7486981954936
 30
0.0
 10
43.64635192649253
 20
762.7849790587919
 30
0.0
  0
ARC
  5
93
330
5E
100
AcDbEntity
  8
$DDT_AUDIT_GENERATED_(82)
  6
Continuous
 62
     7
100
AcDbCircle
 10
21.8233521157
 20
760.4949390858
 30
0.0
 40
1.087764191680736
100
AcDbArc
 50
158.1021869144
 51
179.7072065204
  0
ARC
  5
94
330
5E
100
AcDbEntity
  8
$DDT_AUDIT_GENERATED_(82)
  6
Continuous
 62
     7
100
AcDbCircle
 10
47.0517473668
 20
760.4926945206
 30
0.0
 40
1.109020754979941
100
AcDbArc
 50
0.2692380426
 51
21.4885233854
  0
ELLIPSE
  5
96
330
5E
100
AcDbEntity
  8
$DDT_AUDIT_GENERATED_(95)
  6
Continuous
 62
     7
100
AcDbEllipse
 10
34.4483873136
 20
719.5728751413
 30
0.0
 11
10.75000000000001
 21
0.0
 31
0.0
210
0.0
220
0.0
230
1.0
 40
0.1736481777
 41
0.0
 42
6.283185307179586
  0
ARC
  5
97
330
5E
100
AcDbEntity
  8
$DDT_AUDIT_GENERATED_(95)
  6
Continuous
 62
     7
100
AcDbCircle
 10
34.4483873136
 20
741.3207275939
 30
0.0
 40
19.69557774286605
100
AcDbArc
 50
262.4538880464
 51
277.5461119536
  0
LINE
  5
98
330
5E
100
AcDbEntity
  8
$DDT_AUDIT_GENERATED_(95)
  6
Continuous
 62
     7
100
AcDbLine
 10
38.7192186144
 20
724.4374283547
 30
0.0
 11
30.1775560128
 21
724.4374283547
 31
0.0
  0
LINE
  5
99
330
5E
100
AcDbEntity
  8
$DDT_AUDIT_GENERATED_(95)
  6
Continuous
 62
     7
100
AcDbLine
 10
38.7192186144
 20
724.4374283547
 30
0.0
 11
38.7192186144
 21
722.6485920893
 31
0.0
  0
SPLINE
  5
9A
330
5E
100
AcDbEntity
  8
$DDT_AUDIT_GENERATED_(95)
  6
Continuous
 62
     7
100
AcDbSpline
210
0.0
220
0.0
230
1.0
 70
     8
 71
     3
 72
    14
 73
    10
 74
     0
 42
0.0000000049511002
 43
0.0000000001
 40
0.0
 40
0.0
 40
0.0
 40
0.0
 40
0.1250000000000004
 40
0.1250000000000004
 40
0.2500000000000009
 40
0.2500000000000009
 40
0.5000000000000008
 40
0.5000000000000008
 40
1.0
 40
1.0
 40
1.0
 40
1.0
 10
38.71921861439771
 20
722.6485920893108
 30
0.0
 10
38.71921861439772
 20
722.5656306050051
 30
0.0
 10
38.68708712311783
 20
722.482771584654
 30
0.0
 10
38.59128952388676
 20
722.345688412298
 30
0.0
 10
38.52816265959387
 20
722.2875695859327
 30
0.0
 10
38.32585270881313
 20
722.1387445433496
 30
0.0
 10
38.16986309856129
 20
722.0684246205819
 30
0.0
 10
37.6990970141269
 20
721.8996560324422
 30
0.0
 10
37.3666837360893
 20
721.8389045532956
 30
0.0
 10
37.03489074486073
 20
721.7957235573583
 30
0.0
  0
SPLINE
  5
9B
330
5E
100
AcDbEntity
  8
$DDT_AUDIT_GENERATED_(95)
  6
Continuous
 62
     7
100
AcDbSpline
210
0.0
220
0.0
230
1.0
 70
     8
 71
     3
 72
    18
 73
    14
 74
     0
 42
0.000000004959011
 43
0.0000000001
 40
0.0
 40
0.0
 40
0.0
 40
0.0
 40
0.2499999999999998
 40
0.2499999999999998
 40
0.4999999999999997
 40
0.4999999999999997
 40
0.6249999999999992
 40
0.6249999999999992
 40
0.7499999999999989
 40
0.7499999999999989
 40
0.8749999999999994
 40
0.8749999999999994
 40
1.0
 40
1.0
 40
1.0
 40
1.0
 10
31.86188388230957
 20
721.7957235573583
 30
0.0
 10
31.69549110214601
 20
721.8173786439759
 30
0.0
 10
31.5299385459292
 20
721.8440415827696
 30
0.0
 10
31.20157079938468
 20
721.9136825437081
 30
0.0
 10
31.03880080172636
 20
721.9564752232866
 30
0.0
 10
30.80332884395728
 20
722.0410994128523
 30
0.0
 10
30.72615990201125
 20
722.0727793438383
 30
0.0
 10
30.5758340125889
 20
722.1466779076575
 30
0.0
 10
30.5022634196402
 20
722.189158553441
 30
0.0
 10
30.36824523683811
 20
722.2879336381982
 30
0.0
 10
30.30586685296331
 20
722.3451599958703
 30
0.0
 10
30.20938317998572
 20
722.4831892219386
 30
0.0
 10
30.17755601277258
 20
722.5641438562022
 30
0.0
 10
30.17755601277258
 20
722.6485920893108
 30
0.0
  0
LINE
  5
9C
330
5E
100
AcDbEntity
  8
$DDT_AUDIT_GENERATED_(95)
  6
Continuous
 62
     7
100
AcDbLine
 10
30.1775560128
 20
722.6485920893
 30
0.0
 11
30.1775560128
 21
724.4374283547
 31
0.0
  0
LINE
  5
9D
330
5E
100
AcDbEntity
  8
$DDT_AUDIT_GENERATED_(95)
  6
Continuous
 62
     7
100
AcDbLine
 10
23.6882807883
 20
719.2863159656
 30
0.0
 11
24.2120027873
 21
719.0027658845
 31
0.0
  0
LINE
  5
9E
330
5E
100
AcDbEntity
  8
$DDT_AUDIT_GENERATED_(95)
  6
Continuous
 62
     7
100
AcDbLine
 10
44.6847718399
 20
719.0027658845
 30
0.0
 11
45.2084938389
 21
719.2863159656
 31
0.0
  0
SPLINE
  5
9F
330
5E
100
AcDbEntity
  8
$DDT_AUDIT_GENERATED_(95)
  6
Continuous
 62
     7
100
AcDbSpline
210
0.0
220
0.0
230
1.0
 70
     8
 71
     3
 72
    14
 73
    10
 74
     0
 42
0.0000000050332052
 43
0.0000000001
 40
0.0
 40
0.0
 40
0.0
 40
0.0
 40
0.1247344752858222
 40
0.2622856258078168
 40
0.4023337137836488
 40
0.5533565810371616
 40
0.7263991286475717
 40
0.9362984179196702
 40
1.0
 40
1.0
 40
1.0
 40
1.0
 10
22.65239898855766
 20
720.7382270659193
 30
0.0
 10
22.65688282983738
 20
720.6318530617391
 30
0.0
 10
22.66667018885039
 20
720.444229537371
 30
0.0
 10
22.77113207702561
 20
720.154254874829
 30
0.0
 10
22.92357665503375
 20
719.9021646805745
 30
0.0
 10
23.1208099647333
 20
719.6792473728069
 30
0.0
 10
23.36784257421967
 20
719.4775936504777
 30
0.0
 10
23.59245596883045
 20
719.3306762140626
 30
0.0
 10
23.73845741976098
 20
719.2630845483294
 30
0.0
 10
23.77829230152183
 20
719.2448133992889
 30
0.0
  0
SPLINE
  5
A0
330
5E
100
AcDbEntity
  8
$DDT_AUDIT_GENERATED_(95)
  6
Continuous
 62
     7
100
AcDbSpline
210
0.0
220
0.0
230
1.0
 70
     8
 71
     3
 72
    14
 73
    10
 74
     0
 42
0.0000000049295127
 43
0.0000000001
 40
0.0
 40
0.0
 40
0.0
 40
0.0
 40
0.2192638636208691
 40
0.4152316588190203
 40
0.5765542627372369
 40
0.7200119972504585
 40
0.8539855360161349
 40
0.984168605530758
 40
1.0
 40
1.0
 40
1.0
 40
1.0
 10
45.08317983462546
 20
719.2270910774698
 30
0.0
 10
45.21681763148863
 20
719.2942300776406
 30
0.0
 10
45.4287485239647
 20
719.4046112875129
 30
0.0
 10
45.71180233794082
 20
719.6192116118576
 30
0.0
 10
45.93339179479587
 20
719.8494948742234
 30
0.0
 10
46.10359526403325
 20
720.1065939898233
 30
0.0
 10
46.21001796268894
 20
720.3894751081715
 30
0.0
 10
46.25721133939588
 20
720.6176704651349
 30
0.0
 10
46.24583296726402
 20
720.7251281959026
 30
0.0
 10
46.24437563861265
 20
720.7386972040297
 30
0.0
  0
LINE
  5
A1
330
5E
100
AcDbEntity
  8
$DDT_AUDIT_GENERATED_(95)
  6
Continuous
 62
     7
100
AcDbLine
 10
22.6483873136
 20
724.5232762622
 30
0.0
 11
22.6483873136
 21
720.738462135
 31
0.0
  0
LINE
  5
A2
330
5E
100
AcDbEntity
  8
$DDT_AUDIT_GENERATED_(95)
  6
Continuous
 62
     7
100
AcDbLine
 10
46.2483873136
 20
720.738462135
 30
0.0
 11
46.2483873136
 21
724.5235899953
 31
0.0
  0
LINE
  5
A4
330
5E
100
AcDbEntity
  8
$DDT_AUDIT_GENERATED_(A3)
  6
Continuous
 62
     7
100
AcDbLine
 10
109.0483873136
 20
619.1822169452
 30
0.0
 11
109.0483873136
 21
568.5801797761
 31
0.0
  0
LINE
  5
A5
330
5E
100
AcDbEntity
  8
$DDT_AUDIT_GENERATED_(A3)
  6
Continuous
 62
     7
100
AcDbLine
 10
122.3483873136
 20
578.7182110972
 30
0.0
 11
122.3483873136
 21
579.75493682
 31
0.0
  0
SPLINE
  5
A6
330
5E
100
AcDbEntity
  8
$DDT_AUDIT_GENERATED_(A3)
  6
Continuous
 62
     7
100
AcDbSpline
210
0.0
220
0.0
230
1.0
 70
    12
 71
     2
 72
     6
 73
     3
 74
     0
 42
0.0000000404085156
 43
0.0000000001
 40
0.0
 40
0.0
 40
0.0
 40
1.0
 40
1.0
 40
1.0
 10
122.3483873135852
 20
578.7182110972103
 30
0.0
 41
1.0
 10
122.2685659593741
 20
578.6236916520343
 30
0.0
 41
1.0
 10
122.1877600258839
 20
578.5299560169827
 30
0.0
 41
1.0
  0
LINE
  5
A7
330
5E
100
AcDbEntity
  8
$DDT_AUDIT_GENERATED_(A3)
  6
Continuous
 62
     7
100
AcDbLine
 10
122.1877600259
 20
578.529956017
 30
0.0
 11
122.1877600259
 21
577.8811983607
 31
0.0
  0
LINE
  5
A8
330
5E
100
AcDbEntity
  8
$DDT_AUDIT_GENERATED_(A3)
  6
Continuous
 62
     7
100
AcDbLine
 10
85.7483873136
 20
568.3811983607
 30
0.0
 11
85.7483873136
 21
619.3811983607
 31
0.0
  0
LINE
  5
A9
330
5E
100
AcDbEntity
  8
$DDT_AUDIT_GENERATED_(A3)
  6
Continuous
 62
     7
100
AcDbLine
 10
86.2483682771
 20
619.8768353168
 30
0.0
 11
86.2483682771
 21
567.8855614046
 31
0.0
  0
ARC
  5
AA
330
5E
100
AcDbEntity
  8
$DDT_AUDIT_GENERATED_(A3)
  6
Continuous
 62
     7
100
AcDbCircle
 10
102.9783873136
 20
593.8811983607
 30
0.0
 40
25.0000000000001
100
AcDbArc
 50
284.0518577574
 51
320.2081805004
  0
ARC
  5
AB
330
5E
100
AcDbEntity
  8
$DDT_AUDIT_GENERATED_(A3)
  6
Continuous
 62
     7
100
AcDbCircle
 10
102.9783873136
 20
593.8811983607
 30
0.0
 40
25.00000000000012
100
AcDbArc
 50
73.3330243459
 51
75.9481422426
  0
LINE
  5
AC
330
5E
100
AcDbEntity
  8
$DDT_AUDIT_GENERATED_(A3)
  6
Continuous
 62
     7
100
AcDbLine
 10
86.2483682771
 20
567.8855614046
 30
0.0
 11
108.5527503575
 21
568.0801988126
 31
0.0
  0
LINE
  5
AD
330
5E
100
AcDbEntity
  8
$DDT_AUDIT_GENERATED_(A3)
  6
Continuous
 62
     7
100
AcDbLine
 10
108.5527503575
 20
619.6821979087
 30
0.0
 11
86.2483682771
 21
619.8768353168
 31
0.0
  0
ARC
  5
AE
330
5E
100
AcDbEntity
  8
$DDT_AUDIT_GENERATED_(A3)
  6
Continuous
 62
     7
100
AcDbCircle
 10
108.5483873136
 20
619.1822169452
 30
0.0
 40
0.5000000000000004
100
AcDbArc
 50
0.0
 51
89.500025649
  0
ARC
  5
AF
330
5E
100
AcDbEntity
  8
$DDT_AUDIT_GENERATED_(A3)
  6
Continuous
 62
     7
100
AcDbCircle
 10
108.5483873136
 20
568.5801797761
 30
0.0
 40
0.5000000000000059
100
AcDbArc
 50
270.499974351
 51
0.0
  0
LINE
  5
B0
330
5E
100
AcDbEntity
  8
$DDT_AUDIT_GENERATED_(A3)
  6
Continuous
 62
     7
100
AcDbLine
 10
86.2483682771
 20
619.8768353168
 30
0.0
 11
85.7483873136
 21
619.3811983607
 31
0.0
  0
LINE
  5
B1
330
5E
100
AcDbEntity
  8
$DDT_AUDIT_GENERATED_(A3)
  6
Continuous
 62
     7
100
AcDbLine
 10
85.7483873136
 20
568.3811983607
 30
0.0
 11
86.2483682771
 21
567.8855614046
 31
0.0
  0
ARC
  5
B3
330
5E
100
AcDbEntity
  8
$DDT_AUDIT_GENERATED_(B2)
  6
Continuous
 62
     7
100
AcDbCircle
 10
361.7813539166
 20
620.3986000832
 30
0.0
 40
228.2748081444275
100
AcDbArc
 50
180.044192841
 51
182.8253026518
  0
ARC
  5
B4
330
5E
100
AcDbEntity
  8
$DDT_AUDIT_GENERATED_(B2)
  6
Continuous
 62
     7
100
AcDbCircle
 10
135.7072865119
 20
646.5707633137
 30
0.0
 40
26.43997721682749
100
AcDbArc
 50
265.2255894535
 51
277.0046049336
  0
ARC
  5
B5
330
5E
100
AcDbEntity
  8
$DDT_AUDIT_GENERATED_(B2)
  6
Continuous
 62
     7
100
AcDbCircle
 10
140.8153561276
 20
619.6627767213
 30
0.0
 40
0.4994741676346904
100
AcDbArc
 50
16.0203349729
 51
85.0369489162
  0
SPLINE
  5
B6
330
5E
100
AcDbEntity
  8
$DDT_AUDIT_GENERATED_(B2)
  6
Continuous
 62
     7
100
AcDbSpline
210
0.0
220
0.0
230
1.0
 70
    12
 71
     3
 72
     8
 73
     4
 74
     0
 42
0.0000000156023001
 43
0.0000000001
 40
0.0
 40
0.0
 40
0.0
 40
0.0
 40
1.0
 40
1.0
 40
1.0
 40
1.0
 10
141.2954581652314
 20
619.7996454048214
 30
0.0
 41
1.113456490516337
 10
141.2366820703328
 20
620.0037817057408
 30
0.0
 41
0.9740574968076379
 10
141.0726251823878
 20
620.1406464795449
 30
0.0
 41
0.9631135568285436
 10
140.8586040539308
 20
620.1595120703657
 30
0.0
 41
1.080624670579054
  0
LINE
  5
B7
330
5E
100
AcDbEntity
  8
$DDT_AUDIT_GENERATED_(B2)
  6
Continuous
 62
     7
100
AcDbLine
 10
131.7864249332
 20
685.4318675366
 30
0.0
 11
127.2813038871
 21
685.2351696978
 31
0.0
  0
SPLINE
  5
B8
330
5E
100
AcDbEntity
  8
$DDT_AUDIT_GENERATED_(B2)
  6
Continuous
 62
     7
100
AcDbSpline
210
0.0
220
0.0
230
1.0
 70
    12
 71
     3
 72
     8
 73
     4
 74
     0
 42
0.0000000115416441
 43
0.0000000001
 40
0.0
 40
0.0
 40
0.0
 40
0.0
 40
1.0
 40
1.0
 40
1.0
 40
1.0
 10
136.7998076028032
 20
684.9843252779871
 30
0.0
 41
1.163242404995534
 10
136.7921819619543
 20
685.2734552524028
 30
0.0
 41
0.9428760857259246
 10
136.5840431147044
 20
685.473678440759
 30
0.0
 41
0.9456196011974826
 10
136.295666237566
 20
685.4712190832759
 30
0.0
 41
1.171472951410208
  0
LINE
  5
B9
330
5E
100
AcDbEntity
  8
$DDT_AUDIT_GENERATED_(B2)
  6
Continuous
 62
     7
100
AcDbLine
 10
136.2956662376
 20
685.4712190833
 30
0.0
 11
131.7864249332
 21
685.4318675366
 31
0.0
  0
SPLINE
  5
BA
330
5E
100
AcDbEntity
  8
$DDT_AUDIT_GENERATED_(B2)
  6
Continuous
 62
     7
100
AcDbSpline
210
0.0
220
0.0
230
1.0
 70
    12
 71
     3
 72
     8
 73
     4
 74
     0
 42
0.0000000115397766
 43
0.0000000001
 40
0.0
 40
0.0
 40
0.0
 40
0.0
 40
1.0
 40
1.0
 40
1.0
 40
1.0
 10
128.4698327490265
 20
621.0796629996045
 30
0.0
 41
1.167371657067465
 10
128.4773941124784
 20
620.7909060133356
 30
0.0
 41
0.9442094510680739
 10
128.2803948207385
 20
620.5796501288077
 30
0.0
 41
0.944209447644345
 10
127.9918137831171
 20
620.567050413003
 30
0.0
 41
1.167371646796279
  0
SPLINE
  5
BB
330
5E
100
AcDbEntity
  8
$DDT_AUDIT_GENERATED_(B2)
  6
Continuous
 62
     7
100
AcDbSpline
210
0.0
220
0.0
230
1.0
 70
    12
 71
     3
 72
     8
 73
     4
 74
     0
 42
0.0000000115416441
 43
0.0000000001
 40
0.0
 40
0.0
 40
0.0
 40
0.0
 40
1.0
 40
1.0
 40
1.0
 40
1.0
 10
126.8033354829411
 20
684.7225584430868
 30
0.0
 41
1.163242404999177
 10
126.795818779421
 20
685.0116912701287
 30
0.0
 41
0.9428760857258672
 10
126.9931935075898
 20
685.2225332051685
 30
0.0
 41
0.9456196011963411
 10
127.2813038870697
 20
685.2351696977686
 30
0.0
 41
1.171472951410599
  0
ARC
  5
BC
330
5E
100
AcDbEntity
  8
$DDT_AUDIT_GENERATED_(B2)
  6
Continuous
 62
     7
100
AcDbCircle
 10
127.9745356873
 20
621.0657703646
 30
0.0
 40
0.4999987688226378
100
AcDbArc
 50
272.5515247176
 51
1.4988821829
  0
LINE
  5
BD
330
5E
100
AcDbEntity
  8
$DDT_AUDIT_GENERATED_(B2)
  6
Continuous
 62
     7
100
AcDbLine
 10
138.9364371456
 20
620.3286937839
 30
0.0
 11
138.9316183377
 21
620.3281247363
 31
0.0
  0
LINE
  5
BE
330
5E
100
AcDbEntity
  8
$DDT_AUDIT_GENERATED_(B2)
  6
Continuous
 62
     7
100
AcDbLine
 10
110.3859072475
 20
608.768395793
 30
0.0
 11
110.0974331736
 21
619.7847762232
 31
0.0
  0
LINE
  5
BF
330
5E
100
AcDbEntity
  8
$DDT_AUDIT_GENERATED_(B2)
  6
Continuous
 62
     7
100
AcDbLine
 10
138.4802251824
 20
620.8136992603
 30
0.0
 11
138.4758460021
 21
620.8131225355
 31
0.0
  0
SPLINE
  5
C0
330
5E
100
AcDbEntity
  8
$DDT_AUDIT_GENERATED_(B2)
  6
Continuous
 62
     7
100
AcDbSpline
210
0.0
220
0.0
230
1.0
 70
    12
 71
     3
 72
     8
 73
     4
 74
     0
 42
0.000000012476068
 43
0.0000000001
 40
0.0
 40
0.0
 40
0.0
 40
0.0
 40
1.0
 40
1.0
 40
1.0
 40
1.0
 10
138.4802251848531
 20
620.8136992603588
 30
0.0
 41
1.145420715203314
 10
138.4872190976135
 20
620.5466126192917
 30
0.0
 41
0.9515264314949649
 10
138.6702774629279
 20
620.3520006404013
 30
0.0
 41
0.9515264282656619
 10
138.9364371459279
 20
620.3286937822373
 30
0.0
 41
1.145420705515406
  0
ARC
  5
C1
330
5E
100
AcDbEntity
  8
$DDT_AUDIT_GENERATED_(B2)
  6
Continuous
 62
     7
100
AcDbCircle
 10
113.6076831155
 20
600.3383892178
 30
0.0
 40
2.999999999526565
100
AcDbArc
 50
181.499999999
 51
207.5170947389
  0
LINE
  5
C2
330
5E
100
AcDbEntity
  8
$DDT_AUDIT_GENERATED_(B2)
  6
Continuous
 62
     7
100
AcDbLine
 10
110.6087111411
 20
600.259858373
 30
0.0
 11
110.3859072472
 21
608.768395804
 31
0.0
  0
ARC
  5
C3
330
5E
100
AcDbEntity
  8
$DDT_AUDIT_GENERATED_(B2)
  6
Continuous
 62
     7
100
AcDbCircle
 10
288.3348423286
 20
691.3618569895
 30
0.0
 40
200.0148518555415
100
AcDbArc
 50
207.5170939592
 51
217.8375438716
  0
LINE
  5
C4
330
5E
100
AcDbEntity
  8
$DDT_AUDIT_GENERATED_(B2)
  6
Continuous
 62
     7
100
AcDbLine
 10
114.1546090867
 20
593.0400014632
 30
0.0
 11
114.0545021317
 21
593.2175553297
 31
0.0
  0
ARC
  5
C5
330
5E
100
AcDbEntity
  8
$DDT_AUDIT_GENERATED_(B2)
  6
Continuous
 62
     7
100
AcDbCircle
 10
137.6588397139
 20
543.2533742736
 30
0.0
 40
25.9154267126135
100
AcDbArc
 50
85.2495494699
 51
99.7505100506
  0
LINE
  5
C6
330
5E
100
AcDbEntity
  8
$DDT_AUDIT_GENERATED_(B2)
  6
Continuous
 62
     7
100
AcDbLine
 10
127.9994661973
 20
620.5673845264
 30
0.0
 11
110.0974073141
 21
619.7857637555
 31
0.0
  0
LINE
  5
C7
330
5E
100
AcDbEntity
  8
$DDT_AUDIT_GENERATED_(B2)
  6
Continuous
 62
     7
100
AcDbLine
 10
140.8701291859
 20
620.1593657622
 30
0.0
 11
138.9200304788
 21
620.33013047
 31
0.0
  0
ARC
  5
C8
330
5E
100
AcDbEntity
  8
$DDT_AUDIT_GENERATED_(B2)
  6
Continuous
 62
     7
100
AcDbCircle
 10
45.1990253067
 20
592.1333025644
 30
0.0
 40
99.99999999999984
100
AcDbArc
 50
346.9592706397
 51
16.0616332558
  0
LINE
  5
C9
330
5E
100
AcDbEntity
  8
$DDT_AUDIT_GENERATED_(B2)
  6
Continuous
 62
     7
100
AcDbLine
 10
138.4802251824
 20
620.8136992603
 30
0.0
 11
136.7998581677
 21
684.9843266021
 31
0.0
  0
LINE
  5
CA
330
5E
100
AcDbEntity
  8
$DDT_AUDIT_GENERATED_(B2)
  6
Continuous
 62
     7
100
AcDbLine
 10
126.803284918
 20
684.722557119
 30
0.0
 11
128.4698327518
 21
621.0796629997
 31
0.0
  0
ARC
  5
CB
330
5E
100
AcDbEntity
  8
$DDT_AUDIT_GENERATED_(B2)
  6
Continuous
 62
     7
100
AcDbCircle
 10
142.1329112216
 20
569.6817600465
 30
0.0
 40
0.4999999999959149
100
AcDbArc
 50
272.5000000002
 51
346.9593155761
  0
LINE
  5
CC
330
5E
100
AcDbEntity
  8
$DDT_AUDIT_GENERATED_(B2)
  6
Continuous
 62
     7
100
AcDbLine
 10
139.7601899545
 20
569.0776884562
 30
0.0
 11
142.1547209153
 21
569.1822359357
 31
0.0
  0
LINE
  5
CD
330
5E
100
AcDbEntity
  8
$DDT_AUDIT_GENERATED_(B2)
  6
Continuous
 62
     7
100
AcDbLine
 10
130.3699486922
 20
568.6677016685
 30
0.0
 11
133.1690690396
 21
568.7899139022
 31
0.0
  0
LINE
  5
CE
330
5E
100
AcDbEntity
  8
$DDT_AUDIT_GENERATED_(B2)
  6
Continuous
 62
     7
100
AcDbLine
 10
133.2696202192
 20
568.7943040615
 30
0.0
 11
133.29130446
 21
568.7952508159
 31
0.0
  0
LINE
  5
D0
330
5E
100
AcDbEntity
  8
$DDT_AUDIT_GENERATED_(CF)
  6
Continuous
 62
     7
100
AcDbLine
 10
133.9210247164
 20
568.8974763982
 30
0.0
 11
133.1708513852
 21
568.778660615
 31
0.0
  0
LINE
  5
D1
330
5E
100
AcDbEntity
  8
$DDT_AUDIT_GENERATED_(CF)
  6
Continuous
 62
     7
100
AcDbLine
 10
133.1690690396
 20
568.7899139022
 30
0.0
 11
133.1708513852
 21
568.778660615
 31
0.0
  0
LINE
  5
D4
330
5E
100
AcDbEntity
  8
DV1_Standard
  6
CENTER2
 62
     7
100
AcDbLine
 10
60.8483868666
 20
505.6811983607
 30
0.0
 11
20.8483877606
 21
505.6811983607
 31
0.0
  0
LINE
  5
D5
330
5E
100
AcDbEntity
  8
DV1_Standard
  6
CENTER2
 62
     7
100
AcDbLine
 10
40.8483873136
 20
525.6811979136
 30
0.0
 11
40.8483873136
 21
485.6811988077
 31
0.0
  0
ENDBLK
  5
D7
330
5E
100
AcDbEntity
  8
0
100
AcDbBlockEnd
  0
BLOCK
  5
10F
330
D8
100
AcDbEntity
  8
0
100
AcDbBlockBegin
  2
SE1
 70
     0
 10
0.0
 20
0.0
 30
0.0
  3
SE1
  1

  0
CIRCLE
  5
DA
330
D8
100
AcDbEntity
  8
$DDT_AUDIT_GENERATED_(60)
  6
Continuous
 62
     7
100
AcDbCircle
 10
244.7041553806
 20
593.8811983607
 30
0.0
 40
26.0
  0
LINE
  5
DB
330
D8
100
AcDbEntity
  8
$DDT_AUDIT_GENERATED_(6D)
  6
Continuous
 62
     7
100
AcDbLine
 10
262.7041553806
 20
510.1811983607
 30
0.0
 11
226.7041553806
 21
510.1811983607
 31
0.0
  0
LINE
  5
DC
330
D8
100
AcDbEntity
  8
$DDT_AUDIT_GENERATED_(6D)
  6
Continuous
 62
     7
100
AcDbLine
 10
226.7041553806
 20
575.1195353214
 30
0.0
 11
226.7041553806
 21
510.1811983607
 31
0.0
  0
LINE
  5
DD
330
D8
100
AcDbEntity
  8
$DDT_AUDIT_GENERATED_(6D)
  6
Continuous
 62
     7
100
AcDbLine
 10
262.7041553806
 20
510.1811983607
 30
0.0
 11
262.7041553806
 21
575.1195353214
 31
0.0
  0
LINE
  5
DE
330
D8
100
AcDbEntity
  8
$DDT_AUDIT_GENERATED_(71)
  6
Continuous
 62
     7
100
AcDbLine
 10
271.7041553806
 20
505.6811983607
 30
0.0
 11
217.7041553806
 21
505.6811983607
 31
0.0
  0
LINE
  5
DF
330
D8
100
AcDbEntity
  8
$DDT_AUDIT_GENERATED_(71)
  6
Continuous
 62
     7
100
AcDbLine
 10
262.7041553806
 20
510.1811983607
 30
0.0
 11
226.7041553806
 21
510.1811983607
 31
0.0
  0
LINE
  5
E0
330
D8
100
AcDbEntity
  8
$DDT_AUDIT_GENERATED_(71)
  6
Continuous
 62
     7
100
AcDbLine
 10
217.7041553806
 20
508.5622169321
 30
0.0
 11
217.7041553806
 21
505.6811983607
 31
0.0
  0
LINE
  5
E1
330
D8
100
AcDbEntity
  8
$DDT_AUDIT_GENERATED_(71)
  6
Continuous
 62
     7
100
AcDbLine
 10
271.7041553806
 20
505.6811983607
 30
0.0
 11
271.7041553806
 21
508.5622169321
 31
0.0
  0
ARC
  5
E2
330
D8
100
AcDbEntity
  8
$DDT_AUDIT_GENERATED_(71)
  6
Continuous
 62
     7
100
AcDbCircle
 10
235.4069008937
 20
410.5606070126
 30
0.0
 40
100.0
100
AcDbArc
 50
94.9926216254
 51
99.9560038527
  0
ARC
  5
E3
330
D8
100
AcDbEntity
  8
$DDT_AUDIT_GENERATED_(71)
  6
Continuous
 62
     7
100
AcDbCircle
 10
254.0014098676
 20
410.5606070126
 30
0.0
 40
100.0
100
AcDbArc
 50
80.0439961473
 51
85.0073783746
  0
ARC
  5
E4
330
D8
100
AcDbEntity
  8
$DDT_AUDIT_GENERATED_(71)
  6
Continuous
 62
     7
100
AcDbCircle
 10
271.2041553806
 20
508.5622169321
 30
0.0
 40
0.5000000000000004
100
AcDbArc
 50
0.0
 51
80.0439961473
  0
ARC
  5
E5
330
D8
100
AcDbEntity
  8
$DDT_AUDIT_GENERATED_(71)
  6
Continuous
 62
     7
100
AcDbCircle
 10
218.2041553806
 20
508.5622169321
 30
0.0
 40
0.5000000000000148
100
AcDbArc
 50
99.9560038527
 51
180.0
  0
LINE
  5
E6
330
D8
100
AcDbEntity
  8
$DDT_AUDIT_GENERATED_(7A)
  6
Continuous
 62
     7
100
AcDbLine
 10
232.3041553806
 20
748.9811983607
 30
0.0
 11
232.3041553806
 21
616.733769332
 31
0.0
  0
LINE
  5
E7
330
D8
100
AcDbEntity
  8
$DDT_AUDIT_GENERATED_(7A)
  6
Continuous
 62
     7
100
AcDbLine
 10
257.1041553806
 20
616.733769332
 30
0.0
 11
257.1041553806
 21
748.9811983607
 31
0.0
  0
ARC
  5
E8
330
D8
100
AcDbEntity
  8
$DDT_AUDIT_GENERATED_(7A)
  6
Continuous
 62
     7
100
AcDbCircle
 10
348.7041553806
 20
748.9811983607
 30
0.0
 40
91.6
100
AcDbArc
 50
90.0
 51
180.0
  0
ARC
  5
E9
330
D8
100
AcDbEntity
  8
$DDT_AUDIT_GENERATED_(7A)
  6
Continuous
 62
     7
100
AcDbCircle
 10
348.7041553806
 20
748.9811983607
 30
0.0
 40
91.60000000000001
100
AcDbArc
 50
10.0
 51
90.0
  0
ARC
  5
EA
330
D8
100
AcDbEntity
  8
$DDT_AUDIT_GENERATED_(7A)
  6
Continuous
 62
     7
100
AcDbCircle
 10
348.7041553806
 20
748.9811983607
 30
0.0
 40
116.4
100
AcDbArc
 50
10.0
 51
180.0
  0
LINE
  5
EB
330
D8
100
AcDbEntity
  8
$DDT_AUDIT_GENERATED_(7A)
  6
Continuous
 62
     7
100
AcDbLine
 10
464.3775326785
 20
763.2857609154
 30
0.0
 11
463.3357778313
 21
769.1938462411
 31
0.0
  0
LINE
  5
EC
330
D8
100
AcDbEntity
  8
$DDT_AUDIT_GENERATED_(7A)
  6
Continuous
 62
     7
100
AcDbLine
 10
438.9125455566
 20
764.887371435
 30
0.0
 11
439.9543004038
 21
758.9792861093
 31
0.0
  0
LINE
  5
ED
330
D8
100
AcDbEntity
  8
$DDT_AUDIT_GENERATED_(82)
  6
Continuous
 62
     7
100
AcDbLine
 10
472.4318544484
 20
726.1189590519
 30
0.0
 11
445.0975085715
 21
721.2991763737
 31
0.0
  0
LINE
  5
EE
330
D8
100
AcDbEntity
  8
$DDT_AUDIT_GENERATED_(82)
  6
Continuous
 62
     7
100
AcDbLine
 10
465.1766187669
 20
763.4257563861
 30
0.0
 11
439.1555238322
 21
758.8375352815
 31
0.0
  0
LINE
  5
EF
330
D8
100
AcDbEntity
  8
$DDT_AUDIT_GENERATED_(82)
  6
Continuous
 62
     7
100
AcDbLine
 10
439.1553690738
 20
758.83841296
 30
0.0
 11
465.1764640085
 21
763.4266340646
 31
0.0
  0
ARC
  5
F0
330
D8
100
AcDbEntity
  8
$DDT_AUDIT_GENERATED_(82)
  6
Continuous
 62
     7
100
AcDbCircle
 10
165.2089220715
 20
695.4408612658
 30
0.0
 40
279.9999999389613
100
AcDbArc
 50
5.4816579896
 51
9.0
  0
ARC
  5
F1
330
D8
100
AcDbEntity
  8
$DDT_AUDIT_GENERATED_(82)
  6
Continuous
 62
     7
100
AcDbCircle
 10
744.285158464
 20
797.5476256289
 30
0.0
 40
279.9999999389613
100
AcDbArc
 50
191.0
 51
194.5183334637
  0
ARC
  5
F2
330
D8
100
AcDbEntity
  8
$DDT_AUDIT_GENERATED_(82)
  6
Continuous
 62
     7
100
AcDbCircle
 10
444.9238206104
 20
722.283931826
 30
0.0
 40
0.9999554033267208
100
AcDbArc
 50
185.4788947155
 51
280.0027652707
  0
ARC
  5
F3
330
D8
100
AcDbEntity
  8
$DDT_AUDIT_GENERATED_(82)
  6
Continuous
 62
     7
100
AcDbCircle
 10
472.2582615428
 20
727.103731265
 30
0.0
 40
0.9999554033268412
100
AcDbArc
 50
279.9972347293
 51
14.5211052844
  0
LINE
  5
F4
330
D8
100
AcDbEntity
  8
$DDT_AUDIT_GENERATED_(82)
  6
Continuous
 62
     7
100
AcDbLine
 10
469.4295471586
 20
744.1211069352
 30
0.0
 11
465.8185857077
 21
762.6978931688
 31
0.0
  0
LINE
  5
F5
330
D8
100
AcDbEntity
  8
$DDT_AUDIT_GENERATED_(82)
  6
Continuous
 62
     7
100
AcDbLine
 10
438.8012161171
 20
757.9340019622
 30
0.0
 11
441.7616573779
 21
739.2425114676
 31
0.0
  0
LINE
  5
F6
330
D8
100
AcDbEntity
  8
$DDT_AUDIT_GENERATED_(82)
  6
Continuous
 62
     7
100
AcDbLine
 10
465.8201687408
 20
762.6897491696
 30
0.0
 11
465.7867393414
 21
762.8617285203
 31
0.0
  0
LINE
  5
F7
330
D8
100
AcDbEntity
  8
$DDT_AUDIT_GENERATED_(82)
  6
Continuous
 62
     7
100
AcDbLine
 10
438.7751069221
 20
758.0988489318
 30
0.0
 11
438.8025139643
 21
757.9258076771
 31
0.0
  0
ARC
  5
F8
330
D8
100
AcDbEntity
  8
$DDT_AUDIT_GENERATED_(82)
  6
Continuous
 62
     7
100
AcDbCircle
 10
465.2339014633
 20
762.9290485316
 30
0.0
 40
0.499999999999991
100
AcDbArc
 50
23.6823500812
 51
96.578558208
  0
ARC
  5
F9
330
D8
100
AcDbEntity
  8
$DDT_AUDIT_GENERATED_(82)
  6
Continuous
 62
     7
100
AcDbCircle
 10
439.2715797967
 20
758.35119074
 30
0.0
 40
0.4999999999999895
100
AcDbArc
 50
103.421441792
 51
176.3176499188
  0
ARC
  5
FA
330
D8
100
AcDbEntity
  8
$DDT_AUDIT_GENERATED_(82)
  6
Continuous
 62
     7
100
AcDbCircle
 10
464.8061946255
 20
762.6654326703
 30
0.0
 40
0.9999999999999941
100
AcDbArc
 50
11.3204334851
 51
27.674549057
  0
ARC
  5
FB
330
D8
100
AcDbEntity
  8
$DDT_AUDIT_GENERATED_(82)
  6
Continuous
 62
     7
100
AcDbCircle
 10
439.7636546907
 20
758.2497572143
 30
0.0
 40
1.000000000000005
100
AcDbArc
 50
172.325450943
 51
188.6795665149
  0
LINE
  5
FC
330
D8
100
AcDbEntity
  8
$DDT_AUDIT_GENERATED_(82)
  6
Continuous
 62
     7
100
AcDbLine
 10
465.1766187669
 20
763.4257563861
 30
0.0
 11
465.1764640085
 21
763.4266340646
 31
0.0
  0
LINE
  5
FD
330
D8
100
AcDbEntity
  8
$DDT_AUDIT_GENERATED_(82)
  6
Continuous
 62
     7
100
AcDbLine
 10
439.1553690738
 20
758.83841296
 30
0.0
 11
439.1555238322
 21
758.8375352815
 31
0.0
  0
LINE
  5
FE
330
D8
100
AcDbEntity
  8
$DDT_AUDIT_GENERATED_(95)
  6
Continuous
 62
     7
100
AcDbLine
 10
470.0806872026
 20
721.4395930512
 30
0.0
 11
448.9073205128
 21
717.7061572314
 31
0.0
  0
LINE
  5
FF
330
D8
100
AcDbEntity
  8
$DDT_AUDIT_GENERATED_(95)
  6
Continuous
 62
     7
100
AcDbLine
 10
469.8059446079
 20
724.4374283547
 30
0.0
 11
470.5937908103
 21
724.5763468968
 31
0.0
  0
LINE
  5
100
330
D8
100
AcDbEntity
  8
$DDT_AUDIT_GENERATED_(95)
  6
Continuous
 62
     7
100
AcDbLine
 10
470.2717484387
 20
721.7957235574
 30
0.0
 11
470.1213647055
 21
722.6485920893
 31
0.0
  0
LINE
  5
101
330
D8
100
AcDbEntity
  8
$DDT_AUDIT_GENERATED_(95)
  6
Continuous
 62
     7
100
AcDbLine
 10
470.1213647055
 20
722.6485920893
 30
0.0
 11
469.8059446079
 21
724.4374283547
 31
0.0
  0
LINE
  5
102
330
D8
100
AcDbEntity
  8
$DDT_AUDIT_GENERATED_(95)
  6
Continuous
 62
     7
100
AcDbLine
 10
448.1401740416
 20
720.617168446
 30
0.0
 11
447.3523278392
 21
720.4782499039
 31
0.0
  0
LINE
  5
103
330
D8
100
AcDbEntity
  8
$DDT_AUDIT_GENERATED_(95)
  6
Continuous
 62
     7
100
AcDbLine
 10
448.1401740416
 20
720.617168446
 30
0.0
 11
448.4555941392
 21
718.8283321806
 31
0.0
  0
LINE
  5
104
330
D8
100
AcDbEntity
  8
$DDT_AUDIT_GENERATED_(95)
  6
Continuous
 62
     7
100
AcDbLine
 10
448.4555941392
 20
718.8283321806
 30
0.0
 11
448.6059778724
 21
717.9754636487
 31
0.0
  0
LINE
  5
105
330
D8
100
AcDbEntity
  8
$DDT_AUDIT_GENERATED_(95)
  6
Continuous
 62
     7
100
AcDbLine
 10
448.6360546191
 20
717.8048899423
 30
0.0
 11
448.9073205128
 21
717.7061572314
 31
0.0
  0
LINE
  5
106
330
D8
100
AcDbEntity
  8
$DDT_AUDIT_GENERATED_(95)
  6
Continuous
 62
     7
100
AcDbLine
 10
470.0806872026
 20
721.4395930512
 30
0.0
 11
470.3018251853
 21
721.625149851
 31
0.0
  0
LINE
  5
107
330
D8
100
AcDbEntity
  8
$DDT_AUDIT_GENERATED_(95)
  6
Continuous
 62
     7
100
AcDbLine
 10
447.1439500244
 20
721.6600192163
 30
0.0
 11
447.3523278392
 21
720.4782499039
 31
0.0
  0
LINE
  5
108
330
D8
100
AcDbEntity
  8
$DDT_AUDIT_GENERATED_(95)
  6
Continuous
 62
     7
100
AcDbLine
 10
470.5937908103
 20
724.5763468968
 30
0.0
 11
470.3854129955
 21
725.7581162093
 31
0.0
  0
ARC
  5
109
330
D8
100
AcDbEntity
  8
$DDT_AUDIT_GENERATED_(B2)
  6
Continuous
 62
     7
100
AcDbCircle
 10
247.4208098733
 20
594.5300556678
 30
0.0
 40
23.21658050511714
100
AcDbArc
 50
10.9807966954
 51
14.2881074093
  0
ARC
  5
10A
330
D8
100
AcDbEntity
  8
$DDT_AUDIT_GENERATED_(B2)
  6
Continuous
 62
     7
100
AcDbCircle
 10
244.7041553806
 20
594.5654064671
 30
0.0
 40
25.88265296370771
100
AcDbArc
 50
7.7743705998
 51
9.7583749594
  0
ARC
  5
10B
330
D8
100
AcDbEntity
  8
$DDT_AUDIT_GENERATED_(B2)
  6
Continuous
 62
     7
100
AcDbCircle
 10
217.3911229611
 20
572.8971559949
 30
0.0
 40
60.43765502201231
100
AcDbArc
 50
37.4885965503
 51
38.1007290777
  0
LINE
  5
10D
330
D8
100
AcDbEntity
  8
DV2_Standard
  6
CENTER2
 62
     7
100
AcDbLine
 10
264.7041549336
 20
505.6811983607
 30
0.0
 11
224.7041558277
 21
505.6811983607
 31
0.0
  0
LINE
  5
10E
330
D8
100
AcDbEntity
  8
DV2_Standard
  6
CENTER2
 62
     7
100
AcDbLine
 10
244.7041553806
 20
525.6811979136
 30
0.0
 11
244.7041553806
 21
485.6811988077
 31
0.0
  0
ENDBLK
  5
110
330
D8
100
AcDbEntity
  8
0
100
AcDbBlockEnd
  0
BLOCK
  5
160
330
111
100
AcDbEntity
  8
0
100
AcDbBlockBegin
  2
SE2
 70
     0
 10
0.0
 20
0.0
 30
0.0
  3
SE2
  1

  0
LINE
  5
113
330
111
100
AcDbEntity
  8
$DDT_AUDIT_GENERATED_(60)
  6
Continuous
 62
     7
100
AcDbLine
 10
85.7483873136
 20
309.3765283726
 30
0.0
 11
85.7483873136
 21
360.3765283726
 31
0.0
  0
ARC
  5
114
330
111
100
AcDbEntity
  8
$DDT_AUDIT_GENERATED_(60)
  6
Continuous
 62
     7
100
AcDbCircle
 10
113.4083873136
 20
334.8765283726
 30
0.0
 40
100.0
100
AcDbArc
 50
165.1504721945
 51
194.8495278055
  0
ARC
  5
115
330
111
100
AcDbEntity
  8
$DDT_AUDIT_GENERATED_(60)
  6
Continuous
 62
     7
100
AcDbCircle
 10
85.2483873136
 20
309.3765283726
 30
0.0
 40
0.5000000000000004
100
AcDbArc
 50
270.0
 51
0.0
  0
ARC
  5
116
330
111
100
AcDbEntity
  8
$DDT_AUDIT_GENERATED_(60)
  6
Continuous
 62
     7
100
AcDbCircle
 10
85.2483873136
 20
360.3765283726
 30
0.0
 40
0.5000000000000004
100
AcDbArc
 50
0.0
 51
90.0
  0
ARC
  5
117
330
111
100
AcDbEntity
  8
$DDT_AUDIT_GENERATED_(60)
  6
Continuous
 62
     7
100
AcDbCircle
 10
17.2314670052
 20
360.3765283726
 30
0.0
 40
0.5000000000000004
100
AcDbArc
 50
90.0
 51
165.1504721945
  0
ARC
  5
118
330
111
100
AcDbEntity
  8
$DDT_AUDIT_GENERATED_(60)
  6
Continuous
 62
     7
100
AcDbCircle
 10
17.2314670052
 20
309.3765283726
 30
0.0
 40
0.4999999999999919
100
AcDbArc
 50
194.8495278055
 51
270.0
  0
LINE
  5
119
330
111
100
AcDbEntity
  8
$DDT_AUDIT_GENERATED_(60)
  6
Continuous
 62
     7
100
AcDbLine
 10
85.2483873136
 20
360.8765283726
 30
0.0
 11
17.2314670052
 21
360.8765283726
 31
0.0
  0
LINE
  5
11A
330
111
100
AcDbEntity
  8
$DDT_AUDIT_GENERATED_(60)
  6
Continuous
 62
     7
100
AcDbLine
 10
17.2314670052
 20
308.8765283726
 30
0.0
 11
22.0483873136
 21
308.8765283726
 31
0.0
  0
LINE
  5
11B
330
111
100
AcDbEntity
  8
$DDT_AUDIT_GENERATED_(60)
  6
Continuous
 62
     7
100
AcDbLine
 10
46.8483873136
 20
308.8765283726
 30
0.0
 11
85.2483873136
 21
308.8765283726
 31
0.0
  0
ARC
  5
11C
330
111
100
AcDbEntity
  8
$DDT_AUDIT_GENERATED_(71)
  6
Continuous
 62
     7
100
AcDbCircle
 10
40.8483873136
 20
334.8765283726
 30
0.0
 40
26.99999999999999
100
AcDbArc
 50
282.8395884069
 51
285.642471013
  0
ARC
  5
11D
330
111
100
AcDbEntity
  8
$DDT_AUDIT_GENERATED_(71)
  6
Continuous
 62
     7
100
AcDbCircle
 10
40.8483873136
 20
334.8765283726
 30
0.0
 40
26.99999999999999
100
AcDbArc
 50
74.357528987
 51
105.642471013
  0
ARC
  5
11E
330
111
100
AcDbEntity
  8
$DDT_AUDIT_GENERATED_(7A)
  6
Continuous
 62
     7
100
AcDbCircle
 10
34.4483873136
 20
334.8765283726
 30
0.0
 40
12.4
100
AcDbArc
 50
0.0
 51
180.0
  0
ELLIPSE
  5
11F
330
111
100
AcDbEntity
  8
$DDT_AUDIT_GENERATED_(7A)
  6
Continuous
 62
     7
100
AcDbEllipse
 10
34.4483873136
 20
126.7200402826
 30
0.0
 11
12.39999999999999
 21
-4.440892098500626E-13
 31
0.0
210
0.0
220
0.0
230
1.0
 40
0.984807753
 41
5.756294227332044
 42
6.283185307179586
  0
ELLIPSE
  5
120
330
111
100
AcDbEntity
  8
$DDT_AUDIT_GENERATED_(7A)
  6
Continuous
 62
     7
100
AcDbEllipse
 10
34.4483873136
 20
126.7200402826
 30
0.0
 11
12.39999999999999
 21
-4.440892098500626E-13
 31
0.0
210
0.0
220
0.0
230
1.0
 40
0.984807753
 41
3.141592653589793
 42
3.668483733634542
  0
LINE
  5
121
330
111
100
AcDbEntity
  8
$DDT_AUDIT_GENERATED_(7A)
  6
Continuous
 62
     7
100
AcDbLine
 10
22.0483873136
 20
334.8765283726
 30
0.0
 11
22.0483873136
 21
128.4565220593
 31
0.0
  0
LINE
  5
122
330
111
100
AcDbEntity
  8
$DDT_AUDIT_GENERATED_(7A)
  6
Continuous
 62
     7
100
AcDbLine
 10
46.8483873136
 20
128.4565220593
 30
0.0
 11
46.8483873136
 21
334.8765283726
 31
0.0
  0
LINE
  5
123
330
111
100
AcDbEntity
  8
$DDT_AUDIT_GENERATED_(7A)
  6
Continuous
 62
     7
100
AcDbLine
 10
46.8483873136
 20
126.7200402826
 30
0.0
 11
46.8483873136
 21
128.4565220593
 31
0.0
  0
LINE
  5
124
330
111
100
AcDbEntity
  8
$DDT_AUDIT_GENERATED_(7A)
  6
Continuous
 62
     7
100
AcDbLine
 10
22.0483873136
 20
128.4565220593
 30
0.0
 11
22.0483873136
 21
126.7200402826
 31
0.0
  0
ELLIPSE
  5
125
330
111
100
AcDbEntity
  8
$DDT_AUDIT_GENERATED_(82)
  6
Continuous
 62
     7
100
AcDbEllipse
 10
34.4483873136
 20
127.2997606215
 30
0.0
 11
-13.71416519425406
 21
0.0
 31
0.0
210
0.0
220
0.0
230
1.0
 40
0.984807753
 41
5.841832478784949
 42
6.283185307179586
  0
ELLIPSE
  5
126
330
111
100
AcDbEntity
  8
$DDT_AUDIT_GENERATED_(82)
  6
Continuous
 62
     7
100
AcDbEllipse
 10
34.4483873136
 20
127.2997606215
 30
0.0
 11
-13.71416519425406
 21
0.0
 31
0.0
210
0.0
220
0.0
230
1.0
 40
0.984807753
 41
0.0
 42
3.582945481984423
  0
ELLIPSE
  5
127
330
111
100
AcDbEntity
  8
$DDT_AUDIT_GENERATED_(82)
  6
Continuous
 62
     7
100
AcDbEllipse
 10
34.4483873136
 20
127.3459136272
 30
0.0
 11
-12.73143137130181
 21
-5.828670879282072E-13
 31
0.0
210
0.0
220
0.0
230
1.0
 40
0.984807753
 41
6.054509686894284
 42
6.283185307179586
  0
ELLIPSE
  5
128
330
111
100
AcDbEntity
  8
$DDT_AUDIT_GENERATED_(82)
  6
Continuous
 62
     7
100
AcDbEllipse
 10
34.4483873136
 20
127.3459136272
 30
0.0
 11
-12.73143137130181
 21
-5.828670879282072E-13
 31
0.0
210
0.0
220
0.0
230
1.0
 40
0.984807753
 41
0.0
 42
3.370268273874984
  0
ARC
  5
129
330
111
100
AcDbEntity
  8
$DDT_AUDIT_GENERATED_(82)
  6
Continuous
 62
     7
100
AcDbCircle
 10
34.4483742624
 20
121.12586321
 30
0.0
 40
14.77586320999971
100
AcDbArc
 50
160.2840715699
 51
20.1093680083
  0
LINE
  5
12A
330
111
100
AcDbEntity
  8
$DDT_AUDIT_GENERATED_(82)
  6
Continuous
 62
     7
100
AcDbLine
 10
48.4267448831
 20
125.3545395526
 30
0.0
 11
48.0980893949
 21
128.6080425684
 31
0.0
  0
LINE
  5
12B
330
111
100
AcDbEntity
  8
$DDT_AUDIT_GENERATED_(82)
  6
Continuous
 62
     7
100
AcDbLine
 10
20.7986852323
 20
128.6080425684
 30
0.0
 11
20.4700297441
 21
125.3545395526
 31
0.0
  0
LINE
  5
12C
330
111
100
AcDbEntity
  8
$DDT_AUDIT_GENERATED_(82)
  6
Continuous
 62
     7
100
AcDbLine
 10
48.0982334763
 20
128.6066162439
 30
0.0
 11
48.0951908641
 21
128.6367363804
 31
0.0
  0
LINE
  5
12D
330
111
100
AcDbEntity
  8
$DDT_AUDIT_GENERATED_(82)
  6
Continuous
 62
     7
100
AcDbLine
 10
20.8015837631
 20
128.6367363804
 30
0.0
 11
20.7985411508
 21
128.6066162439
 31
0.0
  0
LINE
  5
12E
330
111
100
AcDbEntity
  8
$DDT_AUDIT_GENERATED_(A3)
  6
Continuous
 62
     7
100
AcDbLine
 10
109.0483873136
 20
309.575509788
 30
0.0
 11
109.0483873136
 21
360.1775469571
 31
0.0
  0
LINE
  5
12F
330
111
100
AcDbEntity
  8
$DDT_AUDIT_GENERATED_(A3)
  6
Continuous
 62
     7
100
AcDbLine
 10
85.7483873136
 20
360.3765283726
 30
0.0
 11
85.7483873136
 21
309.3765283726
 31
0.0
  0
LINE
  5
130
330
111
100
AcDbEntity
  8
$DDT_AUDIT_GENERATED_(A3)
  6
Continuous
 62
     7
100
AcDbLine
 10
86.2483682771
 20
308.8808914165
 30
0.0
 11
86.2483682771
 21
360.8721653286
 31
0.0
  0
ARC
  5
131
330
111
100
AcDbEntity
  8
$DDT_AUDIT_GENERATED_(A3)
  6
Continuous
 62
     7
100
AcDbCircle
 10
102.9783873136
 20
334.8765283726
 30
0.0
 40
25.00000000000012
100
AcDbArc
 50
72.4812668262
 51
75.9481422426
  0
ARC
  5
132
330
111
100
AcDbEntity
  8
$DDT_AUDIT_GENERATED_(A3)
  6
Continuous
 62
     7
100
AcDbCircle
 10
102.9783873136
 20
334.8765283726
 30
0.0
 40
25.00000000000011
100
AcDbArc
 50
284.0518577574
 51
287.5187331738
  0
LINE
  5
133
330
111
100
AcDbEntity
  8
$DDT_AUDIT_GENERATED_(A3)
  6
Continuous
 62
     7
100
AcDbLine
 10
86.2483682771
 20
308.8808914165
 30
0.0
 11
108.5527503575
 21
309.0755288245
 31
0.0
  0
LINE
  5
134
330
111
100
AcDbEntity
  8
$DDT_AUDIT_GENERATED_(A3)
  6
Continuous
 62
     7
100
AcDbLine
 10
108.5527503575
 20
360.6775279206
 30
0.0
 11
86.2483682771
 21
360.8721653286
 31
0.0
  0
ARC
  5
135
330
111
100
AcDbEntity
  8
$DDT_AUDIT_GENERATED_(A3)
  6
Continuous
 62
     7
100
AcDbCircle
 10
108.5483873136
 20
360.1775469571
 30
0.0
 40
0.5000000000000004
100
AcDbArc
 50
0.0
 51
89.500025649
  0
ARC
  5
136
330
111
100
AcDbEntity
  8
$DDT_AUDIT_GENERATED_(A3)
  6
Continuous
 62
     7
100
AcDbCircle
 10
108.5483873136
 20
309.575509788
 30
0.0
 40
0.5000000000000024
100
AcDbArc
 50
270.499974351
 51
0.0
  0
LINE
  5
137
330
111
100
AcDbEntity
  8
$DDT_AUDIT_GENERATED_(A3)
  6
Continuous
 62
     7
100
AcDbLine
 10
86.2483682771
 20
360.8721653286
 30
0.0
 11
85.7483873136
 21
360.3765283726
 31
0.0
  0
LINE
  5
138
330
111
100
AcDbEntity
  8
$DDT_AUDIT_GENERATED_(A3)
  6
Continuous
 62
     7
100
AcDbLine
 10
85.7483873136
 20
309.3765283726
 30
0.0
 11
86.2483682771
 21
308.8808914165
 31
0.0
  0
ARC
  5
139
330
111
100
AcDbEntity
  8
$DDT_AUDIT_GENERATED_(B2)
  6
Continuous
 62
     7
100
AcDbCircle
 10
469.8579394982
 20
342.0773236354
 30
0.0
 40
336.3561814148933
100
AcDbArc
 50
177.652554933
 51
180.307861098
  0
ARC
  5
13A
330
111
100
AcDbEntity
  8
$DDT_AUDIT_GENERATED_(B2)
  6
Continuous
 62
     7
100
AcDbCircle
 10
1101.1662017078
 20
334.8765283726
 30
0.0
 40
991.0687943941363
100
AcDbArc
 50
179.9869112065
 51
180.013088782
  0
ARC
  5
13B
330
111
100
AcDbEntity
  8
$DDT_AUDIT_GENERATED_(B2)
  6
Continuous
 62
     7
100
AcDbCircle
 10
479.4325887153
 20
327.846165348
 30
0.0
 40
345.9298477056732
100
AcDbArc
 50
179.7288878433
 51
182.3106953525
  0
ARC
  5
13C
330
111
100
AcDbEntity
  8
$DDT_AUDIT_GENERATED_(B2)
  6
Continuous
 62
     7
100
AcDbCircle
 10
137.3061618292
 20
340.1511245944
 30
0.0
 40
3.801408251487636
100
AcDbArc
 50
178.2075848318
 51
184.1440929182
  0
ARC
  5
13D
330
111
100
AcDbEntity
  8
$DDT_AUDIT_GENERATED_(B2)
  6
Continuous
 62
     7
100
AcDbCircle
 10
133.4861720595
 20
334.882692705
 30
0.0
 40
4.993804488426973
100
AcDbArc
 50
2.430770903
 51
89.6727726889
  0
ARC
  5
13E
330
111
100
AcDbEntity
  8
$DDT_AUDIT_GENERATED_(B2)
  6
Continuous
 62
     7
100
AcDbCircle
 10
131.7997050565
 20
334.8766309986
 30
0.0
 40
5.000102547384519
100
AcDbArc
 50
346.2389585944
 51
359.998824156
  0
ARC
  5
13F
330
111
100
AcDbEntity
  8
$DDT_AUDIT_GENERATED_(B2)
  6
Continuous
 62
     7
100
AcDbCircle
 10
131.7997050565
 20
334.8766309986
 30
0.0
 40
5.000102547384519
100
AcDbArc
 50
269.9976772022
 51
346.2389585944
  0
ARC
  5
140
330
111
100
AcDbEntity
  8
$DDT_AUDIT_GENERATED_(B2)
  6
Continuous
 62
     7
100
AcDbCircle
 10
137.336664262
 20
329.6013079593
 30
0.0
 40
3.831876455806396
100
AcDbArc
 50
175.8795575559
 51
181.7688209973
  0
ARC
  5
141
330
111
100
AcDbEntity
  8
$DDT_AUDIT_GENERATED_(B2)
  6
Continuous
 62
     7
100
AcDbCircle
 10
131.8013810646
 20
334.8784826695
 30
0.0
 40
4.998045963766076
100
AcDbArc
 50
90.0212405765
 51
180.0224035572
  0
ARC
  5
142
330
111
100
AcDbEntity
  8
$DDT_AUDIT_GENERATED_(B2)
  6
Continuous
 62
     7
100
AcDbCircle
 10
131.7996998854
 20
334.8764205742
 30
0.0
 40
5.000107718561976
100
AcDbArc
 50
13.7813930698
 51
90.0019673379
  0
ARC
  5
143
330
111
100
AcDbEntity
  8
$DDT_AUDIT_GENERATED_(B2)
  6
Continuous
 62
     7
100
AcDbCircle
 10
131.7996998854
 20
334.8764205742
 30
0.0
 40
5.000107718561976
100
AcDbArc
 50
0.0012353916
 51
13.7813930698
  0
ARC
  5
144
330
111
100
AcDbEntity
  8
$DDT_AUDIT_GENERATED_(B2)
  6
Continuous
 62
     7
100
AcDbCircle
 10
763.7739069422
 20
333.0481317218
 30
0.0
 40
653.6784368058479
100
AcDbArc
 50
179.8595829221
 51
181.7080386212
  0
ELLIPSE
  5
145
330
111
100
AcDbEntity
  8
$DDT_AUDIT_GENERATED_(B2)
  6
Continuous
 62
     7
100
AcDbEllipse
 10
141.9627964414
 20
334.8765283726
 30
0.0
 11
1.046251835168377E-7
 21
-25.10681546381001
 31
0.0
210
0.0
220
0.0
230
1.0
 40
0.0261769454
 41
0.0531456858681616
 42
0.1011294743907447
  0
ELLIPSE
  5
146
330
111
100
AcDbEntity
  8
$DDT_AUDIT_GENERATED_(B2)
  6
Continuous
 62
     7
100
AcDbEllipse
 10
141.9627964414
 20
334.8765283726
 30
0.0
 11
1.046251835168377E-7
 21
-25.10681546381001
 31
0.0
210
0.0
220
0.0
230
1.0
 40
0.0261769454
 41
-3.242722443124828
 42
-3.209419403707451
  0
ARC
  5
147
330
111
100
AcDbEntity
  8
$DDT_AUDIT_GENERATED_(B2)
  6
Continuous
 62
     7
100
AcDbCircle
 10
133.486189181
 20
334.8703594339
 30
0.0
 40
4.993799794901522
100
AcDbArc
 50
270.3270301579
 51
357.6659604591
  0
LINE
  5
148
330
111
100
AcDbEntity
  8
$DDT_AUDIT_GENERATED_(B2)
  6
Continuous
 62
     7
100
AcDbLine
 10
138.4802251824
 20
334.8765283726
 30
0.0
 11
138.4758460021
 21
334.6669848955
 31
0.0
  0
LINE
  5
149
330
111
100
AcDbEntity
  8
$DDT_AUDIT_GENERATED_(B2)
  6
Continuous
 62
     7
100
AcDbLine
 10
138.4753947545
 20
335.096596006
 30
0.0
 11
138.4802251824
 21
334.8765283726
 31
0.0
  0
ARC
  5
14A
330
111
100
AcDbEntity
  8
$DDT_AUDIT_GENERATED_(B2)
  6
Continuous
 62
     7
100
AcDbCircle
 10
131.8012216139
 20
334.8744147375
 30
0.0
 40
4.997886577888397
100
AcDbArc
 50
179.975769492
 51
269.9802903552
  0
ARC
  5
14B
330
111
100
AcDbEntity
  8
$DDT_AUDIT_GENERATED_(B2)
  6
Continuous
 62
     7
100
AcDbCircle
 10
763.8516699495
 20
336.7038611637
 30
0.0
 40
653.756196973255
100
AcDbArc
 50
178.2920713204
 51
180.1403071269
  0
SPLINE
  5
14C
330
111
100
AcDbEntity
  8
$DDT_AUDIT_GENERATED_(B2)
  6
Continuous
 62
     7
100
AcDbSpline
210
0.0
220
0.0
230
1.0
 70
     8
 71
     3
 72
    10
 73
     6
 74
     0
 42
0.0000000210109957
 43
0.0000000001
 40
0.0
 40
0.0
 40
0.0
 40
0.0
 40
0.5
 40
0.5
 40
1.0
 40
1.0
 40
1.0
 40
1.0
 10
110.6087111410557
 20
309.661452350611
 30
0.0
 10
110.6146467609828
 20
309.6037957095257
 30
0.0
 10
110.6458746039836
 20
309.5506888948855
 30
0.0
 10
110.7582886427781
 20
309.4528839347362
 30
0.0
 10
110.8404922886601
 20
309.4079726832787
 30
0.0
 10
110.9470640360573
 20
309.3683638893536
 30
0.0
  0
ELLIPSE
  5
14D
330
111
100
AcDbEntity
  8
$DDT_AUDIT_GENERATED_(B2)
  6
Continuous
 62
     7
100
AcDbEllipse
 10
110.7765458251
 20
334.8765283726
 30
0.0
 11
-2.636779683484747E-13
 21
-26.01745508411326
 31
0.0
210
0.0
220
0.0
230
1.0
 40
0.0261769483
 41
-0.6108652381820763
 42
-0.2489974431181459
  0
ELLIPSE
  5
14E
330
111
100
AcDbEntity
  8
$DDT_AUDIT_GENERATED_(B2)
  6
Continuous
 62
     7
100
AcDbEllipse
 10
110.7765458251
 20
334.8765283725
 30
0.0
 11
0.0
 21
25.21563456025176
 31
0.0
210
0.0
220
0.0
230
1.0
 40
1.0
 41
0.0066560261605766
 42
0.0183272442901188
  0
SPLINE
  5
14F
330
111
100
AcDbEntity
  8
$DDT_AUDIT_GENERATED_(B2)
  6
Continuous
 62
     7
100
AcDbSpline
210
0.0
220
0.0
230
1.0
 70
     8
 71
     3
 72
    10
 73
     6
 74
     0
 42
0.0000000210109257
 43
0.0000000001
 40
0.0
 40
0.0
 40
0.0
 40
0.0
 40
0.5
 40
0.5
 40
1.0
 40
1.0
 40
1.0
 40
1.0
 10
110.9470640365394
 20
360.3846928559536
 30
0.0
 10
110.8404706713664
 20
360.3450760274937
 30
0.0
 10
110.7596867412629
 20
360.3010507609322
 30
0.0
 10
110.6466378217137
 20
360.2033639087076
 30
0.0
 10
110.614648064585
 20
360.1492736983624
 30
0.0
 10
110.6087111410559
 20
360.0916043747161
 30
0.0
  0
SPLINE
  5
150
330
111
100
AcDbEntity
  8
$DDT_AUDIT_GENERATED_(B2)
  6
Continuous
 62
     7
100
AcDbSpline
210
0.0
220
0.0
230
1.0
 70
     8
 71
     3
 72
     8
 73
     4
 74
     0
 42
0.0000000002076339
 43
0.0000000001
 40
0.0
 40
0.0
 40
0.0
 40
0.0
 40
0.0578945538096653
 40
0.0578945538096653
 40
0.0578945538096653
 40
0.0578945538096653
 10
110.9470640365394
 20
360.3846928559536
 30
0.0
 10
111.8289280355645
 20
360.7124492291915
 30
0.0
 10
112.7346876416205
 20
360.8601226991056
 30
0.0
 10
113.6643193719968
 20
360.843595743367
 30
0.0
  0
SPLINE
  5
151
330
111
100
AcDbEntity
  8
$DDT_AUDIT_GENERATED_(B2)
  6
Continuous
 62
     7
100
AcDbSpline
210
0.0
220
0.0
230
1.0
 70
     8
 71
     3
 72
     8
 73
     4
 74
     0
 42
0.0000000002058542
 43
0.0000000001
 40
0.942556697307497
 40
0.942556697307497
 40
0.942556697307497
 40
0.942556697307497
 40
1.0
 40
1.0
 40
1.0
 40
1.0
 10
113.6667082890871
 20
308.9100146783769
 30
0.0
 10
112.7347832851612
 20
308.8934637461488
 30
0.0
 10
111.8231045915006
 20
309.0427718756398
 30
0.0
 10
110.9470640360573
 20
309.3683638893536
 30
0.0
  0
ARC
  5
152
330
111
100
AcDbEntity
  8
$DDT_AUDIT_GENERATED_(B2)
  6
Continuous
 62
     7
100
AcDbCircle
 10
45.1990253067
 20
334.8765283726
 30
0.0
 40
99.99999999999984
100
AcDbArc
 50
345.5351868885
 51
14.4648131115
  0
LINE
  5
153
330
111
100
AcDbEntity
  8
$DDT_AUDIT_GENERATED_(B2)
  6
Continuous
 62
     7
100
AcDbLine
 10
133.4811959516
 20
339.8765283726
 30
0.0
 11
131.799215904
 21
339.8765283726
 31
0.0
  0
LINE
  5
154
330
111
100
AcDbEntity
  8
$DDT_AUDIT_GENERATED_(B2)
  6
Continuous
 62
     7
100
AcDbLine
 10
131.799215904
 20
329.8765283726
 30
0.0
 11
133.4811959505
 21
329.8765283726
 31
0.0
  0
SPLINE
  5
155
330
111
100
AcDbEntity
  8
$DDT_AUDIT_GENERATED_(B2)
  6
Continuous
 62
     7
100
AcDbSpline
210
0.0
220
0.0
230
1.0
 70
     8
 71
     3
 72
    12
 73
     8
 74
     0
 42
0.0000000149265457
 43
0.0000000001
 40
0.0
 40
0.0
 40
0.0
 40
0.0
 40
0.2280040268009758
 40
0.4960468449580533
 40
0.6985307167324478
 40
0.8927045441122846
 40
1.0
 40
1.0
 40
1.0
 40
1.0
 10
141.9867625337617
 20
359.9826832431499
 30
0.0
 10
141.9788693510245
 20
360.0059635059477
 30
0.0
 10
141.9612319175037
 20
360.0501182061548
 30
0.0
 10
141.9073428277864
 20
360.1444863655414
 30
0.0
 10
141.8006491395214
 20
360.256049960709
 30
0.0
 10
141.6431381484885
 20
360.3483903129008
 30
0.0
 10
141.5361842138147
 20
360.346868581825
 30
0.0
 10
141.4909578960912
 20
360.3462672357497
 30
0.0
  0
SPLINE
  5
156
330
111
100
AcDbEntity
  8
$DDT_AUDIT_GENERATED_(B2)
  6
Continuous
 62
     7
100
AcDbSpline
210
0.0
220
0.0
230
1.0
 70
     8
 71
     3
 72
    12
 73
     8
 74
     0
 42
0.00000001675734
 43
0.0000000001
 40
0.0
 40
0.0
 40
0.0
 40
0.0
 40
0.1033034563732712
 40
0.3519249140463146
 40
0.5931057890054618
 40
0.8651665693201004
 40
1.0
 40
1.0
 40
1.0
 40
1.0
 10
141.4884110052455
 20
309.4065542479289
 30
0.0
 10
141.5221136473114
 20
309.4042095722602
 30
0.0
 10
141.6191238755157
 20
309.3973730215876
 30
0.0
 10
141.775214276254
 20
309.4787782734572
 30
0.0
 10
141.8834482564266
 20
309.57960676587
 30
0.0
 10
141.9355332312623
 20
309.6569378370061
 30
0.0
 10
141.950540031831
 20
309.6887200226391
 30
0.0
 10
141.9559006390524
 20
309.7009690539509
 30
0.0
  0
LINE
  5
157
330
111
100
AcDbEntity
  8
$DDT_AUDIT_GENERATED_(B2)
  6
Continuous
 62
     7
100
AcDbLine
 10
113.6699215774
 20
308.9095919692
 30
0.0
 11
141.4880055799
 21
309.3953249309
 31
0.0
  0
LINE
  5
158
330
111
100
AcDbEntity
  8
$DDT_AUDIT_GENERATED_(B2)
  6
Continuous
 62
     7
100
AcDbLine
 10
141.4880055799
 20
360.3577318142
 30
0.0
 11
113.6662650479
 21
360.8435286228
 31
0.0
  0
LINE
  5
15A
330
111
100
AcDbEntity
  8
DV3_Standard
  6
CENTER2
 62
     7
100
AcDbLine
 10
60.8483868666
 20
334.8765283726
 30
0.0
 11
20.8483877606
 21
334.8765283726
 31
0.0
  0
LINE
  5
15B
330
111
100
AcDbEntity
  8
DV3_Standard
  6
CENTER2
 62
     7
100
AcDbLine
 10
40.8483873136
 20
354.8765279255
 30
0.0
 11
40.8483873136
 21
314.8765288196
 31
0.0
  0
LINE
  5
15C
330
111
100
AcDbEntity
  8
DV3_Standard
  6
CENTER2
 62
     7
100
AcDbLine
 10
65.8483867548
 20
334.8765283726
 30
0.0
 11
71.3483873136
 21
334.8765283726
 31
0.0
  0
LINE
  5
15D
330
111
100
AcDbEntity
  8
DV3_Standard
  6
CENTER2
 62
     7
100
AcDbLine
 10
40.8483873136
 20
359.8765278138
 30
0.0
 11
40.8483873136
 21
365.3765283726
 31
0.0
  0
LINE
  5
15E
330
111
100
AcDbEntity
  8
DV3_Standard
  6
CENTER2
 62
     7
100
AcDbLine
 10
15.8483878724
 20
334.8765283726
 30
0.0
 11
10.3483873136
 21
334.8765283726
 31
0.0
  0
LINE
  5
15F
330
111
100
AcDbEntity
  8
DV3_Standard
  6
CENTER2
 62
     7
100
AcDbLine
 10
40.8483873136
 20
309.8765289314
 30
0.0
 11
40.8483873136
 21
304.3765283726
 31
0.0
  0
ENDBLK
  5
161
330
111
100
AcDbEntity
  8
0
100
AcDbBlockEnd
  0
ENDSEC
  0
SECTION
  2
ENTITIES
  0
INSERT
  5
5F
330
1F
100
AcDbEntity
  8
Default
100
AcDbBlockReference
  2
SE
 10
0.0
 20
0.0
 30
0.0
  0
INSERT
  5
D9
330
1F
100
AcDbEntity
  8
Default
100
AcDbBlockReference
  2
SE1
 10
0.0
 20
0.0
 30
0.0
  0
INSERT
  5
112
330
1F
100
AcDbEntity
  8
Default
100
AcDbBlockReference
  2
SE2
 10
0.0
 20
0.0
 30
0.0
  0
TEXT
  5
163
330
1F
100
AcDbEntity
  8
Default
  6
Continuous
 62
     7
100
AcDbText
 10
5.9362635081
 20
53.4225120485
 30
0.0
 40
10.0
  1
Grohe AG^J
  7
SEACAD_seiso_ttf
 11
5.9362635081
 21
63.4225120485
 31
0.0
100
AcDbText
 73
     3
  0
TEXT
  5
164
330
1F
100
AcDbEntity
  8
Default
  6
Continuous
 62
     7
100
AcDbText
 10
5.9362635081
 20
37.0588756849
 30
0.0
 40
10.0
  1
 
  7
SEACAD_seiso_ttf
 11
5.9362635081
 21
47.0588756849
 31
0.0
100
AcDbText
 73
     3
  0
TEXT
  5
165
330
1F
100
AcDbEntity
  8
Default
  6
Continuous
 62
     7
100
AcDbText
 10
5.9362635081
 20
20.6952393213
 30
0.0
 40
10.0
  1
ecn: 
  7
SEACAD_seiso_ttf
 11
5.9362635081
 21
30.6952393213
 31
0.0
100
AcDbText
 73
     3
  0
TEXT
  5
166
330
1F
100
AcDbEntity
  8
Default
  6
Continuous
 62
     7
100
AcDbText
 10
5.9362635081
 20
4.3316029576
 30
0.0
 40
10.0
  1
unit: mm
  7
SEACAD_seiso_ttf
 11
5.9362635081
 21
14.3316029576
 31
0.0
100
AcDbText
 73
     3
  0
LINE
  5
167
330
1F
100
AcDbEntity
  8
Default
  6
Continuous
 62
     7
100
AcDbLine
 10
0.0
 20
0.0
 30
0.0
 11
100.0
 21
0.0
 31
0.0
  0
LINE
  5
168
330
1F
100
AcDbEntity
  8
Default
  6
Continuous
 62
     7
100
AcDbLine
 10
0.0
 20
0.0
 30
0.0
 11
0.0
 21
100.0
 31
0.0
  0
TEXT
  5
169
330
1F
100
AcDbEntity
  8
Default
  6
Continuous
 62
     7
100
AcDbText
 10
24.3923665681
 20
-18.2375342018
 30
0.0
 40
10.0
  1
100 mm
  7
SEACAD_seiso_ttf
 11
24.3923665681
 21
-8.2375342018
 31
0.0
100
AcDbText
 73
     3
  0
TEXT
  5
16A
330
1F
100
AcDbEntity
  8
Default
  6
Continuous
 62
     7
100
AcDbText
 10
-7.6150308803
 20
24.6231930421
 30
0.0
 40
10.0
  1
100 mm
 50
90.0
  7
SEACAD_seiso_ttf
 11
-17.6150308803
 21
24.6231930421
 31
0.0
100
AcDbText
 73
     3
  0
TEXT
  5
16B
330
1F
100
AcDbEntity
  8
Default
  6
Continuous
 62
     7
100
AcDbText
 10
28.4878128572
 20
20.0907663715
 30
0.0
 40
10.0
  1
217532
  7
SEACAD_seiso_ttf
 11
28.4878128572
 21
30.0907663715
 31
0.0
100
AcDbText
 73
     3
  0
TEXT
  5
16C
330
1F
100
AcDbEntity
  8
Default
  6
Continuous
 62
     7
100
AcDbText
 10
5.9012241913
 20
36.7242780188
 30
0.0
 40
10.0
  1
32918000
  7
SEACAD_seiso_ttf
 11
5.9012241913
 21
46.7242780188
 31
0.0
100
AcDbText
 73
     3
  0
ENDSEC
  0
SECTION
  2
OBJECTS
  0
DICTIONARY
  5
C
330
0
100
AcDbDictionary
281
     1
  3
ACAD_GROUP
350
D
  3
ACAD_LAYOUT
350
1A
  3
ACAD_MLEADERSTYLE
350
170
  3
ACAD_MLINESTYLE
350
17
  3
ACAD_PLOTSETTINGS
350
19
  3
ACAD_PLOTSTYLENAME
350
E
  3
ACAD_SCALELIST
350
3B
  3
ACAD_TABLESTYLE
350
16F
  3
ACAD_VISUALSTYLE
350
2A
  3
AcDbVariableDictionary
350
16D
  0
DICTIONARY
  5
D
102
{ACAD_REACTORS
330
C
102
}
330
C
100
AcDbDictionary
281
     1
  0
DICTIONARY
  5
1A
102
{ACAD_REACTORS
330
C
102
}
330
C
100
AcDbDictionary
281
     1
  3
Layout1
350
1E
  3
Model
350
22
  0
DICTIONARY
  5
170
102
{ACAD_REACTORS
330
C
102
}
330
C
100
AcDbDictionary
281
     1
  0
DICTIONARY
  5
17
102
{ACAD_REACTORS
330
C
102
}
330
C
100
AcDbDictionary
281
     1
  3
Standard
350
18
  0
DICTIONARY
  5
19
102
{ACAD_REACTORS
330
C
102
}
330
C
100
AcDbDictionary
281
     1
  0
ACDBDICTIONARYWDFLT
  5
E
102
{ACAD_REACTORS
330
C
102
}
330
C
100
AcDbDictionary
281
     1
  3
Normal
350
F
100
AcDbDictionaryWithDefault
340
F
  0
DICTIONARY
  5
3B
102
{ACAD_REACTORS
330
C
102
}
330
C
100
AcDbDictionary
281
     1
  3
A0
350
3C
  3
A1
350
3D
  3
A2
350
3E
  3
A3
350
3F
  3
A4
350
40
  3
A5
350
41
  3
A6
350
42
  3
A7
350
43
  3
A8
350
44
  3
A9
350
45
  3
B0
350
46
  3
B1
350
47
  3
B2
350
48
  3
B3
350
49
  3
B4
350
4A
  3
B5
350
4B
  3
B6
350
4C
  3
B7
350
4D
  3
B8
350
4E
  3
B9
350
4F
  3
C0
350
50
  3
C1
350
51
  3
C2
350
52
  3
C3
350
53
  3
C4
350
54
  3
C5
350
55
  3
C6
350
56
  3
C7
350
57
  3
C8
350
58
  3
C9
350
59
  3
D0
350
5A
  3
D1
350
5B
  3
D2
350
5C
  0
DICTIONARY
  5
16F
102
{ACAD_REACTORS
330
C
102
}
330
C
100
AcDbDictionary
281
     1
  0
DICTIONARY
  5
2A
102
{ACAD_REACTORS
330
C
102
}
330
C
100
AcDbDictionary
281
     1
  3
2dWireframe
350
2F
  3
3D Hidden
350
31
  3
3dWireframe
350
30
  3
Basic
350
32
  3
Brighten
350
36
  3
ColorChange
350
3A
  3
Conceptual
350
34
  3
Dim
350
35
  3
Facepattern
350
39
  3
Flat
350
2B
  3
FlatWithEdges
350
2C
  3
Gouraud
350
2D
  3
GouraudWithEdges
350
2E
  3
Linepattern
350
38
  3
Realistic
350
33
  3
Thicken
350
37
  0
DICTIONARY
  5
16D
102
{ACAD_REACTORS
330
C
102
}
330
C
100
AcDbDictionary
281
     1
  3
CANNOSCALE
350
16E
  3
PSOLHEIGHT
350
172
  3
PSOLWIDTH
350
171
  0
LAYOUT
  5
1E
102
{ACAD_REACTORS
330
1A
102
}
330
1A
100
AcDbPlotSettings
  1

  2
none_device
  4

  6

 40
0.0
 41
0.0
 42
0.0
 43
0.0
 44
0.0
 45
0.0
 46
0.0
 47
0.0
 48
0.0
 49
0.0
140
0.0
141
0.0
142
1.0
143
1.0
 70
   688
 72
     0
 73
     0
 74
     5
  7

 75
    16
147
1.0
148
0.0
149
0.0
100
AcDbLayout
  1
Layout1
 70
     1
 71
     1
 10
0.0
 20
0.0
 11
1682.0
 21
2378.0
 12
0.0
 22
0.0
 32
0.0
 14
0.0
 24
0.0
 34
0.0
 15
1682.0
 25
2378.0
 35
0.0
146
0.0
 13
0.0
 23
0.0
 33
0.0
 16
1.0
 26
0.0
 36
0.0
 17
0.0
 27
1.0
 37
0.0
 76
     0
330
1B
  0
LAYOUT
  5
22
102
{ACAD_REACTORS
330
1A
102
}
330
1A
100
AcDbPlotSettings
  1

  2
none_device
  4

  6

 40
0.0
 41
0.0
 42
0.0
 43
0.0
 44
0.0
 45
0.0
 46
0.0
 47
0.0
 48
0.0
 49
0.0
140
0.0
141
0.0
142
1.0
143
1.0
 70
  1712
 72
     0
 73
     0
 74
     0
  7

 75
     0
147
1.0
148
0.0
149
0.0
100
AcDbLayout
  1
Model
 70
     1
 71
     0
 10
0.0
 20
0.0
 11
1682.0
 21
2378.0
 12
0.0
 22
0.0
 32
0.0
 14
0.0
 24
0.0
 34
0.0
 15
1682.0
 25
2378.0
 35
0.0
146
0.0
 13
0.0
 23
0.0
 33
0.0
 16
1.0
 26
0.0
 36
0.0
 17
0.0
 27
1.0
 37
0.0
 76
     0
330
1F
331
29
  0
MLINESTYLE
  5
18
102
{ACAD_REACTORS
330
17
102
}
330
17
100
AcDbMlineStyle
  2
Standard
 70
     0
  3

 62
   256
 51
90.0
 52
90.0
 71
     2
 49
0.5
 62
   256
  6
BYLAYER
 49
-0.5
 62
   256
  6
BYLAYER
  0
ACDBPLACEHOLDER
  5
F
102
{ACAD_REACTORS
330
E
102
}
330
E
  0
SCALE
  5
3C
102
{ACAD_REACTORS
330
3B
102
}
330
3B
100
AcDbScale
 70
     0
300
1:1
140
1.0
141
1.0
290
     1
  0
SCALE
  5
3D
102
{ACAD_REACTORS
330
3B
102
}
330
3B
100
AcDbScale
 70
     0
300
1:2
140
1.0
141
2.0
290
     0
  0
SCALE
  5
3E
102
{ACAD_REACTORS
330
3B
102
}
330
3B
100
AcDbScale
 70
     0
300
1:4
140
1.0
141
4.0
290
     0
  0
SCALE
  5
3F
102
{ACAD_REACTORS
330
3B
102
}
330
3B
100
AcDbScale
 70
     0
300
1:5
140
1.0
141
5.0
290
     0
  0
SCALE
  5
40
102
{ACAD_REACTORS
330
3B
102
}
330
3B
100
AcDbScale
 70
     0
300
1:8
140
1.0
141
8.0
290
     0
  0
SCALE
  5
41
102
{ACAD_REACTORS
330
3B
102
}
330
3B
100
AcDbScale
 70
     0
300
1:10
140
1.0
141
10.0
290
     0
  0
SCALE
  5
42
102
{ACAD_REACTORS
330
3B
102
}
330
3B
100
AcDbScale
 70
     0
300
1:16
140
1.0
141
16.0
290
     0
  0
SCALE
  5
43
102
{ACAD_REACTORS
330
3B
102
}
330
3B
100
AcDbScale
 70
     0
300
1:20
140
1.0
141
20.0
290
     0
  0
SCALE
  5
44
102
{ACAD_REACTORS
330
3B
102
}
330
3B
100
AcDbScale
 70
     0
300
1:30
140
1.0
141
30.0
290
     0
  0
SCALE
  5
45
102
{ACAD_REACTORS
330
3B
102
}
330
3B
100
AcDbScale
 70
     0
300
1:40
140
1.0
141
40.0
290
     0
  0
SCALE
  5
46
102
{ACAD_REACTORS
330
3B
102
}
330
3B
100
AcDbScale
 70
     0
300
1:50
140
1.0
141
50.0
290
     0
  0
SCALE
  5
47
102
{ACAD_REACTORS
330
3B
102
}
330
3B
100
AcDbScale
 70
     0
300
1:100
140
1.0
141
100.0
290
     0
  0
SCALE
  5
48
102
{ACAD_REACTORS
330
3B
102
}
330
3B
100
AcDbScale
 70
     0
300
2:1
140
2.0
141
1.0
290
     0
  0
SCALE
  5
49
102
{ACAD_REACTORS
330
3B
102
}
330
3B
100
AcDbScale
 70
     0
300
4:1
140
4.0
141
1.0
290
     0
  0
SCALE
  5
4A
102
{ACAD_REACTORS
330
3B
102
}
330
3B
100
AcDbScale
 70
     0
300
8:1
140
8.0
141
1.0
290
     0
  0
SCALE
  5
4B
102
{ACAD_REACTORS
330
3B
102
}
330
3B
100
AcDbScale
 70
     0
300
10:1
140
10.0
141
1.0
290
     0
  0
SCALE
  5
4C
102
{ACAD_REACTORS
330
3B
102
}
330
3B
100
AcDbScale
 70
     0
300
100:1
140
100.0
141
1.0
290
     0
  0
SCALE
  5
4D
102
{ACAD_REACTORS
330
3B
102
}
330
3B
100
AcDbScale
 70
     0
300
1/128" = 1'-0"
140
0.0078125
141
12.0
290
     0
  0
SCALE
  5
4E
102
{ACAD_REACTORS
330
3B
102
}
330
3B
100
AcDbScale
 70
     0
300
1/64" = 1'-0"
140
0.015625
141
12.0
290
     0
  0
SCALE
  5
4F
102
{ACAD_REACTORS
330
3B
102
}
330
3B
100
AcDbScale
 70
     0
300
1/32" = 1'-0"
140
0.03125
141
12.0
290
     0
  0
SCALE
  5
50
102
{ACAD_REACTORS
330
3B
102
}
330
3B
100
AcDbScale
 70
     0
300
1/16" = 1'-0"
140
0.0625
141
12.0
290
     0
  0
SCALE
  5
51
102
{ACAD_REACTORS
330
3B
102
}
330
3B
100
AcDbScale
 70
     0
300
3/32" = 1'-0"
140
0.09375
141
12.0
290
     0
  0
SCALE
  5
52
102
{ACAD_REACTORS
330
3B
102
}
330
3B
100
AcDbScale
 70
     0
300
1/8" = 1'-0"
140
0.125
141
12.0
290
     0
  0
SCALE
  5
53
102
{ACAD_REACTORS
330
3B
102
}
330
3B
100
AcDbScale
 70
     0
300
3/16" = 1'-0"
140
0.1875
141
12.0
290
     0
  0
SCALE
  5
54
102
{ACAD_REACTORS
330
3B
102
}
330
3B
100
AcDbScale
 70
     0
300
1/4" = 1'-0"
140
0.25
141
12.0
290
     0
  0
SCALE
  5
55
102
{ACAD_REACTORS
330
3B
102
}
330
3B
100
AcDbScale
 70
     0
300
3/8" = 1'-0"
140
0.375
141
12.0
290
     0
  0
SCALE
  5
56
102
{ACAD_REACTORS
330
3B
102
}
330
3B
100
AcDbScale
 70
     0
300
1/2" = 1'-0"
140
0.5
141
12.0
290
     0
  0
SCALE
  5
57
102
{ACAD_REACTORS
330
3B
102
}
330
3B
100
AcDbScale
 70
     0
300
3/4" = 1'-0"
140
0.75
141
12.0
290
     0
  0
SCALE
  5
58
102
{ACAD_REACTORS
330
3B
102
}
330
3B
100
AcDbScale
 70
     0
300
1" = 1'-0"
140
1.0
141
12.0
290
     0
  0
SCALE
  5
59
102
{ACAD_REACTORS
330
3B
102
}
330
3B
100
AcDbScale
 70
     0
300
1-1/2" = 1'-0"
140
1.5
141
12.0
290
     0
  0
SCALE
  5
5A
102
{ACAD_REACTORS
330
3B
102
}
330
3B
100
AcDbScale
 70
     0
300
3" = 1'-0"
140
3.0
141
12.0
290
     0
  0
SCALE
  5
5B
102
{ACAD_REACTORS
330
3B
102
}
330
3B
100
AcDbScale
 70
     0
300
6" = 1'-0"
140
6.0
141
12.0
290
     0
  0
SCALE
  5
5C
102
{ACAD_REACTORS
330
3B
102
}
330
3B
100
AcDbScale
 70
     0
300
1'-0" = 1'-0"
140
12.0
141
12.0
290
     0
  0
VISUALSTYLE
  5
2F
102
{ACAD_REACTORS
330
2A
102
}
330
2A
100
AcDbVisualStyle
  2
2dWireframe
 70
     4
 71
     0
 72
     2
 73
     0
 90
        0
 40
-0.6
 41
-30.0
 62
     5
 63
     7
 74
     1
 91
        4
 64
     7
 65
   257
 75
     1
175
     1
 42
1.0
 92
        0
 66
   257
 43
1.0
 76
     1
 77
     6
 78
     2
 67
     7
 79
     5
170
     0
171
     0
290
     0
174
     0
 93
        1
 44
0.0
173
     0
291
     0
 45
0.0
1001
ACAD
1000
AcDbSavedByObjectVersion
1070
     0
  0
VISUALSTYLE
  5
31
102
{ACAD_REACTORS
330
2A
102
}
330
2A
100
AcDbVisualStyle
  2
3D Hidden
 70
     6
 71
     1
 72
     2
 73
     2
 90
        0
 40
-0.6
 41
-30.0
 62
     5
 63
     7
 74
     2
 91
        2
 64
     7
 65
   257
 75
     2
175
     1
 42
40.0
 92
        0
 66
   257
 43
1.0
 76
     1
 77
     6
 78
     2
 67
     7
 79
     3
170
     0
171
     0
290
     0
174
     0
 93
        1
 44
0.0
173
     0
291
     0
 45
0.0
1001
ACAD
1000
AcDbSavedByObjectVersion
1070
     0
  0
VISUALSTYLE
  5
30
102
{ACAD_REACTORS
330
2A
102
}
330
2A
100
AcDbVisualStyle
  2
3dWireframe
 70
     5
 71
     0
 72
     2
 73
     0
 90
        0
 40
-0.6
 41
-30.0
 62
     5
 63
     7
 74
     1
 91
        4
 64
     7
 65
   257
 75
     1
175
     1
 42
1.0
 92
        0
 66
   257
 43
1.0
 76
     1
 77
     6
 78
     2
 67
     7
 79
     5
170
     0
171
     0
290
     0
174
     0
 93
        1
 44
0.0
173
     0
291
     0
 45
0.0
1001
ACAD
1000
AcDbSavedByObjectVersion
1070
     0
  0
VISUALSTYLE
  5
32
102
{ACAD_REACTORS
330
2A
102
}
330
2A
100
AcDbVisualStyle
  2
Basic
 70
     7
 71
     1
 72
     0
 73
     1
 90
        0
 40
-0.6
 41
-30.0
 62
     5
 63
     7
 74
     0
 91
        4
 64
     7
 65
   257
 75
     1
175
     1
 42
1.0
 92
        8
 66
     7
 43
1.0
 76
     1
 77
     6
 78
     2
 67
     7
 79
     5
170
     0
171
     0
290
     0
174
     0
 93
        1
 44
0.0
173
     0
291
     1
 45
0.0
1001
ACAD
1000
AcDbSavedByObjectVersion
1070
     0
  0
VISUALSTYLE
  5
36
102
{ACAD_REACTORS
330
2A
102
}
330
2A
100
AcDbVisualStyle
  2
Brighten
 70
    12
 71
     2
 72
     2
 73
     0
 90
        0
 40
-0.6
 41
-30.0
 62
     5
 63
     7
 74
     1
 91
        4
 64
     7
 65
   257
 75
     1
175
     1
 42
1.0
 92
        8
 66
     7
 43
1.0
 76
     1
 77
     6
 78
     2
 67
     7
 79
     5
170
     0
171
     0
290
     0
174
     0
 93
        1
 44
50.0
173
     0
291
     1
 45
0.0
1001
ACAD
1000
AcDbSavedByObjectVersion
1070
     0
  0
VISUALSTYLE
  5
3A
102
{ACAD_REACTORS
330
2A
102
}
330
2A
100
AcDbVisualStyle
  2
ColorChange
 70
    16
 71
     2
 72
     2
 73
     3
 90
        0
 40
-0.6
 41
-30.0
 62
     5
 63
     8
 74
     1
 91
        4
 64
     7
 65
   257
 75
     1
175
     1
 42
1.0
 92
        8
 66
     8
 43
1.0
 76
     1
 77
     6
 78
     2
 67
     7
 79
     5
170
     0
171
     0
290
     0
174
     0
 93
        1
 44
0.0
173
     0
291
     1
 45
0.0
1001
ACAD
1000
AcDbSavedByObjectVersion
1070
     0
  0
VISUALSTYLE
  5
34
102
{ACAD_REACTORS
330
2A
102
}
330
2A
100
AcDbVisualStyle
  2
Conceptual
 70
     9
 71
     3
 72
     2
 73
     0
 90
        0
 40
-0.6
 41
-30.0
 62
     5
 63
     7
 74
     2
 91
        2
 64
     7
 65
   257
 75
     1
175
     1
 42
40.0
 92
        8
 66
     7
 43
1.0
 76
     1
 77
     6
 78
     2
 67
     7
 79
     3
170
     0
171
     0
290
     0
174
     0
 93
        1
 44
0.0
173
     0
291
     0
 45
0.0
1001
ACAD
1000
AcDbSavedByObjectVersion
1070
     0
  0
VISUALSTYLE
  5
35
102
{ACAD_REACTORS
330
2A
102
}
330
2A
100
AcDbVisualStyle
  2
Dim
 70
    11
 71
     2
 72
     2
 73
     0
 90
        0
 40
-0.6
 41
-30.0
 62
     5
 63
     7
 74
     1
 91
        4
 64
     7
 65
   257
 75
     1
175
     1
 42
1.0
 92
        8
 66
     7
 43
1.0
 76
     1
 77
     6
 78
     2
 67
     7
 79
     5
170
     0
171
     0
290
     0
174
     0
 93
        1
 44
-50.0
173
     0
291
     1
 45
0.0
1001
ACAD
1000
AcDbSavedByObjectVersion
1070
     0
  0
VISUALSTYLE
  5
39
102
{ACAD_REACTORS
330
2A
102
}
330
2A
100
AcDbVisualStyle
  2
Facepattern
 70
    15
 71
     2
 72
     2
 73
     0
 90
        0
 40
-0.6
 41
-30.0
 62
     5
 63
     7
 74
     1
 91
        4
 64
     7
 65
   257
 75
     1
175
     1
 42
1.0
 92
        8
 66
     7
 43
1.0
 76
     1
 77
     6
 78
     2
 67
     7
 79
     5
170
     0
171
     0
290
     0
174
     0
 93
        1
 44
0.0
173
     0
291
     1
 45
0.0
1001
ACAD
1000
AcDbSavedByObjectVersion
1070
     0
  0
VISUALSTYLE
  5
2B
102
{ACAD_REACTORS
330
2A
102
}
330
2A
100
AcDbVisualStyle
  2
Flat
 70
     0
 71
     2
 72
     1
 73
     1
 90
        2
 40
-0.6
 41
30.0
 62
     5
 63
     7
 74
     0
 91
        4
 64
     7
 65
   257
 75
     1
175
     1
 42
1.0
 92
        8
 66
     7
 43
1.0
 76
     1
 77
     6
 78
     2
 67
     7
 79
     5
170
     0
171
     0
290
     0
174
     0
 93
       13
 44
0.0
173
     0
291
     1
 45
0.0
1001
ACAD
1000
AcDbSavedByObjectVersion
1070
     0
  0
VISUALSTYLE
  5
2C
102
{ACAD_REACTORS
330
2A
102
}
330
2A
100
AcDbVisualStyle
  2
FlatWithEdges
 70
     1
 71
     2
 72
     1
 73
     1
 90
        2
 40
-0.6
 41
30.0
 62
     5
 63
     7
 74
     1
 91
        4
 64
     7
 65
   257
 75
     1
175
     1
 42
1.0
 92
        0
 66
   257
 43
1.0
 76
     1
 77
     6
 78
     2
 67
     7
 79
     5
170
     0
171
     0
290
     0
174
     0
 93
       13
 44
0.0
173
     0
291
     1
 45
0.0
1001
ACAD
1000
AcDbSavedByObjectVersion
1070
     0
  0
VISUALSTYLE
  5
2D
102
{ACAD_REACTORS
330
2A
102
}
330
2A
100
AcDbVisualStyle
  2
Gouraud
 70
     2
 71
     2
 72
     2
 73
     1
 90
        2
 40
-0.6
 41
30.0
 62
     5
 63
     7
 74
     0
 91
        4
 64
     7
 65
   257
 75
     1
175
     1
 42
1.0
 92
        0
 66
     7
 43
1.0
 76
     1
 77
     6
 78
     2
 67
     7
 79
     5
170
     0
171
     0
290
     0
174
     0
 93
       13
 44
0.0
173
     0
291
     1
 45
0.0
1001
ACAD
1000
AcDbSavedByObjectVersion
1070
     0
  0
VISUALSTYLE
  5
2E
102
{ACAD_REACTORS
330
2A
102
}
330
2A
100
AcDbVisualStyle
  2
GouraudWithEdges
 70
     3
 71
     2
 72
     2
 73
     1
 90
        2
 40
-0.6
 41
30.0
 62
     5
 63
     7
 74
     1
 91
        4
 64
     7
 65
   257
 75
     1
175
     1
 42
1.0
 92
        0
 66
   257
 43
1.0
 76
     1
 77
     6
 78
     2
 67
     7
 79
     5
170
     0
171
     0
290
     0
174
     0
 93
       13
 44
0.0
173
     0
291
     1
 45
0.0
1001
ACAD
1000
AcDbSavedByObjectVersion
1070
     0
  0
VISUALSTYLE
  5
38
102
{ACAD_REACTORS
330
2A
102
}
330
2A
100
AcDbVisualStyle
  2
Linepattern
 70
    14
 71
     2
 72
     2
 73
     0
 90
        0
 40
-0.6
 41
-30.0
 62
     5
 63
     7
 74
     1
 91
        4
 64
     7
 65
   257
 75
     7
175
     7
 42
1.0
 92
        8
 66
     7
 43
1.0
 76
     1
 77
     6
 78
     2
 67
     7
 79
     5
170
     0
171
     0
290
     0
174
     0
 93
        1
 44
0.0
173
     0
291
     1
 45
0.0
1001
ACAD
1000
AcDbSavedByObjectVersion
1070
     0
  0
VISUALSTYLE
  5
33
102
{ACAD_REACTORS
330
2A
102
}
330
2A
100
AcDbVisualStyle
  2
Realistic
 70
     8
 71
     2
 72
     2
 73
     0
 90
        0
 40
-0.6
 41
-30.0
 62
     5
 63
     7
 74
     1
 91
        0
 64
     7
 65
   257
 75
     1
175
     1
 42
1.0
 92
        8
 66
     8
 43
1.0
 76
     1
 77
     6
 78
     2
 67
     7
 79
     5
170
     0
171
     0
290
     0
174
     0
 93
       13
 44
0.0
173
     0
291
     0
 45
0.0
1001
ACAD
1000
AcDbSavedByObjectVersion
1070
     0
  0
VISUALSTYLE
  5
37
102
{ACAD_REACTORS
330
2A
102
}
330
2A
100
AcDbVisualStyle
  2
Thicken
 70
    13
 71
     2
 72
     2
 73
     0
 90
        0
 40
-0.6
 41
-30.0
 62
     5
 63
     7
 74
     1
 91
        4
 64
     7
 65
   257
 75
     1
175
     1
 42
1.0
 92
       12
 66
     7
 43
1.0
 76
     1
 77
     6
 78
     2
 67
     7
 79
     5
170
     0
171
     0
290
     0
174
     0
 93
        1
 44
0.0
173
     0
291
     1
 45
0.0
1001
ACAD
1000
AcDbSavedByObjectVersion
1070
     0
  0
DICTIONARYVAR
  5
16E
102
{ACAD_REACTORS
330
16D
102
}
330
16D
100
DictionaryVariables
280
     0
  1
1:1
  0
DICTIONARYVAR
  5
172
102
{ACAD_REACTORS
330
16D
102
}
330
16D
100
DictionaryVariables
280
     0
  1
80.000000
  0
DICTIONARYVAR
  5
171
102
{ACAD_REACTORS
330
16D
102
}
330
16D
100
DictionaryVariables
280
     0
  1
5.000000
  0
ENDSEC
  0
EOF
