  0
SECTION
  2
HEADER
  9
$ACADVER
  1
AC1015
  9
$ACADMAINTVER
 70
     6
  9
$DWGCODEPAGE
  3
ANSI_1252
  9
$INSBASE
 10
0.0
 20
0.0
 30
0.0
  9
$EXTMIN
 10
0.0
 20
0.0
 30
0.0
  9
$EXTMAX
 10
1682.0
 20
2378.0
 30
0.0
  9
$LIMMIN
 10
0.0
 20
0.0
  9
$LIMMAX
 10
1682.0
 20
2378.0
  9
$ORTHOMODE
 70
     0
  9
$REGENMODE
 70
     1
  9
$FILLMODE
 70
     1
  9
$QTEXTMODE
 70
     0
  9
$MIRRTEXT
 70
     1
  9
$LTSCALE
 40
1.0
  9
$ATTMODE
 70
     1
  9
$TEXTSIZE
 40
2.5
  9
$TRACEWID
 40
1.0
  9
$TEXTSTYLE
  7
Standard
  9
$CLAYER
  8
0
  9
$CELTYPE
  6
ByLayer
  9
$CECOLOR
 62
   256
  9
$CELTSCALE
 40
1.0
  9
$DISPSILH
 70
     0
  9
$DIMSCALE
 40
1.0
  9
$DIMASZ
 40
2.5
  9
$DIMEXO
 40
0.625
  9
$DIMDLI
 40
3.75
  9
$DIMRND
 40
0.0
  9
$DIMDLE
 40
0.0
  9
$DIMEXE
 40
1.25
  9
$DIMTP
 40
0.0
  9
$DIMTM
 40
0.0
  9
$DIMTXT
 40
2.5
  9
$DIMCEN
 40
2.5
  9
$DIMTSZ
 40
0.0
  9
$DIMTOL
 70
     0
  9
$DIMLIM
 70
     0
  9
$DIMTIH
 70
     0
  9
$DIMTOH
 70
     0
  9
$DIMSE1
 70
     0
  9
$DIMSE2
 70
     0
  9
$DIMTAD
 70
     1
  9
$DIMZIN
 70
     8
  9
$DIMBLK
  1

  9
$DIMASO
 70
     1
  9
$DIMSHO
 70
     1
  9
$DIMPOST
  1

  9
$DIMAPOST
  1

  9
$DIMALT
 70
     0
  9
$DIMALTD
 70
     3
  9
$DIMALTF
 40
0.0393700787
  9
$DIMLFAC
 40
1.0
  9
$DIMTOFL
 70
     1
  9
$DIMTVP
 40
0.0
  9
$DIMTIX
 70
     0
  9
$DIMSOXD
 70
     0
  9
$DIMSAH
 70
     0
  9
$DIMBLK1
  1

  9
$DIMBLK2
  1

  9
$DIMSTYLE
  2
ISO-25
  9
$DIMCLRD
 70
     0
  9
$DIMCLRE
 70
     0
  9
$DIMCLRT
 70
     0
  9
$DIMTFAC
 40
1.0
  9
$DIMGAP
 40
0.625
  9
$DIMJUST
 70
     0
  9
$DIMSD1
 70
     0
  9
$DIMSD2
 70
     0
  9
$DIMTOLJ
 70
     0
  9
$DIMTZIN
 70
     8
  9
$DIMALTZ
 70
     0
  9
$DIMALTTZ
 70
     0
  9
$DIMUPT
 70
     0
  9
$DIMDEC
 70
     2
  9
$DIMTDEC
 70
     2
  9
$DIMALTU
 70
     2
  9
$DIMALTTD
 70
     3
  9
$DIMTXSTY
  7
Standard
  9
$DIMAUNIT
 70
     0
  9
$DIMADEC
 70
     0
  9
$DIMALTRND
 40
0.0
  9
$DIMAZIN
 70
     0
  9
$DIMDSEP
 70
    44
  9
$DIMATFIT
 70
     3
  9
$DIMFRAC
 70
     0
  9
$DIMLDRBLK
  1

  9
$DIMLUNIT
 70
     2
  9
$DIMLWD
 70
    -2
  9
$DIMLWE
 70
    -2
  9
$DIMTMOVE
 70
     0
  9
$LUNITS
 70
     2
  9
$LUPREC
 70
     4
  9
$SKETCHINC
 40
1.0
  9
$FILLETRAD
 40
10.0
  9
$AUNITS
 70
     0
  9
$AUPREC
 70
     0
  9
$MENU
  1
.
  9
$ELEVATION
 40
0.0
  9
$PELEVATION
 40
0.0
  9
$THICKNESS
 40
0.0
  9
$LIMCHECK
 70
     0
  9
$CHAMFERA
 40
10.0
  9
$CHAMFERB
 40
10.0
  9
$CHAMFERC
 40
20.0
  9
$CHAMFERD
 40
0.0
  9
$SKPOLY
 70
     0
  9
$TDCREATE
 40
2455272.432748843
  9
$TDUCREATE
 40
2455272.391082176
  9
$TDUPDATE
 40
2455272.432748854
  9
$TDUUPDATE
 40
2455272.391082188
  9
$TDINDWG
 40
0.0000000116
  9
$TDUSRTIMER
 40
0.0000000116
  9
$USRTIMER
 70
     1
  9
$ANGBASE
 50
0.0
  9
$ANGDIR
 70
     0
  9
$PDMODE
 70
     0
  9
$PDSIZE
 40
0.0
  9
$PLINEWID
 40
0.0
  9
$SPLFRAME
 70
     0
  9
$SPLINETYPE
 70
     6
  9
$SPLINESEGS
 70
     8
  9
$HANDSEED
  5
2B6
  9
$SURFTAB1
 70
     6
  9
$SURFTAB2
 70
     6
  9
$SURFTYPE
 70
     6
  9
$SURFU
 70
     6
  9
$SURFV
 70
     6
  9
$UCSBASE
  2

  9
$UCSNAME
  2

  9
$UCSORG
 10
0.0
 20
0.0
 30
0.0
  9
$UCSXDIR
 10
1.0
 20
0.0
 30
0.0
  9
$UCSYDIR
 10
0.0
 20
1.0
 30
0.0
  9
$UCSORTHOREF
  2

  9
$UCSORTHOVIEW
 70
     0
  9
$UCSORGTOP
 10
0.0
 20
0.0
 30
0.0
  9
$UCSORGBOTTOM
 10
0.0
 20
0.0
 30
0.0
  9
$UCSORGLEFT
 10
0.0
 20
0.0
 30
0.0
  9
$UCSORGRIGHT
 10
0.0
 20
0.0
 30
0.0
  9
$UCSORGFRONT
 10
0.0
 20
0.0
 30
0.0
  9
$UCSORGBACK
 10
0.0
 20
0.0
 30
0.0
  9
$PUCSBASE
  2

  9
$PUCSNAME
  2

  9
$PUCSORG
 10
0.0
 20
0.0
 30
0.0
  9
$PUCSXDIR
 10
1.0
 20
0.0
 30
0.0
  9
$PUCSYDIR
 10
0.0
 20
1.0
 30
0.0
  9
$PUCSORTHOREF
  2

  9
$PUCSORTHOVIEW
 70
     0
  9
$PUCSORGTOP
 10
0.0
 20
0.0
 30
0.0
  9
$PUCSORGBOTTOM
 10
0.0
 20
0.0
 30
0.0
  9
$PUCSORGLEFT
 10
0.0
 20
0.0
 30
0.0
  9
$PUCSORGRIGHT
 10
0.0
 20
0.0
 30
0.0
  9
$PUCSORGFRONT
 10
0.0
 20
0.0
 30
0.0
  9
$PUCSORGBACK
 10
0.0
 20
0.0
 30
0.0
  9
$USERI1
 70
     0
  9
$USERI2
 70
     0
  9
$USERI3
 70
     0
  9
$USERI4
 70
     0
  9
$USERI5
 70
     0
  9
$USERR1
 40
0.0
  9
$USERR2
 40
0.0
  9
$USERR3
 40
0.0
  9
$USERR4
 40
0.0
  9
$USERR5
 40
0.0
  9
$WORLDVIEW
 70
     1
  9
$SHADEDGE
 70
     3
  9
$SHADEDIF
 70
    70
  9
$TILEMODE
 70
     1
  9
$MAXACTVP
 70
    64
  9
$PINSBASE
 10
0.0
 20
0.0
 30
0.0
  9
$PLIMCHECK
 70
     0
  9
$PEXTMIN
 10
0.0
 20
0.0
 30
0.0
  9
$PEXTMAX
 10
1682.0
 20
2378.0
 30
0.0
  9
$PLIMMIN
 10
0.0
 20
0.0
  9
$PLIMMAX
 10
1682.0
 20
2378.0
  9
$UNITMODE
 70
     0
  9
$VISRETAIN
 70
     1
  9
$PLINEGEN
 70
     0
  9
$PSLTSCALE
 70
     1
  9
$TREEDEPTH
 70
  3020
  9
$CMLSTYLE
  2
Standard
  9
$CMLJUST
 70
     0
  9
$CMLSCALE
 40
20.0
  9
$PROXYGRAPHICS
 70
     1
  9
$MEASUREMENT
 70
     1
  9
$CELWEIGHT
370
    -1
  9
$ENDCAPS
280
     0
  9
$JOINSTYLE
280
     0
  9
$LWDISPLAY
290
     0
  9
$INSUNITS
 70
     4
  9
$HYPERLINKBASE
  1

  9
$STYLESHEET
  1

  9
$XEDIT
290
     1
  9
$CEPSNTYPE
380
     0
  9
$PSTYLEMODE
290
     1
  9
$FINGERPRINTGUID
  2
{0940FA8C-EA22-4714-A6FF-7DCC56A49835}
  9
$VERSIONGUID
  2
{FAEB1C32-E019-11D5-929B-00C0DF256EC4}
  9
$EXTNAMES
290
     1
  9
$PSVPSCALE
 40
0.0
  9
$OLESTARTUP
290
     0
  0
ENDSEC
  0
SECTION
  2
CLASSES
  0
CLASS
  1
ACDBDICTIONARYWDFLT
  2
AcDbDictionaryWithDefault
  3
ObjectDBX Classes
 90
        0
280
     0
281
     0
  0
CLASS
  1
VISUALSTYLE
  2
AcDbVisualStyle
  3
ObjectDBX Classes
 90
     4095
280
     0
281
     0
  0
CLASS
  1
SCALE
  2
AcDbScale
  3
ObjectDBX Classes
 90
     1153
280
     0
281
     0
  0
CLASS
  1
DICTIONARYVAR
  2
AcDbDictionaryVar
  3
ObjectDBX Classes
 90
        0
280
     0
281
     0
  0
CLASS
  1
ACDBPLACEHOLDER
  2
AcDbPlaceHolder
  3
ObjectDBX Classes
 90
        0
280
     0
281
     0
  0
CLASS
  1
LAYOUT
  2
AcDbLayout
  3
ObjectDBX Classes
 90
        0
280
     0
281
     0
  0
ENDSEC
  0
SECTION
  2
TABLES
  0
TABLE
  2
VPORT
  5
8
330
0
100
AcDbSymbolTable
 70
     1
  0
VPORT
  5
29
330
8
100
AcDbSymbolTableRecord
100
AcDbViewportTableRecord
  2
*Active
 70
     0
 10
0.0
 20
0.0
 11
1.0
 21
1.0
 12
344.1869158879
 22
148.5
 13
0.0
 23
0.0
 14
10.0
 24
10.0
 15
10.0
 25
10.0
 16
0.0
 26
0.0
 36
1.0
 17
0.0
 27
0.0
 37
0.0
 40
297.0
 41
1.9729729729
 42
50.0
 43
0.0
 44
0.0
 50
0.0
 51
0.0
 71
     0
 72
   100
 73
     1
 74
     3
 75
     0
 76
     0
 77
     0
 78
     0
281
     0
 65
     1
110
0.0
120
0.0
130
0.0
111
1.0
121
0.0
131
0.0
112
0.0
122
1.0
132
0.0
 79
     0
146
0.0
  0
ENDTAB
  0
TABLE
  2
LTYPE
  5
5
330
0
100
AcDbSymbolTable
 70
     2
  0
LTYPE
  5
14
330
5
100
AcDbSymbolTableRecord
100
AcDbLinetypeTableRecord
  2
ByBlock
 70
     0
  3

 72
    65
 73
     0
 40
0.0
  0
LTYPE
  5
15
330
5
100
AcDbSymbolTableRecord
100
AcDbLinetypeTableRecord
  2
ByLayer
 70
     0
  3

 72
    65
 73
     0
 40
0.0
  0
LTYPE
  5
16
330
5
100
AcDbSymbolTableRecord
100
AcDbLinetypeTableRecord
  2
Continuous
 70
     0
  3
Solid line
 72
    65
 73
     0
 40
0.0
  0
LTYPE
  5
144
330
5
100
AcDbSymbolTableRecord
100
AcDbLinetypeTableRecord
  2
CENTER2
 70
     0
  3
Center (.5x) ___ _ ___ _ ___ _ ___ _ ___ _ ___
 72
    65
 73
     4
 40
28.575
 49
19.05
 74
     4
 75
     0
340
0
 46
0.0
 50
0.0
 44
0.0
 45
0.0
 49
-3.175
 74
     4
 75
     0
340
0
 46
0.0
 50
0.0
 44
0.0
 45
0.0
 49
3.175
 74
     4
 75
     0
340
0
 46
0.0
 50
0.0
 44
0.0
 45
0.0
 49
-3.175
 74
     4
 75
     0
340
0
 46
0.0
 50
0.0
 44
0.0
 45
0.0
  0
ENDTAB
  0
TABLE
  2
LAYER
  5
2
330
0
100
AcDbSymbolTable
 70
    19
  0
LAYER
  5
10
330
2
100
AcDbSymbolTableRecord
100
AcDbLayerTableRecord
  2
0
 70
     0
 62
     7
  6
Continuous
370
    -3
390
F
  0
LAYER
  5
5D
330
2
100
AcDbSymbolTableRecord
100
AcDbLayerTableRecord
  2
Default
 70
     0
 62
     7
  6
Continuous
370
    -3
390
F
  0
LAYER
  5
60
330
2
100
AcDbSymbolTableRecord
100
AcDbLayerTableRecord
  2
$DDT_AUDIT_GENERATED_(60)
 70
     0
 62
     7
  6
Continuous
370
    -3
390
F
  0
LAYER
  5
69
330
2
100
AcDbSymbolTableRecord
100
AcDbLayerTableRecord
  2
$DDT_AUDIT_GENERATED_(69)
 70
     0
 62
     7
  6
Continuous
370
    -3
390
F
  0
LAYER
  5
75
330
2
100
AcDbSymbolTableRecord
100
AcDbLayerTableRecord
  2
$DDT_AUDIT_GENERATED_(75)
 70
     0
 62
     7
  6
Continuous
370
    -3
390
F
  0
LAYER
  5
85
330
2
100
AcDbSymbolTableRecord
100
AcDbLayerTableRecord
  2
$DDT_AUDIT_GENERATED_(85)
 70
     0
 62
     7
  6
Continuous
370
    -3
390
F
  0
LAYER
  5
96
330
2
100
AcDbSymbolTableRecord
100
AcDbLayerTableRecord
  2
$DDT_AUDIT_GENERATED_(96)
 70
     0
 62
     7
  6
Continuous
370
    -3
390
F
  0
LAYER
  5
AF
330
2
100
AcDbSymbolTableRecord
100
AcDbLayerTableRecord
  2
$DDT_AUDIT_GENERATED_(AF)
 70
     0
 62
     7
  6
Continuous
370
    -3
390
F
  0
LAYER
  5
C8
330
2
100
AcDbSymbolTableRecord
100
AcDbLayerTableRecord
  2
$DDT_AUDIT_GENERATED_(C8)
 70
     0
 62
     7
  6
Continuous
370
    -3
390
F
  0
LAYER
  5
E1
330
2
100
AcDbSymbolTableRecord
100
AcDbLayerTableRecord
  2
$DDT_AUDIT_GENERATED_(E1)
 70
     0
 62
     7
  6
Continuous
370
    -3
390
F
  0
LAYER
  5
107
330
2
100
AcDbSymbolTableRecord
100
AcDbLayerTableRecord
  2
$DDT_AUDIT_GENERATED_(107)
 70
     0
 62
     7
  6
Continuous
370
    -3
390
F
  0
LAYER
  5
130
330
2
100
AcDbSymbolTableRecord
100
AcDbLayerTableRecord
  2
$DDT_AUDIT_GENERATED_(130)
 70
     0
 62
     7
  6
Continuous
370
    -3
390
F
  0
LAYER
  5
133
330
2
100
AcDbSymbolTableRecord
100
AcDbLayerTableRecord
  2
$DDT_AUDIT_GENERATED_(133)
 70
     0
 62
     7
  6
Continuous
370
    -3
390
F
  0
LAYER
  5
140
330
2
100
AcDbSymbolTableRecord
100
AcDbLayerTableRecord
  2
DV1_Standard
 70
     0
 62
     7
  6
Continuous
370
    -3
390
F
  0
LAYER
  5
21A
330
2
100
AcDbSymbolTableRecord
100
AcDbLayerTableRecord
  2
DV2_Standard
 70
     0
 62
     7
  6
Continuous
370
    -3
390
F
  0
LAYER
  5
237
330
2
100
AcDbSymbolTableRecord
100
AcDbLayerTableRecord
  2
$DDT_AUDIT_GENERATED_(237)
 70
     0
 62
     7
  6
Continuous
370
    -3
390
F
  0
LAYER
  5
274
330
2
100
AcDbSymbolTableRecord
100
AcDbLayerTableRecord
  2
$DDT_AUDIT_GENERATED_(274)
 70
     0
 62
     7
  6
Continuous
370
    -3
390
F
  0
LAYER
  5
276
330
2
100
AcDbSymbolTableRecord
100
AcDbLayerTableRecord
  2
$DDT_AUDIT_GENERATED_(276)
 70
     0
 62
     7
  6
Continuous
370
    -3
390
F
  0
LAYER
  5
29F
330
2
100
AcDbSymbolTableRecord
100
AcDbLayerTableRecord
  2
DV3_Standard
 70
     0
 62
     7
  6
Continuous
370
    -3
390
F
  0
ENDTAB
  0
TABLE
  2
STYLE
  5
3
330
0
100
AcDbSymbolTable
 70
     2
  0
STYLE
  5
11
330
3
100
AcDbSymbolTableRecord
100
AcDbTextStyleTableRecord
  2
Standard
 70
     0
 40
0.0
 41
1.0
 50
0.0
 71
     0
 42
2.5
  3
txt
  4

  0
STYLE
  5
2A5
330
3
100
AcDbSymbolTableRecord
100
AcDbTextStyleTableRecord
  2
SEACAD_seiso_ttf
 70
     0
 40
0.0
 41
1.0
 50
0.0
 71
     0
 42
0.2
  3
seiso.ttf
  4

  0
ENDTAB
  0
TABLE
  2
VIEW
  5
6
330
0
100
AcDbSymbolTable
 70
     0
  0
ENDTAB
  0
TABLE
  2
UCS
  5
7
330
0
100
AcDbSymbolTable
 70
     0
  0
ENDTAB
  0
TABLE
  2
APPID
  5
9
330
0
100
AcDbSymbolTable
 70
     1
  0
APPID
  5
12
330
9
100
AcDbSymbolTableRecord
100
AcDbRegAppTableRecord
  2
ACAD
 70
     0
  0
ENDTAB
  0
TABLE
  2
DIMSTYLE
  5
A
330
0
100
AcDbSymbolTable
 70
     1
100
AcDbDimStyleTable
  0
DIMSTYLE
105
27
330
A
100
AcDbSymbolTableRecord
100
AcDbDimStyleTableRecord
  2
ISO-25
 70
     0
 41
2.5
 42
0.625
 43
3.75
 44
1.25
 73
     0
 74
     0
 77
     1
 78
     8
140
2.5
141
2.5
143
0.0393700787
147
0.625
171
     3
172
     1
271
     2
272
     2
274
     3
278
    44
283
     0
284
     8
340
11
  0
ENDTAB
  0
TABLE
  2
BLOCK_RECORD
  5
1
330
0
100
AcDbSymbolTable
 70
     4
  0
BLOCK_RECORD
  5
1F
330
1
100
AcDbSymbolTableRecord
100
AcDbBlockTableRecord
  2
*Model_Space
340
22
  0
BLOCK_RECORD
  5
1B
330
1
100
AcDbSymbolTableRecord
100
AcDbBlockTableRecord
  2
*Paper_Space
340
1E
  0
BLOCK_RECORD
  5
5E
330
1
100
AcDbSymbolTableRecord
100
AcDbBlockTableRecord
  2
SE
340
0
102
{BLKREFS
331
5F
102
}
  0
BLOCK_RECORD
  5
14B
330
1
100
AcDbSymbolTableRecord
100
AcDbBlockTableRecord
  2
SE1
340
0
102
{BLKREFS
331
14C
102
}
  0
BLOCK_RECORD
  5
229
330
1
100
AcDbSymbolTableRecord
100
AcDbBlockTableRecord
  2
SE2
340
0
102
{BLKREFS
331
22A
102
}
  0
ENDTAB
  0
ENDSEC
  0
SECTION
  2
BLOCKS
  0
BLOCK
  5
20
330
1F
100
AcDbEntity
  8
0
100
AcDbBlockBegin
  2
*Model_Space
 70
     0
 10
0.0
 20
0.0
 30
0.0
  3
*Model_Space
  1

  0
ENDBLK
  5
21
330
1F
100
AcDbEntity
  8
0
100
AcDbBlockEnd
  0
BLOCK
  5
1C
330
1B
100
AcDbEntity
 67
     1
  8
0
100
AcDbBlockBegin
  2
*Paper_Space
 70
     0
 10
0.0
 20
0.0
 30
0.0
  3
*Paper_Space
  1

  0
ENDBLK
  5
1D
330
1B
100
AcDbEntity
 67
     1
  8
0
100
AcDbBlockEnd
  0
BLOCK
  5
149
330
5E
100
AcDbEntity
  8
0
100
AcDbBlockBegin
  2
SE
 70
     0
 10
0.0
 20
0.0
 30
0.0
  3
SE
  1

  0
LINE
  5
61
330
5E
100
AcDbEntity
  8
$DDT_AUDIT_GENERATED_(60)
  6
Continuous
 62
     7
100
AcDbLine
 10
65.0
 20
1296.4818333292
 30
0.0
 11
35.0
 21
1296.4818333292
 31
0.0
  0
LINE
  5
62
330
5E
100
AcDbEntity
  8
$DDT_AUDIT_GENERATED_(60)
  6
Continuous
 62
     7
100
AcDbLine
 10
35.0
 20
1344.4818333292
 30
0.0
 11
65.0
 21
1344.4818333292
 31
0.0
  0
LINE
  5
63
330
5E
100
AcDbEntity
  8
$DDT_AUDIT_GENERATED_(60)
  6
Continuous
 62
     7
100
AcDbLine
 10
65.5
 20
1296.9818333292
 30
0.0
 11
65.5
 21
1343.9818333292
 31
0.0
  0
LINE
  5
64
330
5E
100
AcDbEntity
  8
$DDT_AUDIT_GENERATED_(60)
  6
Continuous
 62
     7
100
AcDbLine
 10
34.5
 20
1343.9818333292
 30
0.0
 11
34.5
 21
1296.9818333292
 31
0.0
  0
ARC
  5
65
330
5E
100
AcDbEntity
  8
$DDT_AUDIT_GENERATED_(60)
  6
Continuous
 62
     7
100
AcDbCircle
 10
65.0
 20
1296.9818333292
 30
0.0
 40
0.5000000000000004
100
AcDbArc
 50
270.0
 51
0.0
  0
ARC
  5
66
330
5E
100
AcDbEntity
  8
$DDT_AUDIT_GENERATED_(60)
  6
Continuous
 62
     7
100
AcDbCircle
 10
35.0
 20
1296.9818333292
 30
0.0
 40
0.5000000000000004
100
AcDbArc
 50
180.0
 51
270.0
  0
ARC
  5
67
330
5E
100
AcDbEntity
  8
$DDT_AUDIT_GENERATED_(60)
  6
Continuous
 62
     7
100
AcDbCircle
 10
65.0
 20
1343.9818333292
 30
0.0
 40
0.5000000000000004
100
AcDbArc
 50
0.0
 51
90.0
  0
ARC
  5
68
330
5E
100
AcDbEntity
  8
$DDT_AUDIT_GENERATED_(60)
  6
Continuous
 62
     7
100
AcDbCircle
 10
35.0
 20
1343.9818333292
 30
0.0
 40
0.5000000000000004
100
AcDbArc
 50
90.0
 51
180.0
  0
LINE
  5
6A
330
5E
100
AcDbEntity
  8
$DDT_AUDIT_GENERATED_(69)
  6
Continuous
 62
     7
100
AcDbLine
 10
62.35
 20
1368.0068333292
 30
0.0
 11
37.65
 21
1368.0068333292
 31
0.0
  0
LINE
  5
6B
330
5E
100
AcDbEntity
  8
$DDT_AUDIT_GENERATED_(69)
  6
Continuous
 62
     7
100
AcDbLine
 10
62.35
 20
368.0068333292
 30
0.0
 11
37.65
 21
368.0068333292
 31
0.0
  0
LINE
  5
6C
330
5E
100
AcDbEntity
  8
$DDT_AUDIT_GENERATED_(69)
  6
Continuous
 62
     7
100
AcDbLine
 10
62.35
 20
368.0068333292
 30
0.0
 11
62.35
 21
396.4818333292
 31
0.0
  0
LINE
  5
6D
330
5E
100
AcDbEntity
  8
$DDT_AUDIT_GENERATED_(69)
  6
Continuous
 62
     7
100
AcDbLine
 10
62.35
 20
444.4818333292
 30
0.0
 11
62.35
 21
850.9519771293
 31
0.0
  0
LINE
  5
6E
330
5E
100
AcDbEntity
  8
$DDT_AUDIT_GENERATED_(69)
  6
Continuous
 62
     7
100
AcDbLine
 10
62.35
 20
885.0615999428
 30
0.0
 11
62.35
 21
1017.5050455881
 31
0.0
  0
LINE
  5
6F
330
5E
100
AcDbEntity
  8
$DDT_AUDIT_GENERATED_(69)
  6
Continuous
 62
     7
100
AcDbLine
 10
62.35
 20
1101.0402660594
 30
0.0
 11
62.35
 21
1296.4818333292
 31
0.0
  0
LINE
  5
70
330
5E
100
AcDbEntity
  8
$DDT_AUDIT_GENERATED_(69)
  6
Continuous
 62
     7
100
AcDbLine
 10
62.35
 20
1344.4818333292
 30
0.0
 11
62.35
 21
1368.0068333292
 31
0.0
  0
LINE
  5
71
330
5E
100
AcDbEntity
  8
$DDT_AUDIT_GENERATED_(69)
  6
Continuous
 62
     7
100
AcDbLine
 10
37.65
 20
1368.0068333292
 30
0.0
 11
37.65
 21
1344.4818333292
 31
0.0
  0
LINE
  5
72
330
5E
100
AcDbEntity
  8
$DDT_AUDIT_GENERATED_(69)
  6
Continuous
 62
     7
100
AcDbLine
 10
37.65
 20
1296.4818333292
 30
0.0
 11
37.65
 21
885.0616895292
 31
0.0
  0
LINE
  5
73
330
5E
100
AcDbEntity
  8
$DDT_AUDIT_GENERATED_(69)
  6
Continuous
 62
     7
100
AcDbLine
 10
37.65
 20
850.9520667157
 30
0.0
 11
37.65
 21
444.4818333292
 31
0.0
  0
LINE
  5
74
330
5E
100
AcDbEntity
  8
$DDT_AUDIT_GENERATED_(69)
  6
Continuous
 62
     7
100
AcDbLine
 10
37.65
 20
396.4818333292
 30
0.0
 11
37.65
 21
368.0068333292
 31
0.0
  0
LINE
  5
76
330
5E
100
AcDbEntity
  8
$DDT_AUDIT_GENERATED_(75)
  6
Continuous
 62
     7
100
AcDbLine
 10
66.0
 20
850.0068333292
 30
0.0
 11
66.0
 21
886.0068333292
 31
0.0
  0
LINE
  5
77
330
5E
100
AcDbEntity
  8
$DDT_AUDIT_GENERATED_(75)
  6
Continuous
 62
     7
100
AcDbLine
 10
34.0
 20
850.0068333292
 30
0.0
 11
34.0
 21
886.0068333292
 31
0.0
  0
SPLINE
  5
78
330
5E
100
AcDbEntity
  8
$DDT_AUDIT_GENERATED_(75)
  6
Continuous
 62
     7
100
AcDbSpline
210
0.0
220
0.0
230
1.0
 70
     8
 71
     3
 72
    28
 73
    24
 74
     0
 42
0.0000000001602155
 43
0.0000000001
 40
0.5004905214111448
 40
0.5004905214111448
 40
0.5004905214111448
 40
0.5004905214111448
 40
0.5625000000000001
 40
0.5625000000000001
 40
0.625
 40
0.625
 40
0.6875
 40
0.6875
 40
0.71875
 40
0.71875
 40
0.75
 40
0.75
 40
0.78125
 40
0.78125
 40
0.8125
 40
0.8125
 40
0.8749999999999999
 40
0.8749999999999999
 40
0.9374999999999999
 40
0.9374999999999999
 40
0.9687499999999999
 40
0.9687499999999999
 40
1.0
 40
1.0
 40
1.0
 40
1.0
 10
36.1500030599858
 20
886.0068301048908
 30
0.0
 10
36.15034785421324
 20
886.0064920989804
 30
0.0
 10
36.55498582628363
 20
885.6905912170816
 30
0.0
 10
37.99353436137199
 20
884.6230435201825
 30
0.0
 10
39.02330048707207
 20
883.8744605640387
 30
0.0
 10
41.4880578196824
 20
882.2808244160569
 30
0.0
 10
42.92307548019894
 20
881.4263372177593
 30
0.0
 10
45.37203871628851
 20
880.3782199383484
 30
0.0
 10
46.24941607676518
 20
880.0677572646277
 30
0.0
 10
48.06716764286065
 20
879.6315848246827
 30
0.0
 10
49.03327027105414
 20
879.5050294437332
 30
0.0
 10
50.93437970465477
 20
879.5023547593879
 30
0.0
 10
51.89561975237152
 20
879.6252012071249
 30
0.0
 10
53.7189917664258
 20
880.0577253152721
 30
0.0
 10
54.58101633403792
 20
880.3601785821618
 30
0.0
 10
57.05758424742852
 20
881.4140966052124
 30
0.0
 10
58.47846068099692
 20
882.2603933060216
 30
0.0
 10
60.95996821977496
 20
883.8624499956118
 30
0.0
 10
61.97716661096981
 20
884.601698671324
 30
0.0
 10
63.07356924111959
 20
885.4147509710979
 30
0.0
 10
63.35752519713441
 20
885.6302562966212
 30
0.0
 10
63.74788899458127
 20
885.9279384710122
 30
0.0
 10
63.84999999999999
 20
886.0068333292255
 30
0.0
 10
63.85
 20
886.0068333292255
 30
0.0
  0
SPLINE
  5
79
330
5E
100
AcDbEntity
  8
$DDT_AUDIT_GENERATED_(75)
  6
Continuous
 62
     7
100
AcDbSpline
210
0.0
220
0.0
230
1.0
 70
     8
 71
     3
 72
    18
 73
    14
 74
     0
 42
0.0000000001605047
 43
0.0000000001
 40
0.0
 40
0.0
 40
0.0
 40
0.0
 40
0.03125
 40
0.03125
 40
0.0625
 40
0.0625
 40
0.125
 40
0.125
 40
0.1875000000000001
 40
0.1875000000000001
 40
0.2500000000000001
 40
0.2500000000000001
 40
0.2502055573218054
 40
0.2502055573218054
 40
0.2502055573218054
 40
0.2502055573218054
 10
50.0
 20
856.5099859352656
 30
0.0
 10
49.03276017263314
 20
856.5099859352656
 30
0.0
 10
48.09867364915875
 20
856.3872103782137
 30
0.0
 10
46.28398732285076
 20
855.9565492724902
 30
0.0
 10
45.40523866887857
 20
855.6477510183655
 30
0.0
 10
42.96348025421771
 20
854.6083093194939
 30
0.0
 10
41.51504175288454
 20
853.748949517475
 30
0.0
 10
39.05193097786957
 20
852.1590274985303
 30
0.0
 10
38.02171188335173
 20
851.411116886833
 30
0.0
 10
36.56411361377758
 20
850.3302538802955
 30
0.0
 10
36.15255905695228
 20
850.0088023806632
 30
0.0
 10
36.15000402108373
 20
850.0068364232266
 30
0.0
 10
36.15000003576176
 20
850.006833408768
 30
0.0
 10
36.1500004378459
 20
850.0068338211486
 30
0.0
  0
SPLINE
  5
7A
330
5E
100
AcDbEntity
  8
$DDT_AUDIT_GENERATED_(75)
  6
Continuous
 62
     7
100
AcDbSpline
210
0.0
220
0.0
230
1.0
 70
     8
 71
     3
 72
    14
 73
    10
 74
     0
 42
0.0000000001599297
 43
0.0000000001
 40
0.750205821561986
 40
0.750205821561986
 40
0.750205821561986
 40
0.750205821561986
 40
0.8125
 40
0.8125
 40
0.875
 40
0.875
 40
0.9375
 40
0.9375
 40
1.0
 40
1.0
 40
1.0
 40
1.0
 10
63.84999954640529
 20
850.0068338350441
 30
0.0
 10
63.84984246812012
 20
850.0069862295668
 30
0.0
 10
63.44739776194793
 20
850.3213996761517
 30
0.0
 10
61.99750639815425
 20
851.397177754444
 30
0.0
 10
60.96443144771322
 20
852.1478118055617
 30
0.0
 10
58.49580880392181
 20
853.7425922365762
 30
0.0
 10
57.0496575931304
 20
854.6016202590897
 30
0.0
 10
53.78851585662604
 20
855.9920541938744
 30
0.0
 10
51.93447965473374
 20
856.5099859352656
 30
0.0
 10
50.0
 20
856.5099859352656
 30
0.0
  0
LINE
  5
7B
330
5E
100
AcDbEntity
  8
$DDT_AUDIT_GENERATED_(75)
  6
Continuous
 62
     7
100
AcDbLine
 10
66.0
 20
855.0068333292
 30
0.0
 11
66.65
 21
855.0068333292
 31
0.0
  0
LINE
  5
7C
330
5E
100
AcDbEntity
  8
$DDT_AUDIT_GENERATED_(75)
  6
Continuous
 62
     7
100
AcDbLine
 10
66.65
 20
881.0068333292
 30
0.0
 11
66.0
 21
881.0068333292
 31
0.0
  0
LINE
  5
7D
330
5E
100
AcDbEntity
  8
$DDT_AUDIT_GENERATED_(75)
  6
Continuous
 62
     7
100
AcDbLine
 10
63.8228127887
 20
850.0068333292
 30
0.0
 11
66.0
 21
850.0068333292
 31
0.0
  0
LINE
  5
7E
330
5E
100
AcDbEntity
  8
$DDT_AUDIT_GENERATED_(75)
  6
Continuous
 62
     7
100
AcDbLine
 10
34.0
 20
850.0068333292
 30
0.0
 11
36.1820067545
 21
850.0068333292
 31
0.0
  0
LINE
  5
7F
330
5E
100
AcDbEntity
  8
$DDT_AUDIT_GENERATED_(75)
  6
Continuous
 62
     7
100
AcDbLine
 10
36.1865149024
 20
886.0068333292
 30
0.0
 11
34.0
 21
886.0068333292
 31
0.0
  0
LINE
  5
80
330
5E
100
AcDbEntity
  8
$DDT_AUDIT_GENERATED_(75)
  6
Continuous
 62
     7
100
AcDbLine
 10
66.0
 20
886.0068333292
 30
0.0
 11
63.85
 21
886.0068333292
 31
0.0
  0
LINE
  5
81
330
5E
100
AcDbEntity
  8
$DDT_AUDIT_GENERATED_(75)
  6
Continuous
 62
     7
100
AcDbLine
 10
32.75
 20
858.5068333292
 30
0.0
 11
33.5
 21
858.5068333292
 31
0.0
  0
LINE
  5
82
330
5E
100
AcDbEntity
  8
$DDT_AUDIT_GENERATED_(75)
  6
Continuous
 62
     7
100
AcDbLine
 10
33.5
 20
877.5068333292
 30
0.0
 11
32.75
 21
877.5068333292
 31
0.0
  0
ARC
  5
83
330
5E
100
AcDbEntity
  8
$DDT_AUDIT_GENERATED_(75)
  6
Continuous
 62
     7
100
AcDbCircle
 10
33.5
 20
858.0068333292
 30
0.0
 40
0.5000000000000004
100
AcDbArc
 50
0.0
 51
90.0
  0
ARC
  5
84
330
5E
100
AcDbEntity
  8
$DDT_AUDIT_GENERATED_(75)
  6
Continuous
 62
     7
100
AcDbCircle
 10
33.5
 20
878.0068333292
 30
0.0
 40
0.5000000000000004
100
AcDbArc
 50
270.0
 51
0.0
  0
SPLINE
  5
86
330
5E
100
AcDbEntity
  8
$DDT_AUDIT_GENERATED_(85)
  6
Continuous
 62
     7
100
AcDbSpline
210
0.0
220
0.0
230
1.0
 70
     8
 71
     3
 72
    14
 73
    10
 74
     0
 42
0.0000000002720688
 43
0.0000000001
 40
0.0
 40
0.0
 40
0.0
 40
0.0
 40
0.0625
 40
0.0625
 40
0.125
 40
0.125
 40
0.1874999999999999
 40
0.1874999999999999
 40
0.2009397673916493
 40
0.2009397673916493
 40
0.2009397673916493
 40
0.2009397673916493
 10
43.72500000000002
 20
854.6759246955276
 30
0.0
 10
42.57073790815227
 20
854.1326012938478
 30
0.0
 10
41.5540195702653
 20
853.5435271833675
 30
0.0
 10
39.77606127216434
 20
852.4382250947078
 30
0.0
 10
39.04739763753027
 20
851.9400268717657
 30
0.0
 10
37.94699613917754
 20
851.1706320563701
 30
0.0
 10
37.59111910573933
 20
850.9096849780711
 30
0.0
 10
37.46142526472761
 20
850.8151751976111
 30
0.0
 10
37.45012379676212
 20
850.807030054623
 30
0.0
 10
37.45023769093227
 20
850.8072120871723
 30
0.0
  0
SPLINE
  5
87
330
5E
100
AcDbEntity
  8
$DDT_AUDIT_GENERATED_(85)
  6
Continuous
 62
     7
100
AcDbSpline
210
0.0
220
0.0
230
1.0
 70
     8
 71
     3
 72
    14
 73
    10
 74
     0
 42
0.0000000002713336
 43
0.0000000001
 40
0.7996033660873396
 40
0.7996033660873396
 40
0.7996033660873396
 40
0.7996033660873396
 40
0.8125
 40
0.8125
 40
0.875
 40
0.875
 40
0.9375
 40
0.9375
 40
1.0
 40
1.0
 40
1.0
 40
1.0
 10
62.54925045623019
 20
850.8075713397442
 30
0.0
 10
62.54962620340164
 20
850.8072032826947
 30
0.0
 10
62.53954907105183
 20
850.8144632393359
 30
0.0
 10
62.41832130147927
 20
850.9028142329678
 30
0.0
 10
62.0674596500639
 20
851.160250677313
 30
0.0
 10
60.96985693141962
 20
851.928228733751
 30
0.0
 10
60.2256548600345
 20
852.4370654499739
 30
0.0
 10
58.44937119272407
 20
853.541511761778
 30
0.0
 10
57.4264732432833
 20
854.1339140344285
 30
0.0
 10
56.27500000000001
 20
854.6759246955276
 30
0.0
  0
ELLIPSE
  5
88
330
5E
100
AcDbEntity
  8
$DDT_AUDIT_GENERATED_(85)
  6
Continuous
 62
     7
100
AcDbEllipse
 10
50.000000001
 20
868.0068333273
 30
0.0
 11
-1.113821923449840E-9
 21
-17.1999999979629
 31
0.0
210
0.0
220
0.0
230
1.0
 40
0.5773502692
 41
0.6839976345740942
 42
0.6982313393242169
  0
ELLIPSE
  5
89
330
5E
100
AcDbEntity
  8
$DDT_AUDIT_GENERATED_(85)
  6
Continuous
 62
     7
100
AcDbEllipse
 10
50.0000000037
 20
868.0068333366
 30
0.0
 11
-4.193598359324921E-9
 21
-17.20000000764765
 31
0.0
210
0.0
220
0.0
230
1.0
 40
0.5773502692
 41
-0.698103719968783
 42
-0.68399763423061
  0
SPLINE
  5
8A
330
5E
100
AcDbEntity
  8
$DDT_AUDIT_GENERATED_(85)
  6
Continuous
 62
     7
100
AcDbSpline
210
0.0
220
0.0
230
1.0
 70
     8
 71
     3
 72
    14
 73
    10
 74
     0
 42
0.0000000002718247
 43
0.0000000001
 40
0.0
 40
0.0
 40
0.0
 40
0.0
 40
0.0625
 40
0.0625
 40
0.125
 40
0.125
 40
0.1875000000000001
 40
0.1875000000000001
 40
0.2007597358443209
 40
0.2007597358443209
 40
0.2007597358443209
 40
0.2007597358443209
 10
56.27500000000001
 20
881.3377419629234
 30
0.0
 10
57.43028226667219
 20
881.8815455717069
 30
0.0
 10
58.44777845956284
 20
882.4711717220366
 30
0.0
 10
60.22685435106062
 20
883.5773398771096
 30
0.0
 10
60.95567363241226
 20
884.0757375111234
 30
0.0
 10
62.05576461840756
 20
884.8450148641043
 30
0.0
 10
62.4109257765243
 20
885.1054693935037
 30
0.0
 10
62.53885639944597
 20
885.1986972392727
 30
0.0
 10
62.54988046919075
 20
885.2066421218029
 30
0.0
 10
62.54976915715545
 20
885.206463010984
 30
0.0
  0
SPLINE
  5
8B
330
5E
100
AcDbEntity
  8
$DDT_AUDIT_GENERATED_(85)
  6
Continuous
 62
     7
100
AcDbSpline
210
0.0
220
0.0
230
1.0
 70
     8
 71
     3
 72
    14
 73
    10
 74
     0
 42
0.0000000002715728
 43
0.0000000001
 40
0.799427041715852
 40
0.799427041715852
 40
0.799427041715852
 40
0.799427041715852
 40
0.8125
 40
0.8125
 40
0.875
 40
0.875
 40
0.9375
 40
0.9375
 40
1.0
 40
1.0
 40
1.0
 40
1.0
 10
37.45076734418991
 20
885.2060791200785
 30
0.0
 10
37.45038501794602
 20
885.2064529679295
 30
0.0
 10
37.46072164893057
 20
885.1990056605677
 30
0.0
 10
37.58367117744042
 20
885.1094025412256
 30
0.0
 10
37.93521898720606
 20
884.8514924093294
 30
0.0
 10
39.03327846559112
 20
884.0832937559337
 30
0.0
 10
39.77720041276941
 20
883.574740734389
 30
0.0
 10
41.55247573341234
 20
882.4710918933432
 30
0.0
 10
42.57454266126774
 20
881.8792744269819
 30
0.0
 10
43.72500000000002
 20
881.3377419629234
 30
0.0
  0
LINE
  5
8C
330
5E
100
AcDbEntity
  8
$DDT_AUDIT_GENERATED_(85)
  6
Continuous
 62
     7
100
AcDbLine
 10
43.725
 20
854.6759246955
 30
0.0
 11
43.725
 21
854.8889826459
 31
0.0
  0
LINE
  5
8D
330
5E
100
AcDbEntity
  8
$DDT_AUDIT_GENERATED_(85)
  6
Continuous
 62
     7
100
AcDbLine
 10
43.725
 20
881.1137403119
 30
0.0
 11
43.725
 21
881.3377419629
 31
0.0
  0
ELLIPSE
  5
8E
330
5E
100
AcDbEntity
  8
$DDT_AUDIT_GENERATED_(85)
  6
Continuous
 62
     7
100
AcDbEllipse
 10
50.0000000015
 20
868.0068333263
 30
0.0
 11
0.0
 21
14.73393192932867
 31
0.0
210
0.0
220
0.0
230
1.0
 40
1.0
 41
0.4399427576105319
 42
0.4518214601030923
  0
ELLIPSE
  5
8F
330
5E
100
AcDbEntity
  8
$DDT_AUDIT_GENERATED_(85)
  6
Continuous
 62
     7
100
AcDbEllipse
 10
49.9999999996
 20
868.0068333284
 30
0.0
 11
0.0
 21
14.64542282798203
 31
0.0
210
0.0
220
0.0
230
1.0
 40
1.0
 41
-0.4505690808539036
 42
-0.4399427576053048
  0
LINE
  5
90
330
5E
100
AcDbEntity
  8
$DDT_AUDIT_GENERATED_(85)
  6
Continuous
 62
     7
100
AcDbLine
 10
56.275
 20
881.3377419629
 30
0.0
 11
56.275
 21
881.1362368256
 31
0.0
  0
LINE
  5
91
330
5E
100
AcDbEntity
  8
$DDT_AUDIT_GENERATED_(85)
  6
Continuous
 62
     7
100
AcDbLine
 10
56.275
 20
854.8873547081
 30
0.0
 11
56.275
 21
854.6759246955
 31
0.0
  0
LINE
  5
92
330
5E
100
AcDbEntity
  8
$DDT_AUDIT_GENERATED_(85)
  6
Continuous
 62
     7
100
AcDbLine
 10
37.4801083576
 20
885.2068333292
 30
0.0
 11
37.2089821758
 21
885.2068333292
 31
0.0
  0
LINE
  5
93
330
5E
100
AcDbEntity
  8
$DDT_AUDIT_GENERATED_(85)
  6
Continuous
 62
     7
100
AcDbLine
 10
62.7908932661
 20
885.2068333292
 30
0.0
 11
62.5198916424
 21
885.2068333292
 31
0.0
  0
LINE
  5
94
330
5E
100
AcDbEntity
  8
$DDT_AUDIT_GENERATED_(85)
  6
Continuous
 62
     7
100
AcDbLine
 10
62.5198916424
 20
850.8068333292
 30
0.0
 11
62.7911436738
 21
850.8068333292
 31
0.0
  0
LINE
  5
95
330
5E
100
AcDbEntity
  8
$DDT_AUDIT_GENERATED_(85)
  6
Continuous
 62
     7
100
AcDbLine
 10
37.2093634489
 20
850.8068333292
 30
0.0
 11
37.4801083576
 21
850.8068333292
 31
0.0
  0
LINE
  5
97
330
5E
100
AcDbEntity
  8
$DDT_AUDIT_GENERATED_(96)
  6
Continuous
 62
     7
100
AcDbLine
 10
66.65
 20
850.0068333292
 30
0.0
 11
66.65
 21
886.0068333292
 31
0.0
  0
LINE
  5
98
330
5E
100
AcDbEntity
  8
$DDT_AUDIT_GENERATED_(96)
  6
Continuous
 62
     7
100
AcDbLine
 10
114.5422988048
 20
885.0068333292
 30
0.0
 11
88.4
 21
885.0068333292
 31
0.0
  0
LINE
  5
99
330
5E
100
AcDbEntity
  8
$DDT_AUDIT_GENERATED_(96)
  6
Continuous
 62
     7
100
AcDbLine
 10
88.4
 20
851.0068333292
 30
0.0
 11
114.7952631636
 21
851.0068333292
 31
0.0
  0
LINE
  5
9A
330
5E
100
AcDbEntity
  8
$DDT_AUDIT_GENERATED_(96)
  6
Continuous
 62
     7
100
AcDbLine
 10
74.1671474011
 20
885.5243508467
 30
0.0
 11
74.1671474011
 21
850.4893158117
 31
0.0
  0
SPLINE
  5
9B
330
5E
100
AcDbEntity
  8
$DDT_AUDIT_GENERATED_(96)
  6
Continuous
 62
     7
100
AcDbSpline
210
0.0
220
0.0
230
1.0
 70
     8
 71
     3
 72
    28
 73
    24
 74
     0
 42
0.0000000001902165
 43
0.0000000001
 40
0.5010928640172564
 40
0.5010928640172564
 40
0.5010928640172564
 40
0.5010928640172564
 40
0.5625
 40
0.5625
 40
0.6249999999999999
 40
0.6249999999999999
 40
0.6874999999999999
 40
0.6874999999999999
 40
0.7187499999999999
 40
0.7187499999999999
 40
0.7499999999999999
 40
0.7499999999999999
 40
0.78125
 40
0.78125
 40
0.8125
 40
0.8125
 40
0.875
 40
0.875
 40
0.9374999999999999
 40
0.9374999999999999
 40
0.96875
 40
0.96875
 40
1.0
 40
1.0
 40
1.0
 40
1.0
 10
86.90004799698221
 20
856.5068867193072
 30
0.0
 10
86.9039970662345
 20
856.5115023858298
 30
0.0
 10
87.18269645893332
 20
856.8449988164356
 30
0.0
 10
88.13276513694254
 20
858.043171568079
 30
0.0
 10
88.79371695608782
 20
858.895808848244
 30
0.0
 10
90.19124758007074
 20
860.9280482417079
 30
0.0
 10
90.94392119984369
 20
862.1207003221481
 30
0.0
 10
91.86011450125147
 20
864.1456831276588
 30
0.0
 10
92.13304032163086
 20
864.8754327648471
 30
0.0
 10
92.5166286392103
 20
866.3900030042988
 30
0.0
 10
92.62833907982454
 20
867.1953061921545
 30
0.0
 10
92.63097669560304
 20
868.7881701264362
 30
0.0
 10
92.52319824107053
 20
869.5876650284044
 30
0.0
 10
92.14280720322319
 20
871.1093090478074
 30
0.0
 10
91.87768939299717
 20
871.8245846766619
 30
0.0
 10
90.9569328718291
 20
873.8729700386909
 30
0.0
 10
90.21790849888805
 20
875.0446043108242
 30
0.0
 10
88.80689488865285
 20
877.1008772877673
 30
0.0
 10
88.15828239944709
 20
877.9376230033722
 30
0.0
 10
87.43082096058716
 20
878.8560721869069
 30
0.0
 10
87.23801404257539
 20
879.093637609873
 30
0.0
 10
86.97145868726275
 20
879.4204242606891
 30
0.0
 10
86.9
 20
879.5068333292254
 30
0.0
 10
86.9
 20
879.5068333292254
 30
0.0
  0
LINE
  5
9C
330
5E
100
AcDbEntity
  8
$DDT_AUDIT_GENERATED_(96)
  6
Continuous
 62
     7
100
AcDbLine
 10
75.3181426446
 20
856.5068333292
 30
0.0
 11
86.908721041
 21
856.5068333292
 31
0.0
  0
LINE
  5
9D
330
5E
100
AcDbEntity
  8
$DDT_AUDIT_GENERATED_(96)
  6
Continuous
 62
     7
100
AcDbLine
 10
86.9
 20
879.5068333292
 30
0.0
 11
75.3181426446
 21
879.5068333292
 31
0.0
  0
ARC
  5
9E
330
5E
100
AcDbEntity
  8
$DDT_AUDIT_GENERATED_(96)
  6
Continuous
 62
     7
100
AcDbCircle
 10
-425.5258949559
 20
868.0068333292
 30
0.0
 40
500.0
100
AcDbArc
 50
357.9922294736
 51
358.5703162254
  0
ARC
  5
9F
330
5E
100
AcDbEntity
  8
$DDT_AUDIT_GENERATED_(96)
  6
Continuous
 62
     7
100
AcDbCircle
 10
-425.5258949559
 20
868.0068333292
 30
0.0
 40
499.9999999999999
100
AcDbArc
 50
1.4296837746
 51
2.0077705264
  0
LINE
  5
A0
330
5E
100
AcDbEntity
  8
$DDT_AUDIT_GENERATED_(96)
  6
Continuous
 62
     7
100
AcDbLine
 10
66.65
 20
850.0068333292
 30
0.0
 11
73.6674543588
 21
850.0068333292
 31
0.0
  0
LINE
  5
A1
330
5E
100
AcDbEntity
  8
$DDT_AUDIT_GENERATED_(96)
  6
Continuous
 62
     7
100
AcDbLine
 10
73.6674543588
 20
886.0068333292
 30
0.0
 11
66.65
 21
886.0068333292
 31
0.0
  0
LINE
  5
A2
330
5E
100
AcDbEntity
  8
$DDT_AUDIT_GENERATED_(96)
  6
Continuous
 62
     7
100
AcDbLine
 10
87.9
 20
855.5103721446
 30
0.0
 11
87.9
 21
851.5068333292
 31
0.0
  0
LINE
  5
A3
330
5E
100
AcDbEntity
  8
$DDT_AUDIT_GENERATED_(96)
  6
Continuous
 62
     7
100
AcDbLine
 10
87.9
 20
884.5068333292
 30
0.0
 11
87.9
 21
880.5068333292
 31
0.0
  0
ARC
  5
A4
330
5E
100
AcDbEntity
  8
$DDT_AUDIT_GENERATED_(96)
  6
Continuous
 62
     7
100
AcDbCircle
 10
88.4
 20
851.5068333292
 30
0.0
 40
0.5000000000000004
100
AcDbArc
 50
180.0
 51
270.0
  0
ARC
  5
A5
330
5E
100
AcDbEntity
  8
$DDT_AUDIT_GENERATED_(96)
  6
Continuous
 62
     7
100
AcDbCircle
 10
114.7952631636
 20
851.5068333292
 30
0.0
 40
0.5000000000000004
100
AcDbArc
 50
270.0
 51
0.4280045362
  0
LINE
  5
A6
330
5E
100
AcDbEntity
  8
$DDT_AUDIT_GENERATED_(96)
  6
Continuous
 62
     7
100
AcDbLine
 10
115.2952491943
 20
851.5105668234
 30
0.0
 11
115.0422832844
 21
884.5107635294
 31
0.0
  0
ARC
  5
A7
330
5E
100
AcDbEntity
  8
$DDT_AUDIT_GENERATED_(96)
  6
Continuous
 62
     7
100
AcDbCircle
 10
114.5422988048
 20
884.5068333292
 30
0.0
 40
0.500000000000003
100
AcDbArc
 50
0.4506438542
 51
90.0
  0
ARC
  5
A8
330
5E
100
AcDbEntity
  8
$DDT_AUDIT_GENERATED_(96)
  6
Continuous
 62
     7
100
AcDbCircle
 10
88.4
 20
884.5068333292
 30
0.0
 40
0.5000000000000004
100
AcDbArc
 50
90.0
 51
180.0
  0
ARC
  5
A9
330
5E
100
AcDbEntity
  8
$DDT_AUDIT_GENERATED_(96)
  6
Continuous
 62
     7
100
AcDbCircle
 10
73.6674543588
 20
850.5068333292
 30
0.0
 40
0.5000000000000004
100
AcDbArc
 50
270.0
 51
357.9922294737
  0
ARC
  5
AA
330
5E
100
AcDbEntity
  8
$DDT_AUDIT_GENERATED_(96)
  6
Continuous
 62
     7
100
AcDbCircle
 10
73.6674543588
 20
885.5068333292
 30
0.0
 40
0.5000000000000286
100
AcDbArc
 50
2.0077705263
 51
90.0
  0
SPLINE
  5
AB
330
5E
100
AcDbEntity
  8
$DDT_AUDIT_GENERATED_(96)
  6
Continuous
 62
     7
100
AcDbSpline
210
0.0
220
0.0
230
1.0
 70
     8
 71
     3
 72
    13
 73
     9
 74
     0
 42
0.0000000063359383
 43
0.0000000001
 40
0.0
 40
0.0
 40
0.0
 40
0.0
 40
0.075203939577617
 40
0.2719750249822965
 40
0.4808038463538826
 40
0.6875027398737269
 40
0.8582533418455088
 40
1.0
 40
1.0
 40
1.0
 40
1.0
 10
86.91153787657466
 20
856.4933211909195
 30
0.0
 10
86.95419033312741
 20
856.4975675023678
 30
0.0
 10
87.086980952268
 20
856.5096014668403
 30
0.0
 10
87.33672981795775
 20
856.4227712662995
 30
0.0
 10
87.60181066592493
 20
856.2464755757342
 30
0.0
 10
87.78793830670077
 20
856.0002173408632
 30
0.0
 10
87.88588728172492
 20
855.739849950597
 30
0.0
 10
87.89618814436689
 20
855.5885127267678
 30
0.0
 10
87.90025347821687
 20
855.5078341636498
 30
0.0
  0
ARC
  5
AC
330
5E
100
AcDbEntity
  8
$DDT_AUDIT_GENERATED_(96)
  6
Continuous
 62
     7
100
AcDbCircle
 10
86.9096322616
 20
880.4989823502
 30
0.0
 40
0.9882075575957222
100
AcDbArc
 50
269.0201663318
 51
0.2792023649
  0
ARC
  5
AD
330
5E
100
AcDbEntity
  8
$DDT_AUDIT_GENERATED_(96)
  6
Continuous
 62
     7
100
AcDbCircle
 10
75.3181426446
 20
855.5068333292
 30
0.0
 40
1.000000000000043
100
AcDbArc
 50
90.0
 51
178.5703162255
  0
ARC
  5
AE
330
5E
100
AcDbEntity
  8
$DDT_AUDIT_GENERATED_(96)
  6
Continuous
 62
     7
100
AcDbCircle
 10
75.3181426446
 20
880.5068333292
 30
0.0
 40
1.000000000000001
100
AcDbArc
 50
181.4296837745
 51
270.0
  0
ARC
  5
B0
330
5E
100
AcDbEntity
  8
$DDT_AUDIT_GENERATED_(AF)
  6
Continuous
 62
     7
100
AcDbCircle
 10
12.5500000077
 20
892.4225225424
 30
0.0
 40
11.15735549865313
100
AcDbArc
 50
248.9914126037
 51
291.0085887646
  0
LINE
  5
B1
330
5E
100
AcDbEntity
  8
$DDT_AUDIT_GENERATED_(AF)
  6
Continuous
 62
     7
100
AcDbLine
 10
32.75
 20
885.5068333292
 30
0.0
 11
32.75
 21
850.5068333292
 31
0.0
  0
LINE
  5
B2
330
5E
100
AcDbEntity
  8
$DDT_AUDIT_GENERATED_(AF)
  6
Continuous
 62
     7
100
AcDbLine
 10
25.25
 20
850.5068333292
 30
0.0
 11
25.25
 21
885.5068333292
 31
0.0
  0
LINE
  5
B3
330
5E
100
AcDbEntity
  8
$DDT_AUDIT_GENERATED_(AF)
  6
Continuous
 62
     7
100
AcDbLine
 10
9.05
 20
890.0068333292
 30
0.0
 11
16.05
 21
890.0068333292
 31
0.0
  0
LINE
  5
B4
330
5E
100
AcDbEntity
  8
$DDT_AUDIT_GENERATED_(AF)
  6
Continuous
 62
     7
100
AcDbLine
 10
6.35
 20
855.0068333292
 30
0.0
 11
6.35
 21
881.0068333292
 31
0.0
  0
LINE
  5
B5
330
5E
100
AcDbEntity
  8
$DDT_AUDIT_GENERATED_(AF)
  6
Continuous
 62
     7
100
AcDbLine
 10
6.85
 20
854.5068333292
 30
0.0
 11
24.75
 21
854.5068333292
 31
0.0
  0
LINE
  5
B6
330
5E
100
AcDbEntity
  8
$DDT_AUDIT_GENERATED_(AF)
  6
Continuous
 62
     7
100
AcDbLine
 10
8.1081413288
 20
881.5068333292
 30
0.0
 11
6.85
 21
881.5068333292
 31
0.0
  0
LINE
  5
B7
330
5E
100
AcDbEntity
  8
$DDT_AUDIT_GENERATED_(AF)
  6
Continuous
 62
     7
100
AcDbLine
 10
24.75
 20
881.5068333292
 30
0.0
 11
17.05
 21
881.5068333292
 31
0.0
  0
LINE
  5
B8
330
5E
100
AcDbEntity
  8
$DDT_AUDIT_GENERATED_(AF)
  6
Continuous
 62
     7
100
AcDbLine
 10
8.55
 20
889.5068333292
 30
0.0
 11
8.55
 21
881.9873764387
 31
0.0
  0
LINE
  5
B9
330
5E
100
AcDbEntity
  8
$DDT_AUDIT_GENERATED_(AF)
  6
Continuous
 62
     7
100
AcDbLine
 10
16.55
 20
882.0068333292
 30
0.0
 11
16.55
 21
889.5068333292
 31
0.0
  0
LINE
  5
BA
330
5E
100
AcDbEntity
  8
$DDT_AUDIT_GENERATED_(AF)
  6
Continuous
 62
     7
100
AcDbLine
 10
25.75
 20
850.0068333292
 30
0.0
 11
32.25
 21
850.0068333292
 31
0.0
  0
LINE
  5
BB
330
5E
100
AcDbEntity
  8
$DDT_AUDIT_GENERATED_(AF)
  6
Continuous
 62
     7
100
AcDbLine
 10
32.25
 20
886.0068333292
 30
0.0
 11
25.75
 21
886.0068333292
 31
0.0
  0
ARC
  5
BC
330
5E
100
AcDbEntity
  8
$DDT_AUDIT_GENERATED_(AF)
  6
Continuous
 62
     7
100
AcDbCircle
 10
8.05
 20
882.0068333292
 30
0.0
 40
0.5000000000000122
100
AcDbArc
 50
276.0911310234
 51
358.6784088082
  0
SPLINE
  5
BD
330
5E
100
AcDbEntity
  8
$DDT_AUDIT_GENERATED_(AF)
  6
Continuous
 62
     7
100
AcDbSpline
210
0.0
220
0.0
230
1.0
 70
     8
 71
     3
 72
    14
 73
    10
 74
     0
 42
0.0000000116538707
 43
0.0000000001
 40
0.0
 40
0.0
 40
0.0
 40
0.0
 40
0.0020476060086326
 40
0.1051706060632179
 40
0.2671865753408064
 40
0.4630680160339981
 40
0.6688305586511507
 40
0.8831176628028835
 40
1.0
 40
1.0
 40
1.0
 40
1.0
 10
17.1047654850098
 20
881.5099397899695
 30
0.0
 10
17.10414116823078
 20
881.5098340915886
 30
0.0
 10
17.07646760749711
 20
881.5051584571966
 30
0.0
 10
16.9980432037069
 20
881.5061633533192
 30
0.0
 10
16.87126109314538
 20
881.5313424904355
 30
0.0
 10
16.72903084736922
 20
881.6106896021598
 30
0.0
 10
16.61439858276273
 20
881.742094225361
 30
0.0
 10
16.55238748460892
 20
881.8898698642558
 30
0.0
 10
16.55544636342428
 20
881.9778492763215
 30
0.0
 10
16.5572685754366
 20
882.0139631469278
 30
0.0
  0
ARC
  5
BE
330
5E
100
AcDbEntity
  8
$DDT_AUDIT_GENERATED_(AF)
  6
Continuous
 62
     7
100
AcDbCircle
 10
32.25
 20
885.5068333292
 30
0.0
 40
0.5000000000000004
100
AcDbArc
 50
0.0
 51
90.0
  0
ARC
  5
BF
330
5E
100
AcDbEntity
  8
$DDT_AUDIT_GENERATED_(AF)
  6
Continuous
 62
     7
100
AcDbCircle
 10
32.25
 20
850.5068333292
 30
0.0
 40
0.5000000000000004
100
AcDbArc
 50
270.0
 51
0.0
  0
ARC
  5
C0
330
5E
100
AcDbEntity
  8
$DDT_AUDIT_GENERATED_(AF)
  6
Continuous
 62
     7
100
AcDbCircle
 10
25.75
 20
850.5068333292
 30
0.0
 40
0.5000000000000004
100
AcDbArc
 50
180.0
 51
270.0
  0
ARC
  5
C1
330
5E
100
AcDbEntity
  8
$DDT_AUDIT_GENERATED_(AF)
  6
Continuous
 62
     7
100
AcDbCircle
 10
25.75
 20
885.5068333292
 30
0.0
 40
0.5000000000000004
100
AcDbArc
 50
90.0
 51
180.0
  0
ARC
  5
C2
330
5E
100
AcDbEntity
  8
$DDT_AUDIT_GENERATED_(AF)
  6
Continuous
 62
     7
100
AcDbCircle
 10
24.75
 20
854.0068333292
 30
0.0
 40
0.5000000000000004
100
AcDbArc
 50
0.0
 51
90.0
  0
ARC
  5
C3
330
5E
100
AcDbEntity
  8
$DDT_AUDIT_GENERATED_(AF)
  6
Continuous
 62
     7
100
AcDbCircle
 10
24.75
 20
882.0068333292
 30
0.0
 40
0.5000000000000004
100
AcDbArc
 50
270.0
 51
0.0
  0
ARC
  5
C4
330
5E
100
AcDbEntity
  8
$DDT_AUDIT_GENERATED_(AF)
  6
Continuous
 62
     7
100
AcDbCircle
 10
16.05
 20
889.5068333292
 30
0.0
 40
0.5000000000000004
100
AcDbArc
 50
0.0
 51
90.0
  0
ARC
  5
C5
330
5E
100
AcDbEntity
  8
$DDT_AUDIT_GENERATED_(AF)
  6
Continuous
 62
     7
100
AcDbCircle
 10
9.05
 20
889.5068333292
 30
0.0
 40
0.5000000000000004
100
AcDbArc
 50
90.0
 51
180.0
  0
ARC
  5
C6
330
5E
100
AcDbEntity
  8
$DDT_AUDIT_GENERATED_(AF)
  6
Continuous
 62
     7
100
AcDbCircle
 10
6.85
 20
881.0068333292
 30
0.0
 40
0.5000000000000004
100
AcDbArc
 50
90.0
 51
180.0
  0
ARC
  5
C7
330
5E
100
AcDbEntity
  8
$DDT_AUDIT_GENERATED_(AF)
  6
Continuous
 62
     7
100
AcDbCircle
 10
6.85
 20
855.0068333292
 30
0.0
 40
0.5000000000000004
100
AcDbArc
 50
180.0
 51
270.0
  0
LINE
  5
C9
330
5E
100
AcDbEntity
  8
$DDT_AUDIT_GENERATED_(C8)
  6
Continuous
 62
     7
100
AcDbLine
 10
37.8133224217
 20
365.5886476051
 30
0.0
 11
62.1866775783
 21
365.5886476051
 31
0.0
  0
ARC
  5
CA
330
5E
100
AcDbEntity
  8
$DDT_AUDIT_GENERATED_(C8)
  6
Continuous
 62
     7
100
AcDbCircle
 10
50.0
 20
386.8480668365
 30
0.0
 40
25.00000000000001
100
AcDbArc
 50
242.2168909071
 51
297.7831090929
  0
LINE
  5
CB
330
5E
100
AcDbEntity
  8
$DDT_AUDIT_GENERATED_(C8)
  6
Continuous
 62
     7
100
AcDbLine
 10
37.7634356945
 20
367.4937448551
 30
0.0
 11
37.8133224217
 21
365.5886476051
 31
0.0
  0
LINE
  5
CC
330
5E
100
AcDbEntity
  8
$DDT_AUDIT_GENERATED_(C8)
  6
Continuous
 62
     7
100
AcDbLine
 10
62.1866775783
 20
365.5886476051
 30
0.0
 11
62.2365643055
 21
367.4937448551
 31
0.0
  0
ARC
  5
CD
330
5E
100
AcDbEntity
  8
$DDT_AUDIT_GENERATED_(C8)
  6
Continuous
 62
     7
100
AcDbCircle
 10
38.8129797467
 20
365.6148245534
 30
0.0
 40
1.0
100
AcDbArc
 50
181.5
 51
242.2168909071
  0
ARC
  5
CE
330
5E
100
AcDbEntity
  8
$DDT_AUDIT_GENERATED_(C8)
  6
Continuous
 62
     7
100
AcDbCircle
 10
61.1870202533
 20
365.6148245534
 30
0.0
 40
1.000000000000127
100
AcDbArc
 50
297.7831090929
 51
358.5
  0
ARC
  5
CF
330
5E
100
AcDbEntity
  8
$DDT_AUDIT_GENERATED_(C8)
  6
Continuous
 62
     7
100
AcDbCircle
 10
38.263264357
 20
367.5068333292
 30
0.0
 40
0.4999999999999449
100
AcDbArc
 50
90.0
 51
181.5
  0
ARC
  5
D0
330
5E
100
AcDbEntity
  8
$DDT_AUDIT_GENERATED_(C8)
  6
Continuous
 62
     7
100
AcDbCircle
 10
61.736735643
 20
367.5068333292
 30
0.0
 40
0.5000000000000013
100
AcDbArc
 50
358.5
 51
90.0
  0
LINE
  5
D1
330
5E
100
AcDbEntity
  8
$DDT_AUDIT_GENERATED_(60)
  6
Continuous
 62
     7
100
AcDbLine
 10
65.0
 20
396.4818333292
 30
0.0
 11
35.0
 21
396.4818333292
 31
0.0
  0
LINE
  5
D2
330
5E
100
AcDbEntity
  8
$DDT_AUDIT_GENERATED_(60)
  6
Continuous
 62
     7
100
AcDbLine
 10
35.0
 20
444.4818333292
 30
0.0
 11
65.0
 21
444.4818333292
 31
0.0
  0
LINE
  5
D3
330
5E
100
AcDbEntity
  8
$DDT_AUDIT_GENERATED_(60)
  6
Continuous
 62
     7
100
AcDbLine
 10
65.5
 20
396.9818333292
 30
0.0
 11
65.5
 21
443.9818333292
 31
0.0
  0
LINE
  5
D4
330
5E
100
AcDbEntity
  8
$DDT_AUDIT_GENERATED_(60)
  6
Continuous
 62
     7
100
AcDbLine
 10
34.5
 20
443.9818333292
 30
0.0
 11
34.5
 21
396.9818333292
 31
0.0
  0
ARC
  5
D5
330
5E
100
AcDbEntity
  8
$DDT_AUDIT_GENERATED_(60)
  6
Continuous
 62
     7
100
AcDbCircle
 10
65.0
 20
396.9818333292
 30
0.0
 40
0.500000000000056
100
AcDbArc
 50
270.0
 51
0.0
  0
ARC
  5
D6
330
5E
100
AcDbEntity
  8
$DDT_AUDIT_GENERATED_(60)
  6
Continuous
 62
     7
100
AcDbCircle
 10
35.0
 20
396.9818333292
 30
0.0
 40
0.5000000000000004
100
AcDbArc
 50
180.0
 51
270.0
  0
ARC
  5
D7
330
5E
100
AcDbEntity
  8
$DDT_AUDIT_GENERATED_(60)
  6
Continuous
 62
     7
100
AcDbCircle
 10
65.0
 20
443.9818333292
 30
0.0
 40
0.5000000000000004
100
AcDbArc
 50
0.0
 51
90.0
  0
ARC
  5
D8
330
5E
100
AcDbEntity
  8
$DDT_AUDIT_GENERATED_(60)
  6
Continuous
 62
     7
100
AcDbCircle
 10
35.0
 20
443.9818333292
 30
0.0
 40
0.500000000000056
100
AcDbArc
 50
90.0
 51
180.0
  0
LINE
  5
D9
330
5E
100
AcDbEntity
  8
$DDT_AUDIT_GENERATED_(C8)
  6
Continuous
 62
     7
100
AcDbLine
 10
38.3468539028
 20
1371.2835605335
 30
0.0
 11
61.6531460972
 21
1371.2835605335
 31
0.0
  0
ARC
  5
DA
330
5E
100
AcDbEntity
  8
$DDT_AUDIT_GENERATED_(C8)
  6
Continuous
 62
     7
100
AcDbCircle
 10
50.0
 20
1349.1655998219
 30
0.0
 40
24.99999999999996
100
AcDbArc
 50
62.2168909071
 51
117.7831090929
  0
LINE
  5
DB
330
5E
100
AcDbEntity
  8
$DDT_AUDIT_GENERATED_(C8)
  6
Continuous
 62
     7
100
AcDbLine
 10
62.2365643055
 20
1368.5199218034
 30
0.0
 11
62.1866775783
 21
1370.4250190533
 31
0.0
  0
LINE
  5
DC
330
5E
100
AcDbEntity
  8
$DDT_AUDIT_GENERATED_(C8)
  6
Continuous
 62
     7
100
AcDbLine
 10
37.8133224217
 20
1370.4250190533
 30
0.0
 11
37.7634356945
 21
1368.5199218034
 31
0.0
  0
ARC
  5
DD
330
5E
100
AcDbEntity
  8
$DDT_AUDIT_GENERATED_(C8)
  6
Continuous
 62
     7
100
AcDbCircle
 10
61.1870202533
 20
1370.398842105
 30
0.0
 40
1.0
100
AcDbArc
 50
1.5
 51
62.2168909071
  0
ARC
  5
DE
330
5E
100
AcDbEntity
  8
$DDT_AUDIT_GENERATED_(C8)
  6
Continuous
 62
     7
100
AcDbCircle
 10
38.8129797467
 20
1370.398842105
 30
0.0
 40
1.000000000000078
100
AcDbArc
 50
117.7831090929
 51
178.5
  0
ARC
  5
DF
330
5E
100
AcDbEntity
  8
$DDT_AUDIT_GENERATED_(C8)
  6
Continuous
 62
     7
100
AcDbCircle
 10
61.736735643
 20
1368.5068333292
 30
0.0
 40
0.5000000000000004
100
AcDbArc
 50
270.0
 51
1.5
  0
ARC
  5
E0
330
5E
100
AcDbEntity
  8
$DDT_AUDIT_GENERATED_(C8)
  6
Continuous
 62
     7
100
AcDbCircle
 10
38.263264357
 20
1368.5068333292
 30
0.0
 40
0.4999999999999999
100
AcDbArc
 50
178.5
 51
270.0
  0
ELLIPSE
  5
E2
330
5E
100
AcDbEntity
  8
$DDT_AUDIT_GENERATED_(E1)
  6
Continuous
 62
     7
100
AcDbEllipse
 10
102.5930904264
 20
1062.8524961468
 30
0.0
 11
63.16812106666832
 21
-1.313831733173676
 31
0.0
210
0.0
220
0.0
230
0.9999999999999999
 40
0.7659277708
 41
2.969838536056094
 42
3.120796683931084
  0
ELLIPSE
  5
E3
330
5E
100
AcDbEntity
  8
$DDT_AUDIT_GENERATED_(E1)
  6
Continuous
 62
     7
100
AcDbEllipse
 10
102.5930904264
 20
1062.8524961468
 30
0.0
 11
63.16812106666832
 21
-1.313831733173676
 31
0.0
210
0.0
220
0.0
230
0.9999999999999999
 40
0.7659277708
 41
0.1773809082147844
 42
2.969838536056094
  0
ELLIPSE
  5
E4
330
5E
100
AcDbEntity
  8
$DDT_AUDIT_GENERATED_(E1)
  6
Continuous
 62
     7
100
AcDbEllipse
 10
102.5930904264
 20
1062.8524961468
 30
0.0
 11
63.16812106666832
 21
-1.313831733173676
 31
0.0
210
0.0
220
0.0
230
0.9999999999999999
 40
0.7659277708
 41
0.0207959696587017
 42
0.1773809082147844
  0
SPLINE
  5
E5
330
5E
100
AcDbEntity
  8
$DDT_AUDIT_GENERATED_(E1)
  6
Continuous
 62
     7
100
AcDbSpline
210
0.0
220
0.0
230
1.0
 70
     8
 71
     3
 72
     8
 73
     4
 74
     0
 42
0.0000000324006244
 43
0.0000000001
 40
0.0
 40
0.0
 40
0.0
 40
0.0
 40
0.4554056029969806
 40
0.4554056029969806
 40
0.4554056029969806
 40
0.4554056029969806
 10
82.69192474128911
 20
1009.011935963949
 30
0.0
 10
82.70108208403697
 20
1008.937365939242
 30
0.0
 10
82.71616574968824
 20
1008.894740096668
 30
0.0
 10
82.73539528081668
 20
1008.888526626522
 30
0.0
  0
LINE
  5
E6
330
5E
100
AcDbEntity
  8
$DDT_AUDIT_GENERATED_(E1)
  6
Continuous
 62
     7
100
AcDbLine
 10
123.4747467882
 20
1009.0119359009
 30
0.0
 11
123.4659122409
 21
1008.8815250433
 31
0.0
  0
LINE
  5
E7
330
5E
100
AcDbEntity
  8
$DDT_AUDIT_GENERATED_(E1)
  6
Continuous
 62
     7
100
AcDbLine
 10
82.691924749
 20
1009.0119359009
 30
0.0
 11
82.7079691441
 21
1008.8815250433
 31
0.0
  0
ELLIPSE
  5
E8
330
5E
100
AcDbEntity
  8
$DDT_AUDIT_GENERATED_(E1)
  6
Continuous
 62
     7
100
AcDbEllipse
 10
102.4280975378
 20
1054.9197521736
 30
0.0
 11
63.38349021602011
 21
-1.318311189234478
 31
0.0
210
0.0
220
0.0
230
0.9999999999999999
 40
0.7659277708
 41
-0.1903056444837659
 42
0.2472087349635028
  0
ELLIPSE
  5
E9
330
5E
100
AcDbEntity
  8
$DDT_AUDIT_GENERATED_(E1)
  6
Continuous
 62
     7
100
AcDbEllipse
 10
102.4280975378
 20
1054.9197521736
 30
0.0
 11
63.38349021602011
 21
-1.318311189234478
 31
0.0
210
0.0
220
0.0
230
0.9999999999999999
 40
0.7659277708
 41
0.2472087349635028
 42
2.903887458561358
  0
ELLIPSE
  5
EA
330
5E
100
AcDbEntity
  8
$DDT_AUDIT_GENERATED_(E1)
  6
Continuous
 62
     7
100
AcDbEllipse
 10
102.4280975378
 20
1054.9197521736
 30
0.0
 11
63.38349021602011
 21
-1.318311189234478
 31
0.0
210
0.0
220
0.0
230
0.9999999999999999
 40
0.7659277708
 41
2.903887458561358
 42
3.333810532414422
  0
SPLINE
  5
EB
330
5E
100
AcDbEntity
  8
$DDT_AUDIT_GENERATED_(E1)
  6
Continuous
 62
     7
100
AcDbSpline
210
0.0
220
0.0
230
1.0
 70
     8
 71
     3
 72
    10
 73
     6
 74
     0
 42
0.0000000303077146
 43
0.0000000001
 40
0.0
 40
0.0
 40
0.0
 40
0.0
 40
0.5
 40
0.5
 40
1.0
 40
1.0
 40
1.0
 40
1.0
 10
82.83570899411843
 20
1008.903759553757
 30
0.0
 10
82.8079634580829
 20
1008.80972935412
 30
0.0
 10
82.7808972990782
 20
1008.760593305013
 30
0.0
 10
82.7356811029943
 20
1008.755257904105
 30
0.0
 10
82.71816441589924
 20
1008.798814225577
 30
0.0
 10
82.70796943007583
 20
1008.881525022514
 30
0.0
  0
LINE
  5
EC
330
5E
100
AcDbEntity
  8
$DDT_AUDIT_GENERATED_(E1)
  6
Continuous
 62
     7
100
AcDbLine
 10
90.5921580423
 20
890.0068333292
 30
0.0
 11
116.2078419577
 21
890.0068333292
 31
0.0
  0
LINE
  5
ED
330
5E
100
AcDbEntity
  8
$DDT_AUDIT_GENERATED_(E1)
  6
Continuous
 62
     7
100
AcDbLine
 10
89.4
 20
902.0068333292
 30
0.0
 11
117.4
 21
902.0068333292
 31
0.0
  0
SPLINE
  5
EE
330
5E
100
AcDbEntity
  8
$DDT_AUDIT_GENERATED_(E1)
  6
Continuous
 62
     7
100
AcDbSpline
210
0.0
220
0.0
230
1.0
 70
     8
 71
     3
 72
    10
 73
     6
 74
     0
 42
0.0000000336443343
 43
0.0000000001
 40
0.0609983702392014
 40
0.0609983702392014
 40
0.0609983702392014
 40
0.0609983702392014
 40
0.5
 40
0.5
 40
1.0
 40
1.0
 40
1.0
 40
1.0
 10
123.3767579508681
 20
1008.87135278494
 30
0.0
 10
123.3970096319056
 20
1008.798432076403
 30
0.0
 10
123.4156962082985
 20
1008.760267854253
 30
0.0
 10
123.4481015287823
 20
1008.755257904105
 30
0.0
 10
123.4602941532686
 20
1008.798814225577
 30
0.0
 10
123.4659119570865
 20
1008.881525067374
 30
0.0
  0
SPLINE
  5
EF
330
5E
100
AcDbEntity
  8
$DDT_AUDIT_GENERATED_(E1)
  6
Continuous
 62
     7
100
AcDbSpline
210
0.0
220
0.0
230
1.0
 70
     8
 71
     3
 72
     8
 73
     4
 74
     0
 42
0.0000000340838406
 43
0.0000000001
 40
0.0
 40
0.0
 40
0.0
 40
0.0
 40
0.4622530045637798
 40
0.4622530045637798
 40
0.4622530045637798
 40
0.4622530045637798
 10
123.4747464811121
 20
1009.01193588158
 30
0.0
 10
123.4696322936989
 20
1008.936244720691
 30
0.0
 10
123.45902813396
 20
1008.89346548012
 30
0.0
 10
123.4442285838511
 20
1008.888271061879
 30
0.0
  0
LINE
  5
F0
330
5E
100
AcDbEntity
  8
$DDT_AUDIT_GENERATED_(E1)
  6
Continuous
 62
     7
100
AcDbLine
 10
118.1060767945
 20
1007.049995742
 30
0.0
 11
118.100619012
 21
1006.8725467447
 31
0.0
  0
ELLIPSE
  5
F1
330
5E
100
AcDbEntity
  8
$DDT_AUDIT_GENERATED_(E1)
  6
Continuous
 62
     7
100
AcDbEllipse
 10
102.4189822189
 20
1054.481493946
 30
0.0
 11
-62.07905581503385
 21
1.291180299777706
 31
0.0
210
0.0
220
0.0
230
0.9999999999999999
 40
0.7659277708
 41
0.0
 42
0.5970489625088505
  0
ELLIPSE
  5
F2
330
5E
100
AcDbEntity
  8
$DDT_AUDIT_GENERATED_(E1)
  6
Continuous
 62
     7
100
AcDbEllipse
 10
102.4189822189
 20
1054.481493946
 30
0.0
 11
-62.07905581503385
 21
1.291180299777706
 31
0.0
210
0.0
220
0.0
230
0.9999999999999999
 40
0.7659277708
 41
2.553677131575823
 42
6.283185307179584
  0
ELLIPSE
  5
F3
330
5E
100
AcDbEntity
  8
$DDT_AUDIT_GENERATED_(E1)
  6
Continuous
 62
     7
100
AcDbEllipse
 10
102.4164759837
 20
1054.3609958898
 30
0.0
 11
62.34380382222535
 21
-1.296686785126067
 31
0.0
210
0.0
220
0.0
230
0.9999999999999997
 40
0.7659277708
 41
-0.9053805961423045
 42
-0.7929993400796889
  0
ELLIPSE
  5
F4
330
5E
100
AcDbEntity
  8
$DDT_AUDIT_GENERATED_(E1)
  6
Continuous
 62
     7
100
AcDbEllipse
 10
102.4164759837
 20
1054.3609958898
 30
0.0
 11
62.34380382222535
 21
-1.296686785126067
 31
0.0
210
0.0
220
0.0
230
0.9999999999999997
 40
0.7659277708
 41
4.031210179519299
 42
4.051697236460432
  0
SPLINE
  5
F5
330
5E
100
AcDbEntity
  8
$DDT_AUDIT_GENERATED_(E1)
  6
Continuous
 62
     7
100
AcDbSpline
210
0.0
220
0.0
230
1.0
 70
     8
 71
     3
 72
    73
 73
    69
 74
     0
 42
0.0000000000627828
 43
0.0000000001
 40
0.0
 40
0.0
 40
0.0
 40
0.0
 40
0.0088062091771808
 40
0.0241657843157371
 40
0.0395305564566918
 40
0.0549012680784339
 40
0.0702784367787404
 40
0.085662356250853
 40
0.1010531095686516
 40
0.1164505921235035
 40
0.1318545411278628
 40
0.1472645685826686
 40
0.1626801949159115
 40
0.1781008810270514
 40
0.1935260571004503
 40
0.2089551471810583
 40
0.2243875890651433
 40
0.2398228495064711
 40
0.2552604350594346
 40
0.2706998990813894
 40
0.2861408455149375
 40
0.3015829300910388
 40
0.317025859559712
 40
0.3324693894880269
 40
0.3479133210818342
 40
0.363357497400714
 40
0.3788017732105266
 40
0.3942460665851067
 40
0.4096903302420323
 40
0.4251345409019247
 40
0.4405786955272036
 40
0.4560228077832357
 40
0.4714669047146178
 40
0.4869110236140314
 40
0.5023552090498533
 40
0.5177995100108854
 40
0.5332439650020133
 40
0.5486886193973353
 40
0.5641335203608459
 40
0.5795787092206105
 40
0.595024218508667
 40
0.6104700688424018
 40
0.6259162656066357
 40
0.6413627954051879
 40
0.6568096222637497
 40
0.6722566835840912
 40
0.6877038612680557
 40
0.7031510008683167
 40
0.7185979198009511
 40
0.7340443898952168
 40
0.7494901334679671
 40
0.7649348201310217
 40
0.7803780647452349
 40
0.7958194270291317
 40
0.8112584134140014
 40
0.826694481799149
 40
0.842127049881398
 40
0.8575555076879859
 40
0.8729792348058388
 40
0.8883976225489217
 40
0.9038101009231269
 40
0.9192161697354994
 40
0.934615432576576
 40
0.9500076317372441
 40
0.9653926814934567
 40
0.9807706967175323
 40
0.9961420135770027
 40
1.0
 40
1.0
 40
1.0
 40
1.0
 10
164.9246874311738
 20
1070.176778608188
 30
0.0
 10
164.8350119311817
 20
1070.61204787378
 30
0.0
 10
164.6236253869293
 20
1071.625501711113
 30
0.0
 10
164.1193626130423
 20
1073.427975847791
 30
0.0
 10
163.4499133460302
 20
1075.447780745949
 30
0.0
 10
162.6592073930937
 20
1077.460943313586
 30
0.0
 10
161.7595922158109
 20
1079.44274879111
 30
0.0
 10
160.7497481362556
 20
1081.395161815473
 30
0.0
 10
159.6322844763919
 20
1083.313045398095
 30
0.0
 10
158.4090218207263
 20
1085.193229630417
 30
0.0
 10
157.0822550682817
 20
1087.032092534688
 30
0.0
 10
155.6544109782021
 20
1088.826221318099
 30
0.0
 10
154.1281343855217
 20
1090.572247478439
 30
0.0
 10
152.5062579066998
 20
1092.266902826082
 30
0.0
 10
150.7918016063031
 20
1093.907015416513
 30
0.0
 10
148.9879636686966
 20
1095.489520583504
 30
0.0
 10
147.0981128155544
 20
1097.011466862965
 30
0.0
 10
145.1257798434804
 20
1098.47002225304
 30
0.0
 10
143.0746491846076
 20
1099.862479431861
 30
0.0
 10
140.9485503900526
 20
1101.186260414109
 30
0.0
 10
138.7514496527084
 20
1102.438920639696
 30
0.0
 10
136.4874413844097
 20
1103.61815261489
 30
0.0
 10
134.1607398568432
 20
1104.721789178901
 30
0.0
 10
131.7756708944909
 20
1105.747806463396
 30
0.0
 10
129.3366636003447
 20
1106.69432659393
 30
0.0
 10
126.8482434887504
 20
1107.559619682071
 30
0.0
 10
124.3150227185456
 20
1108.342106860631
 30
0.0
 10
121.7416914298846
 20
1109.040362424482
 30
0.0
 10
119.133007899496
 20
1109.653115897759
 30
0.0
 10
116.493791790289
 20
1110.179253126819
 30
0.0
 10
113.8289160511644
 20
1110.617817714479
 30
0.0
 10
111.1432983790036
 20
1110.968012363041
 30
0.0
 10
108.4418926134687
 20
1111.229200003427
 30
0.0
 10
105.7296800740256
 20
1111.400904701109
 30
0.0
 10
103.0116608517282
 20
1111.482812330881
 30
0.0
 10
100.2928457813479
 20
1111.474771016384
 30
0.0
 10
97.57824721458499
 20
1111.376791438762
 30
0.0
 10
94.87286991359132
 20
1111.189046810038
 30
0.0
 10
92.18170155181967
 20
1110.911872452142
 30
0.0
 10
89.50970444642344
 20
1110.545765191143
 30
0.0
 10
86.86180721066677
 20
1110.091382578752
 30
0.0
 10
84.24289619989294
 20
1109.549541879698
 30
0.0
 10
81.65780704469924
 20
1108.921218846038
 30
0.0
 10
79.11131628216577
 20
1108.207546291584
 30
0.0
 10
76.60813309242688
 20
1107.409812481234
 30
0.0
 10
74.152892446348
 20
1106.529459818172
 30
0.0
 10
71.75014695561876
 20
1105.56808316814
 30
0.0
 10
69.40435812005211
 20
1104.527427751302
 30
0.0
 10
67.11988719812841
 20
1103.409386418153
 30
0.0
 10
64.90098741993665
 20
1102.21599721059
 30
0.0
 10
62.75179678921994
 20
1100.949441169127
 30
0.0
 10
60.67633018481667
 20
1099.612039703422
 30
0.0
 10
58.67847140356106
 20
1098.206251758452
 30
0.0
 10
56.76196511753349
 20
1096.734670728781
 30
0.0
 10
54.93040869760783
 20
1095.200021010122
 30
0.0
 10
53.18724398314872
 20
1093.605154212444
 30
0.0
 10
51.53574869077066
 20
1091.953044455885
 30
0.0
 10
49.97902873488765
 20
1090.246784337411
 30
0.0
 10
48.52000702321751
 20
1088.489575025074
 30
0.0
 10
47.16142581612687
 20
1086.684734279666
 30
0.0
 10
45.90579969658739
 20
1084.835633111284
 30
0.0
 10
44.75555500566763
 20
1082.945893808258
 30
0.0
 10
43.71247730813631
 20
1081.018608293271
 30
0.0
 10
42.77974449213335
 20
1079.059205853597
 30
0.0
 10
41.95432289792077
 20
1077.064706956001
 30
0.0
 10
41.25531176064138
 20
1075.063747956004
 30
0.0
 10
40.7772005728485
 20
1073.490402801814
 30
0.0
 10
40.59189735994475
 20
1072.682407807537
 30
0.0
 10
40.54865463789034
 20
1072.492909107684
 30
0.0
  0
ARC
  5
F6
330
5E
100
AcDbEntity
  8
$DDT_AUDIT_GENERATED_(E1)
  6
Continuous
 62
     7
100
AcDbCircle
 10
102.9304798347
 20
1086.5582225389
 30
0.0
 40
80.24511848143312
100
AcDbArc
 50
255.4239956376
 51
268.9107172551
  0
LINE
  5
F7
330
5E
100
AcDbEntity
  8
$DDT_AUDIT_GENERATED_(E1)
  6
Continuous
 62
     7
100
AcDbLine
 10
165.818879269
 20
1054.6112388586
 30
0.0
 11
165.7684782326
 21
1062.5450311213
 31
0.0
  0
LINE
  5
F8
330
5E
100
AcDbEntity
  8
$DDT_AUDIT_GENERATED_(E1)
  6
Continuous
 62
     7
100
AcDbLine
 10
39.4595535808
 20
1065.1721264122
 30
0.0
 11
39.0793094563
 21
1057.2472911245
 31
0.0
  0
SPLINE
  5
F9
330
5E
100
AcDbEntity
  8
$DDT_AUDIT_GENERATED_(E1)
  6
Continuous
 62
     7
100
AcDbSpline
210
0.0
220
0.0
230
1.0
 70
     8
 71
     3
 72
    33
 73
    29
 74
     0
 42
0.0000000001663138
 43
0.0000000001
 40
0.0
 40
0.0
 40
0.0
 40
0.0
 40
0.0296283876842928
 40
0.0693680194168394
 40
0.109117889197715
 40
0.1488791263491852
 40
0.1886524454564003
 40
0.2284381619680604
 40
0.2682362278999627
 40
0.3080462820339087
 40
0.3478677087106651
 40
0.3876996997163663
 40
0.4275413146490956
 40
0.4673915362991383
 40
0.5072493187773134
 40
0.5471136272272052
 40
0.586983468863968
 40
0.626857915754969
 40
0.6667361201981629
 40
0.7066173237926815
 40
0.746500861375319
 40
0.7863861609623777
 40
0.8262727407298753
 40
0.866160203920156
 40
0.9060482324049925
 40
0.9459365584191627
 40
0.9858249711312094
 40
1.0
 40
1.0
 40
1.0
 40
1.0
 10
40.03688492944333
 20
1046.862953692955
 30
0.0
 10
40.16886278643891
 20
1046.298757586437
 30
0.0
 10
40.43380280363598
 20
1045.181720471894
 30
0.0
 10
41.02229012610807
 20
1043.271132224177
 30
0.0
 10
41.751483869967
 20
1041.261342767639
 30
0.0
 10
42.59981442987981
 20
1039.261535212346
 30
0.0
 10
43.55658192200794
 20
1037.294529531535
 30
0.0
 10
44.62251572854768
 20
1035.358827877575
 30
0.0
 10
45.79502005663517
 20
1033.459389306311
 30
0.0
 10
47.07213115497593
 20
1031.59936906429
 30
0.0
 10
48.45146001982636
 20
1029.782321773311
 30
0.0
 10
49.93048080820223
 20
1028.011599606709
 30
0.0
 10
51.50645982147534
 20
1026.290502784815
 30
0.0
 10
53.1764819479915
 20
1024.622229000846
 30
0.0
 10
54.93745189727093
 20
1023.009877474184
 30
0.0
 10
56.7861027571838
 20
1021.456439219787
 30
0.0
 10
58.71900344474935
 20
1019.964791628419
 30
0.0
 10
60.73256533448366
 20
1018.537693385096
 30
0.0
 10
62.82305464847921
 20
1017.177777290162
 30
0.0
 10
64.98658345786787
 20
1015.887554362385
 30
0.0
 10
67.21918097449633
 20
1014.669377750636
 30
0.0
 10
69.5165653337196
 20
1013.525558604048
 30
0.0
 10
71.87503339069958
 20
1012.457916385107
 30
0.0
 10
74.28817797781126
 20
1011.46944138121
 30
0.0
 10
76.75917758293578
 20
1010.558075510204
 30
0.0
 10
79.25496654865213
 20
1009.739910232187
 30
0.0
 10
81.31383099940427
 20
1009.129624213223
 30
0.0
 10
82.41430016004325
 20
1008.852905453273
 30
0.0
 10
82.75267591440216
 20
1008.768173383892
 30
0.0
  0
SPLINE
  5
FA
330
5E
100
AcDbEntity
  8
$DDT_AUDIT_GENERATED_(E1)
  6
Continuous
 62
     7
100
AcDbSpline
210
0.0
220
0.0
230
1.0
 70
     8
 71
     3
 72
    32
 73
    28
 74
     0
 42
0.0000000001758588
 43
0.0000000001
 40
0.0
 40
0.0
 40
0.0
 40
0.0
 40
0.0290877743377917
 40
0.0710138475002944
 40
0.1129404108715019
 40
0.1548672895295679
 40
0.1967941962003888
 40
0.238720813934963
 40
0.280646742594219
 40
0.3225714910490912
 40
0.3644944704870656
 40
0.4064149895306552
 40
0.4483322520556636
 40
0.4902453587671407
 40
0.532153313733672
 40
0.5740550371641051
 40
0.6159493856928229
 40
0.6578351812715671
 40
0.699711249397974
 40
0.7415764668013124
 40
0.7834298178361309
 40
0.8252704577243088
 40
0.8670977795110928
 40
0.9089114803011004
 40
0.9507116212192802
 40
0.992498674842237
 40
1.0
 40
1.0
 40
1.0
 40
1.0
 10
123.4338535076836
 20
1008.768014060332
 30
0.0
 10
124.0875100059609
 20
1008.938558423298
 30
0.0
 10
125.4377001849568
 20
1009.293505356164
 30
0.0
 10
127.749897146311
 20
1010.008565210024
 30
0.0
 10
130.2090235832306
 20
1010.857332320778
 30
0.0
 10
132.6355962668239
 20
1011.795601404001
 30
0.0
 10
135.0015848056136
 20
1012.811319310479
 30
0.0
 10
137.3089233743987
 20
1013.905409043248
 30
0.0
 10
139.5516507663421
 20
1015.075132787839
 30
0.0
 10
141.7260642534219
 20
1016.318553082415
 30
0.0
 10
143.8280085180221
 20
1017.633341105631
 30
0.0
 10
145.8536118689862
 20
1019.01709997607
 30
0.0
 10
147.7990987474116
 20
1020.467282397213
 30
0.0
 10
149.6608497386273
 20
1021.981217358974
 30
0.0
 10
151.4353951984883
 20
1023.556107939704
 30
0.0
 10
153.119426933342
 20
1025.18903770502
 30
0.0
 10
154.70980399403
 20
1026.876974110078
 30
0.0
 10
156.2035637202351
 20
1028.616778292348
 30
0.0
 10
157.5979170678563
 20
1030.405195840289
 30
0.0
 10
158.8903003562137
 20
1032.238921281981
 30
0.0
 10
160.0782151501912
 20
1034.114391243361
 30
0.0
 10
161.1598558785868
 20
1036.028593412943
 30
0.0
 10
162.1317954462928
 20
1037.976089681308
 30
0.0
 10
162.9976409107569
 20
1039.96016450562
 30
0.0
 10
163.7357626716735
 20
1041.951284727602
 30
0.0
 10
164.2327026139278
 20
1043.470480384403
 30
0.0
 10
164.4240225073713
 20
1044.231506770732
 30
0.0
 10
164.4578705054869
 20
1044.366581296398
 30
0.0
  0
ARC
  5
FB
330
5E
100
AcDbEntity
  8
$DDT_AUDIT_GENERATED_(E1)
  6
Continuous
 62
     7
100
AcDbCircle
 10
116.2078419577
 20
891.0068333292
 30
0.0
 40
1.000000000000001
100
AcDbArc
 50
270.0
 51
359.0
  0
ARC
  5
FC
330
5E
100
AcDbEntity
  8
$DDT_AUDIT_GENERATED_(E1)
  6
Continuous
 62
     7
100
AcDbCircle
 10
90.5921580423
 20
891.0068333292
 30
0.0
 40
0.9999999999999998
100
AcDbArc
 50
181.0
 51
270.0
  0
LINE
  5
FD
330
5E
100
AcDbEntity
  8
$DDT_AUDIT_GENERATED_(E1)
  6
Continuous
 62
     7
100
AcDbLine
 10
89.4
 20
902.0068333292
 30
0.0
 11
89.5923103471
 21
890.9893809228
 31
0.0
  0
LINE
  5
FE
330
5E
100
AcDbEntity
  8
$DDT_AUDIT_GENERATED_(E1)
  6
Continuous
 62
     7
100
AcDbLine
 10
117.2076896529
 20
890.9893809228
 30
0.0
 11
117.4
 21
902.0068333292
 31
0.0
  0
ARC
  5
FF
330
5E
100
AcDbEntity
  8
$DDT_AUDIT_GENERATED_(E1)
  6
Continuous
 62
     7
100
AcDbCircle
 10
117.1
 20
902.9607725307
 30
0.0
 40
1.000000000014698
100
AcDbArc
 50
287.4576031205
 51
0.0
  0
ARC
  5
100
330
5E
100
AcDbEntity
  8
$DDT_AUDIT_GENERATED_(E1)
  6
Continuous
 62
     7
100
AcDbCircle
 10
89.7
 20
902.9607725307
 30
0.0
 40
0.9999999999999176
100
AcDbArc
 50
180.0
 51
252.5423968795
  0
ARC
  5
101
330
5E
100
AcDbEntity
  8
$DDT_AUDIT_GENERATED_(E1)
  6
Continuous
 62
     7
100
AcDbCircle
 10
84.5829297874
 20
1006.9356982497
 30
0.0
 40
4.11676354687238
100
AcDbArc
 50
359.685631826
 51
2.9652173903
  0
ARC
  5
102
330
5E
100
AcDbEntity
  8
$DDT_AUDIT_GENERATED_(E1)
  6
Continuous
 62
     7
100
AcDbCircle
 10
103.3243390961
 20
1085.8772970177
 30
0.0
 40
79.56682083863738
100
AcDbArc
 50
271.0150197585
 51
284.6470331888
  0
ARC
  5
103
330
5E
100
AcDbEntity
  8
$DDT_AUDIT_GENERATED_(E1)
  6
Continuous
 62
     7
100
AcDbCircle
 10
120.9301534668
 20
1006.7897431048
 30
0.0
 40
2.830153643715546
100
AcDbArc
 50
178.3237352985
 51
180.0126560935
  0
SPLINE
  5
104
330
5E
100
AcDbEntity
  8
$DDT_AUDIT_GENERATED_(E1)
  6
Continuous
 62
     7
100
AcDbSpline
210
0.0
220
0.0
230
1.0
 70
     8
 71
     3
 72
    46
 73
    42
 74
     0
 42
0.000000000066769
 43
0.0000000001
 40
0.1866462326787445
 40
0.1866462326787445
 40
0.1866462326787445
 40
0.1866462326787445
 40
0.1971328162457459
 40
0.213496825206994
 40
0.2298649093557008
 40
0.246236374221072
 40
0.2626105834883247
 40
0.2789869680944578
 40
0.2953650305729207
 40
0.3117443456907132
 40
0.3281245583420954
 40
0.3445053795340222
 40
0.3608865811491954
 40
0.3772679663178428
 40
0.3936494018931966
 40
0.4100308190073311
 40
0.4264121833055721
 40
0.4427934893201488
 40
0.4591747551898195
 40
0.4755560177146463
 40
0.4919373277092584
 40
0.5083187455979088
 40
0.5247003369441897
 40
0.541082146764205
 40
0.5574642405839582
 40
0.5738466782368374
 40
0.5902295095516722
 40
0.6066127698335049
 40
0.622996475061029
 40
0.6393806167413686
 40
0.6557651563826022
 40
0.6721500195730136
 40
0.6885350646119557
 40
0.7049200859312622
 40
0.7213048432157091
 40
0.7376890321288283
 40
0.7540722785129891
 40
0.7704541337851943
 40
0.786834072229685
 40
0.8032114910525244
 40
0.81319772388088
 40
0.81319772388088
 40
0.81319772388088
 40
0.81319772388088
 10
146.5163714949382
 20
1097.435154111297
 30
0.0
 10
146.1693320680586
 20
1097.766109892623
 30
0.0
 10
145.2649012836988
 20
1098.603559678651
 30
0.0
 10
143.7454121856613
 20
1099.909062115366
 30
0.0
 10
141.9343747250709
 20
1101.330543302864
 30
0.0
 10
140.0420494369241
 20
1102.687649187315
 30
0.0
 10
138.0723957742941
 20
1103.977561473191
 30
0.0
 10
136.0295320000912
 20
1105.197609462288
 30
0.0
 10
133.9177249494993
 20
1106.345274612034
 30
0.0
 10
131.7413799077076
 20
1107.41819453779
 30
0.0
 10
129.5050306078647
 20
1108.41416656143
 30
0.0
 10
127.2133293238466
 20
1109.331150896745
 30
0.0
 10
124.8710381535041
 20
1110.167273131763
 30
0.0
 10
122.4830185915101
 20
1110.920827305026
 30
0.0
 10
120.0542206287464
 20
1111.590278688892
 30
0.0
 10
117.5896716774577
 20
1112.174266040413
 30
0.0
 10
115.0944673881343
 20
1112.671603078655
 30
0.0
 10
112.5737628465938
 20
1113.081279879842
 30
0.0
 10
110.0327625290948
 20
1113.402464396149
 30
0.0
 10
107.4767101782711
 20
1113.634503719034
 30
0.0
 10
104.9108786112732
 20
1113.776925073983
 30
0.0
 10
102.3405594885409
 20
1113.829436535334
 30
0.0
 10
99.77105417609447
 20
1113.791927472364
 30
0.0
 10
97.20766222415999
 20
1113.664468844551
 30
0.0
 10
94.6556709746555
 20
1113.447313018146
 30
0.0
 10
92.1203441202689
 20
1113.140893077068
 30
0.0
 10
89.60691268469112
 20
1112.74582206271
 30
0.0
 10
87.12056493603231
 20
1112.262891922169
 30
0.0
 10
84.66643640333544
 20
1111.693072196049
 30
0.0
 10
82.24960001192777
 20
1111.037508463642
 30
0.0
 10
79.87505634783435
 20
1110.297520566255
 30
0.0
 10
77.5477252420029
 20
1109.474601050956
 30
0.0
 10
75.27243684877028
 20
1108.57041352402
 30
0.0
 10
73.05392106169906
 20
1107.586790272471
 30
0.0
 10
70.89679706601582
 20
1106.525729391915
 30
0.0
 10
68.80556353680069
 20
1105.389391790592
 30
0.0
 10
66.78459036053464
 20
1104.180098876106
 30
0.0
 10
64.83810923143571
 20
1102.900329624682
 30
0.0
 10
62.97020413129894
 20
1101.552717402974
 30
0.0
 10
61.41693609458014
 20
1100.323719087357
 30
0.0
 10
60.49601720717742
 20
1099.5387298312
 30
0.0
 10
60.15264426328122
 20
1099.237629300877
 30
0.0
  0
LINE
  5
105
330
5E
100
AcDbEntity
  8
$DDT_AUDIT_GENERATED_(E1)
  6
Continuous
 62
     7
100
AcDbLine
 10
88.7
 20
1006.9130394856
 30
0.0
 11
88.7
 21
902.9607725307
 31
0.0
  0
LINE
  5
106
330
5E
100
AcDbEntity
  8
$DDT_AUDIT_GENERATED_(E1)
  6
Continuous
 62
     7
100
AcDbLine
 10
118.1
 20
902.9607725307
 30
0.0
 11
118.1
 21
1006.7899818091
 31
0.0
  0
ELLIPSE
  5
108
330
5E
100
AcDbEntity
  8
$DDT_AUDIT_GENERATED_(107)
  6
Continuous
 62
     7
100
AcDbEllipse
 10
102.383594625
 20
1052.7800829039
 30
0.0
 11
60.25795774436941
 21
-1.253303339151635
 31
0.0
210
0.0
220
0.0
230
0.9999999999999998
 40
0.7659277708
 41
-1.51341945541268
 42
4.709309286048423
  0
ELLIPSE
  5
109
330
5E
100
AcDbEntity
  8
$DDT_AUDIT_GENERATED_(107)
  6
Continuous
 62
     7
100
AcDbEllipse
 10
102.3009873571
 20
1048.8083825977
 30
0.0
 11
23.54585746407503
 21
-0.4897295376007915
 31
0.0
210
0.0
220
0.0
230
1.0
 40
0.7659277708
 41
0.0
 42
6.283185307179586
  0
ELLIPSE
  5
10A
330
5E
100
AcDbEntity
  8
$DDT_AUDIT_GENERATED_(107)
  6
Continuous
 62
     7
100
AcDbEllipse
 10
102.4094263778
 20
1054.0220557145
 30
0.0
 11
61.38611337358011
 21
-1.276767812062873
 31
0.0
210
0.0
220
0.0
230
0.9999999999999998
 40
0.7659277708
 41
-0.2116372253008945
 42
3.353229878890688
  0
ELLIPSE
  5
10B
330
5E
100
AcDbEntity
  8
$DDT_AUDIT_GENERATED_(107)
  6
Continuous
 62
     7
100
AcDbEllipse
 10
102.3965727514
 20
1053.4040622479
 30
0.0
 11
61.21662448138058
 21
-1.273242618005432
 31
0.0
210
0.0
220
0.0
230
1.0
 40
0.7659277708
 41
3.22553179778721
 42
3.498682910838099
  0
ELLIPSE
  5
10C
330
5E
100
AcDbEntity
  8
$DDT_AUDIT_GENERATED_(107)
  6
Continuous
 62
     7
100
AcDbEllipse
 10
102.3965727514
 20
1053.4040622479
 30
0.0
 11
61.21662448138058
 21
-1.273242618005432
 31
0.0
210
0.0
220
0.0
230
1.0
 40
0.7659277708
 41
-0.355370282419651
 42
-0.0811054841394256
  0
LINE
  5
10D
330
5E
100
AcDbEntity
  8
$DDT_AUDIT_GENERATED_(107)
  6
Continuous
 62
     7
100
AcDbLine
 10
101.6443359156
 20
1012.4900274904
 30
0.0
 11
101.7296775897
 21
1006.2524182225
 31
0.0
  0
LINE
  5
10E
330
5E
100
AcDbEntity
  8
$DDT_AUDIT_GENERATED_(107)
  6
Continuous
 62
     7
100
AcDbLine
 10
101.7306884381
 20
1005.8921919388
 30
0.0
 11
101.7471744695
 21
1004.7664281508
 31
0.0
  0
LINE
  5
10F
330
5E
100
AcDbEntity
  8
$DDT_AUDIT_GENERATED_(107)
  6
Continuous
 62
     7
100
AcDbLine
 10
101.7471744695
 20
1004.7664281508
 30
0.0
 11
101.7471758375
 21
1004.7663347339
 31
0.0
  0
SPLINE
  5
110
330
5E
100
AcDbEntity
  8
$DDT_AUDIT_GENERATED_(107)
  6
Continuous
 62
     7
100
AcDbSpline
210
0.0
220
0.0
230
1.0
 70
     8
 71
     3
 72
     8
 73
     4
 74
     0
 42
0.000000003047251
 43
0.0000000001
 40
0.0
 40
0.0
 40
0.0
 40
0.0
 40
1.0
 40
1.0
 40
1.0
 40
1.0
 10
101.747175837539
 20
1004.766334733898
 30
0.0
 10
101.7704185547551
 20
1003.607970015779
 30
0.0
 10
101.7927135016557
 20
1002.513563180608
 30
0.0
 10
101.8140147438686
 20
1001.485369239894
 30
0.0
  0
LINE
  5
111
330
5E
100
AcDbEntity
  8
$DDT_AUDIT_GENERATED_(107)
  6
Continuous
 62
     7
100
AcDbLine
 10
104.3784528898
 20
1006.2524182225
 30
0.0
 11
104.200630555
 21
1012.4900274904
 31
0.0
  0
ARC
  5
112
330
5E
100
AcDbEntity
  8
$DDT_AUDIT_GENERATED_(107)
  6
Continuous
 62
     7
100
AcDbCircle
 10
-247.6909459871
 20
1027.0124125485
 30
0.0
 40
352.8545465672536
100
AcDbArc
 50
355.8513481826
 51
356.3853313486
  0
LINE
  5
113
330
5E
100
AcDbEntity
  8
$DDT_AUDIT_GENERATED_(107)
  6
Continuous
 62
     7
100
AcDbLine
 10
104.4616389176
 20
1004.7663347339
 30
0.0
 11
104.4616375495
 21
1004.7664281508
 31
0.0
  0
LINE
  5
114
330
5E
100
AcDbEntity
  8
$DDT_AUDIT_GENERATED_(107)
  6
Continuous
 62
     7
100
AcDbLine
 10
104.4616375495
 20
1004.7664281508
 30
0.0
 11
104.4432007307
 21
1006.0254032448
 31
0.0
  0
ARC
  5
115
330
5E
100
AcDbEntity
  8
$DDT_AUDIT_GENERATED_(107)
  6
Continuous
 62
     7
100
AcDbCircle
 10
-439.254579537
 20
1013.5099945867
 30
0.0
 40
542.7455532523422
100
AcDbArc
 50
359.1095714842
 51
0.0967938245
  0
LINE
  5
116
330
5E
100
AcDbEntity
  8
$DDT_AUDIT_GENERATED_(107)
  6
Continuous
 62
     7
100
AcDbLine
 10
103.4901992246
 20
1014.4268927125
 30
0.0
 11
102.2982220805
 21
1014.4268927125
 31
0.0
  0
ARC
  5
117
330
5E
100
AcDbEntity
  8
$DDT_AUDIT_GENERATED_(107)
  6
Continuous
 62
     7
100
AcDbCircle
 10
6564.4793482547
 20
1116.0936652594
 30
0.0
 40
6462.980816939112
100
AcDbArc
 50
180.9013359956
 51
180.9842487665
  0
ARC
  5
118
330
5E
100
AcDbEntity
  8
$DDT_AUDIT_GENERATED_(107)
  6
Continuous
 62
     7
100
AcDbCircle
 10
241.5201173272
 20
1003.1868781199
 30
0.0
 40
138.1075992889187
100
AcDbArc
 50
179.2164246235
 51
180.6036208627
  0
LINE
  5
119
330
5E
100
AcDbEntity
  8
$DDT_AUDIT_GENERATED_(107)
  6
Continuous
 62
     7
100
AcDbLine
 10
102.4521103298
 20
1005.0755746644
 30
0.0
 11
102.501483145
 21
1001.7319177923
 31
0.0
  0
SPLINE
  5
11A
330
5E
100
AcDbEntity
  8
$DDT_AUDIT_GENERATED_(107)
  6
Continuous
 62
     7
100
AcDbSpline
210
0.0
220
0.0
230
1.0
 70
     8
 71
     3
 72
    16
 73
    12
 74
     0
 42
0.0000000052112847
 43
0.0000000001
 40
0.395863450296275
 40
0.395863450296275
 40
0.395863450296275
 40
0.395863450296275
 40
0.5
 40
0.5
 40
0.625
 40
0.625
 40
0.75
 40
0.75
 40
0.875
 40
0.875
 40
1.0
 40
1.0
 40
1.0
 40
1.0
 10
103.4848864996175
 20
1000.408093536795
 30
0.0
 10
103.4797710316356
 20
1000.408414621012
 30
0.0
 10
103.4747679490933
 20
1000.420941322491
 30
0.0
 10
103.4643532511361
 20
1000.47487731292
 30
0.0
 10
103.4590323130988
 20
1000.521149548053
 30
0.0
 10
103.449110720526
 20
1000.647353060701
 30
0.0
 10
103.4445000318218
 20
1000.728074262022
 30
0.0
 10
103.436390632894
 20
1000.917214657513
 30
0.0
 10
103.4328364541378
 20
1001.026118502918
 30
0.0
 10
103.4267486978306
 20
1001.273153631984
 30
0.0
 10
103.4242419475536
 20
1001.410749033813
 30
0.0
 10
103.4223411374871
 20
1001.559448260002
 30
0.0
  0
LINE
  5
11B
330
5E
100
AcDbEntity
  8
$DDT_AUDIT_GENERATED_(107)
  6
Continuous
 62
     7
100
AcDbLine
 10
103.4223411375
 20
1001.55944826
 30
0.0
 11
102.5040343074
 21
1001.55944826
 31
0.0
  0
ARC
  5
11C
330
5E
100
AcDbEntity
  8
$DDT_AUDIT_GENERATED_(107)
  6
Continuous
 62
     7
100
AcDbCircle
 10
78.4743271557
 20
1000.5712105695
 30
0.0
 40
24.05001953288752
100
AcDbArc
 50
359.6113143261
 51
2.3549999558
  0
LINE
  5
11D
330
5E
100
AcDbEntity
  8
$DDT_AUDIT_GENERATED_(107)
  6
Continuous
 62
     7
100
AcDbLine
 10
104.4616375495
 20
1004.7664281508
 30
0.0
 11
104.4601383141
 21
1004.9963321927
 31
0.0
  0
ARC
  5
11E
330
5E
100
AcDbEntity
  8
$DDT_AUDIT_GENERATED_(107)
  6
Continuous
 62
     7
100
AcDbCircle
 10
60.3381600558
 20
1004.4095524278
 30
0.0
 40
44.12587988826362
100
AcDbArc
 50
0.7619337009
 51
0.9764997922
  0
LINE
  5
11F
330
5E
100
AcDbEntity
  8
$DDT_AUDIT_GENERATED_(107)
  6
Continuous
 62
     7
100
AcDbLine
 10
104.4576315101
 20
1005.1615594158
 30
0.0
 11
104.45222431
 21
1005.4688499084
 31
0.0
  0
ARC
  5
120
330
5E
100
AcDbEntity
  8
$DDT_AUDIT_GENERATED_(107)
  6
Continuous
 62
     7
100
AcDbCircle
 10
253.5954315934
 20
1007.9582169823
 30
0.0
 40
149.1639809981214
100
AcDbArc
 50
180.7434821833
 51
180.9562419002
  0
SPLINE
  5
121
330
5E
100
AcDbEntity
  8
$DDT_AUDIT_GENERATED_(107)
  6
Continuous
 62
     7
100
AcDbSpline
210
0.0
220
0.0
230
1.0
 70
     8
 71
     3
 72
    16
 73
    12
 74
     0
 42
0.0000000045785383
 43
0.0000000001
 40
0.0
 40
0.0
 40
0.0
 40
0.0
 40
0.5000000000000034
 40
0.5000000000000034
 40
0.7500000000000013
 40
0.7500000000000013
 40
0.875000000000004
 40
0.875000000000004
 40
0.937500000000002
 40
0.937500000000002
 40
1.0
 40
1.0
 40
1.0
 40
1.0
 10
104.2006305549654
 20
1012.490027490438
 30
0.0
 10
104.1958205687931
 20
1012.842615031652
 30
0.0
 10
104.1537894791015
 20
1013.19013022762
 30
0.0
 10
104.024651767899
 20
1013.702578982487
 30
0.0
 10
103.9708429497867
 20
1013.872807216191
 30
0.0
 10
103.8538938155042
 20
1014.117868405419
 30
0.0
 10
103.8096870525793
 20
1014.197458185078
 30
0.0
 10
103.7203374277196
 20
1014.308056953709
 30
0.0
 10
103.6861113667889
 20
1014.344108641364
 30
0.0
 10
103.6022480335249
 20
1014.403399152321
 30
0.0
 10
103.5484927286584
 20
1014.427621550792
 30
0.0
 10
103.490199224639
 20
1014.426892712453
 30
0.0
  0
ELLIPSE
  5
122
330
5E
100
AcDbEntity
  8
$DDT_AUDIT_GENERATED_(107)
  6
Continuous
 62
     7
100
AcDbEllipse
 10
103.4319628111
 20
1001.9907927589
 30
0.0
 11
0.6999451650699442
 21
0.008761614875008039
 31
0.0
210
0.0
220
0.0
230
1.0
 40
0.616127962
 41
4.690930357398788
 42
6.235562071263085
  0
SPLINE
  5
123
330
5E
100
AcDbEntity
  8
$DDT_AUDIT_GENERATED_(107)
  6
Continuous
 62
     7
100
AcDbSpline
210
0.0
220
0.0
230
1.0
 70
     8
 71
     3
 72
    16
 73
    12
 74
     0
 42
0.0000000046103551
 43
0.0000000001
 40
0.0
 40
0.0
 40
0.0
 40
0.0
 40
0.0625000000000013
 40
0.0625000000000013
 40
0.1250000000000026
 40
0.1250000000000026
 40
0.2500000000000053
 40
0.2500000000000053
 40
0.5000000000000034
 40
0.5000000000000034
 40
1.0
 40
1.0
 40
1.0
 40
1.0
 10
102.2982220804643
 20
1014.426892712444
 30
0.0
 10
102.240066962552
 20
1014.427619657754
 30
0.0
 10
102.1873809597683
 20
1014.403593711002
 30
0.0
 10
102.1058180515051
 20
1014.344981361554
 30
0.0
 10
102.0727076186963
 20
1014.309214660499
 30
0.0
 10
101.9864228444023
 20
1014.198773721415
 30
0.0
 10
101.9440505628595
 20
1014.118294720418
 30
0.0
 10
101.8346182936308
 20
1013.874053057798
 30
0.0
 10
101.7859847097614
 20
1013.704941359951
 30
0.0
 10
101.6713340168942
 20
1013.191728704276
 30
0.0
 10
101.6391527296978
 20
1012.842292143525
 30
0.0
 10
101.6443359155965
 20
1012.490027490446
 30
0.0
  0
ELLIPSE
  5
124
330
5E
100
AcDbEntity
  8
$DDT_AUDIT_GENERATED_(107)
  6
Continuous
 62
     7
100
AcDbEllipse
 10
102.5136559811
 20
1001.9907927589
 30
0.0
 11
-0.6999234318386949
 21
-0.01035323925641096
 31
0.0
210
0.0
220
0.0
230
1.0
 40
0.6160966953
 41
0.0033049738115247
 42
1.547936687676309
  0
LINE
  5
125
330
5E
100
AcDbEntity
  8
$DDT_AUDIT_GENERATED_(107)
  6
Continuous
 62
     7
100
AcDbLine
 10
41.0049664536
 20
1056.0972258719
 30
0.0
 11
41.0162512634
 21
1054.3208469813
 31
0.0
  0
LINE
  5
126
330
5E
100
AcDbEntity
  8
$DDT_AUDIT_GENERATED_(107)
  6
Continuous
 62
     7
100
AcDbLine
 10
163.7619311704
 20
1051.767863504
 30
0.0
 11
163.8470679642
 21
1053.5422369248
 31
0.0
  0
LINE
  5
127
330
5E
100
AcDbEntity
  8
$DDT_AUDIT_GENERATED_(107)
  6
Continuous
 62
     7
100
AcDbLine
 10
42.1875200077
 20
1045.3938353318
 30
0.0
 11
42.3409408632
 21
1044.7996646393
 31
0.0
  0
LINE
  5
128
330
5E
100
AcDbEntity
  8
$DDT_AUDIT_GENERATED_(107)
  6
Continuous
 62
     7
100
AcDbLine
 10
162.0424969146
 20
1042.309995797
 30
0.0
 11
162.2204906756
 21
1042.8972734074
 31
0.0
  0
SPLINE
  5
129
330
5E
100
AcDbEntity
  8
$DDT_AUDIT_GENERATED_(107)
  6
Continuous
 62
     7
100
AcDbSpline
210
0.0
220
0.0
230
1.0
 70
     8
 71
     3
 72
    35
 73
    31
 74
     0
 42
0.0000000001466929
 43
0.0000000001
 40
0.0
 40
0.0
 40
0.0
 40
0.0
 40
0.0306422293996479
 40
0.0666900998861566
 40
0.1027578769291837
 40
0.13884502957451
 40
0.1749505964523662
 40
0.2110732872764328
 40
0.2472115832480936
 40
0.2833638301742381
 40
0.3195283200879846
 40
0.3557033590509344
 40
0.3918873204221474
 40
0.428078684106052
 40
0.4642760631217416
 40
0.5004782193073463
 40
0.5366840701536857
 40
0.5728926887295943
 40
0.6091032984915241
 40
0.6453152645239177
 40
0.681528082482276
 40
0.7177413120565971
 40
0.7539546526170324
 40
0.790167944157853
 40
0.8263811023708104
 40
0.8625941068730906
 40
0.8988069901201254
 40
0.9350198269924999
 40
0.9712327249954956
 40
1.0
 40
1.0
 40
1.0
 40
1.0
 10
44.73483797084829
 20
1038.13307036219
 30
0.0
 10
45.01979783821689
 20
1037.525906895102
 30
0.0
 10
45.54758187799494
 20
1036.410954887892
 30
0.0
 10
46.56923990714502
 20
1034.56112713719
 30
0.0
 10
47.71675088899298
 20
1032.699605697976
 30
0.0
 10
48.9781885727954
 20
1030.864584507981
 30
0.0
 10
50.33943096319306
 20
1029.076332881392
 30
0.0
 10
51.80103634900825
 20
1027.333831139906
 30
0.0
 10
53.35936515580055
 20
1025.641658445
 30
0.0
 10
55.0116508096776
 20
1024.002769861175
 30
0.0
 10
56.75464997599519
 20
1022.420421482213
 30
0.0
 10
58.58501538167808
 20
1020.897643905033
 30
0.0
 10
60.4992073740417
 20
1019.437374360304
 30
0.0
 10
62.49352944910351
 20
1018.042413490796
 30
0.0
 10
64.56413062900765
 20
1016.715430243282
 30
0.0
 10
66.70701665454581
 20
1015.458954808198
 30
0.0
 10
68.91805869125369
 20
1014.275375542546
 30
0.0
 10
71.19300243269436
 20
1013.166935465071
 30
0.0
 10
73.52747725909586
 20
1012.13572933626
 30
0.0
 10
75.9170039810099
 20
1011.183701103175
 30
0.0
 10
78.35700632079735
 20
1010.312641552955
 30
0.0
 10
80.84280541215813
 20
1009.524187077912
 30
0.0
 10
83.36968498401895
 20
1008.819811908155
 30
0.0
 10
85.93269460890993
 20
1008.200846154695
 30
0.0
 10
88.52742920616613
 20
1007.668400083031
 30
0.0
 10
91.14715706427035
 20
1007.223641262046
 30
0.0
 10
93.79357512855216
 20
1006.866754694638
 30
0.0
 10
96.43671164548479
 20
1006.600817603888
 30
0.0
 10
98.97765046318044
 20
1006.429908981335
 30
0.0
 10
100.4655882776024
 20
1006.382608610685
 30
0.0
 10
101.2449653384577
 20
1006.359493383119
 30
0.0
  0
SPLINE
  5
12A
330
5E
100
AcDbEntity
  8
$DDT_AUDIT_GENERATED_(107)
  6
Continuous
 62
     7
100
AcDbSpline
210
0.0
220
0.0
230
1.0
 70
     8
 71
     3
 72
    34
 73
    30
 74
     0
 42
0.0000000001539729
 43
0.0000000001
 40
0.0
 40
0.0
 40
0.0
 40
0.0
 40
0.0200068238022329
 40
0.0578589136078055
 40
0.0957139670612016
 40
0.1335698748494005
 40
0.1714267480420217
 40
0.2092846633328875
 40
0.247143652111309
 40
0.2850036891806678
 40
0.322864680678388
 40
0.3607264511821744
 40
0.3985886787737074
 40
0.4364508852476154
 40
0.4743125231681681
 40
0.5121729025319995
 40
0.5500311779412591
 40
0.5878863380603937
 40
0.6257371986951271
 40
0.6635824011507732
 40
0.7014204178073518
 40
0.7392495670545243
 40
0.7770680397936751
 40
0.8148739395559692
 40
0.8526653378166387
 40
0.890440345227781
 40
0.9281971981965786
 40
0.9659343585136451
 40
1.0
 40
1.0
 40
1.0
 40
1.0
 10
104.900426675159
 20
1006.35949380942
 30
0.0
 10
105.418612494509
 20
1006.373714491481
 30
0.0
 10
106.6913981016116
 20
1006.410724676561
 30
0.0
 10
108.9964498621179
 20
1006.54461382235
 30
0.0
 10
111.6338308700524
 20
1006.787015539187
 30
0.0
 10
114.2765113268805
 20
1007.12029235229
 30
0.0
 10
116.8905447571276
 20
1007.541746591857
 30
0.0
 10
119.4786938944545
 20
1008.051159291822
 30
0.0
 10
122.0339587201978
 20
1008.647441197871
 30
0.0
 10
124.552026059597
 20
1009.329530515768
 30
0.0
 10
127.0279444489283
 20
1010.096154216305
 30
0.0
 10
129.4570247665183
 20
1010.945893678782
 30
0.0
 10
131.8346083447538
 20
1011.877168652814
 30
0.0
 10
134.1561407679364
 20
1012.888243911138
 30
0.0
 10
136.4171639575347
 20
1013.977230394105
 30
0.0
 10
138.6133297864905
 20
1015.142088204212
 30
0.0
 10
140.7404058435093
 20
1016.380628203323
 30
0.0
 10
142.7942842541358
 20
1017.690514590218
 30
0.0
 10
144.7709895719551
 20
1019.069266780656
 30
0.0
 10
146.6666893584986
 20
1020.514264802953
 30
0.0
 10
148.4776960083454
 20
1022.022743006661
 30
0.0
 10
150.2005021745422
 20
1023.591829289863
 30
0.0
 10
151.8316919408852
 20
1025.218417088421
 30
0.0
 10
153.3683164276658
 20
1026.899664581171
 30
0.0
 10
154.8065375012496
 20
1028.631158441754
 30
0.0
 10
156.1467310891548
 20
1030.413793571678
 30
0.0
 10
157.3744973724959
 20
1032.228151178466
 30
0.0
 10
158.4942107201344
 20
1034.068762860293
 30
0.0
 10
159.0851969652105
 20
1035.192528338309
 30
0.0
 10
159.4150415856516
 20
1035.825059994097
 30
0.0
  0
LINE
  5
12B
330
5E
100
AcDbEntity
  8
$DDT_AUDIT_GENERATED_(107)
  6
Continuous
 62
     7
100
AcDbLine
 10
102.5232892787
 20
1000.4080675412
 30
0.0
 11
103.4854228685
 21
1000.4080675412
 31
0.0
  0
SPLINE
  5
12C
330
5E
100
AcDbEntity
  8
$DDT_AUDIT_GENERATED_(107)
  6
Continuous
 62
     7
100
AcDbSpline
210
0.0
220
0.0
230
1.0
 70
     8
 71
     3
 72
    17
 73
    13
 74
     0
 42
0.0000000071704635
 43
0.0000000001
 40
0.0
 40
0.0
 40
0.0
 40
0.0
 40
0.0177293415178184
 40
0.1476612434028443
 40
0.2512609715843366
 40
0.3396165060026564
 40
0.4160140581298499
 40
0.4814126638655724
 40
0.5496705466232756
 40
0.6606448259979846
 40
0.8677097566567115
 40
1.0
 40
1.0
 40
1.0
 40
1.0
 10
103.4813419267497
 20
1000.413682100256
 30
0.0
 10
103.4939006742992
 20
1000.411646338532
 30
0.0
 10
103.5840845851341
 20
1000.397297768361
 30
0.0
 10
103.7545070051249
 20
1000.451794748335
 30
0.0
 10
103.9326288134107
 20
1000.557732767743
 30
0.0
 10
104.0516182972799
 20
1000.684720263452
 30
0.0
 10
104.1230079309722
 20
1000.805139617094
 30
0.0
 10
104.1615721204088
 20
1000.904109740477
 30
0.0
 10
104.1851575252294
 20
1000.99094382275
 30
0.0
 10
104.2040696383062
 20
1001.094714157256
 30
0.0
 10
104.218630131583
 20
1001.210169697072
 30
0.0
 10
104.2277465220832
 20
1001.328152359393
 30
0.0
 10
104.2317339995905
 20
1001.382009298919
 30
0.0
  0
SPLINE
  5
12D
330
5E
100
AcDbEntity
  8
$DDT_AUDIT_GENERATED_(107)
  6
Continuous
 62
     7
100
AcDbSpline
210
0.0
220
0.0
230
1.0
 70
     8
 71
     3
 72
    19
 73
    15
 74
     0
 42
0.0000000076720217
 43
0.0000000001
 40
0.0
 40
0.0
 40
0.0
 40
0.0
 40
0.0744283850406183
 40
0.3424898026443894
 40
0.4131622946771342
 40
0.4454089760687445
 40
0.4655400025377757
 40
0.4846827891068216
 40
0.52115778019408
 40
0.5746879246195901
 40
0.6650837110633219
 40
0.7816077311466165
 40
0.9046050761535177
 40
1.0
 40
1.0
 40
1.0
 40
1.0
 10
101.8179500270913
 20
1001.305108211253
 30
0.0
 10
101.8184991950754
 20
1001.279686400782
 30
0.0
 10
101.820672222158
 20
1001.179643593189
 30
0.0
 10
101.822310767948
 20
1001.123530542025
 30
0.0
 10
101.8238086820403
 20
1001.084620815392
 30
0.0
 10
101.8248735080282
 20
1001.06533605056
 30
0.0
 10
101.8265012264237
 20
1001.044133823304
 30
0.0
 10
101.8306600016519
 20
1001.006149549452
 30
0.0
 10
101.8431437326777
 20
1000.936679271558
 30
0.0
 10
101.878171697511
 20
1000.825735455802
 30
0.0
 10
101.9608407495081
 20
1000.67565876702
 30
0.0
 10
102.1149022299333
 20
1000.524937520346
 30
0.0
 10
102.3190235023345
 20
1000.422550752779
 30
0.0
 10
102.4528411578274
 20
1000.41809129023
 30
0.0
 10
102.5208693433235
 20
1000.417216450126
 30
0.0
  0
SPLINE
  5
12E
330
5E
100
AcDbEntity
  8
$DDT_AUDIT_GENERATED_(107)
  6
Continuous
 62
     7
100
AcDbSpline
210
0.0
220
0.0
230
1.0
 70
     8
 71
     3
 72
    18
 73
    14
 74
     0
 42
0.0000000133591745
 43
0.0000000001
 40
0.0
 40
0.0
 40
0.0
 40
0.0
 40
0.1098320916114061
 40
0.3105300447077169
 40
0.4739372336458284
 40
0.6120722182139976
 40
0.7270374813287127
 40
0.8176811327989966
 40
0.8778994290453122
 40
0.9068362731377935
 40
0.9305169254225139
 40
0.9631565716704542
 40
1.0
 40
1.0
 40
1.0
 40
1.0
 10
101.2446217704805
 20
1006.351278033638
 30
0.0
 10
101.2771185656915
 20
1006.352617904854
 30
0.0
 10
101.3561303085675
 20
1006.354826041767
 30
0.0
 10
101.480347113284
 20
1006.301714291744
 30
0.0
 10
101.5877187097957
 20
1006.21963578692
 30
0.0
 10
101.6578351125688
 20
1006.130554895904
 30
0.0
 10
101.6993248628218
 20
1006.047226593971
 30
0.0
 10
101.720224506118
 20
1005.979206420804
 30
0.0
 10
101.7284786104808
 20
1005.931736573172
 30
0.0
 10
101.7309426374744
 20
1005.909131107724
 30
0.0
 10
101.7318165231121
 20
1005.89873527701
 30
0.0
 10
101.7322240651854
 20
1005.892415053625
 30
0.0
 10
101.7322812572847
 20
1005.891395179759
 30
0.0
 10
101.7322935998299
 20
1005.890976993871
 30
0.0
  0
SPLINE
  5
12F
330
5E
100
AcDbEntity
  8
$DDT_AUDIT_GENERATED_(107)
  6
Continuous
 62
     7
100
AcDbSpline
210
0.0
220
0.0
230
1.0
 70
     8
 71
     3
 72
    15
 73
    11
 74
     0
 42
0.0000000109837099
 43
0.0000000001
 40
0.2915591954683301
 40
0.2915591954683301
 40
0.2915591954683301
 40
0.2915591954683301
 40
0.3004477234591327
 40
0.4070421495398124
 40
0.4765085139760422
 40
0.5510051286584705
 40
0.6667156369952488
 40
0.8044461447862443
 40
0.9577622045204112
 40
1.0
 40
1.0
 40
1.0
 40
1.0
 10
104.4348847098194
 20
1005.991639841145
 30
0.0
 10
104.4348837574358
 20
1005.991671617251
 30
0.0
 10
104.4349322660716
 20
1005.992435301681
 30
0.0
 10
104.4363346742516
 20
1006.000974558968
 30
0.0
 10
104.4502924442838
 20
1006.047118455151
 30
0.0
 10
104.4839200957899
 20
1006.121412624281
 30
0.0
 10
104.5571770213361
 20
1006.221316981283
 30
0.0
 10
104.6824212749756
 20
1006.312120301595
 30
0.0
 10
104.8114103843533
 20
1006.361369657499
 30
0.0
 10
104.8823499943059
 20
1006.354742368834
 30
0.0
 10
104.9001411167896
 20
1006.352958496713
 30
0.0
  0
ELLIPSE
  5
131
330
5E
100
AcDbEntity
  8
$DDT_AUDIT_GENERATED_(130)
  6
Continuous
 62
     7
100
AcDbEllipse
 10
102.2395591298
 20
1045.8549559144
 30
0.0
 11
10.56488361784079
 21
-0.2197386770418364
 31
0.0
210
0.0
220
0.0
230
1.0
 40
0.7659277708
 41
0.0
 42
6.283185307179586
  0
ELLIPSE
  5
132
330
5E
100
AcDbEntity
  8
$DDT_AUDIT_GENERATED_(130)
  6
Continuous
 62
     7
100
AcDbEllipse
 10
102.2560302715
 20
1046.6468770129
 30
0.0
 11
-19.10236299515134
 21
0.3973094380176901
 31
0.0
210
0.0
220
0.0
230
0.9999999999999997
 40
0.7659277708
 41
0.0
 42
6.283185307179586
  0
LINE
  5
134
330
5E
100
AcDbEntity
  8
$DDT_AUDIT_GENERATED_(133)
  6
Continuous
 62
     7
100
AcDbLine
 10
114.9
 20
886.8068333292
 30
0.0
 11
91.9
 21
886.8068333292
 31
0.0
  0
LINE
  5
135
330
5E
100
AcDbEntity
  8
$DDT_AUDIT_GENERATED_(133)
  6
Continuous
 62
     7
100
AcDbLine
 10
115.2
 20
886.5068333292
 30
0.0
 11
91.6
 21
886.5068333292
 31
0.0
  0
ARC
  5
136
330
5E
100
AcDbEntity
  8
$DDT_AUDIT_GENERATED_(133)
  6
Continuous
 62
     7
100
AcDbCircle
 10
114.4
 20
889.5068333292
 30
0.0
 40
0.5000000000000004
100
AcDbArc
 50
0.0
 51
90.0
  0
ARC
  5
137
330
5E
100
AcDbEntity
  8
$DDT_AUDIT_GENERATED_(133)
  6
Continuous
 62
     7
100
AcDbCircle
 10
92.4
 20
889.5068333292
 30
0.0
 40
0.500000000000056
100
AcDbArc
 50
90.0
 51
180.0
  0
LINE
  5
138
330
5E
100
AcDbEntity
  8
$DDT_AUDIT_GENERATED_(133)
  6
Continuous
 62
     7
100
AcDbLine
 10
114.9
 20
886.8068333292
 30
0.0
 11
114.9
 21
889.5068333292
 31
0.0
  0
LINE
  5
139
330
5E
100
AcDbEntity
  8
$DDT_AUDIT_GENERATED_(133)
  6
Continuous
 62
     7
100
AcDbLine
 10
91.9
 20
889.5068333292
 30
0.0
 11
91.9
 21
886.8068333292
 31
0.0
  0
LINE
  5
13A
330
5E
100
AcDbEntity
  8
$DDT_AUDIT_GENERATED_(133)
  6
Continuous
 62
     7
100
AcDbLine
 10
115.2
 20
886.5068333292
 30
0.0
 11
114.9
 21
886.8068333292
 31
0.0
  0
LINE
  5
13B
330
5E
100
AcDbEntity
  8
$DDT_AUDIT_GENERATED_(133)
  6
Continuous
 62
     7
100
AcDbLine
 10
91.9
 20
886.8068333292
 30
0.0
 11
91.6
 21
886.5068333292
 31
0.0
  0
LINE
  5
13C
330
5E
100
AcDbEntity
  8
$DDT_AUDIT_GENERATED_(133)
  6
Continuous
 62
     7
100
AcDbLine
 10
91.6
 20
886.5068333292
 30
0.0
 11
91.6254756565
 21
885.0068333292
 31
0.0
  0
LINE
  5
13D
330
5E
100
AcDbEntity
  8
$DDT_AUDIT_GENERATED_(133)
  6
Continuous
 62
     7
100
AcDbLine
 10
115.0807882146
 20
879.4876745604
 30
0.0
 11
115.2
 21
886.5068333292
 31
0.0
  0
LINE
  5
13E
330
5E
100
AcDbEntity
  8
$DDT_AUDIT_GENERATED_(133)
  6
Continuous
 62
     7
100
AcDbLine
 10
109.4
 20
595.0884032959
 30
0.0
 11
109.4
 21
851.0068333292
 31
0.0
  0
LINE
  5
13F
330
5E
100
AcDbEntity
  8
$DDT_AUDIT_GENERATED_(133)
  6
Continuous
 62
     7
100
AcDbLine
 10
97.4
 20
851.0068333292
 30
0.0
 11
97.4
 21
595.0884032959
 31
0.0
  0
SPLINE
  5
141
330
5E
100
AcDbEntity
  8
DV1_Standard
  6
Continuous
 62
     7
100
AcDbSpline
210
0.0
220
0.0
230
1.0
 70
     8
 71
     3
 72
    10
 73
     6
 74
     0
 42
0.0000000006380062
 43
0.0000000001
 40
0.0
 40
0.0
 40
0.0
 40
0.0
 40
0.3274076447152282
 40
0.7589159146343213
 40
1.0
 40
1.0
 40
1.0
 40
1.0
 10
97.40000000000002
 20
595.0884032958567
 30
0.0
 10
98.42547977655087
 20
593.6354826720158
 30
0.0
 10
101.6706270364668
 20
593.0886323098052
 30
0.0
 10
105.7174336655732
 20
597.6606129816078
 30
0.0
 10
108.2656569595517
 20
595.7426359471485
 30
0.0
 10
109.4
 20
595.0884032958567
 30
0.0
  0
LINE
  5
142
330
5E
100
AcDbEntity
  8
DV1_Standard
  6
Continuous
 62
     7
100
AcDbLine
 10
49.0
 20
1322.6965364337
 30
0.0
 11
51.0
 21
1322.6965364337
 31
0.0
  0
LINE
  5
143
330
5E
100
AcDbEntity
  8
DV1_Standard
  6
Continuous
 62
     7
100
AcDbLine
 10
49.0
 20
422.6965364337
 30
0.0
 11
51.0
 21
422.6965364337
 31
0.0
  0
LINE
  5
145
330
5E
100
AcDbEntity
  8
DV1_Standard
  6
CENTER2
 62
     7
100
AcDbLine
 10
69.999999553
 20
1322.6965364337
 30
0.0
 11
30.000000447
 21
1322.6965364337
 31
0.0
  0
LINE
  5
146
330
5E
100
AcDbEntity
  8
DV1_Standard
  6
CENTER2
 62
     7
100
AcDbLine
 10
50.0
 20
1342.6965359867
 30
0.0
 11
50.0
 21
1302.6965368808
 31
0.0
  0
LINE
  5
147
330
5E
100
AcDbEntity
  8
DV1_Standard
  6
CENTER2
 62
     7
100
AcDbLine
 10
69.999999553
 20
422.6965364337
 30
0.0
 11
30.000000447
 21
422.6965364337
 31
0.0
  0
LINE
  5
148
330
5E
100
AcDbEntity
  8
DV1_Standard
  6
CENTER2
 62
     7
100
AcDbLine
 10
50.0
 20
442.6965359867
 30
0.0
 11
50.0
 21
402.6965368808
 31
0.0
  0
ENDBLK
  5
14A
330
5E
100
AcDbEntity
  8
0
100
AcDbBlockEnd
  0
BLOCK
  5
227
330
14B
100
AcDbEntity
  8
0
100
AcDbBlockBegin
  2
SE1
 70
     0
 10
0.0
 20
0.0
 30
0.0
  3
SE1
  1

  0
LINE
  5
14D
330
14B
100
AcDbEntity
  8
$DDT_AUDIT_GENERATED_(60)
  6
Continuous
 62
     7
100
AcDbLine
 10
316.0812532251
 20
1296.4818333292
 30
0.0
 11
340.3310681695
 21
1296.4818333292
 31
0.0
  0
LINE
  5
14E
330
14B
100
AcDbEntity
  8
$DDT_AUDIT_GENERATED_(60)
  6
Continuous
 62
     7
100
AcDbLine
 10
316.0812532251
 20
1296.4818333292
 30
0.0
 11
310.8396914233
 21
1296.4818333292
 31
0.0
  0
LINE
  5
14F
330
14B
100
AcDbEntity
  8
$DDT_AUDIT_GENERATED_(60)
  6
Continuous
 62
     7
100
AcDbLine
 10
310.8396914233
 20
1296.4818333292
 30
0.0
 11
260.3310681695
 21
1296.4818333292
 31
0.0
  0
LINE
  5
150
330
14B
100
AcDbEntity
  8
$DDT_AUDIT_GENERATED_(60)
  6
Continuous
 62
     7
100
AcDbLine
 10
260.3310681695
 20
1296.4818333292
 30
0.0
 11
260.3310681695
 21
1296.9818333292
 31
0.0
  0
LINE
  5
151
330
14B
100
AcDbEntity
  8
$DDT_AUDIT_GENERATED_(60)
  6
Continuous
 62
     7
100
AcDbLine
 10
260.3310681695
 20
1344.4818333292
 30
0.0
 11
310.8396914233
 21
1344.4818333292
 31
0.0
  0
LINE
  5
152
330
14B
100
AcDbEntity
  8
$DDT_AUDIT_GENERATED_(60)
  6
Continuous
 62
     7
100
AcDbLine
 10
310.8396914233
 20
1344.4818333292
 30
0.0
 11
316.0812532251
 21
1344.4818333292
 31
0.0
  0
LINE
  5
153
330
14B
100
AcDbEntity
  8
$DDT_AUDIT_GENERATED_(60)
  6
Continuous
 62
     7
100
AcDbLine
 10
316.0812532251
 20
1344.4818333292
 30
0.0
 11
340.3310681695
 21
1344.4818333292
 31
0.0
  0
LINE
  5
154
330
14B
100
AcDbEntity
  8
$DDT_AUDIT_GENERATED_(60)
  6
Continuous
 62
     7
100
AcDbLine
 10
260.3310681695
 20
1343.9818333292
 30
0.0
 11
260.3310681695
 21
1296.9818333292
 31
0.0
  0
LINE
  5
155
330
14B
100
AcDbEntity
  8
$DDT_AUDIT_GENERATED_(60)
  6
Continuous
 62
     7
100
AcDbLine
 10
260.3310681695
 20
1343.9818333292
 30
0.0
 11
260.3310681695
 21
1344.4818333292
 31
0.0
  0
LINE
  5
156
330
14B
100
AcDbEntity
  8
$DDT_AUDIT_GENERATED_(60)
  6
Continuous
 62
     7
100
AcDbLine
 10
310.8396914233
 20
1343.9818333292
 30
0.0
 11
310.8396914233
 21
1296.9818333292
 31
0.0
  0
LINE
  5
157
330
14B
100
AcDbEntity
  8
$DDT_AUDIT_GENERATED_(60)
  6
Continuous
 62
     7
100
AcDbLine
 10
340.8310681695
 20
1296.9818333292
 30
0.0
 11
340.8310681695
 21
1343.9818333292
 31
0.0
  0
ARC
  5
158
330
14B
100
AcDbEntity
  8
$DDT_AUDIT_GENERATED_(60)
  6
Continuous
 62
     7
100
AcDbCircle
 10
340.3310681695
 20
1296.9818333292
 30
0.0
 40
0.5000000000000004
100
AcDbArc
 50
270.0
 51
0.0
  0
ARC
  5
159
330
14B
100
AcDbEntity
  8
$DDT_AUDIT_GENERATED_(60)
  6
Continuous
 62
     7
100
AcDbCircle
 10
340.3310681695
 20
1343.9818333292
 30
0.0
 40
0.5000000000000004
100
AcDbArc
 50
0.0
 51
90.0
  0
LINE
  5
15A
330
14B
100
AcDbEntity
  8
$DDT_AUDIT_GENERATED_(69)
  6
Continuous
 62
     7
100
AcDbLine
 10
312.9810681695
 20
1368.0068333292
 30
0.0
 11
337.6810681695
 21
1368.0068333292
 31
0.0
  0
LINE
  5
15B
330
14B
100
AcDbEntity
  8
$DDT_AUDIT_GENERATED_(69)
  6
Continuous
 62
     7
100
AcDbLine
 10
312.9810681695
 20
368.0068333292
 30
0.0
 11
337.6810681695
 21
368.0068333292
 31
0.0
  0
LINE
  5
15C
330
14B
100
AcDbEntity
  8
$DDT_AUDIT_GENERATED_(69)
  6
Continuous
 62
     7
100
AcDbLine
 10
337.6810681695
 20
368.0068333292
 30
0.0
 11
337.6810681695
 21
396.4818333292
 31
0.0
  0
LINE
  5
15D
330
14B
100
AcDbEntity
  8
$DDT_AUDIT_GENERATED_(69)
  6
Continuous
 62
     7
100
AcDbLine
 10
337.6810681695
 20
444.4818333292
 30
0.0
 11
337.6810681695
 21
854.9118915577
 31
0.0
  0
LINE
  5
15E
330
14B
100
AcDbEntity
  8
$DDT_AUDIT_GENERATED_(69)
  6
Continuous
 62
     7
100
AcDbLine
 10
337.6810681695
 20
881.1017751008
 30
0.0
 11
337.6810681695
 21
1296.4818333292
 31
0.0
  0
LINE
  5
15F
330
14B
100
AcDbEntity
  8
$DDT_AUDIT_GENERATED_(69)
  6
Continuous
 62
     7
100
AcDbLine
 10
337.6810681695
 20
1344.4818333292
 30
0.0
 11
337.6810681695
 21
1368.0068333292
 31
0.0
  0
LINE
  5
160
330
14B
100
AcDbEntity
  8
$DDT_AUDIT_GENERATED_(69)
  6
Continuous
 62
     7
100
AcDbLine
 10
312.9810681695
 20
1368.0068333292
 30
0.0
 11
312.9810681695
 21
1344.4818333292
 31
0.0
  0
LINE
  5
161
330
14B
100
AcDbEntity
  8
$DDT_AUDIT_GENERATED_(69)
  6
Continuous
 62
     7
100
AcDbLine
 10
312.9810681695
 20
1296.4818333292
 30
0.0
 11
312.9810681695
 21
881.1017751008
 31
0.0
  0
LINE
  5
162
330
14B
100
AcDbEntity
  8
$DDT_AUDIT_GENERATED_(69)
  6
Continuous
 62
     7
100
AcDbLine
 10
312.9810681695
 20
854.9118915577
 30
0.0
 11
312.9810681695
 21
444.4818333292
 31
0.0
  0
LINE
  5
163
330
14B
100
AcDbEntity
  8
$DDT_AUDIT_GENERATED_(69)
  6
Continuous
 62
     7
100
AcDbLine
 10
312.9810681695
 20
396.4818333292
 30
0.0
 11
312.9810681695
 21
368.0068333292
 31
0.0
  0
LINE
  5
164
330
14B
100
AcDbEntity
  8
$DDT_AUDIT_GENERATED_(96)
  6
Continuous
 62
     7
100
AcDbLine
 10
310.3310681695
 20
885.0068333292
 30
0.0
 11
312.9810681695
 21
885.0068333292
 31
0.0
  0
LINE
  5
165
330
14B
100
AcDbEntity
  8
$DDT_AUDIT_GENERATED_(96)
  6
Continuous
 62
     7
100
AcDbLine
 10
337.6810681695
 20
885.0068333292
 30
0.0
 11
340.3310681695
 21
885.0068333292
 31
0.0
  0
LINE
  5
166
330
14B
100
AcDbEntity
  8
$DDT_AUDIT_GENERATED_(96)
  6
Continuous
 62
     7
100
AcDbLine
 10
340.3310681695
 20
851.0068333292
 30
0.0
 11
337.6810681695
 21
851.0068333292
 31
0.0
  0
LINE
  5
167
330
14B
100
AcDbEntity
  8
$DDT_AUDIT_GENERATED_(96)
  6
Continuous
 62
     7
100
AcDbLine
 10
312.9810681695
 20
851.0068333292
 30
0.0
 11
310.3310681695
 21
851.0068333292
 31
0.0
  0
LINE
  5
168
330
14B
100
AcDbEntity
  8
$DDT_AUDIT_GENERATED_(96)
  6
Continuous
 62
     7
100
AcDbLine
 10
340.8310681695
 20
851.5068333292
 30
0.0
 11
340.8310681695
 21
858.8553307204
 31
0.0
  0
LINE
  5
169
330
14B
100
AcDbEntity
  8
$DDT_AUDIT_GENERATED_(96)
  6
Continuous
 62
     7
100
AcDbLine
 10
340.8310681695
 20
877.1583359381
 30
0.0
 11
340.8310681695
 21
884.5068333292
 31
0.0
  0
LINE
  5
16A
330
14B
100
AcDbEntity
  8
$DDT_AUDIT_GENERATED_(96)
  6
Continuous
 62
     7
100
AcDbLine
 10
309.8310681695
 20
884.5068333292
 30
0.0
 11
309.8310681695
 21
877.1583359381
 31
0.0
  0
LINE
  5
16B
330
14B
100
AcDbEntity
  8
$DDT_AUDIT_GENERATED_(96)
  6
Continuous
 62
     7
100
AcDbLine
 10
309.8310681695
 20
858.8553307204
 30
0.0
 11
309.8310681695
 21
851.5068333292
 31
0.0
  0
ARC
  5
16C
330
14B
100
AcDbEntity
  8
$DDT_AUDIT_GENERATED_(96)
  6
Continuous
 62
     7
100
AcDbCircle
 10
340.3310681695
 20
851.5068333292
 30
0.0
 40
0.5000000000000004
100
AcDbArc
 50
270.0
 51
0.0
  0
ARC
  5
16D
330
14B
100
AcDbEntity
  8
$DDT_AUDIT_GENERATED_(96)
  6
Continuous
 62
     7
100
AcDbCircle
 10
310.3310681695
 20
851.5068333292
 30
0.0
 40
0.5000000000000004
100
AcDbArc
 50
180.0
 51
270.0
  0
ARC
  5
16E
330
14B
100
AcDbEntity
  8
$DDT_AUDIT_GENERATED_(96)
  6
Continuous
 62
     7
100
AcDbCircle
 10
340.3310681695
 20
884.5068333292
 30
0.0
 40
0.5000000000000004
100
AcDbArc
 50
0.0
 51
90.0
  0
ARC
  5
16F
330
14B
100
AcDbEntity
  8
$DDT_AUDIT_GENERATED_(96)
  6
Continuous
 62
     7
100
AcDbCircle
 10
310.3310681695
 20
884.5068333292
 30
0.0
 40
0.5000000000000004
100
AcDbArc
 50
90.0
 51
180.0
  0
ARC
  5
170
330
14B
100
AcDbEntity
  8
$DDT_AUDIT_GENERATED_(AF)
  6
Continuous
 62
     7
100
AcDbCircle
 10
325.3310681695
 20
868.0068333292
 30
0.0
 40
13.50000000000045
100
AcDbArc
 50
108.3974970897
 51
108.7493402003
  0
ARC
  5
171
330
14B
100
AcDbEntity
  8
$DDT_AUDIT_GENERATED_(AF)
  6
Continuous
 62
     7
100
AcDbCircle
 10
325.3310681695
 20
868.0068333292
 30
0.0
 40
13.50000000000045
100
AcDbArc
 50
79.0047007089
 51
93.5613101709
  0
ARC
  5
172
330
14B
100
AcDbEntity
  8
$DDT_AUDIT_GENERATED_(AF)
  6
Continuous
 62
     7
100
AcDbCircle
 10
325.3310681695
 20
868.0068333292
 30
0.0
 40
13.50000000000045
100
AcDbArc
 50
71.2506596112
 51
78.1107510803
  0
ARC
  5
173
330
14B
100
AcDbEntity
  8
$DDT_AUDIT_GENERATED_(AF)
  6
Continuous
 62
     7
100
AcDbCircle
 10
325.3310681695
 20
868.0068333292
 30
0.0
 40
18.0
100
AcDbArc
 50
102.8395884069
 51
0.0
  0
ARC
  5
174
330
14B
100
AcDbEntity
  8
$DDT_AUDIT_GENERATED_(AF)
  6
Continuous
 62
     7
100
AcDbCircle
 10
325.3310681695
 20
868.0068333292
 30
0.0
 40
18.0
100
AcDbArc
 50
0.0
 51
77.1604115931
  0
LINE
  5
175
330
14B
100
AcDbEntity
  8
$DDT_AUDIT_GENERATED_(AF)
  6
Continuous
 62
     7
100
AcDbLine
 10
328.8310681695
 20
890.0068333292
 30
0.0
 11
321.8310681695
 21
890.0068333292
 31
0.0
  0
CIRCLE
  5
176
330
14B
100
AcDbEntity
  8
$DDT_AUDIT_GENERATED_(AF)
  6
Continuous
 62
     7
100
AcDbCircle
 10
325.3310681695
 20
868.0068333292
 30
0.0
 40
13.5
  0
LINE
  5
177
330
14B
100
AcDbEntity
  8
$DDT_AUDIT_GENERATED_(AF)
  6
Continuous
 62
     7
100
AcDbLine
 10
321.3310681695
 20
889.5068333292
 30
0.0
 11
321.3310681695
 21
881.2800707594
 31
0.0
  0
LINE
  5
178
330
14B
100
AcDbEntity
  8
$DDT_AUDIT_GENERATED_(AF)
  6
Continuous
 62
     7
100
AcDbLine
 10
329.3310681695
 20
881.2794464282
 30
0.0
 11
329.3310681695
 21
889.5068333292
 31
0.0
  0
SPLINE
  5
179
330
14B
100
AcDbEntity
  8
$DDT_AUDIT_GENERATED_(AF)
  6
Continuous
 62
     7
100
AcDbSpline
210
0.0
220
0.0
230
1.0
 70
     8
 71
     3
 72
    21
 73
    17
 74
     0
 42
0.0000000132547838
 43
0.0000000001
 40
0.0
 40
0.0
 40
0.0
 40
0.0
 40
0.0795011251926648
 40
0.1638755047985115
 40
0.2351966847809727
 40
0.2945993486244446
 40
0.341716058774627
 40
0.3754303212239855
 40
0.3897373080274654
 40
0.3976650775127862
 40
0.4044249118487617
 40
0.4141056517688403
 40
0.4329819258522408
 40
0.4854229239751371
 40
0.710034571948785
 40
1.0
 40
1.0
 40
1.0
 40
1.0
 10
321.3262165976693
 20
881.2823388160291
 30
0.0
 10
321.3271786674689
 20
881.2366624168162
 30
0.0
 10
321.3274284154759
 20
881.1560982405979
 30
0.0
 10
321.2819409570183
 20
881.0368449375343
 30
0.0
 10
321.2194985375772
 20
880.9432990049205
 30
0.0
 10
321.1525476241439
 20
880.8778572823954
 30
0.0
 10
321.0921953167055
 20
880.8359418638479
 30
0.0
 10
321.0481371532826
 20
880.812964772191
 30
0.0
 10
321.0218503686442
 20
880.8017104133374
 30
0.0
 10
321.0113593150471
 20
880.7975903920498
 30
0.0
 10
321.0057853681068
 20
880.7954862484963
 30
0.0
 10
321.0012488693022
 20
880.7938257626121
 30
0.0
 10
320.997177571509
 20
880.7923834937357
 30
0.0
 10
320.9972073010995
 20
880.7924103933992
 30
0.0
 10
321.0141211772993
 20
880.7982776331919
 30
0.0
 10
321.0693827801703
 20
880.8164182271166
 30
0.0
 10
321.1075868691524
 20
880.8289818096847
 30
0.0
  0
SPLINE
  5
17A
330
14B
100
AcDbEntity
  8
$DDT_AUDIT_GENERATED_(AF)
  6
Continuous
 62
     7
100
AcDbSpline
210
0.0
220
0.0
230
1.0
 70
     8
 71
     3
 72
    17
 73
    13
 74
     0
 42
0.0000000015340321
 43
0.0000000001
 40
0.9030843922997421
 40
0.9030843922997421
 40
0.9030843922997421
 40
0.9030843922997421
 40
0.9112323415182307
 40
0.9169053628761088
 40
0.9190672450089172
 40
0.9209716846106555
 40
0.9255938377348466
 40
0.9356965335945858
 40
0.9577612895280733
 40
0.9771414368326479
 40
0.9996106829574197
 40
1.0
 40
1.0
 40
1.0
 40
1.0
 10
329.6652323813643
 20
880.7923337410625
 30
0.0
 10
329.6652057397826
 20
880.7923464117848
 30
0.0
 10
329.664450385822
 20
880.7926097325849
 30
0.0
 10
329.6611084849042
 20
880.7937475585193
 30
0.0
 10
329.650463290128
 20
880.797718868197
 30
0.0
 10
329.6334656900821
 20
880.8044919546173
 30
0.0
 10
329.5950241307254
 20
880.821908676489
 30
0.0
 10
329.516242843511
 20
880.8689661730613
 30
0.0
 10
329.4208627931235
 20
880.9624537531514
 30
0.0
 10
329.3511794665574
 20
881.1046627168853
 30
0.0
 10
329.3206520156467
 20
881.2169302743335
 30
0.0
 10
329.3310850640256
 20
881.2703659661659
 30
0.0
 10
329.3312911674735
 20
881.2714200406642
 30
0.0
  0
ARC
  5
17B
330
14B
100
AcDbEntity
  8
$DDT_AUDIT_GENERATED_(AF)
  6
Continuous
 62
     7
100
AcDbCircle
 10
328.8310681695
 20
889.5068333292
 30
0.0
 40
0.5000000000000004
100
AcDbArc
 50
0.0
 51
90.0
  0
ARC
  5
17C
330
14B
100
AcDbEntity
  8
$DDT_AUDIT_GENERATED_(AF)
  6
Continuous
 62
     7
100
AcDbCircle
 10
321.8310681695
 20
889.5068333292
 30
0.0
 40
0.5000000000000004
100
AcDbArc
 50
90.0
 51
180.0
  0
LINE
  5
17D
330
14B
100
AcDbEntity
  8
$DDT_AUDIT_GENERATED_(C8)
  6
Continuous
 62
     7
100
AcDbLine
 10
337.5177457477
 20
365.5886476051
 30
0.0
 11
313.1443905912
 21
365.5886476051
 31
0.0
  0
ARC
  5
17E
330
14B
100
AcDbEntity
  8
$DDT_AUDIT_GENERATED_(C8)
  6
Continuous
 62
     7
100
AcDbCircle
 10
325.3310681695
 20
386.8480668365
 30
0.0
 40
25.00000000000001
100
AcDbArc
 50
242.2168909071
 51
297.7831090929
  0
LINE
  5
17F
330
14B
100
AcDbEntity
  8
$DDT_AUDIT_GENERATED_(C8)
  6
Continuous
 62
     7
100
AcDbLine
 10
313.094503864
 20
367.4937448551
 30
0.0
 11
313.1443905912
 21
365.5886476051
 31
0.0
  0
LINE
  5
180
330
14B
100
AcDbEntity
  8
$DDT_AUDIT_GENERATED_(C8)
  6
Continuous
 62
     7
100
AcDbLine
 10
337.5177457477
 20
365.5886476051
 30
0.0
 11
337.5676324749
 21
367.4937448551
 31
0.0
  0
ARC
  5
181
330
14B
100
AcDbEntity
  8
$DDT_AUDIT_GENERATED_(C8)
  6
Continuous
 62
     7
100
AcDbCircle
 10
314.1440479161
 20
365.6148245534
 30
0.0
 40
1.000000000000011
100
AcDbArc
 50
181.5
 51
242.2168909071
  0
ARC
  5
182
330
14B
100
AcDbEntity
  8
$DDT_AUDIT_GENERATED_(C8)
  6
Continuous
 62
     7
100
AcDbCircle
 10
336.5180884228
 20
365.6148245534
 30
0.0
 40
1.000000000000126
100
AcDbArc
 50
297.7831090929
 51
358.5
  0
ARC
  5
183
330
14B
100
AcDbEntity
  8
$DDT_AUDIT_GENERATED_(C8)
  6
Continuous
 62
     7
100
AcDbCircle
 10
313.5943325265
 20
367.5068333292
 30
0.0
 40
0.4999999999999449
100
AcDbArc
 50
90.0
 51
181.5
  0
ARC
  5
184
330
14B
100
AcDbEntity
  8
$DDT_AUDIT_GENERATED_(C8)
  6
Continuous
 62
     7
100
AcDbCircle
 10
337.0678038124
 20
367.5068333292
 30
0.0
 40
0.5000000000000049
100
AcDbArc
 50
358.5
 51
90.0
  0
LINE
  5
185
330
14B
100
AcDbEntity
  8
$DDT_AUDIT_GENERATED_(60)
  6
Continuous
 62
     7
100
AcDbLine
 10
316.0812532251
 20
396.4818333292
 30
0.0
 11
340.3310681695
 21
396.4818333292
 31
0.0
  0
LINE
  5
186
330
14B
100
AcDbEntity
  8
$DDT_AUDIT_GENERATED_(60)
  6
Continuous
 62
     7
100
AcDbLine
 10
316.0812532251
 20
396.4818333292
 30
0.0
 11
310.8396914233
 21
396.4818333292
 31
0.0
  0
LINE
  5
187
330
14B
100
AcDbEntity
  8
$DDT_AUDIT_GENERATED_(60)
  6
Continuous
 62
     7
100
AcDbLine
 10
310.8396914233
 20
396.4818333292
 30
0.0
 11
260.3310681695
 21
396.4818333292
 31
0.0
  0
LINE
  5
188
330
14B
100
AcDbEntity
  8
$DDT_AUDIT_GENERATED_(60)
  6
Continuous
 62
     7
100
AcDbLine
 10
260.3310681695
 20
396.4818333292
 30
0.0
 11
260.3310681695
 21
396.9818333292
 31
0.0
  0
LINE
  5
189
330
14B
100
AcDbEntity
  8
$DDT_AUDIT_GENERATED_(60)
  6
Continuous
 62
     7
100
AcDbLine
 10
260.3310681695
 20
444.4818333292
 30
0.0
 11
310.8396914233
 21
444.4818333292
 31
0.0
  0
LINE
  5
18A
330
14B
100
AcDbEntity
  8
$DDT_AUDIT_GENERATED_(60)
  6
Continuous
 62
     7
100
AcDbLine
 10
310.8396914233
 20
444.4818333292
 30
0.0
 11
316.0812532251
 21
444.4818333292
 31
0.0
  0
LINE
  5
18B
330
14B
100
AcDbEntity
  8
$DDT_AUDIT_GENERATED_(60)
  6
Continuous
 62
     7
100
AcDbLine
 10
316.0812532251
 20
444.4818333292
 30
0.0
 11
340.3310681695
 21
444.4818333292
 31
0.0
  0
LINE
  5
18C
330
14B
100
AcDbEntity
  8
$DDT_AUDIT_GENERATED_(60)
  6
Continuous
 62
     7
100
AcDbLine
 10
260.3310681695
 20
443.9818333292
 30
0.0
 11
260.3310681695
 21
396.9818333292
 31
0.0
  0
LINE
  5
18D
330
14B
100
AcDbEntity
  8
$DDT_AUDIT_GENERATED_(60)
  6
Continuous
 62
     7
100
AcDbLine
 10
260.3310681695
 20
443.9818333292
 30
0.0
 11
260.3310681695
 21
444.4818333292
 31
0.0
  0
LINE
  5
18E
330
14B
100
AcDbEntity
  8
$DDT_AUDIT_GENERATED_(60)
  6
Continuous
 62
     7
100
AcDbLine
 10
310.8396914233
 20
443.9818333292
 30
0.0
 11
310.8396914233
 21
396.9818333292
 31
0.0
  0
LINE
  5
18F
330
14B
100
AcDbEntity
  8
$DDT_AUDIT_GENERATED_(60)
  6
Continuous
 62
     7
100
AcDbLine
 10
340.8310681695
 20
396.9818333292
 30
0.0
 11
340.8310681695
 21
443.9818333292
 31
0.0
  0
ARC
  5
190
330
14B
100
AcDbEntity
  8
$DDT_AUDIT_GENERATED_(60)
  6
Continuous
 62
     7
100
AcDbCircle
 10
340.3310681695
 20
396.9818333292
 30
0.0
 40
0.500000000000056
100
AcDbArc
 50
270.0
 51
0.0
  0
ARC
  5
191
330
14B
100
AcDbEntity
  8
$DDT_AUDIT_GENERATED_(60)
  6
Continuous
 62
     7
100
AcDbCircle
 10
340.3310681695
 20
443.9818333292
 30
0.0
 40
0.5000000000000004
100
AcDbArc
 50
0.0
 51
90.0
  0
LINE
  5
192
330
14B
100
AcDbEntity
  8
$DDT_AUDIT_GENERATED_(C8)
  6
Continuous
 62
     7
100
AcDbLine
 10
313.1443905912
 20
1370.4250190533
 30
0.0
 11
337.5177457477
 21
1370.4250190533
 31
0.0
  0
ARC
  5
193
330
14B
100
AcDbEntity
  8
$DDT_AUDIT_GENERATED_(C8)
  6
Continuous
 62
     7
100
AcDbCircle
 10
325.3310681695
 20
1349.1655998219
 30
0.0
 40
24.99999999999996
100
AcDbArc
 50
62.2168909071
 51
117.7831090929
  0
LINE
  5
194
330
14B
100
AcDbEntity
  8
$DDT_AUDIT_GENERATED_(C8)
  6
Continuous
 62
     7
100
AcDbLine
 10
337.5676324749
 20
1368.5199218034
 30
0.0
 11
337.5177457477
 21
1370.4250190533
 31
0.0
  0
LINE
  5
195
330
14B
100
AcDbEntity
  8
$DDT_AUDIT_GENERATED_(C8)
  6
Continuous
 62
     7
100
AcDbLine
 10
313.1443905912
 20
1370.4250190533
 30
0.0
 11
313.094503864
 21
1368.5199218034
 31
0.0
  0
ARC
  5
196
330
14B
100
AcDbEntity
  8
$DDT_AUDIT_GENERATED_(C8)
  6
Continuous
 62
     7
100
AcDbCircle
 10
336.5180884228
 20
1370.398842105
 30
0.0
 40
0.99999999999999
100
AcDbArc
 50
1.5
 51
62.2168909071
  0
ARC
  5
197
330
14B
100
AcDbEntity
  8
$DDT_AUDIT_GENERATED_(C8)
  6
Continuous
 62
     7
100
AcDbCircle
 10
314.1440479161
 20
1370.398842105
 30
0.0
 40
1.000000000000081
100
AcDbArc
 50
117.7831090929
 51
178.5
  0
ARC
  5
198
330
14B
100
AcDbEntity
  8
$DDT_AUDIT_GENERATED_(C8)
  6
Continuous
 62
     7
100
AcDbCircle
 10
337.0678038124
 20
1368.5068333292
 30
0.0
 40
0.5000000000000004
100
AcDbArc
 50
270.0
 51
1.5
  0
ARC
  5
199
330
14B
100
AcDbEntity
  8
$DDT_AUDIT_GENERATED_(C8)
  6
Continuous
 62
     7
100
AcDbCircle
 10
313.5943325265
 20
1368.5068333292
 30
0.0
 40
0.5000000000000034
100
AcDbArc
 50
178.5
 51
270.0
  0
SPLINE
  5
19A
330
14B
100
AcDbEntity
  8
$DDT_AUDIT_GENERATED_(E1)
  6
Continuous
 62
     7
100
AcDbSpline
210
0.0
220
0.0
230
1.0
 70
     8
 71
     3
 72
    26
 73
    22
 74
     0
 42
0.0000000001105721
 43
0.0000000001
 40
0.2834697271069146
 40
0.2834697271069146
 40
0.2834697271069146
 40
0.2834697271069146
 40
0.3124999999999999
 40
0.3124999999999999
 40
0.3437499999999999
 40
0.3437499999999999
 40
0.3749999999999999
 40
0.3749999999999999
 40
0.4374999999999998
 40
0.4374999999999998
 40
0.4999999999999998
 40
0.4999999999999998
 40
0.5312499999999998
 40
0.5312499999999998
 40
0.5624999999999997
 40
0.5624999999999997
 40
0.6249999999999998
 40
0.6249999999999998
 40
0.6874999999999998
 40
0.6874999999999998
 40
0.719218525773278
 40
0.719218525773278
 40
0.719218525773278
 40
0.719218525773278
 10
345.7478292337198
 20
1058.795014406836
 30
0.0
 10
345.8941926156522
 20
1058.99450536789
 30
0.0
 10
346.1101936419979
 20
1059.276386155667
 30
0.0
 10
346.6944584812141
 20
1060.020573766163
 30
0.0
 10
347.071691062854
 20
1060.493254186498
 30
0.0
 10
347.9763548291084
 20
1061.616401726111
 30
0.0
 10
348.5089030580197
 20
1062.273807268558
 30
0.0
 10
350.2798895162323
 20
1064.446067378086
 30
0.0
 10
351.6758550941025
 20
1066.140473051681
 30
0.0
 10
354.7685731343208
 20
1069.864411462894
 30
0.0
 10
356.4601934732796
 20
1071.893786333279
 30
0.0
 10
359.0000223629748
 20
1074.919934103228
 30
0.0
 10
359.8380721232458
 20
1075.91624584649
 30
0.0
 10
361.4985529201365
 20
1077.884959557622
 30
0.0
 10
362.3217599249762
 20
1078.857570431699
 30
0.0
 10
364.6909345857235
 20
1081.651056106583
 30
0.0
 10
366.1511641859469
 20
1083.360432550729
 30
0.0
 10
368.6000443664448
 20
1086.199545275231
 30
0.0
 10
369.589128670641
 20
1087.333258646419
 30
0.0
 10
370.623690539773
 20
1088.490046435496
 30
0.0
 10
370.8925492917044
 20
1088.783747746497
 30
0.0
 10
371.0784024851691
 20
1088.977963037279
 30
0.0
  0
ARC
  5
19B
330
14B
100
AcDbEntity
  8
$DDT_AUDIT_GENERATED_(E1)
  6
Continuous
 62
     7
100
AcDbCircle
 10
398.2054572785
 20
1034.8253246739
 30
0.0
 40
56.19947373792721
100
AcDbArc
 50
140.0715404034
 51
140.4119576294
  0
ARC
  5
19C
330
14B
100
AcDbEntity
  8
$DDT_AUDIT_GENERATED_(E1)
  6
Continuous
 62
     7
100
AcDbCircle
 10
362.929167834
 20
1064.3575310644
 30
0.0
 40
10.19903539862246
100
AcDbArc
 50
140.4469398106
 51
141.9774518268
  0
SPLINE
  5
19D
330
14B
100
AcDbEntity
  8
$DDT_AUDIT_GENERATED_(E1)
  6
Continuous
 62
     7
100
AcDbSpline
210
0.0
220
0.0
230
1.0
 70
     8
 71
     3
 72
    10
 73
     6
 74
     0
 42
0.000000003369838
 43
0.0000000001
 40
0.8361532711156638
 40
0.8361532711156638
 40
0.8361532711156638
 40
0.8361532711156638
 40
0.875
 40
0.875
 40
1.0
 40
1.0
 40
1.0
 40
1.0
 10
355.411417149602
 20
1071.276654404748
 30
0.0
 10
355.4085093693191
 20
1071.273097672032
 30
0.0
 10
355.3988222294204
 20
1071.261039111166
 30
0.0
 10
355.3258707681991
 20
1071.170038468486
 30
0.0
 10
355.2146622373533
 20
1071.030553022294
 30
0.0
 10
355.1090908907027
 20
1070.895867400375
 30
0.0
  0
LINE
  5
19E
330
14B
100
AcDbEntity
  8
$DDT_AUDIT_GENERATED_(E1)
  6
Continuous
 62
     7
100
AcDbLine
 10
356.1505506863
 20
1072.1771927266
 30
0.0
 11
356.0523869703
 21
1072.0547302124
 31
0.0
  0
ARC
  5
19F
330
14B
100
AcDbEntity
  8
$DDT_AUDIT_GENERATED_(E1)
  6
Continuous
 62
     7
100
AcDbCircle
 10
376.7357857525
 20
1055.4927106667
 30
0.0
 40
26.4972352636153
100
AcDbArc
 50
141.3143568718
 51
142.7052555359
  0
LINE
  5
1A0
330
14B
100
AcDbEntity
  8
$DDT_AUDIT_GENERATED_(E1)
  6
Continuous
 62
     7
100
AcDbLine
 10
355.6564650205
 20
1071.5477944128
 30
0.0
 11
355.5414043104
 21
1071.4100674763
 31
0.0
  0
LINE
  5
1A1
330
14B
100
AcDbEntity
  8
$DDT_AUDIT_GENERATED_(E1)
  6
Continuous
 62
     7
100
AcDbLine
 10
355.5414043104
 20
1071.4100674763
 30
0.0
 11
355.5039135348
 21
1071.3652515927
 31
0.0
  0
LINE
  5
1A2
330
14B
100
AcDbEntity
  8
$DDT_AUDIT_GENERATED_(E1)
  6
Continuous
 62
     7
100
AcDbLine
 10
355.5039135348
 20
1071.3652515927
 30
0.0
 11
355.4856943973
 21
1071.3434852824
 31
0.0
  0
LINE
  5
1A3
330
14B
100
AcDbEntity
  8
$DDT_AUDIT_GENERATED_(E1)
  6
Continuous
 62
     7
100
AcDbLine
 10
355.4856943973
 20
1071.3434852824
 30
0.0
 11
355.4678435033
 21
1071.3221675378
 31
0.0
  0
LINE
  5
1A4
330
14B
100
AcDbEntity
  8
$DDT_AUDIT_GENERATED_(E1)
  6
Continuous
 62
     7
100
AcDbLine
 10
355.4678435033
 20
1071.3221675378
 30
0.0
 11
355.4503720219
 21
1071.3013116935
 31
0.0
  0
LINE
  5
1A5
330
14B
100
AcDbEntity
  8
$DDT_AUDIT_GENERATED_(E1)
  6
Continuous
 62
     7
100
AcDbLine
 10
355.4503720219
 20
1071.3013116935
 30
0.0
 11
355.433279662
 21
1071.2809173972
 31
0.0
  0
LINE
  5
1A6
330
14B
100
AcDbEntity
  8
$DDT_AUDIT_GENERATED_(E1)
  6
Continuous
 62
     7
100
AcDbLine
 10
355.433279662
 20
1071.2809173972
 30
0.0
 11
355.4165873555
 21
1071.2610096114
 31
0.0
  0
LINE
  5
1A7
330
14B
100
AcDbEntity
  8
$DDT_AUDIT_GENERATED_(E1)
  6
Continuous
 62
     7
100
AcDbLine
 10
355.4165873555
 20
1071.2610096114
 30
0.0
 11
355.3817015152
 21
1071.2194358995
 31
0.0
  0
ARC
  5
1A8
330
14B
100
AcDbEntity
  8
$DDT_AUDIT_GENERATED_(E1)
  6
Continuous
 62
     7
100
AcDbCircle
 10
376.7752613176
 20
1054.7903911129
 30
0.0
 40
26.97402294093981
100
AcDbArc
 50
141.3701012004
 51
142.4777743319
  0
LINE
  5
1A9
330
14B
100
AcDbEntity
  8
$DDT_AUDIT_GENERATED_(E1)
  6
Continuous
 62
     7
100
AcDbLine
 10
355.8194380365
 20
1071.774650239
 30
0.0
 11
355.8329800055
 21
1071.7912073247
 31
0.0
  0
ARC
  5
1AA
330
14B
100
AcDbEntity
  8
$DDT_AUDIT_GENERATED_(E1)
  6
Continuous
 62
     7
100
AcDbCircle
 10
361.389675834
 20
1068.4607748824
 30
0.0
 40
6.413410146307339
100
AcDbArc
 50
137.8528102539
 51
146.1422902425
  0
SPLINE
  5
1AB
330
14B
100
AcDbEntity
  8
$DDT_AUDIT_GENERATED_(E1)
  6
Continuous
 62
     7
100
AcDbSpline
210
0.0
220
0.0
230
1.0
 70
     8
 71
     3
 72
    14
 73
    10
 74
     0
 42
0.0000000025856939
 43
0.0000000001
 40
0.7291218060622346
 40
0.7291218060622346
 40
0.7291218060622346
 40
0.7291218060622346
 40
0.7499999999999998
 40
0.7499999999999998
 40
0.8749999999999998
 40
0.8749999999999998
 40
0.9374999999999999
 40
0.9374999999999999
 40
1.0
 40
1.0
 40
1.0
 40
1.0
 10
356.9856956877638
 20
1073.18767968093
 30
0.0
 10
356.9844439580193
 20
1073.186172560034
 30
0.0
 10
356.9789723464203
 20
1073.179469758254
 30
0.0
 10
356.908578291672
 20
1073.093114490592
 30
0.0
 10
356.7232711176793
 20
1072.864654852985
 30
0.0
 10
356.5116521692947
 20
1072.595547012282
 30
0.0
 10
356.4507266621483
 20
1072.516390346216
 30
0.0
 10
356.4004279898575
 20
1072.442138082386
 30
0.0
 10
356.430057939182
 20
1072.470060341988
 30
0.0
 10
356.4716664898293
 20
1072.511582292707
 30
0.0
  0
ARC
  5
1AC
330
14B
100
AcDbEntity
  8
$DDT_AUDIT_GENERATED_(E1)
  6
Continuous
 62
     7
100
AcDbCircle
 10
192.8281244864
 20
1209.8205801285
 30
0.0
 40
213.6187485359914
100
AcDbArc
 50
319.837222715
 51
320.0008707397
  0
ARC
  5
1AD
330
14B
100
AcDbEntity
  8
$DDT_AUDIT_GENERATED_(E1)
  6
Continuous
 62
     7
100
AcDbCircle
 10
586.5015612732
 20
882.399712726
 30
0.0
 40
298.4234950788188
100
AcDbArc
 50
139.7696314112
 51
139.9202037692
  0
ARC
  5
1AE
330
14B
100
AcDbEntity
  8
$DDT_AUDIT_GENERATED_(E1)
  6
Continuous
 62
     7
100
AcDbCircle
 10
585.8742485604
 20
882.9426306266
 30
0.0
 40
297.6090680539563
100
AcDbArc
 50
139.9199975677
 51
140.0308315157
  0
ARC
  5
1AF
330
14B
100
AcDbEntity
  8
$DDT_AUDIT_GENERATED_(E1)
  6
Continuous
 62
     7
100
AcDbCircle
 10
357.9452637813
 20
1074.1369579113
 30
0.0
 40
0.1566885017521677
100
AcDbArc
 50
186.4541684207
 51
196.6993702295
  0
ARC
  5
1B0
330
14B
100
AcDbEntity
  8
$DDT_AUDIT_GENERATED_(E1)
  6
Continuous
 62
     7
100
AcDbCircle
 10
586.647133968
 20
882.271537055
 30
0.0
 40
298.6105820423568
100
AcDbArc
 50
140.0307477975
 51
140.1848998608
  0
ARC
  5
1B1
330
14B
100
AcDbEntity
  8
$DDT_AUDIT_GENERATED_(E1)
  6
Continuous
 62
     7
100
AcDbCircle
 10
359.558431694
 20
1076.0794374028
 30
0.0
 40
0.1211801627901114
100
AcDbArc
 50
177.9292035597
 51
196.3850370071
  0
ARC
  5
1B2
330
14B
100
AcDbEntity
  8
$DDT_AUDIT_GENERATED_(E1)
  6
Continuous
 62
     7
100
AcDbCircle
 10
586.8233988886
 20
882.1245754244
 30
0.0
 40
298.8435231526676
100
AcDbArc
 50
139.5410009539
 51
139.6950383402
  0
LINE
  5
1B3
330
14B
100
AcDbEntity
  8
$DDT_AUDIT_GENERATED_(E1)
  6
Continuous
 62
     7
100
AcDbLine
 10
358.9171622971
 20
1075.4566273182
 30
0.0
 11
358.6655465208
 21
1075.1595998925
 31
0.0
  0
ARC
  5
1B4
330
14B
100
AcDbEntity
  8
$DDT_AUDIT_GENERATED_(E1)
  6
Continuous
 62
     7
100
AcDbCircle
 10
358.8075408837
 20
1075.1749902845
 30
0.0
 40
0.1428259893862451
100
AcDbArc
 50
186.1859889111
 51
194.0827635969
  0
ARC
  5
1B5
330
14B
100
AcDbEntity
  8
$DDT_AUDIT_GENERATED_(E1)
  6
Continuous
 62
     7
100
AcDbCircle
 10
584.8072027268
 20
883.8629720479
 30
0.0
 40
296.2150672878054
100
AcDbArc
 50
139.5372204944
 51
140.1863717402
  0
ARC
  5
1B6
330
14B
100
AcDbEntity
  8
$DDT_AUDIT_GENERATED_(E1)
  6
Continuous
 62
     7
100
AcDbCircle
 10
357.3211438231
 20
1073.5177625284
 30
0.0
 40
0.0469554762886795
100
AcDbArc
 50
153.3610022677
 51
168.3611349724
  0
ARC
  5
1B7
330
14B
100
AcDbEntity
  8
$DDT_AUDIT_GENERATED_(E1)
  6
Continuous
 62
     7
100
AcDbCircle
 10
583.378136778
 20
885.0767184895
 30
0.0
 40
294.3445322972997
100
AcDbArc
 50
139.926513201
 51
140.1875061791
  0
ARC
  5
1B8
330
14B
100
AcDbEntity
  8
$DDT_AUDIT_GENERATED_(E1)
  6
Continuous
 62
     7
100
AcDbCircle
 10
358.1745158815
 20
1074.5493570252
 30
0.0
 40
0.0386680156859835
100
AcDbArc
 50
132.2126352771
 51
140.0479488552
  0
ARC
  5
1B9
330
14B
100
AcDbEntity
  8
$DDT_AUDIT_GENERATED_(E1)
  6
Continuous
 62
     7
100
AcDbCircle
 10
579.1109361565
 20
888.6919185205
 30
0.0
 40
288.7492699335799
100
AcDbArc
 50
139.7658882309
 51
139.9234162782
  0
ARC
  5
1BA
330
14B
100
AcDbEntity
  8
$DDT_AUDIT_GENERATED_(E1)
  6
Continuous
 62
     7
100
AcDbCircle
 10
358.723385791
 20
1075.1999956821
 30
0.0
 40
0.038568566436828
100
AcDbArc
 50
139.8977651538
 51
153.1467567706
  0
ARC
  5
1BB
330
14B
100
AcDbEntity
  8
$DDT_AUDIT_GENERATED_(E1)
  6
Continuous
 62
     7
100
AcDbCircle
 10
359.4842438317
 20
1076.0833885828
 30
0.0
 40
0.0466505157922474
100
AcDbArc
 50
153.1405055426
 51
168.2282068671
  0
SPLINE
  5
1BC
330
14B
100
AcDbEntity
  8
$DDT_AUDIT_GENERATED_(E1)
  6
Continuous
 62
     7
100
AcDbSpline
210
0.0
220
0.0
230
1.0
 70
     8
 71
     3
 72
    24
 73
    20
 74
     0
 42
0.0000000001072584
 43
0.0000000001
 40
0.2797660323352403
 40
0.2797660323352403
 40
0.2797660323352403
 40
0.2797660323352403
 40
0.3125000000000002
 40
0.3125000000000002
 40
0.3750000000000002
 40
0.3750000000000002
 40
0.4375000000000002
 40
0.4375000000000002
 40
0.5000000000000002
 40
0.5000000000000002
 40
0.5625000000000001
 40
0.5625000000000001
 40
0.6250000000000001
 40
0.6250000000000001
 40
0.65625
 40
0.65625
 40
0.6874999999999999
 40
0.6874999999999999
 40
0.7181953692765504
 40
0.7181953692765504
 40
0.7181953692765504
 40
0.7181953692765504
 10
371.5880466049141
 20
1089.509016635701
 30
0.0
 10
371.3964162212148
 20
1089.309803648213
 30
0.0
 10
371.1132947295115
 20
1089.000956956647
 30
0.0
 10
370.0355802056388
 20
1087.796248658572
 30
0.0
 10
369.0165052895692
 20
1086.628603291006
 30
0.0
 10
366.468741251594
 20
1083.674646714053
 30
0.0
 10
364.9658640179506
 20
1081.915299665025
 30
0.0
 10
361.7332463475622
 20
1078.104342686375
 30
0.0
 10
359.9620427827966
 20
1076.005103565297
 30
0.0
 10
356.4556953613903
 20
1071.82739617714
 30
0.0
 10
354.7087064382674
 20
1069.732139716984
 30
0.0
 10
351.501854969584
 20
1065.87038062169
 30
0.0
 10
350.0324800730816
 20
1064.086933140916
 30
0.0
 10
348.2190765512121
 20
1061.863436692896
 30
0.0
 10
347.6755115807712
 20
1061.192813117323
 30
0.0
 10
346.7291647577312
 20
1060.018159943596
 30
0.0
 10
346.3328313571455
 20
1059.521642351785
 30
0.0
 10
345.7042072683138
 20
1058.72141783033
 30
0.0
 10
345.4687148664102
 20
1058.413902625243
 30
0.0
 10
345.3142856190505
 20
1058.202353871721
 30
0.0
  0
ELLIPSE
  5
1BD
330
14B
100
AcDbEntity
  8
$DDT_AUDIT_GENERATED_(E1)
  6
Continuous
 62
     7
100
AcDbEllipse
 10
361.8938514229
 20
1070.9636590365
 30
0.0
 11
-35.76868960650505
 21
-42.62097197164933
 31
0.0
210
0.0
220
0.0
230
1.0
 40
0.013369319
 41
3.213216963205594
 42
5.43992241741712
  0
ELLIPSE
  5
1BE
330
14B
100
AcDbEntity
  8
$DDT_AUDIT_GENERATED_(E1)
  6
Continuous
 62
     7
100
AcDbEllipse
 10
370.2440855323
 20
1063.9559133614
 30
0.0
 11
-37.44406250791284
 21
-44.61729954916227
 31
0.0
210
0.0
220
0.0
230
0.9999999999999999
 40
0.013369319
 41
3.217048778382524
 42
3.380371469027855
  0
ELLIPSE
  5
1BF
330
14B
100
AcDbEntity
  8
$DDT_AUDIT_GENERATED_(E1)
  6
Continuous
 62
     7
100
AcDbEllipse
 10
370.8194273708
 20
1063.4730706977
 30
0.0
 11
-40.09174061782709
 21
-47.77219886904344
 31
0.0
210
0.0
220
0.0
230
1.0
 40
0.013369319
 41
3.184927592657881
 42
5.669247502392209
  0
ARC
  5
1C0
330
14B
100
AcDbEntity
  8
$DDT_AUDIT_GENERATED_(E1)
  6
Continuous
 62
     7
100
AcDbCircle
 10
340.9211349509
 20
1007.0001804595
 30
0.0
 40
0.6998161886549484
100
AcDbArc
 50
268.712332325
 51
301.0220670866
  0
ELLIPSE
  5
1C1
330
14B
100
AcDbEntity
  8
$DDT_AUDIT_GENERATED_(E1)
  6
Continuous
 62
     7
100
AcDbEllipse
 10
1747.5028587745
 20
2637.5541920291
 30
0.0
 11
-2221.287912118541
 21
211.7046978897887
 31
0.0
210
0.0
220
0.0
230
0.9999999999999998
 40
0.9474302294
 41
0.9765694874176549
 42
0.9790957184695099
  0
ARC
  5
1C2
330
14B
100
AcDbEntity
  8
$DDT_AUDIT_GENERATED_(E1)
  6
Continuous
 62
     7
100
AcDbCircle
 10
325.4236359498
 20
1024.4141003867
 30
0.0
 40
23.99942578549349
100
AcDbArc
 50
311.3588152832
 51
311.4692725529
  0
LINE
  5
1C3
330
14B
100
AcDbEntity
  8
$DDT_AUDIT_GENERATED_(E1)
  6
Continuous
 62
     7
100
AcDbLine
 10
343.1168164307
 20
1009.0119359009
 30
0.0
 11
342.910507614
 21
1008.8815250433
 31
0.0
  0
ARC
  5
1C4
330
14B
100
AcDbEntity
  8
$DDT_AUDIT_GENERATED_(E1)
  6
Continuous
 62
     7
100
AcDbCircle
 10
342.4969467209
 20
1009.5095330808
 30
0.0
 40
0.7519486402849207
100
AcDbArc
 50
233.6687165809
 51
303.3660249051
  0
LINE
  5
1C5
330
14B
100
AcDbEntity
  8
$DDT_AUDIT_GENERATED_(E1)
  6
Continuous
 62
     7
100
AcDbLine
 10
312.5232262117
 20
890.0068333292
 30
0.0
 11
312.9810681695
 21
890.0068333292
 31
0.0
  0
LINE
  5
1C6
330
14B
100
AcDbEntity
  8
$DDT_AUDIT_GENERATED_(E1)
  6
Continuous
 62
     7
100
AcDbLine
 10
337.6810681695
 20
890.0068333292
 30
0.0
 11
338.1389101272
 21
890.0068333292
 31
0.0
  0
LINE
  5
1C7
330
14B
100
AcDbEntity
  8
$DDT_AUDIT_GENERATED_(E1)
  6
Continuous
 62
     7
100
AcDbLine
 10
311.3310681695
 20
902.0068333292
 30
0.0
 11
312.9810681695
 21
902.0068333292
 31
0.0
  0
LINE
  5
1C8
330
14B
100
AcDbEntity
  8
$DDT_AUDIT_GENERATED_(E1)
  6
Continuous
 62
     7
100
AcDbLine
 10
337.6810681695
 20
902.0068333292
 30
0.0
 11
339.3310681695
 21
902.0068333292
 31
0.0
  0
ARC
  5
1C9
330
14B
100
AcDbEntity
  8
$DDT_AUDIT_GENERATED_(E1)
  6
Continuous
 62
     7
100
AcDbCircle
 10
340.894265656
 20
1005.8006316099
 30
0.0
 40
0.500027721134752
100
AcDbArc
 50
88.7230952623
 51
156.7532826191
  0
ELLIPSE
  5
1CA
330
14B
100
AcDbEntity
  8
$DDT_AUDIT_GENERATED_(E1)
  6
Continuous
 62
     7
100
AcDbEllipse
 10
345.0280677504
 20
1004.0242179349
 30
0.0
 11
0.0
 21
4.999357134782556
 31
0.0
210
0.0
220
0.0
230
1.0
 40
1.0
 41
1.164940937908527
 42
1.570796326794897
  0
SPLINE
  5
1CB
330
14B
100
AcDbEntity
  8
$DDT_AUDIT_GENERATED_(E1)
  6
Continuous
 62
     7
100
AcDbSpline
210
0.0
220
0.0
230
1.0
 70
     8
 71
     3
 72
    12
 73
     8
 74
     0
 42
0.0000000006938388
 43
0.0000000001
 40
0.5178817595908933
 40
0.5178817595908933
 40
0.5178817595908933
 40
0.5178817595908933
 40
0.6249999999999993
 40
0.6249999999999993
 40
0.7499999999999992
 40
0.7499999999999992
 40
0.8633819336734706
 40
0.8633819336734706
 40
0.8633819336734706
 40
0.8633819336734706
 10
310.7516741294047
 20
997.85406502967
 30
0.0
 10
310.7701613614711
 20
997.9169256962368
 30
0.0
 10
310.8851698392016
 20
998.1534301842183
 30
0.0
 10
311.2942318937306
 20
998.9615919854169
 30
0.0
 10
311.6055859252533
 20
999.5662993465801
 30
0.0
 10
312.2759413190456
 20
1000.888602885648
 30
0.0
 10
312.6197058669817
 20
1001.575095614162
 30
0.0
 10
312.978694469201
 20
1002.306569442126
 30
0.0
  0
ARC
  5
1CC
330
14B
100
AcDbEntity
  8
$DDT_AUDIT_GENERATED_(E1)
  6
Continuous
 62
     7
100
AcDbCircle
 10
358.7658096517
 20
1075.152065104
 30
0.0
 40
0.1008677147078743
100
AcDbArc
 50
139.616490892
 51
158.1522799221
  0
ARC
  5
1CD
330
14B
100
AcDbEntity
  8
$DDT_AUDIT_GENERATED_(E1)
  6
Continuous
 62
     7
100
AcDbCircle
 10
357.3552307594
 20
1073.4742274759
 30
0.0
 40
0.0997821860526031
100
AcDbArc
 50
123.6637045701
 51
139.6621431043
  0
ARC
  5
1CE
330
14B
100
AcDbEntity
  8
$DDT_AUDIT_GENERATED_(E1)
  6
Continuous
 62
     7
100
AcDbCircle
 10
358.2258621789
 20
1074.5134566368
 30
0.0
 40
0.100721626182118
100
AcDbArc
 50
121.0552542896
 51
140.1502156384
  0
ARC
  5
1CF
330
14B
100
AcDbEntity
  8
$DDT_AUDIT_GENERATED_(E1)
  6
Continuous
 62
     7
100
AcDbCircle
 10
357.8642595504
 20
1074.0557464038
 30
0.0
 40
0.098099598132671
100
AcDbArc
 50
139.5861163547
 51
178.158594533
  0
ARC
  5
1D0
330
14B
100
AcDbEntity
  8
$DDT_AUDIT_GENERATED_(E1)
  6
Continuous
 62
     7
100
AcDbCircle
 10
358.2369395023
 20
1074.4978175284
 30
0.0
 40
0.0991977517033423
100
AcDbArc
 50
110.0771034846
 51
141.0348478755
  0
ARC
  5
1D1
330
14B
100
AcDbEntity
  8
$DDT_AUDIT_GENERATED_(E1)
  6
Continuous
 62
     7
100
AcDbCircle
 10
357.3500666932
 20
1073.4525887109
 30
0.0
 40
0.1004667602587766
100
AcDbArc
 50
93.9696728788
 51
139.2759236617
  0
ARC
  5
1D2
330
14B
100
AcDbEntity
  8
$DDT_AUDIT_GENERATED_(E1)
  6
Continuous
 62
     7
100
AcDbCircle
 10
358.7399466471
 20
1075.0956549948
 30
0.0
 40
0.0981036631404532
100
AcDbArc
 50
139.3218317545
 51
169.9800896193
  0
ARC
  5
1D3
330
14B
100
AcDbEntity
  8
$DDT_AUDIT_GENERATED_(E1)
  6
Continuous
 62
     7
100
AcDbCircle
 10
358.9940424434
 20
1075.3939462328
 30
0.0
 40
0.0991941297299088
100
AcDbArc
 50
105.7805349702
 51
140.8093247116
  0
ARC
  5
1D4
330
14B
100
AcDbEntity
  8
$DDT_AUDIT_GENERATED_(E1)
  6
Continuous
 62
     7
100
AcDbCircle
 10
356.1977807774
 20
1072.0363378828
 30
0.0
 40
0.0999762701761801
100
AcDbArc
 50
125.2660694791
 51
140.5723639232
  0
ELLIPSE
  5
1D5
330
14B
100
AcDbEntity
  8
$DDT_AUDIT_GENERATED_(E1)
  6
Continuous
 62
     7
100
AcDbEllipse
 10
381.6771213278
 20
1054.3609958898
 30
0.0
 11
-40.08607423633541
 21
-47.76544696704777
 31
0.0
210
0.0
220
0.0
230
0.9999999999999999
 40
0.013369319
 41
6.280084010940821
 42
6.283185307179586
  0
ELLIPSE
  5
1D6
330
14B
100
AcDbEntity
  8
$DDT_AUDIT_GENERATED_(E1)
  6
Continuous
 62
     7
100
AcDbEllipse
 10
381.6771213278
 20
1054.3609958898
 30
0.0
 11
-40.08607423633541
 21
-47.76544696704777
 31
0.0
210
0.0
220
0.0
230
0.9999999999999999
 40
0.013369319
 41
3.142812122204648
 42
6.280084010940821
  0
ELLIPSE
  5
1D7
330
14B
100
AcDbEntity
  8
$DDT_AUDIT_GENERATED_(E1)
  6
Continuous
 62
     7
100
AcDbEllipse
 10
381.6771213278
 20
1054.3609958898
 30
0.0
 11
-40.08607423633541
 21
-47.76544696704777
 31
0.0
210
0.0
220
0.0
230
0.9999999999999999
 40
0.013369319
 41
3.132475809335107
 42
3.142812122204648
  0
ELLIPSE
  5
1D8
330
14B
100
AcDbEntity
  8
$DDT_AUDIT_GENERATED_(E1)
  6
Continuous
 62
     7
100
AcDbEllipse
 10
381.6771213278
 20
1054.3609958898
 30
0.0
 11
-40.08607423633541
 21
-47.76544696704777
 31
0.0
210
0.0
220
0.0
230
0.9999999999999999
 40
0.013369319
 41
-3.316483246481747
 42
-3.150709497844479
  0
ELLIPSE
  5
1D9
330
14B
100
AcDbEntity
  8
$DDT_AUDIT_GENERATED_(E1)
  6
Continuous
 62
     7
100
AcDbEllipse
 10
381.6771213278
 20
1054.3609958898
 30
0.0
 11
-40.08607423633541
 21
-47.76544696704777
 31
0.0
210
0.0
220
0.0
230
0.9999999999999999
 40
0.013369319
 41
0.098922313225911
 42
0.1701297004683944
  0
ELLIPSE
  5
1DA
330
14B
100
AcDbEntity
  8
$DDT_AUDIT_GENERATED_(E1)
  6
Continuous
 62
     7
100
AcDbEllipse
 10
381.6771213278
 20
1054.3609958898
 30
0.0
 11
-40.08607423633541
 21
-47.76544696704777
 31
0.0
210
0.0
220
0.0
230
0.9999999999999999
 40
0.013369319
 41
0.0048078229540664
 42
0.0390506734509853
  0
ELLIPSE
  5
1DB
330
14B
100
AcDbEntity
  8
$DDT_AUDIT_GENERATED_(E1)
  6
Continuous
 62
     7
100
AcDbEllipse
 10
381.6771213278
 20
1054.3609958898
 30
0.0
 11
-40.08607423633541
 21
-47.76544696704777
 31
0.0
210
0.0
220
0.0
230
0.9999999999999999
 40
0.013369319
 41
0.0000000000001534
 42
0.0048078229540664
  0
ARC
  5
1DC
330
14B
100
AcDbEntity
  8
$DDT_AUDIT_GENERATED_(E1)
  6
Continuous
 62
     7
100
AcDbCircle
 10
584.0831141328
 20
884.3330352447
 30
0.0
 40
295.3608984161414
100
AcDbArc
 50
140.8487907807
 51
143.7843766227
  0
LINE
  5
1DD
330
14B
100
AcDbEntity
  8
$DDT_AUDIT_GENERATED_(E1)
  6
Continuous
 62
     7
100
AcDbLine
 10
355.489433882
 20
1071.3649495883
 30
0.0
 11
355.4072975111
 21
1071.2653088239
 31
0.0
  0
LINE
  5
1DE
330
14B
100
AcDbEntity
  8
$DDT_AUDIT_GENERATED_(E1)
  6
Continuous
 62
     7
100
AcDbLine
 10
356.1091633286
 20
1072.1167519283
 30
0.0
 11
355.8381433691
 21
1071.7879738771
 31
0.0
  0
LINE
  5
1DF
330
14B
100
AcDbEntity
  8
$DDT_AUDIT_GENERATED_(E1)
  6
Continuous
 62
     7
100
AcDbLine
 10
356.1564405367
 20
1072.1741045615
 30
0.0
 11
356.1091633286
 21
1072.1167519283
 31
0.0
  0
LINE
  5
1E0
330
14B
100
AcDbEntity
  8
$DDT_AUDIT_GENERATED_(E1)
  6
Continuous
 62
     7
100
AcDbLine
 10
356.6310842993
 20
1072.749901457
 30
0.0
 11
356.1564405367
 21
1072.1741045615
 31
0.0
  0
ARC
  5
1E1
330
14B
100
AcDbEntity
  8
$DDT_AUDIT_GENERATED_(E1)
  6
Continuous
 62
     7
100
AcDbCircle
 10
584.2352229925
 20
884.6394664952
 30
0.0
 40
295.2770741724245
100
AcDbArc
 50
136.2221289624
 51
139.6099322368
  0
ARC
  5
1E2
330
14B
100
AcDbEntity
  8
$DDT_AUDIT_GENERATED_(E1)
  6
Continuous
 62
     7
100
AcDbCircle
 10
589.971575336
 20
879.5834007352
 30
0.0
 40
302.9187586183678
100
AcDbArc
 50
143.856891061
 51
146.3956576752
  0
ARC
  5
1E3
330
14B
100
AcDbEntity
  8
$DDT_AUDIT_GENERATED_(E1)
  6
Continuous
 62
     7
100
AcDbCircle
 10
586.7179633734
 20
882.9055468341
 30
0.0
 40
298.2641730539464
100
AcDbArc
 50
129.3706667552
 51
136.1588854363
  0
LINE
  5
1E4
330
14B
100
AcDbEntity
  8
$DDT_AUDIT_GENERATED_(E1)
  6
Continuous
 62
     7
100
AcDbLine
 10
405.1455196656
 20
1108.5525370755
 30
0.0
 11
398.9265918809
 21
1113.5892817768
 31
0.0
  0
ARC
  5
1E5
330
14B
100
AcDbEntity
  8
$DDT_AUDIT_GENERATED_(E1)
  6
Continuous
 62
     7
100
AcDbCircle
 10
484.2854400162
 20
1019.9487715989
 30
0.0
 40
117.1469751056212
100
AcDbArc
 50
128.9195360366
 51
130.6627573786
  0
ARC
  5
1E6
330
14B
100
AcDbEntity
  8
$DDT_AUDIT_GENERATED_(E1)
  6
Continuous
 62
     7
100
AcDbCircle
 10
411.5204152481
 20
1110.4730727957
 30
0.0
 40
1.003074191755357
100
AcDbArc
 50
50.3842348818
 51
125.3178908852
  0
LINE
  5
1E7
330
14B
100
AcDbEntity
  8
$DDT_AUDIT_GENERATED_(E1)
  6
Continuous
 62
     7
100
AcDbLine
 10
421.7657463577
 20
1103.4818930787
 30
0.0
 11
412.1748316808
 21
1111.2496289883
 31
0.0
  0
LINE
  5
1E8
330
14B
100
AcDbEntity
  8
$DDT_AUDIT_GENERATED_(E1)
  6
Continuous
 62
     7
100
AcDbLine
 10
341.3449137697
 20
1006.4490309739
 30
0.0
 11
341.6635444816
 21
1006.6424954751
 31
0.0
  0
LINE
  5
1E9
330
14B
100
AcDbEntity
  8
$DDT_AUDIT_GENERATED_(E1)
  6
Continuous
 62
     7
100
AcDbLine
 10
421.7403189704
 20
1102.0284454458
 30
0.0
 11
421.9559002374
 21
1102.6067421577
 31
0.0
  0
SPLINE
  5
1EA
330
14B
100
AcDbEntity
  8
$DDT_AUDIT_GENERATED_(E1)
  6
Continuous
 62
     7
100
AcDbSpline
210
0.0
220
0.0
230
1.0
 70
     8
 71
     3
 72
    11
 73
     7
 74
     0
 42
0.000000013604162
 43
0.0000000001
 40
0.0
 40
0.0
 40
0.0
 40
0.0
 40
0.0318265008875752
 40
0.4285135641573184
 40
0.8166552640336864
 40
1.0
 40
1.0
 40
1.0
 40
1.0
 10
422.0259791636259
 20
1102.852013126344
 30
0.0
 10
422.0267224385464
 20
1102.855355699461
 30
0.0
 10
422.0349624620491
 20
1102.894519063198
 30
0.0
 10
422.032813349776
 20
1103.05837278739
 30
0.0
 10
421.9392482258692
 20
1103.338620743795
 30
0.0
 10
421.799200107099
 20
1103.432318127115
 30
0.0
 10
421.7462100039086
 20
1103.467850652681
 30
0.0
  0
ARC
  5
1EB
330
14B
100
AcDbEntity
  8
$DDT_AUDIT_GENERATED_(E1)
  6
Continuous
 62
     7
100
AcDbCircle
 10
338.1389101272
 20
891.0068333292
 30
0.0
 40
1.000000000000001
100
AcDbArc
 50
270.0
 51
359.0
  0
ARC
  5
1EC
330
14B
100
AcDbEntity
  8
$DDT_AUDIT_GENERATED_(E1)
  6
Continuous
 62
     7
100
AcDbCircle
 10
312.5232262117
 20
891.0068333292
 30
0.0
 40
1.000000000000056
100
AcDbArc
 50
181.0
 51
270.0
  0
LINE
  5
1ED
330
14B
100
AcDbEntity
  8
$DDT_AUDIT_GENERATED_(E1)
  6
Continuous
 62
     7
100
AcDbLine
 10
311.3310681695
 20
902.0068333292
 30
0.0
 11
311.5233785165
 21
890.9893809228
 31
0.0
  0
LINE
  5
1EE
330
14B
100
AcDbEntity
  8
$DDT_AUDIT_GENERATED_(E1)
  6
Continuous
 62
     7
100
AcDbLine
 10
339.1387578224
 20
890.9893809228
 30
0.0
 11
339.3310681695
 21
902.0068333292
 31
0.0
  0
ARC
  5
1EF
330
14B
100
AcDbEntity
  8
$DDT_AUDIT_GENERATED_(E1)
  6
Continuous
 62
     7
100
AcDbCircle
 10
339.0310681695
 20
902.9607725307
 30
0.0
 40
1.00000000001471
100
AcDbArc
 50
287.4576031205
 51
0.0
  0
ARC
  5
1F0
330
14B
100
AcDbEntity
  8
$DDT_AUDIT_GENERATED_(E1)
  6
Continuous
 62
     7
100
AcDbCircle
 10
311.6310681695
 20
902.9607725307
 30
0.0
 40
0.9999999999996817
100
AcDbArc
 50
180.0
 51
252.5423968795
  0
ARC
  5
1F1
330
14B
100
AcDbEntity
  8
$DDT_AUDIT_GENERATED_(E1)
  6
Continuous
 62
     7
100
AcDbCircle
 10
340.9088589748
 20
1005.7818120398
 30
0.0
 40
0.5187678291860254
100
AcDbArc
 50
90.5983805856
 51
156.5770569926
  0
ARC
  5
1F2
330
14B
100
AcDbEntity
  8
$DDT_AUDIT_GENERATED_(E1)
  6
Continuous
 62
     7
100
AcDbCircle
 10
243.391842495
 20
1035.9665097862
 30
0.0
 40
77.29802520316669
100
AcDbArc
 50
332.5415703818
 51
334.2139020911
  0
ARC
  5
1F3
330
14B
100
AcDbEntity
  8
$DDT_AUDIT_GENERATED_(E1)
  6
Continuous
 62
     7
100
AcDbCircle
 10
406.3966300692
 20
1110.039532832
 30
0.0
 40
1.931149368264687
100
AcDbArc
 50
229.5957365461
 51
300.4173813945
  0
ARC
  5
1F4
330
14B
100
AcDbEntity
  8
$DDT_AUDIT_GENERATED_(E1)
  6
Continuous
 62
     7
100
AcDbCircle
 10
311.3082900295
 20
997.4359958816
 30
0.0
 40
0.6727502904079098
100
AcDbArc
 50
160.466963117
 51
183.6829183632
  0
ARC
  5
1F5
330
14B
100
AcDbEntity
  8
$DDT_AUDIT_GENERATED_(E1)
  6
Continuous
 62
     7
100
AcDbCircle
 10
398.2718474531
 20
1112.8288716554
 30
0.0
 40
0.9875035741162725
100
AcDbArc
 50
50.2723746981
 51
124.4145105333
  0
LINE
  5
1F6
330
14B
100
AcDbEntity
  8
$DDT_AUDIT_GENERATED_(E1)
  6
Continuous
 62
     7
100
AcDbLine
 10
310.6310681695
 20
997.3929611656
 30
0.0
 11
310.6310681695
 21
902.9607725307
 31
0.0
  0
LINE
  5
1F7
330
14B
100
AcDbEntity
  8
$DDT_AUDIT_GENERATED_(E1)
  6
Continuous
 62
     7
100
AcDbLine
 10
340.0310681695
 20
914.096282748
 30
0.0
 11
340.0310681695
 21
1004.0251017374
 31
0.0
  0
LINE
  5
1F8
330
14B
100
AcDbEntity
  8
$DDT_AUDIT_GENERATED_(E1)
  6
Continuous
 62
     7
100
AcDbLine
 10
340.0310681695
 20
902.9607725307
 30
0.0
 11
340.0310681695
 21
908.6092618595
 31
0.0
  0
ARC
  5
1F9
330
14B
100
AcDbEntity
  8
$DDT_AUDIT_GENERATED_(107)
  6
Continuous
 62
     7
100
AcDbCircle
 10
-240.0920059438
 20
1721.2503105212
 30
0.0
 40
923.4677565491941
100
AcDbArc
 50
309.2997149627
 51
309.6440876935
  0
ELLIPSE
  5
1FA
330
14B
100
AcDbEntity
  8
$DDT_AUDIT_GENERATED_(107)
  6
Continuous
 62
     7
100
AcDbEllipse
 10
382.8173767404
 20
1053.4040622479
 30
0.0
 11
-39.36131584873988
 21
-46.90184510565022
 31
0.0
210
0.0
220
0.0
230
1.0
 40
0.013369319
 41
3.139235069052788
 42
6.263312923558408
  0
ARC
  5
1FB
330
14B
100
AcDbEntity
  8
$DDT_AUDIT_GENERATED_(107)
  6
Continuous
 62
     7
100
AcDbCircle
 10
344.0515079961
 20
1007.5585489613
 30
0.0
 40
1.199045552556112
100
AcDbArc
 50
249.5853813303
 51
309.3180282541
  0
ARC
  5
1FC
330
14B
100
AcDbEntity
  8
$DDT_AUDIT_GENERATED_(107)
  6
Continuous
 62
     7
100
AcDbCircle
 10
344.052440055
 20
1007.5622841584
 30
0.0
 40
1.201502787935274
100
AcDbArc
 50
239.9825995099
 51
243.8919730303
  0
LINE
  5
1FD
330
14B
100
AcDbEntity
  8
$DDT_AUDIT_GENERATED_(107)
  6
Continuous
 62
     7
100
AcDbLine
 10
343.4513726835
 20
1006.521934715
 30
0.0
 11
342.6060271728
 21
1007.0104019422
 31
0.0
  0
LINE
  5
1FE
330
14B
100
AcDbEntity
  8
$DDT_AUDIT_GENERATED_(107)
  6
Continuous
 62
     7
100
AcDbLine
 10
342.6060271728
 20
1007.0104019422
 30
0.0
 11
341.8116778704
 21
1007.6542115461
 31
0.0
  0
LINE
  5
1FF
330
14B
100
AcDbEntity
  8
$DDT_AUDIT_GENERATED_(107)
  6
Continuous
 62
     7
100
AcDbLine
 10
341.9851035998
 20
1005.4108565498
 30
0.0
 11
342.4649969438
 21
1005.7181470424
 31
0.0
  0
ARC
  5
200
330
14B
100
AcDbEntity
  8
$DDT_AUDIT_GENERATED_(107)
  6
Continuous
 62
     7
100
AcDbCircle
 10
381.9635179164
 20
1054.1564096384
 30
0.0
 40
64.07322091074285
100
AcDbArc
 50
231.1877818807
 51
236.195169731
  0
ARC
  5
201
330
14B
100
AcDbEntity
  8
$DDT_AUDIT_GENERATED_(107)
  6
Continuous
 62
     7
100
AcDbCircle
 10
375.2544367229
 20
1003.6823738284
 30
0.0
 40
23.53240101504099
100
AcDbArc
 50
152.8330990166
 51
176.6059037858
  0
ARC
  5
202
330
14B
100
AcDbEntity
  8
$DDT_AUDIT_GENERATED_(107)
  6
Continuous
 62
     7
100
AcDbCircle
 10
345.7706737275
 20
1005.4307176538
 30
0.0
 40
6.003153606096875
100
AcDbArc
 50
321.9649949451
 51
356.6084355484
  0
LINE
  5
203
330
14B
100
AcDbEntity
  8
$DDT_AUDIT_GENERATED_(107)
  6
Continuous
 62
     7
100
AcDbLine
 10
350.3640413423
 20
1001.55944826
 30
0.0
 11
350.4989644127
 21
1001.7319177923
 31
0.0
  0
ARC
  5
204
330
14B
100
AcDbEntity
  8
$DDT_AUDIT_GENERATED_(107)
  6
Continuous
 62
     7
100
AcDbCircle
 10
348.0022177843
 20
1003.4062633673
 30
0.0
 40
2.998155526297035
100
AcDbArc
 50
270.0482503521
 51
321.9765633001
  0
ARC
  5
205
330
14B
100
AcDbEntity
  8
$DDT_AUDIT_GENERATED_(107)
  6
Continuous
 62
     7
100
AcDbCircle
 10
347.9850777077
 20
1003.40835989
 30
0.0
 40
3.000322283618409
100
AcDbArc
 50
236.185427396
 51
321.9580928556
  0
ARC
  5
206
330
14B
100
AcDbEntity
  8
$DDT_AUDIT_GENERATED_(107)
  6
Continuous
 62
     7
100
AcDbCircle
 10
341.9245560053
 20
1006.5612633976
 30
0.0
 40
1.001459732866204
100
AcDbArc
 50
302.6600330426
 51
341.6045076549
  0
ARC
  5
207
330
14B
100
AcDbEntity
  8
$DDT_AUDIT_GENERATED_(107)
  6
Continuous
 62
     7
100
AcDbCircle
 10
341.9305738021
 20
1006.5534997898
 30
0.0
 40
0.9933144939255129
100
AcDbArc
 50
341.9199014709
 51
18.8113955908
  0
ARC
  5
208
330
14B
100
AcDbEntity
  8
$DDT_AUDIT_GENERATED_(107)
  6
Continuous
 62
     7
100
AcDbCircle
 10
342.4071075959
 20
1004.7409318277
 30
0.0
 40
0.7899924933817619
100
AcDbArc
 50
149.1112045886
 51
220.2709111346
  0
ARC
  5
209
330
14B
100
AcDbEntity
  8
$DDT_AUDIT_GENERATED_(107)
  6
Continuous
 62
     7
100
AcDbCircle
 10
342.4151668159
 20
1004.738422046
 30
0.0
 40
0.7981995563375278
100
AcDbArc
 50
122.6014156558
 51
149.2535887646
  0
LINE
  5
20A
330
14B
100
AcDbEntity
  8
$DDT_AUDIT_GENERATED_(107)
  6
Continuous
 62
     7
100
AcDbLine
 10
422.180061512
 20
1100.3045363687
 30
0.0
 11
421.5526602019
 21
1101.0523819705
 31
0.0
  0
ARC
  5
20B
330
14B
100
AcDbEntity
  8
$DDT_AUDIT_GENERATED_(107)
  6
Continuous
 62
     7
100
AcDbCircle
 10
405.4494161797
 20
1065.5536844683
 30
0.0
 40
2.382612630492622
100
AcDbArc
 50
151.1583678591
 51
191.9777069537
  0
ARC
  5
20C
330
14B
100
AcDbEntity
  8
$DDT_AUDIT_GENERATED_(107)
  6
Continuous
 62
     7
100
AcDbCircle
 10
374.7588586652
 20
1029.0517436852
 30
0.0
 40
2.335681473626899
100
AcDbArc
 50
87.8636860105
 51
129.3488613245
  0
LINE
  5
20D
330
14B
100
AcDbEntity
  8
$DDT_AUDIT_GENERATED_(107)
  6
Continuous
 62
     7
100
AcDbLine
 10
374.7989891169
 20
1031.3977850372
 30
0.0
 11
375.8451111811
 21
1031.4053982009
 31
0.0
  0
LINE
  5
20E
330
14B
100
AcDbEntity
  8
$DDT_AUDIT_GENERATED_(107)
  6
Continuous
 62
     7
100
AcDbLine
 10
403.2727132135
 20
1064.0873630795
 30
0.0
 11
403.0987082652
 21
1065.118940324
 31
0.0
  0
ARC
  5
20F
330
14B
100
AcDbEntity
  8
$DDT_AUDIT_GENERATED_(107)
  6
Continuous
 62
     7
100
AcDbCircle
 10
375.8381493793
 20
1032.3304432134
 30
0.0
 40
0.92169546579829
100
AcDbArc
 50
274.1298154625
 51
313.0473628592
  0
SPLINE
  5
210
330
14B
100
AcDbEntity
  8
$DDT_AUDIT_GENERATED_(107)
  6
Continuous
 62
     7
100
AcDbSpline
210
0.0
220
0.0
230
1.0
 70
     8
 71
     3
 72
    11
 73
     7
 74
     0
 42
0.0000000191401054
 43
0.0000000001
 40
0.0
 40
0.0
 40
0.0
 40
0.0
 40
0.1965262020967496
 40
0.6468215878634272
 40
0.9534882895073815
 40
1.0
 40
1.0
 40
1.0
 40
1.0
 10
403.193006865614
 20
1063.544643918709
 30
0.0
 10
403.1999147042082
 20
1063.556908903243
 30
0.0
 10
403.219538691559
 20
1063.595644668857
 30
0.0
 10
403.2634567827655
 20
1063.726437819459
 30
0.0
 10
403.3017536019194
 20
1063.934931315279
 30
0.0
 10
403.2767146672733
 20
1064.031477386416
 30
0.0
 10
403.2728994252176
 20
1064.046265348097
 30
0.0
  0
SPLINE
  5
211
330
14B
100
AcDbEntity
  8
$DDT_AUDIT_GENERATED_(107)
  6
Continuous
 62
     7
100
AcDbSpline
210
0.0
220
0.0
230
1.0
 70
     8
 71
     3
 72
    12
 73
     8
 74
     0
 42
0.0000000073376599
 43
0.0000000001
 40
0.0
 40
0.0
 40
0.0
 40
0.0
 40
0.2923646146474367
 40
0.5016389871360178
 40
0.6971232497718912
 40
0.8938934375066866
 40
1.0
 40
1.0
 40
1.0
 40
1.0
 10
422.3648121833786
 20
1099.029927139429
 30
0.0
 10
422.3869330612379
 20
1099.079170626382
 30
0.0
 10
422.4158344564152
 20
1099.159346120416
 30
0.0
 10
422.4667157498616
 20
1099.389384241511
 30
0.0
 10
422.4661250777583
 20
1099.699021311385
 30
0.0
 10
422.3748310272588
 20
1100.056714133222
 30
0.0
 10
422.2277969441357
 20
1100.218872352728
 30
0.0
 10
422.1669886837595
 20
1100.285675347074
 30
0.0
  0
LINE
  5
212
330
14B
100
AcDbEntity
  8
$DDT_AUDIT_GENERATED_(107)
  6
Continuous
 62
     7
100
AcDbLine
 10
347.985234359
 20
1000.4080675412
 30
0.0
 11
348.0020284633
 21
1000.4080675412
 31
0.0
  0
SPLINE
  5
213
330
14B
100
AcDbEntity
  8
$DDT_AUDIT_GENERATED_(107)
  6
Continuous
 62
     7
100
AcDbSpline
210
0.0
220
0.0
230
1.0
 70
     8
 71
     3
 72
    14
 73
    10
 74
     0
 42
0.0000000251405629
 43
0.0000000001
 40
0.0
 40
0.0
 40
0.0
 40
0.0
 40
0.0774085278706189
 40
0.1913967837359571
 40
0.2418103171747251
 40
0.2755267306872669
 40
0.3074726711633041
 40
0.3514299808711066
 40
0.361857745628529
 40
0.361857745628529
 40
0.361857745628529
 40
0.361857745628529
 10
354.3309737692357
 20
1014.446843290996
 30
0.0
 10
354.3380966242765
 20
1014.460077776353
 30
0.0
 10
354.3530745299501
 20
1014.487695654615
 30
0.0
 10
354.3809685352896
 20
1014.521823395118
 30
0.0
 10
354.4025193088256
 20
1014.544996407336
 30
0.0
 10
354.4117919912
 20
1014.554182371915
 30
0.0
 10
354.4167036578883
 20
1014.558864048322
 30
0.0
 10
354.4179854438794
 20
1014.560037503652
 30
0.0
 10
354.4181214307926
 20
1014.560162033781
 30
0.0
 10
354.4181244080391
 20
1014.560164858362
 30
0.0
  0
ARC
  5
214
330
14B
100
AcDbEntity
  8
$DDT_AUDIT_GENERATED_(107)
  6
Continuous
 62
     7
100
AcDbCircle
 10
-193.1685332274
 20
1666.2368051368
 30
0.0
 40
851.2048406105163
100
AcDbArc
 50
310.0393678413
 51
310.1242519583
  0
ARC
  5
215
330
14B
100
AcDbEntity
  8
$DDT_AUDIT_GENERATED_(107)
  6
Continuous
 62
     7
100
AcDbCircle
 10
-193.1685332274
 20
1666.2368051368
 30
0.0
 40
851.2048406105163
100
AcDbArc
 50
311.6262859785
 51
311.7185898799
  0
ARC
  5
216
330
14B
100
AcDbEntity
  8
$DDT_AUDIT_GENERATED_(107)
  6
Continuous
 62
     7
100
AcDbCircle
 10
-320.9867538986
 20
1514.808058291
 30
0.0
 40
851.7340897043758
100
AcDbArc
 50
328.2594353603
 51
328.3289623198
  0
ARC
  5
217
330
14B
100
AcDbEntity
  8
$DDT_AUDIT_GENERATED_(107)
  6
Continuous
 62
     7
100
AcDbCircle
 10
-320.9867538986
 20
1514.808058291
 30
0.0
 40
851.7340897043758
100
AcDbArc
 50
330.4485534344
 51
330.7661895589
  0
SPLINE
  5
218
330
14B
100
AcDbEntity
  8
$DDT_AUDIT_GENERATED_(130)
  6
Continuous
 62
     7
100
AcDbSpline
210
0.0
220
0.0
230
1.0
 70
     8
 71
     3
 72
    13
 73
     9
 74
     0
 42
0.0000000067005889
 43
0.0000000001
 40
0.0
 40
0.0
 40
0.0
 40
0.0
 40
0.1175059737242849
 40
0.370565974348829
 40
0.5772227957198859
 40
0.757070918170401
 40
0.915207968663813
 40
1.0
 40
1.0
 40
1.0
 40
1.0
 10
377.0342247808402
 20
1032.011088912787
 30
0.0
 10
377.0845892426842
 20
1031.961119047454
 30
0.0
 10
377.2225273654268
 20
1031.827286882064
 30
0.0
 10
377.5419983749008
 20
1031.721949402677
 30
0.0
 10
377.8846201495986
 20
1031.701973184728
 30
0.0
 10
378.1538615369202
 20
1031.757451854184
 30
0.0
 10
378.3253032109674
 20
1031.829668941167
 30
0.0
 10
378.379998209945
 20
1031.861629617494
 30
0.0
 10
378.4016747923033
 20
1031.874861069306
 30
0.0
  0
SPLINE
  5
219
330
14B
100
AcDbEntity
  8
$DDT_AUDIT_GENERATED_(130)
  6
Continuous
 62
     7
100
AcDbSpline
210
0.0
220
0.0
230
1.0
 70
     8
 71
     3
 72
    13
 73
     9
 74
     0
 42
0.0000000065700759
 43
0.0000000001
 40
0.0
 40
0.0
 40
0.0
 40
0.0
 40
0.0156767352102081
 40
0.2133707734741781
 40
0.4110667372369947
 40
0.6485478590679249
 40
0.9074902008119853
 40
1.0
 40
1.0
 40
1.0
 40
1.0
 10
403.2471063653954
 20
1061.465822855153
 30
0.0
 10
403.2485850079999
 20
1061.469052422277
 30
0.0
 10
403.2657996615591
 20
1061.507209152978
 30
0.0
 10
403.3171119820875
 20
1061.677015083586
 30
0.0
 10
403.3415376772626
 20
1061.992977192792
 30
0.0
 10
403.2566179374923
 20
1062.368008970524
 30
0.0
 10
403.0835217101042
 20
1062.676575455613
 30
0.0
 10
402.9292952884321
 20
1062.782019211079
 30
0.0
 10
402.8817820299738
 20
1062.813853094555
 30
0.0
  0
LINE
  5
21B
330
14B
100
AcDbEntity
  8
DV2_Standard
  6
Continuous
 62
     7
100
AcDbLine
 10
259.3310681695
 20
1322.6965364337
 30
0.0
 11
261.3310681695
 21
1322.6965364337
 31
0.0
  0
LINE
  5
21C
330
14B
100
AcDbEntity
  8
DV2_Standard
  6
Continuous
 62
     7
100
AcDbLine
 10
259.3310681695
 20
422.6965364337
 30
0.0
 11
261.3310681695
 21
422.6965364337
 31
0.0
  0
LINE
  5
21D
330
14B
100
AcDbEntity
  8
DV2_Standard
  6
CENTER2
 62
     7
100
AcDbLine
 10
280.3310677224
 20
1322.6965364337
 30
0.0
 11
240.3310686165
 21
1322.6965364337
 31
0.0
  0
LINE
  5
21E
330
14B
100
AcDbEntity
  8
DV2_Standard
  6
CENTER2
 62
     7
100
AcDbLine
 10
260.3310681695
 20
1342.6965359867
 30
0.0
 11
260.3310681695
 21
1302.6965368808
 31
0.0
  0
LINE
  5
21F
330
14B
100
AcDbEntity
  8
DV2_Standard
  6
CENTER2
 62
     7
100
AcDbLine
 10
280.3310677224
 20
422.6965364337
 30
0.0
 11
240.3310686165
 21
422.6965364337
 31
0.0
  0
LINE
  5
220
330
14B
100
AcDbEntity
  8
DV2_Standard
  6
CENTER2
 62
     7
100
AcDbLine
 10
260.3310681695
 20
442.6965359867
 30
0.0
 11
260.3310681695
 21
402.6965368808
 31
0.0
  0
ARC
  5
221
330
14B
100
AcDbEntity
  8
DV2_Standard
  6
Continuous
 62
     7
100
AcDbCircle
 10
-320.9867539001
 20
1514.808058292
 30
0.0
 40
851.7340897061797
100
AcDbArc
 50
328.2594353603
 51
330.4510164972
  0
ARC
  5
222
330
14B
100
AcDbEntity
  8
DV2_Standard
  6
Continuous
 62
     7
100
AcDbCircle
 10
-193.1685335321
 20
1666.2368054786
 30
0.0
 40
851.2048410683917
100
AcDbArc
 50
310.1249965587
 51
311.7185898799
  0
ARC
  5
223
330
14B
100
AcDbEntity
  8
DV2_Standard
  6
Continuous
 62
     7
100
AcDbCircle
 10
264.6904898473
 20
1152.5133509528
 30
0.0
 40
163.0576135510336
100
AcDbArc
 50
311.7581835982
 51
328.2594353603
  0
ARC
  5
224
330
14B
100
AcDbEntity
  8
DV2_Standard
  6
Continuous
 62
     7
100
AcDbCircle
 10
260.5635535818
 20
1155.9414028144
 30
0.0
 40
169.942113669546
100
AcDbArc
 50
313.0016157903
 51
327.0644377605
  0
ARC
  5
225
330
14B
100
AcDbEntity
  8
DV2_Standard
  6
Continuous
 62
     7
100
AcDbCircle
 10
304.3465264655
 20
1119.2318150367
 30
0.0
 40
114.5224973538156
100
AcDbArc
 50
310.288958988
 51
329.6390510267
  0
LINE
  5
226
330
14B
100
AcDbEntity
  8
DV2_Standard
  6
Continuous
 62
     7
100
AcDbLine
 10
340.0310681695
 20
914.096282748
 30
0.0
 11
340.0310681695
 21
908.6288781554
 31
0.0
  0
ENDBLK
  5
228
330
14B
100
AcDbEntity
  8
0
100
AcDbBlockEnd
  0
BLOCK
  5
2A3
330
229
100
AcDbEntity
  8
0
100
AcDbBlockBegin
  2
SE2
 70
     0
 10
0.0
 20
0.0
 30
0.0
  3
SE2
  1

  0
CIRCLE
  5
22B
330
229
100
AcDbEntity
  8
$DDT_AUDIT_GENERATED_(60)
  6
Continuous
 62
     7
100
AcDbCircle
 10
50.0
 20
203.4943006666
 30
0.0
 40
13.0
  0
LINE
  5
22C
330
229
100
AcDbEntity
  8
$DDT_AUDIT_GENERATED_(60)
  6
Continuous
 62
     7
100
AcDbLine
 10
60.5
 20
268.4943006666
 30
0.0
 11
60.5
 21
244.4943006666
 31
0.0
  0
ARC
  5
22D
330
229
100
AcDbEntity
  8
$DDT_AUDIT_GENERATED_(60)
  6
Continuous
 62
     7
100
AcDbCircle
 10
59.5
 20
244.4943006666
 30
0.0
 40
0.9999999999999991
100
AcDbArc
 50
270.0
 51
0.0
  0
LINE
  5
22E
330
229
100
AcDbEntity
  8
$DDT_AUDIT_GENERATED_(60)
  6
Continuous
 62
     7
100
AcDbLine
 10
59.5
 20
243.4943006666
 30
0.0
 11
51.0
 21
243.4943006666
 31
0.0
  0
ARC
  5
22F
330
229
100
AcDbEntity
  8
$DDT_AUDIT_GENERATED_(60)
  6
Continuous
 62
     7
100
AcDbCircle
 10
51.0
 20
234.9943006666
 30
0.0
 40
8.499999999999996
100
AcDbArc
 50
90.0
 51
270.0
  0
LINE
  5
230
330
229
100
AcDbEntity
  8
$DDT_AUDIT_GENERATED_(60)
  6
Continuous
 62
     7
100
AcDbLine
 10
51.0
 20
226.4943006666
 30
0.0
 11
59.5
 21
226.4943006666
 31
0.0
  0
ARC
  5
231
330
229
100
AcDbEntity
  8
$DDT_AUDIT_GENERATED_(60)
  6
Continuous
 62
     7
100
AcDbCircle
 10
59.5
 20
225.4943006666
 30
0.0
 40
1.000000000000001
100
AcDbArc
 50
0.0
 51
90.0
  0
LINE
  5
232
330
229
100
AcDbEntity
  8
$DDT_AUDIT_GENERATED_(60)
  6
Continuous
 62
     7
100
AcDbLine
 10
60.5
 20
225.4943006666
 30
0.0
 11
60.5
 21
217.9856774128
 31
0.0
  0
ARC
  5
233
330
229
100
AcDbEntity
  8
$DDT_AUDIT_GENERATED_(60)
  6
Continuous
 62
     7
100
AcDbCircle
 10
68.5
 20
217.9856774128
 30
0.0
 40
8.0
100
AcDbArc
 50
180.0
 51
218.0722254136
  0
ARC
  5
234
330
229
100
AcDbEntity
  8
$DDT_AUDIT_GENERATED_(60)
  6
Continuous
 62
     7
100
AcDbCircle
 10
50.0
 20
203.4943006666
 30
0.0
 40
15.5
100
AcDbArc
 50
141.9277745864
 51
38.0722254136
  0
ARC
  5
235
330
229
100
AcDbEntity
  8
$DDT_AUDIT_GENERATED_(60)
  6
Continuous
 62
     7
100
AcDbCircle
 10
31.5
 20
217.9856774128
 30
0.0
 40
8.000000000000005
100
AcDbArc
 50
321.9277745864
 51
0.0
  0
LINE
  5
236
330
229
100
AcDbEntity
  8
$DDT_AUDIT_GENERATED_(60)
  6
Continuous
 62
     7
100
AcDbLine
 10
39.5
 20
217.9856774128
 30
0.0
 11
39.5
 21
268.4943006666
 31
0.0
  0
ARC
  5
238
330
229
100
AcDbEntity
  8
$DDT_AUDIT_GENERATED_(237)
  6
Continuous
 62
     7
100
AcDbCircle
 10
50.0
 20
203.4943006666
 30
0.0
 40
12.425
100
AcDbArc
 50
59.5735551306
 51
148.4264448694
  0
LINE
  5
239
330
229
100
AcDbEntity
  8
$DDT_AUDIT_GENERATED_(237)
  6
Continuous
 62
     7
100
AcDbLine
 10
39.2861707833
 20
209.7867158242
 30
0.0
 11
39.3883702609
 21
209.8121970158
 31
0.0
  0
LINE
  5
23A
330
229
100
AcDbEntity
  8
$DDT_AUDIT_GENERATED_(237)
  6
Continuous
 62
     7
100
AcDbLine
 10
39.4397702292
 20
209.8977409285
 30
0.0
 11
39.4142890376
 21
209.999940406
 31
0.0
  0
LINE
  5
23B
330
229
100
AcDbEntity
  8
$DDT_AUDIT_GENERATED_(237)
  6
Continuous
 62
     7
100
AcDbLine
 10
37.9747692804
 20
200.367888803
 30
0.0
 11
38.0290173006
 21
200.45817267
 31
0.0
  0
LINE
  5
23C
330
229
100
AcDbEntity
  8
$DDT_AUDIT_GENERATED_(237)
  6
Continuous
 62
     7
100
AcDbLine
 10
38.0048738861
 20
200.5550066169
 30
0.0
 11
37.914590019
 21
200.6092546371
 31
0.0
  0
LINE
  5
23D
330
229
100
AcDbEntity
  8
$DDT_AUDIT_GENERATED_(237)
  6
Continuous
 62
     7
100
AcDbLine
 10
43.7075848424
 20
192.7804714499
 30
0.0
 11
43.6821036508
 21
192.8826709275
 31
0.0
  0
LINE
  5
23E
330
229
100
AcDbEntity
  8
$DDT_AUDIT_GENERATED_(237)
  6
Continuous
 62
     7
100
AcDbLine
 10
43.5965597381
 20
192.9340708958
 30
0.0
 11
43.4943602605
 21
192.9085897041
 31
0.0
  0
LINE
  5
23F
330
229
100
AcDbEntity
  8
$DDT_AUDIT_GENERATED_(237)
  6
Continuous
 62
     7
100
AcDbLine
 10
53.1264118636
 20
191.469069947
 30
0.0
 11
53.0361279966
 21
191.5233179672
 31
0.0
  0
LINE
  5
240
330
229
100
AcDbEntity
  8
$DDT_AUDIT_GENERATED_(237)
  6
Continuous
 62
     7
100
AcDbLine
 10
52.9392940497
 20
191.4991745527
 30
0.0
 11
52.8850460295
 21
191.4088906856
 31
0.0
  0
LINE
  5
241
330
229
100
AcDbEntity
  8
$DDT_AUDIT_GENERATED_(237)
  6
Continuous
 62
     7
100
AcDbLine
 10
60.7138292167
 20
197.201885509
 30
0.0
 11
60.6116297391
 21
197.1764043174
 31
0.0
  0
LINE
  5
242
330
229
100
AcDbEntity
  8
$DDT_AUDIT_GENERATED_(237)
  6
Continuous
 62
     7
100
AcDbLine
 10
60.5602297708
 20
197.0908604047
 30
0.0
 11
60.5857109624
 21
196.9886609271
 31
0.0
  0
LINE
  5
243
330
229
100
AcDbEntity
  8
$DDT_AUDIT_GENERATED_(237)
  6
Continuous
 62
     7
100
AcDbLine
 10
62.0252307196
 20
206.6207125302
 30
0.0
 11
61.9709826994
 21
206.5304286632
 31
0.0
  0
LINE
  5
244
330
229
100
AcDbEntity
  8
$DDT_AUDIT_GENERATED_(237)
  6
Continuous
 62
     7
100
AcDbLine
 10
61.9951261139
 20
206.4335947163
 30
0.0
 11
62.085409981
 21
206.3793466961
 31
0.0
  0
LINE
  5
245
330
229
100
AcDbEntity
  8
$DDT_AUDIT_GENERATED_(237)
  6
Continuous
 62
     7
100
AcDbLine
 10
56.2924151576
 20
214.2081298833
 30
0.0
 11
56.3178963492
 21
214.1059304057
 31
0.0
  0
LINE
  5
246
330
229
100
AcDbEntity
  8
$DDT_AUDIT_GENERATED_(237)
  6
Continuous
 62
     7
100
AcDbLine
 10
56.4034402619
 20
214.0545304374
 30
0.0
 11
56.5056397395
 21
214.080011629
 31
0.0
  0
ARC
  5
247
330
229
100
AcDbEntity
  8
$DDT_AUDIT_GENERATED_(237)
  6
Continuous
 62
     7
100
AcDbCircle
 10
50.0
 20
203.4943006666
 30
0.0
 40
12.425
100
AcDbArc
 50
329.5735551306
 51
13.4264448694
  0
ARC
  5
248
330
229
100
AcDbEntity
  8
$DDT_AUDIT_GENERATED_(237)
  6
Continuous
 62
     7
100
AcDbCircle
 10
50.0
 20
203.4943006666
 30
0.0
 40
12.425
100
AcDbArc
 50
239.5735551306
 51
283.4264448694
  0
ARC
  5
249
330
229
100
AcDbEntity
  8
$DDT_AUDIT_GENERATED_(237)
  6
Continuous
 62
     7
100
AcDbCircle
 10
50.0
 20
203.4943006666
 30
0.0
 40
12.42500000000001
100
AcDbArc
 50
149.5735551306
 51
193.4264448694
  0
ARC
  5
24A
330
229
100
AcDbEntity
  8
$DDT_AUDIT_GENERATED_(237)
  6
Continuous
 62
     7
100
AcDbCircle
 10
50.0
 20
203.4943006666
 30
0.0
 40
12.42500000000001
100
AcDbArc
 50
194.5735551306
 51
238.4264448694
  0
ARC
  5
24B
330
229
100
AcDbEntity
  8
$DDT_AUDIT_GENERATED_(237)
  6
Continuous
 62
     7
100
AcDbCircle
 10
50.0
 20
203.4943006666
 30
0.0
 40
12.425
100
AcDbArc
 50
284.5735551306
 51
328.4264448694
  0
ARC
  5
24C
330
229
100
AcDbEntity
  8
$DDT_AUDIT_GENERATED_(237)
  6
Continuous
 62
     7
100
AcDbCircle
 10
50.0
 20
203.4943006666
 30
0.0
 40
12.425
100
AcDbArc
 50
14.5735551306
 51
58.4264448694
  0
LINE
  5
24D
330
229
100
AcDbEntity
  8
$DDT_AUDIT_GENERATED_(75)
  6
Continuous
 62
     7
100
AcDbLine
 10
66.0
 20
221.4943006666
 30
0.0
 11
66.0
 21
194.3800530063
 31
0.0
  0
LINE
  5
24E
330
229
100
AcDbEntity
  8
$DDT_AUDIT_GENERATED_(75)
  6
Continuous
 62
     7
100
AcDbLine
 10
34.0
 20
221.4943006666
 30
0.0
 11
34.0
 21
185.4943006666
 31
0.0
  0
LINE
  5
24F
330
229
100
AcDbEntity
  8
$DDT_AUDIT_GENERATED_(75)
  6
Continuous
 62
     7
100
AcDbLine
 10
66.65
 20
216.4943006666
 30
0.0
 11
66.0
 21
216.4943006666
 31
0.0
  0
LINE
  5
250
330
229
100
AcDbEntity
  8
$DDT_AUDIT_GENERATED_(75)
  6
Continuous
 62
     7
100
AcDbLine
 10
34.0
 20
185.4943006666
 30
0.0
 11
54.2850348291
 21
185.4943006666
 31
0.0
  0
LINE
  5
251
330
229
100
AcDbEntity
  8
$DDT_AUDIT_GENERATED_(75)
  6
Continuous
 62
     7
100
AcDbLine
 10
66.0
 20
221.4943006666
 30
0.0
 11
60.5
 21
221.4943006666
 31
0.0
  0
LINE
  5
252
330
229
100
AcDbEntity
  8
$DDT_AUDIT_GENERATED_(75)
  6
Continuous
 62
     7
100
AcDbLine
 10
39.5
 20
221.4943006666
 30
0.0
 11
34.0
 21
221.4943006666
 31
0.0
  0
LINE
  5
253
330
229
100
AcDbEntity
  8
$DDT_AUDIT_GENERATED_(75)
  6
Continuous
 62
     7
100
AcDbLine
 10
32.75
 20
193.9943006666
 30
0.0
 11
33.5
 21
193.9943006666
 31
0.0
  0
LINE
  5
254
330
229
100
AcDbEntity
  8
$DDT_AUDIT_GENERATED_(75)
  6
Continuous
 62
     7
100
AcDbLine
 10
33.5
 20
212.9943006666
 30
0.0
 11
32.75
 21
212.9943006666
 31
0.0
  0
ARC
  5
255
330
229
100
AcDbEntity
  8
$DDT_AUDIT_GENERATED_(75)
  6
Continuous
 62
     7
100
AcDbCircle
 10
33.5
 20
193.4943006666
 30
0.0
 40
0.5000000000000004
100
AcDbArc
 50
0.0
 51
90.0
  0
ARC
  5
256
330
229
100
AcDbEntity
  8
$DDT_AUDIT_GENERATED_(75)
  6
Continuous
 62
     7
100
AcDbCircle
 10
33.5
 20
213.4943006666
 30
0.0
 40
0.5000000000000004
100
AcDbArc
 50
270.0
 51
0.0
  0
LINE
  5
257
330
229
100
AcDbEntity
  8
$DDT_AUDIT_GENERATED_(96)
  6
Continuous
 62
     7
100
AcDbLine
 10
66.65
 20
221.4943006666
 30
0.0
 11
66.65
 21
194.728437864
 31
0.0
  0
ARC
  5
258
330
229
100
AcDbEntity
  8
$DDT_AUDIT_GENERATED_(96)
  6
Continuous
 62
     7
100
AcDbCircle
 10
103.4
 20
203.4943006666
 30
0.0
 40
15.49999999996139
100
AcDbArc
 50
40.5636334753
 51
42.0278132224
  0
ARC
  5
259
330
229
100
AcDbEntity
  8
$DDT_AUDIT_GENERATED_(96)
  6
Continuous
 62
     7
100
AcDbCircle
 10
103.4
 20
203.4943006666
 30
0.0
 40
15.5
100
AcDbArc
 50
42.0278132223
 51
186.252451994
  0
LINE
  5
25A
330
229
100
AcDbEntity
  8
$DDT_AUDIT_GENERATED_(96)
  6
Continuous
 62
     7
100
AcDbLine
 10
74.1671474011
 20
198.0779862594
 30
0.0
 11
74.1671474011
 21
221.0118181841
 31
0.0
  0
LINE
  5
25B
330
229
100
AcDbEntity
  8
$DDT_AUDIT_GENERATED_(96)
  6
Continuous
 62
     7
100
AcDbLine
 10
92.6062036225
 20
214.9943006666
 30
0.0
 11
75.3181426446
 21
214.9943006666
 31
0.0
  0
ARC
  5
25C
330
229
100
AcDbEntity
  8
$DDT_AUDIT_GENERATED_(96)
  6
Continuous
 62
     7
100
AcDbCircle
 10
-425.5258949559
 20
203.4943006666
 30
0.0
 40
499.9999999999999
100
AcDbArc
 50
1.4296837746
 51
2.0077705264
  0
LINE
  5
25D
330
229
100
AcDbEntity
  8
$DDT_AUDIT_GENERATED_(96)
  6
Continuous
 62
     7
100
AcDbLine
 10
73.6674543588
 20
221.4943006666
 30
0.0
 11
66.65
 21
221.4943006666
 31
0.0
  0
ARC
  5
25E
330
229
100
AcDbEntity
  8
$DDT_AUDIT_GENERATED_(96)
  6
Continuous
 62
     7
100
AcDbCircle
 10
114.7952631636
 20
213.2486831397
 30
0.0
 40
0.5000000000000004
100
AcDbArc
 50
270.0
 51
0.0
  0
ARC
  5
25F
330
229
100
AcDbEntity
  8
$DDT_AUDIT_GENERATED_(96)
  6
Continuous
 62
     7
100
AcDbCircle
 10
114.7952631636
 20
213.2486831397
 30
0.0
 40
0.5000000000000004
100
AcDbArc
 50
0.0
 51
40.5636334753
  0
ARC
  5
260
330
229
100
AcDbEntity
  8
$DDT_AUDIT_GENERATED_(96)
  6
Continuous
 62
     7
100
AcDbCircle
 10
73.6674543588
 20
220.9943006666
 30
0.0
 40
0.5000000000000286
100
AcDbArc
 50
2.0077705263
 51
90.0
  0
SPLINE
  5
261
330
229
100
AcDbEntity
  8
$DDT_AUDIT_GENERATED_(96)
  6
Continuous
 62
     7
100
AcDbSpline
210
0.0
220
0.0
230
1.0
 70
     8
 71
     3
 72
    11
 73
     7
 74
     0
 42
0.0000000168207349
 43
0.0000000001
 40
0.0
 40
0.0
 40
0.0
 40
0.0
 40
0.1420195103617015
 40
0.5064162141206451
 40
0.8776995993172448
 40
1.0
 40
1.0
 40
1.0
 40
1.0
 10
93.16888577858163
 20
215.1526675342685
 30
0.0
 10
93.14529853355604
 20
215.1379589792751
 30
0.0
 10
93.07226808975211
 20
215.0931544772276
 30
0.0
 10
92.90213278602354
 20
215.02601978515
 30
0.0
 10
92.72889051469504
 20
214.9858020964781
 30
0.0
 10
92.63654009746111
 20
214.9997580575967
 30
0.0
 10
92.60998762084178
 20
215.0039274137001
 30
0.0
  0
ARC
  5
262
330
229
100
AcDbEntity
  8
$DDT_AUDIT_GENERATED_(96)
  6
Continuous
 62
     7
100
AcDbCircle
 10
75.3181426446
 20
215.9943006666
 30
0.0
 40
1.000000000000001
100
AcDbArc
 50
181.4296837745
 51
270.0
  0
LINE
  5
263
330
229
100
AcDbEntity
  8
$DDT_AUDIT_GENERATED_(AF)
  6
Continuous
 62
     7
100
AcDbLine
 10
32.75
 20
185.9943006666
 30
0.0
 11
32.75
 21
220.9943006666
 31
0.0
  0
LINE
  5
264
330
229
100
AcDbEntity
  8
$DDT_AUDIT_GENERATED_(AF)
  6
Continuous
 62
     7
100
AcDbLine
 10
25.25
 20
185.9943006666
 30
0.0
 11
25.25
 21
220.9943006666
 31
0.0
  0
CIRCLE
  5
265
330
229
100
AcDbEntity
  8
$DDT_AUDIT_GENERATED_(AF)
  6
Continuous
 62
     7
100
AcDbCircle
 10
12.55
 20
203.4943006666
 30
0.0
 40
4.0
  0
LINE
  5
266
330
229
100
AcDbEntity
  8
$DDT_AUDIT_GENERATED_(AF)
  6
Continuous
 62
     7
100
AcDbLine
 10
6.35
 20
190.4943006666
 30
0.0
 11
6.35
 21
216.4943006666
 31
0.0
  0
CIRCLE
  5
267
330
229
100
AcDbEntity
  8
$DDT_AUDIT_GENERATED_(AF)
  6
Continuous
 62
     7
100
AcDbCircle
 10
12.55
 20
203.4943006666
 30
0.0
 40
3.050000000000001
  0
LINE
  5
268
330
229
100
AcDbEntity
  8
$DDT_AUDIT_GENERATED_(AF)
  6
Continuous
 62
     7
100
AcDbLine
 10
6.85
 20
189.9943006666
 30
0.0
 11
24.75
 21
189.9943006666
 31
0.0
  0
LINE
  5
269
330
229
100
AcDbEntity
  8
$DDT_AUDIT_GENERATED_(AF)
  6
Continuous
 62
     7
100
AcDbLine
 10
24.75
 20
216.9943006666
 30
0.0
 11
6.85
 21
216.9943006666
 31
0.0
  0
LINE
  5
26A
330
229
100
AcDbEntity
  8
$DDT_AUDIT_GENERATED_(AF)
  6
Continuous
 62
     7
100
AcDbLine
 10
25.75
 20
185.4943006666
 30
0.0
 11
32.25
 21
185.4943006666
 31
0.0
  0
LINE
  5
26B
330
229
100
AcDbEntity
  8
$DDT_AUDIT_GENERATED_(AF)
  6
Continuous
 62
     7
100
AcDbLine
 10
32.25
 20
221.4943006666
 30
0.0
 11
25.75
 21
221.4943006666
 31
0.0
  0
ARC
  5
26C
330
229
100
AcDbEntity
  8
$DDT_AUDIT_GENERATED_(AF)
  6
Continuous
 62
     7
100
AcDbCircle
 10
32.25
 20
220.9943006666
 30
0.0
 40
0.5000000000000004
100
AcDbArc
 50
0.0
 51
90.0
  0
ARC
  5
26D
330
229
100
AcDbEntity
  8
$DDT_AUDIT_GENERATED_(AF)
  6
Continuous
 62
     7
100
AcDbCircle
 10
32.25
 20
185.9943006666
 30
0.0
 40
0.5000000000000004
100
AcDbArc
 50
270.0
 51
0.0
  0
ARC
  5
26E
330
229
100
AcDbEntity
  8
$DDT_AUDIT_GENERATED_(AF)
  6
Continuous
 62
     7
100
AcDbCircle
 10
25.75
 20
185.9943006666
 30
0.0
 40
0.5000000000000004
100
AcDbArc
 50
180.0
 51
270.0
  0
ARC
  5
26F
330
229
100
AcDbEntity
  8
$DDT_AUDIT_GENERATED_(AF)
  6
Continuous
 62
     7
100
AcDbCircle
 10
25.75
 20
220.9943006666
 30
0.0
 40
0.5000000000000004
100
AcDbArc
 50
90.0
 51
180.0
  0
ARC
  5
270
330
229
100
AcDbEntity
  8
$DDT_AUDIT_GENERATED_(AF)
  6
Continuous
 62
     7
100
AcDbCircle
 10
24.75
 20
189.4943006666
 30
0.0
 40
0.5000000000000004
100
AcDbArc
 50
0.0
 51
90.0
  0
ARC
  5
271
330
229
100
AcDbEntity
  8
$DDT_AUDIT_GENERATED_(AF)
  6
Continuous
 62
     7
100
AcDbCircle
 10
24.75
 20
217.4943006666
 30
0.0
 40
0.499999999999997
100
AcDbArc
 50
270.0
 51
0.0
  0
ARC
  5
272
330
229
100
AcDbEntity
  8
$DDT_AUDIT_GENERATED_(AF)
  6
Continuous
 62
     7
100
AcDbCircle
 10
6.85
 20
216.4943006666
 30
0.0
 40
0.5000000000000004
100
AcDbArc
 50
90.0
 51
180.0
  0
ARC
  5
273
330
229
100
AcDbEntity
  8
$DDT_AUDIT_GENERATED_(AF)
  6
Continuous
 62
     7
100
AcDbCircle
 10
6.85
 20
190.4943006666
 30
0.0
 40
0.5000000000000004
100
AcDbArc
 50
180.0
 51
270.0
  0
CIRCLE
  5
275
330
229
100
AcDbEntity
  8
$DDT_AUDIT_GENERATED_(274)
  6
Continuous
 62
     7
100
AcDbCircle
 10
12.55
 20
203.4943006666
 30
0.0
 40
3.0
  0
LINE
  5
277
330
229
100
AcDbEntity
  8
$DDT_AUDIT_GENERATED_(276)
  6
Continuous
 62
     7
100
AcDbLine
 10
58.0409984483
 20
241.2333924972
 30
0.0
 11
58.0531616711
 21
242.6271597858
 31
0.0
  0
LINE
  5
278
330
229
100
AcDbEntity
  8
$DDT_AUDIT_GENERATED_(276)
  6
Continuous
 62
     7
100
AcDbLine
 10
58.0607290949
 20
243.4943006666
 30
0.0
 11
58.0531616711
 21
242.6271597858
 31
0.0
  0
ARC
  5
279
330
229
100
AcDbEntity
  8
$DDT_AUDIT_GENERATED_(276)
  6
Continuous
 62
     7
100
AcDbCircle
 10
56.7994414866
 20
242.6351384262
 30
0.0
 40
1.253745572199136
100
AcDbArc
 50
270.1576040448
 51
359.635376176
  0
LINE
  5
27A
330
229
100
AcDbEntity
  8
$DDT_AUDIT_GENERATED_(276)
  6
Continuous
 62
     7
100
AcDbLine
 10
55.5270233866
 20
242.6271597858
 30
0.0
 11
55.5194559627
 21
243.4943006666
 31
0.0
  0
ARC
  5
27B
330
229
100
AcDbEntity
  8
$DDT_AUDIT_GENERATED_(276)
  6
Continuous
 62
     7
100
AcDbCircle
 10
56.7804378322
 20
242.6348315806
 30
0.0
 40
1.253437923913147
100
AcDbArc
 50
180.3506868601
 51
269.8563329192
  0
LINE
  5
27C
330
229
100
AcDbEntity
  8
$DDT_AUDIT_GENERATED_(276)
  6
Continuous
 62
     7
100
AcDbLine
 10
55.5270233866
 20
242.6271597858
 30
0.0
 11
55.5391866094
 21
241.2333924972
 31
0.0
  0
LINE
  5
27D
330
229
100
AcDbEntity
  8
$DDT_AUDIT_GENERATED_(276)
  6
Continuous
 62
     7
100
AcDbLine
 10
56.7891390132
 20
239.9943006666
 30
0.0
 11
56.7910460444
 21
239.9943006666
 31
0.0
  0
ARC
  5
27E
330
229
100
AcDbEntity
  8
$DDT_AUDIT_GENERATED_(276)
  6
Continuous
 62
     7
100
AcDbCircle
 10
56.7910460444
 20
241.2443006666
 30
0.0
 40
1.249999999999999
100
AcDbArc
 50
270.4123519482
 51
359.5
  0
ARC
  5
27F
330
229
100
AcDbEntity
  8
$DDT_AUDIT_GENERATED_(276)
  6
Continuous
 62
     7
100
AcDbCircle
 10
56.7891390132
 20
241.2443006666
 30
0.0
 40
1.249999999999998
100
AcDbArc
 50
180.5
 51
270.4208482268
  0
SPLINE
  5
280
330
229
100
AcDbEntity
  8
$DDT_AUDIT_GENERATED_(E1)
  6
Continuous
 62
     7
100
AcDbSpline
210
0.0
220
0.0
230
1.0
 70
     8
 71
     3
 72
    14
 73
    10
 74
     0
 42
0.0000000000823849
 43
0.0000000001
 40
0.1270230192503906
 40
0.1270230192503906
 40
0.1270230192503906
 40
0.1270230192503906
 40
0.1874999999999999
 40
0.1874999999999999
 40
0.2499999999999999
 40
0.2499999999999999
 40
0.3124999999999999
 40
0.3124999999999999
 40
0.3353331189981668
 40
0.3353331189981668
 40
0.3353331189981668
 40
0.3353331189981668
 10
116.9817182400197
 20
179.4111057670402
 30
0.0
 10
115.1823899137905
 20
180.5914775403852
 30
0.0
 10
113.0417501594245
 20
181.5246550862227
 30
0.0
 10
108.2661261738943
 20
182.8773824194929
 30
0.0
 10
105.6337457571755
 20
183.2567534714537
 30
0.0
 10
100.3626735788259
 20
183.3423446105498
 30
0.0
 10
97.71970103759871
 20
183.0395795769113
 30
0.0
 10
94.37363004387574
 20
182.2124907357623
 30
0.0
 10
93.50286710773138
 20
181.9514924277792
 30
0.0
 10
92.6685915898752
 20
181.6505100969028
 30
0.0
  0
SPLINE
  5
281
330
229
100
AcDbEntity
  8
$DDT_AUDIT_GENERATED_(E1)
  6
Continuous
 62
     7
100
AcDbSpline
210
0.0
220
0.0
230
1.0
 70
     8
 71
     3
 72
    34
 73
    30
 74
     0
 42
0.0000000000968377
 43
0.0000000001
 40
0.3353331189981668
 40
0.3353331189981668
 40
0.3353331189981668
 40
0.3353331189981668
 40
0.3437499999999999
 40
0.3437499999999999
 40
0.375
 40
0.375
 40
0.4374999999999999
 40
0.4374999999999999
 40
0.4999999999999999
 40
0.4999999999999999
 40
0.5312499999999999
 40
0.5312499999999999
 40
0.5624999999999998
 40
0.5624999999999998
 40
0.6249999999999999
 40
0.6249999999999999
 40
0.6874999999999999
 40
0.6874999999999999
 40
0.75
 40
0.75
 40
0.8125
 40
0.8125
 40
0.84375
 40
0.84375
 40
0.875
 40
0.875
 40
0.9375
 40
0.9375
 40
1.0
 40
1.0
 40
1.0
 40
1.0
 10
92.6685915898752
 20
181.6505100969028
 30
0.0
 10
92.36105595459463
 20
181.5395601884455
 30
0.0
 10
92.05847841643468
 20
181.4231770463401
 30
0.0
 10
90.65867861393295
 20
180.8490140069371
 30
0.0
 10
89.63592934855899
 20
180.3164657780257
 30
0.0
 10
86.84681360636334
 20
178.5454793198132
 30
0.0
 10
85.35489907654586
 20
177.149513741943
 30
0.0
 10
83.253166458907
 20
174.0567957017247
 30
0.0
 10
82.73596555683119
 20
172.3651753627659
 30
0.0
 10
82.69704118102433
 20
169.8253464730707
 30
0.0
 10
82.81774021500534
 20
168.9872967127997
 30
0.0
 10
83.31174736455199
 20
167.326815915909
 30
0.0
 10
83.67940487325224
 20
166.5036089110693
 30
0.0
 10
85.17774828291874
 20
164.134434250322
 30
0.0
 10
86.6616712129827
 20
162.6742046500986
 30
0.0
 10
90.30895261141569
 20
160.2253244696007
 30
0.0
 10
92.53838451853824
 20
159.2362401654045
 30
0.0
 10
97.38778096485892
 20
157.8636838387147
 30
0.0
 10
100.0191716420689
 20
157.4857890937812
 30
0.0
 10
105.2885816647748
 20
157.4015546913163
 30
0.0
 10
107.9291547680561
 20
157.7062219284001
 30
0.0
 10
111.5974225424066
 20
158.6109355601055
 30
0.0
 10
112.7813058141526
 20
158.9877802128002
 30
0.0
 10
114.9859802701105
 20
159.8899459240662
 30
0.0
 10
116.0089373546519
 20
160.4252863470347
 30
0.0
 10
118.7713757157189
 20
162.1868921211177
 30
0.0
 10
120.2675398516523
 20
163.5980533801045
 30
0.0
 10
122.3757359244634
 20
166.635204019454
 30
0.0
 10
123.0381353612709
 20
168.3104309853286
 30
0.0
 10
122.9327248139494
 20
170.0186194424572
 30
0.0
  0
ELLIPSE
  5
282
330
229
100
AcDbEntity
  8
$DDT_AUDIT_GENERATED_(E1)
  6
Continuous
 62
     7
100
AcDbEllipse
 10
102.7488857536
 20
166.1919904731
 30
0.0
 11
-56.44878351467369
 21
0.9853171813675733
 31
0.0
210
0.0
220
0.0
230
0.9999999999999998
 40
0.6427876097
 41
3.050861196993249
 42
3.266396991066541
  0
ELLIPSE
  5
283
330
229
100
AcDbEntity
  8
$DDT_AUDIT_GENERATED_(E1)
  6
Continuous
 62
     7
100
AcDbEllipse
 10
102.7488857536
 20
166.1919904731
 30
0.0
 11
-56.44878351467369
 21
0.9853171813675733
 31
0.0
210
0.0
220
0.0
230
0.9999999999999998
 40
0.6427876097
 41
0.0934978668371456
 42
3.050861196993249
  0
ELLIPSE
  5
284
330
229
100
AcDbEntity
  8
$DDT_AUDIT_GENERATED_(E1)
  6
Continuous
 62
     7
100
AcDbEllipse
 10
102.7488857536
 20
166.1919904731
 30
0.0
 11
-56.44878351467369
 21
0.9853171813675733
 31
0.0
210
0.0
220
0.0
230
0.9999999999999998
 40
0.6427876097
 41
-0.1160832695216845
 42
0.0934978668371456
  0
ELLIPSE
  5
285
330
229
100
AcDbEntity
  8
$DDT_AUDIT_GENERATED_(E1)
  6
Continuous
 62
     7
100
AcDbEllipse
 10
102.6419012903
 20
160.0628546751
 30
0.0
 11
-56.58844181247801
 21
0.9877549260234459
 31
0.0
210
0.0
220
0.0
230
0.9999999999999999
 40
0.6427876097
 41
-0.0146470622127348
 42
0.0369312271341546
  0
ELLIPSE
  5
286
330
229
100
AcDbEntity
  8
$DDT_AUDIT_GENERATED_(E1)
  6
Continuous
 62
     7
100
AcDbEllipse
 10
102.6419012903
 20
160.0628546751
 30
0.0
 11
-56.58844181247801
 21
0.9877549260234459
 31
0.0
210
0.0
220
0.0
230
0.9999999999999999
 40
0.6427876097
 41
0.0369312271341546
 42
3.10363778109362
  0
ELLIPSE
  5
287
330
229
100
AcDbEntity
  8
$DDT_AUDIT_GENERATED_(E1)
  6
Continuous
 62
     7
100
AcDbEllipse
 10
102.6419012903
 20
160.0628546751
 30
0.0
 11
-56.58844181247801
 21
0.9877549260234459
 31
0.0
210
0.0
220
0.0
230
0.9999999999999999
 40
0.6427876097
 41
3.10363778109362
 42
3.156239715802526
  0
ELLIPSE
  5
288
330
229
100
AcDbEntity
  8
$DDT_AUDIT_GENERATED_(E1)
  6
Continuous
 62
     7
100
AcDbEllipse
 10
102.5930904264
 20
157.2664821551
 30
0.0
 11
-63.17215986991783
 21
1.102674152185207
 31
0.0
210
0.0
220
0.0
230
1.0
 40
0.6427876097
 41
-0.1214553502207802
 42
0.0929272669462127
  0
ELLIPSE
  5
289
330
229
100
AcDbEntity
  8
$DDT_AUDIT_GENERATED_(E1)
  6
Continuous
 62
     7
100
AcDbEllipse
 10
102.5930904264
 20
157.2664821551
 30
0.0
 11
-63.17215986991783
 21
1.102674152185207
 31
0.0
210
0.0
220
0.0
230
1.0
 40
0.6427876097
 41
0.0929272669462127
 42
3.048465412022135
  0
ELLIPSE
  5
28A
330
229
100
AcDbEntity
  8
$DDT_AUDIT_GENERATED_(E1)
  6
Continuous
 62
     7
100
AcDbEllipse
 10
102.5930904264
 20
157.2664821551
 30
0.0
 11
-63.17215986991783
 21
1.102674152185207
 31
0.0
210
0.0
220
0.0
230
1.0
 40
0.6427876097
 41
3.048465412022135
 42
3.265431060231883
  0
ELLIPSE
  5
28B
330
229
100
AcDbEntity
  8
$DDT_AUDIT_GENERATED_(E1)
  6
Continuous
 62
     7
100
AcDbEllipse
 10
102.4280975378
 20
147.8140458971
 30
0.0
 11
-63.38754278940566
 21
1.106433675029286
 31
0.0
210
0.0
220
0.0
230
0.9999999999999998
 40
0.6427876097
 41
3.005224620809204
 42
3.156239715849269
  0
ELLIPSE
  5
28C
330
229
100
AcDbEntity
  8
$DDT_AUDIT_GENERATED_(E1)
  6
Continuous
 62
     7
100
AcDbEllipse
 10
102.4280975378
 20
147.8140458971
 30
0.0
 11
-63.38754278940566
 21
1.106433675029286
 31
0.0
210
0.0
220
0.0
230
0.9999999999999998
 40
0.6427876097
 41
-0.0146470622594757
 42
0.1418340505053635
  0
ARC
  5
28D
330
229
100
AcDbEntity
  8
$DDT_AUDIT_GENERATED_(E1)
  6
Continuous
 62
     7
100
AcDbCircle
 10
103.4
 20
203.4943006666
 30
0.0
 40
14.69999999999438
100
AcDbArc
 50
132.5320295484
 51
176.0
  0
ARC
  5
28E
330
229
100
AcDbEntity
  8
$DDT_AUDIT_GENERATED_(E1)
  6
Continuous
 62
     7
100
AcDbCircle
 10
103.4
 20
203.4943006666
 30
0.0
 40
14.70000000000014
100
AcDbArc
 50
45.4679704516
 51
132.5320295484
  0
ARC
  5
28F
330
229
100
AcDbEntity
  8
$DDT_AUDIT_GENERATED_(E1)
  6
Continuous
 62
     7
100
AcDbCircle
 10
103.4
 20
203.4943006666
 30
0.0
 40
14.70000000000014
100
AcDbArc
 50
2.0
 51
45.4679704516
  0
LINE
  5
290
330
229
100
AcDbEntity
  8
$DDT_AUDIT_GENERATED_(E1)
  6
Continuous
 62
     7
100
AcDbLine
 10
88.5668435608
 20
202.1034101808
 30
0.0
 11
88.7358084612
 21
204.5197208306
 31
0.0
  0
LINE
  5
291
330
229
100
AcDbEntity
  8
$DDT_AUDIT_GENERATED_(E1)
  6
Continuous
 62
     7
100
AcDbLine
 10
118.0910451572
 20
204.0073232681
 30
0.0
 11
118.1755791032
 21
201.5865877795
 31
0.0
  0
SPLINE
  5
292
330
229
100
AcDbEntity
  8
$DDT_AUDIT_GENERATED_(E1)
  6
Continuous
 62
     7
100
AcDbSpline
210
0.0
220
0.0
230
1.0
 70
     8
 71
     3
 72
    24
 73
    20
 74
     0
 42
0.00000000009055
 43
0.0000000001
 40
0.5406337188231115
 40
0.5406337188231115
 40
0.5406337188231115
 40
0.5406337188231115
 40
0.5625000000000001
 40
0.5625000000000001
 40
0.6250000000000001
 40
0.6250000000000001
 40
0.6562500000000001
 40
0.6562500000000001
 40
0.6875000000000001
 40
0.6875000000000001
 40
0.7500000000000001
 40
0.7500000000000001
 40
0.8125000000000001
 40
0.8125000000000001
 40
0.8750000000000001
 40
0.8750000000000001
 40
0.9375000000000001
 40
0.9375000000000001
 40
0.9596273460173455
 40
0.9596273460173455
 40
0.9596273460173455
 40
0.9596273460173455
 10
83.29860872901104
 20
173.9259939948971
 30
0.0
 10
83.53878957006746
 20
174.4991794497361
 30
0.0
 10
83.84268789963451
 20
175.0606544777347
 30
0.0
 10
85.2676023480692
 20
177.1578455443044
 30
0.0
 10
86.76701671606179
 20
178.5604907352738
 30
0.0
 10
89.57095865374446
 20
180.3399380896871
 30
0.0
 10
90.59909705430904
 20
180.8749868912657
 30
0.0
 10
92.81542175850049
 20
181.7839831902934
 30
0.0
 10
94.00032388229037
 20
182.1630591419378
 30
0.0
 10
97.69421313971621
 20
183.0761338513572
 30
0.0
 10
100.3502029342377
 20
183.3802671403496
 30
0.0
 10
105.6469705373698
 20
183.2942856939055
 30
0.0
 10
108.2922082922419
 20
182.9131105493634
 30
0.0
 10
113.1701170284207
 20
181.5315840724109
 30
0.0
 10
115.3856101460266
 20
180.5532772850959
 30
0.0
 10
119.0763760840734
 20
178.0676888769121
 30
0.0
 10
120.5511818925171
 20
176.5981033290357
 30
0.0
 10
121.9242366914975
 20
174.4488297982737
 30
0.0
 10
122.227018419801
 20
173.8720225675496
 30
0.0
 10
122.4522702581501
 20
173.2833297124278
 30
0.0
  0
LINE
  5
293
330
229
100
AcDbEntity
  8
$DDT_AUDIT_GENERATED_(E1)
  6
Continuous
 62
     7
100
AcDbLine
 10
159.2335724009
 20
159.6079640084
 30
0.0
 11
159.2008905966
 21
165.7382224607
 31
0.0
  0
LINE
  5
294
330
229
100
AcDbEntity
  8
$DDT_AUDIT_GENERATED_(E1)
  6
Continuous
 62
     7
100
AcDbLine
 10
46.3154336714
 20
167.7086454408
 30
0.0
 11
46.0688288413
 21
161.5832619548
 31
0.0
  0
SPLINE
  5
295
330
229
100
AcDbEntity
  8
$DDT_AUDIT_GENERATED_(E1)
  6
Continuous
 62
     7
100
AcDbSpline
210
0.0
220
0.0
230
1.0
 70
     8
 71
     3
 72
    19
 73
    15
 74
     0
 42
0.0000000001865623
 43
0.0000000001
 40
0.0
 40
0.0
 40
0.0
 40
0.0
 40
0.0091700483401785
 40
0.0449943203371164
 40
0.0808460833032864
 40
0.1167319300632999
 40
0.1526562860237397
 40
0.1886213661680256
 40
0.2246273338349248
 40
0.2606726100356608
 40
0.2967542707762809
 40
0.3328684713948497
 40
0.3690108480342134
 40
0.4041867236219064
 40
0.4041867236219064
 40
0.4041867236219064
 40
0.4041867236219064
 10
165.3492747934772
 20
161.2846271375997
 30
0.0
 10
165.3240746344251
 20
161.4498374053832
 30
0.0
 10
165.2173768651478
 20
162.143247306332
 30
0.0
 10
164.8931732515498
 20
163.4984946034694
 30
0.0
 10
164.391038379152
 20
165.2241972912762
 30
0.0
 10
163.7626286090914
 20
166.9525971725378
 30
0.0
 10
163.0239753570489
 20
168.6586129867291
 30
0.0
 10
162.1722757351659
 20
170.34498867455
 30
0.0
 10
161.2100660359863
 20
172.0069848323131
 30
0.0
 10
160.1387490057516
 20
173.6418732571711
 30
0.0
 10
158.9603375500901
 20
175.2464125005327
 30
0.0
 10
157.676985225406
 20
176.8175506383411
 30
0.0
 10
156.3037600691122
 20
178.3382452882019
 30
0.0
 10
155.3279705570498
 20
179.3215731743105
 30
0.0
 10
154.8315074549533
 20
179.7998090390166
 30
0.0
  0
SPLINE
  5
296
330
229
100
AcDbEntity
  8
$DDT_AUDIT_GENERATED_(E1)
  6
Continuous
 62
     7
100
AcDbSpline
210
0.0
220
0.0
230
1.0
 70
     8
 71
     3
 72
    20
 73
    16
 74
     0
 42
0.0000000001862702
 43
0.0000000001
 40
0.5952310407169273
 40
0.5952310407169273
 40
0.5952310407169273
 40
0.5952310407169273
 40
0.6027315144227146
 40
0.6388748381540127
 40
0.6750025945847618
 40
0.7111103651716735
 40
0.7471934433062107
 40
0.7832470471526305
 40
0.8192666138169968
 40
0.8552481690652471
 40
0.8911887512562751
 40
0.9270868502618317
 40
0.962942805748926
 40
0.9987590994139063
 40
1.0
 40
1.0
 40
1.0
 40
1.0
 10
51.14641365227197
 20
181.5853717215929
 30
0.0
 10
51.03694979891731
 20
181.4869042984214
 30
0.0
 10
50.40396964282314
 20
180.912006895433
 30
0.0
 10
49.28950647545852
 20
179.8408662098467
 30
0.0
 10
47.87386184640976
 20
178.3423363768427
 30
0.0
 10
46.56011724729562
 20
176.804024981576
 30
0.0
 10
45.35084249237472
 20
175.2289032676457
 30
0.0
 10
44.24835294825835
 20
173.6200026672475
 30
0.0
 10
43.25487720034533
 20
171.9806144498406
 30
0.0
 10
42.3718604326041
 20
170.3134882088484
 30
0.0
 10
41.60249719474356
 20
168.6237395774993
 30
0.0
 10
40.94224963550609
 20
166.9079184700316
 30
0.0
 10
40.41415298074096
 20
165.194623580334
 30
0.0
 10
40.09057568946158
 20
163.9721696900152
 30
0.0
 10
39.98973422876715
 20
163.3980424676529
 30
0.0
 10
39.98582201058095
 20
163.3757473889136
 30
0.0
  0
LINE
  5
297
330
229
100
AcDbEntity
  8
$DDT_AUDIT_GENERATED_(E1)
  6
Continuous
 62
     7
100
AcDbLine
 10
165.8192576255
 20
147.3045001213
 30
0.0
 11
165.7688553035
 21
156.7586677519
 31
0.0
  0
LINE
  5
298
330
229
100
AcDbEntity
  8
$DDT_AUDIT_GENERATED_(E1)
  6
Continuous
 62
     7
100
AcDbLine
 10
39.4380880512
 20
158.9637794967
 30
0.0
 11
39.0577707409
 21
149.5171301052
 31
0.0
  0
SPLINE
  5
299
330
229
100
AcDbEntity
  8
$DDT_AUDIT_GENERATED_(E1)
  6
Continuous
 62
     7
100
AcDbSpline
210
0.0
220
0.0
230
1.0
 70
     8
 71
     3
 72
    75
 73
    71
 74
     0
 42
0.0000000000647777
 43
0.0000000001
 40
0.0
 40
0.0
 40
0.0
 40
0.0
 40
0.0063357200423526
 40
0.0212630334798172
 40
0.0361997166385355
 40
0.0511473208193923
 40
0.0661067311226298
 40
0.0810781967581642
 40
0.0960614130079454
 40
0.1110556355942502
 40
0.1260598079107008
 40
0.1410726846431045
 40
0.1560929402106302
 40
0.1711192557037629
 40
0.186150382509149
 40
0.2011851840546843
 40
0.216222659004063
 40
0.2312619499933758
 40
0.2463023419686307
 40
0.2613432536842559
 40
0.2763841169478324
 40
0.2914245905125719
 40
0.3064644417062444
 40
0.3215035115861219
 40
0.3365417025133202
 40
0.3515789672163664
 40
0.3666152993738716
 40
0.3816507256448736
 40
0.3966852990177475
 40
0.4117190933216055
 40
0.4267521987369798
 40
0.4417847181470544
 40
0.4568167641814538
 40
0.4718484568178378
 40
0.4868799214200636
 40
0.5019112871038315
 40
0.516942685330791
 40
0.5319742181436086
 40
0.547006004544919
 40
0.5620381762351742
 40
0.577070862616923
 40
0.592104189283117
 40
0.6071382762294527
 40
0.6221732356835264
 40
0.6372091694339138
 40
0.6522461655284121
 40
0.6672842941959979
 40
0.6823236028330557
 40
0.6973641098840739
 40
0.7124057974444928
 40
0.727448602425278
 40
0.7424924061541504
 40
0.7575370223600493
 40
0.772582183611996
 40
0.7876274460908399
 40
0.8026722319444531
 40
0.8177158949046984
 40
0.8327576448681927
 40
0.8477965403585188
 40
0.8628314891101998
 40
0.8778612606759696
 40
0.8928845153907667
 40
0.9078998538528106
 40
0.9229058899514522
 40
0.9379013480443453
 40
0.952885181007238
 40
0.9678567007748727
 40
0.9828157074389178
 40
0.9977625983209828
 40
1.0
 40
1.0
 40
1.0
 40
1.0
 10
39.59836697386401
 20
143.0537265271655
 30
0.0
 10
39.64990262097439
 20
142.7808080064753
 30
0.0
 10
39.79891342125763
 20
142.0009863326916
 30
0.0
 10
40.19705445484427
 20
140.5563030253299
 30
0.0
 10
40.76806720191771
 20
138.8397296529542
 30
0.0
 10
41.4626224407496
 20
137.1241489246819
 30
0.0
 10
42.26719343782482
 20
135.4322317065629
 30
0.0
 10
43.18370103401255
 20
133.7618743472779
 30
0.0
 10
44.20963763487941
 20
132.1176083087744
 30
0.0
 10
45.34339354452182
 20
130.5021560119101
 30
0.0
 10
46.58282860348407
 20
128.9186760565532
 30
0.0
 10
47.92566123207138
 20
127.3701413238322
 30
0.0
 10
49.36937405744089
 20
125.8594882162934
 30
0.0
 10
50.91125187605287
 20
124.3895619157342
 30
0.0
 10
52.54838542628834
 20
122.9631194598336
 30
0.0
 10
54.27768455985596
 20
121.5828202022792
 30
0.0
 10
56.09588840087606
 20
120.2512220583442
 30
0.0
 10
57.99957543288879
 20
118.9707780118719
 30
0.0
 10
59.98517260248482
 20
117.7438337925782
 30
0.0
 10
62.04895879381852
 20
116.5726288034611
 30
0.0
 10
64.18707735236818
 20
115.4592907850081
 30
0.0
 10
66.39554453465094
 20
114.4058338933779
 30
0.0
 10
68.6702624549583
 20
113.4141552215903
 30
0.0
 10
71.00702049022452
 20
112.4860364280982
 30
0.0
 10
73.40150125563346
 20
111.6231423879893
 30
0.0
 10
75.84928770683072
 20
110.8270192443106
 30
0.0
 10
78.34587041698485
 20
110.099092421329
 30
0.0
 10
80.88665505746776
 20
109.440664643927
 30
0.0
 10
83.46697009419432
 20
108.8529140070195
 30
0.0
 10
86.08207469902534
 20
108.3368921357837
 30
0.0
 10
88.72716686633369
 20
107.8935224730597
 30
0.0
 10
91.39739171822781
 20
107.523598725274
 30
0.0
 10
94.08784997736939
 20
107.2277834932553
 30
0.0
 10
96.79360658325649
 20
107.0066071095244
 30
0.0
 10
99.50969942594365
 20
106.8604666993147
 30
0.0
 10
102.2311481696182
 20
106.7896254785968
 30
0.0
 10
104.9529612981321
 20
106.7942122957621
 30
0.0
 10
107.6701460797119
 20
106.8742211793041
 30
0.0
 10
110.377718400773
 20
107.029511319248
 30
0.0
 10
113.0707135524871
 20
107.2598076241357
 30
0.0
 10
115.7441940633352
 20
107.5647014264663
 30
0.0
 10
118.3932576432866
 20
107.9436512902561
 30
0.0
 10
121.01304584105
 20
108.3959840848434
 30
0.0
 10
123.5987525616943
 20
108.9208962885257
 30
0.0
 10
126.1456324155317
 20
109.517455505407
 30
0.0
 10
128.6490088703481
 20
110.1846021738041
 30
0.0
 10
131.104282180942
 20
110.9211514387599
 30
0.0
 10
133.5069370730834
 20
111.7257951546102
 30
0.0
 10
135.8525501639682
 20
112.5971039762668
 30
0.0
 10
138.1367971087411
 20
113.5335294901282
 30
0.0
 10
140.3554594734505
 20
114.5334063278875
 30
0.0
 10
142.5044313499883
 20
115.5949541998951
 30
0.0
 10
144.5797257485962
 20
116.7162797806403
 30
0.0
 10
146.5774772726058
 20
117.895376279923
 30
0.0
 10
148.4939481248725
 20
119.1301236811388
 30
0.0
 10
150.325537857645
 20
120.4182908774766
 30
0.0
 10
152.0687932364262
 20
121.7575387339649
 30
0.0
 10
153.72041557623
 20
123.1454215513137
 30
0.0
 10
155.2772662654152
 20
124.5793862923152
 30
0.0
 10
156.7363748688759
 20
126.0567726182414
 30
0.0
 10
158.0949521518731
 20
127.5748183700663
 30
0.0
 10
159.3503898180391
 20
129.130648979961
 30
0.0
 10
160.5003146276313
 20
130.721333808243
 30
0.0
 10
161.5424432088814
 20
132.3437029673882
 30
0.0
 10
162.475180698236
 20
133.9950701507831
 30
0.0
 10
163.2954426262287
 20
135.6705927412658
 30
0.0
 10
164.0068185590512
 20
137.37318265578
 30
0.0
 10
164.5891706810758
 20
139.076646715333
 30
0.0
 10
164.9639163721347
 20
140.357257378922
 30
0.0
 10
165.0931187338681
 20
140.9895158640785
 30
0.0
 10
165.1126411832326
 20
141.0854154480903
 30
0.0
  0
SPLINE
  5
29A
330
229
100
AcDbEntity
  8
$DDT_AUDIT_GENERATED_(E1)
  6
Continuous
 62
     7
100
AcDbSpline
210
0.0
220
0.0
230
1.0
 70
     8
 71
     3
 72
    13
 73
     9
 74
     0
 42
0.0000000054490961
 43
0.0000000001
 40
0.0
 40
0.0
 40
0.0
 40
0.0
 40
0.112625968283752
 40
0.2696430904939799
 40
0.4194754903333806
 40
0.5683903367903497
 40
0.7119970714621492
 40
0.8115625486354588
 40
0.8115625486354588
 40
0.8115625486354588
 40
0.8115625486354588
 10
119.4809239432615
 20
201.0237044072931
 30
0.0
 10
119.3607110848924
 20
201.0492171321908
 30
0.0
 10
119.1166680867918
 20
201.1022666719955
 30
0.0
 10
118.757114339346
 20
201.2338984001936
 30
0.0
 10
118.4522529052956
 20
201.3901226309148
 30
0.0
 10
118.2538844952063
 20
201.536287392018
 30
0.0
 10
118.1709846868161
 20
201.632572506657
 30
0.0
 10
118.1646282743279
 20
201.6491701621158
 30
0.0
 10
118.1645901587088
 20
201.6491736454519
 30
0.0
  0
SPLINE
  5
29B
330
229
100
AcDbEntity
  8
$DDT_AUDIT_GENERATED_(E1)
  6
Continuous
 62
     7
100
AcDbSpline
210
0.0
220
0.0
230
1.0
 70
     8
 71
     3
 72
    33
 73
    29
 74
     0
 42
0.0000000001882774
 43
0.0000000001
 40
0.0
 40
0.0
 40
0.0
 40
0.0
 40
0.0281200677710314
 40
0.0672202683532376
 40
0.1063602943563323
 40
0.1455475523573762
 40
0.1847862953798456
 40
0.2240777358553334
 40
0.26342043143793
 40
0.3028108460645279
 40
0.3422439829676022
 40
0.3817140005422966
 40
0.4212147479911945
 40
0.4607401867617258
 40
0.5002846891771733
 40
0.5398432237484599
 40
0.5794114468098922
 40
0.618985723656421
 40
0.6585631013791771
 40
0.6981408734936149
 40
0.7377171614111651
 40
0.7772908109632211
 40
0.8168610456057092
 40
0.8564273999682898
 40
0.8959896615566771
 40
0.9355478209090136
 40
0.9751020298286583
 40
1.0
 40
1.0
 40
1.0
 40
1.0
 10
158.8168061565649
 20
169.8290647205164
 30
0.0
 10
158.7387540901647
 20
170.2678244188827
 30
0.0
 10
158.5774379292649
 20
171.155308794706
 30
0.0
 10
158.1661558795812
 20
172.6857003724331
 30
0.0
 10
157.6204820352334
 20
174.3138483577634
 30
0.0
 10
156.954900847088
 20
175.9377911522895
 30
0.0
 10
156.1783584235689
 20
177.538412722597
 30
0.0
 10
155.2902324488868
 20
179.1166199588865
 30
0.0
 10
154.2928021874448
 20
180.6679333721719
 30
0.0
 10
153.1879135711904
 20
182.1893363857032
 30
0.0
 10
151.9778762025258
 20
183.6774679929882
 30
0.0
 10
150.6652142945054
 20
185.1291388174073
 30
0.0
 10
149.2527178186034
 20
186.5412197103539
 30
0.0
 10
147.743408512143
 20
187.9106933964056
 30
0.0
 10
146.140526842782
 20
189.2346565801739
 30
0.0
 10
144.4475136426009
 20
190.510330054048
 30
0.0
 10
142.6679943668799
 20
191.7350625171781
 30
0.0
 10
140.8057660291914
 20
192.9063327243153
 30
0.0
 10
138.8647872646756
 20
194.0217478567386
 30
0.0
 10
136.849178817597
 20
195.0790433904101
 30
0.0
 10
134.7631554833667
 20
196.076100273913
 30
0.0
 10
132.6112127378802
 20
197.0108930039567
 30
0.0
 10
130.3973662510827
 20
197.8816896852578
 30
0.0
 10
128.1279716734253
 20
198.686293541468
 30
0.0
 10
125.8011827856757
 20
199.4248695936793
 30
0.0
 10
123.4462506532536
 20
200.0894038496135
 30
0.0
 10
121.2817650620927
 20
200.6272714551863
 30
0.0
 10
120.0425935906362
 20
200.8971409563062
 30
0.0
 10
119.4774434107787
 20
201.0192178209508
 30
0.0
  0
SPLINE
  5
29C
330
229
100
AcDbEntity
  8
$DDT_AUDIT_GENERATED_(E1)
  6
Continuous
 62
     7
100
AcDbSpline
210
0.0
220
0.0
230
1.0
 70
     8
 71
     3
 72
    33
 73
    29
 74
     0
 42
0.000000000187118
 43
0.0000000001
 40
0.0
 40
0.0
 40
0.0
 40
0.0
 40
0.0207025687590761
 40
0.0599567450293757
 40
0.0992174920857155
 40
0.1384830595307615
 40
0.1777537546976186
 40
0.2170297622403647
 40
0.2563111090247426
 40
0.2955976218156712
 40
0.3348888765569059
 40
0.374184138712868
 40
0.4134822947834294
 40
0.4527815777273441
 40
0.492079258350324
 40
0.5313723986227574
 40
0.5706573546479832
 40
0.609929738138491
 40
0.6491844238605983
 40
0.6884156257211574
 40
0.7276170661034184
 40
0.7667822605076912
 40
0.8059049302738489
 40
0.8449795384152193
 40
0.8840019175422784
 40
0.9229699278668166
 40
0.9618840544520216
 40
1.0
 40
1.0
 40
1.0
 40
1.0
 10
87.24597138774004
 20
201.581820257845
 30
0.0
 10
86.76904163950215
 20
201.4964905193885
 30
0.0
 10
85.5965151263893
 20
201.2848905536467
 30
0.0
 10
83.49295827052542
 20
200.8467978456932
 30
0.0
 10
81.11292793301573
 20
200.2721930253615
 30
0.0
 10
78.75658570679482
 20
199.622358838846
 30
0.0
 10
76.45508872469208
 20
198.9043957467616
 30
0.0
 10
74.20614934080768
 20
198.1181422577659
 30
0.0
 10
72.01630431449782
 20
197.2655497095539
 30
0.0
 10
69.88958856716359
 20
196.3481700415093
 30
0.0
 10
67.83056139899074
 20
195.3678267867874
 30
0.0
 10
65.84348663746803
 20
194.3264334316903
 30
0.0
 10
63.93254704855637
 20
193.2260427903267
 30
0.0
 10
62.10178515536749
 20
192.0688386455111
 30
0.0
 10
60.35510338556946
 20
190.8571372013015
 30
0.0
 10
58.69624880786557
 20
189.5933858478174
 30
0.0
 10
57.12880004639214
 20
188.280160221517
 30
0.0
 10
55.6561629471922
 20
186.9201708811478
 30
0.0
 10
54.28155663764582
 20
185.5162623991125
 30
0.0
 10
53.00800140095583
 20
184.0714214551057
 30
0.0
 10
51.83828813488304
 20
182.5887427205519
 30
0.0
 10
50.77500611319376
 20
181.0715376591959
 30
0.0
 10
49.82034646625044
 20
179.5228899237021
 30
0.0
 10
48.97674109861993
 20
177.9472464692416
 30
0.0
 10
48.24439914876313
 20
176.3443958923735
 30
0.0
 10
47.63042127784176
 20
174.7317745121269
 30
0.0
 10
47.11812996542913
 20
173.0719474968105
 30
0.0
 10
46.89389058152826
 20
172.0587553819215
 30
0.0
 10
46.76523433000763
 20
171.4637319958846
 30
0.0
  0
SPLINE
  5
29D
330
229
100
AcDbEntity
  8
$DDT_AUDIT_GENERATED_(E1)
  6
Continuous
 62
     7
100
AcDbSpline
210
0.0
220
0.0
230
1.0
 70
     8
 71
     3
 72
    14
 73
    10
 74
     0
 42
0.0000000055017158
 43
0.0000000001
 40
0.1810745840107411
 40
0.1810745840107411
 40
0.1810745840107411
 40
0.1810745840107411
 40
0.2723054615427274
 40
0.4026576427044863
 40
0.5388552600149504
 40
0.6856607039647056
 40
0.8309457854973422
 40
0.987497318906083
 40
1.0
 40
1.0
 40
1.0
 40
1.0
 10
88.57968013128959
 20
202.1659958481152
 30
0.0
 10
88.57989504384365
 20
202.1662471431168
 30
0.0
 10
88.57516837346887
 20
202.1525437578165
 30
0.0
 10
88.51117421902133
 20
202.0800903692468
 30
0.0
 10
88.34438697771269
 20
201.9535115307166
 30
0.0
 10
88.07593414298468
 20
201.8135830874701
 30
0.0
 10
87.7182786814904
 20
201.6866842960426
 30
0.0
 10
87.41979076551976
 20
201.6058051625885
 30
0.0
 10
87.25889928293941
 20
201.5852239655129
 30
0.0
 10
87.24508211105878
 20
201.5834630961474
 30
0.0
  0
SPLINE
  5
29E
330
229
100
AcDbEntity
  8
$DDT_AUDIT_GENERATED_(107)
  6
Continuous
 62
     7
100
AcDbSpline
210
0.0
220
0.0
230
1.0
 70
     8
 71
     3
 72
    40
 73
    36
 74
     0
 42
0.0000000000648808
 43
0.0000000001
 40
0.2356799928584578
 40
0.2356799928584578
 40
0.2356799928584578
 40
0.2356799928584578
 40
0.2414639594377636
 40
0.2580777477765722
 40
0.2746908653251599
 40
0.2913028144264205
 40
0.3079132539356687
 40
0.3245219728040425
 40
0.3411288667136437
 40
0.3577339179164126
 40
0.3743371781706512
 40
0.3909387545194341
 40
0.4075387975821715
 40
0.4241374920069311
 40
0.4407350487369924
 40
0.4573316987668278
 40
0.4739276880911101
 40
0.4905232735796589
 40
0.5071187195378075
 40
0.5237142947334401
 40
0.5403101872834604
 40
0.5569066599867237
 40
0.5735039805635508
 40
0.5901024110672581
 40
0.6067022044713967
 40
0.6233036005815996
 40
0.6399068210277733
 40
0.656512063065381
 40
0.6731194918829034
 40
0.6897292310804527
 40
0.7063413509574297
 40
0.722955854233306
 40
0.73957265883816
 40
0.7561915774670785
 40
0.7651576553333892
 40
0.7651576553333892
 40
0.7651576553333892
 40
0.7651576553333892
 10
62.57777525296804
 20
116.3023461602508
 30
0.0
 10
62.81416545935582
 20
116.1687544602159
 30
0.0
 10
63.73549053050788
 20
115.6559410937035
 30
0.0
 10
65.3794859970122
 20
114.7935272564315
 30
0.0
 10
67.55028427482978
 20
113.7520404754837
 30
0.0
 10
69.78730331534346
 20
112.7728031757623
 30
0.0
 10
72.08623996469547
 20
111.8576017751118
 30
0.0
 10
74.44268712103262
 20
111.0081007589631
 30
0.0
 10
76.85214055219055
 20
110.225841691339
 30
0.0
 10
79.31000586432368
 20
109.5122419596471
 30
0.0
 10
81.81160569659409
 20
108.8685933334427
 30
0.0
 10
84.35218718319382
 20
108.29606041791
 30
0.0
 10
86.92692969746484
 20
107.7956790781825
 30
0.0
 10
89.53095287373944
 20
107.3683549025282
 30
0.0
 10
92.15932488899412
 20
107.0148617629863
 30
0.0
 10
94.80707097721425
 20
106.7358405224873
 30
0.0
 10
97.46918214325848
 20
106.531797928318
 30
0.0
 10
100.1406240393626
 20
106.4031057234948
 30
0.0
 10
102.8163459642209
 20
106.3499999999999
 30
0.0
 10
105.491285518862
 20
106.3725807738656
 30
0.0
 10
108.1603818280322
 20
106.4708113278758
 30
0.0
 10
110.8185852488754
 20
106.6445183467444
 30
0.0
 10
113.4608709247938
 20
106.8933929784053
 30
0.0
 10
116.0822437655092
 20
107.2169915964916
 30
0.0
 10
118.6777469085699
 20
107.6147367782348
 30
0.0
 10
121.2424704207748
 20
108.0859185401774
 30
0.0
 10
123.7715597866152
 20
108.629695791329
 30
0.0
 10
126.2602241416627
 20
109.2450979694335
 30
0.0
 10
128.7037442112854
 20
109.9310268155917
 30
0.0
 10
131.097479919767
 20
110.6862582304506
 30
0.0
 10
133.4368776426143
 20
111.5094441416095
 30
0.0
 10
135.7174770871348
 20
112.3991142972331
 30
0.0
 10
137.9349178042262
 20
113.3536778853071
 30
0.0
 10
139.7548439016398
 20
114.2151665132533
 30
0.0
 10
140.8298303020836
 20
114.7616374096358
 30
0.0
 10
141.2029666236957
 20
114.9560644738757
 30
0.0
  0
LINE
  5
2A0
330
229
100
AcDbEntity
  8
DV3_Standard
  6
Continuous
 62
     7
100
AcDbLine
 10
39.5
 20
268.4943006666
 30
0.0
 11
60.5
 21
268.4943006666
 31
0.0
  0
LINE
  5
2A1
330
229
100
AcDbEntity
  8
DV3_Standard
  6
CENTER2
 62
     7
100
AcDbLine
 10
69.999999553
 20
268.4943006666
 30
0.0
 11
30.000000447
 21
268.4943006666
 31
0.0
  0
LINE
  5
2A2
330
229
100
AcDbEntity
  8
DV3_Standard
  6
CENTER2
 62
     7
100
AcDbLine
 10
50.0
 20
288.4943002196
 30
0.0
 11
50.0
 21
248.4943011136
 31
0.0
  0
ENDBLK
  5
2A4
330
229
100
AcDbEntity
  8
0
100
AcDbBlockEnd
  0
ENDSEC
  0
SECTION
  2
ENTITIES
  0
INSERT
  5
5F
330
1F
100
AcDbEntity
  8
Default
100
AcDbBlockReference
  2
SE
 10
0.0
 20
0.0
 30
0.0
  0
INSERT
  5
14C
330
1F
100
AcDbEntity
  8
Default
100
AcDbBlockReference
  2
SE1
 10
0.0
 20
0.0
 30
0.0
  0
INSERT
  5
22A
330
1F
100
AcDbEntity
  8
Default
100
AcDbBlockReference
  2
SE2
 10
0.0
 20
0.0
 30
0.0
  0
TEXT
  5
2A6
330
1F
100
AcDbEntity
  8
Default
  6
Continuous
 62
     7
100
AcDbText
 10
5.9362635081
 20
53.4225120485
 30
0.0
 40
10.0
  1
Grohe AG^J
  7
SEACAD_seiso_ttf
 11
5.9362635081
 21
63.4225120485
 31
0.0
100
AcDbText
 73
     3
  0
TEXT
  5
2A7
330
1F
100
AcDbEntity
  8
Default
  6
Continuous
 62
     7
100
AcDbText
 10
5.9362635081
 20
37.0588756849
 30
0.0
 40
10.0
  1
 
  7
SEACAD_seiso_ttf
 11
5.9362635081
 21
47.0588756849
 31
0.0
100
AcDbText
 73
     3
  0
TEXT
  5
2A8
330
1F
100
AcDbEntity
  8
Default
  6
Continuous
 62
     7
100
AcDbText
 10
5.9362635081
 20
20.6952393213
 30
0.0
 40
10.0
  1
ecn: 
  7
SEACAD_seiso_ttf
 11
5.9362635081
 21
30.6952393213
 31
0.0
100
AcDbText
 73
     3
  0
TEXT
  5
2A9
330
1F
100
AcDbEntity
  8
Default
  6
Continuous
 62
     7
100
AcDbText
 10
5.9362635081
 20
4.3316029576
 30
0.0
 40
10.0
  1
unit: mm
  7
SEACAD_seiso_ttf
 11
5.9362635081
 21
14.3316029576
 31
0.0
100
AcDbText
 73
     3
  0
LINE
  5
2AA
330
1F
100
AcDbEntity
  8
Default
  6
Continuous
 62
     7
100
AcDbLine
 10
0.0
 20
0.0
 30
0.0
 11
100.0
 21
0.0
 31
0.0
  0
LINE
  5
2AB
330
1F
100
AcDbEntity
  8
Default
  6
Continuous
 62
     7
100
AcDbLine
 10
0.0
 20
0.0
 30
0.0
 11
0.0
 21
100.0
 31
0.0
  0
TEXT
  5
2AC
330
1F
100
AcDbEntity
  8
Default
  6
Continuous
 62
     7
100
AcDbText
 10
24.3923665681
 20
-18.2375342018
 30
0.0
 40
10.0
  1
100 mm
  7
SEACAD_seiso_ttf
 11
24.3923665681
 21
-8.2375342018
 31
0.0
100
AcDbText
 73
     3
  0
TEXT
  5
2AD
330
1F
100
AcDbEntity
  8
Default
  6
Continuous
 62
     7
100
AcDbText
 10
-7.6150308803
 20
24.6231930421
 30
0.0
 40
10.0
  1
100 mm
 50
90.0
  7
SEACAD_seiso_ttf
 11
-17.6150308803
 21
24.6231930421
 31
0.0
100
AcDbText
 73
     3
  0
TEXT
  5
2AE
330
1F
100
AcDbEntity
  8
Default
  6
Continuous
 62
     7
100
AcDbText
 10
28.4878128572
 20
20.0907663715
 30
0.0
 40
10.0
  1
215952
  7
SEACAD_seiso_ttf
 11
28.4878128572
 21
30.0907663715
 31
0.0
100
AcDbText
 73
     3
  0
TEXT
  5
2AF
330
1F
100
AcDbEntity
  8
Default
  6
Continuous
 62
     7
100
AcDbText
 10
5.9012241913
 20
36.7242780188
 30
0.0
 40
10.0
  1
28762000
  7
SEACAD_seiso_ttf
 11
5.9012241913
 21
46.7242780188
 31
0.0
100
AcDbText
 73
     3
  0
ENDSEC
  0
SECTION
  2
OBJECTS
  0
DICTIONARY
  5
C
330
0
100
AcDbDictionary
281
     1
  3
ACAD_GROUP
350
D
  3
ACAD_LAYOUT
350
1A
  3
ACAD_MLEADERSTYLE
350
2B3
  3
ACAD_MLINESTYLE
350
17
  3
ACAD_PLOTSETTINGS
350
19
  3
ACAD_PLOTSTYLENAME
350
E
  3
ACAD_SCALELIST
350
3B
  3
ACAD_TABLESTYLE
350
2B2
  3
ACAD_VISUALSTYLE
350
2A
  3
AcDbVariableDictionary
350
2B0
  0
DICTIONARY
  5
D
102
{ACAD_REACTORS
330
C
102
}
330
C
100
AcDbDictionary
281
     1
  0
DICTIONARY
  5
1A
102
{ACAD_REACTORS
330
C
102
}
330
C
100
AcDbDictionary
281
     1
  3
Layout1
350
1E
  3
Model
350
22
  0
DICTIONARY
  5
2B3
102
{ACAD_REACTORS
330
C
102
}
330
C
100
AcDbDictionary
281
     1
  0
DICTIONARY
  5
17
102
{ACAD_REACTORS
330
C
102
}
330
C
100
AcDbDictionary
281
     1
  3
Standard
350
18
  0
DICTIONARY
  5
19
102
{ACAD_REACTORS
330
C
102
}
330
C
100
AcDbDictionary
281
     1
  0
ACDBDICTIONARYWDFLT
  5
E
102
{ACAD_REACTORS
330
C
102
}
330
C
100
AcDbDictionary
281
     1
  3
Normal
350
F
100
AcDbDictionaryWithDefault
340
F
  0
DICTIONARY
  5
3B
102
{ACAD_REACTORS
330
C
102
}
330
C
100
AcDbDictionary
281
     1
  3
A0
350
3C
  3
A1
350
3D
  3
A2
350
3E
  3
A3
350
3F
  3
A4
350
40
  3
A5
350
41
  3
A6
350
42
  3
A7
350
43
  3
A8
350
44
  3
A9
350
45
  3
B0
350
46
  3
B1
350
47
  3
B2
350
48
  3
B3
350
49
  3
B4
350
4A
  3
B5
350
4B
  3
B6
350
4C
  3
B7
350
4D
  3
B8
350
4E
  3
B9
350
4F
  3
C0
350
50
  3
C1
350
51
  3
C2
350
52
  3
C3
350
53
  3
C4
350
54
  3
C5
350
55
  3
C6
350
56
  3
C7
350
57
  3
C8
350
58
  3
C9
350
59
  3
D0
350
5A
  3
D1
350
5B
  3
D2
350
5C
  0
DICTIONARY
  5
2B2
102
{ACAD_REACTORS
330
C
102
}
330
C
100
AcDbDictionary
281
     1
  0
DICTIONARY
  5
2A
102
{ACAD_REACTORS
330
C
102
}
330
C
100
AcDbDictionary
281
     1
  3
2dWireframe
350
2F
  3
3D Hidden
350
31
  3
3dWireframe
350
30
  3
Basic
350
32
  3
Brighten
350
36
  3
ColorChange
350
3A
  3
Conceptual
350
34
  3
Dim
350
35
  3
Facepattern
350
39
  3
Flat
350
2B
  3
FlatWithEdges
350
2C
  3
Gouraud
350
2D
  3
GouraudWithEdges
350
2E
  3
Linepattern
350
38
  3
Realistic
350
33
  3
Thicken
350
37
  0
DICTIONARY
  5
2B0
102
{ACAD_REACTORS
330
C
102
}
330
C
100
AcDbDictionary
281
     1
  3
CANNOSCALE
350
2B1
  3
PSOLHEIGHT
350
2B5
  3
PSOLWIDTH
350
2B4
  0
LAYOUT
  5
1E
102
{ACAD_REACTORS
330
1A
102
}
330
1A
100
AcDbPlotSettings
  1

  2
none_device
  4

  6

 40
0.0
 41
0.0
 42
0.0
 43
0.0
 44
0.0
 45
0.0
 46
0.0
 47
0.0
 48
0.0
 49
0.0
140
0.0
141
0.0
142
1.0
143
1.0
 70
   688
 72
     0
 73
     0
 74
     5
  7

 75
    16
147
1.0
148
0.0
149
0.0
100
AcDbLayout
  1
Layout1
 70
     1
 71
     1
 10
0.0
 20
0.0
 11
1682.0
 21
2378.0
 12
0.0
 22
0.0
 32
0.0
 14
0.0
 24
0.0
 34
0.0
 15
1682.0
 25
2378.0
 35
0.0
146
0.0
 13
0.0
 23
0.0
 33
0.0
 16
1.0
 26
0.0
 36
0.0
 17
0.0
 27
1.0
 37
0.0
 76
     0
330
1B
  0
LAYOUT
  5
22
102
{ACAD_REACTORS
330
1A
102
}
330
1A
100
AcDbPlotSettings
  1

  2
none_device
  4

  6

 40
0.0
 41
0.0
 42
0.0
 43
0.0
 44
0.0
 45
0.0
 46
0.0
 47
0.0
 48
0.0
 49
0.0
140
0.0
141
0.0
142
1.0
143
1.0
 70
  1712
 72
     0
 73
     0
 74
     0
  7

 75
     0
147
1.0
148
0.0
149
0.0
100
AcDbLayout
  1
Model
 70
     1
 71
     0
 10
0.0
 20
0.0
 11
1682.0
 21
2378.0
 12
0.0
 22
0.0
 32
0.0
 14
0.0
 24
0.0
 34
0.0
 15
1682.0
 25
2378.0
 35
0.0
146
0.0
 13
0.0
 23
0.0
 33
0.0
 16
1.0
 26
0.0
 36
0.0
 17
0.0
 27
1.0
 37
0.0
 76
     0
330
1F
331
29
  0
MLINESTYLE
  5
18
102
{ACAD_REACTORS
330
17
102
}
330
17
100
AcDbMlineStyle
  2
Standard
 70
     0
  3

 62
   256
 51
90.0
 52
90.0
 71
     2
 49
0.5
 62
   256
  6
BYLAYER
 49
-0.5
 62
   256
  6
BYLAYER
  0
ACDBPLACEHOLDER
  5
F
102
{ACAD_REACTORS
330
E
102
}
330
E
  0
SCALE
  5
3C
102
{ACAD_REACTORS
330
3B
102
}
330
3B
100
AcDbScale
 70
     0
300
1:1
140
1.0
141
1.0
290
     1
  0
SCALE
  5
3D
102
{ACAD_REACTORS
330
3B
102
}
330
3B
100
AcDbScale
 70
     0
300
1:2
140
1.0
141
2.0
290
     0
  0
SCALE
  5
3E
102
{ACAD_REACTORS
330
3B
102
}
330
3B
100
AcDbScale
 70
     0
300
1:4
140
1.0
141
4.0
290
     0
  0
SCALE
  5
3F
102
{ACAD_REACTORS
330
3B
102
}
330
3B
100
AcDbScale
 70
     0
300
1:5
140
1.0
141
5.0
290
     0
  0
SCALE
  5
40
102
{ACAD_REACTORS
330
3B
102
}
330
3B
100
AcDbScale
 70
     0
300
1:8
140
1.0
141
8.0
290
     0
  0
SCALE
  5
41
102
{ACAD_REACTORS
330
3B
102
}
330
3B
100
AcDbScale
 70
     0
300
1:10
140
1.0
141
10.0
290
     0
  0
SCALE
  5
42
102
{ACAD_REACTORS
330
3B
102
}
330
3B
100
AcDbScale
 70
     0
300
1:16
140
1.0
141
16.0
290
     0
  0
SCALE
  5
43
102
{ACAD_REACTORS
330
3B
102
}
330
3B
100
AcDbScale
 70
     0
300
1:20
140
1.0
141
20.0
290
     0
  0
SCALE
  5
44
102
{ACAD_REACTORS
330
3B
102
}
330
3B
100
AcDbScale
 70
     0
300
1:30
140
1.0
141
30.0
290
     0
  0
SCALE
  5
45
102
{ACAD_REACTORS
330
3B
102
}
330
3B
100
AcDbScale
 70
     0
300
1:40
140
1.0
141
40.0
290
     0
  0
SCALE
  5
46
102
{ACAD_REACTORS
330
3B
102
}
330
3B
100
AcDbScale
 70
     0
300
1:50
140
1.0
141
50.0
290
     0
  0
SCALE
  5
47
102
{ACAD_REACTORS
330
3B
102
}
330
3B
100
AcDbScale
 70
     0
300
1:100
140
1.0
141
100.0
290
     0
  0
SCALE
  5
48
102
{ACAD_REACTORS
330
3B
102
}
330
3B
100
AcDbScale
 70
     0
300
2:1
140
2.0
141
1.0
290
     0
  0
SCALE
  5
49
102
{ACAD_REACTORS
330
3B
102
}
330
3B
100
AcDbScale
 70
     0
300
4:1
140
4.0
141
1.0
290
     0
  0
SCALE
  5
4A
102
{ACAD_REACTORS
330
3B
102
}
330
3B
100
AcDbScale
 70
     0
300
8:1
140
8.0
141
1.0
290
     0
  0
SCALE
  5
4B
102
{ACAD_REACTORS
330
3B
102
}
330
3B
100
AcDbScale
 70
     0
300
10:1
140
10.0
141
1.0
290
     0
  0
SCALE
  5
4C
102
{ACAD_REACTORS
330
3B
102
}
330
3B
100
AcDbScale
 70
     0
300
100:1
140
100.0
141
1.0
290
     0
  0
SCALE
  5
4D
102
{ACAD_REACTORS
330
3B
102
}
330
3B
100
AcDbScale
 70
     0
300
1/128" = 1'-0"
140
0.0078125
141
12.0
290
     0
  0
SCALE
  5
4E
102
{ACAD_REACTORS
330
3B
102
}
330
3B
100
AcDbScale
 70
     0
300
1/64" = 1'-0"
140
0.015625
141
12.0
290
     0
  0
SCALE
  5
4F
102
{ACAD_REACTORS
330
3B
102
}
330
3B
100
AcDbScale
 70
     0
300
1/32" = 1'-0"
140
0.03125
141
12.0
290
     0
  0
SCALE
  5
50
102
{ACAD_REACTORS
330
3B
102
}
330
3B
100
AcDbScale
 70
     0
300
1/16" = 1'-0"
140
0.0625
141
12.0
290
     0
  0
SCALE
  5
51
102
{ACAD_REACTORS
330
3B
102
}
330
3B
100
AcDbScale
 70
     0
300
3/32" = 1'-0"
140
0.09375
141
12.0
290
     0
  0
SCALE
  5
52
102
{ACAD_REACTORS
330
3B
102
}
330
3B
100
AcDbScale
 70
     0
300
1/8" = 1'-0"
140
0.125
141
12.0
290
     0
  0
SCALE
  5
53
102
{ACAD_REACTORS
330
3B
102
}
330
3B
100
AcDbScale
 70
     0
300
3/16" = 1'-0"
140
0.1875
141
12.0
290
     0
  0
SCALE
  5
54
102
{ACAD_REACTORS
330
3B
102
}
330
3B
100
AcDbScale
 70
     0
300
1/4" = 1'-0"
140
0.25
141
12.0
290
     0
  0
SCALE
  5
55
102
{ACAD_REACTORS
330
3B
102
}
330
3B
100
AcDbScale
 70
     0
300
3/8" = 1'-0"
140
0.375
141
12.0
290
     0
  0
SCALE
  5
56
102
{ACAD_REACTORS
330
3B
102
}
330
3B
100
AcDbScale
 70
     0
300
1/2" = 1'-0"
140
0.5
141
12.0
290
     0
  0
SCALE
  5
57
102
{ACAD_REACTORS
330
3B
102
}
330
3B
100
AcDbScale
 70
     0
300
3/4" = 1'-0"
140
0.75
141
12.0
290
     0
  0
SCALE
  5
58
102
{ACAD_REACTORS
330
3B
102
}
330
3B
100
AcDbScale
 70
     0
300
1" = 1'-0"
140
1.0
141
12.0
290
     0
  0
SCALE
  5
59
102
{ACAD_REACTORS
330
3B
102
}
330
3B
100
AcDbScale
 70
     0
300
1-1/2" = 1'-0"
140
1.5
141
12.0
290
     0
  0
SCALE
  5
5A
102
{ACAD_REACTORS
330
3B
102
}
330
3B
100
AcDbScale
 70
     0
300
3" = 1'-0"
140
3.0
141
12.0
290
     0
  0
SCALE
  5
5B
102
{ACAD_REACTORS
330
3B
102
}
330
3B
100
AcDbScale
 70
     0
300
6" = 1'-0"
140
6.0
141
12.0
290
     0
  0
SCALE
  5
5C
102
{ACAD_REACTORS
330
3B
102
}
330
3B
100
AcDbScale
 70
     0
300
1'-0" = 1'-0"
140
12.0
141
12.0
290
     0
  0
VISUALSTYLE
  5
2F
102
{ACAD_REACTORS
330
2A
102
}
330
2A
100
AcDbVisualStyle
  2
2dWireframe
 70
     4
 71
     0
 72
     2
 73
     0
 90
        0
 40
-0.6
 41
-30.0
 62
     5
 63
     7
 74
     1
 91
        4
 64
     7
 65
   257
 75
     1
175
     1
 42
1.0
 92
        0
 66
   257
 43
1.0
 76
     1
 77
     6
 78
     2
 67
     7
 79
     5
170
     0
171
     0
290
     0
174
     0
 93
        1
 44
0.0
173
     0
291
     0
 45
0.0
1001
ACAD
1000
AcDbSavedByObjectVersion
1070
     0
  0
VISUALSTYLE
  5
31
102
{ACAD_REACTORS
330
2A
102
}
330
2A
100
AcDbVisualStyle
  2
3D Hidden
 70
     6
 71
     1
 72
     2
 73
     2
 90
        0
 40
-0.6
 41
-30.0
 62
     5
 63
     7
 74
     2
 91
        2
 64
     7
 65
   257
 75
     2
175
     1
 42
40.0
 92
        0
 66
   257
 43
1.0
 76
     1
 77
     6
 78
     2
 67
     7
 79
     3
170
     0
171
     0
290
     0
174
     0
 93
        1
 44
0.0
173
     0
291
     0
 45
0.0
1001
ACAD
1000
AcDbSavedByObjectVersion
1070
     0
  0
VISUALSTYLE
  5
30
102
{ACAD_REACTORS
330
2A
102
}
330
2A
100
AcDbVisualStyle
  2
3dWireframe
 70
     5
 71
     0
 72
     2
 73
     0
 90
        0
 40
-0.6
 41
-30.0
 62
     5
 63
     7
 74
     1
 91
        4
 64
     7
 65
   257
 75
     1
175
     1
 42
1.0
 92
        0
 66
   257
 43
1.0
 76
     1
 77
     6
 78
     2
 67
     7
 79
     5
170
     0
171
     0
290
     0
174
     0
 93
        1
 44
0.0
173
     0
291
     0
 45
0.0
1001
ACAD
1000
AcDbSavedByObjectVersion
1070
     0
  0
VISUALSTYLE
  5
32
102
{ACAD_REACTORS
330
2A
102
}
330
2A
100
AcDbVisualStyle
  2
Basic
 70
     7
 71
     1
 72
     0
 73
     1
 90
        0
 40
-0.6
 41
-30.0
 62
     5
 63
     7
 74
     0
 91
        4
 64
     7
 65
   257
 75
     1
175
     1
 42
1.0
 92
        8
 66
     7
 43
1.0
 76
     1
 77
     6
 78
     2
 67
     7
 79
     5
170
     0
171
     0
290
     0
174
     0
 93
        1
 44
0.0
173
     0
291
     1
 45
0.0
1001
ACAD
1000
AcDbSavedByObjectVersion
1070
     0
  0
VISUALSTYLE
  5
36
102
{ACAD_REACTORS
330
2A
102
}
330
2A
100
AcDbVisualStyle
  2
Brighten
 70
    12
 71
     2
 72
     2
 73
     0
 90
        0
 40
-0.6
 41
-30.0
 62
     5
 63
     7
 74
     1
 91
        4
 64
     7
 65
   257
 75
     1
175
     1
 42
1.0
 92
        8
 66
     7
 43
1.0
 76
     1
 77
     6
 78
     2
 67
     7
 79
     5
170
     0
171
     0
290
     0
174
     0
 93
        1
 44
50.0
173
     0
291
     1
 45
0.0
1001
ACAD
1000
AcDbSavedByObjectVersion
1070
     0
  0
VISUALSTYLE
  5
3A
102
{ACAD_REACTORS
330
2A
102
}
330
2A
100
AcDbVisualStyle
  2
ColorChange
 70
    16
 71
     2
 72
     2
 73
     3
 90
        0
 40
-0.6
 41
-30.0
 62
     5
 63
     8
 74
     1
 91
        4
 64
     7
 65
   257
 75
     1
175
     1
 42
1.0
 92
        8
 66
     8
 43
1.0
 76
     1
 77
     6
 78
     2
 67
     7
 79
     5
170
     0
171
     0
290
     0
174
     0
 93
        1
 44
0.0
173
     0
291
     1
 45
0.0
1001
ACAD
1000
AcDbSavedByObjectVersion
1070
     0
  0
VISUALSTYLE
  5
34
102
{ACAD_REACTORS
330
2A
102
}
330
2A
100
AcDbVisualStyle
  2
Conceptual
 70
     9
 71
     3
 72
     2
 73
     0
 90
        0
 40
-0.6
 41
-30.0
 62
     5
 63
     7
 74
     2
 91
        2
 64
     7
 65
   257
 75
     1
175
     1
 42
40.0
 92
        8
 66
     7
 43
1.0
 76
     1
 77
     6
 78
     2
 67
     7
 79
     3
170
     0
171
     0
290
     0
174
     0
 93
        1
 44
0.0
173
     0
291
     0
 45
0.0
1001
ACAD
1000
AcDbSavedByObjectVersion
1070
     0
  0
VISUALSTYLE
  5
35
102
{ACAD_REACTORS
330
2A
102
}
330
2A
100
AcDbVisualStyle
  2
Dim
 70
    11
 71
     2
 72
     2
 73
     0
 90
        0
 40
-0.6
 41
-30.0
 62
     5
 63
     7
 74
     1
 91
        4
 64
     7
 65
   257
 75
     1
175
     1
 42
1.0
 92
        8
 66
     7
 43
1.0
 76
     1
 77
     6
 78
     2
 67
     7
 79
     5
170
     0
171
     0
290
     0
174
     0
 93
        1
 44
-50.0
173
     0
291
     1
 45
0.0
1001
ACAD
1000
AcDbSavedByObjectVersion
1070
     0
  0
VISUALSTYLE
  5
39
102
{ACAD_REACTORS
330
2A
102
}
330
2A
100
AcDbVisualStyle
  2
Facepattern
 70
    15
 71
     2
 72
     2
 73
     0
 90
        0
 40
-0.6
 41
-30.0
 62
     5
 63
     7
 74
     1
 91
        4
 64
     7
 65
   257
 75
     1
175
     1
 42
1.0
 92
        8
 66
     7
 43
1.0
 76
     1
 77
     6
 78
     2
 67
     7
 79
     5
170
     0
171
     0
290
     0
174
     0
 93
        1
 44
0.0
173
     0
291
     1
 45
0.0
1001
ACAD
1000
AcDbSavedByObjectVersion
1070
     0
  0
VISUALSTYLE
  5
2B
102
{ACAD_REACTORS
330
2A
102
}
330
2A
100
AcDbVisualStyle
  2
Flat
 70
     0
 71
     2
 72
     1
 73
     1
 90
        2
 40
-0.6
 41
30.0
 62
     5
 63
     7
 74
     0
 91
        4
 64
     7
 65
   257
 75
     1
175
     1
 42
1.0
 92
        8
 66
     7
 43
1.0
 76
     1
 77
     6
 78
     2
 67
     7
 79
     5
170
     0
171
     0
290
     0
174
     0
 93
       13
 44
0.0
173
     0
291
     1
 45
0.0
1001
ACAD
1000
AcDbSavedByObjectVersion
1070
     0
  0
VISUALSTYLE
  5
2C
102
{ACAD_REACTORS
330
2A
102
}
330
2A
100
AcDbVisualStyle
  2
FlatWithEdges
 70
     1
 71
     2
 72
     1
 73
     1
 90
        2
 40
-0.6
 41
30.0
 62
     5
 63
     7
 74
     1
 91
        4
 64
     7
 65
   257
 75
     1
175
     1
 42
1.0
 92
        0
 66
   257
 43
1.0
 76
     1
 77
     6
 78
     2
 67
     7
 79
     5
170
     0
171
     0
290
     0
174
     0
 93
       13
 44
0.0
173
     0
291
     1
 45
0.0
1001
ACAD
1000
AcDbSavedByObjectVersion
1070
     0
  0
VISUALSTYLE
  5
2D
102
{ACAD_REACTORS
330
2A
102
}
330
2A
100
AcDbVisualStyle
  2
Gouraud
 70
     2
 71
     2
 72
     2
 73
     1
 90
        2
 40
-0.6
 41
30.0
 62
     5
 63
     7
 74
     0
 91
        4
 64
     7
 65
   257
 75
     1
175
     1
 42
1.0
 92
        0
 66
     7
 43
1.0
 76
     1
 77
     6
 78
     2
 67
     7
 79
     5
170
     0
171
     0
290
     0
174
     0
 93
       13
 44
0.0
173
     0
291
     1
 45
0.0
1001
ACAD
1000
AcDbSavedByObjectVersion
1070
     0
  0
VISUALSTYLE
  5
2E
102
{ACAD_REACTORS
330
2A
102
}
330
2A
100
AcDbVisualStyle
  2
GouraudWithEdges
 70
     3
 71
     2
 72
     2
 73
     1
 90
        2
 40
-0.6
 41
30.0
 62
     5
 63
     7
 74
     1
 91
        4
 64
     7
 65
   257
 75
     1
175
     1
 42
1.0
 92
        0
 66
   257
 43
1.0
 76
     1
 77
     6
 78
     2
 67
     7
 79
     5
170
     0
171
     0
290
     0
174
     0
 93
       13
 44
0.0
173
     0
291
     1
 45
0.0
1001
ACAD
1000
AcDbSavedByObjectVersion
1070
     0
  0
VISUALSTYLE
  5
38
102
{ACAD_REACTORS
330
2A
102
}
330
2A
100
AcDbVisualStyle
  2
Linepattern
 70
    14
 71
     2
 72
     2
 73
     0
 90
        0
 40
-0.6
 41
-30.0
 62
     5
 63
     7
 74
     1
 91
        4
 64
     7
 65
   257
 75
     7
175
     7
 42
1.0
 92
        8
 66
     7
 43
1.0
 76
     1
 77
     6
 78
     2
 67
     7
 79
     5
170
     0
171
     0
290
     0
174
     0
 93
        1
 44
0.0
173
     0
291
     1
 45
0.0
1001
ACAD
1000
AcDbSavedByObjectVersion
1070
     0
  0
VISUALSTYLE
  5
33
102
{ACAD_REACTORS
330
2A
102
}
330
2A
100
AcDbVisualStyle
  2
Realistic
 70
     8
 71
     2
 72
     2
 73
     0
 90
        0
 40
-0.6
 41
-30.0
 62
     5
 63
     7
 74
     1
 91
        0
 64
     7
 65
   257
 75
     1
175
     1
 42
1.0
 92
        8
 66
     8
 43
1.0
 76
     1
 77
     6
 78
     2
 67
     7
 79
     5
170
     0
171
     0
290
     0
174
     0
 93
       13
 44
0.0
173
     0
291
     0
 45
0.0
1001
ACAD
1000
AcDbSavedByObjectVersion
1070
     0
  0
VISUALSTYLE
  5
37
102
{ACAD_REACTORS
330
2A
102
}
330
2A
100
AcDbVisualStyle
  2
Thicken
 70
    13
 71
     2
 72
     2
 73
     0
 90
        0
 40
-0.6
 41
-30.0
 62
     5
 63
     7
 74
     1
 91
        4
 64
     7
 65
   257
 75
     1
175
     1
 42
1.0
 92
       12
 66
     7
 43
1.0
 76
     1
 77
     6
 78
     2
 67
     7
 79
     5
170
     0
171
     0
290
     0
174
     0
 93
        1
 44
0.0
173
     0
291
     1
 45
0.0
1001
ACAD
1000
AcDbSavedByObjectVersion
1070
     0
  0
DICTIONARYVAR
  5
2B1
102
{ACAD_REACTORS
330
2B0
102
}
330
2B0
100
DictionaryVariables
280
     0
  1
1:1
  0
DICTIONARYVAR
  5
2B5
102
{ACAD_REACTORS
330
2B0
102
}
330
2B0
100
DictionaryVariables
280
     0
  1
80.000000
  0
DICTIONARYVAR
  5
2B4
102
{ACAD_REACTORS
330
2B0
102
}
330
2B0
100
DictionaryVariables
280
     0
  1
5.000000
  0
ENDSEC
  0
EOF
