  0
SECTION
  2
HEADER
  9
$ACADVER
  1
AC1015
  9
$ACADMAINTVER
 70
     6
  9
$DWGCODEPAGE
  3
ANSI_1252
  9
$INSBASE
 10
0.0
 20
0.0
 30
0.0
  9
$EXTMIN
 10
0.0
 20
0.0
 30
0.0
  9
$EXTMAX
 10
1682.0
 20
2378.0
 30
0.0
  9
$LIMMIN
 10
0.0
 20
0.0
  9
$LIMMAX
 10
1682.0
 20
2378.0
  9
$ORTHOMODE
 70
     0
  9
$REGENMODE
 70
     1
  9
$FILLMODE
 70
     1
  9
$QTEXTMODE
 70
     0
  9
$MIRRTEXT
 70
     1
  9
$LTSCALE
 40
1.0
  9
$ATTMODE
 70
     1
  9
$TEXTSIZE
 40
2.5
  9
$TRACEWID
 40
1.0
  9
$TEXTSTYLE
  7
Standard
  9
$CLAYER
  8
0
  9
$CELTYPE
  6
ByLayer
  9
$CECOLOR
 62
   256
  9
$CELTSCALE
 40
1.0
  9
$DISPSILH
 70
     0
  9
$DIMSCALE
 40
1.0
  9
$DIMASZ
 40
2.5
  9
$DIMEXO
 40
0.625
  9
$DIMDLI
 40
3.75
  9
$DIMRND
 40
0.0
  9
$DIMDLE
 40
0.0
  9
$DIMEXE
 40
1.25
  9
$DIMTP
 40
0.0
  9
$DIMTM
 40
0.0
  9
$DIMTXT
 40
2.5
  9
$DIMCEN
 40
2.5
  9
$DIMTSZ
 40
0.0
  9
$DIMTOL
 70
     0
  9
$DIMLIM
 70
     0
  9
$DIMTIH
 70
     0
  9
$DIMTOH
 70
     0
  9
$DIMSE1
 70
     0
  9
$DIMSE2
 70
     0
  9
$DIMTAD
 70
     1
  9
$DIMZIN
 70
     8
  9
$DIMBLK
  1

  9
$DIMASO
 70
     1
  9
$DIMSHO
 70
     1
  9
$DIMPOST
  1

  9
$DIMAPOST
  1

  9
$DIMALT
 70
     0
  9
$DIMALTD
 70
     3
  9
$DIMALTF
 40
0.0393700787
  9
$DIMLFAC
 40
1.0
  9
$DIMTOFL
 70
     1
  9
$DIMTVP
 40
0.0
  9
$DIMTIX
 70
     0
  9
$DIMSOXD
 70
     0
  9
$DIMSAH
 70
     0
  9
$DIMBLK1
  1

  9
$DIMBLK2
  1

  9
$DIMSTYLE
  2
ISO-25
  9
$DIMCLRD
 70
     0
  9
$DIMCLRE
 70
     0
  9
$DIMCLRT
 70
     0
  9
$DIMTFAC
 40
1.0
  9
$DIMGAP
 40
0.625
  9
$DIMJUST
 70
     0
  9
$DIMSD1
 70
     0
  9
$DIMSD2
 70
     0
  9
$DIMTOLJ
 70
     0
  9
$DIMTZIN
 70
     8
  9
$DIMALTZ
 70
     0
  9
$DIMALTTZ
 70
     0
  9
$DIMUPT
 70
     0
  9
$DIMDEC
 70
     2
  9
$DIMTDEC
 70
     2
  9
$DIMALTU
 70
     2
  9
$DIMALTTD
 70
     3
  9
$DIMTXSTY
  7
Standard
  9
$DIMAUNIT
 70
     0
  9
$DIMADEC
 70
     0
  9
$DIMALTRND
 40
0.0
  9
$DIMAZIN
 70
     0
  9
$DIMDSEP
 70
    44
  9
$DIMATFIT
 70
     3
  9
$DIMFRAC
 70
     0
  9
$DIMLDRBLK
  1

  9
$DIMLUNIT
 70
     2
  9
$DIMLWD
 70
    -2
  9
$DIMLWE
 70
    -2
  9
$DIMTMOVE
 70
     0
  9
$LUNITS
 70
     2
  9
$LUPREC
 70
     4
  9
$SKETCHINC
 40
1.0
  9
$FILLETRAD
 40
10.0
  9
$AUNITS
 70
     0
  9
$AUPREC
 70
     0
  9
$MENU
  1
.
  9
$ELEVATION
 40
0.0
  9
$PELEVATION
 40
0.0
  9
$THICKNESS
 40
0.0
  9
$LIMCHECK
 70
     0
  9
$CHAMFERA
 40
10.0
  9
$CHAMFERB
 40
10.0
  9
$CHAMFERC
 40
20.0
  9
$CHAMFERD
 40
0.0
  9
$SKPOLY
 70
     0
  9
$TDCREATE
 40
2455271.44421963
  9
$TDUCREATE
 40
2455271.402552963
  9
$TDUPDATE
 40
2455271.444219641
  9
$TDUUPDATE
 40
2455271.402552974
  9
$TDINDWG
 40
0.0000000116
  9
$TDUSRTIMER
 40
0.0000000116
  9
$USRTIMER
 70
     1
  9
$ANGBASE
 50
0.0
  9
$ANGDIR
 70
     0
  9
$PDMODE
 70
     0
  9
$PDSIZE
 40
0.0
  9
$PLINEWID
 40
0.0
  9
$SPLFRAME
 70
     0
  9
$SPLINETYPE
 70
     6
  9
$SPLINESEGS
 70
     8
  9
$HANDSEED
  5
ED
  9
$SURFTAB1
 70
     6
  9
$SURFTAB2
 70
     6
  9
$SURFTYPE
 70
     6
  9
$SURFU
 70
     6
  9
$SURFV
 70
     6
  9
$UCSBASE
  2

  9
$UCSNAME
  2

  9
$UCSORG
 10
0.0
 20
0.0
 30
0.0
  9
$UCSXDIR
 10
1.0
 20
0.0
 30
0.0
  9
$UCSYDIR
 10
0.0
 20
1.0
 30
0.0
  9
$UCSORTHOREF
  2

  9
$UCSORTHOVIEW
 70
     0
  9
$UCSORGTOP
 10
0.0
 20
0.0
 30
0.0
  9
$UCSORGBOTTOM
 10
0.0
 20
0.0
 30
0.0
  9
$UCSORGLEFT
 10
0.0
 20
0.0
 30
0.0
  9
$UCSORGRIGHT
 10
0.0
 20
0.0
 30
0.0
  9
$UCSORGFRONT
 10
0.0
 20
0.0
 30
0.0
  9
$UCSORGBACK
 10
0.0
 20
0.0
 30
0.0
  9
$PUCSBASE
  2

  9
$PUCSNAME
  2

  9
$PUCSORG
 10
0.0
 20
0.0
 30
0.0
  9
$PUCSXDIR
 10
1.0
 20
0.0
 30
0.0
  9
$PUCSYDIR
 10
0.0
 20
1.0
 30
0.0
  9
$PUCSORTHOREF
  2

  9
$PUCSORTHOVIEW
 70
     0
  9
$PUCSORGTOP
 10
0.0
 20
0.0
 30
0.0
  9
$PUCSORGBOTTOM
 10
0.0
 20
0.0
 30
0.0
  9
$PUCSORGLEFT
 10
0.0
 20
0.0
 30
0.0
  9
$PUCSORGRIGHT
 10
0.0
 20
0.0
 30
0.0
  9
$PUCSORGFRONT
 10
0.0
 20
0.0
 30
0.0
  9
$PUCSORGBACK
 10
0.0
 20
0.0
 30
0.0
  9
$USERI1
 70
     0
  9
$USERI2
 70
     0
  9
$USERI3
 70
     0
  9
$USERI4
 70
     0
  9
$USERI5
 70
     0
  9
$USERR1
 40
0.0
  9
$USERR2
 40
0.0
  9
$USERR3
 40
0.0
  9
$USERR4
 40
0.0
  9
$USERR5
 40
0.0
  9
$WORLDVIEW
 70
     1
  9
$SHADEDGE
 70
     3
  9
$SHADEDIF
 70
    70
  9
$TILEMODE
 70
     1
  9
$MAXACTVP
 70
    64
  9
$PINSBASE
 10
0.0
 20
0.0
 30
0.0
  9
$PLIMCHECK
 70
     0
  9
$PEXTMIN
 10
0.0
 20
0.0
 30
0.0
  9
$PEXTMAX
 10
1682.0
 20
2378.0
 30
0.0
  9
$PLIMMIN
 10
0.0
 20
0.0
  9
$PLIMMAX
 10
1682.0
 20
2378.0
  9
$UNITMODE
 70
     0
  9
$VISRETAIN
 70
     1
  9
$PLINEGEN
 70
     0
  9
$PSLTSCALE
 70
     1
  9
$TREEDEPTH
 70
  3020
  9
$CMLSTYLE
  2
Standard
  9
$CMLJUST
 70
     0
  9
$CMLSCALE
 40
20.0
  9
$PROXYGRAPHICS
 70
     1
  9
$MEASUREMENT
 70
     1
  9
$CELWEIGHT
370
    -1
  9
$ENDCAPS
280
     0
  9
$JOINSTYLE
280
     0
  9
$LWDISPLAY
290
     0
  9
$INSUNITS
 70
     4
  9
$HYPERLINKBASE
  1

  9
$STYLESHEET
  1

  9
$XEDIT
290
     1
  9
$CEPSNTYPE
380
     0
  9
$PSTYLEMODE
290
     1
  9
$FINGERPRINTGUID
  2
{BF8E25FF-D854-4B6D-8AFD-DEBB59B770AB}
  9
$VERSIONGUID
  2
{FAEB1C32-E019-11D5-929B-00C0DF256EC4}
  9
$EXTNAMES
290
     1
  9
$PSVPSCALE
 40
0.0
  9
$OLESTARTUP
290
     0
  0
ENDSEC
  0
SECTION
  2
CLASSES
  0
CLASS
  1
ACDBDICTIONARYWDFLT
  2
AcDbDictionaryWithDefault
  3
ObjectDBX Classes
 90
        0
280
     0
281
     0
  0
CLASS
  1
VISUALSTYLE
  2
AcDbVisualStyle
  3
ObjectDBX Classes
 90
     4095
280
     0
281
     0
  0
CLASS
  1
SCALE
  2
AcDbScale
  3
ObjectDBX Classes
 90
     1153
280
     0
281
     0
  0
CLASS
  1
DICTIONARYVAR
  2
AcDbDictionaryVar
  3
ObjectDBX Classes
 90
        0
280
     0
281
     0
  0
CLASS
  1
ACDBPLACEHOLDER
  2
AcDbPlaceHolder
  3
ObjectDBX Classes
 90
        0
280
     0
281
     0
  0
CLASS
  1
LAYOUT
  2
AcDbLayout
  3
ObjectDBX Classes
 90
        0
280
     0
281
     0
  0
ENDSEC
  0
SECTION
  2
TABLES
  0
TABLE
  2
VPORT
  5
8
330
0
100
AcDbSymbolTable
 70
     1
  0
VPORT
  5
29
330
8
100
AcDbSymbolTableRecord
100
AcDbViewportTableRecord
  2
*Active
 70
     0
 10
0.0
 20
0.0
 11
1.0
 21
1.0
 12
344.1869158879
 22
148.5
 13
0.0
 23
0.0
 14
10.0
 24
10.0
 15
10.0
 25
10.0
 16
0.0
 26
0.0
 36
1.0
 17
0.0
 27
0.0
 37
0.0
 40
297.0
 41
1.9729729729
 42
50.0
 43
0.0
 44
0.0
 50
0.0
 51
0.0
 71
     0
 72
   100
 73
     1
 74
     3
 75
     0
 76
     0
 77
     0
 78
     0
281
     0
 65
     1
110
0.0
120
0.0
130
0.0
111
1.0
121
0.0
131
0.0
112
0.0
122
1.0
132
0.0
 79
     0
146
0.0
  0
ENDTAB
  0
TABLE
  2
LTYPE
  5
5
330
0
100
AcDbSymbolTable
 70
     1
  0
LTYPE
  5
14
330
5
100
AcDbSymbolTableRecord
100
AcDbLinetypeTableRecord
  2
ByBlock
 70
     0
  3

 72
    65
 73
     0
 40
0.0
  0
LTYPE
  5
15
330
5
100
AcDbSymbolTableRecord
100
AcDbLinetypeTableRecord
  2
ByLayer
 70
     0
  3

 72
    65
 73
     0
 40
0.0
  0
LTYPE
  5
16
330
5
100
AcDbSymbolTableRecord
100
AcDbLinetypeTableRecord
  2
Continuous
 70
     0
  3
Solid line
 72
    65
 73
     0
 40
0.0
  0
ENDTAB
  0
TABLE
  2
LAYER
  5
2
330
0
100
AcDbSymbolTable
 70
     8
  0
LAYER
  5
10
330
2
100
AcDbSymbolTableRecord
100
AcDbLayerTableRecord
  2
0
 70
     0
 62
     7
  6
Continuous
370
    -3
390
F
  0
LAYER
  5
5D
330
2
100
AcDbSymbolTableRecord
100
AcDbLayerTableRecord
  2
Default
 70
     0
 62
     7
  6
Continuous
370
    -3
390
F
  0
LAYER
  5
60
330
2
100
AcDbSymbolTableRecord
100
AcDbLayerTableRecord
  2
$DDT_AUDIT_GENERATED_(60)
 70
     0
 62
     7
  6
Continuous
370
    -3
390
F
  0
LAYER
  5
71
330
2
100
AcDbSymbolTableRecord
100
AcDbLayerTableRecord
  2
$DDT_AUDIT_GENERATED_(71)
 70
     0
 62
     7
  6
Continuous
370
    -3
390
F
  0
LAYER
  5
76
330
2
100
AcDbSymbolTableRecord
100
AcDbLayerTableRecord
  2
$DDT_AUDIT_GENERATED_(76)
 70
     0
 62
     7
  6
Continuous
370
    -3
390
F
  0
LAYER
  5
7B
330
2
100
AcDbSymbolTableRecord
100
AcDbLayerTableRecord
  2
DV1_Standard
 70
     0
 62
     7
  6
Continuous
370
    -3
390
F
  0
LAYER
  5
AB
330
2
100
AcDbSymbolTableRecord
100
AcDbLayerTableRecord
  2
DV2_Standard
 70
     0
 62
     7
  6
Continuous
370
    -3
390
F
  0
LAYER
  5
D8
330
2
100
AcDbSymbolTableRecord
100
AcDbLayerTableRecord
  2
DV3_Standard
 70
     0
 62
     7
  6
Continuous
370
    -3
390
F
  0
ENDTAB
  0
TABLE
  2
STYLE
  5
3
330
0
100
AcDbSymbolTable
 70
     2
  0
STYLE
  5
11
330
3
100
AcDbSymbolTableRecord
100
AcDbTextStyleTableRecord
  2
Standard
 70
     0
 40
0.0
 41
1.0
 50
0.0
 71
     0
 42
2.5
  3
txt
  4

  0
STYLE
  5
DC
330
3
100
AcDbSymbolTableRecord
100
AcDbTextStyleTableRecord
  2
SEACAD_seiso_ttf
 70
     0
 40
0.0
 41
1.0
 50
0.0
 71
     0
 42
0.2
  3
seiso.ttf
  4

  0
ENDTAB
  0
TABLE
  2
VIEW
  5
6
330
0
100
AcDbSymbolTable
 70
     0
  0
ENDTAB
  0
TABLE
  2
UCS
  5
7
330
0
100
AcDbSymbolTable
 70
     0
  0
ENDTAB
  0
TABLE
  2
APPID
  5
9
330
0
100
AcDbSymbolTable
 70
     1
  0
APPID
  5
12
330
9
100
AcDbSymbolTableRecord
100
AcDbRegAppTableRecord
  2
ACAD
 70
     0
  0
ENDTAB
  0
TABLE
  2
DIMSTYLE
  5
A
330
0
100
AcDbSymbolTable
 70
     1
100
AcDbDimStyleTable
  0
DIMSTYLE
105
27
330
A
100
AcDbSymbolTableRecord
100
AcDbDimStyleTableRecord
  2
ISO-25
 70
     0
 41
2.5
 42
0.625
 43
3.75
 44
1.25
 73
     0
 74
     0
 77
     1
 78
     8
140
2.5
141
2.5
143
0.0393700787
147
0.625
171
     3
172
     1
271
     2
272
     2
274
     3
278
    44
283
     0
284
     8
340
11
  0
ENDTAB
  0
TABLE
  2
BLOCK_RECORD
  5
1
330
0
100
AcDbSymbolTable
 70
     4
  0
BLOCK_RECORD
  5
1F
330
1
100
AcDbSymbolTableRecord
100
AcDbBlockTableRecord
  2
*Model_Space
340
22
  0
BLOCK_RECORD
  5
1B
330
1
100
AcDbSymbolTableRecord
100
AcDbBlockTableRecord
  2
*Paper_Space
340
1E
  0
BLOCK_RECORD
  5
5E
330
1
100
AcDbSymbolTableRecord
100
AcDbBlockTableRecord
  2
SE
340
0
102
{BLKREFS
331
5F
102
}
  0
BLOCK_RECORD
  5
86
330
1
100
AcDbSymbolTableRecord
100
AcDbBlockTableRecord
  2
SE1
340
0
102
{BLKREFS
331
87
102
}
  0
BLOCK_RECORD
  5
AF
330
1
100
AcDbSymbolTableRecord
100
AcDbBlockTableRecord
  2
SE2
340
0
102
{BLKREFS
331
B0
102
}
  0
ENDTAB
  0
ENDSEC
  0
SECTION
  2
BLOCKS
  0
BLOCK
  5
20
330
1F
100
AcDbEntity
  8
0
100
AcDbBlockBegin
  2
*Model_Space
 70
     0
 10
0.0
 20
0.0
 30
0.0
  3
*Model_Space
  1

  0
ENDBLK
  5
21
330
1F
100
AcDbEntity
  8
0
100
AcDbBlockEnd
  0
BLOCK
  5
1C
330
1B
100
AcDbEntity
 67
     1
  8
0
100
AcDbBlockBegin
  2
*Paper_Space
 70
     0
 10
0.0
 20
0.0
 30
0.0
  3
*Paper_Space
  1

  0
ENDBLK
  5
1D
330
1B
100
AcDbEntity
 67
     1
  8
0
100
AcDbBlockEnd
  0
BLOCK
  5
84
330
5E
100
AcDbEntity
  8
0
100
AcDbBlockBegin
  2
SE
 70
     0
 10
0.0
 20
0.0
 30
0.0
  3
SE
  1

  0
LINE
  5
61
330
5E
100
AcDbEntity
  8
$DDT_AUDIT_GENERATED_(60)
  6
Continuous
 62
     7
100
AcDbLine
 10
44.5147289106
 20
308.5558513115
 30
0.0
 11
44.5147206673
 21
406.6070727727
 31
0.0
  0
SPLINE
  5
62
330
5E
100
AcDbEntity
  8
$DDT_AUDIT_GENERATED_(60)
  6
Continuous
 62
     7
100
AcDbSpline
210
0.0
220
0.0
230
1.0
 70
     8
 71
     3
 72
    46
 73
    42
 74
     0
 42
0.0000000010933962
 43
0.0000000001
 40
0.0
 40
0.0
 40
0.0
 40
0.0
 40
0.0083174359925482
 40
0.0166286148553133
 40
0.0249350203375686
 40
0.0332381387463004
 40
0.0415394581528299
 40
0.0498404675947309
 40
0.0581426562751311
 40
0.0664475127615783
 40
0.0747565241866118
 40
0.0830711754521793
 40
0.0913929484400234
 40
0.0997233212301274
 40
0.1080637673292264
 40
0.1164157549113774
 40
0.1247807460724781
 40
0.1560083914481189
 40
0.1872161480553847
 40
0.2184796765005424
 40
0.2498742340097106
 40
0.312196806889819
 40
0.3744909981863861
 40
0.4372412644531629
 40
0.4997412141663438
 40
0.561817311565575
 40
0.6242457103210967
 40
0.6867518567690192
 40
0.7493653439352032
 40
0.7807317213839458
 40
0.8119755487303666
 40
0.8431714849581239
 40
0.8743945329131716
 40
0.8902168069342228
 40
0.9059843480538553
 40
0.9217070650025756
 40
0.937394951459094
 40
0.9530580677847474
 40
0.9687065221277438
 40
0.9843504510700717
 40
1.0
 40
1.0
 40
1.0
 40
1.0
 10
44.51472066733172
 20
406.6070727726688
 30
0.0
 10
44.51472221658907
 20
406.6324059435532
 30
0.0
 10
44.51469004312382
 20
406.6830537657872
 30
0.0
 10
44.51592707162765
 20
406.7589937527552
 30
0.0
 10
44.51810547567927
 20
406.8348673239345
 30
0.0
 10
44.52131731707676
 20
406.9106748916049
 30
0.0
 10
44.52553794740042
 20
406.9864163364918
 30
0.0
 10
44.53077396771967
 20
407.0620916816264
 30
0.0
 10
44.53702360909926
 20
407.1377009118653
 30
0.0
 10
44.5442873444545
 20
407.2132440225349
 30
0.0
 10
44.55256504544609
 20
407.2887210054207
 30
0.0
 10
44.56185674449362
 20
407.3641318563308
 30
0.0
 10
44.57216243019378
 20
407.439476558989
 30
0.0
 10
44.58348210340803
 20
407.5147551421197
 30
0.0
 10
44.595815757674
 20
407.5899674670342
 30
0.0
 10
44.60916340152976
 20
407.6651140217362
 30
0.0
 10
44.63660001046486
 20
407.8085460247607
 30
0.0
 10
44.68370373188745
 20
408.0190854799249
 30
0.0
 10
44.75969054912655
 20
408.2942889355685
 30
0.0
 10
44.84929916747078
 20
408.5659119205784
 30
0.0
 10
44.98613072669838
 20
408.921271575381
 30
0.0
 10
45.18880488985772
 20
409.3519738084716
 30
0.0
 10
45.48149042547994
 20
409.8429204570035
 30
0.0
 10
45.82067817381597
 20
410.3037136268106
 30
0.0
 10
46.20362581548959
 20
410.7279706448521
 30
0.0
 10
46.6260818777963
 20
411.1114384165529
 30
0.0
 10
47.08463390517864
 20
411.4509223693182
 30
0.0
 10
47.57523299269768
 20
411.7452854898275
 30
0.0
 10
48.00672573059391
 20
411.949700465232
 30
0.0
 10
48.36240655361737
 20
412.0877688151544
 30
0.0
 10
48.63360395887345
 20
412.1780967333619
 30
0.0
 10
48.90847335034069
 20
412.2548974119436
 30
0.0
 10
49.14096756955975
 20
412.3077138380781
 30
0.0
 10
49.32898244735964
 20
412.3432115314238
 30
0.0
 10
49.47122839778863
 20
412.3664018843972
 30
0.0
 10
49.61360604912252
 20
412.3859532653042
 30
0.0
 10
49.75611641390621
 20
412.40185927637
 30
0.0
 10
49.89875908523864
 20
412.4141436521658
 30
0.0
 10
50.04153367454589
 20
412.4227176245222
 30
0.0
 10
50.18444109589493
 20
412.427912062317
 30
0.0
 10
50.27976067467898
 20
412.4282983768305
 30
0.0
 10
50.32742880695486
 20
412.4284919175695
 30
0.0
  0
LINE
  5
63
330
5E
100
AcDbEntity
  8
$DDT_AUDIT_GENERATED_(60)
  6
Continuous
 62
     7
100
AcDbLine
 10
50.327428807
 20
412.4284919176
 30
0.0
 11
118.3660693054
 21
412.4284814897
 31
0.0
  0
SPLINE
  5
64
330
5E
100
AcDbEntity
  8
$DDT_AUDIT_GENERATED_(60)
  6
Continuous
 62
     7
100
AcDbSpline
210
0.0
220
0.0
230
1.0
 70
     8
 71
     3
 72
    46
 73
    42
 74
     0
 42
0.00000000109346
 43
0.0000000001
 40
0.0
 40
0.0
 40
0.0
 40
0.0
 40
0.0083025676592806
 40
0.01660102306613
 40
0.0248968647692078
 40
0.0331915927327439
 40
0.0414867075241232
 40
0.0497837094998203
 40
0.0580840979919209
 40
0.0663893704973928
 40
0.0747010218723431
 40
0.0830205435333607
 40
0.0913494226681165
 40
0.0996891414571962
 40
0.1080411763092341
 40
0.1164069971111638
 40
0.1247880664954809
 40
0.156027803002153
 40
0.187241468249061
 40
0.2185047003771836
 40
0.2498927788789513
 40
0.3122175828854655
 40
0.3745031905355162
 40
0.4372528948688176
 40
0.4997497510208674
 40
0.5618262710450432
 40
0.6242574891995025
 40
0.6867536324840634
 40
0.7493685058006321
 40
0.7807276171946476
 40
0.8119704972024823
 40
0.8431718049782638
 40
0.8744064979336842
 40
0.8901926233527951
 40
0.9059339595464101
 40
0.9216404175365428
 40
0.9373219744904958
 40
0.9529886551641804
 40
0.9686505128943368
 40
0.9843176103175449
 40
1.0
 40
1.0
 40
1.0
 40
1.0
 10
118.3660693053582
 20
412.4284814897404
 30
0.0
 10
118.3913563562681
 20
412.4284835375114
 30
0.0
 10
118.4419183638719
 20
412.428518053461
 30
0.0
 10
118.5177394456785
 20
412.4272787181628
 30
0.0
 10
118.5935136476699
 20
412.4250938841022
 30
0.0
 10
118.6692413903885
 20
412.4218710017079
 30
0.0
 10
118.7449225517568
 20
412.4176348606669
 30
0.0
 10
118.8205571550838
 20
412.4123788204716
 30
0.0
 10
118.8961451847294
 20
412.4061046623586
 30
0.0
 10
118.9716866357853
 20
412.3988119108979
 30
0.0
 10
119.0471814998417
 20
412.3905006963734
 30
0.0
 10
119.1226297723863
 20
412.3811709861271
 30
0.0
 10
119.1980314375798
 20
412.3708227953653
 30
0.0
 10
119.2733865219843
 20
412.3594561130578
 30
0.0
 10
119.3486948946355
 20
412.3470709873858
 30
0.0
 10
119.423957014751
 20
412.3336672574726
 30
0.0
 10
119.5674972922071
 20
412.3061445413226
 30
0.0
 10
119.7781109554173
 20
412.2589346622336
 30
0.0
 10
120.0533262248914
 20
412.1828295029542
 30
0.0
 10
120.3249020031826
 20
412.0931222923084
 30
0.0
 10
120.6801780620389
 20
411.9561556151634
 30
0.0
 10
121.1107453218884
 20
411.7533360031433
 30
0.0
 10
121.6015415490505
 20
411.4604925870171
 30
0.0
 10
122.0621534346443
 20
411.1211712642674
 30
0.0
 10
122.4862448385214
 20
410.7381028771293
 30
0.0
 10
122.8695395587265
 20
410.3155357944642
 30
0.0
 10
123.208833341228
 20
409.8569145970201
 30
0.0
 10
123.5029959910324
 20
409.3662622459878
 30
0.0
 10
123.7072369182278
 20
408.9347795137169
 30
0.0
 10
123.8451789026287
 20
408.5791026322565
 30
0.0
 10
123.9354077029694
 20
408.3079042430447
 30
0.0
 10
124.0121256940858
 20
408.0329841883838
 30
0.0
 10
124.0648622433537
 20
407.8005508862562
 30
0.0
 10
124.1002752341359
 20
407.6126926055147
 30
0.0
 10
124.1233749242386
 20
407.4706860842232
 30
0.0
 10
124.142853994997
 20
407.3284601756667
 30
0.0
 10
124.1587046710933
 20
407.1860135853838
 30
0.0
 10
124.1709508874842
 20
407.0433468011925
 30
0.0
 10
124.1795044628056
 20
406.9004601736068
 30
0.0
 10
124.184694101088
 20
406.7573528499134
 30
0.0
 10
124.1850922296037
 20
406.6618705070022
 30
0.0
 10
124.1852854699214
 20
406.6141063405295
 30
0.0
  0
LINE
  5
65
330
5E
100
AcDbEntity
  8
$DDT_AUDIT_GENERATED_(60)
  6
Continuous
 62
     7
100
AcDbLine
 10
124.1852854699
 20
406.6141063405
 30
0.0
 11
124.1852706247
 21
308.5560415815
 31
0.0
  0
SPLINE
  5
66
330
5E
100
AcDbEntity
  8
$DDT_AUDIT_GENERATED_(60)
  6
Continuous
 62
     7
100
AcDbSpline
210
0.0
220
0.0
230
1.0
 70
     8
 71
     3
 72
    46
 73
    42
 74
     0
 42
0.0000000010933966
 43
0.0000000001
 40
0.0
 40
0.0
 40
0.0
 40
0.0
 40
0.0083174365349729
 40
0.01662861582053
 40
0.024935021608926
 40
0.0332381402101095
 40
0.0415394597034259
 40
0.0498404691349461
 40
0.0581426577208106
 40
0.0664475140430357
 40
0.0747565252500534
 40
0.0830711762646382
 40
0.0913929489877076
 40
0.0997233215262831
 40
0.1080637674119055
 40
0.1164157548466912
 40
0.1247807459582946
 40
0.1560084002526699
 40
0.1872161580541419
 40
0.2184796823445273
 40
0.2498742330738983
 40
0.3121968312405082
 40
0.37449099777288
 40
0.437241303469478
 40
0.4997412141674063
 40
0.5618173651949878
 40
0.6242457090118019
 40
0.686751905265458
 40
0.7493653443273114
 40
0.7807317432069856
 40
0.8119755766031498
 40
0.843171504261942
 40
0.874394529568107
 40
0.8902168063091959
 40
0.905984349491517
 40
0.9217070678480627
 40
0.9373949550579025
 40
0.9530580714807656
 40
0.9687065252608034
 40
0.9843504529738811
 40
1.0
 40
1.0
 40
1.0
 40
1.0
 10
124.1852706246604
 20
308.5560415815105
 30
0.0
 10
124.1852777569395
 20
308.5307084393622
 30
0.0
 10
124.1853099026161
 20
308.480060630544
 30
0.0
 10
124.1840728333013
 20
308.4041206649604
 30
0.0
 10
124.1818943890934
 20
308.3282471167367
 30
0.0
 10
124.1786825082577
 20
308.2524395735959
 30
0.0
 10
124.1744618391968
 20
308.1766981547316
 30
0.0
 10
124.1692257808441
 20
308.1010228370197
 30
0.0
 10
124.1629761021346
 20
308.025413635486
 30
0.0
 10
124.155712330153
 20
307.9498705546654
 30
0.0
 10
124.1474345932354
 20
307.8743936026096
 30
0.0
 10
124.1381428589675
 20
307.798982783332
 30
0.0
 10
124.1278371387434
 20
307.7236381128971
 30
0.0
 10
124.1165174317114
 20
307.6483595623531
 30
0.0
 10
124.1041837443243
 20
307.5731472701353
 30
0.0
 10
124.0908360680589
 20
307.498000747966
 30
0.0
 10
124.0633993933429
 20
307.3545687794785
 30
0.0
 10
124.0162955817349
 20
307.1440293862283
 30
0.0
 10
123.9403086566259
 20
306.8688260401145
 30
0.0
 10
123.8506999517706
 20
306.5972032157726
 30
0.0
 10
123.713868265515
 20
306.2418437010126
 30
0.0
 10
123.5111940094575
 20
305.8111417111102
 30
0.0
 10
123.2185083102315
 20
305.3201952499395
 30
0.0
 10
122.8793205688718
 20
304.8594024141035
 30
0.0
 10
122.4963728023761
 20
304.4351455623093
 30
0.0
 10
122.073916876114
 20
304.0516781249961
 30
0.0
 10
121.6153647967567
 20
303.7121943438838
 30
0.0
 10
121.1247659593613
 20
303.417831523937
 30
0.0
 10
120.6932732757851
 20
303.2134166812914
 30
0.0
 10
120.33759262241
 20
303.0753484528153
 30
0.0
 10
120.0663952476462
 20
302.9850205913878
 30
0.0
 10
119.7915260198102
 20
302.9082200003569
 30
0.0
 10
119.5590319652723
 20
302.8554036357095
 30
0.0
 10
119.3710172073327
 20
302.8199059773038
 30
0.0
 10
119.2287712888305
 20
302.7967156380118
 30
0.0
 10
119.0863936756357
 20
302.7771642697378
 30
0.0
 10
118.9438833551963
 20
302.7612582698962
 30
0.0
 10
118.8012407344187
 20
302.7489739034785
 30
0.0
 10
118.658466201871
 20
302.7403999381985
 30
0.0
 10
118.5155588434971
 20
302.7352055050334
 30
0.0
 10
118.4202393087255
 20
302.7348191909541
 30
0.0
 10
118.3725712339765
 20
302.7346308373951
 30
0.0
  0
LINE
  5
67
330
5E
100
AcDbEntity
  8
$DDT_AUDIT_GENERATED_(60)
  6
Continuous
 62
     7
100
AcDbLine
 10
118.372571234
 20
302.7346308374
 30
0.0
 11
50.3339306507
 21
302.7346434839
 31
0.0
  0
SPLINE
  5
68
330
5E
100
AcDbEntity
  8
$DDT_AUDIT_GENERATED_(60)
  6
Continuous
 62
     7
100
AcDbSpline
210
0.0
220
0.0
230
1.0
 70
     8
 71
     3
 72
    46
 73
    42
 74
     0
 42
0.0000000010926411
 43
0.0000000001
 40
0.0
 40
0.0
 40
0.0
 40
0.0
 40
0.0083025684088644
 40
0.0166010142247721
 40
0.0248968382059063
 40
0.0331915425329017
 40
0.0414866299940086
 40
0.0497836031684216
 40
0.0580839636108992
 40
0.0663892110380969
 40
0.0747008425204747
 40
0.0830203516817327
 40
0.0913492279063948
 40
0.0996889555601096
 40
0.1080410132217797
 40
0.1164068729323219
 40
0.1247879994590333
 40
0.1560281353842035
 40
0.1872420777276411
 40
0.2185055783127407
 40
0.2498940301726115
 40
0.3122187864903088
 40
0.3745039295727297
 40
0.4372535374041294
 40
0.4997497748268581
 40
0.5618273313558784
 40
0.6242608307179622
 40
0.6867556261426799
 40
0.7493680162106187
 40
0.78072964025286
 40
0.8119745118078255
 40
0.8431774314605187
 40
0.8744135010236671
 40
0.8901990294695911
 40
0.9059396538336365
 40
0.9216453025174365
 40
0.9373259703393095
 40
0.9529916999178856
 40
0.9686525625926599
 40
0.9843186390734194
 40
1.0
 40
1.0
 40
1.0
 40
1.0
 10
50.33393065069401
 20
302.7346434839113
 30
0.0
 10
50.30862469585344
 20
302.7346340893627
 30
0.0
 10
50.25802488645867
 20
302.7345996913333
 30
0.0
 10
50.18214717466682
 20
302.7358411185613
 30
0.0
 10
50.10631648923288
 20
302.7380294477561
 30
0.0
 10
50.03053240900911
 20
302.741257365484
 30
0.0
 10
49.95479505627154
 20
302.7455000455159
 30
0.0
 10
49.87910440768987
 20
302.7507641381895
 30
0.0
 10
49.80346047894736
 20
302.7570478597724
 30
0.0
 10
49.72786327497531
 20
302.7643516864554
 30
0.0
 10
49.65231280420918
 20
302.7726754878084
 30
0.0
 10
49.57680907118647
 20
302.7820192966466
 30
0.0
 10
49.50135209178628
 20
302.7923830977708
 30
0.0
 10
49.42594183940168
 20
302.8037669023411
 30
0.0
 10
49.35057844529448
 20
302.8161706621179
 30
0.0
 10
49.27526144922963
 20
302.8295945384091
 30
0.0
 10
49.13161623874392
 20
302.8571586803848
 30
0.0
 10
48.92085050430268
 20
302.9044392866026
 30
0.0
 10
48.64544179052598
 20
302.9806578343379
 30
0.0
 10
48.37368144492286
 20
303.0704979921261
 30
0.0
 10
48.0181754708759
 20
303.2076656948792
 30
0.0
 10
47.58735188160313
 20
303.4107785475025
 30
0.0
 10
47.09630697296629
 20
303.7040385274158
 30
0.0
 10
46.63551410340008
 20
304.0438321778249
 30
0.0
 10
46.21131840605599
 20
304.4274266039635
 30
0.0
 10
45.82800016785483
 20
304.8505614020768
 30
0.0
 10
45.48877198862639
 20
305.3097708442148
 30
0.0
 10
45.19476756959403
 20
305.8010126864965
 30
0.0
 10
44.99073567955113
 20
306.2329861414304
 30
0.0
 10
44.85300487006933
 20
306.5890577071733
 30
0.0
 10
44.7629557656122
 20
306.8605609764334
 30
0.0
 10
44.68644517905442
 20
307.1357764290665
 30
0.0
 10
44.63390551927138
 20
307.3684447897925
 30
0.0
 10
44.59866468296339
 20
307.5564811848305
 30
0.0
 10
44.57570207319255
 20
307.6986124534517
 30
0.0
 10
44.55636619427109
 20
307.8409588928674
 30
0.0
 10
44.54066483519815
 20
307.9835217924734
 30
0.0
 10
44.5285740220234
 20
308.126300693611
 30
0.0
 10
44.52018207836923
 20
308.2692951371628
 30
0.0
 10
44.51515977075998
 20
308.4125063822758
 30
0.0
 10
44.51487823087506
 20
308.5080543336488
 30
0.0
 10
44.51472891056221
 20
308.5558513115255
 30
0.0
  0
LINE
  5
69
330
5E
100
AcDbEntity
  8
$DDT_AUDIT_GENERATED_(60)
  6
Continuous
 62
     7
100
AcDbLine
 10
6.35
 20
452.0821596505
 30
0.0
 11
6.35
 21
263.0809412118
 31
0.0
  0
ELLIPSE
  5
6A
330
5E
100
AcDbEntity
  8
$DDT_AUDIT_GENERATED_(60)
  6
Continuous
 62
     7
100
AcDbEllipse
 10
10.3506093122
 20
452.080941119
 30
0.0
 11
2.829288756678324
 21
-2.829288756678324
 31
0.0
210
0.0
220
0.0
230
0.9999999999999999
 40
0.9996954599
 41
2.356346783439933
 42
3.926838523739672
  0
LINE
  5
6B
330
5E
100
AcDbEntity
  8
$DDT_AUDIT_GENERATED_(60)
  6
Continuous
 62
     7
100
AcDbLine
 10
158.3506092194
 20
456.0815504311
 30
0.0
 11
10.3493907806
 21
456.0815504311
 31
0.0
  0
ELLIPSE
  5
6C
330
5E
100
AcDbEntity
  8
$DDT_AUDIT_GENERATED_(60)
  6
Continuous
 62
     7
100
AcDbEllipse
 10
158.3493906878
 20
452.080941119
 30
0.0
 11
-2.829288756678324
 21
-2.829288756678324
 31
0.0
210
0.0
220
0.0
230
0.9999999999999999
 40
0.9996954599
 41
2.356346783439932
 42
3.926838523739669
  0
LINE
  5
6D
330
5E
100
AcDbEntity
  8
$DDT_AUDIT_GENERATED_(60)
  6
Continuous
 62
     7
100
AcDbLine
 10
162.35
 20
263.0809412118
 30
0.0
 11
162.35
 21
452.0821596505
 31
0.0
  0
ELLIPSE
  5
6E
330
5E
100
AcDbEntity
  8
$DDT_AUDIT_GENERATED_(60)
  6
Continuous
 62
     7
100
AcDbEllipse
 10
158.3493906878
 20
263.0821597433
 30
0.0
 11
-2.829288756678324
 21
2.829288756678324
 31
0.0
210
0.0
220
0.0
230
0.9999999999999999
 40
0.9996954599
 41
2.356346783439918
 42
3.926838523739669
  0
LINE
  5
6F
330
5E
100
AcDbEntity
  8
$DDT_AUDIT_GENERATED_(60)
  6
Continuous
 62
     7
100
AcDbLine
 10
10.3493907806
 20
259.0815504311
 30
0.0
 11
158.3506092194
 21
259.0815504311
 31
0.0
  0
ELLIPSE
  5
70
330
5E
100
AcDbEntity
  8
$DDT_AUDIT_GENERATED_(60)
  6
Continuous
 62
     7
100
AcDbEllipse
 10
10.3506093122
 20
263.0821597433
 30
0.0
 11
2.829288756678324
 21
2.829288756678324
 31
0.0
210
0.0
220
0.0
230
0.9999999999999999
 40
0.9996954599
 41
2.35634678343993
 42
3.926838523739682
  0
ELLIPSE
  5
72
330
5E
100
AcDbEntity
  8
$DDT_AUDIT_GENERATED_(71)
  6
Continuous
 62
     7
100
AcDbEllipse
 10
50.550152328
 20
308.7817027592
 30
0.0
 11
0.7073221891695811
 21
0.7073221891695809
 31
0.0
210
0.0
220
0.0
230
0.9999999999999999
 40
0.9996954599
 41
2.356346783439903
 42
3.926838523739669
  0
ELLIPSE
  5
73
330
5E
100
AcDbEntity
  8
$DDT_AUDIT_GENERATED_(71)
  6
Continuous
 62
     7
100
AcDbEllipse
 10
50.550152328
 20
376.3813981031
 30
0.0
 11
0.7073221891695809
 21
-0.7073221891695811
 31
0.0
210
0.0
220
0.0
230
0.9999999999999999
 40
0.9996954599
 41
2.356346783439903
 42
3.926838523739683
  0
ELLIPSE
  5
74
330
5E
100
AcDbEntity
  8
$DDT_AUDIT_GENERATED_(71)
  6
Continuous
 62
     7
100
AcDbEllipse
 10
118.149847672
 20
376.3813981031
 30
0.0
 11
-0.7073221891695811
 21
-0.7073221891695809
 31
0.0
210
0.0
220
0.0
230
0.9999999999999999
 40
0.9996954599
 41
2.356346783439903
 42
3.926838523739683
  0
ELLIPSE
  5
75
330
5E
100
AcDbEntity
  8
$DDT_AUDIT_GENERATED_(71)
  6
Continuous
 62
     7
100
AcDbEllipse
 10
118.149847672
 20
308.7817027592
 30
0.0
 11
-0.7073221891695809
 21
0.7073221891695811
 31
0.0
210
0.0
220
0.0
230
0.9999999999999999
 40
0.9996954599
 41
2.356346783439903
 42
3.926838523739697
  0
ELLIPSE
  5
77
330
5E
100
AcDbEntity
  8
$DDT_AUDIT_GENERATED_(76)
  6
Continuous
 62
     7
100
AcDbEllipse
 10
118.149847672
 20
406.3813981031
 30
0.0
 11
-0.707322189169581
 21
-0.707322189169581
 31
0.0
210
0.0
220
0.0
230
0.9999999999999998
 40
0.9996954599
 41
2.35634678343996
 42
3.926838523739683
  0
ELLIPSE
  5
78
330
5E
100
AcDbEntity
  8
$DDT_AUDIT_GENERATED_(76)
  6
Continuous
 62
     7
100
AcDbEllipse
 10
50.550152328
 20
406.3813981031
 30
0.0
 11
0.707322189169581
 21
-0.707322189169581
 31
0.0
210
0.0
220
0.0
230
0.9999999999999998
 40
0.9996954599
 41
2.356346783439896
 42
3.926838523739633
  0
ELLIPSE
  5
79
330
5E
100
AcDbEntity
  8
$DDT_AUDIT_GENERATED_(76)
  6
Continuous
 62
     7
100
AcDbEllipse
 10
50.550152328
 20
379.0817027592
 30
0.0
 11
0.707322189169581
 21
0.707322189169581
 31
0.0
210
0.0
220
0.0
230
0.9999999999999998
 40
0.9996954599
 41
2.356346783439903
 42
3.926838523739612
  0
ELLIPSE
  5
7A
330
5E
100
AcDbEntity
  8
$DDT_AUDIT_GENERATED_(76)
  6
Continuous
 62
     7
100
AcDbEllipse
 10
118.149847672
 20
379.0817027592
 30
0.0
 11
-0.707322189169581
 21
0.707322189169581
 31
0.0
210
0.0
220
0.0
230
0.9999999999999998
 40
0.9996954599
 41
2.356346783439974
 42
3.926838523739626
  0
LINE
  5
7C
330
5E
100
AcDbEntity
  8
DV1_Standard
  6
Continuous
 62
     7
100
AcDbLine
 10
49.55
 20
376.381702736
 30
0.0
 11
49.55
 21
308.7813981263
 31
0.0
  0
LINE
  5
7D
330
5E
100
AcDbEntity
  8
DV1_Standard
  6
Continuous
 62
     7
100
AcDbLine
 10
50.5498476952
 20
307.7815504311
 30
0.0
 11
118.1501523048
 21
307.7815504311
 31
0.0
  0
LINE
  5
7E
330
5E
100
AcDbEntity
  8
DV1_Standard
  6
Continuous
 62
     7
100
AcDbLine
 10
50.5498476952
 20
377.3815504311
 30
0.0
 11
118.1501523048
 21
377.3815504311
 31
0.0
  0
LINE
  5
7F
330
5E
100
AcDbEntity
  8
DV1_Standard
  6
Continuous
 62
     7
100
AcDbLine
 10
119.15
 20
376.381702736
 30
0.0
 11
119.15
 21
308.7813981263
 31
0.0
  0
LINE
  5
80
330
5E
100
AcDbEntity
  8
DV1_Standard
  6
Continuous
 62
     7
100
AcDbLine
 10
50.5498476952
 20
378.0815504311
 30
0.0
 11
118.1501523048
 21
378.0815504311
 31
0.0
  0
LINE
  5
81
330
5E
100
AcDbEntity
  8
DV1_Standard
  6
Continuous
 62
     7
100
AcDbLine
 10
49.55
 20
379.0813981263
 30
0.0
 11
49.55
 21
406.381702736
 31
0.0
  0
LINE
  5
82
330
5E
100
AcDbEntity
  8
DV1_Standard
  6
Continuous
 62
     7
100
AcDbLine
 10
50.5498476952
 20
407.3815504311
 30
0.0
 11
118.1501523048
 21
407.3815504311
 31
0.0
  0
LINE
  5
83
330
5E
100
AcDbEntity
  8
DV1_Standard
  6
Continuous
 62
     7
100
AcDbLine
 10
119.15
 20
406.381702736
 30
0.0
 11
119.15
 21
379.0813981263
 31
0.0
  0
ENDBLK
  5
85
330
5E
100
AcDbEntity
  8
0
100
AcDbBlockEnd
  0
BLOCK
  5
AD
330
86
100
AcDbEntity
  8
0
100
AcDbBlockBegin
  2
SE1
 70
     0
 10
0.0
 20
0.0
 30
0.0
  3
SE1
  1

  0
ARC
  5
88
330
86
100
AcDbEntity
  8
$DDT_AUDIT_GENERATED_(60)
  6
Continuous
 62
     7
100
AcDbCircle
 10
-4914.2852149136
 20
357.5708066075
 30
0.0
 40
5227.377296591749
100
AcDbArc
 50
359.4627532957
 51
0.5374802969
  0
ARC
  5
89
330
86
100
AcDbEntity
  8
$DDT_AUDIT_GENERATED_(60)
  6
Continuous
 62
     7
100
AcDbCircle
 10
526.9820026275
 20
410.1351193719
 30
0.0
 40
214.1489861383533
100
AcDbArc
 50
179.3863941087
 51
180.9439751686
  0
ARC
  5
8A
330
86
100
AcDbEntity
  8
$DDT_AUDIT_GENERATED_(60)
  6
Continuous
 62
     7
100
AcDbCircle
 10
545.2100160644
 20
304.9780575695
 30
0.0
 40
232.3752805177866
100
AcDbArc
 50
179.1178038348
 51
180.5382695199
  0
LINE
  5
8B
330
86
100
AcDbEntity
  8
$DDT_AUDIT_GENERATED_(60)
  6
Continuous
 62
     7
100
AcDbLine
 10
302.4780314437
 20
456.0815504311
 30
0.0
 11
310.0604129781
 21
455.9491994692
 31
0.0
  0
LINE
  5
8C
330
86
100
AcDbEntity
  8
$DDT_AUDIT_GENERATED_(60)
  6
Continuous
 62
     7
100
AcDbLine
 10
310.0608057025
 20
259.2139082482
 30
0.0
 11
302.4780314437
 21
259.0815504311
 31
0.0
  0
LINE
  5
8D
330
86
100
AcDbEntity
  8
$DDT_AUDIT_GENERATED_(60)
  6
Continuous
 62
     7
100
AcDbLine
 10
310.0604129781
 20
455.9491994692
 30
0.0
 11
310.5828668241
 21
455.9400800033
 31
0.0
  0
LINE
  5
8E
330
86
100
AcDbEntity
  8
$DDT_AUDIT_GENERATED_(60)
  6
Continuous
 62
     7
100
AcDbLine
 10
310.5832593752
 20
259.2230277109
 30
0.0
 11
310.0608057025
 21
259.2139082482
 31
0.0
  0
SPLINE
  5
8F
330
86
100
AcDbEntity
  8
$DDT_AUDIT_GENERATED_(60)
  6
Continuous
 62
     7
100
AcDbSpline
210
0.0
220
0.0
230
1.0
 70
     8
 71
     3
 72
    14
 73
    10
 74
     0
 42
0.0000000002395221
 43
0.0000000001
 40
0.0
 40
0.0
 40
0.0
 40
0.0
 40
0.039046427863083
 40
0.1920357322069896
 40
0.3506655196644425
 40
0.5119529307332001
 40
0.6786811775997104
 40
0.8508502601855866
 40
1.0
 40
1.0
 40
1.0
 40
1.0
 10
312.9552944800802
 20
412.4284752190197
 30
0.0
 10
312.9492594743635
 20
413.0261774204768
 30
0.0
 10
312.9238065784037
 20
415.5407370780444
 30
0.0
 10
312.8653034411868
 20
420.5664766212155
 30
0.0
 10
312.7830283997172
 20
427.0909877528579
 30
0.0
 10
312.6882064696173
 20
433.8875329632034
 30
0.0
 10
312.5826502091948
 20
440.8048529822701
 30
0.0
 10
312.4679588771859
 20
447.739739518349
 30
0.0
 10
312.3922454235654
 20
451.8909265958746
 30
0.0
 10
312.3504083724579
 20
454.1737654860236
 30
0.0
  0
SPLINE
  5
90
330
86
100
AcDbEntity
  8
$DDT_AUDIT_GENERATED_(60)
  6
Continuous
 62
     7
100
AcDbSpline
210
0.0
220
0.0
230
1.0
 70
     8
 71
     3
 72
    14
 73
    10
 74
     0
 42
0.0000000002395221
 43
0.0000000001
 40
0.0
 40
0.0
 40
0.0
 40
0.0
 40
0.1388702177388783
 40
0.2993999180530936
 40
0.4536108894323572
 40
0.6015031317786905
 40
0.7430766449980274
 40
0.87833142899977
 40
1.0
 40
1.0
 40
1.0
 40
1.0
 10
312.3508609871363
 20
260.9893483876116
 30
0.0
 10
312.3898445008518
 20
263.1148516525161
 30
0.0
 10
312.4604744873757
 20
266.9829653968244
 30
0.0
 10
312.5678856184244
 20
273.4284439819763
 30
0.0
 10
312.6669698737427
 20
279.8276462370426
 30
0.0
 10
312.7552902208207
 20
286.0199211450304
 30
0.0
 10
312.832302225878
 20
291.894717945206
 30
0.0
 10
312.9003663872097
 20
297.5539224643404
 30
0.0
 10
312.9362295365921
 20
300.8722090529404
 30
0.0
 10
312.9562210912721
 20
302.7346352921364
 30
0.0
  0
ARC
  5
91
330
86
100
AcDbEntity
  8
$DDT_AUDIT_GENERATED_(60)
  6
Continuous
 62
     7
100
AcDbCircle
 10
310.8616951073
 20
412.3996159561
 30
0.0
 40
1.981413260026093
100
AcDbArc
 50
356.3287525553
 51
356.4732423967
  0
ARC
  5
92
330
86
100
AcDbEntity
  8
$DDT_AUDIT_GENERATED_(60)
  6
Continuous
 62
     7
100
AcDbCircle
 10
310.9561429124
 20
412.4074927002
 30
0.0
 40
2.0
100
AcDbArc
 50
340.2148887022
 51
0.6197620415
  0
ARC
  5
93
330
86
100
AcDbEntity
  8
$DDT_AUDIT_GENERATED_(60)
  6
Continuous
 62
     7
100
AcDbCircle
 10
310.8951836727
 20
302.7722231224
 30
0.0
 40
1.947691016913373
100
AcDbArc
 50
3.3438078028
 51
3.4253441775
  0
ARC
  5
94
330
86
100
AcDbEntity
  8
$DDT_AUDIT_GENERATED_(60)
  6
Continuous
 62
     7
100
AcDbCircle
 10
310.8989999239
 20
412.3894163595
 30
0.0
 40
1.943490425764673
100
AcDbArc
 50
356.6721884891
 51
356.772676076
  0
ARC
  5
95
330
86
100
AcDbEntity
  8
$DDT_AUDIT_GENERATED_(60)
  6
Continuous
 62
     7
100
AcDbCircle
 10
310.9563684029
 20
302.7556166131
 30
0.0
 40
2.0
100
AcDbArc
 50
359.4224374292
 51
17.3262480035
  0
ARC
  5
96
330
86
100
AcDbEntity
  8
$DDT_AUDIT_GENERATED_(60)
  6
Continuous
 62
     7
100
AcDbCircle
 10
310.893987133
 20
302.7718331562
 30
0.0
 40
1.948921082749916
100
AcDbArc
 50
3.3440426179
 51
3.4280266825
  0
ARC
  5
97
330
86
100
AcDbEntity
  8
$DDT_AUDIT_GENERATED_(60)
  6
Continuous
 62
     7
100
AcDbCircle
 10
310.5514263519
 20
454.1403546084
 30
0.0
 40
1.800000000000003
100
AcDbArc
 50
1.0540510875
 51
89.0000000001
  0
ARC
  5
98
330
86
100
AcDbEntity
  8
$DDT_AUDIT_GENERATED_(60)
  6
Continuous
 62
     7
100
AcDbCircle
 10
310.5518189029
 20
261.0227531059
 30
0.0
 40
1.799999999999994
100
AcDbArc
 50
271.0000000001
 51
358.9116731648
  0
LINE
  5
99
330
86
100
AcDbEntity
  8
$DDT_AUDIT_GENERATED_(71)
  6
Continuous
 62
     7
100
AcDbLine
 10
313.0453948446
 20
377.296590287
 30
0.0
 11
314.2022826561
 21
377.2763967351
 31
0.0
  0
LINE
  5
9A
330
86
100
AcDbEntity
  8
$DDT_AUDIT_GENERATED_(71)
  6
Continuous
 62
     7
100
AcDbLine
 10
314.2022826561
 20
307.8867041272
 30
0.0
 11
312.8561910854
 21
307.8632080114
 31
0.0
  0
LINE
  5
9B
330
86
100
AcDbEntity
  8
$DDT_AUDIT_GENERATED_(71)
  6
Continuous
 62
     7
100
AcDbLine
 10
314.303382583
 20
307.888468833
 30
0.0
 11
314.2022826561
 21
307.8867041272
 31
0.0
  0
LINE
  5
9C
330
86
100
AcDbEntity
  8
$DDT_AUDIT_GENERATED_(71)
  6
Continuous
 62
     7
100
AcDbLine
 10
314.2022826561
 20
377.2763967351
 30
0.0
 11
314.303382583
 21
377.2746320293
 31
0.0
  0
ARC
  5
9D
330
86
100
AcDbEntity
  8
$DDT_AUDIT_GENERATED_(71)
  6
Continuous
 62
     7
100
AcDbCircle
 10
314.1935564603
 20
376.776473317
 30
0.0
 40
0.4999909897195037
100
AcDbArc
 50
30.5383222405
 51
89.0
  0
ARC
  5
9E
330
86
100
AcDbEntity
  8
$DDT_AUDIT_GENERATED_(71)
  6
Continuous
 62
     7
100
AcDbCircle
 10
314.1935564603
 20
308.3866275453
 30
0.0
 40
0.4999909897195084
100
AcDbArc
 50
271.0
 51
334.2082024971
  0
ARC
  5
9F
330
86
100
AcDbEntity
  8
$DDT_AUDIT_GENERATED_(71)
  6
Continuous
 62
     7
100
AcDbCircle
 10
-1725.2670466008
 20
342.578620152
 30
0.0
 40
2040.347913223457
100
AcDbArc
 50
359.0396172143
 51
0.9605472603
  0
ARC
  5
A0
330
86
100
AcDbEntity
  8
$DDT_AUDIT_GENERATED_(71)
  6
Continuous
 62
     7
100
AcDbCircle
 10
314.2946471114
 20
376.7747083435
 30
0.0
 40
0.5000000000000007
100
AcDbArc
 50
1.0914494905
 51
88.9999996939
  0
ARC
  5
A1
330
86
100
AcDbEntity
  8
$DDT_AUDIT_GENERATED_(71)
  6
Continuous
 62
     7
100
AcDbCircle
 10
314.2946471114
 20
308.3883925188
 30
0.0
 40
0.5
100
AcDbArc
 50
271.000000306
 51
358.7955445248
  0
LINE
  5
A2
330
86
100
AcDbEntity
  8
$DDT_AUDIT_GENERATED_(76)
  6
Continuous
 62
     7
100
AcDbLine
 10
312.8559834408
 20
407.2998964753
 30
0.0
 11
313.7461430866
 21
407.2843586809
 31
0.0
  0
LINE
  5
A3
330
86
100
AcDbEntity
  8
$DDT_AUDIT_GENERATED_(76)
  6
Continuous
 62
     7
100
AcDbLine
 10
314.1829479354
 20
378.1863666384
 30
0.0
 11
313.0399538989
 21
378.1664156033
 31
0.0
  0
LINE
  5
A4
330
86
100
AcDbEntity
  8
$DDT_AUDIT_GENERATED_(76)
  6
Continuous
 62
     7
100
AcDbLine
 10
314.1829479354
 20
378.1863666384
 30
0.0
 11
314.2915538409
 21
378.1882623615
 31
0.0
  0
LINE
  5
A5
330
86
100
AcDbEntity
  8
$DDT_AUDIT_GENERATED_(76)
  6
Continuous
 62
     7
100
AcDbLine
 10
313.8548662196
 20
407.2824609115
 30
0.0
 11
313.7461430865
 21
407.2843586809
 31
0.0
  0
ELLIPSE
  5
A6
330
86
100
AcDbEntity
  8
$DDT_AUDIT_GENERATED_(76)
  6
Continuous
 62
     7
100
AcDbEllipse
 10
313.7374168833
 20
406.7844348333
 30
0.0
 11
-0.008726203170114979
 21
-0.4999238475802414
 31
0.0
210
0.0
220
0.0
230
1.0
 40
0.9999791812
 41
2.070914758927503
 42
3.141592653589797
  0
ELLIPSE
  5
A7
330
86
100
AcDbEntity
  8
$DDT_AUDIT_GENERATED_(76)
  6
Continuous
 62
     7
100
AcDbEllipse
 10
314.1742217322
 20
378.686290486
 30
0.0
 11
0.008726203308368973
 21
-0.4999238475760227
 31
0.0
210
0.0
220
0.0
230
0.9999999999999998
 40
0.9999792166
 41
0.0000000000000874
 42
1.144673785790445
  0
SPLINE
  5
A8
330
86
100
AcDbEntity
  8
$DDT_AUDIT_GENERATED_(76)
  6
Continuous
 62
     7
100
AcDbSpline
210
0.0
220
0.0
230
1.0
 70
     8
 71
     3
 72
     8
 73
     4
 74
     0
 42
0.0000000003558594
 43
0.0000000001
 40
0.0
 40
0.0
 40
0.0
 40
0.0
 40
1.0
 40
1.0
 40
1.0
 40
1.0
 10
314.7825777623564
 20
378.6945659256044
 30
0.0
 10
314.6763135429543
 20
387.1594564745606
 30
0.0
 10
314.5307200374261
 20
396.5252963561255
 30
0.0
 10
314.345797245772
 20
406.7920855702993
 30
0.0
  0
ARC
  5
A9
330
86
100
AcDbEntity
  8
$DDT_AUDIT_GENERATED_(76)
  6
Continuous
 62
     7
100
AcDbCircle
 10
313.8461388847
 20
406.7825370837
 30
0.0
 40
0.4999999999999961
100
AcDbArc
 50
1.2629545697
 51
89.0000000526
  0
ARC
  5
AA
330
86
100
AcDbEntity
  8
$DDT_AUDIT_GENERATED_(76)
  6
Continuous
 62
     7
100
AcDbCircle
 10
314.2828265091
 20
378.6881861894
 30
0.0
 40
0.5000000000000016
100
AcDbArc
 50
270.9999999548
 51
0.9662224365
  0
LINE
  5
AC
330
86
100
AcDbEntity
  8
DV2_Standard
  6
Continuous
 62
     7
100
AcDbLine
 10
302.4780314437
 20
456.0815504311
 30
0.0
 11
302.4780314437
 21
259.0815504311
 31
0.0
  0
ENDBLK
  5
AE
330
86
100
AcDbEntity
  8
0
100
AcDbBlockEnd
  0
BLOCK
  5
DA
330
AF
100
AcDbEntity
  8
0
100
AcDbBlockBegin
  2
SE2
 70
     0
 10
0.0
 20
0.0
 30
0.0
  3
SE2
  1

  0
ARC
  5
B1
330
AF
100
AcDbEntity
  8
$DDT_AUDIT_GENERATED_(60)
  6
Continuous
 62
     7
100
AcDbCircle
 10
47.8854978258
 20
-52.2701992407
 30
0.0
 40
160.8747614751921
100
AcDbArc
 50
89.1302693406
 51
91.1471213284
  0
ARC
  5
B2
330
AF
100
AcDbEntity
  8
$DDT_AUDIT_GENERATED_(60)
  6
Continuous
 62
     7
100
AcDbCircle
 10
84.3500092611
 20
5336.468920144
 30
0.0
 40
5227.99359884895
100
AcDbArc
 50
269.627129607
 51
270.3727989316
  0
ARC
  5
B3
330
AF
100
AcDbEntity
  8
$DDT_AUDIT_GENERATED_(60)
  6
Continuous
 62
     7
100
AcDbCircle
 10
120.850220462
 20
-39.8992190231
 30
0.0
 40
148.5059830439347
100
AcDbArc
 50
88.7736958782
 51
90.9584665383
  0
ARC
  5
B4
330
AF
100
AcDbEntity
  8
$DDT_AUDIT_GENERATED_(60)
  6
Continuous
 62
     7
100
AcDbCircle
 10
120.8149835845
 20
-52.3317414507
 30
0.0
 40
160.9360782962044
100
AcDbArc
 50
89.1236389477
 51
90.6205606808
  0
ARC
  5
B5
330
AF
100
AcDbEntity
  8
$DDT_AUDIT_GENERATED_(60)
  6
Continuous
 62
     7
100
AcDbCircle
 10
47.849721159
 20
-39.5187045132
 30
0.0
 40
148.1252972655765
100
AcDbArc
 50
89.3120461786
 51
90.9253448924
  0
LINE
  5
B6
330
AF
100
AcDbEntity
  8
$DDT_AUDIT_GENERATED_(60)
  6
Continuous
 62
     7
100
AcDbLine
 10
162.35
 20
118.9532935674
 30
0.0
 11
162.217498209
 21
111.3622710423
 31
0.0
  0
LINE
  5
B7
330
AF
100
AcDbEntity
  8
$DDT_AUDIT_GENERATED_(60)
  6
Continuous
 62
     7
100
AcDbLine
 10
6.482501791
 20
111.3622710423
 30
0.0
 11
6.35
 21
118.9532935674
 31
0.0
  0
LINE
  5
B8
330
AF
100
AcDbEntity
  8
$DDT_AUDIT_GENERATED_(60)
  6
Continuous
 62
     7
100
AcDbLine
 10
6.4973872631
 20
110.5094829196
 30
0.0
 11
6.482501791
 21
111.3622710423
 31
0.0
  0
LINE
  5
B9
330
AF
100
AcDbEntity
  8
$DDT_AUDIT_GENERATED_(60)
  6
Continuous
 62
     7
100
AcDbLine
 10
162.217498209
 20
111.3622710423
 30
0.0
 11
162.2026127369
 21
110.5094829196
 31
0.0
  0
LINE
  5
BA
330
AF
100
AcDbEntity
  8
$DDT_AUDIT_GENERATED_(60)
  6
Continuous
 62
     7
100
AcDbLine
 10
124.1855091496
 20
108.3439839306
 30
0.0
 11
160.4295379708
 21
108.7444987585
 31
0.0
  0
LINE
  5
BB
330
AF
100
AcDbEntity
  8
$DDT_AUDIT_GENERATED_(60)
  6
Continuous
 62
     7
100
AcDbLine
 10
8.2704624286
 20
108.7444987305
 30
0.0
 11
44.5144908883
 21
108.3439839532
 31
0.0
  0
ARC
  5
BC
330
AF
100
AcDbEntity
  8
$DDT_AUDIT_GENERATED_(60)
  6
Continuous
 62
     7
100
AcDbCircle
 10
124.1527214251
 20
110.5344408207
 30
0.0
 40
1.96083988995763
100
AcDbArc
 50
263.8776427418
 51
265.3892909715
  0
ARC
  5
BD
330
AF
100
AcDbEntity
  8
$DDT_AUDIT_GENERATED_(60)
  6
Continuous
 62
     7
100
AcDbCircle
 10
124.1700348702
 20
110.3391927614
 30
0.0
 40
2.0
100
AcDbArc
 50
242.6517756854
 51
270.3510954956
  0
ARC
  5
BE
330
AF
100
AcDbEntity
  8
$DDT_AUDIT_GENERATED_(60)
  6
Continuous
 62
     7
100
AcDbCircle
 10
124.141468476
 20
110.4973103178
 30
0.0
 40
1.923145400284247
100
AcDbArc
 50
264.2485572964
 51
265.6392879738
  0
ARC
  5
BF
330
AF
100
AcDbEntity
  8
$DDT_AUDIT_GENERATED_(60)
  6
Continuous
 62
     7
100
AcDbCircle
 10
44.5515304054
 20
110.5195289212
 30
0.0
 40
1.945638557258593
100
AcDbArc
 50
274.5208579108
 51
275.8288938236
  0
ARC
  5
C0
330
AF
100
AcDbEntity
  8
$DDT_AUDIT_GENERATED_(60)
  6
Continuous
 62
     7
100
AcDbCircle
 10
44.5299651299
 20
110.3391927614
 30
0.0
 40
2.0
100
AcDbArc
 50
269.4815834303
 51
298.1577758733
  0
ARC
  5
C1
330
AF
100
AcDbEntity
  8
$DDT_AUDIT_GENERATED_(60)
  6
Continuous
 62
     7
100
AcDbCircle
 10
44.5555824565
 20
110.5069466057
 30
0.0
 40
1.932966385835722
100
AcDbArc
 50
274.423406107
 51
275.8489864534
  0
ARC
  5
C2
330
AF
100
AcDbEntity
  8
$DDT_AUDIT_GENERATED_(60)
  6
Continuous
 62
     7
100
AcDbCircle
 10
160.4028881006
 20
110.5409668563
 30
0.0
 40
1.800000000000002
100
AcDbArc
 50
270.8992633355
 51
359.0
  0
ARC
  5
C3
330
AF
100
AcDbEntity
  8
$DDT_AUDIT_GENERATED_(60)
  6
Continuous
 62
     7
100
AcDbCircle
 10
8.2971118994
 20
110.5409668563
 30
0.0
 40
1.8
100
AcDbArc
 50
181.0
 51
269.0429865059
  0
LINE
  5
C4
330
AF
100
AcDbEntity
  8
$DDT_AUDIT_GENERATED_(71)
  6
Continuous
 62
     7
100
AcDbLine
 10
49.6569184018
 20
107.1279424289
 30
0.0
 11
49.6551536961
 21
107.2290423551
 31
0.0
  0
LINE
  5
C5
330
AF
100
AcDbEntity
  8
$DDT_AUDIT_GENERATED_(71)
  6
Continuous
 62
     7
100
AcDbLine
 10
119.0448463039
 20
107.229042355
 30
0.0
 11
119.0430815982
 21
107.1279424314
 31
0.0
  0
ARC
  5
C6
330
AF
100
AcDbEntity
  8
$DDT_AUDIT_GENERATED_(71)
  6
Continuous
 62
     7
100
AcDbCircle
 10
50.1550771142
 20
107.2377685508
 30
0.0
 40
0.4999909897196301
100
AcDbArc
 50
181.0
 51
244.2082025326
  0
ARC
  5
C7
330
AF
100
AcDbEntity
  8
$DDT_AUDIT_GENERATED_(71)
  6
Continuous
 62
     7
100
AcDbCircle
 10
118.5449228858
 20
107.2377685508
 30
0.0
 40
0.4999995704696087
100
AcDbArc
 50
310.6094760668
 51
359.0
  0
SPLINE
  5
C8
330
AF
100
AcDbEntity
  8
$DDT_AUDIT_GENERATED_(71)
  6
Continuous
 62
     7
100
AcDbSpline
210
0.0
220
0.0
230
1.0
 70
     8
 71
     3
 72
    32
 73
    28
 74
     0
 42
0.0000000001461863
 43
0.0000000001
 40
0.0
 40
0.0
 40
0.0
 40
0.0
 40
0.0486181256967006
 40
0.1000431963670996
 40
0.1482698269821602
 40
0.1932980174278874
 40
0.2351277675862381
 40
0.273759077340444
 40
0.3091919465786055
 40
0.3388623357078513
 40
0.3658451461280184
 40
0.3901403777817899
 40
0.4117480306176807
 40
0.4310241840434335
 40
0.4519083634422054
 40
0.477768965549371
 40
0.5068412486605661
 40
0.5391252126898898
 40
0.5746208575407914
 40
0.6133281831059498
 40
0.6552471892674487
 40
0.7003778758974613
 40
0.7537311207374966
 40
0.810970498300923
 40
0.8720960083553021
 40
0.9371076506754755
 40
1.0
 40
1.0
 40
1.0
 40
1.0
 10
50.14868245285204
 20
106.6370790766801
 30
0.0
 10
51.36796369439028
 20
106.6169969227676
 30
0.0
 10
53.48331512303378
 20
106.5824035332839
 30
0.0
 10
56.93250105634816
 20
106.5334617254717
 30
0.0
 10
60.2138315867162
 20
106.4921088844183
 30
0.0
 10
63.2980410023888
 20
106.4580927391238
 30
0.0
 10
66.15830093059328
 20
106.430708135174
 30
0.0
 10
68.80105935179621
 20
106.4089665813905
 30
0.0
 10
71.16629641688229
 20
106.3924434503437
 30
0.0
 10
73.26601369001492
 20
106.3800648534546
 30
0.0
 10
75.11177035779046
 20
106.3709351454964
 30
0.0
 10
76.77369288037247
 20
106.3641422382046
 30
0.0
 10
78.25989352722907
 20
106.3592103285726
 30
0.0
 10
79.66831898559586
 20
106.3555010434473
 30
0.0
 10
81.17372192174808
 20
106.3525490502737
 30
0.0
 10
82.90249752536995
 20
106.3505126650278
 30
0.0
 10
84.8912113828484
 20
106.35
 30
0.0
 10
87.0996235031896
 20
106.3517003869515
 30
0.0
 10
89.52772532994396
 20
106.3563266105938
 30
0.0
 10
92.17553501237684
 20
106.3646626355585
 30
0.0
 10
95.0429478925188
 20
106.3775622173643
 30
0.0
 10
98.24462759692399
 20
106.3966354440269
 30
0.0
 10
101.7940624347973
 20
106.4236328712345
 30
0.0
 10
105.7147035679955
 20
106.4607190289388
 30
0.0
 10
109.8739376971018
 20
106.5083569925003
 30
0.0
 10
114.2704148425914
 20
106.5675872534028
 30
0.0
 10
116.9740493934885
 20
106.6113871441015
 30
0.0
 10
118.55131323852
 20
106.6371772583581
 30
0.0
  0
ARC
  5
C9
330
AF
100
AcDbEntity
  8
$DDT_AUDIT_GENERATED_(71)
  6
Continuous
 62
     7
100
AcDbCircle
 10
50.1568420876
 20
107.1366779005
 30
0.0
 40
0.5000000000000003
100
AcDbArc
 50
181.0000003061
 51
268.795544522
  0
ARC
  5
CA
330
AF
100
AcDbEntity
  8
$DDT_AUDIT_GENERATED_(71)
  6
Continuous
 62
     7
100
AcDbCircle
 10
118.5431579124
 20
107.136677903
 30
0.0
 40
0.5000000000000011
100
AcDbArc
 50
271.0914494918
 51
358.9999996941
  0
LINE
  5
CB
330
AF
100
AcDbEntity
  8
$DDT_AUDIT_GENERATED_(76)
  6
Continuous
 62
     7
100
AcDbLine
 10
119.0686011411
 20
108.5899560637
 30
0.0
 11
119.0527062047
 21
107.6793357691
 31
0.0
  0
ARC
  5
CC
330
AF
100
AcDbEntity
  8
$DDT_AUDIT_GENERATED_(76)
  6
Continuous
 62
     7
100
AcDbCircle
 10
118.1110651166
 20
116.4361316419
 30
0.0
 40
9.679178497584644
100
AcDbArc
 50
269.6299971416
 51
272.5914613687
  0
ARC
  5
CD
330
AF
100
AcDbEntity
  8
$DDT_AUDIT_GENERATED_(76)
  6
Continuous
 62
     7
100
AcDbCircle
 10
84.3499999998
 20
5334.3105642937
 30
0.0
 40
5227.662024297022
100
AcDbArc
 50
269.6306573364
 51
270.3693426636
  0
ARC
  5
CE
330
AF
100
AcDbEntity
  8
$DDT_AUDIT_GENERATED_(76)
  6
Continuous
 62
     7
100
AcDbCircle
 10
50.5887454024
 20
116.4263586899
 30
0.0
 40
9.669406976322911
100
AcDbArc
 50
268.7819631402
 51
270.3714995616
  0
LINE
  5
CF
330
AF
100
AcDbEntity
  8
$DDT_AUDIT_GENERATED_(76)
  6
Continuous
 62
     7
100
AcDbLine
 10
49.6472937953
 20
107.6793357691
 30
0.0
 11
49.6313990166
 21
108.5899470285
 31
0.0
  0
LINE
  5
D0
330
AF
100
AcDbEntity
  8
$DDT_AUDIT_GENERATED_(76)
  6
Continuous
 62
     7
100
AcDbLine
 10
49.6546469636
 20
107.258073036
 30
0.0
 11
49.6472937953
 21
107.6793357691
 31
0.0
  0
LINE
  5
D1
330
AF
100
AcDbEntity
  8
$DDT_AUDIT_GENERATED_(76)
  6
Continuous
 62
     7
100
AcDbLine
 10
119.0527062047
 20
107.6793357691
 30
0.0
 11
119.0453530364
 21
107.258073036
 31
0.0
  0
ELLIPSE
  5
D2
330
AF
100
AcDbEntity
  8
$DDT_AUDIT_GENERATED_(76)
  6
Continuous
 62
     7
100
AcDbEllipse
 10
118.5527823571
 20
107.6880619723
 30
0.0
 11
0.4999238475781875
 21
-0.00872620322431121
 31
0.0
210
0.0
220
0.0
230
1.0
 40
0.9998354451
 41
5.687687610910533
 42
6.283185307179583
  0
ELLIPSE
  5
D3
330
AF
100
AcDbEntity
  8
$DDT_AUDIT_GENERATED_(76)
  6
Continuous
 62
     7
100
AcDbEllipse
 10
118.5454291888
 20
107.2667992392
 30
0.0
 11
0.4999238475776602
 21
-0.008726203215812802
 31
0.0
210
0.0
220
0.0
230
1.0
 40
0.9999161243
 41
4.736383668095597
 42
6.283185307179586
  0
ELLIPSE
  5
D4
330
AF
100
AcDbEntity
  8
$DDT_AUDIT_GENERATED_(76)
  6
Continuous
 62
     7
100
AcDbEllipse
 10
50.1472176429
 20
107.6880619723
 30
0.0
 11
0.4999238475759393
 21
0.008726203349723044
 31
0.0
210
0.0
220
0.0
230
0.9999999999999999
 40
0.9998354451
 41
3.141592653327635
 42
3.834369392732404
  0
ELLIPSE
  5
D5
330
AF
100
AcDbEntity
  8
$DDT_AUDIT_GENERATED_(76)
  6
Continuous
 62
     7
100
AcDbEllipse
 10
50.1545708112
 20
107.2667992392
 30
0.0
 11
0.499923847578368
 21
0.008726203225723277
 31
0.0
210
0.0
220
0.0
230
0.9999999999999999
 40
0.9999161243
 41
3.141592653575686
 42
4.688394292654134
  0
SPLINE
  5
D6
330
AF
100
AcDbEntity
  8
$DDT_AUDIT_GENERATED_(76)
  6
Continuous
 62
     7
100
AcDbSpline
210
0.0
220
0.0
230
1.0
 70
     8
 71
     3
 72
    17
 73
    13
 74
     0
 42
0.0000000115346027
 43
0.0000000001
 40
0.0
 40
0.0
 40
0.0
 40
0.0
 40
0.1684060447143139
 40
0.3397906805443729
 40
0.5132065079572149
 40
0.6315947701896246
 40
0.6858999481524969
 40
0.7195075506199627
 40
0.7762047594005469
 40
0.8549228114463008
 40
0.9803675519853583
 40
1.0
 40
1.0
 40
1.0
 40
1.0
 10
118.0485935855765
 20
106.7571175717835
 30
0.0
 10
118.114441562903
 20
106.7576165799242
 30
0.0
 10
118.2283662274128
 20
106.7585229823866
 30
0.0
 10
118.3926910796092
 20
106.7608694615833
 30
0.0
 10
118.4993599522712
 20
106.7633237031797
 30
0.0
 10
118.5497614658618
 20
106.7652853449566
 30
0.0
 10
118.5826445132079
 20
106.7673934621416
 30
0.0
 10
118.62139041947
 20
106.7717728863274
 30
0.0
 10
118.6802795816227
 20
106.7831391745727
 30
0.0
 10
118.7658684955245
 20
106.8149475623916
 30
0.0
 10
118.8420873853974
 20
106.8542831478156
 30
0.0
 10
118.8735003745982
 20
106.8918865398346
 30
0.0
 10
118.8784283575183
 20
106.8978080734086
 30
0.0
  0
SPLINE
  5
D7
330
AF
100
AcDbEntity
  8
$DDT_AUDIT_GENERATED_(76)
  6
Continuous
 62
     7
100
AcDbSpline
210
0.0
220
0.0
230
1.0
 70
     8
 71
     3
 72
    17
 73
    13
 74
     0
 42
0.0000000158277401
 43
0.0000000001
 40
0.0
 40
0.0
 40
0.0
 40
0.0
 40
0.097045514901552
 40
0.218650707692966
 40
0.3187468528525325
 40
0.3945961038584629
 40
0.4383693003535529
 40
0.4739680188453487
 40
0.5290336662170307
 40
0.6896729476323973
 40
0.907658320457923
 40
1.0
 40
1.0
 40
1.0
 40
1.0
 10
49.79697850997057
 20
106.9216144748814
 30
0.0
 10
49.81710405527938
 20
106.9005025443509
 30
0.0
 10
49.85611356070929
 20
106.8604807409036
 30
0.0
 10
49.93394551176375
 20
106.8152661565518
 30
0.0
 10
50.00914066499987
 20
106.7863997530764
 30
0.0
 10
50.0675967317698
 20
106.7735168477669
 30
0.0
 10
50.10275313393031
 20
106.7689384784653
 30
0.0
 10
50.12449121764655
 20
106.7669651878217
 30
0.0
 10
50.15426493877254
 20
106.7650575108756
 30
0.0
 10
50.20412461343178
 20
106.7632834610828
 30
0.0
 10
50.28746338141431
 20
106.7612306141011
 30
0.0
 10
50.35865866170128
 20
106.7602878258773
 30
0.0
 10
50.38341415607314
 20
106.7599636354524
 30
0.0
  0
LINE
  5
D9
330
AF
100
AcDbEntity
  8
DV3_Standard
  6
Continuous
 62
     7
100
AcDbLine
 10
6.35
 20
118.9532935674
 30
0.0
 11
162.35
 21
118.9532935674
 31
0.0
  0
ENDBLK
  5
DB
330
AF
100
AcDbEntity
  8
0
100
AcDbBlockEnd
  0
ENDSEC
  0
SECTION
  2
ENTITIES
  0
INSERT
  5
5F
330
1F
100
AcDbEntity
  8
Default
100
AcDbBlockReference
  2
SE
 10
0.0
 20
0.0
 30
0.0
  0
INSERT
  5
87
330
1F
100
AcDbEntity
  8
Default
100
AcDbBlockReference
  2
SE1
 10
0.0
 20
0.0
 30
0.0
  0
INSERT
  5
B0
330
1F
100
AcDbEntity
  8
Default
100
AcDbBlockReference
  2
SE2
 10
0.0
 20
0.0
 30
0.0
  0
TEXT
  5
DD
330
1F
100
AcDbEntity
  8
Default
  6
Continuous
 62
     7
100
AcDbText
 10
5.9362635081
 20
53.4225120485
 30
0.0
 40
10.0
  1
Grohe AG^J
  7
SEACAD_seiso_ttf
 11
5.9362635081
 21
63.4225120485
 31
0.0
100
AcDbText
 73
     3
  0
TEXT
  5
DE
330
1F
100
AcDbEntity
  8
Default
  6
Continuous
 62
     7
100
AcDbText
 10
5.9362635081
 20
37.0588756849
 30
0.0
 40
10.0
  1
 
  7
SEACAD_seiso_ttf
 11
5.9362635081
 21
47.0588756849
 31
0.0
100
AcDbText
 73
     3
  0
TEXT
  5
DF
330
1F
100
AcDbEntity
  8
Default
  6
Continuous
 62
     7
100
AcDbText
 10
5.9362635081
 20
20.6952393213
 30
0.0
 40
10.0
  1
ecn: 
  7
SEACAD_seiso_ttf
 11
5.9362635081
 21
30.6952393213
 31
0.0
100
AcDbText
 73
     3
  0
TEXT
  5
E0
330
1F
100
AcDbEntity
  8
Default
  6
Continuous
 62
     7
100
AcDbText
 10
5.9362635081
 20
4.3316029576
 30
0.0
 40
10.0
  1
unit: mm
  7
SEACAD_seiso_ttf
 11
5.9362635081
 21
14.3316029576
 31
0.0
100
AcDbText
 73
     3
  0
LINE
  5
E1
330
1F
100
AcDbEntity
  8
Default
  6
Continuous
 62
     7
100
AcDbLine
 10
0.0
 20
0.0
 30
0.0
 11
100.0
 21
0.0
 31
0.0
  0
LINE
  5
E2
330
1F
100
AcDbEntity
  8
Default
  6
Continuous
 62
     7
100
AcDbLine
 10
0.0
 20
0.0
 30
0.0
 11
0.0
 21
100.0
 31
0.0
  0
TEXT
  5
E3
330
1F
100
AcDbEntity
  8
Default
  6
Continuous
 62
     7
100
AcDbText
 10
24.3923665681
 20
-18.2375342018
 30
0.0
 40
10.0
  1
100 mm
  7
SEACAD_seiso_ttf
 11
24.3923665681
 21
-8.2375342018
 31
0.0
100
AcDbText
 73
     3
  0
TEXT
  5
E4
330
1F
100
AcDbEntity
  8
Default
  6
Continuous
 62
     7
100
AcDbText
 10
-7.6150308803
 20
24.6231930421
 30
0.0
 40
10.0
  1
100 mm
 50
90.0
  7
SEACAD_seiso_ttf
 11
-17.6150308803
 21
24.6231930421
 31
0.0
100
AcDbText
 73
     3
  0
TEXT
  5
E5
330
1F
100
AcDbEntity
  8
Default
  6
Continuous
 62
     7
100
AcDbText
 10
28.4878128572
 20
20.0907663715
 30
0.0
 40
10.0
  1
217839
  7
SEACAD_seiso_ttf
 11
28.4878128572
 21
30.0907663715
 31
0.0
100
AcDbText
 73
     3
  0
TEXT
  5
E6
330
1F
100
AcDbEntity
  8
Default
  6
Continuous
 62
     7
100
AcDbText
 10
5.9012241913
 20
36.7242780188
 30
0.0
 40
10.0
  1
38732000
  7
SEACAD_seiso_ttf
 11
5.9012241913
 21
46.7242780188
 31
0.0
100
AcDbText
 73
     3
  0
ENDSEC
  0
SECTION
  2
OBJECTS
  0
DICTIONARY
  5
C
330
0
100
AcDbDictionary
281
     1
  3
ACAD_GROUP
350
D
  3
ACAD_LAYOUT
350
1A
  3
ACAD_MLEADERSTYLE
350
EA
  3
ACAD_MLINESTYLE
350
17
  3
ACAD_PLOTSETTINGS
350
19
  3
ACAD_PLOTSTYLENAME
350
E
  3
ACAD_SCALELIST
350
3B
  3
ACAD_TABLESTYLE
350
E9
  3
ACAD_VISUALSTYLE
350
2A
  3
AcDbVariableDictionary
350
E7
  0
DICTIONARY
  5
D
102
{ACAD_REACTORS
330
C
102
}
330
C
100
AcDbDictionary
281
     1
  0
DICTIONARY
  5
1A
102
{ACAD_REACTORS
330
C
102
}
330
C
100
AcDbDictionary
281
     1
  3
Layout1
350
1E
  3
Model
350
22
  0
DICTIONARY
  5
EA
102
{ACAD_REACTORS
330
C
102
}
330
C
100
AcDbDictionary
281
     1
  0
DICTIONARY
  5
17
102
{ACAD_REACTORS
330
C
102
}
330
C
100
AcDbDictionary
281
     1
  3
Standard
350
18
  0
DICTIONARY
  5
19
102
{ACAD_REACTORS
330
C
102
}
330
C
100
AcDbDictionary
281
     1
  0
ACDBDICTIONARYWDFLT
  5
E
102
{ACAD_REACTORS
330
C
102
}
330
C
100
AcDbDictionary
281
     1
  3
Normal
350
F
100
AcDbDictionaryWithDefault
340
F
  0
DICTIONARY
  5
3B
102
{ACAD_REACTORS
330
C
102
}
330
C
100
AcDbDictionary
281
     1
  3
A0
350
3C
  3
A1
350
3D
  3
A2
350
3E
  3
A3
350
3F
  3
A4
350
40
  3
A5
350
41
  3
A6
350
42
  3
A7
350
43
  3
A8
350
44
  3
A9
350
45
  3
B0
350
46
  3
B1
350
47
  3
B2
350
48
  3
B3
350
49
  3
B4
350
4A
  3
B5
350
4B
  3
B6
350
4C
  3
B7
350
4D
  3
B8
350
4E
  3
B9
350
4F
  3
C0
350
50
  3
C1
350
51
  3
C2
350
52
  3
C3
350
53
  3
C4
350
54
  3
C5
350
55
  3
C6
350
56
  3
C7
350
57
  3
C8
350
58
  3
C9
350
59
  3
D0
350
5A
  3
D1
350
5B
  3
D2
350
5C
  0
DICTIONARY
  5
E9
102
{ACAD_REACTORS
330
C
102
}
330
C
100
AcDbDictionary
281
     1
  0
DICTIONARY
  5
2A
102
{ACAD_REACTORS
330
C
102
}
330
C
100
AcDbDictionary
281
     1
  3
2dWireframe
350
2F
  3
3D Hidden
350
31
  3
3dWireframe
350
30
  3
Basic
350
32
  3
Brighten
350
36
  3
ColorChange
350
3A
  3
Conceptual
350
34
  3
Dim
350
35
  3
Facepattern
350
39
  3
Flat
350
2B
  3
FlatWithEdges
350
2C
  3
Gouraud
350
2D
  3
GouraudWithEdges
350
2E
  3
Linepattern
350
38
  3
Realistic
350
33
  3
Thicken
350
37
  0
DICTIONARY
  5
E7
102
{ACAD_REACTORS
330
C
102
}
330
C
100
AcDbDictionary
281
     1
  3
CANNOSCALE
350
E8
  3
PSOLHEIGHT
350
EC
  3
PSOLWIDTH
350
EB
  0
LAYOUT
  5
1E
102
{ACAD_REACTORS
330
1A
102
}
330
1A
100
AcDbPlotSettings
  1

  2
none_device
  4

  6

 40
0.0
 41
0.0
 42
0.0
 43
0.0
 44
0.0
 45
0.0
 46
0.0
 47
0.0
 48
0.0
 49
0.0
140
0.0
141
0.0
142
1.0
143
1.0
 70
   688
 72
     0
 73
     0
 74
     5
  7

 75
    16
147
1.0
148
0.0
149
0.0
100
AcDbLayout
  1
Layout1
 70
     1
 71
     1
 10
0.0
 20
0.0
 11
1682.0
 21
2378.0
 12
0.0
 22
0.0
 32
0.0
 14
0.0
 24
0.0
 34
0.0
 15
1682.0
 25
2378.0
 35
0.0
146
0.0
 13
0.0
 23
0.0
 33
0.0
 16
1.0
 26
0.0
 36
0.0
 17
0.0
 27
1.0
 37
0.0
 76
     0
330
1B
  0
LAYOUT
  5
22
102
{ACAD_REACTORS
330
1A
102
}
330
1A
100
AcDbPlotSettings
  1

  2
none_device
  4

  6

 40
0.0
 41
0.0
 42
0.0
 43
0.0
 44
0.0
 45
0.0
 46
0.0
 47
0.0
 48
0.0
 49
0.0
140
0.0
141
0.0
142
1.0
143
1.0
 70
  1712
 72
     0
 73
     0
 74
     0
  7

 75
     0
147
1.0
148
0.0
149
0.0
100
AcDbLayout
  1
Model
 70
     1
 71
     0
 10
0.0
 20
0.0
 11
1682.0
 21
2378.0
 12
0.0
 22
0.0
 32
0.0
 14
0.0
 24
0.0
 34
0.0
 15
1682.0
 25
2378.0
 35
0.0
146
0.0
 13
0.0
 23
0.0
 33
0.0
 16
1.0
 26
0.0
 36
0.0
 17
0.0
 27
1.0
 37
0.0
 76
     0
330
1F
331
29
  0
MLINESTYLE
  5
18
102
{ACAD_REACTORS
330
17
102
}
330
17
100
AcDbMlineStyle
  2
Standard
 70
     0
  3

 62
   256
 51
90.0
 52
90.0
 71
     2
 49
0.5
 62
   256
  6
BYLAYER
 49
-0.5
 62
   256
  6
BYLAYER
  0
ACDBPLACEHOLDER
  5
F
102
{ACAD_REACTORS
330
E
102
}
330
E
  0
SCALE
  5
3C
102
{ACAD_REACTORS
330
3B
102
}
330
3B
100
AcDbScale
 70
     0
300
1:1
140
1.0
141
1.0
290
     1
  0
SCALE
  5
3D
102
{ACAD_REACTORS
330
3B
102
}
330
3B
100
AcDbScale
 70
     0
300
1:2
140
1.0
141
2.0
290
     0
  0
SCALE
  5
3E
102
{ACAD_REACTORS
330
3B
102
}
330
3B
100
AcDbScale
 70
     0
300
1:4
140
1.0
141
4.0
290
     0
  0
SCALE
  5
3F
102
{ACAD_REACTORS
330
3B
102
}
330
3B
100
AcDbScale
 70
     0
300
1:5
140
1.0
141
5.0
290
     0
  0
SCALE
  5
40
102
{ACAD_REACTORS
330
3B
102
}
330
3B
100
AcDbScale
 70
     0
300
1:8
140
1.0
141
8.0
290
     0
  0
SCALE
  5
41
102
{ACAD_REACTORS
330
3B
102
}
330
3B
100
AcDbScale
 70
     0
300
1:10
140
1.0
141
10.0
290
     0
  0
SCALE
  5
42
102
{ACAD_REACTORS
330
3B
102
}
330
3B
100
AcDbScale
 70
     0
300
1:16
140
1.0
141
16.0
290
     0
  0
SCALE
  5
43
102
{ACAD_REACTORS
330
3B
102
}
330
3B
100
AcDbScale
 70
     0
300
1:20
140
1.0
141
20.0
290
     0
  0
SCALE
  5
44
102
{ACAD_REACTORS
330
3B
102
}
330
3B
100
AcDbScale
 70
     0
300
1:30
140
1.0
141
30.0
290
     0
  0
SCALE
  5
45
102
{ACAD_REACTORS
330
3B
102
}
330
3B
100
AcDbScale
 70
     0
300
1:40
140
1.0
141
40.0
290
     0
  0
SCALE
  5
46
102
{ACAD_REACTORS
330
3B
102
}
330
3B
100
AcDbScale
 70
     0
300
1:50
140
1.0
141
50.0
290
     0
  0
SCALE
  5
47
102
{ACAD_REACTORS
330
3B
102
}
330
3B
100
AcDbScale
 70
     0
300
1:100
140
1.0
141
100.0
290
     0
  0
SCALE
  5
48
102
{ACAD_REACTORS
330
3B
102
}
330
3B
100
AcDbScale
 70
     0
300
2:1
140
2.0
141
1.0
290
     0
  0
SCALE
  5
49
102
{ACAD_REACTORS
330
3B
102
}
330
3B
100
AcDbScale
 70
     0
300
4:1
140
4.0
141
1.0
290
     0
  0
SCALE
  5
4A
102
{ACAD_REACTORS
330
3B
102
}
330
3B
100
AcDbScale
 70
     0
300
8:1
140
8.0
141
1.0
290
     0
  0
SCALE
  5
4B
102
{ACAD_REACTORS
330
3B
102
}
330
3B
100
AcDbScale
 70
     0
300
10:1
140
10.0
141
1.0
290
     0
  0
SCALE
  5
4C
102
{ACAD_REACTORS
330
3B
102
}
330
3B
100
AcDbScale
 70
     0
300
100:1
140
100.0
141
1.0
290
     0
  0
SCALE
  5
4D
102
{ACAD_REACTORS
330
3B
102
}
330
3B
100
AcDbScale
 70
     0
300
1/128" = 1'-0"
140
0.0078125
141
12.0
290
     0
  0
SCALE
  5
4E
102
{ACAD_REACTORS
330
3B
102
}
330
3B
100
AcDbScale
 70
     0
300
1/64" = 1'-0"
140
0.015625
141
12.0
290
     0
  0
SCALE
  5
4F
102
{ACAD_REACTORS
330
3B
102
}
330
3B
100
AcDbScale
 70
     0
300
1/32" = 1'-0"
140
0.03125
141
12.0
290
     0
  0
SCALE
  5
50
102
{ACAD_REACTORS
330
3B
102
}
330
3B
100
AcDbScale
 70
     0
300
1/16" = 1'-0"
140
0.0625
141
12.0
290
     0
  0
SCALE
  5
51
102
{ACAD_REACTORS
330
3B
102
}
330
3B
100
AcDbScale
 70
     0
300
3/32" = 1'-0"
140
0.09375
141
12.0
290
     0
  0
SCALE
  5
52
102
{ACAD_REACTORS
330
3B
102
}
330
3B
100
AcDbScale
 70
     0
300
1/8" = 1'-0"
140
0.125
141
12.0
290
     0
  0
SCALE
  5
53
102
{ACAD_REACTORS
330
3B
102
}
330
3B
100
AcDbScale
 70
     0
300
3/16" = 1'-0"
140
0.1875
141
12.0
290
     0
  0
SCALE
  5
54
102
{ACAD_REACTORS
330
3B
102
}
330
3B
100
AcDbScale
 70
     0
300
1/4" = 1'-0"
140
0.25
141
12.0
290
     0
  0
SCALE
  5
55
102
{ACAD_REACTORS
330
3B
102
}
330
3B
100
AcDbScale
 70
     0
300
3/8" = 1'-0"
140
0.375
141
12.0
290
     0
  0
SCALE
  5
56
102
{ACAD_REACTORS
330
3B
102
}
330
3B
100
AcDbScale
 70
     0
300
1/2" = 1'-0"
140
0.5
141
12.0
290
     0
  0
SCALE
  5
57
102
{ACAD_REACTORS
330
3B
102
}
330
3B
100
AcDbScale
 70
     0
300
3/4" = 1'-0"
140
0.75
141
12.0
290
     0
  0
SCALE
  5
58
102
{ACAD_REACTORS
330
3B
102
}
330
3B
100
AcDbScale
 70
     0
300
1" = 1'-0"
140
1.0
141
12.0
290
     0
  0
SCALE
  5
59
102
{ACAD_REACTORS
330
3B
102
}
330
3B
100
AcDbScale
 70
     0
300
1-1/2" = 1'-0"
140
1.5
141
12.0
290
     0
  0
SCALE
  5
5A
102
{ACAD_REACTORS
330
3B
102
}
330
3B
100
AcDbScale
 70
     0
300
3" = 1'-0"
140
3.0
141
12.0
290
     0
  0
SCALE
  5
5B
102
{ACAD_REACTORS
330
3B
102
}
330
3B
100
AcDbScale
 70
     0
300
6" = 1'-0"
140
6.0
141
12.0
290
     0
  0
SCALE
  5
5C
102
{ACAD_REACTORS
330
3B
102
}
330
3B
100
AcDbScale
 70
     0
300
1'-0" = 1'-0"
140
12.0
141
12.0
290
     0
  0
VISUALSTYLE
  5
2F
102
{ACAD_REACTORS
330
2A
102
}
330
2A
100
AcDbVisualStyle
  2
2dWireframe
 70
     4
 71
     0
 72
     2
 73
     0
 90
        0
 40
-0.6
 41
-30.0
 62
     5
 63
     7
 74
     1
 91
        4
 64
     7
 65
   257
 75
     1
175
     1
 42
1.0
 92
        0
 66
   257
 43
1.0
 76
     1
 77
     6
 78
     2
 67
     7
 79
     5
170
     0
171
     0
290
     0
174
     0
 93
        1
 44
0.0
173
     0
291
     0
 45
0.0
1001
ACAD
1000
AcDbSavedByObjectVersion
1070
     0
  0
VISUALSTYLE
  5
31
102
{ACAD_REACTORS
330
2A
102
}
330
2A
100
AcDbVisualStyle
  2
3D Hidden
 70
     6
 71
     1
 72
     2
 73
     2
 90
        0
 40
-0.6
 41
-30.0
 62
     5
 63
     7
 74
     2
 91
        2
 64
     7
 65
   257
 75
     2
175
     1
 42
40.0
 92
        0
 66
   257
 43
1.0
 76
     1
 77
     6
 78
     2
 67
     7
 79
     3
170
     0
171
     0
290
     0
174
     0
 93
        1
 44
0.0
173
     0
291
     0
 45
0.0
1001
ACAD
1000
AcDbSavedByObjectVersion
1070
     0
  0
VISUALSTYLE
  5
30
102
{ACAD_REACTORS
330
2A
102
}
330
2A
100
AcDbVisualStyle
  2
3dWireframe
 70
     5
 71
     0
 72
     2
 73
     0
 90
        0
 40
-0.6
 41
-30.0
 62
     5
 63
     7
 74
     1
 91
        4
 64
     7
 65
   257
 75
     1
175
     1
 42
1.0
 92
        0
 66
   257
 43
1.0
 76
     1
 77
     6
 78
     2
 67
     7
 79
     5
170
     0
171
     0
290
     0
174
     0
 93
        1
 44
0.0
173
     0
291
     0
 45
0.0
1001
ACAD
1000
AcDbSavedByObjectVersion
1070
     0
  0
VISUALSTYLE
  5
32
102
{ACAD_REACTORS
330
2A
102
}
330
2A
100
AcDbVisualStyle
  2
Basic
 70
     7
 71
     1
 72
     0
 73
     1
 90
        0
 40
-0.6
 41
-30.0
 62
     5
 63
     7
 74
     0
 91
        4
 64
     7
 65
   257
 75
     1
175
     1
 42
1.0
 92
        8
 66
     7
 43
1.0
 76
     1
 77
     6
 78
     2
 67
     7
 79
     5
170
     0
171
     0
290
     0
174
     0
 93
        1
 44
0.0
173
     0
291
     1
 45
0.0
1001
ACAD
1000
AcDbSavedByObjectVersion
1070
     0
  0
VISUALSTYLE
  5
36
102
{ACAD_REACTORS
330
2A
102
}
330
2A
100
AcDbVisualStyle
  2
Brighten
 70
    12
 71
     2
 72
     2
 73
     0
 90
        0
 40
-0.6
 41
-30.0
 62
     5
 63
     7
 74
     1
 91
        4
 64
     7
 65
   257
 75
     1
175
     1
 42
1.0
 92
        8
 66
     7
 43
1.0
 76
     1
 77
     6
 78
     2
 67
     7
 79
     5
170
     0
171
     0
290
     0
174
     0
 93
        1
 44
50.0
173
     0
291
     1
 45
0.0
1001
ACAD
1000
AcDbSavedByObjectVersion
1070
     0
  0
VISUALSTYLE
  5
3A
102
{ACAD_REACTORS
330
2A
102
}
330
2A
100
AcDbVisualStyle
  2
ColorChange
 70
    16
 71
     2
 72
     2
 73
     3
 90
        0
 40
-0.6
 41
-30.0
 62
     5
 63
     8
 74
     1
 91
        4
 64
     7
 65
   257
 75
     1
175
     1
 42
1.0
 92
        8
 66
     8
 43
1.0
 76
     1
 77
     6
 78
     2
 67
     7
 79
     5
170
     0
171
     0
290
     0
174
     0
 93
        1
 44
0.0
173
     0
291
     1
 45
0.0
1001
ACAD
1000
AcDbSavedByObjectVersion
1070
     0
  0
VISUALSTYLE
  5
34
102
{ACAD_REACTORS
330
2A
102
}
330
2A
100
AcDbVisualStyle
  2
Conceptual
 70
     9
 71
     3
 72
     2
 73
     0
 90
        0
 40
-0.6
 41
-30.0
 62
     5
 63
     7
 74
     2
 91
        2
 64
     7
 65
   257
 75
     1
175
     1
 42
40.0
 92
        8
 66
     7
 43
1.0
 76
     1
 77
     6
 78
     2
 67
     7
 79
     3
170
     0
171
     0
290
     0
174
     0
 93
        1
 44
0.0
173
     0
291
     0
 45
0.0
1001
ACAD
1000
AcDbSavedByObjectVersion
1070
     0
  0
VISUALSTYLE
  5
35
102
{ACAD_REACTORS
330
2A
102
}
330
2A
100
AcDbVisualStyle
  2
Dim
 70
    11
 71
     2
 72
     2
 73
     0
 90
        0
 40
-0.6
 41
-30.0
 62
     5
 63
     7
 74
     1
 91
        4
 64
     7
 65
   257
 75
     1
175
     1
 42
1.0
 92
        8
 66
     7
 43
1.0
 76
     1
 77
     6
 78
     2
 67
     7
 79
     5
170
     0
171
     0
290
     0
174
     0
 93
        1
 44
-50.0
173
     0
291
     1
 45
0.0
1001
ACAD
1000
AcDbSavedByObjectVersion
1070
     0
  0
VISUALSTYLE
  5
39
102
{ACAD_REACTORS
330
2A
102
}
330
2A
100
AcDbVisualStyle
  2
Facepattern
 70
    15
 71
     2
 72
     2
 73
     0
 90
        0
 40
-0.6
 41
-30.0
 62
     5
 63
     7
 74
     1
 91
        4
 64
     7
 65
   257
 75
     1
175
     1
 42
1.0
 92
        8
 66
     7
 43
1.0
 76
     1
 77
     6
 78
     2
 67
     7
 79
     5
170
     0
171
     0
290
     0
174
     0
 93
        1
 44
0.0
173
     0
291
     1
 45
0.0
1001
ACAD
1000
AcDbSavedByObjectVersion
1070
     0
  0
VISUALSTYLE
  5
2B
102
{ACAD_REACTORS
330
2A
102
}
330
2A
100
AcDbVisualStyle
  2
Flat
 70
     0
 71
     2
 72
     1
 73
     1
 90
        2
 40
-0.6
 41
30.0
 62
     5
 63
     7
 74
     0
 91
        4
 64
     7
 65
   257
 75
     1
175
     1
 42
1.0
 92
        8
 66
     7
 43
1.0
 76
     1
 77
     6
 78
     2
 67
     7
 79
     5
170
     0
171
     0
290
     0
174
     0
 93
       13
 44
0.0
173
     0
291
     1
 45
0.0
1001
ACAD
1000
AcDbSavedByObjectVersion
1070
     0
  0
VISUALSTYLE
  5
2C
102
{ACAD_REACTORS
330
2A
102
}
330
2A
100
AcDbVisualStyle
  2
FlatWithEdges
 70
     1
 71
     2
 72
     1
 73
     1
 90
        2
 40
-0.6
 41
30.0
 62
     5
 63
     7
 74
     1
 91
        4
 64
     7
 65
   257
 75
     1
175
     1
 42
1.0
 92
        0
 66
   257
 43
1.0
 76
     1
 77
     6
 78
     2
 67
     7
 79
     5
170
     0
171
     0
290
     0
174
     0
 93
       13
 44
0.0
173
     0
291
     1
 45
0.0
1001
ACAD
1000
AcDbSavedByObjectVersion
1070
     0
  0
VISUALSTYLE
  5
2D
102
{ACAD_REACTORS
330
2A
102
}
330
2A
100
AcDbVisualStyle
  2
Gouraud
 70
     2
 71
     2
 72
     2
 73
     1
 90
        2
 40
-0.6
 41
30.0
 62
     5
 63
     7
 74
     0
 91
        4
 64
     7
 65
   257
 75
     1
175
     1
 42
1.0
 92
        0
 66
     7
 43
1.0
 76
     1
 77
     6
 78
     2
 67
     7
 79
     5
170
     0
171
     0
290
     0
174
     0
 93
       13
 44
0.0
173
     0
291
     1
 45
0.0
1001
ACAD
1000
AcDbSavedByObjectVersion
1070
     0
  0
VISUALSTYLE
  5
2E
102
{ACAD_REACTORS
330
2A
102
}
330
2A
100
AcDbVisualStyle
  2
GouraudWithEdges
 70
     3
 71
     2
 72
     2
 73
     1
 90
        2
 40
-0.6
 41
30.0
 62
     5
 63
     7
 74
     1
 91
        4
 64
     7
 65
   257
 75
     1
175
     1
 42
1.0
 92
        0
 66
   257
 43
1.0
 76
     1
 77
     6
 78
     2
 67
     7
 79
     5
170
     0
171
     0
290
     0
174
     0
 93
       13
 44
0.0
173
     0
291
     1
 45
0.0
1001
ACAD
1000
AcDbSavedByObjectVersion
1070
     0
  0
VISUALSTYLE
  5
38
102
{ACAD_REACTORS
330
2A
102
}
330
2A
100
AcDbVisualStyle
  2
Linepattern
 70
    14
 71
     2
 72
     2
 73
     0
 90
        0
 40
-0.6
 41
-30.0
 62
     5
 63
     7
 74
     1
 91
        4
 64
     7
 65
   257
 75
     7
175
     7
 42
1.0
 92
        8
 66
     7
 43
1.0
 76
     1
 77
     6
 78
     2
 67
     7
 79
     5
170
     0
171
     0
290
     0
174
     0
 93
        1
 44
0.0
173
     0
291
     1
 45
0.0
1001
ACAD
1000
AcDbSavedByObjectVersion
1070
     0
  0
VISUALSTYLE
  5
33
102
{ACAD_REACTORS
330
2A
102
}
330
2A
100
AcDbVisualStyle
  2
Realistic
 70
     8
 71
     2
 72
     2
 73
     0
 90
        0
 40
-0.6
 41
-30.0
 62
     5
 63
     7
 74
     1
 91
        0
 64
     7
 65
   257
 75
     1
175
     1
 42
1.0
 92
        8
 66
     8
 43
1.0
 76
     1
 77
     6
 78
     2
 67
     7
 79
     5
170
     0
171
     0
290
     0
174
     0
 93
       13
 44
0.0
173
     0
291
     0
 45
0.0
1001
ACAD
1000
AcDbSavedByObjectVersion
1070
     0
  0
VISUALSTYLE
  5
37
102
{ACAD_REACTORS
330
2A
102
}
330
2A
100
AcDbVisualStyle
  2
Thicken
 70
    13
 71
     2
 72
     2
 73
     0
 90
        0
 40
-0.6
 41
-30.0
 62
     5
 63
     7
 74
     1
 91
        4
 64
     7
 65
   257
 75
     1
175
     1
 42
1.0
 92
       12
 66
     7
 43
1.0
 76
     1
 77
     6
 78
     2
 67
     7
 79
     5
170
     0
171
     0
290
     0
174
     0
 93
        1
 44
0.0
173
     0
291
     1
 45
0.0
1001
ACAD
1000
AcDbSavedByObjectVersion
1070
     0
  0
DICTIONARYVAR
  5
E8
102
{ACAD_REACTORS
330
E7
102
}
330
E7
100
DictionaryVariables
280
     0
  1
1:1
  0
DICTIONARYVAR
  5
EC
102
{ACAD_REACTORS
330
E7
102
}
330
E7
100
DictionaryVariables
280
     0
  1
80.000000
  0
DICTIONARYVAR
  5
EB
102
{ACAD_REACTORS
330
E7
102
}
330
E7
100
DictionaryVariables
280
     0
  1
5.000000
  0
ENDSEC
  0
EOF
