  0
SECTION
  2
HEADER
  9
$ACADVER
  1
AC1015
  9
$ACADMAINTVER
 70
     6
  9
$DWGCODEPAGE
  3
ANSI_1252
  9
$INSBASE
 10
0.0
 20
0.0
 30
0.0
  9
$EXTMIN
 10
0.0
 20
0.0
 30
0.0
  9
$EXTMAX
 10
1682.0
 20
2378.0
 30
0.0
  9
$LIMMIN
 10
0.0
 20
0.0
  9
$LIMMAX
 10
1682.0
 20
2378.0
  9
$ORTHOMODE
 70
     0
  9
$REGENMODE
 70
     1
  9
$FILLMODE
 70
     1
  9
$QTEXTMODE
 70
     0
  9
$MIRRTEXT
 70
     1
  9
$LTSCALE
 40
1.0
  9
$ATTMODE
 70
     1
  9
$TEXTSIZE
 40
2.5
  9
$TRACEWID
 40
1.0
  9
$TEXTSTYLE
  7
Standard
  9
$CLAYER
  8
0
  9
$CELTYPE
  6
ByLayer
  9
$CECOLOR
 62
   256
  9
$CELTSCALE
 40
1.0
  9
$DISPSILH
 70
     0
  9
$DIMSCALE
 40
1.0
  9
$DIMASZ
 40
2.5
  9
$DIMEXO
 40
0.625
  9
$DIMDLI
 40
3.75
  9
$DIMRND
 40
0.0
  9
$DIMDLE
 40
0.0
  9
$DIMEXE
 40
1.25
  9
$DIMTP
 40
0.0
  9
$DIMTM
 40
0.0
  9
$DIMTXT
 40
2.5
  9
$DIMCEN
 40
2.5
  9
$DIMTSZ
 40
0.0
  9
$DIMTOL
 70
     0
  9
$DIMLIM
 70
     0
  9
$DIMTIH
 70
     0
  9
$DIMTOH
 70
     0
  9
$DIMSE1
 70
     0
  9
$DIMSE2
 70
     0
  9
$DIMTAD
 70
     1
  9
$DIMZIN
 70
     8
  9
$DIMBLK
  1

  9
$DIMASO
 70
     1
  9
$DIMSHO
 70
     1
  9
$DIMPOST
  1

  9
$DIMAPOST
  1

  9
$DIMALT
 70
     0
  9
$DIMALTD
 70
     3
  9
$DIMALTF
 40
0.0393700787
  9
$DIMLFAC
 40
1.0
  9
$DIMTOFL
 70
     1
  9
$DIMTVP
 40
0.0
  9
$DIMTIX
 70
     0
  9
$DIMSOXD
 70
     0
  9
$DIMSAH
 70
     0
  9
$DIMBLK1
  1

  9
$DIMBLK2
  1

  9
$DIMSTYLE
  2
ISO-25
  9
$DIMCLRD
 70
     0
  9
$DIMCLRE
 70
     0
  9
$DIMCLRT
 70
     0
  9
$DIMTFAC
 40
1.0
  9
$DIMGAP
 40
0.625
  9
$DIMJUST
 70
     0
  9
$DIMSD1
 70
     0
  9
$DIMSD2
 70
     0
  9
$DIMTOLJ
 70
     0
  9
$DIMTZIN
 70
     8
  9
$DIMALTZ
 70
     0
  9
$DIMALTTZ
 70
     0
  9
$DIMUPT
 70
     0
  9
$DIMDEC
 70
     2
  9
$DIMTDEC
 70
     2
  9
$DIMALTU
 70
     2
  9
$DIMALTTD
 70
     3
  9
$DIMTXSTY
  7
Standard
  9
$DIMAUNIT
 70
     0
  9
$DIMADEC
 70
     0
  9
$DIMALTRND
 40
0.0
  9
$DIMAZIN
 70
     0
  9
$DIMDSEP
 70
    44
  9
$DIMATFIT
 70
     3
  9
$DIMFRAC
 70
     0
  9
$DIMLDRBLK
  1

  9
$DIMLUNIT
 70
     2
  9
$DIMLWD
 70
    -2
  9
$DIMLWE
 70
    -2
  9
$DIMTMOVE
 70
     0
  9
$LUNITS
 70
     2
  9
$LUPREC
 70
     4
  9
$SKETCHINC
 40
1.0
  9
$FILLETRAD
 40
10.0
  9
$AUNITS
 70
     0
  9
$AUPREC
 70
     0
  9
$MENU
  1
.
  9
$ELEVATION
 40
0.0
  9
$PELEVATION
 40
0.0
  9
$THICKNESS
 40
0.0
  9
$LIMCHECK
 70
     0
  9
$CHAMFERA
 40
10.0
  9
$CHAMFERB
 40
10.0
  9
$CHAMFERC
 40
20.0
  9
$CHAMFERD
 40
0.0
  9
$SKPOLY
 70
     0
  9
$TDCREATE
 40
2455237.459537431
  9
$TDUCREATE
 40
2455237.417870764
  9
$TDUPDATE
 40
2455237.459537442
  9
$TDUUPDATE
 40
2455237.417870775
  9
$TDINDWG
 40
0.0000000116
  9
$TDUSRTIMER
 40
0.0000000116
  9
$USRTIMER
 70
     1
  9
$ANGBASE
 50
0.0
  9
$ANGDIR
 70
     0
  9
$PDMODE
 70
     0
  9
$PDSIZE
 40
0.0
  9
$PLINEWID
 40
0.0
  9
$SPLFRAME
 70
     0
  9
$SPLINETYPE
 70
     6
  9
$SPLINESEGS
 70
     8
  9
$HANDSEED
  5
2CB
  9
$SURFTAB1
 70
     6
  9
$SURFTAB2
 70
     6
  9
$SURFTYPE
 70
     6
  9
$SURFU
 70
     6
  9
$SURFV
 70
     6
  9
$UCSBASE
  2

  9
$UCSNAME
  2

  9
$UCSORG
 10
0.0
 20
0.0
 30
0.0
  9
$UCSXDIR
 10
1.0
 20
0.0
 30
0.0
  9
$UCSYDIR
 10
0.0
 20
1.0
 30
0.0
  9
$UCSORTHOREF
  2

  9
$UCSORTHOVIEW
 70
     0
  9
$UCSORGTOP
 10
0.0
 20
0.0
 30
0.0
  9
$UCSORGBOTTOM
 10
0.0
 20
0.0
 30
0.0
  9
$UCSORGLEFT
 10
0.0
 20
0.0
 30
0.0
  9
$UCSORGRIGHT
 10
0.0
 20
0.0
 30
0.0
  9
$UCSORGFRONT
 10
0.0
 20
0.0
 30
0.0
  9
$UCSORGBACK
 10
0.0
 20
0.0
 30
0.0
  9
$PUCSBASE
  2

  9
$PUCSNAME
  2

  9
$PUCSORG
 10
0.0
 20
0.0
 30
0.0
  9
$PUCSXDIR
 10
1.0
 20
0.0
 30
0.0
  9
$PUCSYDIR
 10
0.0
 20
1.0
 30
0.0
  9
$PUCSORTHOREF
  2

  9
$PUCSORTHOVIEW
 70
     0
  9
$PUCSORGTOP
 10
0.0
 20
0.0
 30
0.0
  9
$PUCSORGBOTTOM
 10
0.0
 20
0.0
 30
0.0
  9
$PUCSORGLEFT
 10
0.0
 20
0.0
 30
0.0
  9
$PUCSORGRIGHT
 10
0.0
 20
0.0
 30
0.0
  9
$PUCSORGFRONT
 10
0.0
 20
0.0
 30
0.0
  9
$PUCSORGBACK
 10
0.0
 20
0.0
 30
0.0
  9
$USERI1
 70
     0
  9
$USERI2
 70
     0
  9
$USERI3
 70
     0
  9
$USERI4
 70
     0
  9
$USERI5
 70
     0
  9
$USERR1
 40
0.0
  9
$USERR2
 40
0.0
  9
$USERR3
 40
0.0
  9
$USERR4
 40
0.0
  9
$USERR5
 40
0.0
  9
$WORLDVIEW
 70
     1
  9
$SHADEDGE
 70
     3
  9
$SHADEDIF
 70
    70
  9
$TILEMODE
 70
     1
  9
$MAXACTVP
 70
    64
  9
$PINSBASE
 10
0.0
 20
0.0
 30
0.0
  9
$PLIMCHECK
 70
     0
  9
$PEXTMIN
 10
0.0
 20
0.0
 30
0.0
  9
$PEXTMAX
 10
1682.0
 20
2378.0
 30
0.0
  9
$PLIMMIN
 10
0.0
 20
0.0
  9
$PLIMMAX
 10
1682.0
 20
2378.0
  9
$UNITMODE
 70
     0
  9
$VISRETAIN
 70
     1
  9
$PLINEGEN
 70
     0
  9
$PSLTSCALE
 70
     1
  9
$TREEDEPTH
 70
  3020
  9
$CMLSTYLE
  2
Standard
  9
$CMLJUST
 70
     0
  9
$CMLSCALE
 40
20.0
  9
$PROXYGRAPHICS
 70
     1
  9
$MEASUREMENT
 70
     1
  9
$CELWEIGHT
370
    -1
  9
$ENDCAPS
280
     0
  9
$JOINSTYLE
280
     0
  9
$LWDISPLAY
290
     0
  9
$INSUNITS
 70
     4
  9
$HYPERLINKBASE
  1

  9
$STYLESHEET
  1

  9
$XEDIT
290
     1
  9
$CEPSNTYPE
380
     0
  9
$PSTYLEMODE
290
     1
  9
$FINGERPRINTGUID
  2
{9341674F-C168-47C2-8068-4244DC4FBD1F}
  9
$VERSIONGUID
  2
{FAEB1C32-E019-11D5-929B-00C0DF256EC4}
  9
$EXTNAMES
290
     1
  9
$PSVPSCALE
 40
0.0
  9
$OLESTARTUP
290
     0
  0
ENDSEC
  0
SECTION
  2
CLASSES
  0
CLASS
  1
ACDBDICTIONARYWDFLT
  2
AcDbDictionaryWithDefault
  3
ObjectDBX Classes
 90
        0
280
     0
281
     0
  0
CLASS
  1
VISUALSTYLE
  2
AcDbVisualStyle
  3
ObjectDBX Classes
 90
     4095
280
     0
281
     0
  0
CLASS
  1
SCALE
  2
AcDbScale
  3
ObjectDBX Classes
 90
     1153
280
     0
281
     0
  0
CLASS
  1
DICTIONARYVAR
  2
AcDbDictionaryVar
  3
ObjectDBX Classes
 90
        0
280
     0
281
     0
  0
CLASS
  1
ACDBPLACEHOLDER
  2
AcDbPlaceHolder
  3
ObjectDBX Classes
 90
        0
280
     0
281
     0
  0
CLASS
  1
LAYOUT
  2
AcDbLayout
  3
ObjectDBX Classes
 90
        0
280
     0
281
     0
  0
ENDSEC
  0
SECTION
  2
TABLES
  0
TABLE
  2
VPORT
  5
8
330
0
100
AcDbSymbolTable
 70
     1
  0
VPORT
  5
29
330
8
100
AcDbSymbolTableRecord
100
AcDbViewportTableRecord
  2
*Active
 70
     0
 10
0.0
 20
0.0
 11
1.0
 21
1.0
 12
344.1869158879
 22
148.5
 13
0.0
 23
0.0
 14
10.0
 24
10.0
 15
10.0
 25
10.0
 16
0.0
 26
0.0
 36
1.0
 17
0.0
 27
0.0
 37
0.0
 40
297.0
 41
1.9729729729
 42
50.0
 43
0.0
 44
0.0
 50
0.0
 51
0.0
 71
     0
 72
   100
 73
     1
 74
     3
 75
     0
 76
     0
 77
     0
 78
     0
281
     0
 65
     1
110
0.0
120
0.0
130
0.0
111
1.0
121
0.0
131
0.0
112
0.0
122
1.0
132
0.0
 79
     0
146
0.0
  0
ENDTAB
  0
TABLE
  2
LTYPE
  5
5
330
0
100
AcDbSymbolTable
 70
     2
  0
LTYPE
  5
14
330
5
100
AcDbSymbolTableRecord
100
AcDbLinetypeTableRecord
  2
ByBlock
 70
     0
  3

 72
    65
 73
     0
 40
0.0
  0
LTYPE
  5
15
330
5
100
AcDbSymbolTableRecord
100
AcDbLinetypeTableRecord
  2
ByLayer
 70
     0
  3

 72
    65
 73
     0
 40
0.0
  0
LTYPE
  5
16
330
5
100
AcDbSymbolTableRecord
100
AcDbLinetypeTableRecord
  2
Continuous
 70
     0
  3
Solid line
 72
    65
 73
     0
 40
0.0
  0
LTYPE
  5
185
330
5
100
AcDbSymbolTableRecord
100
AcDbLinetypeTableRecord
  2
CENTER2
 70
     0
  3
Center (.5x) ___ _ ___ _ ___ _ ___ _ ___ _ ___
 72
    65
 73
     4
 40
28.575
 49
19.05
 74
     4
 75
     0
340
0
 46
0.0
 50
0.0
 44
0.0
 45
0.0
 49
-3.175
 74
     4
 75
     0
340
0
 46
0.0
 50
0.0
 44
0.0
 45
0.0
 49
3.175
 74
     4
 75
     0
340
0
 46
0.0
 50
0.0
 44
0.0
 45
0.0
 49
-3.175
 74
     4
 75
     0
340
0
 46
0.0
 50
0.0
 44
0.0
 45
0.0
  0
ENDTAB
  0
TABLE
  2
LAYER
  5
2
330
0
100
AcDbSymbolTable
 70
    21
  0
LAYER
  5
10
330
2
100
AcDbSymbolTableRecord
100
AcDbLayerTableRecord
  2
0
 70
     0
 62
     7
  6
Continuous
370
    -3
390
F
  0
LAYER
  5
5D
330
2
100
AcDbSymbolTableRecord
100
AcDbLayerTableRecord
  2
Default
 70
     0
 62
     7
  6
Continuous
370
    -3
390
F
  0
LAYER
  5
60
330
2
100
AcDbSymbolTableRecord
100
AcDbLayerTableRecord
  2
$DDT_AUDIT_GENERATED_(60)
 70
     0
 62
     7
  6
Continuous
370
    -3
390
F
  0
LAYER
  5
78
330
2
100
AcDbSymbolTableRecord
100
AcDbLayerTableRecord
  2
$DDT_AUDIT_GENERATED_(78)
 70
     0
 62
     7
  6
Continuous
370
    -3
390
F
  0
LAYER
  5
88
330
2
100
AcDbSymbolTableRecord
100
AcDbLayerTableRecord
  2
$DDT_AUDIT_GENERATED_(88)
 70
     0
 62
     7
  6
Continuous
370
    -3
390
F
  0
LAYER
  5
90
330
2
100
AcDbSymbolTableRecord
100
AcDbLayerTableRecord
  2
$DDT_AUDIT_GENERATED_(90)
 70
     0
 62
     7
  6
Continuous
370
    -3
390
F
  0
LAYER
  5
99
330
2
100
AcDbSymbolTableRecord
100
AcDbLayerTableRecord
  2
$DDT_AUDIT_GENERATED_(99)
 70
     0
 62
     7
  6
Continuous
370
    -3
390
F
  0
LAYER
  5
A4
330
2
100
AcDbSymbolTableRecord
100
AcDbLayerTableRecord
  2
$DDT_AUDIT_GENERATED_(A4)
 70
     0
 62
     7
  6
Continuous
370
    -3
390
F
  0
LAYER
  5
AC
330
2
100
AcDbSymbolTableRecord
100
AcDbLayerTableRecord
  2
$DDT_AUDIT_GENERATED_(AC)
 70
     0
 62
     7
  6
Continuous
370
    -3
390
F
  0
LAYER
  5
CC
330
2
100
AcDbSymbolTableRecord
100
AcDbLayerTableRecord
  2
$DDT_AUDIT_GENERATED_(CC)
 70
     0
 62
     7
  6
Continuous
370
    -3
390
F
  0
LAYER
  5
CE
330
2
100
AcDbSymbolTableRecord
100
AcDbLayerTableRecord
  2
$DDT_AUDIT_GENERATED_(CE)
 70
     0
 62
     7
  6
Continuous
370
    -3
390
F
  0
LAYER
  5
D2
330
2
100
AcDbSymbolTableRecord
100
AcDbLayerTableRecord
  2
$DDT_AUDIT_GENERATED_(D2)
 70
     0
 62
     7
  6
Continuous
370
    -3
390
F
  0
LAYER
  5
E7
330
2
100
AcDbSymbolTableRecord
100
AcDbLayerTableRecord
  2
$DDT_AUDIT_GENERATED_(E7)
 70
     0
 62
     7
  6
Continuous
370
    -3
390
F
  0
LAYER
  5
EA
330
2
100
AcDbSymbolTableRecord
100
AcDbLayerTableRecord
  2
$DDT_AUDIT_GENERATED_(EA)
 70
     0
 62
     7
  6
Continuous
370
    -3
390
F
  0
LAYER
  5
F6
330
2
100
AcDbSymbolTableRecord
100
AcDbLayerTableRecord
  2
4240245_SCHLAUCH
 70
     0
 62
     7
  6
Continuous
370
    -3
390
F
  0
LAYER
  5
13A
330
2
100
AcDbSymbolTableRecord
100
AcDbLayerTableRecord
  2
$DDT_AUDIT_GENERATED_(13A)
 70
     0
 62
     7
  6
Continuous
370
    -3
390
F
  0
LAYER
  5
17A
330
2
100
AcDbSymbolTableRecord
100
AcDbLayerTableRecord
  2
$DDT_AUDIT_GENERATED_(17A)
 70
     0
 62
     7
  6
Continuous
370
    -3
390
F
  0
LAYER
  5
184
330
2
100
AcDbSymbolTableRecord
100
AcDbLayerTableRecord
  2
DV1_Standard
 70
     0
 62
     7
  6
Continuous
370
    -3
390
F
  0
LAYER
  5
1F3
330
2
100
AcDbSymbolTableRecord
100
AcDbLayerTableRecord
  2
$DDT_AUDIT_GENERATED_(1F3)
 70
     0
 62
     7
  6
Continuous
370
    -3
390
F
  0
LAYER
  5
23E
330
2
100
AcDbSymbolTableRecord
100
AcDbLayerTableRecord
  2
DV2_Standard
 70
     0
 62
     7
  6
Continuous
370
    -3
390
F
  0
LAYER
  5
2B1
330
2
100
AcDbSymbolTableRecord
100
AcDbLayerTableRecord
  2
DV3_Standard
 70
     0
 62
     7
  6
Continuous
370
    -3
390
F
  0
ENDTAB
  0
TABLE
  2
STYLE
  5
3
330
0
100
AcDbSymbolTable
 70
     2
  0
STYLE
  5
11
330
3
100
AcDbSymbolTableRecord
100
AcDbTextStyleTableRecord
  2
Standard
 70
     0
 40
0.0
 41
1.0
 50
0.0
 71
     0
 42
2.5
  3
txt
  4

  0
STYLE
  5
2BA
330
3
100
AcDbSymbolTableRecord
100
AcDbTextStyleTableRecord
  2
SEACAD_seiso_ttf
 70
     0
 40
0.0
 41
1.0
 50
0.0
 71
     0
 42
0.2
  3
seiso.ttf
  4

  0
ENDTAB
  0
TABLE
  2
VIEW
  5
6
330
0
100
AcDbSymbolTable
 70
     0
  0
ENDTAB
  0
TABLE
  2
UCS
  5
7
330
0
100
AcDbSymbolTable
 70
     0
  0
ENDTAB
  0
TABLE
  2
APPID
  5
9
330
0
100
AcDbSymbolTable
 70
     1
  0
APPID
  5
12
330
9
100
AcDbSymbolTableRecord
100
AcDbRegAppTableRecord
  2
ACAD
 70
     0
  0
ENDTAB
  0
TABLE
  2
DIMSTYLE
  5
A
330
0
100
AcDbSymbolTable
 70
     1
100
AcDbDimStyleTable
  0
DIMSTYLE
105
27
330
A
100
AcDbSymbolTableRecord
100
AcDbDimStyleTableRecord
  2
ISO-25
 70
     0
 41
2.5
 42
0.625
 43
3.75
 44
1.25
 73
     0
 74
     0
 77
     1
 78
     8
140
2.5
141
2.5
143
0.0393700787
147
0.625
171
     3
172
     1
271
     2
272
     2
274
     3
278
    44
283
     0
284
     8
340
11
  0
ENDTAB
  0
TABLE
  2
BLOCK_RECORD
  5
1
330
0
100
AcDbSymbolTable
 70
     4
  0
BLOCK_RECORD
  5
1F
330
1
100
AcDbSymbolTableRecord
100
AcDbBlockTableRecord
  2
*Model_Space
340
22
  0
BLOCK_RECORD
  5
1B
330
1
100
AcDbSymbolTableRecord
100
AcDbBlockTableRecord
  2
*Paper_Space
340
1E
  0
BLOCK_RECORD
  5
5E
330
1
100
AcDbSymbolTableRecord
100
AcDbBlockTableRecord
  2
SE
340
0
102
{BLKREFS
331
5F
102
}
  0
BLOCK_RECORD
  5
19B
330
1
100
AcDbSymbolTableRecord
100
AcDbBlockTableRecord
  2
SE1
340
0
102
{BLKREFS
331
19C
102
}
  0
BLOCK_RECORD
  5
244
330
1
100
AcDbSymbolTableRecord
100
AcDbBlockTableRecord
  2
SE2
340
0
102
{BLKREFS
331
245
102
}
  0
ENDTAB
  0
ENDSEC
  0
SECTION
  2
BLOCKS
  0
BLOCK
  5
20
330
1F
100
AcDbEntity
  8
0
100
AcDbBlockBegin
  2
*Model_Space
 70
     0
 10
0.0
 20
0.0
 30
0.0
  3
*Model_Space
  1

  0
ENDBLK
  5
21
330
1F
100
AcDbEntity
  8
0
100
AcDbBlockEnd
  0
BLOCK
  5
1C
330
1B
100
AcDbEntity
 67
     1
  8
0
100
AcDbBlockBegin
  2
*Paper_Space
 70
     0
 10
0.0
 20
0.0
 30
0.0
  3
*Paper_Space
  1

  0
ENDBLK
  5
1D
330
1B
100
AcDbEntity
 67
     1
  8
0
100
AcDbBlockEnd
  0
BLOCK
  5
199
330
5E
100
AcDbEntity
  8
0
100
AcDbBlockBegin
  2
SE
 70
     0
 10
0.0
 20
0.0
 30
0.0
  3
SE
  1

  0
LINE
  5
61
330
5E
100
AcDbEntity
  8
$DDT_AUDIT_GENERATED_(60)
  6
Continuous
 62
     7
100
AcDbLine
 10
150.35
 20
522.1501477937
 30
0.0
 11
196.35
 21
522.1501477937
 31
0.0
  0
LINE
  5
62
330
5E
100
AcDbEntity
  8
$DDT_AUDIT_GENERATED_(60)
  6
Continuous
 62
     7
100
AcDbLine
 10
134.35
 20
522.1501477937
 30
0.0
 11
150.35
 21
522.1501477937
 31
0.0
  0
LINE
  5
63
330
5E
100
AcDbEntity
  8
$DDT_AUDIT_GENERATED_(60)
  6
Continuous
 62
     7
100
AcDbLine
 10
127.35
 20
522.1501477937
 30
0.0
 11
134.35
 21
522.1501477937
 31
0.0
  0
LINE
  5
64
330
5E
100
AcDbEntity
  8
$DDT_AUDIT_GENERATED_(60)
  6
Continuous
 62
     7
100
AcDbLine
 10
105.35
 20
522.1501477937
 30
0.0
 11
127.35
 21
522.1501477937
 31
0.0
  0
LINE
  5
65
330
5E
100
AcDbEntity
  8
$DDT_AUDIT_GENERATED_(60)
  6
Continuous
 62
     7
100
AcDbLine
 10
98.35
 20
522.1501477937
 30
0.0
 11
105.35
 21
522.1501477937
 31
0.0
  0
LINE
  5
66
330
5E
100
AcDbEntity
  8
$DDT_AUDIT_GENERATED_(60)
  6
Continuous
 62
     7
100
AcDbLine
 10
82.35
 20
522.1501477937
 30
0.0
 11
98.35
 21
522.1501477937
 31
0.0
  0
LINE
  5
67
330
5E
100
AcDbEntity
  8
$DDT_AUDIT_GENERATED_(60)
  6
Continuous
 62
     7
100
AcDbLine
 10
36.35
 20
522.1501477937
 30
0.0
 11
82.35
 21
522.1501477937
 31
0.0
  0
ARC
  5
68
330
5E
100
AcDbEntity
  8
$DDT_AUDIT_GENERATED_(60)
  6
Continuous
 62
     7
100
AcDbCircle
 10
36.35
 20
507.1501477937
 30
0.0
 40
15.0
100
AcDbArc
 50
90.0
 51
180.0
  0
LINE
  5
69
330
5E
100
AcDbEntity
  8
$DDT_AUDIT_GENERATED_(60)
  6
Continuous
 62
     7
100
AcDbLine
 10
135.35
 20
521.1501477937
 30
0.0
 11
135.35
 21
497.1501477937
 31
0.0
  0
LINE
  5
6A
330
5E
100
AcDbEntity
  8
$DDT_AUDIT_GENERATED_(60)
  6
Continuous
 62
     7
100
AcDbLine
 10
21.35
 20
492.1501477937
 30
0.0
 11
21.35
 21
507.1501477937
 31
0.0
  0
ARC
  5
6B
330
5E
100
AcDbEntity
  8
$DDT_AUDIT_GENERATED_(60)
  6
Continuous
 62
     7
100
AcDbCircle
 10
36.35
 20
492.1501477937
 30
0.0
 40
15.0
100
AcDbArc
 50
180.0
 51
270.0
  0
LINE
  5
6C
330
5E
100
AcDbEntity
  8
$DDT_AUDIT_GENERATED_(60)
  6
Continuous
 62
     7
100
AcDbLine
 10
196.35
 20
477.1501477937
 30
0.0
 11
36.35
 21
477.1501477937
 31
0.0
  0
ARC
  5
6D
330
5E
100
AcDbEntity
  8
$DDT_AUDIT_GENERATED_(60)
  6
Continuous
 62
     7
100
AcDbCircle
 10
196.35
 20
492.1501477937
 30
0.0
 40
15.0
100
AcDbArc
 50
270.0
 51
0.0
  0
ARC
  5
6E
330
5E
100
AcDbEntity
  8
$DDT_AUDIT_GENERATED_(60)
  6
Continuous
 62
     7
100
AcDbCircle
 10
196.35
 20
507.1501477937
 30
0.0
 40
15.0
100
AcDbArc
 50
0.0
 51
90.0
  0
LINE
  5
6F
330
5E
100
AcDbEntity
  8
$DDT_AUDIT_GENERATED_(60)
  6
Continuous
 62
     7
100
AcDbLine
 10
211.35
 20
507.1501477937
 30
0.0
 11
211.35
 21
492.1501477937
 31
0.0
  0
ARC
  5
70
330
5E
100
AcDbEntity
  8
$DDT_AUDIT_GENERATED_(60)
  6
Continuous
 62
     7
100
AcDbCircle
 10
134.35
 20
521.1501477937
 30
0.0
 40
1.000000000000001
100
AcDbArc
 50
0.0
 51
90.0
  0
ARC
  5
71
330
5E
100
AcDbEntity
  8
$DDT_AUDIT_GENERATED_(60)
  6
Continuous
 62
     7
100
AcDbCircle
 10
98.35
 20
521.1501477937
 30
0.0
 40
1.000000000000001
100
AcDbArc
 50
90.0
 51
180.0
  0
LINE
  5
72
330
5E
100
AcDbEntity
  8
$DDT_AUDIT_GENERATED_(60)
  6
Continuous
 62
     7
100
AcDbLine
 10
105.35
 20
496.1501477937
 30
0.0
 11
98.35
 21
496.1501477937
 31
0.0
  0
LINE
  5
73
330
5E
100
AcDbEntity
  8
$DDT_AUDIT_GENERATED_(60)
  6
Continuous
 62
     7
100
AcDbLine
 10
127.35
 20
496.1501477937
 30
0.0
 11
105.35
 21
496.1501477937
 31
0.0
  0
LINE
  5
74
330
5E
100
AcDbEntity
  8
$DDT_AUDIT_GENERATED_(60)
  6
Continuous
 62
     7
100
AcDbLine
 10
134.35
 20
496.1501477937
 30
0.0
 11
127.35
 21
496.1501477937
 31
0.0
  0
LINE
  5
75
330
5E
100
AcDbEntity
  8
$DDT_AUDIT_GENERATED_(60)
  6
Continuous
 62
     7
100
AcDbLine
 10
97.35
 20
497.1501477937
 30
0.0
 11
97.35
 21
521.1501477937
 31
0.0
  0
ARC
  5
76
330
5E
100
AcDbEntity
  8
$DDT_AUDIT_GENERATED_(60)
  6
Continuous
 62
     7
100
AcDbCircle
 10
134.35
 20
497.1501477937
 30
0.0
 40
1.000000000000011
100
AcDbArc
 50
270.0
 51
0.0
  0
ARC
  5
77
330
5E
100
AcDbEntity
  8
$DDT_AUDIT_GENERATED_(60)
  6
Continuous
 62
     7
100
AcDbCircle
 10
98.35
 20
497.1501477937
 30
0.0
 40
1.000000000000011
100
AcDbArc
 50
180.0
 51
270.0
  0
LINE
  5
79
330
5E
100
AcDbEntity
  8
$DDT_AUDIT_GENERATED_(78)
  6
Continuous
 62
     7
100
AcDbLine
 10
186.85
 20
474.6501477937
 30
0.0
 11
161.85
 21
474.6501477937
 31
0.0
  0
LINE
  5
7A
330
5E
100
AcDbEntity
  8
$DDT_AUDIT_GENERATED_(78)
  6
Continuous
 62
     7
100
AcDbLine
 10
184.83
 20
471.3851477937
 30
0.0
 11
163.87
 21
471.3851477937
 31
0.0
  0
LINE
  5
7B
330
5E
100
AcDbEntity
  8
$DDT_AUDIT_GENERATED_(78)
  6
Continuous
 62
     7
100
AcDbLine
 10
183.665
 20
472.5501477937
 30
0.0
 11
165.035
 21
472.5501477937
 31
0.0
  0
LINE
  5
7C
330
5E
100
AcDbEntity
  8
$DDT_AUDIT_GENERATED_(78)
  6
Continuous
 62
     7
100
AcDbLine
 10
183.67
 20
464.6501477937
 30
0.0
 11
165.03
 21
464.6501477937
 31
0.0
  0
LINE
  5
7D
330
5E
100
AcDbEntity
  8
$DDT_AUDIT_GENERATED_(78)
  6
Continuous
 62
     7
100
AcDbLine
 10
163.87
 20
465.8101477937
 30
0.0
 11
184.83
 21
465.8101477937
 31
0.0
  0
LINE
  5
7E
330
5E
100
AcDbEntity
  8
$DDT_AUDIT_GENERATED_(78)
  6
Continuous
 62
     7
100
AcDbLine
 10
186.85
 20
474.6501477937
 30
0.0
 11
186.85
 21
477.1501477937
 31
0.0
  0
LINE
  5
7F
330
5E
100
AcDbEntity
  8
$DDT_AUDIT_GENERATED_(78)
  6
Continuous
 62
     7
100
AcDbLine
 10
161.85
 20
477.1501477937
 30
0.0
 11
161.85
 21
474.6501477937
 31
0.0
  0
LINE
  5
80
330
5E
100
AcDbEntity
  8
$DDT_AUDIT_GENERATED_(78)
  6
Continuous
 62
     7
100
AcDbLine
 10
184.83
 20
465.8101477937
 30
0.0
 11
184.83
 21
471.3851477937
 31
0.0
  0
LINE
  5
81
330
5E
100
AcDbEntity
  8
$DDT_AUDIT_GENERATED_(78)
  6
Continuous
 62
     7
100
AcDbLine
 10
163.87
 20
471.3851477937
 30
0.0
 11
163.87
 21
465.8101477937
 31
0.0
  0
LINE
  5
82
330
5E
100
AcDbEntity
  8
$DDT_AUDIT_GENERATED_(78)
  6
Continuous
 62
     7
100
AcDbLine
 10
184.83
 20
471.3851477937
 30
0.0
 11
183.665
 21
472.5501477937
 31
0.0
  0
LINE
  5
83
330
5E
100
AcDbEntity
  8
$DDT_AUDIT_GENERATED_(78)
  6
Continuous
 62
     7
100
AcDbLine
 10
165.035
 20
472.5501477937
 30
0.0
 11
163.87
 21
471.3851477937
 31
0.0
  0
LINE
  5
84
330
5E
100
AcDbEntity
  8
$DDT_AUDIT_GENERATED_(78)
  6
Continuous
 62
     7
100
AcDbLine
 10
183.665
 20
472.5501477937
 30
0.0
 11
183.665
 21
474.6501477937
 31
0.0
  0
LINE
  5
85
330
5E
100
AcDbEntity
  8
$DDT_AUDIT_GENERATED_(78)
  6
Continuous
 62
     7
100
AcDbLine
 10
165.035
 20
474.6501477937
 30
0.0
 11
165.035
 21
472.5501477937
 31
0.0
  0
LINE
  5
86
330
5E
100
AcDbEntity
  8
$DDT_AUDIT_GENERATED_(78)
  6
Continuous
 62
     7
100
AcDbLine
 10
163.87
 20
465.8101477937
 30
0.0
 11
165.03
 21
464.6501477937
 31
0.0
  0
LINE
  5
87
330
5E
100
AcDbEntity
  8
$DDT_AUDIT_GENERATED_(78)
  6
Continuous
 62
     7
100
AcDbLine
 10
183.67
 20
464.6501477937
 30
0.0
 11
184.83
 21
465.8101477937
 31
0.0
  0
LINE
  5
89
330
5E
100
AcDbEntity
  8
$DDT_AUDIT_GENERATED_(88)
  6
Continuous
 62
     7
100
AcDbLine
 10
159.35
 20
557.6001477937
 30
0.0
 11
189.35
 21
557.6001477937
 31
0.0
  0
LINE
  5
8A
330
5E
100
AcDbEntity
  8
$DDT_AUDIT_GENERATED_(88)
  6
Continuous
 62
     7
100
AcDbLine
 10
189.55
 20
556.3001477937
 30
0.0
 11
189.55
 21
557.4001477937
 31
0.0
  0
LINE
  5
8B
330
5E
100
AcDbEntity
  8
$DDT_AUDIT_GENERATED_(88)
  6
Continuous
 62
     7
100
AcDbLine
 10
159.15
 20
557.4001477937
 30
0.0
 11
159.15
 21
556.3001477937
 31
0.0
  0
ARC
  5
8C
330
5E
100
AcDbEntity
  8
$DDT_AUDIT_GENERATED_(88)
  6
Continuous
 62
     7
100
AcDbCircle
 10
159.35
 20
557.4001477937
 30
0.0
 40
0.199999999999978
100
AcDbArc
 50
90.0
 51
180.0
  0
ARC
  5
8D
330
5E
100
AcDbEntity
  8
$DDT_AUDIT_GENERATED_(88)
  6
Continuous
 62
     7
100
AcDbCircle
 10
189.35
 20
557.4001477937
 30
0.0
 40
0.2000000000000057
100
AcDbArc
 50
0.0
 51
90.0
  0
ARC
  5
8E
330
5E
100
AcDbEntity
  8
$DDT_AUDIT_GENERATED_(88)
  6
Continuous
 62
     7
100
AcDbCircle
 10
189.35
 20
556.3001477937
 30
0.0
 40
0.2000000000000335
100
AcDbArc
 50
270.0
 51
0.0
  0
ARC
  5
8F
330
5E
100
AcDbEntity
  8
$DDT_AUDIT_GENERATED_(88)
  6
Continuous
 62
     7
100
AcDbCircle
 10
159.35
 20
556.3001477937
 30
0.0
 40
0.1999999999999988
100
AcDbArc
 50
180.0
 51
270.0
  0
LINE
  5
91
330
5E
100
AcDbEntity
  8
$DDT_AUDIT_GENERATED_(90)
  6
Continuous
 62
     7
100
AcDbLine
 10
189.1
 20
531.6001477937
 30
0.0
 11
159.6
 21
531.6001477937
 31
0.0
  0
LINE
  5
92
330
5E
100
AcDbEntity
  8
$DDT_AUDIT_GENERATED_(90)
  6
Continuous
 62
     7
100
AcDbLine
 10
159.266896871
 20
556.1001477937
 30
0.0
 11
189.6
 21
556.1001477937
 31
0.0
  0
LINE
  5
93
330
5E
100
AcDbEntity
  8
$DDT_AUDIT_GENERATED_(90)
  6
Continuous
 62
     7
100
AcDbLine
 10
159.266896871
 20
555.4001477937
 30
0.0
 11
159.1
 21
555.4001477937
 31
0.0
  0
LINE
  5
94
330
5E
100
AcDbEntity
  8
$DDT_AUDIT_GENERATED_(90)
  6
Continuous
 62
     7
100
AcDbLine
 10
159.266896871
 20
555.4001477937
 30
0.0
 11
159.266896871
 21
556.1001477937
 31
0.0
  0
LINE
  5
95
330
5E
100
AcDbEntity
  8
$DDT_AUDIT_GENERATED_(90)
  6
Continuous
 62
     7
100
AcDbLine
 10
189.6
 20
532.1001477937
 30
0.0
 11
189.6
 21
556.1001477937
 31
0.0
  0
LINE
  5
96
330
5E
100
AcDbEntity
  8
$DDT_AUDIT_GENERATED_(90)
  6
Continuous
 62
     7
100
AcDbLine
 10
159.1
 20
555.4001477937
 30
0.0
 11
159.1
 21
532.1001477937
 31
0.0
  0
ARC
  5
97
330
5E
100
AcDbEntity
  8
$DDT_AUDIT_GENERATED_(90)
  6
Continuous
 62
     7
100
AcDbCircle
 10
189.1
 20
532.1001477937
 30
0.0
 40
0.5000000000000004
100
AcDbArc
 50
270.0
 51
0.0
  0
ARC
  5
98
330
5E
100
AcDbEntity
  8
$DDT_AUDIT_GENERATED_(90)
  6
Continuous
 62
     7
100
AcDbCircle
 10
159.6
 20
532.1001477937
 30
0.0
 40
0.5000000000000004
100
AcDbArc
 50
180.0
 51
270.0
  0
LINE
  5
9A
330
5E
100
AcDbEntity
  8
$DDT_AUDIT_GENERATED_(99)
  6
Continuous
 62
     7
100
AcDbLine
 10
160.35
 20
524.7316126633
 30
0.0
 11
160.35
 21
522.1501477937
 31
0.0
  0
LINE
  5
9B
330
5E
100
AcDbEntity
  8
$DDT_AUDIT_GENERATED_(99)
  6
Continuous
 62
     7
100
AcDbLine
 10
188.35
 20
522.1501477937
 30
0.0
 11
188.35
 21
524.7316126633
 31
0.0
  0
LINE
  5
9C
330
5E
100
AcDbEntity
  8
$DDT_AUDIT_GENERATED_(99)
  6
Continuous
 62
     7
100
AcDbLine
 10
188.0613091309
 20
525.1847665568
 30
0.0
 11
186.4273817383
 21
525.9466794128
 31
0.0
  0
LINE
  5
9D
330
5E
100
AcDbEntity
  8
$DDT_AUDIT_GENERATED_(99)
  6
Continuous
 62
     7
100
AcDbLine
 10
162.2726182617
 20
525.9466794128
 30
0.0
 11
160.6386908691
 21
525.1847665568
 31
0.0
  0
LINE
  5
9E
330
5E
100
AcDbEntity
  8
$DDT_AUDIT_GENERATED_(99)
  6
Continuous
 62
     7
100
AcDbLine
 10
162.85
 20
531.6001477937
 30
0.0
 11
162.85
 21
526.8529871999
 31
0.0
  0
LINE
  5
9F
330
5E
100
AcDbEntity
  8
$DDT_AUDIT_GENERATED_(99)
  6
Continuous
 62
     7
100
AcDbLine
 10
185.85
 20
526.8529871999
 30
0.0
 11
185.85
 21
531.6001477937
 31
0.0
  0
ARC
  5
A0
330
5E
100
AcDbEntity
  8
$DDT_AUDIT_GENERATED_(99)
  6
Continuous
 62
     7
100
AcDbCircle
 10
187.85
 20
524.7316126633
 30
0.0
 40
0.5000000000000004
100
AcDbArc
 50
0.0
 51
65.0
  0
ARC
  5
A1
330
5E
100
AcDbEntity
  8
$DDT_AUDIT_GENERATED_(99)
  6
Continuous
 62
     7
100
AcDbCircle
 10
160.85
 20
524.7316126633
 30
0.0
 40
0.4999999999999981
100
AcDbArc
 50
115.0
 51
180.0
  0
ARC
  5
A2
330
5E
100
AcDbEntity
  8
$DDT_AUDIT_GENERATED_(99)
  6
Continuous
 62
     7
100
AcDbCircle
 10
161.85
 20
526.8529871999
 30
0.0
 40
1.000000000000001
100
AcDbArc
 50
295.0
 51
0.0
  0
ARC
  5
A3
330
5E
100
AcDbEntity
  8
$DDT_AUDIT_GENERATED_(99)
  6
Continuous
 62
     7
100
AcDbCircle
 10
186.85
 20
526.8529871999
 30
0.0
 40
1.000000000000005
100
AcDbArc
 50
180.0
 51
245.0
  0
LINE
  5
A5
330
5E
100
AcDbEntity
  8
$DDT_AUDIT_GENERATED_(A4)
  6
Continuous
 62
     7
100
AcDbLine
 10
141.8058248561
 20
556.0501477937
 30
0.0
 11
90.8941751439
 21
556.0501477937
 31
0.0
  0
ARC
  5
A6
330
5E
100
AcDbEntity
  8
$DDT_AUDIT_GENERATED_(A4)
  6
Continuous
 62
     7
100
AcDbCircle
 10
116.35
 20
550.0501477937
 30
0.0
 40
25.00000000000011
100
AcDbArc
 50
160.2518823891
 51
166.1134596374
  0
ARC
  5
A7
330
5E
100
AcDbEntity
  8
$DDT_AUDIT_GENERATED_(A4)
  6
Continuous
 62
     7
100
AcDbCircle
 10
116.35
 20
550.0501477937
 30
0.0
 40
24.99999999999992
100
AcDbArc
 50
13.8865403626
 51
19.7481176109
  0
LINE
  5
A8
330
5E
100
AcDbEntity
  8
$DDT_AUDIT_GENERATED_(A4)
  6
Continuous
 62
     7
100
AcDbLine
 10
142.5973063246
 20
522.1501477937
 30
0.0
 11
142.3058058196
 21
555.5545108376
 31
0.0
  0
LINE
  5
A9
330
5E
100
AcDbEntity
  8
$DDT_AUDIT_GENERATED_(A4)
  6
Continuous
 62
     7
100
AcDbLine
 10
90.3941941804
 20
555.5545108376
 30
0.0
 11
90.1026936754
 21
522.1501477937
 31
0.0
  0
ARC
  5
AA
330
5E
100
AcDbEntity
  8
$DDT_AUDIT_GENERATED_(A4)
  6
Continuous
 62
     7
100
AcDbCircle
 10
90.8941751439
 20
555.5501477937
 30
0.0
 40
0.5000000000000004
100
AcDbArc
 50
90.0
 51
179.500025649
  0
ARC
  5
AB
330
5E
100
AcDbEntity
  8
$DDT_AUDIT_GENERATED_(A4)
  6
Continuous
 62
     7
100
AcDbCircle
 10
141.8058248561
 20
555.5501477937
 30
0.0
 40
0.5000000000000007
100
AcDbArc
 50
0.499974351
 51
90.0
  0
SPLINE
  5
AD
330
5E
100
AcDbEntity
  8
$DDT_AUDIT_GENERATED_(AC)
  6
Continuous
 62
     7
100
AcDbSpline
210
0.0
220
0.0
230
1.0
 70
     8
 71
     3
 72
     8
 73
     4
 74
     0
 42
0.0000000713064615
 43
0.0000000001
 40
0.0
 40
0.0
 40
0.0
 40
0.0
 40
0.5526253154919223
 40
0.5526253154919223
 40
0.5526253154919223
 40
0.5526253154919223
 10
142.3147218797563
 20
558.5888154189811
 30
0.0
 10
142.3186976344836
 20
558.5841577391008
 30
0.0
 10
142.3182719451104
 20
558.6068274804826
 30
0.0
 10
142.3139896944757
 20
558.6553413749509
 30
0.0
  0
ELLIPSE
  5
AE
330
5E
100
AcDbEntity
  8
$DDT_AUDIT_GENERATED_(AC)
  6
Continuous
 62
     7
100
AcDbEllipse
 10
142.0159574979
 20
558.5622815618
 30
0.0
 11
-0.2281769335473472
 21
-0.1947698308181131
 31
0.0
210
0.0
220
0.0
230
1.0
 40
0.9994078675
 41
0.8645135239468088
 42
2.523317224269879
  0
ELLIPSE
  5
AF
330
5E
100
AcDbEntity
  8
$DDT_AUDIT_GENERATED_(AC)
  6
Continuous
 62
     7
100
AcDbEllipse
 10
90.6840425021
 20
558.5622815618
 30
0.0
 11
0.2281769335568812
 21
-0.1947698308069762
 31
0.0
210
0.0
220
0.0
230
1.0
 40
0.9994078675
 41
3.759868082860904
 42
5.418671783183602
  0
ELLIPSE
  5
B0
330
5E
100
AcDbEntity
  8
$DDT_AUDIT_GENERATED_(AC)
  6
Continuous
 62
     7
100
AcDbEllipse
 10
101.3511442042
 20
588.3371695173
 30
0.0
 11
7.300000000000004
 21
1.387778780781446E-14
 31
0.0
210
0.0
220
0.0
230
1.0
 40
0.0261769483
 41
1.570796326794897
 42
3.073965165780325
  0
LINE
  5
B1
330
5E
100
AcDbEntity
  8
$DDT_AUDIT_GENERATED_(AC)
  6
Continuous
 62
     7
100
AcDbLine
 10
131.3511442042
 20
588.5282612399
 30
0.0
 11
101.3511442042
 21
588.5282612399
 31
0.0
  0
ELLIPSE
  5
B2
330
5E
100
AcDbEntity
  8
$DDT_AUDIT_GENERATED_(AC)
  6
Continuous
 62
     7
100
AcDbEllipse
 10
131.3511442042
 20
588.3371695173
 30
0.0
 11
7.300000000000006
 21
0.0
 31
0.0
210
0.0
220
0.0
230
1.0
 40
0.0261769483
 41
0.0588123177663858
 42
1.570796326794897
  0
LINE
  5
B3
330
5E
100
AcDbEntity
  8
$DDT_AUDIT_GENERATED_(AC)
  6
Continuous
 62
     7
100
AcDbLine
 10
139.3511442042
 20
589.0369296448
 30
0.0
 11
139.3511442042
 21
587.0656164331
 31
0.0
  0
LINE
  5
B4
330
5E
100
AcDbEntity
  8
$DDT_AUDIT_GENERATED_(AC)
  6
Continuous
 62
     7
100
AcDbLine
 10
93.3511442042
 20
589.0369296448
 30
0.0
 11
93.3511442042
 21
593.6353533401
 31
0.0
  0
LINE
  5
B5
330
5E
100
AcDbEntity
  8
$DDT_AUDIT_GENERATED_(AC)
  6
Continuous
 62
     7
100
AcDbLine
 10
93.3511442042
 20
587.0659221471
 30
0.0
 11
93.3511442042
 21
589.0369296448
 31
0.0
  0
SPLINE
  5
B6
330
5E
100
AcDbEntity
  8
$DDT_AUDIT_GENERATED_(AC)
  6
Continuous
 62
     7
100
AcDbSpline
210
0.0
220
0.0
230
1.0
 70
     8
 71
     3
 72
    22
 73
    18
 74
     0
 42
0.0000000100920804
 43
0.0000000001
 40
0.0
 40
0.0
 40
0.0
 40
0.0
 40
0.0156250000000001
 40
0.0156250000000001
 40
0.0312500000000002
 40
0.0312500000000002
 40
0.0625000000000004
 40
0.0625000000000004
 40
0.1250000000000003
 40
0.1250000000000003
 40
0.2500000000000002
 40
0.2500000000000002
 40
0.5000000000000001
 40
0.5000000000000001
 40
0.75
 40
0.75
 40
1.0
 40
1.0
 40
1.0
 40
1.0
 10
93.35114420415368
 20
587.065922147136
 30
0.0
 10
93.35114420415368
 20
587.0461054116598
 30
0.0
 10
93.35189058444266
 20
587.033085265424
 30
0.0
 10
93.3536663916546
 20
587.0092184471067
 30
0.0
 10
93.35477366636289
 20
586.9991013279488
 30
0.0
 10
93.35844301977603
 20
586.9712824092152
 30
0.0
 10
93.36133890672156
 20
586.9562437781256
 30
0.0
 10
93.37074567761974
 20
586.9151583230827
 30
0.0
 10
93.37800042533732
 20
586.8933935673124
 30
0.0
 10
93.40167427854479
 20
586.8340275095505
 30
0.0
 10
93.42003635615
 20
586.8029825756912
 30
0.0
 10
93.48144454845793
 20
586.7193588144185
 30
0.0
 10
93.53091677774209
 20
586.677235700016
 30
0.0
 10
93.64714671551104
 20
586.6097064521903
 30
0.0
 10
93.71397163273087
 20
586.5849298868457
 30
0.0
 10
93.8669738694701
 20
586.5581093321844
 30
0.0
 10
93.95311764507562
 20
586.5557210624992
 30
0.0
 10
94.05114420415364
 20
586.5729576559025
 30
0.0
  0
SPLINE
  5
B7
330
5E
100
AcDbEntity
  8
$DDT_AUDIT_GENERATED_(AC)
  6
Continuous
 62
     7
100
AcDbSpline
210
0.0
220
0.0
230
1.0
 70
     8
 71
     3
 72
    22
 73
    18
 74
     0
 42
0.0000000100933956
 43
0.0000000001
 40
0.0
 40
0.0
 40
0.0
 40
0.0
 40
0.2500000000000002
 40
0.2500000000000002
 40
0.5000000000000004
 40
0.5000000000000004
 40
0.7500000000000007
 40
0.7500000000000007
 40
0.8750000000000008
 40
0.8750000000000008
 40
0.9375000000000006
 40
0.9375000000000006
 40
0.9687500000000004
 40
0.9687500000000004
 40
0.9843750000000002
 40
0.9843750000000002
 40
1.0
 40
1.0
 40
1.0
 40
1.0
 10
138.6511442041536
 20
586.5728533124125
 30
0.0
 10
138.749225434418
 20
586.5555999649054
 30
0.0
 10
138.8353910825829
 20
586.5579936410063
 30
0.0
 10
138.9884044436625
 20
586.5848164026497
 30
0.0
 10
139.0552088090241
 20
586.6095820722542
 30
0.0
 10
139.1714722993505
 20
586.677131235063
 30
0.0
 10
139.2209670410428
 20
586.7192850369283
 30
0.0
 10
139.2823548583349
 20
586.802920398322
 30
0.0
 10
139.3007015544637
 20
586.8339697766264
 30
0.0
 10
139.3243273923434
 20
586.8932502912303
 30
0.0
 10
139.3315672128348
 20
586.9149819556432
 30
0.0
 10
139.3409556880438
 20
586.9559956161072
 30
0.0
 10
139.3438461043096
 20
586.9710070328623
 30
0.0
 10
139.3475099932272
 20
586.998768534868
 30
0.0
 10
139.3486215068877
 20
587.0089133299382
 30
0.0
 10
139.3503994198722
 20
587.0328077800367
 30
0.0
 10
139.3511442041537
 20
587.0458536960193
 30
0.0
 10
139.3511442041537
 20
587.0656164331202
 30
0.0
  0
ELLIPSE
  5
B8
330
5E
100
AcDbEntity
  8
$DDT_AUDIT_GENERATED_(AC)
  6
Continuous
 62
     7
100
AcDbEllipse
 10
116.35
 20
586.2377772249
 30
0.0
 11
-25.71365272543667
 21
0.0
 31
0.0
210
0.0
220
0.0
230
1.0
 40
0.0261769483
 41
-1.34921847693021
 42
-0.5212466445602884
  0
ELLIPSE
  5
B9
330
5E
100
AcDbEntity
  8
$DDT_AUDIT_GENERATED_(AC)
  6
Continuous
 62
     7
100
AcDbEllipse
 10
131.3511442042
 20
594.3351134676
 30
0.0
 11
-7.29999999999999
 21
1.387778780781446E-14
 31
0.0
210
0.0
220
0.0
230
1.0
 40
0.0261769483
 41
3.212851614178919
 42
4.71238898038469
  0
ELLIPSE
  5
BA
330
5E
100
AcDbEntity
  8
$DDT_AUDIT_GENERATED_(AC)
  6
Continuous
 62
     7
100
AcDbEllipse
 10
101.3511442042
 20
594.3351134676
 30
0.0
 11
-7.300000000000027
 21
0.0
 31
0.0
210
0.0
220
0.0
230
1.0
 40
0.0261769483
 41
4.71238898038469
 42
6.15156269051108
  0
LINE
  5
BB
330
5E
100
AcDbEntity
  8
$DDT_AUDIT_GENERATED_(AC)
  6
Continuous
 62
     7
100
AcDbLine
 10
139.3511442042
 20
593.6353533401
 30
0.0
 11
139.3511442042
 21
589.0369296448
 31
0.0
  0
ELLIPSE
  5
BC
330
5E
100
AcDbEntity
  8
$DDT_AUDIT_GENERATED_(AC)
  6
Continuous
 62
     7
100
AcDbEllipse
 10
116.35
 20
591.5974656316
 30
0.0
 11
0.0
 21
23.00267968194386
 31
0.0
210
0.0
220
0.0
230
1.0
 40
1.0
 41
1.569006721304365
 42
1.570735844205939
  0
ELLIPSE
  5
BD
330
5E
100
AcDbEntity
  8
$DDT_AUDIT_GENERATED_(AC)
  6
Continuous
 62
     7
100
AcDbEllipse
 10
116.35
 20
586.2377772249
 30
0.0
 11
25.71365272543665
 21
1.387778780781446E-14
 31
0.0
210
0.0
220
0.0
230
1.0
 40
0.0261769483
 41
0.5210678964417933
 42
1.349218476930209
  0
ARC
  5
BE
330
5E
100
AcDbEntity
  8
$DDT_AUDIT_GENERATED_(AC)
  6
Continuous
 62
     7
100
AcDbCircle
 10
116.35
 20
1097.1703764749
 30
0.0
 40
510.3072409408599
100
AcDbArc
 50
269.3655019065
 51
270.6344980935
  0
ELLIPSE
  5
BF
330
5E
100
AcDbEntity
  8
$DDT_AUDIT_GENERATED_(AC)
  6
Continuous
 62
     7
100
AcDbEllipse
 10
116.35
 20
558.247372126
 30
0.0
 11
-25.39286716870285
 21
6.938893903907228E-15
 31
0.0
210
0.0
220
0.0
230
1.0
 40
0.0261769483
 41
3.164179293068652
 42
6.260598667700703
  0
SPLINE
  5
C0
330
5E
100
AcDbEntity
  8
$DDT_AUDIT_GENERATED_(AC)
  6
Continuous
 62
     7
100
AcDbSpline
210
0.0
220
0.0
230
1.0
 70
    11
 71
     3
 72
    22
 73
    18
 74
     0
 42
0.0000000004451573
 43
0.0000000001
 40
0.0
 40
0.0
 40
0.0
 40
0.0
 40
0.125
 40
0.125
 40
0.25
 40
0.25
 40
0.375
 40
0.375
 40
0.5
 40
0.5
 40
0.625
 40
0.625
 40
0.75
 40
0.75
 40
0.875
 40
0.875
 40
1.0
 40
1.0
 40
1.0
 40
1.0
 10
115.8786111289022
 20
570.4741722604505
 30
0.0
 10
116.7901308134271
 20
570.3138836726936
 30
0.0
 10
117.7300188850443
 20
570.6603933855974
 30
0.0
 10
119.0505340994531
 20
571.9253025930872
 30
0.0
 10
119.4480813164356
 20
572.7925390481909
 30
0.0
 10
119.6808361254165
 20
574.5892895102706
 30
0.0
 10
119.5106938978644
 20
575.5353724507931
 30
0.0
 10
118.5441378827785
 20
577.0922538437229
 30
0.0
 10
117.7322062770701
 20
577.6707912267598
 30
0.0
 10
115.9301482465884
 20
577.9629164547182
 30
0.0
 10
114.9658229934212
 20
577.6645717898915
 30
0.0
 10
113.5990639770664
 20
576.4294842143604
 30
0.0
 10
113.2016002059939
 20
575.533019802032
 30
0.0
 10
113.0340356109434
 20
573.7224692928286
 30
0.0
 10
113.2498716367697
 20
572.7859346539426
 30
0.0
 10
114.1961712648604
 20
571.2570118808308
 30
0.0
 10
114.9670914443773
 20
570.6344608482076
 30
0.0
 10
115.8786111289022
 20
570.4741722604505
 30
0.0
  0
LINE
  5
C1
330
5E
100
AcDbEntity
  8
$DDT_AUDIT_GENERATED_(AC)
  6
Continuous
 62
     7
100
AcDbLine
 10
142.3135297941
 20
558.661344658
 30
0.0
 11
139.4062744272
 21
591.5988601347
 31
0.0
  0
LINE
  5
C2
330
5E
100
AcDbEntity
  8
$DDT_AUDIT_GENERATED_(AC)
  6
Continuous
 62
     7
100
AcDbLine
 10
93.2937255728
 20
591.5988601347
 30
0.0
 11
90.3864676834
 21
558.6613160798
 31
0.0
  0
SPLINE
  5
C3
330
5E
100
AcDbEntity
  8
$DDT_AUDIT_GENERATED_(AC)
  6
Continuous
 62
     7
100
AcDbSpline
210
0.0
220
0.0
230
1.0
 70
     8
 71
     3
 72
    16
 73
    12
 74
     0
 42
0.0000000178813945
 43
0.0000000001
 40
0.0
 40
0.0
 40
0.0
 40
0.0
 40
0.073357525378397
 40
0.2971211455323896
 40
0.4243994331814955
 40
0.4944505443851316
 40
0.591107757624695
 40
0.7061153312127828
 40
0.8377594146643373
 40
0.9763023673164871
 40
1.0
 40
1.0
 40
1.0
 40
1.0
 10
90.3850987900263
 20
558.6416675494435
 30
0.0
 10
90.38438116332956
 20
558.6343880478263
 30
0.0
 10
90.38192399468905
 20
558.6085358367343
 30
0.0
 10
90.38117674112
 20
558.5846533389415
 30
0.0
 10
90.38137559304705
 20
558.5392080756964
 30
0.0
 10
90.39233315696484
 20
558.478428096212
 30
0.0
 10
90.41869553383773
 20
558.4115238530865
 30
0.0
 10
90.47385650984971
 20
558.3390084430425
 30
0.0
 10
90.55809664329095
 20
558.2835071015044
 30
0.0
 10
90.63780351505463
 20
558.2577331663612
 30
0.0
 10
90.67774196976472
 20
558.263441326719
 30
0.0
 10
90.68450961490775
 20
558.2644384783755
 30
0.0
  0
ARC
  5
C4
330
5E
100
AcDbEntity
  8
$DDT_AUDIT_GENERATED_(AC)
  6
Continuous
 62
     7
100
AcDbCircle
 10
94.0448458329
 20
591.5833466492
 30
0.0
 40
0.6937027693410764
100
AcDbArc
 50
180.0476133349
 51
180.1038935292
  0
ARC
  5
C5
330
5E
100
AcDbEntity
  8
$DDT_AUDIT_GENERATED_(AC)
  6
Continuous
 62
     7
100
AcDbCircle
 10
94.0757919722
 20
593.6273240512
 30
0.0
 40
0.7246922500452222
100
AcDbArc
 50
97.618318639
 51
179.3651735902
  0
LINE
  5
C6
330
5E
100
AcDbEntity
  8
$DDT_AUDIT_GENERATED_(AC)
  6
Continuous
 62
     7
100
AcDbLine
 10
131.3511442042
 20
594.5264450627
 30
0.0
 11
101.3511442042
 21
594.5264450627
 31
0.0
  0
ARC
  5
C7
330
5E
100
AcDbEntity
  8
$DDT_AUDIT_GENERATED_(AC)
  6
Continuous
 62
     7
100
AcDbCircle
 10
138.6429883092
 20
593.6342388783
 30
0.0
 40
0.7081567719437615
100
AcDbArc
 50
0.090169278
 51
67.9243320636
  0
ARC
  5
C8
330
5E
100
AcDbEntity
  8
$DDT_AUDIT_GENERATED_(AC)
  6
Continuous
 62
     7
100
AcDbCircle
 10
138.684263751
 20
591.5418851551
 30
0.0
 40
0.719626448505848
100
AcDbArc
 50
5.669610375
 51
19.1278057425
  0
ARC
  5
C9
330
5E
100
AcDbEntity
  8
$DDT_AUDIT_GENERATED_(AC)
  6
Continuous
 62
     7
100
AcDbCircle
 10
93.9733546517
 20
591.5914267244
 30
0.0
 40
0.6584033127449104
100
AcDbArc
 50
159.7769371943
 51
177.8143686267
  0
LINE
  5
CA
330
5E
100
AcDbEntity
  8
$DDT_AUDIT_GENERATED_(AC)
  6
Continuous
 62
     7
100
AcDbLine
 10
90.6840075706
 20
558.2616990142
 30
0.0
 11
90.96470116
 21
558.2616990142
 31
0.0
  0
LINE
  5
CB
330
5E
100
AcDbEntity
  8
$DDT_AUDIT_GENERATED_(AC)
  6
Continuous
 62
     7
100
AcDbLine
 10
141.7345553457
 20
558.2616990142
 30
0.0
 11
142.0159928424
 21
558.2616990142
 31
0.0
  0
LINE
  5
CD
330
5E
100
AcDbEntity
  8
$DDT_AUDIT_GENERATED_(CC)
  6
Continuous
 62
     7
100
AcDbLine
 10
113.0
 20
574.2634536993
 30
0.0
 11
113.0
 21
574.2255688239
 31
0.0
  0
ARC
  5
CF
330
5E
100
AcDbEntity
  8
$DDT_AUDIT_GENERATED_(CE)
  6
Continuous
 62
     7
100
AcDbCircle
 10
41.35
 20
499.6501477937
 30
0.0
 40
35.0
100
AcDbArc
 50
40.0052008849
 51
319.9947991151
  0
ARC
  5
D0
330
5E
100
AcDbEntity
  8
$DDT_AUDIT_GENERATED_(CE)
  6
Continuous
 62
     7
100
AcDbCircle
 10
191.35
 20
499.6501477937
 30
0.0
 40
35.0
100
AcDbArc
 50
0.0
 51
92.8659839826
  0
ARC
  5
D1
330
5E
100
AcDbEntity
  8
$DDT_AUDIT_GENERATED_(CE)
  6
Continuous
 62
     7
100
AcDbCircle
 10
191.35
 20
499.6501477937
 30
0.0
 40
35.0
100
AcDbArc
 50
258.5007121778
 51
0.0
  0
ARC
  5
D3
330
5E
100
AcDbEntity
  8
$DDT_AUDIT_GENERATED_(D2)
  6
Continuous
 62
     7
100
AcDbCircle
 10
316.35
 20
499.6501477937
 30
0.0
 40
18.5
100
AcDbArc
 50
0.0
 51
51.4228413072
  0
ARC
  5
D4
330
5E
100
AcDbEntity
  8
$DDT_AUDIT_GENERATED_(D2)
  6
Continuous
 62
     7
100
AcDbCircle
 10
316.35
 20
499.6501477937
 30
0.0
 40
18.5
100
AcDbArc
 50
128.5771586928
 51
246.8201225094
  0
ARC
  5
D5
330
5E
100
AcDbEntity
  8
$DDT_AUDIT_GENERATED_(D2)
  6
Continuous
 62
     7
100
AcDbCircle
 10
316.35
 20
499.6501477937
 30
0.0
 40
18.5
100
AcDbArc
 50
291.8990854798
 51
0.0
  0
ARC
  5
D6
330
5E
100
AcDbEntity
  8
$DDT_AUDIT_GENERATED_(D2)
  6
Continuous
 62
     7
100
AcDbCircle
 10
316.349950471
 20
500.2535175091
 30
0.0
 40
17.62549337219171
100
AcDbArc
 50
42.4075480391
 51
56.1995442881
  0
ARC
  5
D7
330
5E
100
AcDbEntity
  8
$DDT_AUDIT_GENERATED_(D2)
  6
Continuous
 62
     7
100
AcDbCircle
 10
316.349950471
 20
500.2535175091
 30
0.0
 40
17.62549337219171
100
AcDbArc
 50
123.8001855678
 51
137.6012745941
  0
LINE
  5
D8
330
5E
100
AcDbEntity
  8
$DDT_AUDIT_GENERATED_(D2)
  6
Continuous
 62
     7
100
AcDbLine
 10
325.6
 20
513.6508720491
 30
0.0
 11
325.6
 21
514.4622599782
 31
0.0
  0
LINE
  5
D9
330
5E
100
AcDbEntity
  8
$DDT_AUDIT_GENERATED_(D2)
  6
Continuous
 62
     7
100
AcDbLine
 10
325.6
 20
485.6494235383
 30
0.0
 11
325.6
 21
513.6508720491
 31
0.0
  0
LINE
  5
DA
330
5E
100
AcDbEntity
  8
$DDT_AUDIT_GENERATED_(D2)
  6
Continuous
 62
     7
100
AcDbLine
 10
325.6
 20
484.8380356092
 30
0.0
 11
325.6
 21
485.6494235383
 31
0.0
  0
LINE
  5
DB
330
5E
100
AcDbEntity
  8
$DDT_AUDIT_GENERATED_(D2)
  6
Continuous
 62
     7
100
AcDbLine
 10
325.6
 20
484.7575118684
 30
0.0
 11
325.6
 21
484.8380356092
 31
0.0
  0
LINE
  5
DC
330
5E
100
AcDbEntity
  8
$DDT_AUDIT_GENERATED_(D2)
  6
Continuous
 62
     7
100
AcDbLine
 10
307.1
 20
514.5088880456
 30
0.0
 11
307.1
 21
514.4622599782
 31
0.0
  0
LINE
  5
DD
330
5E
100
AcDbEntity
  8
$DDT_AUDIT_GENERATED_(D2)
  6
Continuous
 62
     7
100
AcDbLine
 10
307.1
 20
514.4622599782
 30
0.0
 11
307.1
 21
513.6508720491
 31
0.0
  0
LINE
  5
DE
330
5E
100
AcDbEntity
  8
$DDT_AUDIT_GENERATED_(D2)
  6
Continuous
 62
     7
100
AcDbLine
 10
307.1
 20
513.6508720491
 30
0.0
 11
307.1
 21
485.6494235383
 31
0.0
  0
LINE
  5
DF
330
5E
100
AcDbEntity
  8
$DDT_AUDIT_GENERATED_(D2)
  6
Continuous
 62
     7
100
AcDbLine
 10
307.1
 20
485.6494235383
 30
0.0
 11
307.1
 21
484.8380356092
 31
0.0
  0
LINE
  5
E0
330
5E
100
AcDbEntity
  8
$DDT_AUDIT_GENERATED_(D2)
  6
Continuous
 62
     7
100
AcDbLine
 10
307.1
 20
484.8380356092
 30
0.0
 11
307.1
 21
484.7575118684
 31
0.0
  0
SPLINE
  5
E1
330
5E
100
AcDbEntity
  8
$DDT_AUDIT_GENERATED_(D2)
  6
Continuous
 62
     7
100
AcDbSpline
210
0.0
220
0.0
230
1.0
 70
     8
 71
     3
 72
     9
 73
     5
 74
     0
 42
0.0000000576829595
 43
0.0000000001
 40
0.5529235844037581
 40
0.5529235844037581
 40
0.5529235844037581
 40
0.5529235844037581
 40
0.6606892259871981
 40
1.0
 40
1.0
 40
1.0
 40
1.0
 10
329.3215765373843
 20
512.1727245255724
 30
0.0
 10
329.3216948717409
 20
512.1726426858424
 30
0.0
 10
329.3133837856886
 20
512.1791572485289
 30
0.0
 10
329.2894119998712
 20
512.2014420436294
 30
0.0
 10
329.2640985932933
 20
512.2242482144221
 30
0.0
  0
SPLINE
  5
E2
330
5E
100
AcDbEntity
  8
$DDT_AUDIT_GENERATED_(D2)
  6
Continuous
 62
     7
100
AcDbSpline
210
0.0
220
0.0
230
1.0
 70
     8
 71
     3
 72
     9
 73
     5
 74
     0
 42
0.0000000293919622
 43
0.0000000001
 40
0.0
 40
0.0
 40
0.0
 40
0.0
 40
0.4049833740918844
 40
0.5775485750944791
 40
0.5775485750944791
 40
0.5775485750944791
 40
0.5775485750944791
 10
303.5242717874546
 20
512.3062916469736
 30
0.0
 10
303.4667847648051
 20
512.2531373864978
 30
0.0
 10
303.411007643348
 20
512.1992545808644
 30
0.0
 10
303.3806334358487
 20
512.1748897676075
 30
0.0
 10
303.3820648106658
 20
512.1758288269258
 30
0.0
  0
ARC
  5
E3
330
5E
100
AcDbEntity
  8
$DDT_AUDIT_GENERATED_(D2)
  6
Continuous
 62
     7
100
AcDbCircle
 10
325.9
 20
514.5088880456
 30
0.0
 40
0.299999999999997
100
AcDbArc
 50
57.7441781928
 51
180.0
  0
ARC
  5
E4
330
5E
100
AcDbEntity
  8
$DDT_AUDIT_GENERATED_(D2)
  6
Continuous
 62
     7
100
AcDbCircle
 10
306.8
 20
514.5088880456
 30
0.0
 40
0.2999999999999947
100
AcDbArc
 50
0.0
 51
122.2558218072
  0
ARC
  5
E5
330
5E
100
AcDbEntity
  8
$DDT_AUDIT_GENERATED_(D2)
  6
Continuous
 62
     7
100
AcDbCircle
 10
325.9
 20
484.7575118684
 30
0.0
 40
0.3000000000000225
100
AcDbArc
 50
180.0
 51
301.8987036345
  0
ARC
  5
E6
330
5E
100
AcDbEntity
  8
$DDT_AUDIT_GENERATED_(D2)
  6
Continuous
 62
     7
100
AcDbCircle
 10
306.8
 20
484.7575118684
 30
0.0
 40
0.2999999999999991
100
AcDbArc
 50
238.1012963655
 51
0.0
  0
SPLINE
  5
E8
330
5E
100
AcDbEntity
  8
$DDT_AUDIT_GENERATED_(E7)
  6
Continuous
 62
     7
100
AcDbSpline
210
0.0
220
0.0
230
1.0
 70
     8
 71
     3
 72
    20
 73
    16
 74
     0
 42
0.0000000000632978
 43
0.0000000001
 40
0.0782037514176621
 40
0.0782037514176621
 40
0.0782037514176621
 40
0.0782037514176621
 40
0.1250000000000001
 40
0.1250000000000001
 40
0.1875000000000001
 40
0.1875000000000001
 40
0.2500000000000001
 40
0.2500000000000001
 40
0.3125000000000001
 40
0.3125000000000001
 40
0.3750000000000001
 40
0.3750000000000001
 40
0.4375000000000001
 40
0.4375000000000001
 40
0.4564958639889377
 40
0.4564958639889377
 40
0.4564958639889377
 40
0.4564958639889377
 10
327.702167271888
 20
521.9231070234534
 30
0.0
 10
329.8845918749097
 20
520.8094627517145
 30
0.0
 10
331.9036902830813
 20
519.3754215125361
 30
0.0
 10
336.0303994789255
 20
515.4105755326137
 30
0.0
 10
337.9384812737751
 20
512.6749964475463
 30
0.0
 10
340.5635728529037
 20
506.6795215823924
 30
0.0
 10
341.279549775743
 20
503.4219847656462
 30
0.0
 10
341.410449256612
 20
496.878309194271
 30
0.0
 10
340.8253203112856
 20
493.5947450965509
 30
0.0
 10
338.4420994345393
 20
487.4990841061294
 30
0.0
 10
336.6449451987661
 20
484.6893855957306
 30
0.0
 10
332.1104277389381
 20
479.9697483147501
 30
0.0
 10
329.3748486538707
 20
478.0616665199004
 30
0.0
 10
325.4659974205932
 20
476.3501936695711
 30
0.0
 10
324.5308844519259
 20
476.0063751167884
 30
0.0
 10
323.5786649584492
 20
475.7191800121765
 30
0.0
  0
SPLINE
  5
E9
330
5E
100
AcDbEntity
  8
$DDT_AUDIT_GENERATED_(E7)
  6
Continuous
 62
     7
100
AcDbSpline
210
0.0
220
0.0
230
1.0
 70
     8
 71
     3
 72
    20
 73
    16
 74
     0
 42
0.0000000000632878
 43
0.0000000001
 40
0.5479039850166418
 40
0.5479039850166418
 40
0.5479039850166418
 40
0.5479039850166418
 40
0.5625000000000001
 40
0.5625000000000001
 40
0.6250000000000001
 40
0.6250000000000001
 40
0.6875000000000002
 40
0.6875000000000002
 40
0.7500000000000002
 40
0.7500000000000002
 40
0.8125000000000002
 40
0.8125000000000002
 40
0.8750000000000002
 40
0.8750000000000002
 40
0.9281630331779315
 40
0.9281630331779315
 40
0.9281630331779315
 40
0.9281630331779315
 10
309.4175217103192
 20
475.631377919471
 30
0.0
 10
308.6831812703232
 20
475.8429464791994
 30
0.0
 10
307.9585456808619
 20
476.0881536997579
 30
0.0
 10
304.1989363124538
 20
477.5580483591363
 30
0.0
 10
301.389237802055
 20
479.3552025949095
 30
0.0
 10
296.6696005210746
 20
483.8897200547375
 30
0.0
 10
294.7615187262249
 20
486.6252991398048
 30
0.0
 10
292.1364271470962
 20
492.6207740049588
 30
0.0
 10
291.4204502242569
 20
495.8783108217049
 30
0.0
 10
291.289550743388
 20
502.4219863930802
 30
0.0
 10
291.8746796887143
 20
505.7055504908002
 30
0.0
 10
294.2579005654607
 20
511.8012114812217
 30
0.0
 10
296.0550548012339
 20
514.6109099916205
 30
0.0
 10
300.2508631484499
 20
518.9780104989632
 30
0.0
 10
302.5182588743237
 20
520.6584450046889
 30
0.0
 10
304.9976193453497
 20
521.9235316848091
 30
0.0
  0
LINE
  5
EB
330
5E
100
AcDbEntity
  8
$DDT_AUDIT_GENERATED_(EA)
  6
Continuous
 62
     7
100
AcDbLine
 10
305.05
 20
519.6501477937
 30
0.0
 11
327.65
 21
519.6501477937
 31
0.0
  0
LINE
  5
EC
330
5E
100
AcDbEntity
  8
$DDT_AUDIT_GENERATED_(EA)
  6
Continuous
 62
     7
100
AcDbLine
 10
307.35
 20
495.6695835662
 30
0.0
 11
325.35
 21
495.6695835662
 31
0.0
  0
LINE
  5
ED
330
5E
100
AcDbEntity
  8
$DDT_AUDIT_GENERATED_(EA)
  6
Continuous
 62
     7
100
AcDbLine
 10
305.55
 20
522.6501477937
 30
0.0
 11
327.15
 21
522.6501477937
 31
0.0
  0
LINE
  5
EE
330
5E
100
AcDbEntity
  8
$DDT_AUDIT_GENERATED_(EA)
  6
Continuous
 62
     7
100
AcDbLine
 10
307.35
 20
491.8501477937
 30
0.0
 11
325.35
 21
491.8501477937
 31
0.0
  0
LINE
  5
EF
330
5E
100
AcDbEntity
  8
$DDT_AUDIT_GENERATED_(EA)
  6
Continuous
 62
     7
100
AcDbLine
 10
327.65
 20
519.6501477937
 30
0.0
 11
327.65
 21
522.1501477937
 31
0.0
  0
LINE
  5
F0
330
5E
100
AcDbEntity
  8
$DDT_AUDIT_GENERATED_(EA)
  6
Continuous
 62
     7
100
AcDbLine
 10
305.05
 20
522.1501477937
 30
0.0
 11
305.05
 21
519.6501477937
 31
0.0
  0
LINE
  5
F1
330
5E
100
AcDbEntity
  8
$DDT_AUDIT_GENERATED_(EA)
  6
Continuous
 62
     7
100
AcDbLine
 10
328.15
 20
519.1501477937
 30
0.0
 11
327.65
 21
519.6501477937
 31
0.0
  0
LINE
  5
F2
330
5E
100
AcDbEntity
  8
$DDT_AUDIT_GENERATED_(EA)
  6
Continuous
 62
     7
100
AcDbLine
 10
305.05
 20
519.6501477937
 30
0.0
 11
304.55
 21
519.1501477937
 31
0.0
  0
LINE
  5
F3
330
5E
100
AcDbEntity
  8
$DDT_AUDIT_GENERATED_(EA)
  6
Continuous
 62
     7
100
AcDbLine
 10
304.55
 20
519.1501477937
 30
0.0
 11
304.8480678768
 21
513.4626738952
 31
0.0
  0
ARC
  5
F4
330
5E
100
AcDbEntity
  8
$DDT_AUDIT_GENERATED_(EA)
  6
Continuous
 62
     7
100
AcDbCircle
 10
305.55
 20
522.1501477937
 30
0.0
 40
0.5000000000000004
100
AcDbArc
 50
90.0
 51
180.0
  0
ARC
  5
F5
330
5E
100
AcDbEntity
  8
$DDT_AUDIT_GENERATED_(EA)
  6
Continuous
 62
     7
100
AcDbCircle
 10
327.15
 20
522.1501477937
 30
0.0
 40
0.5000000000000004
100
AcDbArc
 50
0.0
 51
90.0
  0
SPLINE
  5
F7
330
5E
100
AcDbEntity
  8
4240245_SCHLAUCH
  6
Continuous
 62
     7
100
AcDbSpline
210
0.0
220
0.0
230
1.0
 70
     8
 71
     3
 72
    16
 73
    12
 74
     0
 42
0.0000000007184395
 43
0.0000000001
 40
0.0252731000144059
 40
0.0252731000144059
 40
0.0252731000144059
 40
0.0252731000144059
 40
0.1249999999999999
 40
0.1249999999999999
 40
0.2499999999999998
 40
0.2499999999999998
 40
0.4999999999999999
 40
0.4999999999999999
 40
0.75
 40
0.75
 40
1.0
 40
1.0
 40
1.0
 40
1.0
 10
323.5361155447092
 20
416.1137337231435
 30
0.0
 10
323.5380338604359
 20
415.81562129042
 30
0.0
 10
323.461409876976
 20
415.5685123746126
 30
0.0
 10
323.1115696769019
 20
415.1353259712043
 30
0.0
 10
322.7910682475598
 20
414.9846766443655
 30
0.0
 10
321.5311406088055
 20
414.7431595421842
 30
0.0
 10
320.2723274049275
 20
414.8562685664787
 30
0.0
 10
317.428319417273
 20
415.0040621475155
 30
0.0
 10
315.8262314617247
 20
415.0156810733687
 30
0.0
 10
312.9407493838221
 20
414.8776475449441
 30
0.0
 10
311.6145939758229
 20
414.7462782520328
 30
0.0
 10
310.7422739978726
 20
414.8720161226042
 30
0.0
  0
LINE
  5
F8
330
5E
100
AcDbEntity
  8
4240245_SCHLAUCH
  6
Continuous
 62
     7
100
AcDbLine
 10
323.2500003198
 20
416.9851557925
 30
0.0
 11
323.3240503065
 21
416.9832487839
 31
0.0
  0
LINE
  5
F9
330
5E
100
AcDbEntity
  8
4240245_SCHLAUCH
  6
Continuous
 62
     7
100
AcDbLine
 10
309.2743934431
 20
416.3501432939
 30
0.0
 11
309.4500755787
 21
416.3501432939
 31
0.0
  0
SPLINE
  5
FA
330
5E
100
AcDbEntity
  8
4240245_SCHLAUCH
  6
Continuous
 62
     7
100
AcDbSpline
210
0.0
220
0.0
230
1.0
 70
     8
 71
     3
 72
    16
 73
    12
 74
     0
 42
0.0000000042638881
 43
0.0000000001
 40
0.0
 40
0.0
 40
0.0
 40
0.0
 40
0.1249999999999999
 40
0.1249999999999999
 40
0.2499999999999998
 40
0.2499999999999998
 40
0.4999999999999998
 40
0.4999999999999998
 40
0.7499999999999999
 40
0.7499999999999999
 40
1.0
 40
1.0
 40
1.0
 40
1.0
 10
310.9159000886325
 20
414.8785043096474
 30
0.0
 10
310.7910115127301
 20
414.8955148396238
 30
0.0
 10
310.6726862627563
 20
414.9171558508378
 30
0.0
 10
310.4542339732774
 20
414.9700786221645
 30
0.0
 10
310.353320960518
 20
415.0014451517175
 30
0.0
 10
310.0746636749112
 20
415.1120072379286
 30
0.0
 10
309.920694664945
 20
415.2077542776184
 30
0.0
 10
309.6761742831013
 20
415.4531664402905
 30
0.0
 10
309.5895246466296
 20
415.5987390840906
 30
0.0
 10
309.4763332217963
 20
415.9380625945486
 30
0.0
 10
309.45
 20
416.1331626785503
 30
0.0
 10
309.45007557872
 20
416.3501432938591
 30
0.0
  0
LINE
  5
FB
330
5E
100
AcDbEntity
  8
4240245_SCHLAUCH
  6
Continuous
 62
     7
100
AcDbLine
 10
323.25
 20
491.8499558333
 30
0.0
 11
323.25
 21
491.8501477937
 31
0.0
  0
LINE
  5
FC
330
5E
100
AcDbEntity
  8
4240245_SCHLAUCH
  6
Continuous
 62
     7
100
AcDbLine
 10
323.25
 20
486.8504171006
 30
0.0
 11
323.25
 21
488.6824435913
 31
0.0
  0
LINE
  5
FD
330
5E
100
AcDbEntity
  8
4240245_SCHLAUCH
  6
Continuous
 62
     7
100
AcDbLine
 10
323.25
 20
481.8499093326
 30
0.0
 11
323.25
 21
483.7025187002
 31
0.0
  0
LINE
  5
FE
330
5E
100
AcDbEntity
  8
4240245_SCHLAUCH
  6
Continuous
 62
     7
100
AcDbLine
 10
323.25
 20
476.8500052657
 30
0.0
 11
323.25
 21
478.7194855299
 31
0.0
  0
LINE
  5
FF
330
5E
100
AcDbEntity
  8
4240245_SCHLAUCH
  6
Continuous
 62
     7
100
AcDbLine
 10
323.25
 20
471.8499684404
 30
0.0
 11
323.25
 21
473.8500052657
 31
0.0
  0
LINE
  5
100
330
5E
100
AcDbEntity
  8
4240245_SCHLAUCH
  6
Continuous
 62
     7
100
AcDbLine
 10
323.25
 20
466.8500606528
 30
0.0
 11
323.25
 21
468.720474497
 31
0.0
  0
LINE
  5
101
330
5E
100
AcDbEntity
  8
4240245_SCHLAUCH
  6
Continuous
 62
     7
100
AcDbLine
 10
323.25
 20
461.8504413256
 30
0.0
 11
323.25
 21
463.6820932813
 31
0.0
  0
LINE
  5
102
330
5E
100
AcDbEntity
  8
4240245_SCHLAUCH
  6
Continuous
 62
     7
100
AcDbLine
 10
323.25
 20
456.8507667662
 30
0.0
 11
323.25
 21
458.7017750185
 31
0.0
  0
LINE
  5
103
330
5E
100
AcDbEntity
  8
4240245_SCHLAUCH
  6
Continuous
 62
     7
100
AcDbLine
 10
323.25
 20
451.8498241091
 30
0.0
 11
323.25
 21
453.7187866606
 31
0.0
  0
LINE
  5
104
330
5E
100
AcDbEntity
  8
4240245_SCHLAUCH
  6
Continuous
 62
     7
100
AcDbLine
 10
323.25
 20
446.8501310808
 30
0.0
 11
323.25
 21
448.8498241087
 31
0.0
  0
LINE
  5
105
330
5E
100
AcDbEntity
  8
4240245_SCHLAUCH
  6
Continuous
 62
     7
100
AcDbLine
 10
323.25
 20
441.8496907888
 30
0.0
 11
323.25
 21
443.719356219
 31
0.0
  0
LINE
  5
106
330
5E
100
AcDbEntity
  8
4240245_SCHLAUCH
  6
Continuous
 62
     7
100
AcDbLine
 10
323.25
 20
436.8498840319
 30
0.0
 11
323.25
 21
438.6812451172
 31
0.0
  0
LINE
  5
107
330
5E
100
AcDbEntity
  8
4240245_SCHLAUCH
  6
Continuous
 62
     7
100
AcDbLine
 10
323.25
 20
431.8504070585
 30
0.0
 11
323.25
 21
433.7015124689
 31
0.0
  0
LINE
  5
108
330
5E
100
AcDbEntity
  8
4240245_SCHLAUCH
  6
Continuous
 62
     7
100
AcDbLine
 10
323.25
 20
426.8501784001
 30
0.0
 11
323.25
 21
428.7192344755
 31
0.0
  0
LINE
  5
109
330
5E
100
AcDbEntity
  8
4240245_SCHLAUCH
  6
Continuous
 62
     7
100
AcDbLine
 10
323.25
 20
421.8495956247
 30
0.0
 11
323.25
 21
423.8501784001
 31
0.0
  0
LINE
  5
10A
330
5E
100
AcDbEntity
  8
4240245_SCHLAUCH
  6
Continuous
 62
     7
100
AcDbLine
 10
323.25
 20
416.8501776269
 30
0.0
 11
323.25
 21
418.7187660963
 31
0.0
  0
LINE
  5
10B
330
5E
100
AcDbEntity
  8
4240245_SCHLAUCH
  6
Continuous
 62
     7
100
AcDbLine
 10
309.45
 20
421.3500487146
 30
0.0
 11
309.45
 21
419.4802577747
 31
0.0
  0
LINE
  5
10C
330
5E
100
AcDbEntity
  8
4240245_SCHLAUCH
  6
Continuous
 62
     7
100
AcDbLine
 10
309.45
 20
426.3501248179
 30
0.0
 11
309.45
 21
424.5186736564
 31
0.0
  0
LINE
  5
10D
330
5E
100
AcDbEntity
  8
4240245_SCHLAUCH
  6
Continuous
 62
     7
100
AcDbLine
 10
309.45
 20
431.3501367459
 30
0.0
 11
309.45
 21
429.4988654695
 31
0.0
  0
LINE
  5
10E
330
5E
100
AcDbEntity
  8
4240245_SCHLAUCH
  6
Continuous
 62
     7
100
AcDbLine
 10
309.45
 20
436.3501089575
 30
0.0
 11
309.45
 21
434.4814060438
 31
0.0
  0
LINE
  5
10F
330
5E
100
AcDbEntity
  8
4240245_SCHLAUCH
  6
Continuous
 62
     7
100
AcDbLine
 10
309.45
 20
441.350155257
 30
0.0
 11
309.45
 21
439.3501089575
 31
0.0
  0
LINE
  5
110
330
5E
100
AcDbEntity
  8
4240245_SCHLAUCH
  6
Continuous
 62
     7
100
AcDbLine
 10
309.45
 20
446.3500180192
 30
0.0
 11
309.45
 21
444.4815792119
 31
0.0
  0
LINE
  5
111
330
5E
100
AcDbEntity
  8
4240245_SCHLAUCH
  6
Continuous
 62
     7
100
AcDbLine
 10
309.45
 20
451.350123672
 30
0.0
 11
309.45
 21
449.5190175979
 31
0.0
  0
LINE
  5
112
330
5E
100
AcDbEntity
  8
4240245_SCHLAUCH
  6
Continuous
 62
     7
100
AcDbLine
 10
309.45
 20
456.3501340449
 30
0.0
 11
309.45
 21
454.4983719588
 31
0.0
  0
LINE
  5
113
330
5E
100
AcDbEntity
  8
4240245_SCHLAUCH
  6
Continuous
 62
     7
100
AcDbLine
 10
309.45
 20
461.3501479658
 30
0.0
 11
309.45
 21
459.4807518655
 31
0.0
  0
LINE
  5
114
330
5E
100
AcDbEntity
  8
4240245_SCHLAUCH
  6
Continuous
 62
     7
100
AcDbLine
 10
309.45
 20
466.3502084739
 30
0.0
 11
309.45
 21
464.3501479658
 31
0.0
  0
LINE
  5
115
330
5E
100
AcDbEntity
  8
4240245_SCHLAUCH
  6
Continuous
 62
     7
100
AcDbLine
 10
309.45
 20
471.3500780623
 30
0.0
 11
309.45
 21
469.4806734469
 31
0.0
  0
LINE
  5
116
330
5E
100
AcDbEntity
  8
4240245_SCHLAUCH
  6
Continuous
 62
     7
100
AcDbLine
 10
309.45
 20
476.3502762173
 30
0.0
 11
309.45
 21
474.5181246751
 31
0.0
  0
LINE
  5
117
330
5E
100
AcDbEntity
  8
4240245_SCHLAUCH
  6
Continuous
 62
     7
100
AcDbLine
 10
309.45
 20
481.3501400473
 30
0.0
 11
309.45
 21
479.497741276
 31
0.0
  0
LINE
  5
118
330
5E
100
AcDbEntity
  8
4240245_SCHLAUCH
  6
Continuous
 62
     7
100
AcDbLine
 10
309.45
 20
486.3501870075
 30
0.0
 11
309.45
 21
484.4805864613
 31
0.0
  0
LINE
  5
119
330
5E
100
AcDbEntity
  8
4240245_SCHLAUCH
  6
Continuous
 62
     7
100
AcDbLine
 10
309.45
 20
491.3501820639
 30
0.0
 11
309.45
 21
489.3501870075
 31
0.0
  0
LINE
  5
11A
330
5E
100
AcDbEntity
  8
4240245_SCHLAUCH
  6
Continuous
 62
     7
100
AcDbLine
 10
323.5249669261
 20
416.150031251
 30
0.0
 11
323.4118485478
 21
416.8082121906
 31
0.0
  0
ARC
  5
11B
330
5E
100
AcDbEntity
  8
4240245_SCHLAUCH
  6
Continuous
 62
     7
100
AcDbCircle
 10
317.0019022992
 20
490.3521640828
 30
0.0
 40
6.596388815510173
100
AcDbArc
 50
346.6631714137
 51
13.3295803517
  0
ARC
  5
11C
330
5E
100
AcDbEntity
  8
4240245_SCHLAUCH
  6
Continuous
 62
     7
100
AcDbCircle
 10
317.0037411559
 20
485.3522884331
 30
0.0
 40
6.595235702662777
100
AcDbArc
 50
346.6574766044
 51
13.3342949091
  0
ARC
  5
11D
330
5E
100
AcDbEntity
  8
4240245_SCHLAUCH
  6
Continuous
 62
     7
100
AcDbCircle
 10
317.0055380843
 20
480.3522140688
 30
0.0
 40
6.59408625671167
100
AcDbArc
 50
346.6371166276
 51
13.311630526
  0
ARC
  5
11E
330
5E
100
AcDbEntity
  8
4240245_SCHLAUCH
  6
Continuous
 62
     7
100
AcDbCircle
 10
317.0075976629
 20
475.3519102596
 30
0.0
 40
6.592700512605809
100
AcDbArc
 50
346.653493553
 51
13.3264320739
  0
ARC
  5
11F
330
5E
100
AcDbEntity
  8
4240245_SCHLAUCH
  6
Continuous
 62
     7
100
AcDbCircle
 10
317.0094368163
 20
470.3513700133
 30
0.0
 40
6.591365197213953
100
AcDbArc
 50
346.6646104493
 51
13.3522004857
  0
ARC
  5
120
330
5E
100
AcDbEntity
  8
4240245_SCHLAUCH
  6
Continuous
 62
     7
100
AcDbCircle
 10
317.0108517517
 20
465.3506631082
 30
0.0
 40
6.590234885054627
100
AcDbArc
 50
346.6405490294
 51
13.3357434038
  0
ARC
  5
121
330
5E
100
AcDbEntity
  8
4240245_SCHLAUCH
  6
Continuous
 62
     7
100
AcDbCircle
 10
317.0108168103
 20
460.3496984777
 30
0.0
 40
6.590273732217677
100
AcDbArc
 50
346.6478469909
 51
13.3323977405
  0
ARC
  5
122
330
5E
100
AcDbEntity
  8
4240245_SCHLAUCH
  6
Continuous
 62
     7
100
AcDbCircle
 10
317.0092395577
 20
455.3489015017
 30
0.0
 40
6.591532997630096
100
AcDbArc
 50
346.6826046959
 51
13.3606417534
  0
ARC
  5
123
330
5E
100
AcDbEntity
  8
4240245_SCHLAUCH
  6
Continuous
 62
     7
100
AcDbCircle
 10
317.0075935591
 20
450.3483387347
 30
0.0
 40
6.592697782132682
100
AcDbArc
 50
346.6710336825
 51
13.3568967751
  0
ARC
  5
124
330
5E
100
AcDbEntity
  8
4240245_SCHLAUCH
  6
Continuous
 62
     7
100
AcDbCircle
 10
317.005707628
 20
445.3480885446
 30
0.0
 40
6.593963679792461
100
AcDbArc
 50
346.659302077
 51
13.3373410127
  0
ARC
  5
125
330
5E
100
AcDbEntity
  8
4240245_SCHLAUCH
  6
Continuous
 62
     7
100
AcDbCircle
 10
317.0037214265
 20
440.3480333187
 30
0.0
 40
6.595244377260822
100
AcDbArc
 50
346.680023703
 51
13.3463089802
  0
ARC
  5
126
330
5E
100
AcDbEntity
  8
4240245_SCHLAUCH
  6
Continuous
 62
     7
100
AcDbCircle
 10
317.0018202625
 20
435.3481394732
 30
0.0
 40
6.596446316682894
100
AcDbArc
 50
346.685255073
 51
13.3523580424
  0
ARC
  5
127
330
5E
100
AcDbEntity
  8
4240245_SCHLAUCH
  6
Continuous
 62
     7
100
AcDbCircle
 10
317.0002689232
 20
430.3484041455
 30
0.0
 40
6.597400559218977
100
AcDbArc
 50
346.667728699
 51
13.3363435091
  0
ARC
  5
128
330
5E
100
AcDbEntity
  8
4240245_SCHLAUCH
  6
Continuous
 62
     7
100
AcDbCircle
 10
316.9989857414
 20
425.34881302
 30
0.0
 40
6.598173870733616
100
AcDbArc
 50
346.6726180754
 51
13.3332515946
  0
ARC
  5
129
330
5E
100
AcDbEntity
  8
4240245_SCHLAUCH
  6
Continuous
 62
     7
100
AcDbCircle
 10
316.9980485333
 20
420.3493180866
 30
0.0
 40
6.598743141147442
100
AcDbArc
 50
346.680291614
 51
13.340399715
  0
ARC
  5
12A
330
5E
100
AcDbEntity
  8
4240245_SCHLAUCH
  6
Continuous
 62
     7
100
AcDbCircle
 10
315.6899463584
 20
417.8510338214
 30
0.0
 40
6.590912027075188
100
AcDbArc
 50
166.676353104
 51
193.3547096901
  0
ARC
  5
12B
330
5E
100
AcDbEntity
  8
4240245_SCHLAUCH
  6
Continuous
 62
     7
100
AcDbCircle
 10
315.691543095
 20
422.8517394189
 30
0.0
 40
6.592093870163496
100
AcDbArc
 50
166.6760099489
 51
193.3627784519
  0
ARC
  5
12C
330
5E
100
AcDbEntity
  8
4240245_SCHLAUCH
  6
Continuous
 62
     7
100
AcDbCircle
 10
315.6933039933
 20
427.8520884522
 30
0.0
 40
6.593303861193282
100
AcDbArc
 50
166.6569090971
 51
193.3387635949
  0
ARC
  5
12D
330
5E
100
AcDbEntity
  8
4240245_SCHLAUCH
  6
Continuous
 62
     7
100
AcDbCircle
 10
315.6952976812
 20
432.8522609482
 30
0.0
 40
6.594619688062995
100
AcDbArc
 50
166.6747360405
 51
193.3436701048
  0
ARC
  5
12E
330
5E
100
AcDbEntity
  8
4240245_SCHLAUCH
  6
Continuous
 62
     7
100
AcDbCircle
 10
315.6972941185
 20
437.8522204211
 30
0.0
 40
6.595889458212683
100
AcDbArc
 50
166.6889394243
 51
193.3551049987
  0
ARC
  5
12F
330
5E
100
AcDbEntity
  8
4240245_SCHLAUCH
  6
Continuous
 62
     7
100
AcDbCircle
 10
315.6989604616
 20
442.8520504923
 30
0.0
 40
6.596928155555255
100
AcDbArc
 50
166.6695899799
 51
193.3403586236
  0
ARC
  5
130
330
5E
100
AcDbEntity
  8
4240245_SCHLAUCH
  6
Continuous
 62
     7
100
AcDbCircle
 10
315.7004122321
 20
447.8517010814
 30
0.0
 40
6.597810606595363
100
AcDbArc
 50
166.6701042022
 51
193.332820119
  0
ARC
  5
131
330
5E
100
AcDbEntity
  8
4240245_SCHLAUCH
  6
Continuous
 62
     7
100
AcDbCircle
 10
315.7015458541
 20
452.8512309265
 30
0.0
 40
6.598495838887289
100
AcDbArc
 50
166.6815917796
 51
193.3411946398
  0
ARC
  5
132
330
5E
100
AcDbEntity
  8
4240245_SCHLAUCH
  6
Continuous
 62
     7
100
AcDbCircle
 10
315.7022376731
 20
457.8507147548
 30
0.0
 40
6.598919713489901
100
AcDbArc
 50
166.6726567092
 51
193.3345625919
  0
ARC
  5
133
330
5E
100
AcDbEntity
  8
4240245_SCHLAUCH
  6
Continuous
 62
     7
100
AcDbCircle
 10
315.70246784
 20
462.8501535042
 30
0.0
 40
6.599053986827299
100
AcDbArc
 50
166.663802008
 51
193.3237717424
  0
ARC
  5
134
330
5E
100
AcDbEntity
  8
4240245_SCHLAUCH
  6
Continuous
 62
     7
100
AcDbCircle
 10
315.7022140058
 20
467.8495780106
 30
0.0
 40
6.598897118354984
100
AcDbArc
 50
166.6714656884
 51
193.3301564504
  0
ARC
  5
135
330
5E
100
AcDbEntity
  8
4240245_SCHLAUCH
  6
Continuous
 62
     7
100
AcDbCircle
 10
315.7015431607
 20
472.8490486439
 30
0.0
 40
6.598502208876334
100
AcDbArc
 50
166.6671832875
 51
193.3317509367
  0
ARC
  5
136
330
5E
100
AcDbEntity
  8
4240245_SCHLAUCH
  6
Continuous
 62
     7
100
AcDbCircle
 10
315.700457033
 20
477.8486084565
 30
0.0
 40
6.597840413258321
100
AcDbArc
 50
166.6543165468
 51
193.316659631
  0
ARC
  5
137
330
5E
100
AcDbEntity
  8
4240245_SCHLAUCH
  6
Continuous
 62
     7
100
AcDbCircle
 10
315.6989487612
 20
482.8482643153
 30
0.0
 40
6.596911405760109
100
AcDbArc
 50
166.6587139888
 51
193.3213898301
  0
ARC
  5
138
330
5E
100
AcDbEntity
  8
4240245_SCHLAUCH
  6
Continuous
 62
     7
100
AcDbCircle
 10
315.6971989934
 20
487.8480487721
 30
0.0
 40
6.59582938458712
100
AcDbArc
 50
166.6634660138
 51
193.3359836108
  0
LINE
  5
139
330
5E
100
AcDbEntity
  8
4240245_SCHLAUCH
  6
Continuous
 62
     7
100
AcDbLine
 10
309.2171686439
 20
491.8501477937
 30
0.0
 11
309.2781595852
 21
491.328399141
 31
0.0
  0
CIRCLE
  5
13B
330
5E
100
AcDbEntity
  8
$DDT_AUDIT_GENERATED_(13A)
  6
Continuous
 62
     7
100
AcDbCircle
 10
322.35
 20
674.0101477937
 30
0.0
 40
1.349999999999997
  0
CIRCLE
  5
13C
330
5E
100
AcDbEntity
  8
$DDT_AUDIT_GENERATED_(13A)
  6
Continuous
 62
     7
100
AcDbCircle
 10
320.35
 20
670.2601477937
 30
0.0
 40
1.349999999999998
  0
CIRCLE
  5
13D
330
5E
100
AcDbEntity
  8
$DDT_AUDIT_GENERATED_(13A)
  6
Continuous
 62
     7
100
AcDbCircle
 10
320.35
 20
677.7601477937
 30
0.0
 40
1.349999999999998
  0
CIRCLE
  5
13E
330
5E
100
AcDbEntity
  8
$DDT_AUDIT_GENERATED_(13A)
  6
Continuous
 62
     7
100
AcDbCircle
 10
320.35
 20
685.2601477937
 30
0.0
 40
1.350000000000002
  0
CIRCLE
  5
13F
330
5E
100
AcDbEntity
  8
$DDT_AUDIT_GENERATED_(13A)
  6
Continuous
 62
     7
100
AcDbCircle
 10
320.35
 20
692.7601477937
 30
0.0
 40
1.349999999999999
  0
CIRCLE
  5
140
330
5E
100
AcDbEntity
  8
$DDT_AUDIT_GENERATED_(13A)
  6
Continuous
 62
     7
100
AcDbCircle
 10
320.35
 20
700.2601477937
 30
0.0
 40
1.349999999999999
  0
CIRCLE
  5
141
330
5E
100
AcDbEntity
  8
$DDT_AUDIT_GENERATED_(13A)
  6
Continuous
 62
     7
100
AcDbCircle
 10
320.35
 20
707.7601477937
 30
0.0
 40
1.349999999999998
  0
CIRCLE
  5
142
330
5E
100
AcDbEntity
  8
$DDT_AUDIT_GENERATED_(13A)
  6
Continuous
 62
     7
100
AcDbCircle
 10
320.35
 20
715.2601477937
 30
0.0
 40
1.349999999999998
  0
CIRCLE
  5
143
330
5E
100
AcDbEntity
  8
$DDT_AUDIT_GENERATED_(13A)
  6
Continuous
 62
     7
100
AcDbCircle
 10
316.35
 20
670.2601477937
 30
0.0
 40
1.350000000000001
  0
CIRCLE
  5
144
330
5E
100
AcDbEntity
  8
$DDT_AUDIT_GENERATED_(13A)
  6
Continuous
 62
     7
100
AcDbCircle
 10
316.35
 20
677.7601477937
 30
0.0
 40
1.350000000000001
  0
CIRCLE
  5
145
330
5E
100
AcDbEntity
  8
$DDT_AUDIT_GENERATED_(13A)
  6
Continuous
 62
     7
100
AcDbCircle
 10
316.35
 20
685.2601477937
 30
0.0
 40
1.349999999999998
  0
CIRCLE
  5
146
330
5E
100
AcDbEntity
  8
$DDT_AUDIT_GENERATED_(13A)
  6
Continuous
 62
     7
100
AcDbCircle
 10
316.35
 20
692.7601477937
 30
0.0
 40
1.349999999999998
  0
CIRCLE
  5
147
330
5E
100
AcDbEntity
  8
$DDT_AUDIT_GENERATED_(13A)
  6
Continuous
 62
     7
100
AcDbCircle
 10
316.35
 20
700.2601477937
 30
0.0
 40
1.349999999999998
  0
CIRCLE
  5
148
330
5E
100
AcDbEntity
  8
$DDT_AUDIT_GENERATED_(13A)
  6
Continuous
 62
     7
100
AcDbCircle
 10
316.35
 20
707.7601477937
 30
0.0
 40
1.350000000000001
  0
CIRCLE
  5
149
330
5E
100
AcDbEntity
  8
$DDT_AUDIT_GENERATED_(13A)
  6
Continuous
 62
     7
100
AcDbCircle
 10
316.35
 20
715.2601477937
 30
0.0
 40
1.350000000000001
  0
CIRCLE
  5
14A
330
5E
100
AcDbEntity
  8
$DDT_AUDIT_GENERATED_(13A)
  6
Continuous
 62
     7
100
AcDbCircle
 10
312.35
 20
670.2601477937
 30
0.0
 40
1.349999999999999
  0
CIRCLE
  5
14B
330
5E
100
AcDbEntity
  8
$DDT_AUDIT_GENERATED_(13A)
  6
Continuous
 62
     7
100
AcDbCircle
 10
312.35
 20
677.7601477937
 30
0.0
 40
1.349999999999999
  0
CIRCLE
  5
14C
330
5E
100
AcDbEntity
  8
$DDT_AUDIT_GENERATED_(13A)
  6
Continuous
 62
     7
100
AcDbCircle
 10
312.35
 20
685.2601477937
 30
0.0
 40
1.349999999999999
  0
CIRCLE
  5
14D
330
5E
100
AcDbEntity
  8
$DDT_AUDIT_GENERATED_(13A)
  6
Continuous
 62
     7
100
AcDbCircle
 10
312.35
 20
692.7601477937
 30
0.0
 40
1.349999999999998
  0
CIRCLE
  5
14E
330
5E
100
AcDbEntity
  8
$DDT_AUDIT_GENERATED_(13A)
  6
Continuous
 62
     7
100
AcDbCircle
 10
312.35
 20
700.2601477937
 30
0.0
 40
1.349999999999998
  0
CIRCLE
  5
14F
330
5E
100
AcDbEntity
  8
$DDT_AUDIT_GENERATED_(13A)
  6
Continuous
 62
     7
100
AcDbCircle
 10
312.35
 20
707.7601477937
 30
0.0
 40
1.35
  0
CIRCLE
  5
150
330
5E
100
AcDbEntity
  8
$DDT_AUDIT_GENERATED_(13A)
  6
Continuous
 62
     7
100
AcDbCircle
 10
312.35
 20
715.2601477937
 30
0.0
 40
1.350000000000003
  0
CIRCLE
  5
151
330
5E
100
AcDbEntity
  8
$DDT_AUDIT_GENERATED_(13A)
  6
Continuous
 62
     7
100
AcDbCircle
 10
322.35
 20
681.5101477937
 30
0.0
 40
1.349999999999999
  0
CIRCLE
  5
152
330
5E
100
AcDbEntity
  8
$DDT_AUDIT_GENERATED_(13A)
  6
Continuous
 62
     7
100
AcDbCircle
 10
322.35
 20
689.0101477937
 30
0.0
 40
1.349999999999999
  0
CIRCLE
  5
153
330
5E
100
AcDbEntity
  8
$DDT_AUDIT_GENERATED_(13A)
  6
Continuous
 62
     7
100
AcDbCircle
 10
322.35
 20
696.5101477937
 30
0.0
 40
1.349999999999997
  0
CIRCLE
  5
154
330
5E
100
AcDbEntity
  8
$DDT_AUDIT_GENERATED_(13A)
  6
Continuous
 62
     7
100
AcDbCircle
 10
322.35
 20
704.0101477937
 30
0.0
 40
1.350000000000001
  0
CIRCLE
  5
155
330
5E
100
AcDbEntity
  8
$DDT_AUDIT_GENERATED_(13A)
  6
Continuous
 62
     7
100
AcDbCircle
 10
322.35
 20
711.5101477937
 30
0.0
 40
1.350000000000001
  0
CIRCLE
  5
156
330
5E
100
AcDbEntity
  8
$DDT_AUDIT_GENERATED_(13A)
  6
Continuous
 62
     7
100
AcDbCircle
 10
318.35
 20
674.0101477937
 30
0.0
 40
1.35
  0
CIRCLE
  5
157
330
5E
100
AcDbEntity
  8
$DDT_AUDIT_GENERATED_(13A)
  6
Continuous
 62
     7
100
AcDbCircle
 10
318.35
 20
681.5101477937
 30
0.0
 40
1.35
  0
CIRCLE
  5
158
330
5E
100
AcDbEntity
  8
$DDT_AUDIT_GENERATED_(13A)
  6
Continuous
 62
     7
100
AcDbCircle
 10
318.35
 20
689.0101477937
 30
0.0
 40
1.35
  0
CIRCLE
  5
159
330
5E
100
AcDbEntity
  8
$DDT_AUDIT_GENERATED_(13A)
  6
Continuous
 62
     7
100
AcDbCircle
 10
318.35
 20
696.5101477937
 30
0.0
 40
1.35
  0
CIRCLE
  5
15A
330
5E
100
AcDbEntity
  8
$DDT_AUDIT_GENERATED_(13A)
  6
Continuous
 62
     7
100
AcDbCircle
 10
318.35
 20
704.0101477937
 30
0.0
 40
1.35
  0
CIRCLE
  5
15B
330
5E
100
AcDbEntity
  8
$DDT_AUDIT_GENERATED_(13A)
  6
Continuous
 62
     7
100
AcDbCircle
 10
318.35
 20
711.5101477937
 30
0.0
 40
1.35
  0
CIRCLE
  5
15C
330
5E
100
AcDbEntity
  8
$DDT_AUDIT_GENERATED_(13A)
  6
Continuous
 62
     7
100
AcDbCircle
 10
314.35
 20
674.0101477937
 30
0.0
 40
1.350000000000002
  0
CIRCLE
  5
15D
330
5E
100
AcDbEntity
  8
$DDT_AUDIT_GENERATED_(13A)
  6
Continuous
 62
     7
100
AcDbCircle
 10
314.35
 20
681.5101477937
 30
0.0
 40
1.350000000000002
  0
CIRCLE
  5
15E
330
5E
100
AcDbEntity
  8
$DDT_AUDIT_GENERATED_(13A)
  6
Continuous
 62
     7
100
AcDbCircle
 10
314.35
 20
689.0101477937
 30
0.0
 40
1.350000000000002
  0
CIRCLE
  5
15F
330
5E
100
AcDbEntity
  8
$DDT_AUDIT_GENERATED_(13A)
  6
Continuous
 62
     7
100
AcDbCircle
 10
314.35
 20
696.5101477937
 30
0.0
 40
1.350000000000002
  0
CIRCLE
  5
160
330
5E
100
AcDbEntity
  8
$DDT_AUDIT_GENERATED_(13A)
  6
Continuous
 62
     7
100
AcDbCircle
 10
314.35
 20
704.0101477937
 30
0.0
 40
1.350000000000002
  0
CIRCLE
  5
161
330
5E
100
AcDbEntity
  8
$DDT_AUDIT_GENERATED_(13A)
  6
Continuous
 62
     7
100
AcDbCircle
 10
314.35
 20
711.5101477937
 30
0.0
 40
1.350000000000002
  0
CIRCLE
  5
162
330
5E
100
AcDbEntity
  8
$DDT_AUDIT_GENERATED_(13A)
  6
Continuous
 62
     7
100
AcDbCircle
 10
310.35
 20
674.0101477937
 30
0.0
 40
1.350000000000004
  0
CIRCLE
  5
163
330
5E
100
AcDbEntity
  8
$DDT_AUDIT_GENERATED_(13A)
  6
Continuous
 62
     7
100
AcDbCircle
 10
310.35
 20
681.5101477937
 30
0.0
 40
1.350000000000004
  0
CIRCLE
  5
164
330
5E
100
AcDbEntity
  8
$DDT_AUDIT_GENERATED_(13A)
  6
Continuous
 62
     7
100
AcDbCircle
 10
310.35
 20
689.0101477937
 30
0.0
 40
1.350000000000002
  0
CIRCLE
  5
165
330
5E
100
AcDbEntity
  8
$DDT_AUDIT_GENERATED_(13A)
  6
Continuous
 62
     7
100
AcDbCircle
 10
310.35
 20
696.5101477937
 30
0.0
 40
1.350000000000004
  0
CIRCLE
  5
166
330
5E
100
AcDbEntity
  8
$DDT_AUDIT_GENERATED_(13A)
  6
Continuous
 62
     7
100
AcDbCircle
 10
310.35
 20
704.0101477937
 30
0.0
 40
1.350000000000002
  0
CIRCLE
  5
167
330
5E
100
AcDbEntity
  8
$DDT_AUDIT_GENERATED_(13A)
  6
Continuous
 62
     7
100
AcDbCircle
 10
310.35
 20
711.5101477937
 30
0.0
 40
1.350000000000002
  0
LINE
  5
168
330
5E
100
AcDbEntity
  8
$DDT_AUDIT_GENERATED_(13A)
  6
Continuous
 62
     7
100
AcDbLine
 10
315.15
 20
525.2601477937
 30
0.0
 11
304.85
 21
525.2601477937
 31
0.0
  0
LINE
  5
169
330
5E
100
AcDbEntity
  8
$DDT_AUDIT_GENERATED_(13A)
  6
Continuous
 62
     7
100
AcDbLine
 10
317.55
 20
525.2601477937
 30
0.0
 11
327.85
 21
525.2601477937
 31
0.0
  0
ARC
  5
16A
330
5E
100
AcDbEntity
  8
$DDT_AUDIT_GENERATED_(13A)
  6
Continuous
 62
     7
100
AcDbCircle
 10
317.55
 20
525.4601477937
 30
0.0
 40
0.2000000000000057
100
AcDbArc
 50
180.0
 51
270.0
  0
ARC
  5
16B
330
5E
100
AcDbEntity
  8
$DDT_AUDIT_GENERATED_(13A)
  6
Continuous
 62
     7
100
AcDbCircle
 10
315.15
 20
525.4601477937
 30
0.0
 40
0.2000000000000023
100
AcDbArc
 50
270.0
 51
0.0
  0
LINE
  5
16C
330
5E
100
AcDbEntity
  8
$DDT_AUDIT_GENERATED_(13A)
  6
Continuous
 62
     7
100
AcDbLine
 10
300.85
 20
730.2601477937
 30
0.0
 11
331.85
 21
730.2601477937
 31
0.0
  0
LINE
  5
16D
330
5E
100
AcDbEntity
  8
$DDT_AUDIT_GENERATED_(13A)
  6
Continuous
 62
     7
100
AcDbLine
 10
300.85
 20
655.2601477937
 30
0.0
 11
331.85
 21
655.2601477937
 31
0.0
  0
LINE
  5
16E
330
5E
100
AcDbEntity
  8
$DDT_AUDIT_GENERATED_(13A)
  6
Continuous
 62
     7
100
AcDbLine
 10
332.35
 20
655.7601477937
 30
0.0
 11
332.35
 21
729.7601477937
 31
0.0
  0
LINE
  5
16F
330
5E
100
AcDbEntity
  8
$DDT_AUDIT_GENERATED_(13A)
  6
Continuous
 62
     7
100
AcDbLine
 10
300.35
 20
729.7601477937
 30
0.0
 11
300.35
 21
655.7601477937
 31
0.0
  0
LINE
  5
170
330
5E
100
AcDbEntity
  8
$DDT_AUDIT_GENERATED_(13A)
  6
Continuous
 62
     7
100
AcDbLine
 10
328.35
 20
525.7601477937
 30
0.0
 11
328.35
 21
654.7601477937
 31
0.0
  0
LINE
  5
171
330
5E
100
AcDbEntity
  8
$DDT_AUDIT_GENERATED_(13A)
  6
Continuous
 62
     7
100
AcDbLine
 10
304.35
 20
654.7601477937
 30
0.0
 11
304.35
 21
525.7601477937
 31
0.0
  0
ARC
  5
172
330
5E
100
AcDbEntity
  8
$DDT_AUDIT_GENERATED_(13A)
  6
Continuous
 62
     7
100
AcDbCircle
 10
327.85
 20
525.7601477937
 30
0.0
 40
0.5000000000000004
100
AcDbArc
 50
270.0
 51
0.0
  0
ARC
  5
173
330
5E
100
AcDbEntity
  8
$DDT_AUDIT_GENERATED_(13A)
  6
Continuous
 62
     7
100
AcDbCircle
 10
304.85
 20
525.7601477937
 30
0.0
 40
0.5000000000000004
100
AcDbArc
 50
180.0
 51
270.0
  0
ARC
  5
174
330
5E
100
AcDbEntity
  8
$DDT_AUDIT_GENERATED_(13A)
  6
Continuous
 62
     7
100
AcDbCircle
 10
328.85
 20
654.7601477937
 30
0.0
 40
0.5000000000000004
100
AcDbArc
 50
90.0
 51
180.0
  0
ARC
  5
175
330
5E
100
AcDbEntity
  8
$DDT_AUDIT_GENERATED_(13A)
  6
Continuous
 62
     7
100
AcDbCircle
 10
303.85
 20
654.7601477937
 30
0.0
 40
0.5000000000000004
100
AcDbArc
 50
0.0
 51
90.0
  0
ARC
  5
176
330
5E
100
AcDbEntity
  8
$DDT_AUDIT_GENERATED_(13A)
  6
Continuous
 62
     7
100
AcDbCircle
 10
300.85
 20
729.7601477937
 30
0.0
 40
0.5000000000000004
100
AcDbArc
 50
90.0
 51
180.0
  0
ARC
  5
177
330
5E
100
AcDbEntity
  8
$DDT_AUDIT_GENERATED_(13A)
  6
Continuous
 62
     7
100
AcDbCircle
 10
331.85
 20
729.7601477937
 30
0.0
 40
0.5000000000000004
100
AcDbArc
 50
0.0
 51
90.0
  0
ARC
  5
178
330
5E
100
AcDbEntity
  8
$DDT_AUDIT_GENERATED_(13A)
  6
Continuous
 62
     7
100
AcDbCircle
 10
331.85
 20
655.7601477937
 30
0.0
 40
0.5000000000000004
100
AcDbArc
 50
270.0
 51
0.0
  0
ARC
  5
179
330
5E
100
AcDbEntity
  8
$DDT_AUDIT_GENERATED_(13A)
  6
Continuous
 62
     7
100
AcDbCircle
 10
300.85
 20
655.7601477937
 30
0.0
 40
0.5000000000000004
100
AcDbArc
 50
180.0
 51
270.0
  0
LINE
  5
17B
330
5E
100
AcDbEntity
  8
$DDT_AUDIT_GENERATED_(17A)
  6
Continuous
 62
     7
100
AcDbLine
 10
315.15
 20
525.2601477937
 30
0.0
 11
315.35
 21
525.2601477937
 31
0.0
  0
LINE
  5
17C
330
5E
100
AcDbEntity
  8
$DDT_AUDIT_GENERATED_(17A)
  6
Continuous
 62
     7
100
AcDbLine
 10
317.35
 20
528.2601477937
 30
0.0
 11
317.35
 21
525.2601477937
 31
0.0
  0
LINE
  5
17D
330
5E
100
AcDbEntity
  8
$DDT_AUDIT_GENERATED_(17A)
  6
Continuous
 62
     7
100
AcDbLine
 10
317.35
 20
528.2601477937
 30
0.0
 11
315.35
 21
528.2601477937
 31
0.0
  0
LINE
  5
17E
330
5E
100
AcDbEntity
  8
$DDT_AUDIT_GENERATED_(17A)
  6
Continuous
 62
     7
100
AcDbLine
 10
315.35
 20
528.2601477937
 30
0.0
 11
315.35
 21
525.2601477937
 31
0.0
  0
LINE
  5
17F
330
5E
100
AcDbEntity
  8
$DDT_AUDIT_GENERATED_(17A)
  6
Continuous
 62
     7
100
AcDbLine
 10
315.35
 20
525.2601477937
 30
0.0
 11
317.35
 21
525.2601477937
 31
0.0
  0
LINE
  5
180
330
5E
100
AcDbEntity
  8
$DDT_AUDIT_GENERATED_(17A)
  6
Continuous
 62
     7
100
AcDbLine
 10
317.55
 20
525.2601477937
 30
0.0
 11
317.35
 21
525.2601477937
 31
0.0
  0
LINE
  5
181
330
5E
100
AcDbEntity
  8
$DDT_AUDIT_GENERATED_(17A)
  6
Continuous
 62
     7
100
AcDbLine
 10
326.83
 20
522.6501477937
 30
0.0
 11
326.83
 21
525.2601477937
 31
0.0
  0
LINE
  5
182
330
5E
100
AcDbEntity
  8
$DDT_AUDIT_GENERATED_(17A)
  6
Continuous
 62
     7
100
AcDbLine
 10
305.87
 20
525.2601477937
 30
0.0
 11
305.87
 21
522.6501477937
 31
0.0
  0
LINE
  5
183
330
5E
100
AcDbEntity
  8
$DDT_AUDIT_GENERATED_(17A)
  6
Continuous
 62
     7
100
AcDbLine
 10
326.83
 20
523.2601477937
 30
0.0
 11
305.87
 21
523.2601477937
 31
0.0
  0
LINE
  5
186
330
5E
100
AcDbEntity
  8
DV1_Standard
  6
CENTER2
 62
     7
100
AcDbLine
 10
61.349999553
 20
499.6501477937
 30
0.0
 11
21.350000447
 21
499.6501477937
 31
0.0
  0
LINE
  5
187
330
5E
100
AcDbEntity
  8
DV1_Standard
  6
CENTER2
 62
     7
100
AcDbLine
 10
41.35
 20
519.6501473466
 30
0.0
 11
41.35
 21
479.6501482407
 31
0.0
  0
LINE
  5
188
330
5E
100
AcDbEntity
  8
DV1_Standard
  6
CENTER2
 62
     7
100
AcDbLine
 10
66.3499994412
 20
499.6501477937
 30
0.0
 11
79.85
 21
499.6501477937
 31
0.0
  0
LINE
  5
189
330
5E
100
AcDbEntity
  8
DV1_Standard
  6
CENTER2
 62
     7
100
AcDbLine
 10
41.35
 20
524.6501472349
 30
0.0
 11
41.35
 21
538.1501477937
 31
0.0
  0
LINE
  5
18A
330
5E
100
AcDbEntity
  8
DV1_Standard
  6
CENTER2
 62
     7
100
AcDbLine
 10
16.3500005588
 20
499.6501477937
 30
0.0
 11
2.85
 21
499.6501477937
 31
0.0
  0
LINE
  5
18B
330
5E
100
AcDbEntity
  8
DV1_Standard
  6
CENTER2
 62
     7
100
AcDbLine
 10
41.35
 20
474.6501483525
 30
0.0
 11
41.35
 21
461.1501477937
 31
0.0
  0
LINE
  5
18C
330
5E
100
AcDbEntity
  8
DV1_Standard
  6
CENTER2
 62
     7
100
AcDbLine
 10
211.349999553
 20
499.6501477937
 30
0.0
 11
171.350000447
 21
499.6501477937
 31
0.0
  0
LINE
  5
18D
330
5E
100
AcDbEntity
  8
DV1_Standard
  6
CENTER2
 62
     7
100
AcDbLine
 10
191.35
 20
519.6501473466
 30
0.0
 11
191.35
 21
479.6501482407
 31
0.0
  0
LINE
  5
18E
330
5E
100
AcDbEntity
  8
DV1_Standard
  6
CENTER2
 62
     7
100
AcDbLine
 10
216.3499994412
 20
499.6501477937
 30
0.0
 11
229.85
 21
499.6501477937
 31
0.0
  0
LINE
  5
18F
330
5E
100
AcDbEntity
  8
DV1_Standard
  6
CENTER2
 62
     7
100
AcDbLine
 10
191.35
 20
524.6501472349
 30
0.0
 11
191.35
 21
538.1501477937
 31
0.0
  0
LINE
  5
190
330
5E
100
AcDbEntity
  8
DV1_Standard
  6
CENTER2
 62
     7
100
AcDbLine
 10
166.3500005588
 20
499.6501477937
 30
0.0
 11
152.85
 21
499.6501477937
 31
0.0
  0
LINE
  5
191
330
5E
100
AcDbEntity
  8
DV1_Standard
  6
CENTER2
 62
     7
100
AcDbLine
 10
191.35
 20
474.6501483525
 30
0.0
 11
191.35
 21
461.1501477937
 31
0.0
  0
LINE
  5
192
330
5E
100
AcDbEntity
  8
DV1_Standard
  6
Continuous
 62
     7
100
AcDbLine
 10
328.15
 20
519.1501477937
 30
0.0
 11
327.8627347097
 21
513.5994463147
 31
0.0
  0
LINE
  5
193
330
5E
100
AcDbEntity
  8
DV1_Standard
  6
CENTER2
 62
     7
100
AcDbLine
 10
336.349999553
 20
499.6501477937
 30
0.0
 11
296.350000447
 21
499.6501477937
 31
0.0
  0
LINE
  5
194
330
5E
100
AcDbEntity
  8
DV1_Standard
  6
CENTER2
 62
     7
100
AcDbLine
 10
316.35
 20
519.6501473466
 30
0.0
 11
316.35
 21
479.6501482407
 31
0.0
  0
LINE
  5
195
330
5E
100
AcDbEntity
  8
DV1_Standard
  6
CENTER2
 62
     7
100
AcDbLine
 10
341.3499994412
 20
499.6501477937
 30
0.0
 11
338.35
 21
499.6501477937
 31
0.0
  0
LINE
  5
196
330
5E
100
AcDbEntity
  8
DV1_Standard
  6
CENTER2
 62
     7
100
AcDbLine
 10
316.35
 20
524.6501472349
 30
0.0
 11
316.35
 21
521.6501477937
 31
0.0
  0
LINE
  5
197
330
5E
100
AcDbEntity
  8
DV1_Standard
  6
CENTER2
 62
     7
100
AcDbLine
 10
291.3500005588
 20
499.6501477937
 30
0.0
 11
294.35
 21
499.6501477937
 31
0.0
  0
LINE
  5
198
330
5E
100
AcDbEntity
  8
DV1_Standard
  6
CENTER2
 62
     7
100
AcDbLine
 10
316.35
 20
474.6501483525
 30
0.0
 11
316.35
 21
477.6501477937
 31
0.0
  0
ENDBLK
  5
19A
330
5E
100
AcDbEntity
  8
0
100
AcDbBlockEnd
  0
BLOCK
  5
242
330
19B
100
AcDbEntity
  8
0
100
AcDbBlockBegin
  2
SE1
 70
     0
 10
0.0
 20
0.0
 30
0.0
  3
SE1
  1

  0
LINE
  5
19D
330
19B
100
AcDbEntity
  8
$DDT_AUDIT_GENERATED_(60)
  6
Continuous
 62
     7
100
AcDbLine
 10
497.1941178535
 20
477.1501477937
 30
0.0
 11
492.3245526361
 21
477.1501477937
 31
0.0
  0
LINE
  5
19E
330
19B
100
AcDbEntity
  8
$DDT_AUDIT_GENERATED_(60)
  6
Continuous
 62
     7
100
AcDbLine
 10
483.1941178535
 20
477.1501477937
 30
0.0
 11
492.3245526361
 21
477.1501477937
 31
0.0
  0
LINE
  5
19F
330
19B
100
AcDbEntity
  8
$DDT_AUDIT_GENERATED_(60)
  6
Continuous
 62
     7
100
AcDbLine
 10
497.1941178535
 20
522.1501477937
 30
0.0
 11
540.1941178535
 21
522.1501477937
 31
0.0
  0
LINE
  5
1A0
330
19B
100
AcDbEntity
  8
$DDT_AUDIT_GENERATED_(60)
  6
Continuous
 62
     7
100
AcDbLine
 10
492.3245526361
 20
522.1501477937
 30
0.0
 11
497.1941178535
 21
522.1501477937
 31
0.0
  0
LINE
  5
1A1
330
19B
100
AcDbEntity
  8
$DDT_AUDIT_GENERATED_(60)
  6
Continuous
 62
     7
100
AcDbLine
 10
492.3245526361
 20
522.1501477937
 30
0.0
 11
483.1941178535
 21
522.1501477937
 31
0.0
  0
LINE
  5
1A2
330
19B
100
AcDbEntity
  8
$DDT_AUDIT_GENERATED_(60)
  6
Continuous
 62
     7
100
AcDbLine
 10
496.1941178535
 20
507.1501477937
 30
0.0
 11
496.1941178535
 21
521.1501477937
 31
0.0
  0
LINE
  5
1A3
330
19B
100
AcDbEntity
  8
$DDT_AUDIT_GENERATED_(60)
  6
Continuous
 62
     7
100
AcDbLine
 10
496.1941178535
 20
492.1501477937
 30
0.0
 11
496.1941178535
 21
507.1501477937
 31
0.0
  0
LINE
  5
1A4
330
19B
100
AcDbEntity
  8
$DDT_AUDIT_GENERATED_(60)
  6
Continuous
 62
     7
100
AcDbLine
 10
496.1941178535
 20
478.1501477937
 30
0.0
 11
496.1941178535
 21
492.1501477937
 31
0.0
  0
ARC
  5
1A5
330
19B
100
AcDbEntity
  8
$DDT_AUDIT_GENERATED_(60)
  6
Continuous
 62
     7
100
AcDbCircle
 10
497.1941178535
 20
521.1501477937
 30
0.0
 40
1.000000000000001
100
AcDbArc
 50
90.0
 51
180.0
  0
ARC
  5
1A6
330
19B
100
AcDbEntity
  8
$DDT_AUDIT_GENERATED_(60)
  6
Continuous
 62
     7
100
AcDbCircle
 10
497.1941178535
 20
478.1501477937
 30
0.0
 40
1.000000000000004
100
AcDbArc
 50
180.0
 51
270.0
  0
LINE
  5
1A7
330
19B
100
AcDbEntity
  8
$DDT_AUDIT_GENERATED_(60)
  6
Continuous
 62
     7
100
AcDbLine
 10
641.1941178535
 20
522.1501477937
 30
0.0
 11
648.1941178535
 21
522.1501477937
 31
0.0
  0
LINE
  5
1A8
330
19B
100
AcDbEntity
  8
$DDT_AUDIT_GENERATED_(60)
  6
Continuous
 62
     7
100
AcDbLine
 10
556.1941178535
 20
522.1501477937
 30
0.0
 11
641.1941178535
 21
522.1501477937
 31
0.0
  0
LINE
  5
1A9
330
19B
100
AcDbEntity
  8
$DDT_AUDIT_GENERATED_(60)
  6
Continuous
 62
     7
100
AcDbLine
 10
540.1941178535
 20
522.1501477937
 30
0.0
 11
556.1941178535
 21
522.1501477937
 31
0.0
  0
LINE
  5
1AA
330
19B
100
AcDbEntity
  8
$DDT_AUDIT_GENERATED_(60)
  6
Continuous
 62
     7
100
AcDbLine
 10
649.1941178535
 20
521.1501477937
 30
0.0
 11
649.1941178535
 21
497.1501477937
 31
0.0
  0
LINE
  5
1AB
330
19B
100
AcDbEntity
  8
$DDT_AUDIT_GENERATED_(60)
  6
Continuous
 62
     7
100
AcDbLine
 10
541.1941178535
 20
492.1501477937
 30
0.0
 11
541.1941178535
 21
478.1501477937
 31
0.0
  0
LINE
  5
1AC
330
19B
100
AcDbEntity
  8
$DDT_AUDIT_GENERATED_(60)
  6
Continuous
 62
     7
100
AcDbLine
 10
541.1941178535
 20
507.1501477937
 30
0.0
 11
541.1941178535
 21
492.1501477937
 31
0.0
  0
LINE
  5
1AD
330
19B
100
AcDbEntity
  8
$DDT_AUDIT_GENERATED_(60)
  6
Continuous
 62
     7
100
AcDbLine
 10
541.1941178535
 20
521.1501477937
 30
0.0
 11
541.1941178535
 21
507.1501477937
 31
0.0
  0
LINE
  5
1AE
330
19B
100
AcDbEntity
  8
$DDT_AUDIT_GENERATED_(60)
  6
Continuous
 62
     7
100
AcDbLine
 10
540.1941178535
 20
477.1501477937
 30
0.0
 11
497.1941178535
 21
477.1501477937
 31
0.0
  0
ARC
  5
1AF
330
19B
100
AcDbEntity
  8
$DDT_AUDIT_GENERATED_(60)
  6
Continuous
 62
     7
100
AcDbCircle
 10
540.1941178535
 20
478.1501477937
 30
0.0
 40
1.000000000000001
100
AcDbArc
 50
270.0
 51
0.0
  0
ARC
  5
1B0
330
19B
100
AcDbEntity
  8
$DDT_AUDIT_GENERATED_(60)
  6
Continuous
 62
     7
100
AcDbCircle
 10
540.1941178535
 20
521.1501477937
 30
0.0
 40
0.9999999999999974
100
AcDbArc
 50
0.0
 51
90.0
  0
ARC
  5
1B1
330
19B
100
AcDbEntity
  8
$DDT_AUDIT_GENERATED_(60)
  6
Continuous
 62
     7
100
AcDbCircle
 10
648.1941178535
 20
521.1501477937
 30
0.0
 40
1.000000000000001
100
AcDbArc
 50
0.0
 51
90.0
  0
LINE
  5
1B2
330
19B
100
AcDbEntity
  8
$DDT_AUDIT_GENERATED_(60)
  6
Continuous
 62
     7
100
AcDbLine
 10
556.1941178535
 20
496.1501477937
 30
0.0
 11
549.1941178535
 21
496.1501477937
 31
0.0
  0
LINE
  5
1B3
330
19B
100
AcDbEntity
  8
$DDT_AUDIT_GENERATED_(60)
  6
Continuous
 62
     7
100
AcDbLine
 10
641.1941178535
 20
496.1501477937
 30
0.0
 11
556.1941178535
 21
496.1501477937
 31
0.0
  0
LINE
  5
1B4
330
19B
100
AcDbEntity
  8
$DDT_AUDIT_GENERATED_(60)
  6
Continuous
 62
     7
100
AcDbLine
 10
648.1941178535
 20
496.1501477937
 30
0.0
 11
641.1941178535
 21
496.1501477937
 31
0.0
  0
ARC
  5
1B5
330
19B
100
AcDbEntity
  8
$DDT_AUDIT_GENERATED_(60)
  6
Continuous
 62
     7
100
AcDbCircle
 10
648.1941178535
 20
497.1501477937
 30
0.0
 40
0.9999999999999983
100
AcDbArc
 50
270.0
 51
0.0
  0
ARC
  5
1B6
330
19B
100
AcDbEntity
  8
$DDT_AUDIT_GENERATED_(60)
  6
Continuous
 62
     7
100
AcDbCircle
 10
549.1941178535
 20
488.1501477937
 30
0.0
 40
8.000000000000007
100
AcDbArc
 50
90.0
 51
180.0
  0
LINE
  5
1B7
330
19B
100
AcDbEntity
  8
$DDT_AUDIT_GENERATED_(60)
  6
Continuous
 62
     7
100
AcDbLine
 10
482.1941178535
 20
521.1501477937
 30
0.0
 11
482.1941178535
 21
518.9001477937
 31
0.0
  0
LINE
  5
1B8
330
19B
100
AcDbEntity
  8
$DDT_AUDIT_GENERATED_(60)
  6
Continuous
 62
     7
100
AcDbLine
 10
482.1941178535
 20
480.4001477937
 30
0.0
 11
482.1941178535
 21
478.1501477937
 31
0.0
  0
ARC
  5
1B9
330
19B
100
AcDbEntity
  8
$DDT_AUDIT_GENERATED_(60)
  6
Continuous
 62
     7
100
AcDbCircle
 10
483.1941178535
 20
521.1501477937
 30
0.0
 40
1.000000000000001
100
AcDbArc
 50
90.0
 51
180.0
  0
ARC
  5
1BA
330
19B
100
AcDbEntity
  8
$DDT_AUDIT_GENERATED_(60)
  6
Continuous
 62
     7
100
AcDbCircle
 10
483.1941178535
 20
478.1501477937
 30
0.0
 40
1.000000000000001
100
AcDbArc
 50
180.0
 51
270.0
  0
LINE
  5
1BB
330
19B
100
AcDbEntity
  8
$DDT_AUDIT_GENERATED_(78)
  6
Continuous
 62
     7
100
AcDbLine
 10
531.1941178535
 20
474.6501477937
 30
0.0
 11
506.1941178535
 21
474.6501477937
 31
0.0
  0
LINE
  5
1BC
330
19B
100
AcDbEntity
  8
$DDT_AUDIT_GENERATED_(78)
  6
Continuous
 62
     7
100
AcDbLine
 10
529.1741178535
 20
471.3851477937
 30
0.0
 11
508.2141178535
 21
471.3851477937
 31
0.0
  0
LINE
  5
1BD
330
19B
100
AcDbEntity
  8
$DDT_AUDIT_GENERATED_(78)
  6
Continuous
 62
     7
100
AcDbLine
 10
528.0091178535
 20
472.5501477937
 30
0.0
 11
509.3791178535
 21
472.5501477937
 31
0.0
  0
LINE
  5
1BE
330
19B
100
AcDbEntity
  8
$DDT_AUDIT_GENERATED_(78)
  6
Continuous
 62
     7
100
AcDbLine
 10
528.0141178535
 20
464.6501477937
 30
0.0
 11
509.3741178535
 21
464.6501477937
 31
0.0
  0
LINE
  5
1BF
330
19B
100
AcDbEntity
  8
$DDT_AUDIT_GENERATED_(78)
  6
Continuous
 62
     7
100
AcDbLine
 10
508.2141178535
 20
465.8101477937
 30
0.0
 11
529.1741178535
 21
465.8101477937
 31
0.0
  0
LINE
  5
1C0
330
19B
100
AcDbEntity
  8
$DDT_AUDIT_GENERATED_(78)
  6
Continuous
 62
     7
100
AcDbLine
 10
531.1941178535
 20
474.6501477937
 30
0.0
 11
531.1941178535
 21
477.1501477937
 31
0.0
  0
LINE
  5
1C1
330
19B
100
AcDbEntity
  8
$DDT_AUDIT_GENERATED_(78)
  6
Continuous
 62
     7
100
AcDbLine
 10
506.1941178535
 20
477.1501477937
 30
0.0
 11
506.1941178535
 21
474.6501477937
 31
0.0
  0
LINE
  5
1C2
330
19B
100
AcDbEntity
  8
$DDT_AUDIT_GENERATED_(78)
  6
Continuous
 62
     7
100
AcDbLine
 10
529.1741178535
 20
465.8101477937
 30
0.0
 11
529.1741178535
 21
471.3851477937
 31
0.0
  0
LINE
  5
1C3
330
19B
100
AcDbEntity
  8
$DDT_AUDIT_GENERATED_(78)
  6
Continuous
 62
     7
100
AcDbLine
 10
508.2141178535
 20
471.3851477937
 30
0.0
 11
508.2141178535
 21
465.8101477937
 31
0.0
  0
LINE
  5
1C4
330
19B
100
AcDbEntity
  8
$DDT_AUDIT_GENERATED_(78)
  6
Continuous
 62
     7
100
AcDbLine
 10
529.1741178535
 20
471.3851477937
 30
0.0
 11
528.0091178535
 21
472.5501477937
 31
0.0
  0
LINE
  5
1C5
330
19B
100
AcDbEntity
  8
$DDT_AUDIT_GENERATED_(78)
  6
Continuous
 62
     7
100
AcDbLine
 10
509.3791178535
 20
472.5501477937
 30
0.0
 11
508.2141178535
 21
471.3851477937
 31
0.0
  0
LINE
  5
1C6
330
19B
100
AcDbEntity
  8
$DDT_AUDIT_GENERATED_(78)
  6
Continuous
 62
     7
100
AcDbLine
 10
528.0091178535
 20
472.5501477937
 30
0.0
 11
528.0091178535
 21
474.6501477937
 31
0.0
  0
LINE
  5
1C7
330
19B
100
AcDbEntity
  8
$DDT_AUDIT_GENERATED_(78)
  6
Continuous
 62
     7
100
AcDbLine
 10
509.3791178535
 20
474.6501477937
 30
0.0
 11
509.3791178535
 21
472.5501477937
 31
0.0
  0
LINE
  5
1C8
330
19B
100
AcDbEntity
  8
$DDT_AUDIT_GENERATED_(78)
  6
Continuous
 62
     7
100
AcDbLine
 10
508.2141178535
 20
465.8101477937
 30
0.0
 11
509.3741178535
 21
464.6501477937
 31
0.0
  0
LINE
  5
1C9
330
19B
100
AcDbEntity
  8
$DDT_AUDIT_GENERATED_(78)
  6
Continuous
 62
     7
100
AcDbLine
 10
528.0141178535
 20
464.6501477937
 30
0.0
 11
529.1741178535
 21
465.8101477937
 31
0.0
  0
LINE
  5
1CA
330
19B
100
AcDbEntity
  8
$DDT_AUDIT_GENERATED_(A4)
  6
Continuous
 62
     7
100
AcDbLine
 10
538.6499427096
 20
556.0501477937
 30
0.0
 11
487.7382929974
 21
556.0501477937
 31
0.0
  0
ARC
  5
1CB
330
19B
100
AcDbEntity
  8
$DDT_AUDIT_GENERATED_(A4)
  6
Continuous
 62
     7
100
AcDbCircle
 10
513.1941178535
 20
550.0501477937
 30
0.0
 40
25.00000000000005
100
AcDbArc
 50
133.32039789
 51
166.1134596374
  0
ARC
  5
1CC
330
19B
100
AcDbEntity
  8
$DDT_AUDIT_GENERATED_(A4)
  6
Continuous
 62
     7
100
AcDbCircle
 10
513.1941178535
 20
550.0501477937
 30
0.0
 40
25.00000000000001
100
AcDbArc
 50
13.8865403626
 51
20.6473453726
  0
LINE
  5
1CD
330
19B
100
AcDbEntity
  8
$DDT_AUDIT_GENERATED_(A4)
  6
Continuous
 62
     7
100
AcDbLine
 10
539.4414241781
 20
522.1501477937
 30
0.0
 11
539.1499236731
 21
555.5545108376
 31
0.0
  0
LINE
  5
1CE
330
19B
100
AcDbEntity
  8
$DDT_AUDIT_GENERATED_(A4)
  6
Continuous
 62
     7
100
AcDbLine
 10
487.2383120339
 20
555.5545108376
 30
0.0
 11
486.9468115289
 21
522.1501477937
 31
0.0
  0
ARC
  5
1CF
330
19B
100
AcDbEntity
  8
$DDT_AUDIT_GENERATED_(A4)
  6
Continuous
 62
     7
100
AcDbCircle
 10
487.7382929974
 20
555.5501477937
 30
0.0
 40
0.5000000000000004
100
AcDbArc
 50
90.0
 51
179.500025649
  0
ARC
  5
1D0
330
19B
100
AcDbEntity
  8
$DDT_AUDIT_GENERATED_(A4)
  6
Continuous
 62
     7
100
AcDbCircle
 10
538.6499427096
 20
555.5501477937
 30
0.0
 40
0.4999999999999972
100
AcDbArc
 50
0.499974351
 51
90.0
  0
ARC
  5
1D1
330
19B
100
AcDbEntity
  8
$DDT_AUDIT_GENERATED_(AC)
  6
Continuous
 62
     7
100
AcDbCircle
 10
513.5031467926
 20
560.2621702147
 30
0.0
 40
2.000467853403428
100
AcDbArc
 50
239.5021611927
 51
271.4961575175
  0
LINE
  5
1D2
330
19B
100
AcDbEntity
  8
$DDT_AUDIT_GENERATED_(AC)
  6
Continuous
 62
     7
100
AcDbLine
 10
538.6456511502
 20
558.9193962676
 30
0.0
 11
513.5553788228
 21
558.2623843643
 31
0.0
  0
LINE
  5
1D3
330
19B
100
AcDbEntity
  8
$DDT_AUDIT_GENERATED_(AC)
  6
Continuous
 62
     7
100
AcDbLine
 10
488.1046134929
 20
572.9013224864
 30
0.0
 11
512.487846969
 21
558.5385003231
 31
0.0
  0
LINE
  5
1D4
330
19B
100
AcDbEntity
  8
$DDT_AUDIT_GENERATED_(AC)
  6
Continuous
 62
     7
100
AcDbLine
 10
592.4216871277
 20
588.3371695173
 30
0.0
 11
525.049154268
 21
586.5729576559
 31
0.0
  0
LINE
  5
1D5
330
19B
100
AcDbEntity
  8
$DDT_AUDIT_GENERATED_(AC)
  6
Continuous
 62
     7
100
AcDbLine
 10
599.7191856
 20
588.5282612399
 30
0.0
 11
592.4216871277
 21
588.3371695173
 31
0.0
  0
ARC
  5
1D6
330
19B
100
AcDbEntity
  8
$DDT_AUDIT_GENERATED_(AC)
  6
Continuous
 62
     7
100
AcDbCircle
 10
599.7008617362
 20
589.2280213674
 30
0.0
 40
0.7000000000000166
100
AcDbArc
 50
271.5
 51
1.5
  0
LINE
  5
1D7
330
19B
100
AcDbEntity
  8
$DDT_AUDIT_GENERATED_(AC)
  6
Continuous
 62
     7
100
AcDbLine
 10
489.7406851405
 20
591.650429608
 30
0.0
 11
513.6164967774
 21
592.2756397389
 31
0.0
  0
LINE
  5
1D8
330
19B
100
AcDbEntity
  8
$DDT_AUDIT_GENERATED_(AC)
  6
Continuous
 62
     7
100
AcDbLine
 10
592.2646254378
 20
594.3351134676
 30
0.0
 11
599.5621239101
 21
594.5262051902
 31
0.0
  0
LINE
  5
1D9
330
19B
100
AcDbEntity
  8
$DDT_AUDIT_GENERATED_(AC)
  6
Continuous
 62
     7
100
AcDbLine
 10
513.8549287052
 20
592.2818832987
 30
0.0
 11
592.2646254378
 21
594.3351134676
 31
0.0
  0
LINE
  5
1DA
330
19B
100
AcDbEntity
  8
$DDT_AUDIT_GENERATED_(AC)
  6
Continuous
 62
     7
100
AcDbLine
 10
513.6164967774
 20
592.2756397389
 30
0.0
 11
513.8549287052
 21
592.2818832987
 31
0.0
  0
LINE
  5
1DB
330
19B
100
AcDbEntity
  8
$DDT_AUDIT_GENERATED_(AC)
  6
Continuous
 62
     7
100
AcDbLine
 10
600.2802079014
 20
593.8447689266
 30
0.0
 11
600.4006218637
 21
589.2463452312
 31
0.0
  0
ARC
  5
1DC
330
19B
100
AcDbEntity
  8
$DDT_AUDIT_GENERATED_(AC)
  6
Continuous
 62
     7
100
AcDbCircle
 10
599.580447774
 20
593.8264450627
 30
0.0
 40
0.6999999999999896
100
AcDbArc
 50
1.5
 51
91.5
  0
ARC
  5
1DD
330
19B
100
AcDbEntity
  8
$DDT_AUDIT_GENERATED_(AC)
  6
Continuous
 62
     7
100
AcDbCircle
 10
537.3110048243
 20
585.9645104664
 30
0.0
 40
0.930029120384954
100
AcDbArc
 50
74.5392370009
 51
74.6227588886
  0
ARC
  5
1DE
330
19B
100
AcDbEntity
  8
$DDT_AUDIT_GENERATED_(AC)
  6
Continuous
 62
     7
100
AcDbCircle
 10
569.6371194853
 20
577.8619219012
 30
0.0
 40
32.83513947973965
100
AcDbArc
 50
180.0148103559
 51
193.0721729806
  0
LINE
  5
1DF
330
19B
100
AcDbEntity
  8
$DDT_AUDIT_GENERATED_(AC)
  6
Continuous
 62
     7
100
AcDbLine
 10
536.7893376752
 20
577.96982204
 30
0.0
 11
536.0193497961
 21
584.6836888714
 31
0.0
  0
LINE
  5
1E0
330
19B
100
AcDbEntity
  8
$DDT_AUDIT_GENERATED_(AC)
  6
Continuous
 62
     7
100
AcDbLine
 10
538.9358443785
 20
559.2534752643
 30
0.0
 11
537.6492215438
 21
570.472112088
 31
0.0
  0
LINE
  5
1E1
330
19B
100
AcDbEntity
  8
$DDT_AUDIT_GENERATED_(AC)
  6
Continuous
 62
     7
100
AcDbLine
 10
489.0603464993
 20
590.9939211167
 30
0.0
 11
487.9553181523
 21
573.1439172517
 31
0.0
  0
ARC
  5
1E2
330
19B
100
AcDbEntity
  8
$DDT_AUDIT_GENERATED_(AC)
  6
Continuous
 62
     7
100
AcDbCircle
 10
488.2568764559
 20
573.1598103757
 30
0.0
 40
0.2999999980619275
100
AcDbArc
 50
184.327587265
 51
239.5009246452
  0
ARC
  5
1E3
330
19B
100
AcDbEntity
  8
$DDT_AUDIT_GENERATED_(AC)
  6
Continuous
 62
     7
100
AcDbCircle
 10
538.6377980657
 20
559.2192934651
 30
0.0
 40
0.3000000000000012
100
AcDbArc
 50
271.5
 51
6.5424510692
  0
ARC
  5
1E4
330
19B
100
AcDbEntity
  8
$DDT_AUDIT_GENERATED_(AC)
  6
Continuous
 62
     7
100
AcDbCircle
 10
538.0063252151
 20
584.9115675331
 30
0.0
 40
2.000000000000025
100
AcDbArc
 50
102.9341802283
 51
186.5424510692
  0
ARC
  5
1E5
330
19B
100
AcDbEntity
  8
$DDT_AUDIT_GENERATED_(AC)
  6
Continuous
 62
     7
100
AcDbCircle
 10
489.7590090044
 20
590.9506694805
 30
0.0
 40
0.7000000000000028
100
AcDbArc
 50
91.5
 51
176.4575489308
  0
ARC
  5
1E6
330
19B
100
AcDbEntity
  8
$DDT_AUDIT_GENERATED_(AC)
  6
Continuous
 62
     7
100
AcDbCircle
 10
537.3348930674
 20
587.8360918403
 30
0.0
 40
1.00000345846227
100
AcDbArc
 50
282.5868786524
 51
291.2622691859
  0
LINE
  5
1E7
330
19B
100
AcDbEntity
  8
$DDT_AUDIT_GENERATED_(CC)
  6
Continuous
 62
     7
100
AcDbLine
 10
537.0591383607
 20
573.7950312749
 30
0.0
 11
536.8415074042
 21
577.9476773039
 31
0.0
  0
LINE
  5
1E8
330
19B
100
AcDbEntity
  8
$DDT_AUDIT_GENERATED_(CC)
  6
Continuous
 62
     7
100
AcDbLine
 10
536.8415074042
 20
577.9476773039
 30
0.0
 11
536.7893376752
 21
577.96982204
 31
0.0
  0
LINE
  5
1E9
330
19B
100
AcDbEntity
  8
$DDT_AUDIT_GENERATED_(CE)
  6
Continuous
 62
     7
100
AcDbLine
 10
444.193660939
 20
465.1501477937
 30
0.0
 11
444.193660939
 21
534.1501477937
 31
0.0
  0
LINE
  5
1EA
330
19B
100
AcDbEntity
  8
$DDT_AUDIT_GENERATED_(CE)
  6
Continuous
 62
     7
100
AcDbLine
 10
477.193640935
 20
479.6501477937
 30
0.0
 11
477.193640935
 21
519.6501477937
 31
0.0
  0
ARC
  5
1EB
330
19B
100
AcDbEntity
  8
$DDT_AUDIT_GENERATED_(CE)
  6
Continuous
 62
     7
100
AcDbCircle
 10
475.3581779487
 20
532.3468263638
 30
0.0
 40
1.499999999999999
100
AcDbArc
 50
1.8765314455
 51
88.5
  0
ARC
  5
1EC
330
19B
100
AcDbEntity
  8
$DDT_AUDIT_GENERATED_(CE)
  6
Continuous
 62
     7
100
AcDbCircle
 10
475.3581779487
 20
466.9534692235
 30
0.0
 40
1.499999999999998
100
AcDbArc
 50
271.5
 51
358.1234685545
  0
LINE
  5
1ED
330
19B
100
AcDbEntity
  8
$DDT_AUDIT_GENERATED_(CE)
  6
Continuous
 62
     7
100
AcDbLine
 10
444.7067494131
 20
464.6503191312
 30
0.0
 11
475.3974433712
 21
465.4539832361
 31
0.0
  0
LINE
  5
1EE
330
19B
100
AcDbEntity
  8
$DDT_AUDIT_GENERATED_(CE)
  6
Continuous
 62
     7
100
AcDbLine
 10
475.3974433712
 20
533.8463123513
 30
0.0
 11
444.7067494131
 21
534.6499764562
 31
0.0
  0
ARC
  5
1EF
330
19B
100
AcDbEntity
  8
$DDT_AUDIT_GENERATED_(CE)
  6
Continuous
 62
     7
100
AcDbCircle
 10
444.693660939
 20
534.1501477937
 30
0.0
 40
0.500000000000002
100
AcDbArc
 50
88.5
 51
180.0
  0
ARC
  5
1F0
330
19B
100
AcDbEntity
  8
$DDT_AUDIT_GENERATED_(CE)
  6
Continuous
 62
     7
100
AcDbCircle
 10
444.693660939
 20
465.1501477937
 30
0.0
 40
0.5000000000000002
100
AcDbArc
 50
180.0
 51
271.5
  0
ARC
  5
1F1
330
19B
100
AcDbEntity
  8
$DDT_AUDIT_GENERATED_(CE)
  6
Continuous
 62
     7
100
AcDbCircle
 10
-522.606339061
 20
499.6501477937
 30
0.0
 40
1000.0
100
AcDbArc
 50
358.1234685545
 51
358.8540080016
  0
ARC
  5
1F2
330
19B
100
AcDbEntity
  8
$DDT_AUDIT_GENERATED_(CE)
  6
Continuous
 62
     7
100
AcDbCircle
 10
-522.606339061
 20
499.6501477937
 30
0.0
 40
1000.0
100
AcDbArc
 50
1.1459919984
 51
1.8765314455
  0
LINE
  5
1F4
330
19B
100
AcDbEntity
  8
$DDT_AUDIT_GENERATED_(1F3)
  6
Continuous
 62
     7
100
AcDbLine
 10
496.1941178535
 20
492.1501477937
 30
0.0
 11
496.1941178535
 21
507.1501477937
 31
0.0
  0
LINE
  5
1F5
330
19B
100
AcDbEntity
  8
$DDT_AUDIT_GENERATED_(1F3)
  6
Continuous
 62
     7
100
AcDbLine
 10
495.9941178535
 20
518.9001477937
 30
0.0
 11
477.193640935
 21
518.9001477937
 31
0.0
  0
LINE
  5
1F6
330
19B
100
AcDbEntity
  8
$DDT_AUDIT_GENERATED_(1F3)
  6
Continuous
 62
     7
100
AcDbLine
 10
477.193640935
 20
480.4001477937
 30
0.0
 11
495.9941178535
 21
480.4001477937
 31
0.0
  0
ARC
  5
1F7
330
19B
100
AcDbEntity
  8
$DDT_AUDIT_GENERATED_(1F3)
  6
Continuous
 62
     7
100
AcDbCircle
 10
495.9941178535
 20
480.6001477937
 30
0.0
 40
0.1999999999999988
100
AcDbArc
 50
270.0
 51
0.0
  0
ARC
  5
1F8
330
19B
100
AcDbEntity
  8
$DDT_AUDIT_GENERATED_(1F3)
  6
Continuous
 62
     7
100
AcDbCircle
 10
495.9941178535
 20
518.7001477937
 30
0.0
 40
0.1999999999999988
100
AcDbArc
 50
0.0
 51
90.0
  0
ARC
  5
1F9
330
19B
100
AcDbEntity
  8
4240245_SCHLAUCH
  6
Continuous
 62
     7
100
AcDbCircle
 10
504.4965251268
 20
424.8172593781
 30
0.0
 40
9.999999999998789
100
AcDbArc
 50
264.2246376694
 51
280.7424065232
  0
ARC
  5
1FA
330
19B
100
AcDbEntity
  8
4240245_SCHLAUCH
  6
Continuous
 62
     7
100
AcDbCircle
 10
493.8629487523
 20
407.8783404108
 30
0.0
 40
9.999999999998918
100
AcDbArc
 50
57.9062937155
 51
100.6127130837
  0
ARC
  5
1FB
330
19B
100
AcDbEntity
  8
4240245_SCHLAUCH
  6
Continuous
 62
     7
100
AcDbCircle
 10
504.488862693
 20
424.8220694239
 30
0.0
 40
9.999999999999853
100
AcDbArc
 50
263.6332869993
 51
264.378305532
  0
LINE
  5
1FC
330
19B
100
AcDbEntity
  8
4240245_SCHLAUCH
  6
Continuous
 62
     7
100
AcDbLine
 10
503.4906446303
 20
414.8720161226
 30
0.0
 11
503.4279848228
 21
414.8785043096
 31
0.0
  0
ARC
  5
1FD
330
19B
100
AcDbEntity
  8
4240245_SCHLAUCH
  6
Continuous
 62
     7
100
AcDbCircle
 10
504.4888407256
 20
424.8220232688
 30
0.0
 40
9.999949226784546
100
AcDbArc
 50
237.9075889632
 51
263.9102533073
  0
LINE
  5
1FE
330
19B
100
AcDbEntity
  8
4240245_SCHLAUCH
  6
Continuous
 62
     7
100
AcDbLine
 10
506.0760039854
 20
475.6001306565
 30
0.0
 11
506.0760039854
 21
477.1501477937
 31
0.0
  0
LINE
  5
1FF
330
19B
100
AcDbEntity
  8
4240245_SCHLAUCH
  6
Continuous
 62
     7
100
AcDbLine
 10
506.0760039854
 20
470.6002047218
 30
0.0
 11
506.0760039854
 21
472.4424849357
 31
0.0
  0
LINE
  5
200
330
19B
100
AcDbEntity
  8
4240245_SCHLAUCH
  6
Continuous
 62
     7
100
AcDbLine
 10
506.0760039854
 20
465.5999630805
 30
0.0
 11
506.0760039854
 21
467.4414518913
 31
0.0
  0
LINE
  5
201
330
19B
100
AcDbEntity
  8
4240245_SCHLAUCH
  6
Continuous
 62
     7
100
AcDbLine
 10
506.0760039854
 20
460.6001778839
 30
0.0
 11
506.0760039854
 21
462.4508917822
 31
0.0
  0
LINE
  5
202
330
19B
100
AcDbEntity
  8
4240245_SCHLAUCH
  6
Continuous
 62
     7
100
AcDbLine
 10
506.0760039854
 20
455.6004745764
 30
0.0
 11
506.0760039854
 21
457.4310803286
 31
0.0
  0
LINE
  5
203
330
19B
100
AcDbEntity
  8
4240245_SCHLAUCH
  6
Continuous
 62
     7
100
AcDbLine
 10
506.0760039854
 20
450.6002543015
 30
0.0
 11
506.0760039854
 21
452.4529327946
 31
0.0
  0
LINE
  5
204
330
19B
100
AcDbEntity
  8
4240245_SCHLAUCH
  6
Continuous
 62
     7
100
AcDbLine
 10
506.0760039854
 20
445.6003819853
 30
0.0
 11
506.0760039854
 21
447.4424250351
 31
0.0
  0
LINE
  5
205
330
19B
100
AcDbEntity
  8
4240245_SCHLAUCH
  6
Continuous
 62
     7
100
AcDbLine
 10
506.0760039854
 20
440.599677608
 30
0.0
 11
506.0760039854
 21
442.4412897051
 31
0.0
  0
LINE
  5
206
330
19B
100
AcDbEntity
  8
4240245_SCHLAUCH
  6
Continuous
 62
     7
100
AcDbLine
 10
506.0760039854
 20
435.6003191267
 30
0.0
 11
506.0760039854
 21
437.4502696486
 31
0.0
  0
LINE
  5
207
330
19B
100
AcDbEntity
  8
4240245_SCHLAUCH
  6
Continuous
 62
     7
100
AcDbLine
 10
506.0760039854
 20
430.6005575098
 30
0.0
 11
506.0760039854
 21
432.4304405045
 31
0.0
  0
LINE
  5
208
330
19B
100
AcDbEntity
  8
4240245_SCHLAUCH
  6
Continuous
 62
     7
100
AcDbLine
 10
506.0760039854
 20
425.6004715415
 30
0.0
 11
506.0760039854
 21
427.4519898795
 31
0.0
  0
LINE
  5
209
330
19B
100
AcDbEntity
  8
4240245_SCHLAUCH
  6
Continuous
 62
     7
100
AcDbLine
 10
506.0760039854
 20
420.5997687822
 30
0.0
 11
506.0760039854
 21
422.468784605
 31
0.0
  0
LINE
  5
20A
330
19B
100
AcDbEntity
  8
4240245_SCHLAUCH
  6
Continuous
 62
     7
100
AcDbLine
 10
506.0760039854
 20
415.6002007094
 30
0.0
 11
506.0760039854
 21
417.4394253134
 31
0.0
  0
LINE
  5
20B
330
19B
100
AcDbEntity
  8
4240245_SCHLAUCH
  6
Continuous
 62
     7
100
AcDbLine
 10
492.2760039854
 20
420.0998584725
 30
0.0
 11
492.2760039854
 21
418.2706216795
 31
0.0
  0
LINE
  5
20C
330
19B
100
AcDbEntity
  8
4240245_SCHLAUCH
  6
Continuous
 62
     7
100
AcDbLine
 10
492.2760039854
 20
425.0999659587
 30
0.0
 11
492.2760039854
 21
423.248585476
 31
0.0
  0
LINE
  5
20D
330
19B
100
AcDbEntity
  8
4240245_SCHLAUCH
  6
Continuous
 62
     7
100
AcDbLine
 10
492.2760039854
 20
430.1001308258
 30
0.0
 11
492.2760039854
 21
428.2586477379
 31
0.0
  0
LINE
  5
20E
330
19B
100
AcDbEntity
  8
4240245_SCHLAUCH
  6
Continuous
 62
     7
100
AcDbLine
 10
492.2760039854
 20
435.1001046846
 30
0.0
 11
492.2760039854
 21
433.2609902851
 31
0.0
  0
LINE
  5
20F
330
19B
100
AcDbEntity
  8
4240245_SCHLAUCH
  6
Continuous
 62
     7
100
AcDbLine
 10
492.2760039854
 20
440.099630298
 30
0.0
 11
492.2760039854
 21
438.2499958764
 31
0.0
  0
LINE
  5
210
330
19B
100
AcDbEntity
  8
4240245_SCHLAUCH
  6
Continuous
 62
     7
100
AcDbLine
 10
492.2760039854
 20
445.1000354702
 30
0.0
 11
492.2760039854
 21
443.2698261837
 31
0.0
  0
LINE
  5
211
330
19B
100
AcDbEntity
  8
4240245_SCHLAUCH
  6
Continuous
 62
     7
100
AcDbLine
 10
492.2760039854
 20
450.0998052486
 30
0.0
 11
492.2760039854
 21
448.2477016615
 31
0.0
  0
LINE
  5
212
330
19B
100
AcDbEntity
  8
4240245_SCHLAUCH
  6
Continuous
 62
     7
100
AcDbLine
 10
492.2760039854
 20
455.1005757225
 30
0.0
 11
492.2760039854
 21
453.2578106517
 31
0.0
  0
LINE
  5
213
330
19B
100
AcDbEntity
  8
4240245_SCHLAUCH
  6
Continuous
 62
     7
100
AcDbLine
 10
492.2760039854
 20
460.100203124
 30
0.0
 11
492.2760039854
 21
458.258843696
 31
0.0
  0
LINE
  5
214
330
19B
100
AcDbEntity
  8
4240245_SCHLAUCH
  6
Continuous
 62
     7
100
AcDbLine
 10
492.2760039854
 20
465.0999226423
 30
0.0
 11
492.2760039854
 21
463.2494038052
 31
0.0
  0
LINE
  5
215
330
19B
100
AcDbEntity
  8
4240245_SCHLAUCH
  6
Continuous
 62
     7
100
AcDbLine
 10
492.2760039854
 20
470.1000776618
 30
0.0
 11
492.2760039854
 21
468.2692152587
 31
0.0
  0
LINE
  5
216
330
19B
100
AcDbEntity
  8
4240245_SCHLAUCH
  6
Continuous
 62
     7
100
AcDbLine
 10
492.2760039854
 20
475.1001972576
 30
0.0
 11
492.2760039854
 21
473.2473627927
 31
0.0
  0
LINE
  5
217
330
19B
100
AcDbEntity
  8
4240245_SCHLAUCH
  6
Continuous
 62
     7
100
AcDbLine
 10
506.3569293413
 20
414.9976331513
 30
0.0
 11
506.2468531369
 21
415.6197771781
 31
0.0
  0
ARC
  5
218
330
19B
100
AcDbEntity
  8
4240245_SCHLAUCH
  6
Continuous
 62
     7
100
AcDbCircle
 10
499.8252473259
 20
474.1015766076
 30
0.0
 40
6.59801767550412
100
AcDbArc
 50
346.6559077227
 51
4.7989248542
  0
ARC
  5
219
330
19B
100
AcDbEntity
  8
4240245_SCHLAUCH
  6
Continuous
 62
     7
100
AcDbCircle
 10
499.8266656602
 20
469.1019707517
 30
0.0
 40
6.597154534590702
100
AcDbArc
 50
346.665106759
 51
13.3295521884
  0
ARC
  5
21A
330
19B
100
AcDbEntity
  8
4240245_SCHLAUCH
  6
Continuous
 62
     7
100
AcDbCircle
 10
499.8283371587
 20
464.1022171317
 30
0.0
 40
6.596124518685263
100
AcDbArc
 50
346.658323939
 51
13.3320041648
  0
ARC
  5
21B
330
19B
100
AcDbEntity
  8
4240245_SCHLAUCH
  6
Continuous
 62
     7
100
AcDbCircle
 10
499.8300998834
 20
459.1022688028
 30
0.0
 40
6.595015158487993
100
AcDbArc
 50
346.6407745441
 51
13.310783035
  0
ARC
  5
21C
330
19B
100
AcDbEntity
  8
4240245_SCHLAUCH
  6
Continuous
 62
     7
100
AcDbCircle
 10
499.8321706911
 20
454.1021476013
 30
0.0
 40
6.593664743265127
100
AcDbArc
 50
346.6547169306
 51
13.3257028637
  0
ARC
  5
21D
330
19B
100
AcDbEntity
  8
4240245_SCHLAUCH
  6
Continuous
 62
     7
100
AcDbCircle
 10
499.834127999
 20
449.1017997656
 30
0.0
 40
6.592320476389029
100
AcDbArc
 50
346.6624707852
 51
13.3472889282
  0
ARC
  5
21E
330
19B
100
AcDbEntity
  8
4240245_SCHLAUCH
  6
Continuous
 62
     7
100
AcDbCircle
 10
499.8357549362
 20
444.1012795983
 30
0.0
 40
6.591132136481773
100
AcDbArc
 50
346.6380443185
 51
13.3291486291
  0
ARC
  5
21F
330
19B
100
AcDbEntity
  8
4240245_SCHLAUCH
  6
Continuous
 62
     7
100
AcDbCircle
 10
499.8369599706
 20
439.1003966643
 30
0.0
 40
6.590158200824744
100
AcDbArc
 50
346.6451244539
 51
13.3283440884
  0
ARC
  5
220
330
19B
100
AcDbEntity
  8
4240245_SCHLAUCH
  6
Continuous
 62
     7
100
AcDbCircle
 10
499.8363663574
 20
434.0994388461
 30
0.0
 40
6.590657923301296
100
AcDbArc
 50
346.6781480859
 51
13.3614090302
  0
ARC
  5
221
330
19B
100
AcDbEntity
  8
4240245_SCHLAUCH
  6
Continuous
 62
     7
100
AcDbCircle
 10
499.834981164
 20
429.0987103275
 30
0.0
 40
6.591711676452548
100
AcDbArc
 50
346.6662232597
 51
13.3561332238
  0
ARC
  5
222
330
19B
100
AcDbEntity
  8
4240245_SCHLAUCH
  6
Continuous
 62
     7
100
AcDbCircle
 10
499.8331756485
 20
424.0982871342
 30
0.0
 40
6.592983891510581
100
AcDbArc
 50
346.6560443676
 51
13.3368565234
  0
ARC
  5
223
330
19B
100
AcDbEntity
  8
4240245_SCHLAUCH
  6
Continuous
 62
     7
100
AcDbCircle
 10
499.8311745735
 20
419.0980711764
 30
0.0
 40
6.594315184531898
100
AcDbArc
 50
346.6803975028
 51
13.3485918389
  0
LINE
  5
224
330
19B
100
AcDbEntity
  8
4240245_SCHLAUCH
  6
Continuous
 62
     7
100
AcDbLine
 10
492.1051585236
 20
418.1210235375
 30
0.0
 11
492.0571483841
 21
417.7099113995
 31
0.0
  0
ARC
  5
225
330
19B
100
AcDbEntity
  8
4240245_SCHLAUCH
  6
Continuous
 62
     7
100
AcDbCircle
 10
498.5261009228
 20
421.6018023139
 30
0.0
 40
6.597625579293621
100
AcDbArc
 50
166.6705234646
 51
193.3386788534
  0
ARC
  5
226
330
19B
100
AcDbEntity
  8
4240245_SCHLAUCH
  6
Continuous
 62
     7
100
AcDbCircle
 10
498.5272888406
 20
426.6013693658
 30
0.0
 40
6.598339679111767
100
AcDbArc
 50
166.6693950873
 51
193.3306669692
  0
ARC
  5
227
330
19B
100
AcDbEntity
  8
4240245_SCHLAUCH
  6
Continuous
 62
     7
100
AcDbCircle
 10
498.5281048328
 20
431.6008421195
 30
0.0
 40
6.598830635729004
100
AcDbArc
 50
166.6794794461
 51
193.3385945647
  0
ARC
  5
228
330
19B
100
AcDbEntity
  8
4240245_SCHLAUCH
  6
Continuous
 62
     7
100
AcDbCircle
 10
498.5284599777
 20
436.6002905588
 30
0.0
 40
6.599050473919219
100
AcDbArc
 50
166.6710548695
 51
193.3325169461
  0
ARC
  5
229
330
19B
100
AcDbEntity
  8
4240245_SCHLAUCH
  6
Continuous
 62
     7
100
AcDbCircle
 10
498.5283434691
 20
441.5997274872
 30
0.0
 40
6.598976705170484
100
AcDbArc
 50
166.6618742626
 51
193.3217342534
  0
ARC
  5
22A
330
19B
100
AcDbEntity
  8
4240245_SCHLAUCH
  6
Continuous
 62
     7
100
AcDbCircle
 10
498.5277393612
 20
446.5991770941
 30
0.0
 40
6.598609334909023
100
AcDbArc
 50
166.6691198073
 51
193.3286194158
  0
ARC
  5
22B
330
19B
100
AcDbEntity
  8
4240245_SCHLAUCH
  6
Continuous
 62
     7
100
AcDbCircle
 10
498.5267475942
 20
451.5986977639
 30
0.0
 40
6.598018137327318
100
AcDbArc
 50
166.6653250077
 51
193.3317320951
  0
ARC
  5
22C
330
19B
100
AcDbEntity
  8
4240245_SCHLAUCH
  6
Continuous
 62
     7
100
AcDbCircle
 10
498.52540309
 20
456.5983383287
 30
0.0
 40
6.597195633346617
100
AcDbArc
 50
166.6511688736
 51
193.3153528473
  0
ARC
  5
22D
330
19B
100
AcDbEntity
  8
4240245_SCHLAUCH
  6
Continuous
 62
     7
100
AcDbCircle
 10
498.5236721619
 20
461.5981017208
 30
0.0
 40
6.596118061941436
100
AcDbArc
 50
166.6561502173
 51
193.3205703045
  0
ARC
  5
22E
330
19B
100
AcDbEntity
  8
4240245_SCHLAUCH
  6
Continuous
 62
     7
100
AcDbCircle
 10
498.5217721109
 20
466.5980128841
 30
0.0
 40
6.594921496777806
100
AcDbArc
 50
166.6628033455
 51
193.3380450095
  0
ARC
  5
22F
330
19B
100
AcDbEntity
  8
4240245_SCHLAUCH
  6
Continuous
 62
     7
100
AcDbCircle
 10
498.5198751635
 20
471.5981062973
 30
0.0
 40
6.593691834664603
100
AcDbArc
 50
166.643409473
 51
193.3251694213
  0
ARC
  5
230
330
19B
100
AcDbEntity
  8
4240245_SCHLAUCH
  6
Continuous
 62
     7
100
AcDbCircle
 10
498.5180384927
 20
476.5985074397
 30
0.0
 40
6.592445268825425
100
AcDbArc
 50
175.1700834572
 51
193.3146408539
  0
LINE
  5
231
330
19B
100
AcDbEntity
  8
$DDT_AUDIT_GENERATED_(13A)
  6
Continuous
 62
     7
100
AcDbLine
 10
483.6760039854
 20
730.2601477937
 30
0.0
 11
514.6760039854
 21
730.2601477937
 31
0.0
  0
LINE
  5
232
330
19B
100
AcDbEntity
  8
$DDT_AUDIT_GENERATED_(13A)
  6
Continuous
 62
     7
100
AcDbLine
 10
514.6760039854
 20
655.2601477937
 30
0.0
 11
483.6760039854
 21
655.2601477937
 31
0.0
  0
LINE
  5
233
330
19B
100
AcDbEntity
  8
$DDT_AUDIT_GENERATED_(13A)
  6
Continuous
 62
     7
100
AcDbLine
 10
515.1760039854
 20
716.6101477937
 30
0.0
 11
515.1760039854
 21
729.7601477937
 31
0.0
  0
LINE
  5
234
330
19B
100
AcDbEntity
  8
$DDT_AUDIT_GENERATED_(13A)
  6
Continuous
 62
     7
100
AcDbLine
 10
515.1760039854
 20
655.7601477937
 30
0.0
 11
515.1760039854
 21
668.9268659232
 31
0.0
  0
LINE
  5
235
330
19B
100
AcDbEntity
  8
$DDT_AUDIT_GENERATED_(13A)
  6
Continuous
 62
     7
100
AcDbLine
 10
483.1760039854
 20
729.7601477937
 30
0.0
 11
483.1760039854
 21
655.7601477937
 31
0.0
  0
LINE
  5
236
330
19B
100
AcDbEntity
  8
$DDT_AUDIT_GENERATED_(13A)
  6
Continuous
 62
     7
100
AcDbLine
 10
511.1760039854
 20
592.2117331861
 30
0.0
 11
511.1760039854
 21
654.7601477937
 31
0.0
  0
LINE
  5
237
330
19B
100
AcDbEntity
  8
$DDT_AUDIT_GENERATED_(13A)
  6
Continuous
 62
     7
100
AcDbLine
 10
487.1760039854
 20
654.7601477937
 30
0.0
 11
487.1760039854
 21
548.4143493702
 31
0.0
  0
ARC
  5
238
330
19B
100
AcDbEntity
  8
$DDT_AUDIT_GENERATED_(13A)
  6
Continuous
 62
     7
100
AcDbCircle
 10
511.6760039854
 20
654.7601477937
 30
0.0
 40
0.5000000000000004
100
AcDbArc
 50
90.0
 51
180.0
  0
ARC
  5
239
330
19B
100
AcDbEntity
  8
$DDT_AUDIT_GENERATED_(13A)
  6
Continuous
 62
     7
100
AcDbCircle
 10
486.6760039854
 20
654.7601477937
 30
0.0
 40
0.5000000000000004
100
AcDbArc
 50
0.0
 51
90.0
  0
ARC
  5
23A
330
19B
100
AcDbEntity
  8
$DDT_AUDIT_GENERATED_(13A)
  6
Continuous
 62
     7
100
AcDbCircle
 10
483.6760039854
 20
729.7601477937
 30
0.0
 40
0.5000000000000004
100
AcDbArc
 50
90.0
 51
180.0
  0
ARC
  5
23B
330
19B
100
AcDbEntity
  8
$DDT_AUDIT_GENERATED_(13A)
  6
Continuous
 62
     7
100
AcDbCircle
 10
514.6760039854
 20
729.7601477937
 30
0.0
 40
0.5000000000000004
100
AcDbArc
 50
0.0
 51
90.0
  0
ARC
  5
23C
330
19B
100
AcDbEntity
  8
$DDT_AUDIT_GENERATED_(13A)
  6
Continuous
 62
     7
100
AcDbCircle
 10
514.6760039854
 20
655.7601477937
 30
0.0
 40
0.5000000000000004
100
AcDbArc
 50
270.0
 51
0.0
  0
ARC
  5
23D
330
19B
100
AcDbEntity
  8
$DDT_AUDIT_GENERATED_(13A)
  6
Continuous
 62
     7
100
AcDbCircle
 10
483.6760039854
 20
655.7601477937
 30
0.0
 40
0.5000000000000004
100
AcDbArc
 50
180.0
 51
270.0
  0
LINE
  5
23F
330
19B
100
AcDbEntity
  8
DV2_Standard
  6
CENTER2
 62
     7
100
AcDbLine
 10
464.1936604919
 20
499.6501477937
 30
0.0
 11
424.193661386
 21
499.6501477937
 31
0.0
  0
LINE
  5
240
330
19B
100
AcDbEntity
  8
DV2_Standard
  6
CENTER2
 62
     7
100
AcDbLine
 10
444.193660939
 20
519.6501473466
 30
0.0
 11
444.193660939
 21
479.6501482407
 31
0.0
  0
LINE
  5
241
330
19B
100
AcDbEntity
  8
DV2_Standard
  6
Continuous
 62
     7
100
AcDbLine
 10
515.1760039854
 20
716.6101477937
 30
0.0
 11
515.1760039854
 21
668.9268659232
 31
0.0
  0
ENDBLK
  5
243
330
19B
100
AcDbEntity
  8
0
100
AcDbBlockEnd
  0
BLOCK
  5
2B8
330
244
100
AcDbEntity
  8
0
100
AcDbBlockBegin
  2
SE2
 70
     0
 10
0.0
 20
0.0
 30
0.0
  3
SE2
  1

  0
LINE
  5
246
330
244
100
AcDbEntity
  8
$DDT_AUDIT_GENERATED_(60)
  6
Continuous
 62
     7
100
AcDbLine
 10
149.3954232837
 20
259.35
 30
0.0
 11
196.35
 21
259.35
 31
0.0
  0
LINE
  5
247
330
244
100
AcDbEntity
  8
$DDT_AUDIT_GENERATED_(60)
  6
Continuous
 62
     7
100
AcDbLine
 10
196.35
 20
259.35
 30
0.0
 11
210.35
 21
259.35
 31
0.0
  0
LINE
  5
248
330
244
100
AcDbEntity
  8
$DDT_AUDIT_GENERATED_(60)
  6
Continuous
 62
     7
100
AcDbLine
 10
211.35
 20
258.35
 30
0.0
 11
211.35
 21
215.35
 31
0.0
  0
ARC
  5
249
330
244
100
AcDbEntity
  8
$DDT_AUDIT_GENERATED_(60)
  6
Continuous
 62
     7
100
AcDbCircle
 10
149.3954232837
 20
274.35
 30
0.0
 40
14.99999999999998
100
AcDbArc
 50
224.0792098479
 51
270.0
  0
ARC
  5
24A
330
244
100
AcDbEntity
  8
$DDT_AUDIT_GENERATED_(60)
  6
Continuous
 62
     7
100
AcDbCircle
 10
116.35
 20
242.35
 30
0.0
 40
31.0
100
AcDbArc
 50
44.0792098479
 51
135.9207901521
  0
ARC
  5
24B
330
244
100
AcDbEntity
  8
$DDT_AUDIT_GENERATED_(60)
  6
Continuous
 62
     7
100
AcDbCircle
 10
83.3045767163
 20
274.35
 30
0.0
 40
15.0
100
AcDbArc
 50
270.0
 51
315.9207901521
  0
LINE
  5
24C
330
244
100
AcDbEntity
  8
$DDT_AUDIT_GENERATED_(60)
  6
Continuous
 62
     7
100
AcDbLine
 10
22.35
 20
259.35
 30
0.0
 11
36.35
 21
259.35
 31
0.0
  0
LINE
  5
24D
330
244
100
AcDbEntity
  8
$DDT_AUDIT_GENERATED_(60)
  6
Continuous
 62
     7
100
AcDbLine
 10
36.35
 20
259.35
 30
0.0
 11
83.3045767163
 21
259.35
 31
0.0
  0
ARC
  5
24E
330
244
100
AcDbEntity
  8
$DDT_AUDIT_GENERATED_(60)
  6
Continuous
 62
     7
100
AcDbCircle
 10
22.35
 20
258.35
 30
0.0
 40
1.000000000000001
100
AcDbArc
 50
90.0
 51
180.0
  0
ARC
  5
24F
330
244
100
AcDbEntity
  8
$DDT_AUDIT_GENERATED_(60)
  6
Continuous
 62
     7
100
AcDbCircle
 10
210.35
 20
258.35
 30
0.0
 40
1.000000000000001
100
AcDbArc
 50
0.0
 51
90.0
  0
LINE
  5
250
330
244
100
AcDbEntity
  8
$DDT_AUDIT_GENERATED_(60)
  6
Continuous
 62
     7
100
AcDbLine
 10
97.35
 20
114.35
 30
0.0
 11
97.35
 21
156.2155859877
 31
0.0
  0
ARC
  5
251
330
244
100
AcDbEntity
  8
$DDT_AUDIT_GENERATED_(60)
  6
Continuous
 62
     7
100
AcDbCircle
 10
82.35
 20
199.35
 30
0.0
 40
15.0
100
AcDbArc
 50
42.8269991795
 51
90.0
  0
ARC
  5
252
330
244
100
AcDbEntity
  8
$DDT_AUDIT_GENERATED_(60)
  6
Continuous
 62
     7
100
AcDbCircle
 10
105.35
 20
114.35
 30
0.0
 40
8.000000000000007
100
AcDbArc
 50
180.0
 51
270.0
  0
LINE
  5
253
330
244
100
AcDbEntity
  8
$DDT_AUDIT_GENERATED_(60)
  6
Continuous
 62
     7
100
AcDbLine
 10
210.35
 20
214.35
 30
0.0
 11
196.35
 21
214.35
 31
0.0
  0
LINE
  5
254
330
244
100
AcDbEntity
  8
$DDT_AUDIT_GENERATED_(60)
  6
Continuous
 62
     7
100
AcDbLine
 10
196.35
 20
214.35
 30
0.0
 11
150.35
 21
214.35
 31
0.0
  0
LINE
  5
255
330
244
100
AcDbEntity
  8
$DDT_AUDIT_GENERATED_(60)
  6
Continuous
 62
     7
100
AcDbLine
 10
36.35
 20
214.35
 30
0.0
 11
22.35
 21
214.35
 31
0.0
  0
LINE
  5
256
330
244
100
AcDbEntity
  8
$DDT_AUDIT_GENERATED_(60)
  6
Continuous
 62
     7
100
AcDbLine
 10
82.35
 20
214.35
 30
0.0
 11
36.35
 21
214.35
 31
0.0
  0
LINE
  5
257
330
244
100
AcDbEntity
  8
$DDT_AUDIT_GENERATED_(60)
  6
Continuous
 62
     7
100
AcDbLine
 10
127.35
 20
106.35
 30
0.0
 11
105.35
 21
106.35
 31
0.0
  0
LINE
  5
258
330
244
100
AcDbEntity
  8
$DDT_AUDIT_GENERATED_(60)
  6
Continuous
 62
     7
100
AcDbLine
 10
21.35
 20
215.35
 30
0.0
 11
21.35
 21
258.35
 31
0.0
  0
ARC
  5
259
330
244
100
AcDbEntity
  8
$DDT_AUDIT_GENERATED_(60)
  6
Continuous
 62
     7
100
AcDbCircle
 10
127.35
 20
114.35
 30
0.0
 40
8.000000000000002
100
AcDbArc
 50
270.0
 51
0.0
  0
LINE
  5
25A
330
244
100
AcDbEntity
  8
$DDT_AUDIT_GENERATED_(60)
  6
Continuous
 62
     7
100
AcDbLine
 10
135.35
 20
156.2142652273
 30
0.0
 11
135.35
 21
114.35
 31
0.0
  0
ARC
  5
25B
330
244
100
AcDbEntity
  8
$DDT_AUDIT_GENERATED_(60)
  6
Continuous
 62
     7
100
AcDbCircle
 10
150.35
 20
199.35
 30
0.0
 40
15.00000000000001
100
AcDbArc
 50
90.0
 51
137.1601438253
  0
ARC
  5
25C
330
244
100
AcDbEntity
  8
$DDT_AUDIT_GENERATED_(60)
  6
Continuous
 62
     7
100
AcDbCircle
 10
210.35
 20
215.35
 30
0.0
 40
1.000000000000001
100
AcDbArc
 50
270.0
 51
0.0
  0
ARC
  5
25D
330
244
100
AcDbEntity
  8
$DDT_AUDIT_GENERATED_(60)
  6
Continuous
 62
     7
100
AcDbCircle
 10
22.35
 20
215.35
 30
0.0
 40
1.000000000000001
100
AcDbArc
 50
180.0
 51
270.0
  0
ARC
  5
25E
330
244
100
AcDbEntity
  8
$DDT_AUDIT_GENERATED_(60)
  6
Continuous
 62
     7
100
AcDbCircle
 10
116.35
 20
242.35
 30
0.0
 40
26.4
100
AcDbArc
 50
0.0
 51
209.4052553577
  0
ARC
  5
25F
330
244
100
AcDbEntity
  8
$DDT_AUDIT_GENERATED_(60)
  6
Continuous
 62
     7
100
AcDbCircle
 10
116.35
 20
242.35
 30
0.0
 40
26.4
100
AcDbArc
 50
251.9813976449
 51
288.0186023551
  0
ARC
  5
260
330
244
100
AcDbEntity
  8
$DDT_AUDIT_GENERATED_(60)
  6
Continuous
 62
     7
100
AcDbCircle
 10
116.35
 20
242.35
 30
0.0
 40
26.4
100
AcDbArc
 50
330.6048616766
 51
0.0
  0
ARC
  5
261
330
244
100
AcDbEntity
  8
$DDT_AUDIT_GENERATED_(90)
  6
Continuous
 62
     7
100
AcDbCircle
 10
174.35
 20
236.85
 30
0.0
 40
15.25
100
AcDbArc
 50
188.4844497414
 51
171.5155502586
  0
ARC
  5
262
330
244
100
AcDbEntity
  8
$DDT_AUDIT_GENERATED_(90)
  6
Continuous
 62
     7
100
AcDbCircle
 10
174.35
 20
236.85
 30
0.0
 40
15.25
100
AcDbArc
 50
171.5155502586
 51
188.4844497414
  0
LINE
  5
263
330
244
100
AcDbEntity
  8
$DDT_AUDIT_GENERATED_(90)
  6
Continuous
 62
     7
100
AcDbLine
 10
159.266896871
 20
239.1
 30
0.0
 11
159.3174519791
 21
239.1
 31
0.0
  0
LINE
  5
264
330
244
100
AcDbEntity
  8
$DDT_AUDIT_GENERATED_(90)
  6
Continuous
 62
     7
100
AcDbLine
 10
159.266896871
 20
234.6
 30
0.0
 11
159.3174519791
 21
234.6
 31
0.0
  0
ELLIPSE
  5
265
330
244
100
AcDbEntity
  8
$DDT_AUDIT_GENERATED_(AC)
  6
Continuous
 62
     7
100
AcDbEllipse
 10
131.3511442042
 20
163.1407545896
 30
0.0
 11
-8.000000000000099
 21
-2.542410726391608E-11
 31
0.0
210
0.0
220
0.0
230
1.0
 40
0.999657325
 41
1.57079632679172
 42
3.141592653589793
  0
LINE
  5
266
330
244
100
AcDbEntity
  8
$DDT_AUDIT_GENERATED_(AC)
  6
Continuous
 62
     7
100
AcDbLine
 10
93.3511442042
 20
163.1407545896
 30
0.0
 11
93.3511442042
 21
163.2611685519
 31
0.0
  0
ELLIPSE
  5
267
330
244
100
AcDbEntity
  8
$DDT_AUDIT_GENERATED_(AC)
  6
Continuous
 62
     7
100
AcDbEllipse
 10
101.3511442042
 20
163.1407545896
 30
0.0
 11
-8.000000000000105
 21
-1.024180740216707E-11
 31
0.0
210
0.0
220
0.0
230
1.0
 40
0.999657325
 41
0.0
 42
1.570796326793617
  0
LINE
  5
268
330
244
100
AcDbEntity
  8
$DDT_AUDIT_GENERATED_(AC)
  6
Continuous
 62
     7
100
AcDbLine
 10
101.3511442042
 20
155.1432561173
 30
0.0
 11
101.3511442042
 21
155.1434959898
 31
0.0
  0
LINE
  5
269
330
244
100
AcDbEntity
  8
$DDT_AUDIT_GENERATED_(AC)
  6
Continuous
 62
     7
100
AcDbLine
 10
131.3511442042
 20
155.1432561173
 30
0.0
 11
131.3511442042
 21
155.1434959898
 31
0.0
  0
LINE
  5
26A
330
244
100
AcDbEntity
  8
$DDT_AUDIT_GENERATED_(AC)
  6
Continuous
 62
     7
100
AcDbLine
 10
93.3511442042
 20
163.2611685519
 30
0.0
 11
93.3511442042
 21
241.6708845594
 31
0.0
  0
LINE
  5
26B
330
244
100
AcDbEntity
  8
$DDT_AUDIT_GENERATED_(AC)
  6
Continuous
 62
     7
100
AcDbLine
 10
139.3511442042
 20
163.2611685519
 30
0.0
 11
139.3511442042
 21
163.1407545896
 31
0.0
  0
LINE
  5
26C
330
244
100
AcDbEntity
  8
$DDT_AUDIT_GENERATED_(AC)
  6
Continuous
 62
     7
100
AcDbLine
 10
139.3511442042
 20
241.6971010947
 30
0.0
 11
139.3511442042
 21
163.2611685519
 31
0.0
  0
ELLIPSE
  5
26D
330
244
100
AcDbEntity
  8
$DDT_AUDIT_GENERATED_(AC)
  6
Continuous
 62
     7
100
AcDbEllipse
 10
116.35
 20
243.4353362142
 30
0.0
 11
23.05633597053688
 21
-7.405048796371714E-10
 31
0.0
210
0.0
220
0.0
230
1.0
 40
0.999657325
 41
-0.0666308444109791
 42
3.209852216824563
  0
LINE
  5
26E
330
244
100
AcDbEntity
  8
$DDT_AUDIT_GENERATED_(AC)
  6
Continuous
 62
     7
100
AcDbLine
 10
122.0010681286
 20
217.2447579859
 30
0.0
 11
122.0010681286
 21
217.2455115035
 31
0.0
  0
LINE
  5
26F
330
244
100
AcDbEntity
  8
$DDT_AUDIT_GENERATED_(AC)
  6
Continuous
 62
     7
100
AcDbLine
 10
101.3511442042
 20
155.1432561173
 30
0.0
 11
131.3511442042
 21
155.1432561173
 31
0.0
  0
ARC
  5
270
330
244
100
AcDbEntity
  8
$DDT_AUDIT_GENERATED_(AC)
  6
Continuous
 62
     7
100
AcDbCircle
 10
121.0554532363
 20
241.0171723959
 30
0.0
 40
18.47250935934319
100
AcDbArc
 50
351.9579474766
 51
352.0962455705
  0
ARC
  5
271
330
244
100
AcDbEntity
  8
$DDT_AUDIT_GENERATED_(AC)
  6
Continuous
 62
     7
100
AcDbCircle
 10
109.9666451256
 20
240.6697311777
 30
0.0
 40
16.7623978459095
100
AcDbArc
 50
187.5555509737
 51
187.763773698
  0
LINE
  5
272
330
244
100
AcDbEntity
  8
$DDT_AUDIT_GENERATED_(AC)
  6
Continuous
 62
     7
100
AcDbLine
 10
104.5034485876
 20
175.0027662622
 30
0.0
 11
104.5034485876
 21
214.5293366518
 31
0.0
  0
ARC
  5
273
330
244
100
AcDbEntity
  8
$DDT_AUDIT_GENERATED_(AC)
  6
Continuous
 62
     7
100
AcDbCircle
 10
108.2980192945
 20
174.9351305039
 30
0.0
 40
3.782009294653412
100
AcDbArc
 50
178.9253399695
 51
271.0896223288
  0
ARC
  5
274
330
244
100
AcDbEntity
  8
$DDT_AUDIT_GENERATED_(AC)
  6
Continuous
 62
     7
100
AcDbCircle
 10
107.0517710518
 20
214.6884451328
 30
0.0
 40
2.55336084876179
100
AcDbArc
 50
86.2358477768
 51
183.6288972725
  0
LINE
  5
275
330
244
100
AcDbEntity
  8
$DDT_AUDIT_GENERATED_(AC)
  6
Continuous
 62
     7
100
AcDbLine
 10
124.3335260086
 20
171.1409074672
 30
0.0
 11
108.3669739914
 21
171.1409074672
 31
0.0
  0
LINE
  5
276
330
244
100
AcDbEntity
  8
$DDT_AUDIT_GENERATED_(AC)
  6
Continuous
 62
     7
100
AcDbLine
 10
107.2167788294
 20
217.2447579859
 30
0.0
 11
110.6989318714
 21
217.2447579859
 31
0.0
  0
ARC
  5
277
330
244
100
AcDbEntity
  8
$DDT_AUDIT_GENERATED_(AC)
  6
Continuous
 62
     7
100
AcDbCircle
 10
115.760050074
 20
500.6036589132
 30
0.0
 40
283.4033199242598
100
AcDbArc
 50
268.9767117956
 51
271.2618483522
  0
ARC
  5
278
330
244
100
AcDbEntity
  8
$DDT_AUDIT_GENERATED_(AC)
  6
Continuous
 62
     7
100
AcDbCircle
 10
124.4015682251
 20
174.9361149689
 30
0.0
 40
3.782863118815547
100
AcDbArc
 50
268.9094190287
 51
1.0533849551
  0
LINE
  5
279
330
244
100
AcDbEntity
  8
$DDT_AUDIT_GENERATED_(AC)
  6
Continuous
 62
     7
100
AcDbLine
 10
128.1965514124
 20
214.5293366518
 30
0.0
 11
128.1965514124
 21
175.0027662622
 31
0.0
  0
LINE
  5
27A
330
244
100
AcDbEntity
  8
$DDT_AUDIT_GENERATED_(AC)
  6
Continuous
 62
     7
100
AcDbLine
 10
122.0010681286
 20
217.2447579859
 30
0.0
 11
125.4837211706
 21
217.2447579859
 31
0.0
  0
ARC
  5
27B
330
244
100
AcDbEntity
  8
$DDT_AUDIT_GENERATED_(AC)
  6
Continuous
 62
     7
100
AcDbCircle
 10
125.6385811878
 20
214.6912418218
 30
0.0
 40
2.558361921628465
100
AcDbArc
 50
356.3141345406
 51
93.5376023663
  0
LINE
  5
27C
330
244
100
AcDbEntity
  8
$DDT_AUDIT_GENERATED_(CE)
  6
Continuous
 62
     7
100
AcDbLine
 10
75.85
 20
311.3504569145
 30
0.0
 11
6.85
 21
311.3504569145
 31
0.0
  0
LINE
  5
27D
330
244
100
AcDbEntity
  8
$DDT_AUDIT_GENERATED_(CE)
  6
Continuous
 62
     7
100
AcDbLine
 10
61.35
 20
278.3504769185
 30
0.0
 11
21.35
 21
278.3504769185
 31
0.0
  0
ARC
  5
27E
330
244
100
AcDbEntity
  8
$DDT_AUDIT_GENERATED_(CE)
  6
Continuous
 62
     7
100
AcDbCircle
 10
74.0466785701
 20
280.1859399048
 30
0.0
 40
1.499999999999999
100
AcDbArc
 50
271.8765314455
 51
358.5
  0
ARC
  5
27F
330
244
100
AcDbEntity
  8
$DDT_AUDIT_GENERATED_(CE)
  6
Continuous
 62
     7
100
AcDbCircle
 10
8.6533214299
 20
280.1859399048
 30
0.0
 40
1.499999999999992
100
AcDbArc
 50
181.5
 51
268.1234685545
  0
LINE
  5
280
330
244
100
AcDbEntity
  8
$DDT_AUDIT_GENERATED_(CE)
  6
Continuous
 62
     7
100
AcDbLine
 10
6.3501713375
 20
310.8373684404
 30
0.0
 11
7.1538354424
 21
280.1466744823
 31
0.0
  0
LINE
  5
281
330
244
100
AcDbEntity
  8
$DDT_AUDIT_GENERATED_(CE)
  6
Continuous
 62
     7
100
AcDbLine
 10
75.5461645576
 20
280.1466744823
 30
0.0
 11
76.3498286625
 21
310.8373684404
 31
0.0
  0
ARC
  5
282
330
244
100
AcDbEntity
  8
$DDT_AUDIT_GENERATED_(CE)
  6
Continuous
 62
     7
100
AcDbCircle
 10
75.85
 20
310.8504569145
 30
0.0
 40
0.500000000000002
100
AcDbArc
 50
358.5
 51
90.0
  0
ARC
  5
283
330
244
100
AcDbEntity
  8
$DDT_AUDIT_GENERATED_(CE)
  6
Continuous
 62
     7
100
AcDbCircle
 10
6.85
 20
310.8504569145
 30
0.0
 40
0.5000000000000003
100
AcDbArc
 50
90.0
 51
181.5
  0
ARC
  5
284
330
244
100
AcDbEntity
  8
$DDT_AUDIT_GENERATED_(CE)
  6
Continuous
 62
     7
100
AcDbCircle
 10
41.35
 20
1278.1504569145
 30
0.0
 40
1000.0
100
AcDbArc
 50
271.1459919984
 51
271.8765314455
  0
ARC
  5
285
330
244
100
AcDbEntity
  8
$DDT_AUDIT_GENERATED_(CE)
  6
Continuous
 62
     7
100
AcDbCircle
 10
41.35
 20
1278.1504569145
 30
0.0
 40
1000.0
100
AcDbArc
 50
268.1234685545
 51
268.8540080016
  0
LINE
  5
286
330
244
100
AcDbEntity
  8
$DDT_AUDIT_GENERATED_(1F3)
  6
Continuous
 62
     7
100
AcDbLine
 10
22.35
 20
259.35
 30
0.0
 11
22.3
 21
259.35
 31
0.0
  0
LINE
  5
287
330
244
100
AcDbEntity
  8
$DDT_AUDIT_GENERATED_(1F3)
  6
Continuous
 62
     7
100
AcDbLine
 10
60.6
 20
259.55
 30
0.0
 11
60.6
 21
278.3504769185
 31
0.0
  0
LINE
  5
288
330
244
100
AcDbEntity
  8
$DDT_AUDIT_GENERATED_(1F3)
  6
Continuous
 62
     7
100
AcDbLine
 10
22.1
 20
278.3504769185
 30
0.0
 11
22.1
 21
259.55
 31
0.0
  0
ARC
  5
289
330
244
100
AcDbEntity
  8
$DDT_AUDIT_GENERATED_(1F3)
  6
Continuous
 62
     7
100
AcDbCircle
 10
22.3
 20
259.55
 30
0.0
 40
0.1999999999999919
100
AcDbArc
 50
180.0
 51
270.0
  0
ARC
  5
28A
330
244
100
AcDbEntity
  8
$DDT_AUDIT_GENERATED_(1F3)
  6
Continuous
 62
     7
100
AcDbCircle
 10
60.4
 20
259.55
 30
0.0
 40
0.1999999999999919
100
AcDbArc
 50
270.0
 51
0.0
  0
LINE
  5
28B
330
244
100
AcDbEntity
  8
$DDT_AUDIT_GENERATED_(CE)
  6
Continuous
 62
     7
100
AcDbLine
 10
225.85
 20
311.3504569145
 30
0.0
 11
156.85
 21
311.3504569145
 31
0.0
  0
LINE
  5
28C
330
244
100
AcDbEntity
  8
$DDT_AUDIT_GENERATED_(CE)
  6
Continuous
 62
     7
100
AcDbLine
 10
211.35
 20
278.3504769185
 30
0.0
 11
171.35
 21
278.3504769185
 31
0.0
  0
ARC
  5
28D
330
244
100
AcDbEntity
  8
$DDT_AUDIT_GENERATED_(CE)
  6
Continuous
 62
     7
100
AcDbCircle
 10
224.0466785701
 20
280.1859399048
 30
0.0
 40
1.499999999999999
100
AcDbArc
 50
271.8765314455
 51
358.5
  0
ARC
  5
28E
330
244
100
AcDbEntity
  8
$DDT_AUDIT_GENERATED_(CE)
  6
Continuous
 62
     7
100
AcDbCircle
 10
158.6533214299
 20
280.1859399048
 30
0.0
 40
1.499999999999998
100
AcDbArc
 50
181.5
 51
268.1234685545
  0
LINE
  5
28F
330
244
100
AcDbEntity
  8
$DDT_AUDIT_GENERATED_(CE)
  6
Continuous
 62
     7
100
AcDbLine
 10
156.3501713375
 20
310.8373684404
 30
0.0
 11
157.1538354424
 21
280.1466744823
 31
0.0
  0
LINE
  5
290
330
244
100
AcDbEntity
  8
$DDT_AUDIT_GENERATED_(CE)
  6
Continuous
 62
     7
100
AcDbLine
 10
225.5461645576
 20
280.1466744823
 30
0.0
 11
226.3498286625
 21
310.8373684404
 31
0.0
  0
ARC
  5
291
330
244
100
AcDbEntity
  8
$DDT_AUDIT_GENERATED_(CE)
  6
Continuous
 62
     7
100
AcDbCircle
 10
225.85
 20
310.8504569145
 30
0.0
 40
0.500000000000002
100
AcDbArc
 50
358.5
 51
90.0
  0
ARC
  5
292
330
244
100
AcDbEntity
  8
$DDT_AUDIT_GENERATED_(CE)
  6
Continuous
 62
     7
100
AcDbCircle
 10
156.85
 20
310.8504569145
 30
0.0
 40
0.5000000000000003
100
AcDbArc
 50
90.0
 51
181.5
  0
ARC
  5
293
330
244
100
AcDbEntity
  8
$DDT_AUDIT_GENERATED_(CE)
  6
Continuous
 62
     7
100
AcDbCircle
 10
191.35
 20
1278.1504569145
 30
0.0
 40
1000.0
100
AcDbArc
 50
271.1459919984
 51
271.8765314455
  0
ARC
  5
294
330
244
100
AcDbEntity
  8
$DDT_AUDIT_GENERATED_(CE)
  6
Continuous
 62
     7
100
AcDbCircle
 10
191.35
 20
1278.1504569145
 30
0.0
 40
1000.0
100
AcDbArc
 50
268.1234685545
 51
268.8540080016
  0
LINE
  5
295
330
244
100
AcDbEntity
  8
$DDT_AUDIT_GENERATED_(1F3)
  6
Continuous
 62
     7
100
AcDbLine
 10
210.4
 20
259.35
 30
0.0
 11
210.35
 21
259.35
 31
0.0
  0
LINE
  5
296
330
244
100
AcDbEntity
  8
$DDT_AUDIT_GENERATED_(1F3)
  6
Continuous
 62
     7
100
AcDbLine
 10
210.6
 20
259.55
 30
0.0
 11
210.6
 21
278.3504769185
 31
0.0
  0
LINE
  5
297
330
244
100
AcDbEntity
  8
$DDT_AUDIT_GENERATED_(1F3)
  6
Continuous
 62
     7
100
AcDbLine
 10
172.1
 20
278.3504769185
 30
0.0
 11
172.1
 21
259.55
 31
0.0
  0
ARC
  5
298
330
244
100
AcDbEntity
  8
$DDT_AUDIT_GENERATED_(1F3)
  6
Continuous
 62
     7
100
AcDbCircle
 10
172.3
 20
259.55
 30
0.0
 40
0.1999999999999988
100
AcDbArc
 50
180.0
 51
270.0
  0
ARC
  5
299
330
244
100
AcDbEntity
  8
$DDT_AUDIT_GENERATED_(1F3)
  6
Continuous
 62
     7
100
AcDbCircle
 10
210.4
 20
259.55
 30
0.0
 40
0.1999999999999919
100
AcDbArc
 50
270.0
 51
0.0
  0
LINE
  5
29A
330
244
100
AcDbEntity
  8
$DDT_AUDIT_GENERATED_(D2)
  6
Continuous
 62
     7
100
AcDbLine
 10
325.6
 20
242.6415327269
 30
0.0
 11
325.6
 21
243.3350214414
 31
0.0
  0
LINE
  5
29B
330
244
100
AcDbEntity
  8
$DDT_AUDIT_GENERATED_(D2)
  6
Continuous
 62
     7
100
AcDbLine
 10
307.1
 20
243.3350214414
 30
0.0
 11
307.1
 21
242.6415327269
 31
0.0
  0
ARC
  5
29C
330
244
100
AcDbEntity
  8
$DDT_AUDIT_GENERATED_(D2)
  6
Continuous
 62
     7
100
AcDbCircle
 10
299.4260927472
 20
243.3411300162
 30
0.0
 40
1.000000000000002
100
AcDbArc
 50
180.5
 51
268.0564039047
  0
ARC
  5
29D
330
244
100
AcDbEntity
  8
$DDT_AUDIT_GENERATED_(D2)
  6
Continuous
 62
     7
100
AcDbCircle
 10
333.2739072528
 20
243.3411300162
 30
0.0
 40
1.000000000000158
100
AcDbArc
 50
271.9435960953
 51
359.5
  0
ARC
  5
29E
330
244
100
AcDbEntity
  8
$DDT_AUDIT_GENERATED_(D2)
  6
Continuous
 62
     7
100
AcDbCircle
 10
316.35
 20
742.054054817
 30
0.0
 40
499.9999999999999
100
AcDbArc
 50
268.0564039045
 51
268.9049269383
  0
ARC
  5
29F
330
244
100
AcDbEntity
  8
$DDT_AUDIT_GENERATED_(D2)
  6
Continuous
 62
     7
100
AcDbCircle
 10
316.35
 20
742.054054817
 30
0.0
 40
500.0
100
AcDbArc
 50
271.0950730617
 51
271.9435960955
  0
LINE
  5
2A0
330
244
100
AcDbEntity
  8
$DDT_AUDIT_GENERATED_(D2)
  6
Continuous
 62
     7
100
AcDbLine
 10
297.9046481769
 20
303.0883960944
 30
0.0
 11
298.4261308241
 21
243.3324034807
 31
0.0
  0
LINE
  5
2A1
330
244
100
AcDbEntity
  8
$DDT_AUDIT_GENERATED_(D2)
  6
Continuous
 62
     7
100
AcDbLine
 10
334.2738691759
 20
243.3324034807
 30
0.0
 11
334.7953518231
 21
303.0883960944
 31
0.0
  0
ARC
  5
2A2
330
244
100
AcDbEntity
  8
$DDT_AUDIT_GENERATED_(D2)
  6
Continuous
 62
     7
100
AcDbCircle
 10
325.9
 20
242.4453204057
 30
0.0
 40
0.3000000000000225
100
AcDbArc
 50
180.0
 51
271.0950730617
  0
ARC
  5
2A3
330
244
100
AcDbEntity
  8
$DDT_AUDIT_GENERATED_(D2)
  6
Continuous
 62
     7
100
AcDbCircle
 10
306.8
 20
242.4453204057
 30
0.0
 40
0.3000000000000149
100
AcDbArc
 50
268.9049269383
 51
0.0
  0
LINE
  5
2A4
330
244
100
AcDbEntity
  8
$DDT_AUDIT_GENERATED_(E7)
  6
Continuous
 62
     7
100
AcDbLine
 10
291.35
 20
311.1504569145
 30
0.0
 11
341.35
 21
311.1504569145
 31
0.0
  0
ARC
  5
2A5
330
244
100
AcDbEntity
  8
$DDT_AUDIT_GENERATED_(E7)
  6
Continuous
 62
     7
100
AcDbCircle
 10
316.35
 20
802.7250658005
 30
0.0
 40
500.0
100
AcDbArc
 50
272.1850434561
 51
272.7514227944
  0
ARC
  5
2A6
330
244
100
AcDbEntity
  8
$DDT_AUDIT_GENERATED_(E7)
  6
Continuous
 62
     7
100
AcDbCircle
 10
316.35
 20
802.7250658005
 30
0.0
 40
499.9999999999999
100
AcDbArc
 50
267.248595956
 51
267.8149565439
  0
SPLINE
  5
2A7
330
244
100
AcDbEntity
  8
$DDT_AUDIT_GENERATED_(E7)
  6
Continuous
 62
     7
100
AcDbSpline
210
0.0
220
0.0
230
1.0
 70
     8
 71
     3
 72
    13
 73
     9
 74
     0
 42
0.0000000058206255
 43
0.0000000001
 40
0.0
 40
0.0
 40
0.0
 40
0.0
 40
0.266898684929234
 40
0.3870522987010863
 40
0.4999535330695423
 40
0.6128726361404151
 40
0.7330637564567611
 40
1.0
 40
1.0
 40
1.0
 40
1.0
 10
340.3512648646338
 20
303.3014587443927
 30
0.0
 10
340.5175402996175
 20
303.3065927846261
 30
0.0
 10
340.7212285255513
 20
303.3200920063423
 30
0.0
 10
340.9933564159891
 20
303.418749722472
 30
0.0
 10
341.1521498458365
 20
303.5387159670789
 30
0.0
 10
341.2640849467798
 20
303.7032886021922
 30
0.0
 10
341.3492343259287
 20
303.9799836123937
 30
0.0
 10
341.3528872360944
 20
304.1841038810987
 30
0.0
 10
341.3500000004109
 20
304.350456914534
 30
0.0
  0
SPLINE
  5
2A8
330
244
100
AcDbEntity
  8
$DDT_AUDIT_GENERATED_(E7)
  6
Continuous
 62
     7
100
AcDbSpline
210
0.0
220
0.0
230
1.0
 70
     8
 71
     3
 72
    13
 73
     9
 74
     0
 42
0.0000000058206254
 43
0.0000000001
 40
0.0
 40
0.0
 40
0.0
 40
0.0
 40
0.2669362428965684
 40
0.3871273625092125
 40
0.500046465238568
 40
0.6129476999474952
 40
0.733101314423773
 40
1.0
 40
1.0
 40
1.0
 40
1.0
 10
291.3499999994687
 20
304.350456914536
 30
0.0
 10
291.347112763669
 20
304.1841038795224
 30
0.0
 10
291.350765673979
 20
303.9799836088537
 30
0.0
 10
291.4359150572752
 20
303.7032885971437
 30
0.0
 10
291.5478501627789
 20
303.5387159626153
 30
0.0
 10
291.7066435972268
 20
303.4187497196781
 30
0.0
 10
291.9787714928555
 20
303.3200920054263
 30
0.0
 10
292.1824597216912
 20
303.3065927836362
 30
0.0
 10
292.3487351590575
 20
303.3014587432481
 30
0.0
  0
LINE
  5
2A9
330
244
100
AcDbEntity
  8
$DDT_AUDIT_GENERATED_(E7)
  6
Continuous
 62
     7
100
AcDbLine
 10
291.35
 20
311.1504569145
 30
0.0
 11
291.35
 21
304.3304569145
 31
0.0
  0
LINE
  5
2AA
330
244
100
AcDbEntity
  8
$DDT_AUDIT_GENERATED_(E7)
  6
Continuous
 62
     7
100
AcDbLine
 10
341.35
 20
304.3304569145
 30
0.0
 11
341.35
 21
311.1504569145
 31
0.0
  0
ARC
  5
2AB
330
244
100
AcDbEntity
  8
$DDT_AUDIT_GENERATED_(E7)
  6
Continuous
 62
     7
100
AcDbCircle
 10
297.2979584599
 20
303.3883960944
 30
0.0
 40
0.3000000000001063
100
AcDbArc
 50
267.8149565444
 51
270.0
  0
ARC
  5
2AC
330
244
100
AcDbEntity
  8
$DDT_AUDIT_GENERATED_(E7)
  6
Continuous
 62
     7
100
AcDbCircle
 10
335.4020415401
 20
303.3883960944
 30
0.0
 40
0.2999999999999999
100
AcDbArc
 50
270.0
 51
272.1850434556
  0
LINE
  5
2AD
330
244
100
AcDbEntity
  8
$DDT_AUDIT_GENERATED_(E7)
  6
Continuous
 62
     7
100
AcDbLine
 10
297.2979584599
 20
303.0883960944
 30
0.0
 11
335.4020415401
 21
303.0883960944
 31
0.0
  0
CIRCLE
  5
2AE
330
244
100
AcDbEntity
  8
$DDT_AUDIT_GENERATED_(13A)
  6
Continuous
 62
     7
100
AcDbCircle
 10
316.35
 20
256.3681138681
 30
0.0
 40
16.0
  0
LINE
  5
2AF
330
244
100
AcDbEntity
  8
$DDT_AUDIT_GENERATED_(13A)
  6
Continuous
 62
     7
100
AcDbLine
 10
315.0
 20
240.4251687199
 30
0.0
 11
315.0
 21
240.3681138681
 31
0.0
  0
LINE
  5
2B0
330
244
100
AcDbEntity
  8
$DDT_AUDIT_GENERATED_(13A)
  6
Continuous
 62
     7
100
AcDbLine
 10
317.7
 20
240.3681138681
 30
0.0
 11
317.7
 21
240.4251687199
 31
0.0
  0
LINE
  5
2B2
330
244
100
AcDbEntity
  8
DV3_Standard
  6
CENTER2
 62
     7
100
AcDbLine
 10
336.349999553
 20
311.1504569145
 30
0.0
 11
296.350000447
 21
311.1504569145
 31
0.0
  0
LINE
  5
2B3
330
244
100
AcDbEntity
  8
DV3_Standard
  6
CENTER2
 62
     7
100
AcDbLine
 10
316.35
 20
331.1504564675
 30
0.0
 11
316.35
 21
291.1504573616
 31
0.0
  0
LINE
  5
2B4
330
244
100
AcDbEntity
  8
DV3_Standard
  6
CENTER2
 62
     7
100
AcDbLine
 10
61.349999553
 20
311.3504569145
 30
0.0
 11
21.350000447
 21
311.3504569145
 31
0.0
  0
LINE
  5
2B5
330
244
100
AcDbEntity
  8
DV3_Standard
  6
CENTER2
 62
     7
100
AcDbLine
 10
41.35
 20
331.3504564675
 30
0.0
 11
41.35
 21
291.3504573616
 31
0.0
  0
LINE
  5
2B6
330
244
100
AcDbEntity
  8
DV3_Standard
  6
CENTER2
 62
     7
100
AcDbLine
 10
211.349999553
 20
311.3504569145
 30
0.0
 11
171.350000447
 21
311.3504569145
 31
0.0
  0
LINE
  5
2B7
330
244
100
AcDbEntity
  8
DV3_Standard
  6
CENTER2
 62
     7
100
AcDbLine
 10
191.35
 20
331.3504564675
 30
0.0
 11
191.35
 21
291.3504573616
 31
0.0
  0
ENDBLK
  5
2B9
330
244
100
AcDbEntity
  8
0
100
AcDbBlockEnd
  0
ENDSEC
  0
SECTION
  2
ENTITIES
  0
INSERT
  5
5F
330
1F
100
AcDbEntity
  8
Default
100
AcDbBlockReference
  2
SE
 10
0.0
 20
0.0
 30
0.0
  0
INSERT
  5
19C
330
1F
100
AcDbEntity
  8
Default
100
AcDbBlockReference
  2
SE1
 10
0.0
 20
0.0
 30
0.0
  0
INSERT
  5
245
330
1F
100
AcDbEntity
  8
Default
100
AcDbBlockReference
  2
SE2
 10
0.0
 20
0.0
 30
0.0
  0
TEXT
  5
2BB
330
1F
100
AcDbEntity
  8
Default
  6
Continuous
 62
     7
100
AcDbText
 10
5.9362635081
 20
53.4225120485
 30
0.0
 40
10.0
  1
Grohe AG^J
  7
SEACAD_seiso_ttf
 11
5.9362635081
 21
63.4225120485
 31
0.0
100
AcDbText
 73
     3
  0
TEXT
  5
2BC
330
1F
100
AcDbEntity
  8
Default
  6
Continuous
 62
     7
100
AcDbText
 10
5.9362635081
 20
37.0588756849
 30
0.0
 40
10.0
  1
 
  7
SEACAD_seiso_ttf
 11
5.9362635081
 21
47.0588756849
 31
0.0
100
AcDbText
 73
     3
  0
TEXT
  5
2BD
330
1F
100
AcDbEntity
  8
Default
  6
Continuous
 62
     7
100
AcDbText
 10
5.9362635081
 20
20.6952393213
 30
0.0
 40
10.0
  1
ecn: 
  7
SEACAD_seiso_ttf
 11
5.9362635081
 21
30.6952393213
 31
0.0
100
AcDbText
 73
     3
  0
TEXT
  5
2BE
330
1F
100
AcDbEntity
  8
Default
  6
Continuous
 62
     7
100
AcDbText
 10
5.9362635081
 20
4.3316029576
 30
0.0
 40
10.0
  1
unit: mm
  7
SEACAD_seiso_ttf
 11
5.9362635081
 21
14.3316029576
 31
0.0
100
AcDbText
 73
     3
  0
LINE
  5
2BF
330
1F
100
AcDbEntity
  8
Default
  6
Continuous
 62
     7
100
AcDbLine
 10
0.0
 20
0.0
 30
0.0
 11
100.0
 21
0.0
 31
0.0
  0
LINE
  5
2C0
330
1F
100
AcDbEntity
  8
Default
  6
Continuous
 62
     7
100
AcDbLine
 10
0.0
 20
0.0
 30
0.0
 11
0.0
 21
100.0
 31
0.0
  0
TEXT
  5
2C1
330
1F
100
AcDbEntity
  8
Default
  6
Continuous
 62
     7
100
AcDbText
 10
24.3923665681
 20
-18.2375342018
 30
0.0
 40
10.0
  1
100 mm
  7
SEACAD_seiso_ttf
 11
24.3923665681
 21
-8.2375342018
 31
0.0
100
AcDbText
 73
     3
  0
TEXT
  5
2C2
330
1F
100
AcDbEntity
  8
Default
  6
Continuous
 62
     7
100
AcDbText
 10
-7.6150308803
 20
24.6231930421
 30
0.0
 40
10.0
  1
100 mm
 50
90.0
  7
SEACAD_seiso_ttf
 11
-17.6150308803
 21
24.6231930421
 31
0.0
100
AcDbText
 73
     3
  0
TEXT
  5
2C3
330
1F
100
AcDbEntity
  8
Default
  6
Continuous
 62
     7
100
AcDbText
 10
28.4878128572
 20
20.0907663715
 30
0.0
 40
10.0
  1
214084
  7
SEACAD_seiso_ttf
 11
28.4878128572
 21
30.0907663715
 31
0.0
100
AcDbText
 73
     3
  0
TEXT
  5
2C4
330
1F
100
AcDbEntity
  8
Default
  6
Continuous
 62
     7
100
AcDbText
 10
5.9012241913
 20
36.7242780188
 30
0.0
 40
10.0
  1
32639000
  7
SEACAD_seiso_ttf
 11
5.9012241913
 21
46.7242780188
 31
0.0
100
AcDbText
 73
     3
  0
ENDSEC
  0
SECTION
  2
OBJECTS
  0
DICTIONARY
  5
C
330
0
100
AcDbDictionary
281
     1
  3
ACAD_GROUP
350
D
  3
ACAD_LAYOUT
350
1A
  3
ACAD_MLEADERSTYLE
350
2C8
  3
ACAD_MLINESTYLE
350
17
  3
ACAD_PLOTSETTINGS
350
19
  3
ACAD_PLOTSTYLENAME
350
E
  3
ACAD_SCALELIST
350
3B
  3
ACAD_TABLESTYLE
350
2C7
  3
ACAD_VISUALSTYLE
350
2A
  3
AcDbVariableDictionary
350
2C5
  0
DICTIONARY
  5
D
102
{ACAD_REACTORS
330
C
102
}
330
C
100
AcDbDictionary
281
     1
  0
DICTIONARY
  5
1A
102
{ACAD_REACTORS
330
C
102
}
330
C
100
AcDbDictionary
281
     1
  3
Layout1
350
1E
  3
Model
350
22
  0
DICTIONARY
  5
2C8
102
{ACAD_REACTORS
330
C
102
}
330
C
100
AcDbDictionary
281
     1
  0
DICTIONARY
  5
17
102
{ACAD_REACTORS
330
C
102
}
330
C
100
AcDbDictionary
281
     1
  3
Standard
350
18
  0
DICTIONARY
  5
19
102
{ACAD_REACTORS
330
C
102
}
330
C
100
AcDbDictionary
281
     1
  0
ACDBDICTIONARYWDFLT
  5
E
102
{ACAD_REACTORS
330
C
102
}
330
C
100
AcDbDictionary
281
     1
  3
Normal
350
F
100
AcDbDictionaryWithDefault
340
F
  0
DICTIONARY
  5
3B
102
{ACAD_REACTORS
330
C
102
}
330
C
100
AcDbDictionary
281
     1
  3
A0
350
3C
  3
A1
350
3D
  3
A2
350
3E
  3
A3
350
3F
  3
A4
350
40
  3
A5
350
41
  3
A6
350
42
  3
A7
350
43
  3
A8
350
44
  3
A9
350
45
  3
B0
350
46
  3
B1
350
47
  3
B2
350
48
  3
B3
350
49
  3
B4
350
4A
  3
B5
350
4B
  3
B6
350
4C
  3
B7
350
4D
  3
B8
350
4E
  3
B9
350
4F
  3
C0
350
50
  3
C1
350
51
  3
C2
350
52
  3
C3
350
53
  3
C4
350
54
  3
C5
350
55
  3
C6
350
56
  3
C7
350
57
  3
C8
350
58
  3
C9
350
59
  3
D0
350
5A
  3
D1
350
5B
  3
D2
350
5C
  0
DICTIONARY
  5
2C7
102
{ACAD_REACTORS
330
C
102
}
330
C
100
AcDbDictionary
281
     1
  0
DICTIONARY
  5
2A
102
{ACAD_REACTORS
330
C
102
}
330
C
100
AcDbDictionary
281
     1
  3
2dWireframe
350
2F
  3
3D Hidden
350
31
  3
3dWireframe
350
30
  3
Basic
350
32
  3
Brighten
350
36
  3
ColorChange
350
3A
  3
Conceptual
350
34
  3
Dim
350
35
  3
Facepattern
350
39
  3
Flat
350
2B
  3
FlatWithEdges
350
2C
  3
Gouraud
350
2D
  3
GouraudWithEdges
350
2E
  3
Linepattern
350
38
  3
Realistic
350
33
  3
Thicken
350
37
  0
DICTIONARY
  5
2C5
102
{ACAD_REACTORS
330
C
102
}
330
C
100
AcDbDictionary
281
     1
  3
CANNOSCALE
350
2C6
  3
PSOLHEIGHT
350
2CA
  3
PSOLWIDTH
350
2C9
  0
LAYOUT
  5
1E
102
{ACAD_REACTORS
330
1A
102
}
330
1A
100
AcDbPlotSettings
  1

  2
none_device
  4

  6

 40
0.0
 41
0.0
 42
0.0
 43
0.0
 44
0.0
 45
0.0
 46
0.0
 47
0.0
 48
0.0
 49
0.0
140
0.0
141
0.0
142
1.0
143
1.0
 70
   688
 72
     0
 73
     0
 74
     5
  7

 75
    16
147
1.0
148
0.0
149
0.0
100
AcDbLayout
  1
Layout1
 70
     1
 71
     1
 10
0.0
 20
0.0
 11
1682.0
 21
2378.0
 12
0.0
 22
0.0
 32
0.0
 14
0.0
 24
0.0
 34
0.0
 15
1682.0
 25
2378.0
 35
0.0
146
0.0
 13
0.0
 23
0.0
 33
0.0
 16
1.0
 26
0.0
 36
0.0
 17
0.0
 27
1.0
 37
0.0
 76
     0
330
1B
  0
LAYOUT
  5
22
102
{ACAD_REACTORS
330
1A
102
}
330
1A
100
AcDbPlotSettings
  1

  2
none_device
  4

  6

 40
0.0
 41
0.0
 42
0.0
 43
0.0
 44
0.0
 45
0.0
 46
0.0
 47
0.0
 48
0.0
 49
0.0
140
0.0
141
0.0
142
1.0
143
1.0
 70
  1712
 72
     0
 73
     0
 74
     0
  7

 75
     0
147
1.0
148
0.0
149
0.0
100
AcDbLayout
  1
Model
 70
     1
 71
     0
 10
0.0
 20
0.0
 11
1682.0
 21
2378.0
 12
0.0
 22
0.0
 32
0.0
 14
0.0
 24
0.0
 34
0.0
 15
1682.0
 25
2378.0
 35
0.0
146
0.0
 13
0.0
 23
0.0
 33
0.0
 16
1.0
 26
0.0
 36
0.0
 17
0.0
 27
1.0
 37
0.0
 76
     0
330
1F
331
29
  0
MLINESTYLE
  5
18
102
{ACAD_REACTORS
330
17
102
}
330
17
100
AcDbMlineStyle
  2
Standard
 70
     0
  3

 62
   256
 51
90.0
 52
90.0
 71
     2
 49
0.5
 62
   256
  6
BYLAYER
 49
-0.5
 62
   256
  6
BYLAYER
  0
ACDBPLACEHOLDER
  5
F
102
{ACAD_REACTORS
330
E
102
}
330
E
  0
SCALE
  5
3C
102
{ACAD_REACTORS
330
3B
102
}
330
3B
100
AcDbScale
 70
     0
300
1:1
140
1.0
141
1.0
290
     1
  0
SCALE
  5
3D
102
{ACAD_REACTORS
330
3B
102
}
330
3B
100
AcDbScale
 70
     0
300
1:2
140
1.0
141
2.0
290
     0
  0
SCALE
  5
3E
102
{ACAD_REACTORS
330
3B
102
}
330
3B
100
AcDbScale
 70
     0
300
1:4
140
1.0
141
4.0
290
     0
  0
SCALE
  5
3F
102
{ACAD_REACTORS
330
3B
102
}
330
3B
100
AcDbScale
 70
     0
300
1:5
140
1.0
141
5.0
290
     0
  0
SCALE
  5
40
102
{ACAD_REACTORS
330
3B
102
}
330
3B
100
AcDbScale
 70
     0
300
1:8
140
1.0
141
8.0
290
     0
  0
SCALE
  5
41
102
{ACAD_REACTORS
330
3B
102
}
330
3B
100
AcDbScale
 70
     0
300
1:10
140
1.0
141
10.0
290
     0
  0
SCALE
  5
42
102
{ACAD_REACTORS
330
3B
102
}
330
3B
100
AcDbScale
 70
     0
300
1:16
140
1.0
141
16.0
290
     0
  0
SCALE
  5
43
102
{ACAD_REACTORS
330
3B
102
}
330
3B
100
AcDbScale
 70
     0
300
1:20
140
1.0
141
20.0
290
     0
  0
SCALE
  5
44
102
{ACAD_REACTORS
330
3B
102
}
330
3B
100
AcDbScale
 70
     0
300
1:30
140
1.0
141
30.0
290
     0
  0
SCALE
  5
45
102
{ACAD_REACTORS
330
3B
102
}
330
3B
100
AcDbScale
 70
     0
300
1:40
140
1.0
141
40.0
290
     0
  0
SCALE
  5
46
102
{ACAD_REACTORS
330
3B
102
}
330
3B
100
AcDbScale
 70
     0
300
1:50
140
1.0
141
50.0
290
     0
  0
SCALE
  5
47
102
{ACAD_REACTORS
330
3B
102
}
330
3B
100
AcDbScale
 70
     0
300
1:100
140
1.0
141
100.0
290
     0
  0
SCALE
  5
48
102
{ACAD_REACTORS
330
3B
102
}
330
3B
100
AcDbScale
 70
     0
300
2:1
140
2.0
141
1.0
290
     0
  0
SCALE
  5
49
102
{ACAD_REACTORS
330
3B
102
}
330
3B
100
AcDbScale
 70
     0
300
4:1
140
4.0
141
1.0
290
     0
  0
SCALE
  5
4A
102
{ACAD_REACTORS
330
3B
102
}
330
3B
100
AcDbScale
 70
     0
300
8:1
140
8.0
141
1.0
290
     0
  0
SCALE
  5
4B
102
{ACAD_REACTORS
330
3B
102
}
330
3B
100
AcDbScale
 70
     0
300
10:1
140
10.0
141
1.0
290
     0
  0
SCALE
  5
4C
102
{ACAD_REACTORS
330
3B
102
}
330
3B
100
AcDbScale
 70
     0
300
100:1
140
100.0
141
1.0
290
     0
  0
SCALE
  5
4D
102
{ACAD_REACTORS
330
3B
102
}
330
3B
100
AcDbScale
 70
     0
300
1/128" = 1'-0"
140
0.0078125
141
12.0
290
     0
  0
SCALE
  5
4E
102
{ACAD_REACTORS
330
3B
102
}
330
3B
100
AcDbScale
 70
     0
300
1/64" = 1'-0"
140
0.015625
141
12.0
290
     0
  0
SCALE
  5
4F
102
{ACAD_REACTORS
330
3B
102
}
330
3B
100
AcDbScale
 70
     0
300
1/32" = 1'-0"
140
0.03125
141
12.0
290
     0
  0
SCALE
  5
50
102
{ACAD_REACTORS
330
3B
102
}
330
3B
100
AcDbScale
 70
     0
300
1/16" = 1'-0"
140
0.0625
141
12.0
290
     0
  0
SCALE
  5
51
102
{ACAD_REACTORS
330
3B
102
}
330
3B
100
AcDbScale
 70
     0
300
3/32" = 1'-0"
140
0.09375
141
12.0
290
     0
  0
SCALE
  5
52
102
{ACAD_REACTORS
330
3B
102
}
330
3B
100
AcDbScale
 70
     0
300
1/8" = 1'-0"
140
0.125
141
12.0
290
     0
  0
SCALE
  5
53
102
{ACAD_REACTORS
330
3B
102
}
330
3B
100
AcDbScale
 70
     0
300
3/16" = 1'-0"
140
0.1875
141
12.0
290
     0
  0
SCALE
  5
54
102
{ACAD_REACTORS
330
3B
102
}
330
3B
100
AcDbScale
 70
     0
300
1/4" = 1'-0"
140
0.25
141
12.0
290
     0
  0
SCALE
  5
55
102
{ACAD_REACTORS
330
3B
102
}
330
3B
100
AcDbScale
 70
     0
300
3/8" = 1'-0"
140
0.375
141
12.0
290
     0
  0
SCALE
  5
56
102
{ACAD_REACTORS
330
3B
102
}
330
3B
100
AcDbScale
 70
     0
300
1/2" = 1'-0"
140
0.5
141
12.0
290
     0
  0
SCALE
  5
57
102
{ACAD_REACTORS
330
3B
102
}
330
3B
100
AcDbScale
 70
     0
300
3/4" = 1'-0"
140
0.75
141
12.0
290
     0
  0
SCALE
  5
58
102
{ACAD_REACTORS
330
3B
102
}
330
3B
100
AcDbScale
 70
     0
300
1" = 1'-0"
140
1.0
141
12.0
290
     0
  0
SCALE
  5
59
102
{ACAD_REACTORS
330
3B
102
}
330
3B
100
AcDbScale
 70
     0
300
1-1/2" = 1'-0"
140
1.5
141
12.0
290
     0
  0
SCALE
  5
5A
102
{ACAD_REACTORS
330
3B
102
}
330
3B
100
AcDbScale
 70
     0
300
3" = 1'-0"
140
3.0
141
12.0
290
     0
  0
SCALE
  5
5B
102
{ACAD_REACTORS
330
3B
102
}
330
3B
100
AcDbScale
 70
     0
300
6" = 1'-0"
140
6.0
141
12.0
290
     0
  0
SCALE
  5
5C
102
{ACAD_REACTORS
330
3B
102
}
330
3B
100
AcDbScale
 70
     0
300
1'-0" = 1'-0"
140
12.0
141
12.0
290
     0
  0
VISUALSTYLE
  5
2F
102
{ACAD_REACTORS
330
2A
102
}
330
2A
100
AcDbVisualStyle
  2
2dWireframe
 70
     4
 71
     0
 72
     2
 73
     0
 90
        0
 40
-0.6
 41
-30.0
 62
     5
 63
     7
 74
     1
 91
        4
 64
     7
 65
   257
 75
     1
175
     1
 42
1.0
 92
        0
 66
   257
 43
1.0
 76
     1
 77
     6
 78
     2
 67
     7
 79
     5
170
     0
171
     0
290
     0
174
     0
 93
        1
 44
0.0
173
     0
291
     0
 45
0.0
1001
ACAD
1000
AcDbSavedByObjectVersion
1070
     0
  0
VISUALSTYLE
  5
31
102
{ACAD_REACTORS
330
2A
102
}
330
2A
100
AcDbVisualStyle
  2
3D Hidden
 70
     6
 71
     1
 72
     2
 73
     2
 90
        0
 40
-0.6
 41
-30.0
 62
     5
 63
     7
 74
     2
 91
        2
 64
     7
 65
   257
 75
     2
175
     1
 42
40.0
 92
        0
 66
   257
 43
1.0
 76
     1
 77
     6
 78
     2
 67
     7
 79
     3
170
     0
171
     0
290
     0
174
     0
 93
        1
 44
0.0
173
     0
291
     0
 45
0.0
1001
ACAD
1000
AcDbSavedByObjectVersion
1070
     0
  0
VISUALSTYLE
  5
30
102
{ACAD_REACTORS
330
2A
102
}
330
2A
100
AcDbVisualStyle
  2
3dWireframe
 70
     5
 71
     0
 72
     2
 73
     0
 90
        0
 40
-0.6
 41
-30.0
 62
     5
 63
     7
 74
     1
 91
        4
 64
     7
 65
   257
 75
     1
175
     1
 42
1.0
 92
        0
 66
   257
 43
1.0
 76
     1
 77
     6
 78
     2
 67
     7
 79
     5
170
     0
171
     0
290
     0
174
     0
 93
        1
 44
0.0
173
     0
291
     0
 45
0.0
1001
ACAD
1000
AcDbSavedByObjectVersion
1070
     0
  0
VISUALSTYLE
  5
32
102
{ACAD_REACTORS
330
2A
102
}
330
2A
100
AcDbVisualStyle
  2
Basic
 70
     7
 71
     1
 72
     0
 73
     1
 90
        0
 40
-0.6
 41
-30.0
 62
     5
 63
     7
 74
     0
 91
        4
 64
     7
 65
   257
 75
     1
175
     1
 42
1.0
 92
        8
 66
     7
 43
1.0
 76
     1
 77
     6
 78
     2
 67
     7
 79
     5
170
     0
171
     0
290
     0
174
     0
 93
        1
 44
0.0
173
     0
291
     1
 45
0.0
1001
ACAD
1000
AcDbSavedByObjectVersion
1070
     0
  0
VISUALSTYLE
  5
36
102
{ACAD_REACTORS
330
2A
102
}
330
2A
100
AcDbVisualStyle
  2
Brighten
 70
    12
 71
     2
 72
     2
 73
     0
 90
        0
 40
-0.6
 41
-30.0
 62
     5
 63
     7
 74
     1
 91
        4
 64
     7
 65
   257
 75
     1
175
     1
 42
1.0
 92
        8
 66
     7
 43
1.0
 76
     1
 77
     6
 78
     2
 67
     7
 79
     5
170
     0
171
     0
290
     0
174
     0
 93
        1
 44
50.0
173
     0
291
     1
 45
0.0
1001
ACAD
1000
AcDbSavedByObjectVersion
1070
     0
  0
VISUALSTYLE
  5
3A
102
{ACAD_REACTORS
330
2A
102
}
330
2A
100
AcDbVisualStyle
  2
ColorChange
 70
    16
 71
     2
 72
     2
 73
     3
 90
        0
 40
-0.6
 41
-30.0
 62
     5
 63
     8
 74
     1
 91
        4
 64
     7
 65
   257
 75
     1
175
     1
 42
1.0
 92
        8
 66
     8
 43
1.0
 76
     1
 77
     6
 78
     2
 67
     7
 79
     5
170
     0
171
     0
290
     0
174
     0
 93
        1
 44
0.0
173
     0
291
     1
 45
0.0
1001
ACAD
1000
AcDbSavedByObjectVersion
1070
     0
  0
VISUALSTYLE
  5
34
102
{ACAD_REACTORS
330
2A
102
}
330
2A
100
AcDbVisualStyle
  2
Conceptual
 70
     9
 71
     3
 72
     2
 73
     0
 90
        0
 40
-0.6
 41
-30.0
 62
     5
 63
     7
 74
     2
 91
        2
 64
     7
 65
   257
 75
     1
175
     1
 42
40.0
 92
        8
 66
     7
 43
1.0
 76
     1
 77
     6
 78
     2
 67
     7
 79
     3
170
     0
171
     0
290
     0
174
     0
 93
        1
 44
0.0
173
     0
291
     0
 45
0.0
1001
ACAD
1000
AcDbSavedByObjectVersion
1070
     0
  0
VISUALSTYLE
  5
35
102
{ACAD_REACTORS
330
2A
102
}
330
2A
100
AcDbVisualStyle
  2
Dim
 70
    11
 71
     2
 72
     2
 73
     0
 90
        0
 40
-0.6
 41
-30.0
 62
     5
 63
     7
 74
     1
 91
        4
 64
     7
 65
   257
 75
     1
175
     1
 42
1.0
 92
        8
 66
     7
 43
1.0
 76
     1
 77
     6
 78
     2
 67
     7
 79
     5
170
     0
171
     0
290
     0
174
     0
 93
        1
 44
-50.0
173
     0
291
     1
 45
0.0
1001
ACAD
1000
AcDbSavedByObjectVersion
1070
     0
  0
VISUALSTYLE
  5
39
102
{ACAD_REACTORS
330
2A
102
}
330
2A
100
AcDbVisualStyle
  2
Facepattern
 70
    15
 71
     2
 72
     2
 73
     0
 90
        0
 40
-0.6
 41
-30.0
 62
     5
 63
     7
 74
     1
 91
        4
 64
     7
 65
   257
 75
     1
175
     1
 42
1.0
 92
        8
 66
     7
 43
1.0
 76
     1
 77
     6
 78
     2
 67
     7
 79
     5
170
     0
171
     0
290
     0
174
     0
 93
        1
 44
0.0
173
     0
291
     1
 45
0.0
1001
ACAD
1000
AcDbSavedByObjectVersion
1070
     0
  0
VISUALSTYLE
  5
2B
102
{ACAD_REACTORS
330
2A
102
}
330
2A
100
AcDbVisualStyle
  2
Flat
 70
     0
 71
     2
 72
     1
 73
     1
 90
        2
 40
-0.6
 41
30.0
 62
     5
 63
     7
 74
     0
 91
        4
 64
     7
 65
   257
 75
     1
175
     1
 42
1.0
 92
        8
 66
     7
 43
1.0
 76
     1
 77
     6
 78
     2
 67
     7
 79
     5
170
     0
171
     0
290
     0
174
     0
 93
       13
 44
0.0
173
     0
291
     1
 45
0.0
1001
ACAD
1000
AcDbSavedByObjectVersion
1070
     0
  0
VISUALSTYLE
  5
2C
102
{ACAD_REACTORS
330
2A
102
}
330
2A
100
AcDbVisualStyle
  2
FlatWithEdges
 70
     1
 71
     2
 72
     1
 73
     1
 90
        2
 40
-0.6
 41
30.0
 62
     5
 63
     7
 74
     1
 91
        4
 64
     7
 65
   257
 75
     1
175
     1
 42
1.0
 92
        0
 66
   257
 43
1.0
 76
     1
 77
     6
 78
     2
 67
     7
 79
     5
170
     0
171
     0
290
     0
174
     0
 93
       13
 44
0.0
173
     0
291
     1
 45
0.0
1001
ACAD
1000
AcDbSavedByObjectVersion
1070
     0
  0
VISUALSTYLE
  5
2D
102
{ACAD_REACTORS
330
2A
102
}
330
2A
100
AcDbVisualStyle
  2
Gouraud
 70
     2
 71
     2
 72
     2
 73
     1
 90
        2
 40
-0.6
 41
30.0
 62
     5
 63
     7
 74
     0
 91
        4
 64
     7
 65
   257
 75
     1
175
     1
 42
1.0
 92
        0
 66
     7
 43
1.0
 76
     1
 77
     6
 78
     2
 67
     7
 79
     5
170
     0
171
     0
290
     0
174
     0
 93
       13
 44
0.0
173
     0
291
     1
 45
0.0
1001
ACAD
1000
AcDbSavedByObjectVersion
1070
     0
  0
VISUALSTYLE
  5
2E
102
{ACAD_REACTORS
330
2A
102
}
330
2A
100
AcDbVisualStyle
  2
GouraudWithEdges
 70
     3
 71
     2
 72
     2
 73
     1
 90
        2
 40
-0.6
 41
30.0
 62
     5
 63
     7
 74
     1
 91
        4
 64
     7
 65
   257
 75
     1
175
     1
 42
1.0
 92
        0
 66
   257
 43
1.0
 76
     1
 77
     6
 78
     2
 67
     7
 79
     5
170
     0
171
     0
290
     0
174
     0
 93
       13
 44
0.0
173
     0
291
     1
 45
0.0
1001
ACAD
1000
AcDbSavedByObjectVersion
1070
     0
  0
VISUALSTYLE
  5
38
102
{ACAD_REACTORS
330
2A
102
}
330
2A
100
AcDbVisualStyle
  2
Linepattern
 70
    14
 71
     2
 72
     2
 73
     0
 90
        0
 40
-0.6
 41
-30.0
 62
     5
 63
     7
 74
     1
 91
        4
 64
     7
 65
   257
 75
     7
175
     7
 42
1.0
 92
        8
 66
     7
 43
1.0
 76
     1
 77
     6
 78
     2
 67
     7
 79
     5
170
     0
171
     0
290
     0
174
     0
 93
        1
 44
0.0
173
     0
291
     1
 45
0.0
1001
ACAD
1000
AcDbSavedByObjectVersion
1070
     0
  0
VISUALSTYLE
  5
33
102
{ACAD_REACTORS
330
2A
102
}
330
2A
100
AcDbVisualStyle
  2
Realistic
 70
     8
 71
     2
 72
     2
 73
     0
 90
        0
 40
-0.6
 41
-30.0
 62
     5
 63
     7
 74
     1
 91
        0
 64
     7
 65
   257
 75
     1
175
     1
 42
1.0
 92
        8
 66
     8
 43
1.0
 76
     1
 77
     6
 78
     2
 67
     7
 79
     5
170
     0
171
     0
290
     0
174
     0
 93
       13
 44
0.0
173
     0
291
     0
 45
0.0
1001
ACAD
1000
AcDbSavedByObjectVersion
1070
     0
  0
VISUALSTYLE
  5
37
102
{ACAD_REACTORS
330
2A
102
}
330
2A
100
AcDbVisualStyle
  2
Thicken
 70
    13
 71
     2
 72
     2
 73
     0
 90
        0
 40
-0.6
 41
-30.0
 62
     5
 63
     7
 74
     1
 91
        4
 64
     7
 65
   257
 75
     1
175
     1
 42
1.0
 92
       12
 66
     7
 43
1.0
 76
     1
 77
     6
 78
     2
 67
     7
 79
     5
170
     0
171
     0
290
     0
174
     0
 93
        1
 44
0.0
173
     0
291
     1
 45
0.0
1001
ACAD
1000
AcDbSavedByObjectVersion
1070
     0
  0
DICTIONARYVAR
  5
2C6
102
{ACAD_REACTORS
330
2C5
102
}
330
2C5
100
DictionaryVariables
280
     0
  1
1:1
  0
DICTIONARYVAR
  5
2CA
102
{ACAD_REACTORS
330
2C5
102
}
330
2C5
100
DictionaryVariables
280
     0
  1
80.000000
  0
DICTIONARYVAR
  5
2C9
102
{ACAD_REACTORS
330
2C5
102
}
330
2C5
100
DictionaryVariables
280
     0
  1
5.000000
  0
ENDSEC
  0
EOF
