  0
SECTION
  2
HEADER
  9
$ACADVER
  1
AC1015
  9
$ACADMAINTVER
 70
     6
  9
$DWGCODEPAGE
  3
ANSI_1252
  9
$INSBASE
 10
0.0
 20
0.0
 30
0.0
  9
$EXTMIN
 10
0.0
 20
0.0
 30
0.0
  9
$EXTMAX
 10
1682.0
 20
2378.0
 30
0.0
  9
$LIMMIN
 10
0.0
 20
0.0
  9
$LIMMAX
 10
1682.0
 20
2378.0
  9
$ORTHOMODE
 70
     0
  9
$REGENMODE
 70
     1
  9
$FILLMODE
 70
     1
  9
$QTEXTMODE
 70
     0
  9
$MIRRTEXT
 70
     1
  9
$LTSCALE
 40
1.0
  9
$ATTMODE
 70
     1
  9
$TEXTSIZE
 40
2.5
  9
$TRACEWID
 40
1.0
  9
$TEXTSTYLE
  7
Standard
  9
$CLAYER
  8
0
  9
$CELTYPE
  6
ByLayer
  9
$CECOLOR
 62
   256
  9
$CELTSCALE
 40
1.0
  9
$DISPSILH
 70
     0
  9
$DIMSCALE
 40
1.0
  9
$DIMASZ
 40
2.5
  9
$DIMEXO
 40
0.625
  9
$DIMDLI
 40
3.75
  9
$DIMRND
 40
0.0
  9
$DIMDLE
 40
0.0
  9
$DIMEXE
 40
1.25
  9
$DIMTP
 40
0.0
  9
$DIMTM
 40
0.0
  9
$DIMTXT
 40
2.5
  9
$DIMCEN
 40
2.5
  9
$DIMTSZ
 40
0.0
  9
$DIMTOL
 70
     0
  9
$DIMLIM
 70
     0
  9
$DIMTIH
 70
     0
  9
$DIMTOH
 70
     0
  9
$DIMSE1
 70
     0
  9
$DIMSE2
 70
     0
  9
$DIMTAD
 70
     1
  9
$DIMZIN
 70
     8
  9
$DIMBLK
  1

  9
$DIMASO
 70
     1
  9
$DIMSHO
 70
     1
  9
$DIMPOST
  1

  9
$DIMAPOST
  1

  9
$DIMALT
 70
     0
  9
$DIMALTD
 70
     3
  9
$DIMALTF
 40
0.0393700787
  9
$DIMLFAC
 40
1.0
  9
$DIMTOFL
 70
     1
  9
$DIMTVP
 40
0.0
  9
$DIMTIX
 70
     0
  9
$DIMSOXD
 70
     0
  9
$DIMSAH
 70
     0
  9
$DIMBLK1
  1

  9
$DIMBLK2
  1

  9
$DIMSTYLE
  2
ISO-25
  9
$DIMCLRD
 70
     0
  9
$DIMCLRE
 70
     0
  9
$DIMCLRT
 70
     0
  9
$DIMTFAC
 40
1.0
  9
$DIMGAP
 40
0.625
  9
$DIMJUST
 70
     0
  9
$DIMSD1
 70
     0
  9
$DIMSD2
 70
     0
  9
$DIMTOLJ
 70
     0
  9
$DIMTZIN
 70
     8
  9
$DIMALTZ
 70
     0
  9
$DIMALTTZ
 70
     0
  9
$DIMUPT
 70
     0
  9
$DIMDEC
 70
     2
  9
$DIMTDEC
 70
     2
  9
$DIMALTU
 70
     2
  9
$DIMALTTD
 70
     3
  9
$DIMTXSTY
  7
Standard
  9
$DIMAUNIT
 70
     0
  9
$DIMADEC
 70
     0
  9
$DIMALTRND
 40
0.0
  9
$DIMAZIN
 70
     0
  9
$DIMDSEP
 70
    44
  9
$DIMATFIT
 70
     3
  9
$DIMFRAC
 70
     0
  9
$DIMLDRBLK
  1

  9
$DIMLUNIT
 70
     2
  9
$DIMLWD
 70
    -2
  9
$DIMLWE
 70
    -2
  9
$DIMTMOVE
 70
     0
  9
$LUNITS
 70
     2
  9
$LUPREC
 70
     4
  9
$SKETCHINC
 40
1.0
  9
$FILLETRAD
 40
10.0
  9
$AUNITS
 70
     0
  9
$AUPREC
 70
     0
  9
$MENU
  1
.
  9
$ELEVATION
 40
0.0
  9
$PELEVATION
 40
0.0
  9
$THICKNESS
 40
0.0
  9
$LIMCHECK
 70
     0
  9
$CHAMFERA
 40
10.0
  9
$CHAMFERB
 40
10.0
  9
$CHAMFERC
 40
20.0
  9
$CHAMFERD
 40
0.0
  9
$SKPOLY
 70
     0
  9
$TDCREATE
 40
2455232.656273357
  9
$TDUCREATE
 40
2455232.61460669
  9
$TDUPDATE
 40
2455232.656273368
  9
$TDUUPDATE
 40
2455232.614606701
  9
$TDINDWG
 40
0.0000000116
  9
$TDUSRTIMER
 40
0.0000000116
  9
$USRTIMER
 70
     1
  9
$ANGBASE
 50
0.0
  9
$ANGDIR
 70
     0
  9
$PDMODE
 70
     0
  9
$PDSIZE
 40
0.0
  9
$PLINEWID
 40
0.0
  9
$SPLFRAME
 70
     0
  9
$SPLINETYPE
 70
     6
  9
$SPLINESEGS
 70
     8
  9
$HANDSEED
  5
181
  9
$SURFTAB1
 70
     6
  9
$SURFTAB2
 70
     6
  9
$SURFTYPE
 70
     6
  9
$SURFU
 70
     6
  9
$SURFV
 70
     6
  9
$UCSBASE
  2

  9
$UCSNAME
  2

  9
$UCSORG
 10
0.0
 20
0.0
 30
0.0
  9
$UCSXDIR
 10
1.0
 20
0.0
 30
0.0
  9
$UCSYDIR
 10
0.0
 20
1.0
 30
0.0
  9
$UCSORTHOREF
  2

  9
$UCSORTHOVIEW
 70
     0
  9
$UCSORGTOP
 10
0.0
 20
0.0
 30
0.0
  9
$UCSORGBOTTOM
 10
0.0
 20
0.0
 30
0.0
  9
$UCSORGLEFT
 10
0.0
 20
0.0
 30
0.0
  9
$UCSORGRIGHT
 10
0.0
 20
0.0
 30
0.0
  9
$UCSORGFRONT
 10
0.0
 20
0.0
 30
0.0
  9
$UCSORGBACK
 10
0.0
 20
0.0
 30
0.0
  9
$PUCSBASE
  2

  9
$PUCSNAME
  2

  9
$PUCSORG
 10
0.0
 20
0.0
 30
0.0
  9
$PUCSXDIR
 10
1.0
 20
0.0
 30
0.0
  9
$PUCSYDIR
 10
0.0
 20
1.0
 30
0.0
  9
$PUCSORTHOREF
  2

  9
$PUCSORTHOVIEW
 70
     0
  9
$PUCSORGTOP
 10
0.0
 20
0.0
 30
0.0
  9
$PUCSORGBOTTOM
 10
0.0
 20
0.0
 30
0.0
  9
$PUCSORGLEFT
 10
0.0
 20
0.0
 30
0.0
  9
$PUCSORGRIGHT
 10
0.0
 20
0.0
 30
0.0
  9
$PUCSORGFRONT
 10
0.0
 20
0.0
 30
0.0
  9
$PUCSORGBACK
 10
0.0
 20
0.0
 30
0.0
  9
$USERI1
 70
     0
  9
$USERI2
 70
     0
  9
$USERI3
 70
     0
  9
$USERI4
 70
     0
  9
$USERI5
 70
     0
  9
$USERR1
 40
0.0
  9
$USERR2
 40
0.0
  9
$USERR3
 40
0.0
  9
$USERR4
 40
0.0
  9
$USERR5
 40
0.0
  9
$WORLDVIEW
 70
     1
  9
$SHADEDGE
 70
     3
  9
$SHADEDIF
 70
    70
  9
$TILEMODE
 70
     1
  9
$MAXACTVP
 70
    64
  9
$PINSBASE
 10
0.0
 20
0.0
 30
0.0
  9
$PLIMCHECK
 70
     0
  9
$PEXTMIN
 10
0.0
 20
0.0
 30
0.0
  9
$PEXTMAX
 10
1682.0
 20
2378.0
 30
0.0
  9
$PLIMMIN
 10
0.0
 20
0.0
  9
$PLIMMAX
 10
1682.0
 20
2378.0
  9
$UNITMODE
 70
     0
  9
$VISRETAIN
 70
     1
  9
$PLINEGEN
 70
     0
  9
$PSLTSCALE
 70
     1
  9
$TREEDEPTH
 70
  3020
  9
$CMLSTYLE
  2
Standard
  9
$CMLJUST
 70
     0
  9
$CMLSCALE
 40
20.0
  9
$PROXYGRAPHICS
 70
     1
  9
$MEASUREMENT
 70
     1
  9
$CELWEIGHT
370
    -1
  9
$ENDCAPS
280
     0
  9
$JOINSTYLE
280
     0
  9
$LWDISPLAY
290
     0
  9
$INSUNITS
 70
     4
  9
$HYPERLINKBASE
  1

  9
$STYLESHEET
  1

  9
$XEDIT
290
     1
  9
$CEPSNTYPE
380
     0
  9
$PSTYLEMODE
290
     1
  9
$FINGERPRINTGUID
  2
{1DE707C2-F9EB-46E4-AA92-784CB1D5985A}
  9
$VERSIONGUID
  2
{FAEB1C32-E019-11D5-929B-00C0DF256EC4}
  9
$EXTNAMES
290
     1
  9
$PSVPSCALE
 40
0.0
  9
$OLESTARTUP
290
     0
  0
ENDSEC
  0
SECTION
  2
CLASSES
  0
CLASS
  1
ACDBDICTIONARYWDFLT
  2
AcDbDictionaryWithDefault
  3
ObjectDBX Classes
 90
        0
280
     0
281
     0
  0
CLASS
  1
VISUALSTYLE
  2
AcDbVisualStyle
  3
ObjectDBX Classes
 90
     4095
280
     0
281
     0
  0
CLASS
  1
SCALE
  2
AcDbScale
  3
ObjectDBX Classes
 90
     1153
280
     0
281
     0
  0
CLASS
  1
DICTIONARYVAR
  2
AcDbDictionaryVar
  3
ObjectDBX Classes
 90
        0
280
     0
281
     0
  0
CLASS
  1
ACDBPLACEHOLDER
  2
AcDbPlaceHolder
  3
ObjectDBX Classes
 90
        0
280
     0
281
     0
  0
CLASS
  1
LAYOUT
  2
AcDbLayout
  3
ObjectDBX Classes
 90
        0
280
     0
281
     0
  0
ENDSEC
  0
SECTION
  2
TABLES
  0
TABLE
  2
VPORT
  5
8
330
0
100
AcDbSymbolTable
 70
     1
  0
VPORT
  5
29
330
8
100
AcDbSymbolTableRecord
100
AcDbViewportTableRecord
  2
*Active
 70
     0
 10
0.0
 20
0.0
 11
1.0
 21
1.0
 12
344.1869158879
 22
148.5
 13
0.0
 23
0.0
 14
10.0
 24
10.0
 15
10.0
 25
10.0
 16
0.0
 26
0.0
 36
1.0
 17
0.0
 27
0.0
 37
0.0
 40
297.0
 41
1.9729729729
 42
50.0
 43
0.0
 44
0.0
 50
0.0
 51
0.0
 71
     0
 72
   100
 73
     1
 74
     3
 75
     0
 76
     0
 77
     0
 78
     0
281
     0
 65
     1
110
0.0
120
0.0
130
0.0
111
1.0
121
0.0
131
0.0
112
0.0
122
1.0
132
0.0
 79
     0
146
0.0
  0
ENDTAB
  0
TABLE
  2
LTYPE
  5
5
330
0
100
AcDbSymbolTable
 70
     2
  0
LTYPE
  5
14
330
5
100
AcDbSymbolTableRecord
100
AcDbLinetypeTableRecord
  2
ByBlock
 70
     0
  3

 72
    65
 73
     0
 40
0.0
  0
LTYPE
  5
15
330
5
100
AcDbSymbolTableRecord
100
AcDbLinetypeTableRecord
  2
ByLayer
 70
     0
  3

 72
    65
 73
     0
 40
0.0
  0
LTYPE
  5
16
330
5
100
AcDbSymbolTableRecord
100
AcDbLinetypeTableRecord
  2
Continuous
 70
     0
  3
Solid line
 72
    65
 73
     0
 40
0.0
  0
LTYPE
  5
AB
330
5
100
AcDbSymbolTableRecord
100
AcDbLinetypeTableRecord
  2
CENTER2
 70
     0
  3
Center (.5x) ___ _ ___ _ ___ _ ___ _ ___ _ ___
 72
    65
 73
     4
 40
28.575
 49
19.05
 74
     4
 75
     0
340
0
 46
0.0
 50
0.0
 44
0.0
 45
0.0
 49
-3.175
 74
     4
 75
     0
340
0
 46
0.0
 50
0.0
 44
0.0
 45
0.0
 49
3.175
 74
     4
 75
     0
340
0
 46
0.0
 50
0.0
 44
0.0
 45
0.0
 49
-3.175
 74
     4
 75
     0
340
0
 46
0.0
 50
0.0
 44
0.0
 45
0.0
  0
ENDTAB
  0
TABLE
  2
LAYER
  5
2
330
0
100
AcDbSymbolTable
 70
    14
  0
LAYER
  5
10
330
2
100
AcDbSymbolTableRecord
100
AcDbLayerTableRecord
  2
0
 70
     0
 62
     7
  6
Continuous
370
    -3
390
F
  0
LAYER
  5
5D
330
2
100
AcDbSymbolTableRecord
100
AcDbLayerTableRecord
  2
Default
 70
     0
 62
     7
  6
Continuous
370
    -3
390
F
  0
LAYER
  5
60
330
2
100
AcDbSymbolTableRecord
100
AcDbLayerTableRecord
  2
$DDT_AUDIT_GENERATED_(60)
 70
     0
 62
     7
  6
Continuous
370
    -3
390
F
  0
LAYER
  5
6A
330
2
100
AcDbSymbolTableRecord
100
AcDbLayerTableRecord
  2
$DDT_AUDIT_GENERATED_(6A)
 70
     0
 62
     7
  6
Continuous
370
    -3
390
F
  0
LAYER
  5
77
330
2
100
AcDbSymbolTableRecord
100
AcDbLayerTableRecord
  2
$DDT_AUDIT_GENERATED_(77)
 70
     0
 62
     7
  6
Continuous
370
    -3
390
F
  0
LAYER
  5
7E
330
2
100
AcDbSymbolTableRecord
100
AcDbLayerTableRecord
  2
$DDT_AUDIT_GENERATED_(7E)
 70
     0
 62
     7
  6
Continuous
370
    -3
390
F
  0
LAYER
  5
8F
330
2
100
AcDbSymbolTableRecord
100
AcDbLayerTableRecord
  2
$DDT_AUDIT_GENERATED_(8F)
 70
     0
 62
     7
  6
Continuous
370
    -3
390
F
  0
LAYER
  5
9A
330
2
100
AcDbSymbolTableRecord
100
AcDbLayerTableRecord
  2
$DDT_AUDIT_GENERATED_(9A)
 70
     0
 62
     7
  6
Continuous
370
    -3
390
F
  0
LAYER
  5
A2
330
2
100
AcDbSymbolTableRecord
100
AcDbLayerTableRecord
  2
$DDT_AUDIT_GENERATED_(A2)
 70
     0
 62
     7
  6
Continuous
370
    -3
390
F
  0
LAYER
  5
A8
330
2
100
AcDbSymbolTableRecord
100
AcDbLayerTableRecord
  2
$DDT_AUDIT_GENERATED_(A8)
 70
     0
 62
     7
  6
Continuous
370
    -3
390
F
  0
LAYER
  5
AA
330
2
100
AcDbSymbolTableRecord
100
AcDbLayerTableRecord
  2
DV1_Standard
 70
     0
 62
     7
  6
Continuous
370
    -3
390
F
  0
LAYER
  5
EA
330
2
100
AcDbSymbolTableRecord
100
AcDbLayerTableRecord
  2
$DDT_AUDIT_GENERATED_(EA)
 70
     0
 62
     7
  6
Continuous
370
    -3
390
F
  0
LAYER
  5
FF
330
2
100
AcDbSymbolTableRecord
100
AcDbLayerTableRecord
  2
DV2_Standard
 70
     0
 62
     7
  6
Continuous
370
    -3
390
F
  0
LAYER
  5
169
330
2
100
AcDbSymbolTableRecord
100
AcDbLayerTableRecord
  2
DV3_Standard
 70
     0
 62
     7
  6
Continuous
370
    -3
390
F
  0
ENDTAB
  0
TABLE
  2
STYLE
  5
3
330
0
100
AcDbSymbolTable
 70
     2
  0
STYLE
  5
11
330
3
100
AcDbSymbolTableRecord
100
AcDbTextStyleTableRecord
  2
Standard
 70
     0
 40
0.0
 41
1.0
 50
0.0
 71
     0
 42
2.5
  3
txt
  4

  0
STYLE
  5
170
330
3
100
AcDbSymbolTableRecord
100
AcDbTextStyleTableRecord
  2
SEACAD_seiso_ttf
 70
     0
 40
0.0
 41
1.0
 50
0.0
 71
     0
 42
0.2
  3
seiso.ttf
  4

  0
ENDTAB
  0
TABLE
  2
VIEW
  5
6
330
0
100
AcDbSymbolTable
 70
     0
  0
ENDTAB
  0
TABLE
  2
UCS
  5
7
330
0
100
AcDbSymbolTable
 70
     0
  0
ENDTAB
  0
TABLE
  2
APPID
  5
9
330
0
100
AcDbSymbolTable
 70
     1
  0
APPID
  5
12
330
9
100
AcDbSymbolTableRecord
100
AcDbRegAppTableRecord
  2
ACAD
 70
     0
  0
ENDTAB
  0
TABLE
  2
DIMSTYLE
  5
A
330
0
100
AcDbSymbolTable
 70
     1
100
AcDbDimStyleTable
  0
DIMSTYLE
105
27
330
A
100
AcDbSymbolTableRecord
100
AcDbDimStyleTableRecord
  2
ISO-25
 70
     0
 41
2.5
 42
0.625
 43
3.75
 44
1.25
 73
     0
 74
     0
 77
     1
 78
     8
140
2.5
141
2.5
143
0.0393700787
147
0.625
171
     3
172
     1
271
     2
272
     2
274
     3
278
    44
283
     0
284
     8
340
11
  0
ENDTAB
  0
TABLE
  2
BLOCK_RECORD
  5
1
330
0
100
AcDbSymbolTable
 70
     4
  0
BLOCK_RECORD
  5
1F
330
1
100
AcDbSymbolTableRecord
100
AcDbBlockTableRecord
  2
*Model_Space
340
22
  0
BLOCK_RECORD
  5
1B
330
1
100
AcDbSymbolTableRecord
100
AcDbBlockTableRecord
  2
*Paper_Space
340
1E
  0
BLOCK_RECORD
  5
5E
330
1
100
AcDbSymbolTableRecord
100
AcDbBlockTableRecord
  2
SE
340
0
102
{BLKREFS
331
5F
102
}
  0
BLOCK_RECORD
  5
BA
330
1
100
AcDbSymbolTableRecord
100
AcDbBlockTableRecord
  2
SE1
340
0
102
{BLKREFS
331
BB
102
}
  0
BLOCK_RECORD
  5
104
330
1
100
AcDbSymbolTableRecord
100
AcDbBlockTableRecord
  2
SE2
340
0
102
{BLKREFS
331
105
102
}
  0
ENDTAB
  0
ENDSEC
  0
SECTION
  2
BLOCKS
  0
BLOCK
  5
20
330
1F
100
AcDbEntity
  8
0
100
AcDbBlockBegin
  2
*Model_Space
 70
     0
 10
0.0
 20
0.0
 30
0.0
  3
*Model_Space
  1

  0
ENDBLK
  5
21
330
1F
100
AcDbEntity
  8
0
100
AcDbBlockEnd
  0
BLOCK
  5
1C
330
1B
100
AcDbEntity
 67
     1
  8
0
100
AcDbBlockBegin
  2
*Paper_Space
 70
     0
 10
0.0
 20
0.0
 30
0.0
  3
*Paper_Space
  1

  0
ENDBLK
  5
1D
330
1B
100
AcDbEntity
 67
     1
  8
0
100
AcDbBlockEnd
  0
BLOCK
  5
B8
330
5E
100
AcDbEntity
  8
0
100
AcDbBlockBegin
  2
SE
 70
     0
 10
0.0
 20
0.0
 30
0.0
  3
SE
  1

  0
LINE
  5
61
330
5E
100
AcDbEntity
  8
$DDT_AUDIT_GENERATED_(60)
  6
Continuous
 62
     7
100
AcDbLine
 10
68.5461261696
 20
500.6648390602
 30
0.0
 11
68.5461261696
 21
448.6648390602
 31
0.0
  0
ARC
  5
62
330
5E
100
AcDbEntity
  8
$DDT_AUDIT_GENERATED_(60)
  6
Continuous
 62
     7
100
AcDbCircle
 10
255.4461261494
 20
424.334805793
 30
0.0
 40
26.02908024517511
100
AcDbArc
 50
69.183771163
 51
110.8162302228
  0
CIRCLE
  5
63
330
5E
100
AcDbEntity
  8
$DDT_AUDIT_GENERATED_(60)
  6
Continuous
 62
     7
100
AcDbCircle
 10
255.4461261696
 20
474.6648390602
 30
0.0
 40
16.49999999999999
  0
LINE
  5
64
330
5E
100
AcDbEntity
  8
$DDT_AUDIT_GENERATED_(60)
  6
Continuous
 62
     7
100
AcDbLine
 10
307.4461261696
 20
449.4648390602
 30
0.0
 11
307.4461261696
 21
499.8648390602
 31
0.0
  0
LINE
  5
65
330
5E
100
AcDbEntity
  8
$DDT_AUDIT_GENERATED_(60)
  6
Continuous
 62
     7
100
AcDbLine
 10
264.6926334996
 20
448.6648390602
 30
0.0
 11
306.6461261696
 21
448.6648390602
 31
0.0
  0
LINE
  5
66
330
5E
100
AcDbEntity
  8
$DDT_AUDIT_GENERATED_(60)
  6
Continuous
 62
     7
100
AcDbLine
 10
68.5461261696
 20
448.6648390602
 30
0.0
 11
246.1961261696
 21
448.6648390602
 31
0.0
  0
LINE
  5
67
330
5E
100
AcDbEntity
  8
$DDT_AUDIT_GENERATED_(60)
  6
Continuous
 62
     7
100
AcDbLine
 10
306.6461261696
 20
500.6648390602
 30
0.0
 11
68.5461261696
 21
500.6648390602
 31
0.0
  0
ARC
  5
68
330
5E
100
AcDbEntity
  8
$DDT_AUDIT_GENERATED_(60)
  6
Continuous
 62
     7
100
AcDbCircle
 10
306.6461261696
 20
449.4648390602
 30
0.0
 40
0.7999999999999986
100
AcDbArc
 50
270.0
 51
0.0
  0
ARC
  5
69
330
5E
100
AcDbEntity
  8
$DDT_AUDIT_GENERATED_(60)
  6
Continuous
 62
     7
100
AcDbCircle
 10
306.6461261696
 20
499.8648390602
 30
0.0
 40
0.7999999999999952
100
AcDbArc
 50
0.0
 51
90.0
  0
LINE
  5
6B
330
5E
100
AcDbEntity
  8
$DDT_AUDIT_GENERATED_(6A)
  6
Continuous
 62
     7
100
AcDbLine
 10
246.4461261687
 20
443.6648390602
 30
0.0
 11
264.4461261687
 21
443.6648390602
 31
0.0
  0
LINE
  5
6C
330
5E
100
AcDbEntity
  8
$DDT_AUDIT_GENERATED_(6A)
  6
Continuous
 62
     7
100
AcDbLine
 10
244.9661261687
 20
442.1848390602
 30
0.0
 11
265.9261261687
 21
442.1848390602
 31
0.0
  0
LINE
  5
6D
330
5E
100
AcDbEntity
  8
$DDT_AUDIT_GENERATED_(6A)
  6
Continuous
 62
     7
100
AcDbLine
 10
246.1661261687
 20
434.7648390602
 30
0.0
 11
264.7261261687
 21
434.7648390602
 31
0.0
  0
LINE
  5
6E
330
5E
100
AcDbEntity
  8
$DDT_AUDIT_GENERATED_(6A)
  6
Continuous
 62
     7
100
AcDbLine
 10
244.9661261687
 20
435.9648390602
 30
0.0
 11
265.9261261687
 21
435.9648390602
 31
0.0
  0
LINE
  5
6F
330
5E
100
AcDbEntity
  8
$DDT_AUDIT_GENERATED_(6A)
  6
Continuous
 62
     7
100
AcDbLine
 10
244.9661261687
 20
442.1848390602
 30
0.0
 11
244.9661261687
 21
435.9648390602
 31
0.0
  0
LINE
  5
70
330
5E
100
AcDbEntity
  8
$DDT_AUDIT_GENERATED_(6A)
  6
Continuous
 62
     7
100
AcDbLine
 10
265.9261261687
 20
435.9648390602
 30
0.0
 11
265.9261261687
 21
442.1848390602
 31
0.0
  0
LINE
  5
71
330
5E
100
AcDbEntity
  8
$DDT_AUDIT_GENERATED_(6A)
  6
Continuous
 62
     7
100
AcDbLine
 10
246.4461261687
 20
448.7522037511
 30
0.0
 11
246.4461261687
 21
443.6648390602
 31
0.0
  0
LINE
  5
72
330
5E
100
AcDbEntity
  8
$DDT_AUDIT_GENERATED_(6A)
  6
Continuous
 62
     7
100
AcDbLine
 10
264.4461261687
 20
443.6648390602
 30
0.0
 11
264.4461261687
 21
448.7521358287
 31
0.0
  0
LINE
  5
73
330
5E
100
AcDbEntity
  8
$DDT_AUDIT_GENERATED_(6A)
  6
Continuous
 62
     7
100
AcDbLine
 10
265.9261261687
 20
442.1848390602
 30
0.0
 11
264.4461261687
 21
443.6648390602
 31
0.0
  0
LINE
  5
74
330
5E
100
AcDbEntity
  8
$DDT_AUDIT_GENERATED_(6A)
  6
Continuous
 62
     7
100
AcDbLine
 10
246.4461261687
 20
443.6648390602
 30
0.0
 11
244.9661261687
 21
442.1848390602
 31
0.0
  0
LINE
  5
75
330
5E
100
AcDbEntity
  8
$DDT_AUDIT_GENERATED_(6A)
  6
Continuous
 62
     7
100
AcDbLine
 10
244.9661261687
 20
435.9648390602
 30
0.0
 11
246.1661261687
 21
434.7648390602
 31
0.0
  0
LINE
  5
76
330
5E
100
AcDbEntity
  8
$DDT_AUDIT_GENERATED_(6A)
  6
Continuous
 62
     7
100
AcDbLine
 10
264.7261261687
 20
434.7648390602
 30
0.0
 11
265.9261261687
 21
435.9648390602
 31
0.0
  0
ARC
  5
78
330
5E
100
AcDbEntity
  8
$DDT_AUDIT_GENERATED_(77)
  6
Continuous
 62
     7
100
AcDbCircle
 10
54.0461261696
 20
474.6648390602
 30
0.0
 40
26.0
100
AcDbArc
 50
243.2658749137
 51
270.0
  0
ARC
  5
79
330
5E
100
AcDbEntity
  8
$DDT_AUDIT_GENERATED_(77)
  6
Continuous
 62
     7
100
AcDbCircle
 10
54.0461261696
 20
474.6648390602
 30
0.0
 40
26.00000000000001
100
AcDbArc
 50
90.0
 51
116.7341250863
  0
LINE
  5
7A
330
5E
100
AcDbEntity
  8
$DDT_AUDIT_GENERATED_(77)
  6
Continuous
 62
     7
100
AcDbLine
 10
54.0461261696
 20
448.6648390602
 30
0.0
 11
68.0461261696
 21
448.6648390602
 31
0.0
  0
LINE
  5
7B
330
5E
100
AcDbEntity
  8
$DDT_AUDIT_GENERATED_(77)
  6
Continuous
 62
     7
100
AcDbLine
 10
68.0461261696
 20
500.6648390602
 30
0.0
 11
54.0461261696
 21
500.6648390602
 31
0.0
  0
LINE
  5
7C
330
5E
100
AcDbEntity
  8
$DDT_AUDIT_GENERATED_(77)
  6
Continuous
 62
     7
100
AcDbLine
 10
68.0461261696
 20
448.6648390602
 30
0.0
 11
68.5461261696
 21
449.1648390602
 31
0.0
  0
LINE
  5
7D
330
5E
100
AcDbEntity
  8
$DDT_AUDIT_GENERATED_(77)
  6
Continuous
 62
     7
100
AcDbLine
 10
68.5461261696
 20
500.1648390602
 30
0.0
 11
68.0461261696
 21
500.6648390602
 31
0.0
  0
LINE
  5
7F
330
5E
100
AcDbEntity
  8
$DDT_AUDIT_GENERATED_(7E)
  6
Continuous
 62
     7
100
AcDbLine
 10
12.35
 20
500.1424567185
 30
0.0
 11
12.35
 21
449.1320939308
 31
0.0
  0
LINE
  5
80
330
5E
100
AcDbEntity
  8
$DDT_AUDIT_GENERATED_(7E)
  6
Continuous
 62
     7
100
AcDbLine
 10
22.85
 20
379.55
 30
0.0
 11
31.85
 21
379.55
 31
0.0
  0
LINE
  5
81
330
5E
100
AcDbEntity
  8
$DDT_AUDIT_GENERATED_(7E)
  6
Continuous
 62
     7
100
AcDbLine
 10
42.35
 20
448.4223755693
 30
0.0
 11
42.35
 21
500.85217508
 31
0.0
  0
LINE
  5
82
330
5E
100
AcDbEntity
  8
$DDT_AUDIT_GENERATED_(7E)
  6
Continuous
 62
     7
100
AcDbLine
 10
42.0447642781
 20
501.1521293886
 30
0.0
 11
12.8412737968
 21
500.6423805661
 31
0.0
  0
LINE
  5
83
330
5E
100
AcDbEntity
  8
$DDT_AUDIT_GENERATED_(7E)
  6
Continuous
 62
     7
100
AcDbLine
 10
32.8390249407
 20
448.2831080386
 30
0.0
 11
42.0447642781
 21
448.1224212607
 31
0.0
  0
LINE
  5
84
330
5E
100
AcDbEntity
  8
$DDT_AUDIT_GENERATED_(7E)
  6
Continuous
 62
     7
100
AcDbLine
 10
12.8412737968
 20
448.6321700832
 30
0.0
 11
21.8713032113
 21
448.4745503335
 31
0.0
  0
ARC
  5
85
330
5E
100
AcDbEntity
  8
$DDT_AUDIT_GENERATED_(7E)
  6
Continuous
 62
     7
100
AcDbCircle
 10
12.85
 20
449.1320939308
 30
0.0
 40
0.5000000000000004
100
AcDbArc
 50
180.0
 51
269.0
  0
ARC
  5
86
330
5E
100
AcDbEntity
  8
$DDT_AUDIT_GENERATED_(7E)
  6
Continuous
 62
     7
100
AcDbCircle
 10
12.85
 20
500.1424567185
 30
0.0
 40
0.5000000000000054
100
AcDbArc
 50
91.0
 51
180.0
  0
ARC
  5
87
330
5E
100
AcDbEntity
  8
$DDT_AUDIT_GENERATED_(7E)
  6
Continuous
 62
     7
100
AcDbCircle
 10
31.85
 20
380.05
 30
0.0
 40
0.5000000000000004
100
AcDbArc
 50
270.0
 51
0.0
  0
ARC
  5
88
330
5E
100
AcDbEntity
  8
$DDT_AUDIT_GENERATED_(7E)
  6
Continuous
 62
     7
100
AcDbCircle
 10
22.85
 20
380.05
 30
0.0
 40
0.5000000000000004
100
AcDbArc
 50
180.0
 51
270.0
  0
LINE
  5
89
330
5E
100
AcDbEntity
  8
$DDT_AUDIT_GENERATED_(7E)
  6
Continuous
 62
     7
100
AcDbLine
 10
32.35
 20
380.05
 30
0.0
 11
32.35
 21
447.7829700431
 31
0.0
  0
LINE
  5
8A
330
5E
100
AcDbEntity
  8
$DDT_AUDIT_GENERATED_(7E)
  6
Continuous
 62
     7
100
AcDbLine
 10
22.35
 20
447.9771107873
 30
0.0
 11
22.35
 21
380.05
 31
0.0
  0
ARC
  5
8B
330
5E
100
AcDbEntity
  8
$DDT_AUDIT_GENERATED_(7E)
  6
Continuous
 62
     7
100
AcDbCircle
 10
21.85
 20
447.9748460184
 30
0.0
 40
0.4999999999992157
100
AcDbArc
 50
0.0
 51
88.9999999985
  0
ARC
  5
8C
330
5E
100
AcDbEntity
  8
$DDT_AUDIT_GENERATED_(7E)
  6
Continuous
 62
     7
100
AcDbCircle
 10
32.85
 20
447.7828403042
 30
0.0
 40
0.4999999999988756
100
AcDbArc
 50
89.0000000002
 51
180.0000000002
  0
ARC
  5
8D
330
5E
100
AcDbEntity
  8
$DDT_AUDIT_GENERATED_(7E)
  6
Continuous
 62
     7
100
AcDbCircle
 10
42.05
 20
500.85217508
 30
0.0
 40
0.2999999999999947
100
AcDbArc
 50
0.0
 51
91.0
  0
ARC
  5
8E
330
5E
100
AcDbEntity
  8
$DDT_AUDIT_GENERATED_(7E)
  6
Continuous
 62
     7
100
AcDbCircle
 10
42.05
 20
448.4223755693
 30
0.0
 40
0.3000000000000006
100
AcDbArc
 50
269.0
 51
0.0
  0
LINE
  5
90
330
5E
100
AcDbEntity
  8
$DDT_AUDIT_GENERATED_(8F)
  6
Continuous
 62
     7
100
AcDbLine
 10
313.7461261696
 20
493.4148390602
 30
0.0
 11
313.7461261696
 21
455.9148390602
 31
0.0
  0
LINE
  5
91
330
5E
100
AcDbEntity
  8
$DDT_AUDIT_GENERATED_(8F)
  6
Continuous
 62
     7
100
AcDbLine
 10
324.7461261696
 20
456.2148390602
 30
0.0
 11
324.7461261696
 21
493.1148390602
 31
0.0
  0
LINE
  5
92
330
5E
100
AcDbEntity
  8
$DDT_AUDIT_GENERATED_(8F)
  6
Continuous
 62
     7
100
AcDbLine
 10
314.2461261696
 20
455.4148390602
 30
0.0
 11
323.9461261696
 21
455.4148390602
 31
0.0
  0
LINE
  5
93
330
5E
100
AcDbEntity
  8
$DDT_AUDIT_GENERATED_(8F)
  6
Continuous
 62
     7
100
AcDbLine
 10
323.9461261696
 20
493.9148390602
 30
0.0
 11
314.2461261696
 21
493.9148390602
 31
0.0
  0
LINE
  5
94
330
5E
100
AcDbEntity
  8
$DDT_AUDIT_GENERATED_(8F)
  6
Continuous
 62
     7
100
AcDbLine
 10
313.7461261696
 20
491.6648390602
 30
0.0
 11
307.4461261696
 21
491.6098597931
 31
0.0
  0
LINE
  5
95
330
5E
100
AcDbEntity
  8
$DDT_AUDIT_GENERATED_(8F)
  6
Continuous
 62
     7
100
AcDbLine
 10
307.4461261696
 20
457.7198183273
 30
0.0
 11
313.7461261696
 21
457.6648390602
 31
0.0
  0
ARC
  5
96
330
5E
100
AcDbEntity
  8
$DDT_AUDIT_GENERATED_(8F)
  6
Continuous
 62
     7
100
AcDbCircle
 10
314.2461261696
 20
455.9148390602
 30
0.0
 40
0.5000000000000004
100
AcDbArc
 50
180.0
 51
270.0
  0
ARC
  5
97
330
5E
100
AcDbEntity
  8
$DDT_AUDIT_GENERATED_(8F)
  6
Continuous
 62
     7
100
AcDbCircle
 10
314.2461261696
 20
493.4148390602
 30
0.0
 40
0.5000000000000004
100
AcDbArc
 50
90.0
 51
180.0
  0
ARC
  5
98
330
5E
100
AcDbEntity
  8
$DDT_AUDIT_GENERATED_(8F)
  6
Continuous
 62
     7
100
AcDbCircle
 10
323.9461261696
 20
493.1148390602
 30
0.0
 40
0.7999999999999952
100
AcDbArc
 50
0.0
 51
90.0
  0
ARC
  5
99
330
5E
100
AcDbEntity
  8
$DDT_AUDIT_GENERATED_(8F)
  6
Continuous
 62
     7
100
AcDbCircle
 10
323.9461261696
 20
456.2148390602
 30
0.0
 40
0.7999999999999986
100
AcDbArc
 50
270.0
 51
0.0
  0
LINE
  5
9B
330
5E
100
AcDbEntity
  8
$DDT_AUDIT_GENERATED_(9A)
  6
Continuous
 62
     7
100
AcDbLine
 10
6.35
 20
496.6372753246
 30
0.0
 11
6.35
 21
452.6372753246
 31
0.0
  0
LINE
  5
9C
330
5E
100
AcDbEntity
  8
$DDT_AUDIT_GENERATED_(9A)
  6
Continuous
 62
     7
100
AcDbLine
 10
11.35
 20
452.2500579897
 30
0.0
 11
11.35
 21
452.1372753246
 31
0.0
  0
LINE
  5
9D
330
5E
100
AcDbEntity
  8
$DDT_AUDIT_GENERATED_(9A)
  6
Continuous
 62
     7
100
AcDbLine
 10
11.35
 20
452.2500579897
 30
0.0
 11
12.35
 21
452.2500579897
 31
0.0
  0
ARC
  5
9E
330
5E
100
AcDbEntity
  8
$DDT_AUDIT_GENERATED_(9A)
  6
Continuous
 62
     7
100
AcDbCircle
 10
6.85
 20
496.6372753246
 30
0.0
 40
0.5000000000000004
100
AcDbArc
 50
90.0
 51
180.0
  0
ARC
  5
9F
330
5E
100
AcDbEntity
  8
$DDT_AUDIT_GENERATED_(9A)
  6
Continuous
 62
     7
100
AcDbCircle
 10
6.85
 20
452.6372753246
 30
0.0
 40
0.5000000000000004
100
AcDbArc
 50
180.0
 51
270.0
  0
LINE
  5
A0
330
5E
100
AcDbEntity
  8
$DDT_AUDIT_GENERATED_(9A)
  6
Continuous
 62
     7
100
AcDbLine
 10
12.35
 20
497.1372753246
 30
0.0
 11
6.85
 21
497.1372753246
 31
0.0
  0
LINE
  5
A1
330
5E
100
AcDbEntity
  8
$DDT_AUDIT_GENERATED_(9A)
  6
Continuous
 62
     7
100
AcDbLine
 10
6.85
 20
452.1372753246
 30
0.0
 11
11.35
 21
452.1372753246
 31
0.0
  0
ARC
  5
A3
330
5E
100
AcDbEntity
  8
$DDT_AUDIT_GENERATED_(A2)
  6
Continuous
 62
     7
100
AcDbCircle
 10
255.4461261696
 20
474.6648390602
 30
0.0
 40
35.0
100
AcDbArc
 50
287.4232850398
 51
312.0246275794
  0
ARC
  5
A4
330
5E
100
AcDbEntity
  8
$DDT_AUDIT_GENERATED_(A2)
  6
Continuous
 62
     7
100
AcDbCircle
 10
255.4461261696
 20
474.6648390602
 30
0.0
 40
35.0
100
AcDbArc
 50
227.9753724206
 51
252.5767149571
  0
ARC
  5
A5
330
5E
100
AcDbEntity
  8
$DDT_AUDIT_GENERATED_(A2)
  6
Continuous
 62
     7
100
AcDbCircle
 10
255.4461261696
 20
474.6648390602
 30
0.0
 40
35.0
100
AcDbArc
 50
47.9753724206
 51
132.0246275794
  0
ARC
  5
A6
330
5E
100
AcDbEntity
  8
$DDT_AUDIT_GENERATED_(A2)
  6
Continuous
 62
     7
100
AcDbCircle
 10
105.4461261696
 20
474.6648390602
 30
0.0
 40
35.0
100
AcDbArc
 50
227.9753724206
 51
312.0246275794
  0
ARC
  5
A7
330
5E
100
AcDbEntity
  8
$DDT_AUDIT_GENERATED_(A2)
  6
Continuous
 62
     7
100
AcDbCircle
 10
105.4461261696
 20
474.6648390602
 30
0.0
 40
35.0
100
AcDbArc
 50
47.9753724206
 51
132.0246275794
  0
SPLINE
  5
A9
330
5E
100
AcDbEntity
  8
$DDT_AUDIT_GENERATED_(A8)
  6
Continuous
 62
     7
100
AcDbSpline
210
0.0
220
0.0
230
1.0
 70
     8
 71
     3
 72
    10
 73
     6
 74
     0
 42
0.0000000010033811
 43
0.0000000001
 40
0.0069632502469798
 40
0.0069632502469798
 40
0.0069632502469798
 40
0.0069632502469798
 40
0.0184728763493593
 40
0.0360451465645014
 40
0.0447096531960861
 40
0.0447096531960861
 40
0.0447096531960861
 40
0.0447096531960861
 10
271.4388418656466
 20
470.7991927413756
 30
0.0
 10
271.454469304335
 20
470.8097564052208
 30
0.0
 10
271.4918264473238
 20
470.8457110337338
 30
0.0
 10
271.5437074618545
 20
470.9700247240532
 30
0.0
 10
271.5793581279389
 20
471.0906266354734
 30
0.0
 10
271.5910998427743
 20
471.134082539303
 30
0.0
  0
LINE
  5
AC
330
5E
100
AcDbEntity
  8
DV1_Standard
  6
CENTER2
 62
     7
100
AcDbLine
 10
125.4461257226
 20
474.6648390602
 30
0.0
 11
85.4461266166
 21
474.6648390602
 31
0.0
  0
LINE
  5
AD
330
5E
100
AcDbEntity
  8
DV1_Standard
  6
CENTER2
 62
     7
100
AcDbLine
 10
105.4461261696
 20
494.6648386132
 30
0.0
 11
105.4461261696
 21
454.6648395073
 31
0.0
  0
LINE
  5
AE
330
5E
100
AcDbEntity
  8
DV1_Standard
  6
CENTER2
 62
     7
100
AcDbLine
 10
130.4461256108
 20
474.6648390602
 30
0.0
 11
143.9461261696
 21
474.6648390602
 31
0.0
  0
LINE
  5
AF
330
5E
100
AcDbEntity
  8
DV1_Standard
  6
CENTER2
 62
     7
100
AcDbLine
 10
105.4461261696
 20
499.6648385014
 30
0.0
 11
105.4461261696
 21
513.1648390602
 31
0.0
  0
LINE
  5
B0
330
5E
100
AcDbEntity
  8
DV1_Standard
  6
CENTER2
 62
     7
100
AcDbLine
 10
80.4461267284
 20
474.6648390602
 30
0.0
 11
66.9461261696
 21
474.6648390602
 31
0.0
  0
LINE
  5
B1
330
5E
100
AcDbEntity
  8
DV1_Standard
  6
CENTER2
 62
     7
100
AcDbLine
 10
105.4461261696
 20
449.664839619
 30
0.0
 11
105.4461261696
 21
436.1648390602
 31
0.0
  0
LINE
  5
B2
330
5E
100
AcDbEntity
  8
DV1_Standard
  6
CENTER2
 62
     7
100
AcDbLine
 10
275.4461257226
 20
474.6648390602
 30
0.0
 11
235.4461266166
 21
474.6648390602
 31
0.0
  0
LINE
  5
B3
330
5E
100
AcDbEntity
  8
DV1_Standard
  6
CENTER2
 62
     7
100
AcDbLine
 10
255.4461261696
 20
494.6648386132
 30
0.0
 11
255.4461261696
 21
454.6648395073
 31
0.0
  0
LINE
  5
B4
330
5E
100
AcDbEntity
  8
DV1_Standard
  6
CENTER2
 62
     7
100
AcDbLine
 10
280.4461256108
 20
474.6648390602
 30
0.0
 11
293.9461261696
 21
474.6648390602
 31
0.0
  0
LINE
  5
B5
330
5E
100
AcDbEntity
  8
DV1_Standard
  6
CENTER2
 62
     7
100
AcDbLine
 10
255.4461261696
 20
499.6648385014
 30
0.0
 11
255.4461261696
 21
513.1648390602
 31
0.0
  0
LINE
  5
B6
330
5E
100
AcDbEntity
  8
DV1_Standard
  6
CENTER2
 62
     7
100
AcDbLine
 10
230.4461267284
 20
474.6648390602
 30
0.0
 11
216.9461261696
 21
474.6648390602
 31
0.0
  0
LINE
  5
B7
330
5E
100
AcDbEntity
  8
DV1_Standard
  6
CENTER2
 62
     7
100
AcDbLine
 10
255.4461261696
 20
449.664839619
 30
0.0
 11
255.4461261696
 21
436.1648390602
 31
0.0
  0
ENDBLK
  5
B9
330
5E
100
AcDbEntity
  8
0
100
AcDbBlockEnd
  0
BLOCK
  5
102
330
BA
100
AcDbEntity
  8
0
100
AcDbBlockBegin
  2
SE1
 70
     0
 10
0.0
 20
0.0
 30
0.0
  3
SE1
  1

  0
LINE
  5
BC
330
BA
100
AcDbEntity
  8
$DDT_AUDIT_GENERATED_(60)
  6
Continuous
 62
     7
100
AcDbLine
 10
597.9519242802
 20
490.3648390602
 30
0.0
 11
597.9519242802
 21
458.9648390602
 31
0.0
  0
ARC
  5
BD
330
BA
100
AcDbEntity
  8
$DDT_AUDIT_GENERATED_(60)
  6
Continuous
 62
     7
100
AcDbCircle
 10
568.2400520494
 20
435.1942871792
 30
0.0
 40
30.56382426813389
100
AcDbArc
 50
48.725706762
 51
70.6741730539
  0
ARC
  5
BE
330
BA
100
AcDbEntity
  8
$DDT_AUDIT_GENERATED_(60)
  6
Continuous
 62
     7
100
AcDbCircle
 10
582.3508475829
 20
435.7298341018
 30
0.0
 40
29.95511989402307
100
AcDbArc
 50
109.0999702776
 51
131.5001534675
  0
ARC
  5
BF
330
BA
100
AcDbEntity
  8
$DDT_AUDIT_GENERATED_(60)
  6
Continuous
 62
     7
100
AcDbCircle
 10
575.4519242802
 20
446.2041352136
 30
0.0
 40
18.0665060208003
100
AcDbArc
 50
80.7536730146
 51
99.2463269854
  0
LINE
  5
C0
330
BA
100
AcDbEntity
  8
$DDT_AUDIT_GENERATED_(60)
  6
Continuous
 62
     7
100
AcDbLine
 10
473.4519016565
 20
458.1648390602
 30
0.0
 11
473.4519016565
 21
491.1648390602
 31
0.0
  0
LINE
  5
C1
330
BA
100
AcDbEntity
  8
$DDT_AUDIT_GENERATED_(60)
  6
Continuous
 62
     7
100
AcDbLine
 10
473.451904777
 20
462.164825143
 30
0.0
 11
473.451904777
 21
487.1648529774
 31
0.0
  0
LINE
  5
C2
330
BA
100
AcDbEntity
  8
$DDT_AUDIT_GENERATED_(60)
  6
Continuous
 62
     7
100
AcDbLine
 10
473.4519016565
 20
458.1648390602
 30
0.0
 11
483.0993816424
 21
458.1648390602
 31
0.0
  0
LINE
  5
C3
330
BA
100
AcDbEntity
  8
$DDT_AUDIT_GENERATED_(60)
  6
Continuous
 62
     7
100
AcDbLine
 10
483.0824087375
 20
491.1648390602
 30
0.0
 11
473.4519016565
 21
491.1648390602
 31
0.0
  0
LINE
  5
C4
330
BA
100
AcDbEntity
  8
$DDT_AUDIT_GENERATED_(60)
  6
Continuous
 62
     7
100
AcDbLine
 10
588.4013158999
 20
458.1648390602
 30
0.0
 11
597.1519242802
 21
458.1648390602
 31
0.0
  0
LINE
  5
C5
330
BA
100
AcDbEntity
  8
$DDT_AUDIT_GENERATED_(60)
  6
Continuous
 62
     7
100
AcDbLine
 10
527.804466918
 20
458.1648390602
 30
0.0
 11
562.5019242802
 21
458.1648390602
 31
0.0
  0
LINE
  5
C6
330
BA
100
AcDbEntity
  8
$DDT_AUDIT_GENERATED_(60)
  6
Continuous
 62
     7
100
AcDbLine
 10
597.1519242802
 20
491.1648390602
 30
0.0
 11
527.8214398229
 21
491.1648390602
 31
0.0
  0
ARC
  5
C7
330
BA
100
AcDbEntity
  8
$DDT_AUDIT_GENERATED_(60)
  6
Continuous
 62
     7
100
AcDbCircle
 10
527.7664152056
 20
453.199924943
 30
0.0
 40
4.960916810110313
100
AcDbArc
 50
89.5389227642
 51
111.9300625959
  0
ARC
  5
C8
330
BA
100
AcDbEntity
  8
$DDT_AUDIT_GENERATED_(60)
  6
Continuous
 62
     7
100
AcDbCircle
 10
527.7652128461
 20
496.124107569
 30
0.0
 40
4.955743112516319
100
AcDbArc
 50
247.3034892867
 51
270.6619843449
  0
ARC
  5
C9
330
BA
100
AcDbEntity
  8
$DDT_AUDIT_GENERATED_(60)
  6
Continuous
 62
     7
100
AcDbCircle
 10
483.1273228385
 20
496.1413196635
 30
0.0
 40
4.975929423198565
100
AcDbArc
 50
269.4650039039
 51
292.9855060139
  0
ARC
  5
CA
330
BA
100
AcDbEntity
  8
$DDT_AUDIT_GENERATED_(60)
  6
Continuous
 62
     7
100
AcDbCircle
 10
483.1370269273
 20
453.1985232276
 30
0.0
 40
4.962222406059459
100
AcDbArc
 50
68.0465331254
 51
90.4542049284
  0
ARC
  5
CB
330
BA
100
AcDbEntity
  8
$DDT_AUDIT_GENERATED_(60)
  6
Continuous
 62
     7
100
AcDbCircle
 10
597.1519242802
 20
458.9648390602
 30
0.0
 40
0.7999999999999986
100
AcDbArc
 50
270.0
 51
0.0
  0
ARC
  5
CC
330
BA
100
AcDbEntity
  8
$DDT_AUDIT_GENERATED_(60)
  6
Continuous
 62
     7
100
AcDbCircle
 10
597.1519242802
 20
490.3648390602
 30
0.0
 40
0.800000000000009
100
AcDbArc
 50
0.0
 51
90.0
  0
LINE
  5
CD
330
BA
100
AcDbEntity
  8
$DDT_AUDIT_GENERATED_(60)
  6
Continuous
 62
     7
100
AcDbLine
 10
473.451904777
 20
487.1648529774
 30
0.0
 11
472.4519242802
 21
487.1648514172
 31
0.0
  0
LINE
  5
CE
330
BA
100
AcDbEntity
  8
$DDT_AUDIT_GENERATED_(60)
  6
Continuous
 62
     7
100
AcDbLine
 10
472.4519242802
 20
462.1648267033
 30
0.0
 11
473.451904777
 21
462.164825143
 31
0.0
  0
LINE
  5
CF
330
BA
100
AcDbEntity
  8
$DDT_AUDIT_GENERATED_(6A)
  6
Continuous
 62
     7
100
AcDbLine
 10
496.4519242802
 20
443.6648390602
 30
0.0
 11
500.4519242802
 21
443.6648390602
 31
0.0
  0
LINE
  5
D0
330
BA
100
AcDbEntity
  8
$DDT_AUDIT_GENERATED_(6A)
  6
Continuous
 62
     7
100
AcDbLine
 10
510.4519242802
 20
443.6648390602
 30
0.0
 11
514.4519242802
 21
443.6648390602
 31
0.0
  0
LINE
  5
D1
330
BA
100
AcDbEntity
  8
$DDT_AUDIT_GENERATED_(6A)
  6
Continuous
 62
     7
100
AcDbLine
 10
515.9319242802
 20
442.1848390602
 30
0.0
 11
510.4519242802
 21
442.1848390602
 31
0.0
  0
LINE
  5
D2
330
BA
100
AcDbEntity
  8
$DDT_AUDIT_GENERATED_(6A)
  6
Continuous
 62
     7
100
AcDbLine
 10
500.4519242802
 20
442.1848390602
 30
0.0
 11
494.9719242802
 21
442.1848390602
 31
0.0
  0
LINE
  5
D3
330
BA
100
AcDbEntity
  8
$DDT_AUDIT_GENERATED_(6A)
  6
Continuous
 62
     7
100
AcDbLine
 10
514.7319242802
 20
434.7648390602
 30
0.0
 11
510.4519242802
 21
434.7648390602
 31
0.0
  0
LINE
  5
D4
330
BA
100
AcDbEntity
  8
$DDT_AUDIT_GENERATED_(6A)
  6
Continuous
 62
     7
100
AcDbLine
 10
500.4519242802
 20
434.7648390602
 30
0.0
 11
496.1719242802
 21
434.7648390602
 31
0.0
  0
LINE
  5
D5
330
BA
100
AcDbEntity
  8
$DDT_AUDIT_GENERATED_(6A)
  6
Continuous
 62
     7
100
AcDbLine
 10
515.9319242802
 20
435.9648390602
 30
0.0
 11
510.4519242802
 21
435.9648390602
 31
0.0
  0
LINE
  5
D6
330
BA
100
AcDbEntity
  8
$DDT_AUDIT_GENERATED_(6A)
  6
Continuous
 62
     7
100
AcDbLine
 10
500.4519242802
 20
435.9648390602
 30
0.0
 11
494.9719242802
 21
435.9648390602
 31
0.0
  0
LINE
  5
D7
330
BA
100
AcDbEntity
  8
$DDT_AUDIT_GENERATED_(6A)
  6
Continuous
 62
     7
100
AcDbLine
 10
494.9719242802
 20
442.1848390602
 30
0.0
 11
494.9719242802
 21
435.9648390602
 31
0.0
  0
LINE
  5
D8
330
BA
100
AcDbEntity
  8
$DDT_AUDIT_GENERATED_(6A)
  6
Continuous
 62
     7
100
AcDbLine
 10
515.9319242802
 20
435.9648390602
 30
0.0
 11
515.9319242802
 21
442.1848390602
 31
0.0
  0
LINE
  5
D9
330
BA
100
AcDbEntity
  8
$DDT_AUDIT_GENERATED_(6A)
  6
Continuous
 62
     7
100
AcDbLine
 10
496.4519242802
 20
449.6965474075
 30
0.0
 11
496.4519242802
 21
443.6648390602
 31
0.0
  0
LINE
  5
DA
330
BA
100
AcDbEntity
  8
$DDT_AUDIT_GENERATED_(6A)
  6
Continuous
 62
     7
100
AcDbLine
 10
514.4519242802
 20
443.6648390602
 30
0.0
 11
514.4519242802
 21
449.6965474075
 31
0.0
  0
LINE
  5
DB
330
BA
100
AcDbEntity
  8
$DDT_AUDIT_GENERATED_(6A)
  6
Continuous
 62
     7
100
AcDbLine
 10
515.9319242802
 20
442.1848390602
 30
0.0
 11
514.4519242802
 21
443.6648390602
 31
0.0
  0
LINE
  5
DC
330
BA
100
AcDbEntity
  8
$DDT_AUDIT_GENERATED_(6A)
  6
Continuous
 62
     7
100
AcDbLine
 10
496.4519242802
 20
443.6648390602
 30
0.0
 11
494.9719242802
 21
442.1848390602
 31
0.0
  0
LINE
  5
DD
330
BA
100
AcDbEntity
  8
$DDT_AUDIT_GENERATED_(6A)
  6
Continuous
 62
     7
100
AcDbLine
 10
494.9719242802
 20
435.9648390602
 30
0.0
 11
496.1719242802
 21
434.7648390602
 31
0.0
  0
LINE
  5
DE
330
BA
100
AcDbEntity
  8
$DDT_AUDIT_GENERATED_(6A)
  6
Continuous
 62
     7
100
AcDbLine
 10
514.7319242802
 20
434.7648390602
 30
0.0
 11
515.9319242802
 21
435.9648390602
 31
0.0
  0
LINE
  5
DF
330
BA
100
AcDbEntity
  8
$DDT_AUDIT_GENERATED_(7E)
  6
Continuous
 62
     7
100
AcDbLine
 10
500.9519242802
 20
379.55
 30
0.0
 11
509.9519242802
 21
379.55
 31
0.0
  0
ARC
  5
E0
330
BA
100
AcDbEntity
  8
$DDT_AUDIT_GENERATED_(7E)
  6
Continuous
 62
     7
100
AcDbCircle
 10
505.4520058267
 20
472.2602227083
 30
0.0
 40
23.93674135962087
100
AcDbArc
 50
260.6875545587
 51
282.997147506
  0
ARC
  5
E1
330
BA
100
AcDbEntity
  8
$DDT_AUDIT_GENERATED_(7E)
  6
Continuous
 62
     7
100
AcDbCircle
 10
509.9519242802
 20
380.05
 30
0.0
 40
0.5000000000000004
100
AcDbArc
 50
270.0
 51
0.0
  0
ARC
  5
E2
330
BA
100
AcDbEntity
  8
$DDT_AUDIT_GENERATED_(7E)
  6
Continuous
 62
     7
100
AcDbCircle
 10
500.9519242802
 20
380.05
 30
0.0
 40
0.4999999999999996
100
AcDbArc
 50
180.0
 51
270.0
  0
LINE
  5
E3
330
BA
100
AcDbEntity
  8
$DDT_AUDIT_GENERATED_(7E)
  6
Continuous
 62
     7
100
AcDbLine
 10
510.4519242802
 20
380.05
 30
0.0
 11
510.4519242802
 21
448.4460391265
 31
0.0
  0
LINE
  5
E4
330
BA
100
AcDbEntity
  8
$DDT_AUDIT_GENERATED_(7E)
  6
Continuous
 62
     7
100
AcDbLine
 10
500.4519242802
 20
448.4462989365
 30
0.0
 11
500.4519242802
 21
380.05
 31
0.0
  0
ARC
  5
E5
330
BA
100
AcDbEntity
  8
$DDT_AUDIT_GENERATED_(7E)
  6
Continuous
 62
     7
100
AcDbCircle
 10
499.9753304546
 20
448.4664791448
 30
0.0
 40
0.4720275970556096
100
AcDbArc
 50
357.326172253
 51
63.987055154
  0
SPLINE
  5
E6
330
BA
100
AcDbEntity
  8
$DDT_AUDIT_GENERATED_(7E)
  6
Continuous
 62
     7
100
AcDbSpline
210
0.0
220
0.0
230
1.0
 70
     8
 71
     3
 72
    14
 73
    10
 74
     0
 42
0.0000000181126012
 43
0.0000000001
 40
0.0
 40
0.0
 40
0.0
 40
0.0
 40
0.1204481807450873
 40
0.3349047684829228
 40
0.5158040828649322
 40
0.6697798066112105
 40
0.8002343150323933
 40
0.9382304615304222
 40
1.0
 40
1.0
 40
1.0
 40
1.0
 10
510.4609692854568
 20
448.4469473127972
 30
0.0
 10
510.4581911870162
 20
448.4776899564664
 30
0.0
 10
510.4523380655287
 20
448.5511504845403
 30
0.0
 10
510.4966975470596
 20
448.6686946183095
 30
0.0
 10
510.5636636570621
 20
448.7710613491883
 30
0.0
 10
510.6329173641562
 20
448.836276181012
 30
0.0
 10
510.684155553154
 20
448.8713904004741
 30
0.0
 10
510.7129307358613
 20
448.8868997932329
 30
0.0
 10
510.7194791238771
 20
448.8899038819596
 30
0.0
 10
510.7217246363289
 20
448.8908690026421
 30
0.0
  0
ARC
  5
E7
330
BA
100
AcDbEntity
  8
$DDT_AUDIT_GENERATED_(7E)
  6
Continuous
 62
     7
100
AcDbCircle
 10
505.4519242802
 20
474.6372753246
 30
0.0
 40
26.51489975538265
100
AcDbArc
 50
0.0
 51
258.9924049586
  0
ARC
  5
E8
330
BA
100
AcDbEntity
  8
$DDT_AUDIT_GENERATED_(7E)
  6
Continuous
 62
     7
100
AcDbCircle
 10
505.4519242802
 20
474.6372753246
 30
0.0
 40
26.51489975538265
100
AcDbArc
 50
280.9970529864
 51
0.0
  0
CIRCLE
  5
E9
330
BA
100
AcDbEntity
  8
$DDT_AUDIT_GENERATED_(9A)
  6
Continuous
 62
     7
100
AcDbCircle
 10
505.4519242802
 20
474.6372753246
 30
0.0
 40
22.49999999999999
  0
LINE
  5
EB
330
BA
100
AcDbEntity
  8
$DDT_AUDIT_GENERATED_(EA)
  6
Continuous
 62
     7
100
AcDbLine
 10
472.4519242802
 20
459.6648390602
 30
0.0
 11
472.4519242802
 21
489.6648390602
 31
0.0
  0
LINE
  5
EC
330
BA
100
AcDbEntity
  8
$DDT_AUDIT_GENERATED_(EA)
  6
Continuous
 62
     7
100
AcDbLine
 10
471.9519242802
 20
490.1648390602
 30
0.0
 11
436.9519242802
 21
490.1648390602
 31
0.0
  0
LINE
  5
ED
330
BA
100
AcDbEntity
  8
$DDT_AUDIT_GENERATED_(EA)
  6
Continuous
 62
     7
100
AcDbLine
 10
436.9519242802
 20
459.1648390602
 30
0.0
 11
471.9519242802
 21
459.1648390602
 31
0.0
  0
LINE
  5
EE
330
BA
100
AcDbEntity
  8
$DDT_AUDIT_GENERATED_(EA)
  6
Continuous
 62
     7
100
AcDbLine
 10
471.9519242802
 20
459.1648390602
 30
0.0
 11
472.4519242802
 21
459.6648390602
 31
0.0
  0
LINE
  5
EF
330
BA
100
AcDbEntity
  8
$DDT_AUDIT_GENERATED_(EA)
  6
Continuous
 62
     7
100
AcDbLine
 10
472.4519242802
 20
489.6648390602
 30
0.0
 11
471.9519242802
 21
490.1648390602
 31
0.0
  0
LINE
  5
F0
330
BA
100
AcDbEntity
  8
$DDT_AUDIT_GENERATED_(A2)
  6
Continuous
 62
     7
100
AcDbLine
 10
408.9519242802
 20
509.1648390602
 30
0.0
 11
408.9519242802
 21
440.1648390602
 31
0.0
  0
LINE
  5
F1
330
BA
100
AcDbEntity
  8
$DDT_AUDIT_GENERATED_(A2)
  6
Continuous
 62
     7
100
AcDbLine
 10
423.9519242802
 20
440.6648390602
 30
0.0
 11
423.9519242802
 21
508.6648390602
 31
0.0
  0
LINE
  5
F2
330
BA
100
AcDbEntity
  8
$DDT_AUDIT_GENERATED_(A2)
  6
Continuous
 62
     7
100
AcDbLine
 10
436.9519242802
 20
453.6648390602
 30
0.0
 11
436.9519242802
 21
495.6648390602
 31
0.0
  0
LINE
  5
F3
330
BA
100
AcDbEntity
  8
$DDT_AUDIT_GENERATED_(A2)
  6
Continuous
 62
     7
100
AcDbLine
 10
409.4519242802
 20
439.6648390602
 30
0.0
 11
422.9519242802
 21
439.6648390602
 31
0.0
  0
LINE
  5
F4
330
BA
100
AcDbEntity
  8
$DDT_AUDIT_GENERATED_(A2)
  6
Continuous
 62
     7
100
AcDbLine
 10
422.9519242802
 20
509.6648390602
 30
0.0
 11
409.4519242802
 21
509.6648390602
 31
0.0
  0
LINE
  5
F5
330
BA
100
AcDbEntity
  8
$DDT_AUDIT_GENERATED_(A2)
  6
Continuous
 62
     7
100
AcDbLine
 10
424.9519242802
 20
452.6648390602
 30
0.0
 11
435.9519242802
 21
452.6648390602
 31
0.0
  0
LINE
  5
F6
330
BA
100
AcDbEntity
  8
$DDT_AUDIT_GENERATED_(A2)
  6
Continuous
 62
     7
100
AcDbLine
 10
435.9519242802
 20
496.6648390602
 30
0.0
 11
424.9519242802
 21
496.6648390602
 31
0.0
  0
ARC
  5
F7
330
BA
100
AcDbEntity
  8
$DDT_AUDIT_GENERATED_(A2)
  6
Continuous
 62
     7
100
AcDbCircle
 10
409.4519242802
 20
440.1648390602
 30
0.0
 40
0.5000000000000004
100
AcDbArc
 50
180.0
 51
270.0
  0
ARC
  5
F8
330
BA
100
AcDbEntity
  8
$DDT_AUDIT_GENERATED_(A2)
  6
Continuous
 62
     7
100
AcDbCircle
 10
409.4519242802
 20
509.1648390602
 30
0.0
 40
0.5000000000000004
100
AcDbArc
 50
90.0
 51
180.0
  0
ARC
  5
F9
330
BA
100
AcDbEntity
  8
$DDT_AUDIT_GENERATED_(A2)
  6
Continuous
 62
     7
100
AcDbCircle
 10
422.9519242802
 20
440.6648390602
 30
0.0
 40
1.000000000000001
100
AcDbArc
 50
270.0
 51
0.0
  0
ARC
  5
FA
330
BA
100
AcDbEntity
  8
$DDT_AUDIT_GENERATED_(A2)
  6
Continuous
 62
     7
100
AcDbCircle
 10
422.9519242802
 20
508.6648390602
 30
0.0
 40
1.000000000000001
100
AcDbArc
 50
0.0
 51
90.0
  0
ARC
  5
FB
330
BA
100
AcDbEntity
  8
$DDT_AUDIT_GENERATED_(A2)
  6
Continuous
 62
     7
100
AcDbCircle
 10
435.9519242802
 20
453.6648390602
 30
0.0
 40
1.000000000000001
100
AcDbArc
 50
270.0
 51
0.0
  0
ARC
  5
FC
330
BA
100
AcDbEntity
  8
$DDT_AUDIT_GENERATED_(A2)
  6
Continuous
 62
     7
100
AcDbCircle
 10
435.9519242802
 20
495.6648390602
 30
0.0
 40
1.000000000000001
100
AcDbArc
 50
0.0
 51
90.0
  0
ARC
  5
FD
330
BA
100
AcDbEntity
  8
$DDT_AUDIT_GENERATED_(A2)
  6
Continuous
 62
     7
100
AcDbCircle
 10
424.9519242802
 20
451.6648390602
 30
0.0
 40
1.000000000000001
100
AcDbArc
 50
90.0
 51
180.0
  0
ARC
  5
FE
330
BA
100
AcDbEntity
  8
$DDT_AUDIT_GENERATED_(A2)
  6
Continuous
 62
     7
100
AcDbCircle
 10
424.9519242802
 20
497.6648390602
 30
0.0
 40
1.000000000000001
100
AcDbArc
 50
180.0
 51
270.0
  0
LINE
  5
100
330
BA
100
AcDbEntity
  8
DV2_Standard
  6
CENTER2
 62
     7
100
AcDbLine
 10
428.9519238331
 20
474.6648390602
 30
0.0
 11
388.9519247272
 21
474.6648390602
 31
0.0
  0
LINE
  5
101
330
BA
100
AcDbEntity
  8
DV2_Standard
  6
CENTER2
 62
     7
100
AcDbLine
 10
408.9519242802
 20
494.6648386132
 30
0.0
 11
408.9519242802
 21
454.6648395073
 31
0.0
  0
ENDBLK
  5
103
330
BA
100
AcDbEntity
  8
0
100
AcDbBlockEnd
  0
BLOCK
  5
16E
330
104
100
AcDbEntity
  8
0
100
AcDbBlockBegin
  2
SE2
 70
     0
 10
0.0
 20
0.0
 30
0.0
  3
SE2
  1

  0
LINE
  5
106
330
104
100
AcDbEntity
  8
$DDT_AUDIT_GENERATED_(60)
  6
Continuous
 62
     7
100
AcDbLine
 10
68.5461261696
 20
224.85
 30
0.0
 11
68.5461261696
 21
172.85
 31
0.0
  0
LINE
  5
107
330
104
100
AcDbEntity
  8
$DDT_AUDIT_GENERATED_(60)
  6
Continuous
 62
     7
100
AcDbLine
 10
239.7461261696
 20
106.35
 30
0.0
 11
271.1461261696
 21
106.35
 31
0.0
  0
LINE
  5
108
330
104
100
AcDbEntity
  8
$DDT_AUDIT_GENERATED_(60)
  6
Continuous
 62
     7
100
AcDbLine
 10
307.4461261696
 20
173.65
 30
0.0
 11
307.4461261696
 21
224.05
 31
0.0
  0
LINE
  5
109
330
104
100
AcDbEntity
  8
$DDT_AUDIT_GENERATED_(60)
  6
Continuous
 62
     7
100
AcDbLine
 10
88.9461087567
 20
230.8499968795
 30
0.0
 11
121.9461087567
 21
230.8500483678
 31
0.0
  0
LINE
  5
10A
330
104
100
AcDbEntity
  8
$DDT_AUDIT_GENERATED_(60)
  6
Continuous
 62
     7
100
AcDbLine
 10
238.9461261696
 20
230.85
 30
0.0
 11
271.9461261696
 21
230.85
 31
0.0
  0
LINE
  5
10B
330
104
100
AcDbEntity
  8
$DDT_AUDIT_GENERATED_(60)
  6
Continuous
 62
     7
100
AcDbLine
 10
276.9420436469
 20
172.85
 30
0.0
 11
306.6461261696
 21
172.85
 31
0.0
  0
LINE
  5
10C
330
104
100
AcDbEntity
  8
$DDT_AUDIT_GENERATED_(60)
  6
Continuous
 62
     7
100
AcDbLine
 10
68.5461261696
 20
172.85
 30
0.0
 11
233.9969376259
 21
172.85
 31
0.0
  0
LINE
  5
10D
330
104
100
AcDbEntity
  8
$DDT_AUDIT_GENERATED_(60)
  6
Continuous
 62
     7
100
AcDbLine
 10
83.9501912793
 20
224.85
 30
0.0
 11
68.5461261696
 21
224.85
 31
0.0
  0
LINE
  5
10E
330
104
100
AcDbEntity
  8
$DDT_AUDIT_GENERATED_(60)
  6
Continuous
 62
     7
100
AcDbLine
 10
233.9502086923
 20
224.85
 30
0.0
 11
126.8952973004
 21
224.85
 31
0.0
  0
LINE
  5
10F
330
104
100
AcDbEntity
  8
$DDT_AUDIT_GENERATED_(60)
  6
Continuous
 62
     7
100
AcDbLine
 10
306.6461261696
 20
224.85
 30
0.0
 11
276.8953147133
 21
224.85
 31
0.0
  0
LINE
  5
110
330
104
100
AcDbEntity
  8
$DDT_AUDIT_GENERATED_(60)
  6
Continuous
 62
     7
100
AcDbLine
 10
88.9461087567
 20
230.8499968795
 30
0.0
 11
88.9461087567
 21
229.8411893119
 31
0.0
  0
LINE
  5
111
330
104
100
AcDbEntity
  8
$DDT_AUDIT_GENERATED_(60)
  6
Continuous
 62
     7
100
AcDbLine
 10
121.9461087567
 20
229.8248389604
 30
0.0
 11
121.9461087567
 21
230.8500483678
 31
0.0
  0
LINE
  5
112
330
104
100
AcDbEntity
  8
$DDT_AUDIT_GENERATED_(60)
  6
Continuous
 62
     7
100
AcDbLine
 10
238.9461261696
 20
167.8751610396
 30
0.0
 11
238.9461261696
 21
107.15
 31
0.0
  0
LINE
  5
113
330
104
100
AcDbEntity
  8
$DDT_AUDIT_GENERATED_(60)
  6
Continuous
 62
     7
100
AcDbLine
 10
271.9461261696
 20
107.15
 30
0.0
 11
271.9461261696
 21
167.8588106881
 31
0.0
  0
LINE
  5
114
330
104
100
AcDbEntity
  8
$DDT_AUDIT_GENERATED_(60)
  6
Continuous
 62
     7
100
AcDbLine
 10
238.9461261696
 20
230.85
 30
0.0
 11
238.9461261696
 21
229.8411893119
 31
0.0
  0
LINE
  5
115
330
104
100
AcDbEntity
  8
$DDT_AUDIT_GENERATED_(60)
  6
Continuous
 62
     7
100
AcDbLine
 10
271.9461261696
 20
229.8248389604
 30
0.0
 11
271.9461261696
 21
230.85
 31
0.0
  0
ARC
  5
116
330
104
100
AcDbEntity
  8
$DDT_AUDIT_GENERATED_(60)
  6
Continuous
 62
     7
100
AcDbCircle
 10
276.935883527
 20
167.8645899906
 30
0.0
 40
4.980142505628522
100
AcDbArc
 50
89.9013406434
 51
180.0486362434
  0
ARC
  5
117
330
104
100
AcDbEntity
  8
$DDT_AUDIT_GENERATED_(60)
  6
Continuous
 62
     7
100
AcDbCircle
 10
233.9717408926
 20
167.8674976707
 30
0.0
 40
4.966560135247598
100
AcDbArc
 50
0.0937923951
 51
89.719689738
  0
ARC
  5
118
330
104
100
AcDbEntity
  8
$DDT_AUDIT_GENERATED_(60)
  6
Continuous
 62
     7
100
AcDbCircle
 10
83.9563513992
 20
229.8354100095
 30
0.0
 40
4.980142505655697
100
AcDbArc
 50
269.9013406436
 51
0.0486362432
  0
ARC
  5
119
330
104
100
AcDbEntity
  8
$DDT_AUDIT_GENERATED_(60)
  6
Continuous
 62
     7
100
AcDbCircle
 10
126.9204940336
 20
229.8325023293
 30
0.0
 40
4.966560135239797
100
AcDbArc
 50
180.093792395
 51
269.719689738
  0
ARC
  5
11A
330
104
100
AcDbEntity
  8
$DDT_AUDIT_GENERATED_(60)
  6
Continuous
 62
     7
100
AcDbCircle
 10
233.9563688122
 20
229.8354100095
 30
0.0
 40
4.980142505637914
100
AcDbArc
 50
269.9013406434
 51
0.0486362433
  0
ARC
  5
11B
330
104
100
AcDbEntity
  8
$DDT_AUDIT_GENERATED_(60)
  6
Continuous
 62
     7
100
AcDbCircle
 10
276.9205114466
 20
229.8325023293
 30
0.0
 40
4.966560135264048
100
AcDbArc
 50
180.0937923952
 51
269.719689738
  0
ARC
  5
11C
330
104
100
AcDbEntity
  8
$DDT_AUDIT_GENERATED_(60)
  6
Continuous
 62
     7
100
AcDbCircle
 10
239.7461261696
 20
107.15
 30
0.0
 40
0.7999999999999952
100
AcDbArc
 50
180.0
 51
270.0
  0
ARC
  5
11D
330
104
100
AcDbEntity
  8
$DDT_AUDIT_GENERATED_(60)
  6
Continuous
 62
     7
100
AcDbCircle
 10
271.1461261696
 20
107.15
 30
0.0
 40
0.800000000000009
100
AcDbArc
 50
270.0
 51
0.0
  0
ARC
  5
11E
330
104
100
AcDbEntity
  8
$DDT_AUDIT_GENERATED_(60)
  6
Continuous
 62
     7
100
AcDbCircle
 10
306.6461261696
 20
173.65
 30
0.0
 40
0.7999999999999986
100
AcDbArc
 50
270.0
 51
0.0
  0
ARC
  5
11F
330
104
100
AcDbEntity
  8
$DDT_AUDIT_GENERATED_(60)
  6
Continuous
 62
     7
100
AcDbCircle
 10
306.6461261696
 20
224.05
 30
0.0
 40
0.7999999999999952
100
AcDbArc
 50
0.0
 51
90.0
  0
LINE
  5
120
330
104
100
AcDbEntity
  8
$DDT_AUDIT_GENERATED_(60)
  6
Continuous
 62
     7
100
AcDbLine
 10
117.9461452975
 20
230.8500390064
 30
0.0
 11
117.9461421771
 21
231.85
 31
0.0
  0
LINE
  5
121
330
104
100
AcDbEntity
  8
$DDT_AUDIT_GENERATED_(60)
  6
Continuous
 62
     7
100
AcDbLine
 10
92.9461174631
 20
231.85
 30
0.0
 11
92.9461174631
 21
230.85
 31
0.0
  0
LINE
  5
122
330
104
100
AcDbEntity
  8
$DDT_AUDIT_GENERATED_(60)
  6
Continuous
 62
     7
100
AcDbLine
 10
267.9461261696
 20
230.85
 30
0.0
 11
267.9461261696
 21
231.85
 31
0.0
  0
LINE
  5
123
330
104
100
AcDbEntity
  8
$DDT_AUDIT_GENERATED_(60)
  6
Continuous
 62
     7
100
AcDbLine
 10
242.9461261696
 20
231.85
 30
0.0
 11
242.9461261696
 21
230.85
 31
0.0
  0
ARC
  5
124
330
104
100
AcDbEntity
  8
$DDT_AUDIT_GENERATED_(77)
  6
Continuous
 62
     7
100
AcDbCircle
 10
54.0461261696
 20
198.85
 30
0.0
 40
25.99999999999999
100
AcDbArc
 50
243.2658749137
 51
270.0
  0
ARC
  5
125
330
104
100
AcDbEntity
  8
$DDT_AUDIT_GENERATED_(77)
  6
Continuous
 62
     7
100
AcDbCircle
 10
54.0461261696
 20
198.85
 30
0.0
 40
26.0
100
AcDbArc
 50
90.0
 51
116.7341250863
  0
LINE
  5
126
330
104
100
AcDbEntity
  8
$DDT_AUDIT_GENERATED_(77)
  6
Continuous
 62
     7
100
AcDbLine
 10
54.0461261696
 20
172.85
 30
0.0
 11
68.0461261696
 21
172.85
 31
0.0
  0
LINE
  5
127
330
104
100
AcDbEntity
  8
$DDT_AUDIT_GENERATED_(77)
  6
Continuous
 62
     7
100
AcDbLine
 10
68.0461261696
 20
224.85
 30
0.0
 11
54.0461261696
 21
224.85
 31
0.0
  0
LINE
  5
128
330
104
100
AcDbEntity
  8
$DDT_AUDIT_GENERATED_(77)
  6
Continuous
 62
     7
100
AcDbLine
 10
68.0461261696
 20
172.85
 30
0.0
 11
68.5461261696
 21
173.35
 31
0.0
  0
LINE
  5
129
330
104
100
AcDbEntity
  8
$DDT_AUDIT_GENERATED_(77)
  6
Continuous
 62
     7
100
AcDbLine
 10
68.5461261696
 20
224.35
 30
0.0
 11
68.0461261696
 21
224.85
 31
0.0
  0
LINE
  5
12A
330
104
100
AcDbEntity
  8
$DDT_AUDIT_GENERATED_(7E)
  6
Continuous
 62
     7
100
AcDbLine
 10
12.35
 20
224.3551813939
 30
0.0
 11
12.35
 21
173.3448186061
 31
0.0
  0
LINE
  5
12B
330
104
100
AcDbEntity
  8
$DDT_AUDIT_GENERATED_(7E)
  6
Continuous
 62
     7
100
AcDbLine
 10
42.35
 20
172.6351002446
 30
0.0
 11
42.35
 21
225.0648997554
 31
0.0
  0
LINE
  5
12C
330
104
100
AcDbEntity
  8
$DDT_AUDIT_GENERATED_(7E)
  6
Continuous
 62
     7
100
AcDbLine
 10
42.0447642781
 20
225.3648540639
 30
0.0
 11
12.8412737968
 21
224.8551052414
 31
0.0
  0
LINE
  5
12D
330
104
100
AcDbEntity
  8
$DDT_AUDIT_GENERATED_(7E)
  6
Continuous
 62
     7
100
AcDbLine
 10
12.8412737968
 20
172.8448947586
 30
0.0
 11
42.0447642781
 21
172.3351459361
 31
0.0
  0
ARC
  5
12E
330
104
100
AcDbEntity
  8
$DDT_AUDIT_GENERATED_(7E)
  6
Continuous
 62
     7
100
AcDbCircle
 10
12.85
 20
173.3448186061
 30
0.0
 40
0.5000000000000004
100
AcDbArc
 50
180.0
 51
269.0
  0
ARC
  5
12F
330
104
100
AcDbEntity
  8
$DDT_AUDIT_GENERATED_(7E)
  6
Continuous
 62
     7
100
AcDbCircle
 10
12.85
 20
224.3551813939
 30
0.0
 40
0.5000000000000016
100
AcDbArc
 50
91.0
 51
180.0
  0
ARC
  5
130
330
104
100
AcDbEntity
  8
$DDT_AUDIT_GENERATED_(7E)
  6
Continuous
 62
     7
100
AcDbCircle
 10
42.05
 20
225.0648997554
 30
0.0
 40
0.2999999999999947
100
AcDbArc
 50
0.0
 51
91.0
  0
ARC
  5
131
330
104
100
AcDbEntity
  8
$DDT_AUDIT_GENERATED_(7E)
  6
Continuous
 62
     7
100
AcDbCircle
 10
42.05
 20
172.6351002446
 30
0.0
 40
0.3000000000000002
100
AcDbArc
 50
269.0
 51
0.0
  0
LINE
  5
132
330
104
100
AcDbEntity
  8
$DDT_AUDIT_GENERATED_(8F)
  6
Continuous
 62
     7
100
AcDbLine
 10
313.7461261696
 20
217.6
 30
0.0
 11
313.7461261696
 21
180.1
 31
0.0
  0
LINE
  5
133
330
104
100
AcDbEntity
  8
$DDT_AUDIT_GENERATED_(8F)
  6
Continuous
 62
     7
100
AcDbLine
 10
324.7461261696
 20
180.4
 30
0.0
 11
324.7461261696
 21
217.3
 31
0.0
  0
LINE
  5
134
330
104
100
AcDbEntity
  8
$DDT_AUDIT_GENERATED_(8F)
  6
Continuous
 62
     7
100
AcDbLine
 10
314.2461261696
 20
179.6
 30
0.0
 11
323.9461261696
 21
179.6
 31
0.0
  0
LINE
  5
135
330
104
100
AcDbEntity
  8
$DDT_AUDIT_GENERATED_(8F)
  6
Continuous
 62
     7
100
AcDbLine
 10
323.9461261696
 20
218.1
 30
0.0
 11
314.2461261696
 21
218.1
 31
0.0
  0
LINE
  5
136
330
104
100
AcDbEntity
  8
$DDT_AUDIT_GENERATED_(8F)
  6
Continuous
 62
     7
100
AcDbLine
 10
313.7461261696
 20
215.85
 30
0.0
 11
307.4461261696
 21
215.7950207329
 31
0.0
  0
LINE
  5
137
330
104
100
AcDbEntity
  8
$DDT_AUDIT_GENERATED_(8F)
  6
Continuous
 62
     7
100
AcDbLine
 10
307.4461261696
 20
181.9049792671
 30
0.0
 11
313.7461261696
 21
181.85
 31
0.0
  0
ARC
  5
138
330
104
100
AcDbEntity
  8
$DDT_AUDIT_GENERATED_(8F)
  6
Continuous
 62
     7
100
AcDbCircle
 10
314.2461261696
 20
180.1
 30
0.0
 40
0.5000000000000004
100
AcDbArc
 50
180.0
 51
270.0
  0
ARC
  5
139
330
104
100
AcDbEntity
  8
$DDT_AUDIT_GENERATED_(8F)
  6
Continuous
 62
     7
100
AcDbCircle
 10
314.2461261696
 20
217.6
 30
0.0
 40
0.5000000000000004
100
AcDbArc
 50
90.0
 51
180.0
  0
ARC
  5
13A
330
104
100
AcDbEntity
  8
$DDT_AUDIT_GENERATED_(8F)
  6
Continuous
 62
     7
100
AcDbCircle
 10
323.9461261696
 20
217.3
 30
0.0
 40
0.7999999999999952
100
AcDbArc
 50
0.0
 51
90.0
  0
ARC
  5
13B
330
104
100
AcDbEntity
  8
$DDT_AUDIT_GENERATED_(8F)
  6
Continuous
 62
     7
100
AcDbCircle
 10
323.9461261696
 20
180.4
 30
0.0
 40
0.7999999999999986
100
AcDbArc
 50
270.0
 51
0.0
  0
LINE
  5
13C
330
104
100
AcDbEntity
  8
$DDT_AUDIT_GENERATED_(9A)
  6
Continuous
 62
     7
100
AcDbLine
 10
6.35
 20
220.85
 30
0.0
 11
6.35
 21
176.85
 31
0.0
  0
ARC
  5
13D
330
104
100
AcDbEntity
  8
$DDT_AUDIT_GENERATED_(9A)
  6
Continuous
 62
     7
100
AcDbCircle
 10
6.85
 20
220.85
 30
0.0
 40
0.5000000000000004
100
AcDbArc
 50
90.0
 51
180.0
  0
ARC
  5
13E
330
104
100
AcDbEntity
  8
$DDT_AUDIT_GENERATED_(9A)
  6
Continuous
 62
     7
100
AcDbCircle
 10
6.85
 20
176.85
 30
0.0
 40
0.5000000000000004
100
AcDbArc
 50
180.0
 51
270.0
  0
LINE
  5
13F
330
104
100
AcDbEntity
  8
$DDT_AUDIT_GENERATED_(9A)
  6
Continuous
 62
     7
100
AcDbLine
 10
12.35
 20
221.35
 30
0.0
 11
6.85
 21
221.35
 31
0.0
  0
LINE
  5
140
330
104
100
AcDbEntity
  8
$DDT_AUDIT_GENERATED_(9A)
  6
Continuous
 62
     7
100
AcDbLine
 10
6.85
 20
176.35
 30
0.0
 11
12.35
 21
176.35
 31
0.0
  0
LINE
  5
141
330
104
100
AcDbEntity
  8
$DDT_AUDIT_GENERATED_(EA)
  6
Continuous
 62
     7
100
AcDbLine
 10
240.4461261696
 20
231.85
 30
0.0
 11
270.4461261696
 21
231.85
 31
0.0
  0
LINE
  5
142
330
104
100
AcDbEntity
  8
$DDT_AUDIT_GENERATED_(EA)
  6
Continuous
 62
     7
100
AcDbLine
 10
270.9461261696
 20
232.35
 30
0.0
 11
270.9461261696
 21
267.35
 31
0.0
  0
LINE
  5
143
330
104
100
AcDbEntity
  8
$DDT_AUDIT_GENERATED_(EA)
  6
Continuous
 62
     7
100
AcDbLine
 10
239.9461261696
 20
267.35
 30
0.0
 11
239.9461261696
 21
232.35
 31
0.0
  0
LINE
  5
144
330
104
100
AcDbEntity
  8
$DDT_AUDIT_GENERATED_(EA)
  6
Continuous
 62
     7
100
AcDbLine
 10
239.9461261696
 20
232.35
 30
0.0
 11
240.4461261696
 21
231.85
 31
0.0
  0
LINE
  5
145
330
104
100
AcDbEntity
  8
$DDT_AUDIT_GENERATED_(EA)
  6
Continuous
 62
     7
100
AcDbLine
 10
270.4461261696
 20
231.85
 30
0.0
 11
270.9461261696
 21
232.35
 31
0.0
  0
LINE
  5
146
330
104
100
AcDbEntity
  8
$DDT_AUDIT_GENERATED_(EA)
  6
Continuous
 62
     7
100
AcDbLine
 10
90.4461261696
 20
231.85
 30
0.0
 11
120.4461261696
 21
231.85
 31
0.0
  0
LINE
  5
147
330
104
100
AcDbEntity
  8
$DDT_AUDIT_GENERATED_(EA)
  6
Continuous
 62
     7
100
AcDbLine
 10
120.9461261696
 20
232.35
 30
0.0
 11
120.9461261696
 21
267.35
 31
0.0
  0
LINE
  5
148
330
104
100
AcDbEntity
  8
$DDT_AUDIT_GENERATED_(EA)
  6
Continuous
 62
     7
100
AcDbLine
 10
89.9461261696
 20
267.35
 30
0.0
 11
89.9461261696
 21
232.35
 31
0.0
  0
LINE
  5
149
330
104
100
AcDbEntity
  8
$DDT_AUDIT_GENERATED_(EA)
  6
Continuous
 62
     7
100
AcDbLine
 10
89.9461261696
 20
232.35
 30
0.0
 11
90.4461261696
 21
231.85
 31
0.0
  0
LINE
  5
14A
330
104
100
AcDbEntity
  8
$DDT_AUDIT_GENERATED_(EA)
  6
Continuous
 62
     7
100
AcDbLine
 10
120.4461261696
 20
231.85
 30
0.0
 11
120.9461261696
 21
232.35
 31
0.0
  0
LINE
  5
14B
330
104
100
AcDbEntity
  8
$DDT_AUDIT_GENERATED_(A2)
  6
Continuous
 62
     7
100
AcDbLine
 10
220.9461261696
 20
295.35
 30
0.0
 11
289.9461261696
 21
295.35
 31
0.0
  0
LINE
  5
14C
330
104
100
AcDbEntity
  8
$DDT_AUDIT_GENERATED_(A2)
  6
Continuous
 62
     7
100
AcDbLine
 10
221.4461261696
 20
280.35
 30
0.0
 11
289.4461261696
 21
280.35
 31
0.0
  0
LINE
  5
14D
330
104
100
AcDbEntity
  8
$DDT_AUDIT_GENERATED_(A2)
  6
Continuous
 62
     7
100
AcDbLine
 10
234.4461261696
 20
267.35
 30
0.0
 11
276.4461261696
 21
267.35
 31
0.0
  0
LINE
  5
14E
330
104
100
AcDbEntity
  8
$DDT_AUDIT_GENERATED_(A2)
  6
Continuous
 62
     7
100
AcDbLine
 10
220.4461261696
 20
294.85
 30
0.0
 11
220.4461261696
 21
281.35
 31
0.0
  0
LINE
  5
14F
330
104
100
AcDbEntity
  8
$DDT_AUDIT_GENERATED_(A2)
  6
Continuous
 62
     7
100
AcDbLine
 10
290.4461261696
 20
281.35
 30
0.0
 11
290.4461261696
 21
294.85
 31
0.0
  0
LINE
  5
150
330
104
100
AcDbEntity
  8
$DDT_AUDIT_GENERATED_(A2)
  6
Continuous
 62
     7
100
AcDbLine
 10
233.4461261696
 20
279.35
 30
0.0
 11
233.4461261696
 21
268.35
 31
0.0
  0
LINE
  5
151
330
104
100
AcDbEntity
  8
$DDT_AUDIT_GENERATED_(A2)
  6
Continuous
 62
     7
100
AcDbLine
 10
277.4461261696
 20
268.35
 30
0.0
 11
277.4461261696
 21
279.35
 31
0.0
  0
ARC
  5
152
330
104
100
AcDbEntity
  8
$DDT_AUDIT_GENERATED_(A2)
  6
Continuous
 62
     7
100
AcDbCircle
 10
220.9461261696
 20
294.85
 30
0.0
 40
0.5000000000000004
100
AcDbArc
 50
90.0
 51
180.0
  0
ARC
  5
153
330
104
100
AcDbEntity
  8
$DDT_AUDIT_GENERATED_(A2)
  6
Continuous
 62
     7
100
AcDbCircle
 10
289.9461261696
 20
294.85
 30
0.0
 40
0.5000000000000004
100
AcDbArc
 50
0.0
 51
90.0
  0
ARC
  5
154
330
104
100
AcDbEntity
  8
$DDT_AUDIT_GENERATED_(A2)
  6
Continuous
 62
     7
100
AcDbCircle
 10
221.4461261696
 20
281.35
 30
0.0
 40
1.000000000000001
100
AcDbArc
 50
180.0
 51
270.0
  0
ARC
  5
155
330
104
100
AcDbEntity
  8
$DDT_AUDIT_GENERATED_(A2)
  6
Continuous
 62
     7
100
AcDbCircle
 10
289.4461261696
 20
281.35
 30
0.0
 40
1.000000000000001
100
AcDbArc
 50
270.0
 51
0.0
  0
ARC
  5
156
330
104
100
AcDbEntity
  8
$DDT_AUDIT_GENERATED_(A2)
  6
Continuous
 62
     7
100
AcDbCircle
 10
234.4461261696
 20
268.35
 30
0.0
 40
1.000000000000001
100
AcDbArc
 50
180.0
 51
270.0
  0
ARC
  5
157
330
104
100
AcDbEntity
  8
$DDT_AUDIT_GENERATED_(A2)
  6
Continuous
 62
     7
100
AcDbCircle
 10
276.4461261696
 20
268.35
 30
0.0
 40
1.000000000000001
100
AcDbArc
 50
270.0
 51
0.0
  0
ARC
  5
158
330
104
100
AcDbEntity
  8
$DDT_AUDIT_GENERATED_(A2)
  6
Continuous
 62
     7
100
AcDbCircle
 10
232.4461261696
 20
279.35
 30
0.0
 40
1.000000000000001
100
AcDbArc
 50
0.0
 51
90.0
  0
ARC
  5
159
330
104
100
AcDbEntity
  8
$DDT_AUDIT_GENERATED_(A2)
  6
Continuous
 62
     7
100
AcDbCircle
 10
278.4461261696
 20
279.35
 30
0.0
 40
1.000000000000001
100
AcDbArc
 50
90.0
 51
180.0
  0
LINE
  5
15A
330
104
100
AcDbEntity
  8
$DDT_AUDIT_GENERATED_(A2)
  6
Continuous
 62
     7
100
AcDbLine
 10
139.9461261696
 20
295.35
 30
0.0
 11
70.9461261696
 21
295.35
 31
0.0
  0
LINE
  5
15B
330
104
100
AcDbEntity
  8
$DDT_AUDIT_GENERATED_(A2)
  6
Continuous
 62
     7
100
AcDbLine
 10
71.4461261696
 20
280.35
 30
0.0
 11
139.4461261696
 21
280.35
 31
0.0
  0
LINE
  5
15C
330
104
100
AcDbEntity
  8
$DDT_AUDIT_GENERATED_(A2)
  6
Continuous
 62
     7
100
AcDbLine
 10
84.4461261696
 20
267.35
 30
0.0
 11
126.4461261696
 21
267.35
 31
0.0
  0
LINE
  5
15D
330
104
100
AcDbEntity
  8
$DDT_AUDIT_GENERATED_(A2)
  6
Continuous
 62
     7
100
AcDbLine
 10
70.4461261696
 20
294.85
 30
0.0
 11
70.4461261696
 21
281.35
 31
0.0
  0
LINE
  5
15E
330
104
100
AcDbEntity
  8
$DDT_AUDIT_GENERATED_(A2)
  6
Continuous
 62
     7
100
AcDbLine
 10
140.4461261696
 20
281.35
 30
0.0
 11
140.4461261696
 21
294.85
 31
0.0
  0
LINE
  5
15F
330
104
100
AcDbEntity
  8
$DDT_AUDIT_GENERATED_(A2)
  6
Continuous
 62
     7
100
AcDbLine
 10
83.4461261696
 20
279.35
 30
0.0
 11
83.4461261696
 21
268.35
 31
0.0
  0
LINE
  5
160
330
104
100
AcDbEntity
  8
$DDT_AUDIT_GENERATED_(A2)
  6
Continuous
 62
     7
100
AcDbLine
 10
127.4461261696
 20
268.35
 30
0.0
 11
127.4461261696
 21
279.35
 31
0.0
  0
ARC
  5
161
330
104
100
AcDbEntity
  8
$DDT_AUDIT_GENERATED_(A2)
  6
Continuous
 62
     7
100
AcDbCircle
 10
70.9461261696
 20
294.85
 30
0.0
 40
0.5000000000000004
100
AcDbArc
 50
90.0
 51
180.0
  0
ARC
  5
162
330
104
100
AcDbEntity
  8
$DDT_AUDIT_GENERATED_(A2)
  6
Continuous
 62
     7
100
AcDbCircle
 10
139.9461261696
 20
294.85
 30
0.0
 40
0.5000000000000004
100
AcDbArc
 50
0.0
 51
90.0
  0
ARC
  5
163
330
104
100
AcDbEntity
  8
$DDT_AUDIT_GENERATED_(A2)
  6
Continuous
 62
     7
100
AcDbCircle
 10
71.4461261696
 20
281.35
 30
0.0
 40
1.000000000000001
100
AcDbArc
 50
180.0
 51
270.0
  0
ARC
  5
164
330
104
100
AcDbEntity
  8
$DDT_AUDIT_GENERATED_(A2)
  6
Continuous
 62
     7
100
AcDbCircle
 10
139.4461261696
 20
281.35
 30
0.0
 40
1.000000000000001
100
AcDbArc
 50
270.0
 51
0.0
  0
ARC
  5
165
330
104
100
AcDbEntity
  8
$DDT_AUDIT_GENERATED_(A2)
  6
Continuous
 62
     7
100
AcDbCircle
 10
84.4461261696
 20
268.35
 30
0.0
 40
1.000000000000001
100
AcDbArc
 50
180.0
 51
270.0
  0
ARC
  5
166
330
104
100
AcDbEntity
  8
$DDT_AUDIT_GENERATED_(A2)
  6
Continuous
 62
     7
100
AcDbCircle
 10
126.4461261696
 20
268.35
 30
0.0
 40
1.000000000000001
100
AcDbArc
 50
270.0
 51
0.0
  0
ARC
  5
167
330
104
100
AcDbEntity
  8
$DDT_AUDIT_GENERATED_(A2)
  6
Continuous
 62
     7
100
AcDbCircle
 10
82.4461261696
 20
279.35
 30
0.0
 40
1.000000000000001
100
AcDbArc
 50
0.0
 51
90.0
  0
ARC
  5
168
330
104
100
AcDbEntity
  8
$DDT_AUDIT_GENERATED_(A2)
  6
Continuous
 62
     7
100
AcDbCircle
 10
128.4461261696
 20
279.35
 30
0.0
 40
1.000000000000001
100
AcDbArc
 50
90.0
 51
180.0
  0
LINE
  5
16A
330
104
100
AcDbEntity
  8
DV3_Standard
  6
CENTER2
 62
     7
100
AcDbLine
 10
125.4461257226
 20
295.35
 30
0.0
 11
85.4461266166
 21
295.35
 31
0.0
  0
LINE
  5
16B
330
104
100
AcDbEntity
  8
DV3_Standard
  6
CENTER2
 62
     7
100
AcDbLine
 10
105.4461261696
 20
315.349999553
 30
0.0
 11
105.4461261696
 21
275.350000447
 31
0.0
  0
LINE
  5
16C
330
104
100
AcDbEntity
  8
DV3_Standard
  6
CENTER2
 62
     7
100
AcDbLine
 10
275.4461257226
 20
295.35
 30
0.0
 11
235.4461266166
 21
295.35
 31
0.0
  0
LINE
  5
16D
330
104
100
AcDbEntity
  8
DV3_Standard
  6
CENTER2
 62
     7
100
AcDbLine
 10
255.4461261696
 20
315.349999553
 30
0.0
 11
255.4461261696
 21
275.350000447
 31
0.0
  0
ENDBLK
  5
16F
330
104
100
AcDbEntity
  8
0
100
AcDbBlockEnd
  0
ENDSEC
  0
SECTION
  2
ENTITIES
  0
INSERT
  5
5F
330
1F
100
AcDbEntity
  8
Default
100
AcDbBlockReference
  2
SE
 10
0.0
 20
0.0
 30
0.0
  0
INSERT
  5
BB
330
1F
100
AcDbEntity
  8
Default
100
AcDbBlockReference
  2
SE1
 10
0.0
 20
0.0
 30
0.0
  0
INSERT
  5
105
330
1F
100
AcDbEntity
  8
Default
100
AcDbBlockReference
  2
SE2
 10
0.0
 20
0.0
 30
0.0
  0
TEXT
  5
171
330
1F
100
AcDbEntity
  8
Default
  6
Continuous
 62
     7
100
AcDbText
 10
5.9362635081
 20
53.4225120485
 30
0.0
 40
10.0
  1
Grohe AG^J
  7
SEACAD_seiso_ttf
 11
5.9362635081
 21
63.4225120485
 31
0.0
100
AcDbText
 73
     3
  0
TEXT
  5
172
330
1F
100
AcDbEntity
  8
Default
  6
Continuous
 62
     7
100
AcDbText
 10
5.9362635081
 20
37.0588756849
 30
0.0
 40
10.0
  1
 
  7
SEACAD_seiso_ttf
 11
5.9362635081
 21
47.0588756849
 31
0.0
100
AcDbText
 73
     3
  0
TEXT
  5
173
330
1F
100
AcDbEntity
  8
Default
  6
Continuous
 62
     7
100
AcDbText
 10
5.9362635081
 20
20.6952393213
 30
0.0
 40
10.0
  1
ecn: 
  7
SEACAD_seiso_ttf
 11
5.9362635081
 21
30.6952393213
 31
0.0
100
AcDbText
 73
     3
  0
TEXT
  5
174
330
1F
100
AcDbEntity
  8
Default
  6
Continuous
 62
     7
100
AcDbText
 10
5.9362635081
 20
4.3316029576
 30
0.0
 40
10.0
  1
unit: mm
  7
SEACAD_seiso_ttf
 11
5.9362635081
 21
14.3316029576
 31
0.0
100
AcDbText
 73
     3
  0
LINE
  5
175
330
1F
100
AcDbEntity
  8
Default
  6
Continuous
 62
     7
100
AcDbLine
 10
0.0
 20
0.0
 30
0.0
 11
100.0
 21
0.0
 31
0.0
  0
LINE
  5
176
330
1F
100
AcDbEntity
  8
Default
  6
Continuous
 62
     7
100
AcDbLine
 10
0.0
 20
0.0
 30
0.0
 11
0.0
 21
100.0
 31
0.0
  0
TEXT
  5
177
330
1F
100
AcDbEntity
  8
Default
  6
Continuous
 62
     7
100
AcDbText
 10
24.3923665681
 20
-18.2375342018
 30
0.0
 40
10.0
  1
100 mm
  7
SEACAD_seiso_ttf
 11
24.3923665681
 21
-8.2375342018
 31
0.0
100
AcDbText
 73
     3
  0
TEXT
  5
178
330
1F
100
AcDbEntity
  8
Default
  6
Continuous
 62
     7
100
AcDbText
 10
-7.6150308803
 20
24.6231930421
 30
0.0
 40
10.0
  1
100 mm
 50
90.0
  7
SEACAD_seiso_ttf
 11
-17.6150308803
 21
24.6231930421
 31
0.0
100
AcDbText
 73
     3
  0
TEXT
  5
179
330
1F
100
AcDbEntity
  8
Default
  6
Continuous
 62
     7
100
AcDbText
 10
28.4878128572
 20
20.0907663715
 30
0.0
 40
10.0
  1
212469
  7
SEACAD_seiso_ttf
 11
28.4878128572
 21
30.0907663715
 31
0.0
100
AcDbText
 73
     3
  0
TEXT
  5
17A
330
1F
100
AcDbEntity
  8
Default
  6
Continuous
 62
     7
100
AcDbText
 10
5.9012241913
 20
36.7242780188
 30
0.0
 40
10.0
  1
32652001
  7
SEACAD_seiso_ttf
 11
5.9012241913
 21
46.7242780188
 31
0.0
100
AcDbText
 73
     3
  0
ENDSEC
  0
SECTION
  2
OBJECTS
  0
DICTIONARY
  5
C
330
0
100
AcDbDictionary
281
     1
  3
ACAD_GROUP
350
D
  3
ACAD_LAYOUT
350
1A
  3
ACAD_MLEADERSTYLE
350
17E
  3
ACAD_MLINESTYLE
350
17
  3
ACAD_PLOTSETTINGS
350
19
  3
ACAD_PLOTSTYLENAME
350
E
  3
ACAD_SCALELIST
350
3B
  3
ACAD_TABLESTYLE
350
17D
  3
ACAD_VISUALSTYLE
350
2A
  3
AcDbVariableDictionary
350
17B
  0
DICTIONARY
  5
D
102
{ACAD_REACTORS
330
C
102
}
330
C
100
AcDbDictionary
281
     1
  0
DICTIONARY
  5
1A
102
{ACAD_REACTORS
330
C
102
}
330
C
100
AcDbDictionary
281
     1
  3
Layout1
350
1E
  3
Model
350
22
  0
DICTIONARY
  5
17E
102
{ACAD_REACTORS
330
C
102
}
330
C
100
AcDbDictionary
281
     1
  0
DICTIONARY
  5
17
102
{ACAD_REACTORS
330
C
102
}
330
C
100
AcDbDictionary
281
     1
  3
Standard
350
18
  0
DICTIONARY
  5
19
102
{ACAD_REACTORS
330
C
102
}
330
C
100
AcDbDictionary
281
     1
  0
ACDBDICTIONARYWDFLT
  5
E
102
{ACAD_REACTORS
330
C
102
}
330
C
100
AcDbDictionary
281
     1
  3
Normal
350
F
100
AcDbDictionaryWithDefault
340
F
  0
DICTIONARY
  5
3B
102
{ACAD_REACTORS
330
C
102
}
330
C
100
AcDbDictionary
281
     1
  3
A0
350
3C
  3
A1
350
3D
  3
A2
350
3E
  3
A3
350
3F
  3
A4
350
40
  3
A5
350
41
  3
A6
350
42
  3
A7
350
43
  3
A8
350
44
  3
A9
350
45
  3
B0
350
46
  3
B1
350
47
  3
B2
350
48
  3
B3
350
49
  3
B4
350
4A
  3
B5
350
4B
  3
B6
350
4C
  3
B7
350
4D
  3
B8
350
4E
  3
B9
350
4F
  3
C0
350
50
  3
C1
350
51
  3
C2
350
52
  3
C3
350
53
  3
C4
350
54
  3
C5
350
55
  3
C6
350
56
  3
C7
350
57
  3
C8
350
58
  3
C9
350
59
  3
D0
350
5A
  3
D1
350
5B
  3
D2
350
5C
  0
DICTIONARY
  5
17D
102
{ACAD_REACTORS
330
C
102
}
330
C
100
AcDbDictionary
281
     1
  0
DICTIONARY
  5
2A
102
{ACAD_REACTORS
330
C
102
}
330
C
100
AcDbDictionary
281
     1
  3
2dWireframe
350
2F
  3
3D Hidden
350
31
  3
3dWireframe
350
30
  3
Basic
350
32
  3
Brighten
350
36
  3
ColorChange
350
3A
  3
Conceptual
350
34
  3
Dim
350
35
  3
Facepattern
350
39
  3
Flat
350
2B
  3
FlatWithEdges
350
2C
  3
Gouraud
350
2D
  3
GouraudWithEdges
350
2E
  3
Linepattern
350
38
  3
Realistic
350
33
  3
Thicken
350
37
  0
DICTIONARY
  5
17B
102
{ACAD_REACTORS
330
C
102
}
330
C
100
AcDbDictionary
281
     1
  3
CANNOSCALE
350
17C
  3
PSOLHEIGHT
350
180
  3
PSOLWIDTH
350
17F
  0
LAYOUT
  5
1E
102
{ACAD_REACTORS
330
1A
102
}
330
1A
100
AcDbPlotSettings
  1

  2
none_device
  4

  6

 40
0.0
 41
0.0
 42
0.0
 43
0.0
 44
0.0
 45
0.0
 46
0.0
 47
0.0
 48
0.0
 49
0.0
140
0.0
141
0.0
142
1.0
143
1.0
 70
   688
 72
     0
 73
     0
 74
     5
  7

 75
    16
147
1.0
148
0.0
149
0.0
100
AcDbLayout
  1
Layout1
 70
     1
 71
     1
 10
0.0
 20
0.0
 11
1682.0
 21
2378.0
 12
0.0
 22
0.0
 32
0.0
 14
0.0
 24
0.0
 34
0.0
 15
1682.0
 25
2378.0
 35
0.0
146
0.0
 13
0.0
 23
0.0
 33
0.0
 16
1.0
 26
0.0
 36
0.0
 17
0.0
 27
1.0
 37
0.0
 76
     0
330
1B
  0
LAYOUT
  5
22
102
{ACAD_REACTORS
330
1A
102
}
330
1A
100
AcDbPlotSettings
  1

  2
none_device
  4

  6

 40
0.0
 41
0.0
 42
0.0
 43
0.0
 44
0.0
 45
0.0
 46
0.0
 47
0.0
 48
0.0
 49
0.0
140
0.0
141
0.0
142
1.0
143
1.0
 70
  1712
 72
     0
 73
     0
 74
     0
  7

 75
     0
147
1.0
148
0.0
149
0.0
100
AcDbLayout
  1
Model
 70
     1
 71
     0
 10
0.0
 20
0.0
 11
1682.0
 21
2378.0
 12
0.0
 22
0.0
 32
0.0
 14
0.0
 24
0.0
 34
0.0
 15
1682.0
 25
2378.0
 35
0.0
146
0.0
 13
0.0
 23
0.0
 33
0.0
 16
1.0
 26
0.0
 36
0.0
 17
0.0
 27
1.0
 37
0.0
 76
     0
330
1F
331
29
  0
MLINESTYLE
  5
18
102
{ACAD_REACTORS
330
17
102
}
330
17
100
AcDbMlineStyle
  2
Standard
 70
     0
  3

 62
   256
 51
90.0
 52
90.0
 71
     2
 49
0.5
 62
   256
  6
BYLAYER
 49
-0.5
 62
   256
  6
BYLAYER
  0
ACDBPLACEHOLDER
  5
F
102
{ACAD_REACTORS
330
E
102
}
330
E
  0
SCALE
  5
3C
102
{ACAD_REACTORS
330
3B
102
}
330
3B
100
AcDbScale
 70
     0
300
1:1
140
1.0
141
1.0
290
     1
  0
SCALE
  5
3D
102
{ACAD_REACTORS
330
3B
102
}
330
3B
100
AcDbScale
 70
     0
300
1:2
140
1.0
141
2.0
290
     0
  0
SCALE
  5
3E
102
{ACAD_REACTORS
330
3B
102
}
330
3B
100
AcDbScale
 70
     0
300
1:4
140
1.0
141
4.0
290
     0
  0
SCALE
  5
3F
102
{ACAD_REACTORS
330
3B
102
}
330
3B
100
AcDbScale
 70
     0
300
1:5
140
1.0
141
5.0
290
     0
  0
SCALE
  5
40
102
{ACAD_REACTORS
330
3B
102
}
330
3B
100
AcDbScale
 70
     0
300
1:8
140
1.0
141
8.0
290
     0
  0
SCALE
  5
41
102
{ACAD_REACTORS
330
3B
102
}
330
3B
100
AcDbScale
 70
     0
300
1:10
140
1.0
141
10.0
290
     0
  0
SCALE
  5
42
102
{ACAD_REACTORS
330
3B
102
}
330
3B
100
AcDbScale
 70
     0
300
1:16
140
1.0
141
16.0
290
     0
  0
SCALE
  5
43
102
{ACAD_REACTORS
330
3B
102
}
330
3B
100
AcDbScale
 70
     0
300
1:20
140
1.0
141
20.0
290
     0
  0
SCALE
  5
44
102
{ACAD_REACTORS
330
3B
102
}
330
3B
100
AcDbScale
 70
     0
300
1:30
140
1.0
141
30.0
290
     0
  0
SCALE
  5
45
102
{ACAD_REACTORS
330
3B
102
}
330
3B
100
AcDbScale
 70
     0
300
1:40
140
1.0
141
40.0
290
     0
  0
SCALE
  5
46
102
{ACAD_REACTORS
330
3B
102
}
330
3B
100
AcDbScale
 70
     0
300
1:50
140
1.0
141
50.0
290
     0
  0
SCALE
  5
47
102
{ACAD_REACTORS
330
3B
102
}
330
3B
100
AcDbScale
 70
     0
300
1:100
140
1.0
141
100.0
290
     0
  0
SCALE
  5
48
102
{ACAD_REACTORS
330
3B
102
}
330
3B
100
AcDbScale
 70
     0
300
2:1
140
2.0
141
1.0
290
     0
  0
SCALE
  5
49
102
{ACAD_REACTORS
330
3B
102
}
330
3B
100
AcDbScale
 70
     0
300
4:1
140
4.0
141
1.0
290
     0
  0
SCALE
  5
4A
102
{ACAD_REACTORS
330
3B
102
}
330
3B
100
AcDbScale
 70
     0
300
8:1
140
8.0
141
1.0
290
     0
  0
SCALE
  5
4B
102
{ACAD_REACTORS
330
3B
102
}
330
3B
100
AcDbScale
 70
     0
300
10:1
140
10.0
141
1.0
290
     0
  0
SCALE
  5
4C
102
{ACAD_REACTORS
330
3B
102
}
330
3B
100
AcDbScale
 70
     0
300
100:1
140
100.0
141
1.0
290
     0
  0
SCALE
  5
4D
102
{ACAD_REACTORS
330
3B
102
}
330
3B
100
AcDbScale
 70
     0
300
1/128" = 1'-0"
140
0.0078125
141
12.0
290
     0
  0
SCALE
  5
4E
102
{ACAD_REACTORS
330
3B
102
}
330
3B
100
AcDbScale
 70
     0
300
1/64" = 1'-0"
140
0.015625
141
12.0
290
     0
  0
SCALE
  5
4F
102
{ACAD_REACTORS
330
3B
102
}
330
3B
100
AcDbScale
 70
     0
300
1/32" = 1'-0"
140
0.03125
141
12.0
290
     0
  0
SCALE
  5
50
102
{ACAD_REACTORS
330
3B
102
}
330
3B
100
AcDbScale
 70
     0
300
1/16" = 1'-0"
140
0.0625
141
12.0
290
     0
  0
SCALE
  5
51
102
{ACAD_REACTORS
330
3B
102
}
330
3B
100
AcDbScale
 70
     0
300
3/32" = 1'-0"
140
0.09375
141
12.0
290
     0
  0
SCALE
  5
52
102
{ACAD_REACTORS
330
3B
102
}
330
3B
100
AcDbScale
 70
     0
300
1/8" = 1'-0"
140
0.125
141
12.0
290
     0
  0
SCALE
  5
53
102
{ACAD_REACTORS
330
3B
102
}
330
3B
100
AcDbScale
 70
     0
300
3/16" = 1'-0"
140
0.1875
141
12.0
290
     0
  0
SCALE
  5
54
102
{ACAD_REACTORS
330
3B
102
}
330
3B
100
AcDbScale
 70
     0
300
1/4" = 1'-0"
140
0.25
141
12.0
290
     0
  0
SCALE
  5
55
102
{ACAD_REACTORS
330
3B
102
}
330
3B
100
AcDbScale
 70
     0
300
3/8" = 1'-0"
140
0.375
141
12.0
290
     0
  0
SCALE
  5
56
102
{ACAD_REACTORS
330
3B
102
}
330
3B
100
AcDbScale
 70
     0
300
1/2" = 1'-0"
140
0.5
141
12.0
290
     0
  0
SCALE
  5
57
102
{ACAD_REACTORS
330
3B
102
}
330
3B
100
AcDbScale
 70
     0
300
3/4" = 1'-0"
140
0.75
141
12.0
290
     0
  0
SCALE
  5
58
102
{ACAD_REACTORS
330
3B
102
}
330
3B
100
AcDbScale
 70
     0
300
1" = 1'-0"
140
1.0
141
12.0
290
     0
  0
SCALE
  5
59
102
{ACAD_REACTORS
330
3B
102
}
330
3B
100
AcDbScale
 70
     0
300
1-1/2" = 1'-0"
140
1.5
141
12.0
290
     0
  0
SCALE
  5
5A
102
{ACAD_REACTORS
330
3B
102
}
330
3B
100
AcDbScale
 70
     0
300
3" = 1'-0"
140
3.0
141
12.0
290
     0
  0
SCALE
  5
5B
102
{ACAD_REACTORS
330
3B
102
}
330
3B
100
AcDbScale
 70
     0
300
6" = 1'-0"
140
6.0
141
12.0
290
     0
  0
SCALE
  5
5C
102
{ACAD_REACTORS
330
3B
102
}
330
3B
100
AcDbScale
 70
     0
300
1'-0" = 1'-0"
140
12.0
141
12.0
290
     0
  0
VISUALSTYLE
  5
2F
102
{ACAD_REACTORS
330
2A
102
}
330
2A
100
AcDbVisualStyle
  2
2dWireframe
 70
     4
 71
     0
 72
     2
 73
     0
 90
        0
 40
-0.6
 41
-30.0
 62
     5
 63
     7
 74
     1
 91
        4
 64
     7
 65
   257
 75
     1
175
     1
 42
1.0
 92
        0
 66
   257
 43
1.0
 76
     1
 77
     6
 78
     2
 67
     7
 79
     5
170
     0
171
     0
290
     0
174
     0
 93
        1
 44
0.0
173
     0
291
     0
 45
0.0
1001
ACAD
1000
AcDbSavedByObjectVersion
1070
     0
  0
VISUALSTYLE
  5
31
102
{ACAD_REACTORS
330
2A
102
}
330
2A
100
AcDbVisualStyle
  2
3D Hidden
 70
     6
 71
     1
 72
     2
 73
     2
 90
        0
 40
-0.6
 41
-30.0
 62
     5
 63
     7
 74
     2
 91
        2
 64
     7
 65
   257
 75
     2
175
     1
 42
40.0
 92
        0
 66
   257
 43
1.0
 76
     1
 77
     6
 78
     2
 67
     7
 79
     3
170
     0
171
     0
290
     0
174
     0
 93
        1
 44
0.0
173
     0
291
     0
 45
0.0
1001
ACAD
1000
AcDbSavedByObjectVersion
1070
     0
  0
VISUALSTYLE
  5
30
102
{ACAD_REACTORS
330
2A
102
}
330
2A
100
AcDbVisualStyle
  2
3dWireframe
 70
     5
 71
     0
 72
     2
 73
     0
 90
        0
 40
-0.6
 41
-30.0
 62
     5
 63
     7
 74
     1
 91
        4
 64
     7
 65
   257
 75
     1
175
     1
 42
1.0
 92
        0
 66
   257
 43
1.0
 76
     1
 77
     6
 78
     2
 67
     7
 79
     5
170
     0
171
     0
290
     0
174
     0
 93
        1
 44
0.0
173
     0
291
     0
 45
0.0
1001
ACAD
1000
AcDbSavedByObjectVersion
1070
     0
  0
VISUALSTYLE
  5
32
102
{ACAD_REACTORS
330
2A
102
}
330
2A
100
AcDbVisualStyle
  2
Basic
 70
     7
 71
     1
 72
     0
 73
     1
 90
        0
 40
-0.6
 41
-30.0
 62
     5
 63
     7
 74
     0
 91
        4
 64
     7
 65
   257
 75
     1
175
     1
 42
1.0
 92
        8
 66
     7
 43
1.0
 76
     1
 77
     6
 78
     2
 67
     7
 79
     5
170
     0
171
     0
290
     0
174
     0
 93
        1
 44
0.0
173
     0
291
     1
 45
0.0
1001
ACAD
1000
AcDbSavedByObjectVersion
1070
     0
  0
VISUALSTYLE
  5
36
102
{ACAD_REACTORS
330
2A
102
}
330
2A
100
AcDbVisualStyle
  2
Brighten
 70
    12
 71
     2
 72
     2
 73
     0
 90
        0
 40
-0.6
 41
-30.0
 62
     5
 63
     7
 74
     1
 91
        4
 64
     7
 65
   257
 75
     1
175
     1
 42
1.0
 92
        8
 66
     7
 43
1.0
 76
     1
 77
     6
 78
     2
 67
     7
 79
     5
170
     0
171
     0
290
     0
174
     0
 93
        1
 44
50.0
173
     0
291
     1
 45
0.0
1001
ACAD
1000
AcDbSavedByObjectVersion
1070
     0
  0
VISUALSTYLE
  5
3A
102
{ACAD_REACTORS
330
2A
102
}
330
2A
100
AcDbVisualStyle
  2
ColorChange
 70
    16
 71
     2
 72
     2
 73
     3
 90
        0
 40
-0.6
 41
-30.0
 62
     5
 63
     8
 74
     1
 91
        4
 64
     7
 65
   257
 75
     1
175
     1
 42
1.0
 92
        8
 66
     8
 43
1.0
 76
     1
 77
     6
 78
     2
 67
     7
 79
     5
170
     0
171
     0
290
     0
174
     0
 93
        1
 44
0.0
173
     0
291
     1
 45
0.0
1001
ACAD
1000
AcDbSavedByObjectVersion
1070
     0
  0
VISUALSTYLE
  5
34
102
{ACAD_REACTORS
330
2A
102
}
330
2A
100
AcDbVisualStyle
  2
Conceptual
 70
     9
 71
     3
 72
     2
 73
     0
 90
        0
 40
-0.6
 41
-30.0
 62
     5
 63
     7
 74
     2
 91
        2
 64
     7
 65
   257
 75
     1
175
     1
 42
40.0
 92
        8
 66
     7
 43
1.0
 76
     1
 77
     6
 78
     2
 67
     7
 79
     3
170
     0
171
     0
290
     0
174
     0
 93
        1
 44
0.0
173
     0
291
     0
 45
0.0
1001
ACAD
1000
AcDbSavedByObjectVersion
1070
     0
  0
VISUALSTYLE
  5
35
102
{ACAD_REACTORS
330
2A
102
}
330
2A
100
AcDbVisualStyle
  2
Dim
 70
    11
 71
     2
 72
     2
 73
     0
 90
        0
 40
-0.6
 41
-30.0
 62
     5
 63
     7
 74
     1
 91
        4
 64
     7
 65
   257
 75
     1
175
     1
 42
1.0
 92
        8
 66
     7
 43
1.0
 76
     1
 77
     6
 78
     2
 67
     7
 79
     5
170
     0
171
     0
290
     0
174
     0
 93
        1
 44
-50.0
173
     0
291
     1
 45
0.0
1001
ACAD
1000
AcDbSavedByObjectVersion
1070
     0
  0
VISUALSTYLE
  5
39
102
{ACAD_REACTORS
330
2A
102
}
330
2A
100
AcDbVisualStyle
  2
Facepattern
 70
    15
 71
     2
 72
     2
 73
     0
 90
        0
 40
-0.6
 41
-30.0
 62
     5
 63
     7
 74
     1
 91
        4
 64
     7
 65
   257
 75
     1
175
     1
 42
1.0
 92
        8
 66
     7
 43
1.0
 76
     1
 77
     6
 78
     2
 67
     7
 79
     5
170
     0
171
     0
290
     0
174
     0
 93
        1
 44
0.0
173
     0
291
     1
 45
0.0
1001
ACAD
1000
AcDbSavedByObjectVersion
1070
     0
  0
VISUALSTYLE
  5
2B
102
{ACAD_REACTORS
330
2A
102
}
330
2A
100
AcDbVisualStyle
  2
Flat
 70
     0
 71
     2
 72
     1
 73
     1
 90
        2
 40
-0.6
 41
30.0
 62
     5
 63
     7
 74
     0
 91
        4
 64
     7
 65
   257
 75
     1
175
     1
 42
1.0
 92
        8
 66
     7
 43
1.0
 76
     1
 77
     6
 78
     2
 67
     7
 79
     5
170
     0
171
     0
290
     0
174
     0
 93
       13
 44
0.0
173
     0
291
     1
 45
0.0
1001
ACAD
1000
AcDbSavedByObjectVersion
1070
     0
  0
VISUALSTYLE
  5
2C
102
{ACAD_REACTORS
330
2A
102
}
330
2A
100
AcDbVisualStyle
  2
FlatWithEdges
 70
     1
 71
     2
 72
     1
 73
     1
 90
        2
 40
-0.6
 41
30.0
 62
     5
 63
     7
 74
     1
 91
        4
 64
     7
 65
   257
 75
     1
175
     1
 42
1.0
 92
        0
 66
   257
 43
1.0
 76
     1
 77
     6
 78
     2
 67
     7
 79
     5
170
     0
171
     0
290
     0
174
     0
 93
       13
 44
0.0
173
     0
291
     1
 45
0.0
1001
ACAD
1000
AcDbSavedByObjectVersion
1070
     0
  0
VISUALSTYLE
  5
2D
102
{ACAD_REACTORS
330
2A
102
}
330
2A
100
AcDbVisualStyle
  2
Gouraud
 70
     2
 71
     2
 72
     2
 73
     1
 90
        2
 40
-0.6
 41
30.0
 62
     5
 63
     7
 74
     0
 91
        4
 64
     7
 65
   257
 75
     1
175
     1
 42
1.0
 92
        0
 66
     7
 43
1.0
 76
     1
 77
     6
 78
     2
 67
     7
 79
     5
170
     0
171
     0
290
     0
174
     0
 93
       13
 44
0.0
173
     0
291
     1
 45
0.0
1001
ACAD
1000
AcDbSavedByObjectVersion
1070
     0
  0
VISUALSTYLE
  5
2E
102
{ACAD_REACTORS
330
2A
102
}
330
2A
100
AcDbVisualStyle
  2
GouraudWithEdges
 70
     3
 71
     2
 72
     2
 73
     1
 90
        2
 40
-0.6
 41
30.0
 62
     5
 63
     7
 74
     1
 91
        4
 64
     7
 65
   257
 75
     1
175
     1
 42
1.0
 92
        0
 66
   257
 43
1.0
 76
     1
 77
     6
 78
     2
 67
     7
 79
     5
170
     0
171
     0
290
     0
174
     0
 93
       13
 44
0.0
173
     0
291
     1
 45
0.0
1001
ACAD
1000
AcDbSavedByObjectVersion
1070
     0
  0
VISUALSTYLE
  5
38
102
{ACAD_REACTORS
330
2A
102
}
330
2A
100
AcDbVisualStyle
  2
Linepattern
 70
    14
 71
     2
 72
     2
 73
     0
 90
        0
 40
-0.6
 41
-30.0
 62
     5
 63
     7
 74
     1
 91
        4
 64
     7
 65
   257
 75
     7
175
     7
 42
1.0
 92
        8
 66
     7
 43
1.0
 76
     1
 77
     6
 78
     2
 67
     7
 79
     5
170
     0
171
     0
290
     0
174
     0
 93
        1
 44
0.0
173
     0
291
     1
 45
0.0
1001
ACAD
1000
AcDbSavedByObjectVersion
1070
     0
  0
VISUALSTYLE
  5
33
102
{ACAD_REACTORS
330
2A
102
}
330
2A
100
AcDbVisualStyle
  2
Realistic
 70
     8
 71
     2
 72
     2
 73
     0
 90
        0
 40
-0.6
 41
-30.0
 62
     5
 63
     7
 74
     1
 91
        0
 64
     7
 65
   257
 75
     1
175
     1
 42
1.0
 92
        8
 66
     8
 43
1.0
 76
     1
 77
     6
 78
     2
 67
     7
 79
     5
170
     0
171
     0
290
     0
174
     0
 93
       13
 44
0.0
173
     0
291
     0
 45
0.0
1001
ACAD
1000
AcDbSavedByObjectVersion
1070
     0
  0
VISUALSTYLE
  5
37
102
{ACAD_REACTORS
330
2A
102
}
330
2A
100
AcDbVisualStyle
  2
Thicken
 70
    13
 71
     2
 72
     2
 73
     0
 90
        0
 40
-0.6
 41
-30.0
 62
     5
 63
     7
 74
     1
 91
        4
 64
     7
 65
   257
 75
     1
175
     1
 42
1.0
 92
       12
 66
     7
 43
1.0
 76
     1
 77
     6
 78
     2
 67
     7
 79
     5
170
     0
171
     0
290
     0
174
     0
 93
        1
 44
0.0
173
     0
291
     1
 45
0.0
1001
ACAD
1000
AcDbSavedByObjectVersion
1070
     0
  0
DICTIONARYVAR
  5
17C
102
{ACAD_REACTORS
330
17B
102
}
330
17B
100
DictionaryVariables
280
     0
  1
1:1
  0
DICTIONARYVAR
  5
180
102
{ACAD_REACTORS
330
17B
102
}
330
17B
100
DictionaryVariables
280
     0
  1
80.000000
  0
DICTIONARYVAR
  5
17F
102
{ACAD_REACTORS
330
17B
102
}
330
17B
100
DictionaryVariables
280
     0
  1
5.000000
  0
ENDSEC
  0
EOF
