  0
SECTION
  2
HEADER
  9
$ACADVER
  1
AC1015
  9
$ACADMAINTVER
 70
     6
  9
$DWGCODEPAGE
  3
ANSI_1252
  9
$INSBASE
 10
0.0
 20
0.0
 30
0.0
  9
$EXTMIN
 10
0.0
 20
0.0
 30
0.0
  9
$EXTMAX
 10
1682.0
 20
2378.0
 30
0.0
  9
$LIMMIN
 10
0.0
 20
0.0
  9
$LIMMAX
 10
1682.0
 20
2378.0
  9
$ORTHOMODE
 70
     0
  9
$REGENMODE
 70
     1
  9
$FILLMODE
 70
     1
  9
$QTEXTMODE
 70
     0
  9
$MIRRTEXT
 70
     1
  9
$LTSCALE
 40
1.0
  9
$ATTMODE
 70
     1
  9
$TEXTSIZE
 40
2.5
  9
$TRACEWID
 40
1.0
  9
$TEXTSTYLE
  7
Standard
  9
$CLAYER
  8
0
  9
$CELTYPE
  6
ByLayer
  9
$CECOLOR
 62
   256
  9
$CELTSCALE
 40
1.0
  9
$DISPSILH
 70
     0
  9
$DIMSCALE
 40
1.0
  9
$DIMASZ
 40
2.5
  9
$DIMEXO
 40
0.625
  9
$DIMDLI
 40
3.75
  9
$DIMRND
 40
0.0
  9
$DIMDLE
 40
0.0
  9
$DIMEXE
 40
1.25
  9
$DIMTP
 40
0.0
  9
$DIMTM
 40
0.0
  9
$DIMTXT
 40
2.5
  9
$DIMCEN
 40
2.5
  9
$DIMTSZ
 40
0.0
  9
$DIMTOL
 70
     0
  9
$DIMLIM
 70
     0
  9
$DIMTIH
 70
     0
  9
$DIMTOH
 70
     0
  9
$DIMSE1
 70
     0
  9
$DIMSE2
 70
     0
  9
$DIMTAD
 70
     1
  9
$DIMZIN
 70
     8
  9
$DIMBLK
  1

  9
$DIMASO
 70
     1
  9
$DIMSHO
 70
     1
  9
$DIMPOST
  1

  9
$DIMAPOST
  1

  9
$DIMALT
 70
     0
  9
$DIMALTD
 70
     3
  9
$DIMALTF
 40
0.0393700787
  9
$DIMLFAC
 40
1.0
  9
$DIMTOFL
 70
     1
  9
$DIMTVP
 40
0.0
  9
$DIMTIX
 70
     0
  9
$DIMSOXD
 70
     0
  9
$DIMSAH
 70
     0
  9
$DIMBLK1
  1

  9
$DIMBLK2
  1

  9
$DIMSTYLE
  2
ISO-25
  9
$DIMCLRD
 70
     0
  9
$DIMCLRE
 70
     0
  9
$DIMCLRT
 70
     0
  9
$DIMTFAC
 40
1.0
  9
$DIMGAP
 40
0.625
  9
$DIMJUST
 70
     0
  9
$DIMSD1
 70
     0
  9
$DIMSD2
 70
     0
  9
$DIMTOLJ
 70
     0
  9
$DIMTZIN
 70
     8
  9
$DIMALTZ
 70
     0
  9
$DIMALTTZ
 70
     0
  9
$DIMUPT
 70
     0
  9
$DIMDEC
 70
     2
  9
$DIMTDEC
 70
     2
  9
$DIMALTU
 70
     2
  9
$DIMALTTD
 70
     3
  9
$DIMTXSTY
  7
Standard
  9
$DIMAUNIT
 70
     0
  9
$DIMADEC
 70
     0
  9
$DIMALTRND
 40
0.0
  9
$DIMAZIN
 70
     0
  9
$DIMDSEP
 70
    44
  9
$DIMATFIT
 70
     3
  9
$DIMFRAC
 70
     0
  9
$DIMLDRBLK
  1

  9
$DIMLUNIT
 70
     2
  9
$DIMLWD
 70
    -2
  9
$DIMLWE
 70
    -2
  9
$DIMTMOVE
 70
     0
  9
$LUNITS
 70
     2
  9
$LUPREC
 70
     4
  9
$SKETCHINC
 40
1.0
  9
$FILLETRAD
 40
10.0
  9
$AUNITS
 70
     0
  9
$AUPREC
 70
     0
  9
$MENU
  1
.
  9
$ELEVATION
 40
0.0
  9
$PELEVATION
 40
0.0
  9
$THICKNESS
 40
0.0
  9
$LIMCHECK
 70
     0
  9
$CHAMFERA
 40
10.0
  9
$CHAMFERB
 40
10.0
  9
$CHAMFERC
 40
20.0
  9
$CHAMFERD
 40
0.0
  9
$SKPOLY
 70
     0
  9
$TDCREATE
 40
2455232.598815313
  9
$TDUCREATE
 40
2455232.557148646
  9
$TDUPDATE
 40
2455232.598815324
  9
$TDUUPDATE
 40
2455232.557148657
  9
$TDINDWG
 40
0.0000000116
  9
$TDUSRTIMER
 40
0.0000000116
  9
$USRTIMER
 70
     1
  9
$ANGBASE
 50
0.0
  9
$ANGDIR
 70
     0
  9
$PDMODE
 70
     0
  9
$PDSIZE
 40
0.0
  9
$PLINEWID
 40
0.0
  9
$SPLFRAME
 70
     0
  9
$SPLINETYPE
 70
     6
  9
$SPLINESEGS
 70
     8
  9
$HANDSEED
  5
1FE
  9
$SURFTAB1
 70
     6
  9
$SURFTAB2
 70
     6
  9
$SURFTYPE
 70
     6
  9
$SURFU
 70
     6
  9
$SURFV
 70
     6
  9
$UCSBASE
  2

  9
$UCSNAME
  2

  9
$UCSORG
 10
0.0
 20
0.0
 30
0.0
  9
$UCSXDIR
 10
1.0
 20
0.0
 30
0.0
  9
$UCSYDIR
 10
0.0
 20
1.0
 30
0.0
  9
$UCSORTHOREF
  2

  9
$UCSORTHOVIEW
 70
     0
  9
$UCSORGTOP
 10
0.0
 20
0.0
 30
0.0
  9
$UCSORGBOTTOM
 10
0.0
 20
0.0
 30
0.0
  9
$UCSORGLEFT
 10
0.0
 20
0.0
 30
0.0
  9
$UCSORGRIGHT
 10
0.0
 20
0.0
 30
0.0
  9
$UCSORGFRONT
 10
0.0
 20
0.0
 30
0.0
  9
$UCSORGBACK
 10
0.0
 20
0.0
 30
0.0
  9
$PUCSBASE
  2

  9
$PUCSNAME
  2

  9
$PUCSORG
 10
0.0
 20
0.0
 30
0.0
  9
$PUCSXDIR
 10
1.0
 20
0.0
 30
0.0
  9
$PUCSYDIR
 10
0.0
 20
1.0
 30
0.0
  9
$PUCSORTHOREF
  2

  9
$PUCSORTHOVIEW
 70
     0
  9
$PUCSORGTOP
 10
0.0
 20
0.0
 30
0.0
  9
$PUCSORGBOTTOM
 10
0.0
 20
0.0
 30
0.0
  9
$PUCSORGLEFT
 10
0.0
 20
0.0
 30
0.0
  9
$PUCSORGRIGHT
 10
0.0
 20
0.0
 30
0.0
  9
$PUCSORGFRONT
 10
0.0
 20
0.0
 30
0.0
  9
$PUCSORGBACK
 10
0.0
 20
0.0
 30
0.0
  9
$USERI1
 70
     0
  9
$USERI2
 70
     0
  9
$USERI3
 70
     0
  9
$USERI4
 70
     0
  9
$USERI5
 70
     0
  9
$USERR1
 40
0.0
  9
$USERR2
 40
0.0
  9
$USERR3
 40
0.0
  9
$USERR4
 40
0.0
  9
$USERR5
 40
0.0
  9
$WORLDVIEW
 70
     1
  9
$SHADEDGE
 70
     3
  9
$SHADEDIF
 70
    70
  9
$TILEMODE
 70
     1
  9
$MAXACTVP
 70
    64
  9
$PINSBASE
 10
0.0
 20
0.0
 30
0.0
  9
$PLIMCHECK
 70
     0
  9
$PEXTMIN
 10
0.0
 20
0.0
 30
0.0
  9
$PEXTMAX
 10
1682.0
 20
2378.0
 30
0.0
  9
$PLIMMIN
 10
0.0
 20
0.0
  9
$PLIMMAX
 10
1682.0
 20
2378.0
  9
$UNITMODE
 70
     0
  9
$VISRETAIN
 70
     1
  9
$PLINEGEN
 70
     0
  9
$PSLTSCALE
 70
     1
  9
$TREEDEPTH
 70
  3020
  9
$CMLSTYLE
  2
Standard
  9
$CMLJUST
 70
     0
  9
$CMLSCALE
 40
20.0
  9
$PROXYGRAPHICS
 70
     1
  9
$MEASUREMENT
 70
     1
  9
$CELWEIGHT
370
    -1
  9
$ENDCAPS
280
     0
  9
$JOINSTYLE
280
     0
  9
$LWDISPLAY
290
     0
  9
$INSUNITS
 70
     4
  9
$HYPERLINKBASE
  1

  9
$STYLESHEET
  1

  9
$XEDIT
290
     1
  9
$CEPSNTYPE
380
     0
  9
$PSTYLEMODE
290
     1
  9
$FINGERPRINTGUID
  2
{79757D49-E26C-460C-B814-1A1C7DB5AC0B}
  9
$VERSIONGUID
  2
{FAEB1C32-E019-11D5-929B-00C0DF256EC4}
  9
$EXTNAMES
290
     1
  9
$PSVPSCALE
 40
0.0
  9
$OLESTARTUP
290
     0
  0
ENDSEC
  0
SECTION
  2
CLASSES
  0
CLASS
  1
ACDBDICTIONARYWDFLT
  2
AcDbDictionaryWithDefault
  3
ObjectDBX Classes
 90
        0
280
     0
281
     0
  0
CLASS
  1
VISUALSTYLE
  2
AcDbVisualStyle
  3
ObjectDBX Classes
 90
     4095
280
     0
281
     0
  0
CLASS
  1
SCALE
  2
AcDbScale
  3
ObjectDBX Classes
 90
     1153
280
     0
281
     0
  0
CLASS
  1
DICTIONARYVAR
  2
AcDbDictionaryVar
  3
ObjectDBX Classes
 90
        0
280
     0
281
     0
  0
CLASS
  1
ACDBPLACEHOLDER
  2
AcDbPlaceHolder
  3
ObjectDBX Classes
 90
        0
280
     0
281
     0
  0
CLASS
  1
LAYOUT
  2
AcDbLayout
  3
ObjectDBX Classes
 90
        0
280
     0
281
     0
  0
ENDSEC
  0
SECTION
  2
TABLES
  0
TABLE
  2
VPORT
  5
8
330
0
100
AcDbSymbolTable
 70
     1
  0
VPORT
  5
29
330
8
100
AcDbSymbolTableRecord
100
AcDbViewportTableRecord
  2
*Active
 70
     0
 10
0.0
 20
0.0
 11
1.0
 21
1.0
 12
344.1869158879
 22
148.5
 13
0.0
 23
0.0
 14
10.0
 24
10.0
 15
10.0
 25
10.0
 16
0.0
 26
0.0
 36
1.0
 17
0.0
 27
0.0
 37
0.0
 40
297.0
 41
1.9729729729
 42
50.0
 43
0.0
 44
0.0
 50
0.0
 51
0.0
 71
     0
 72
   100
 73
     1
 74
     3
 75
     0
 76
     0
 77
     0
 78
     0
281
     0
 65
     1
110
0.0
120
0.0
130
0.0
111
1.0
121
0.0
131
0.0
112
0.0
122
1.0
132
0.0
 79
     0
146
0.0
  0
ENDTAB
  0
TABLE
  2
LTYPE
  5
5
330
0
100
AcDbSymbolTable
 70
     2
  0
LTYPE
  5
14
330
5
100
AcDbSymbolTableRecord
100
AcDbLinetypeTableRecord
  2
ByBlock
 70
     0
  3

 72
    65
 73
     0
 40
0.0
  0
LTYPE
  5
15
330
5
100
AcDbSymbolTableRecord
100
AcDbLinetypeTableRecord
  2
ByLayer
 70
     0
  3

 72
    65
 73
     0
 40
0.0
  0
LTYPE
  5
16
330
5
100
AcDbSymbolTableRecord
100
AcDbLinetypeTableRecord
  2
Continuous
 70
     0
  3
Solid line
 72
    65
 73
     0
 40
0.0
  0
LTYPE
  5
103
330
5
100
AcDbSymbolTableRecord
100
AcDbLinetypeTableRecord
  2
CENTER2
 70
     0
  3
Center (.5x) ___ _ ___ _ ___ _ ___ _ ___ _ ___
 72
    65
 73
     4
 40
28.575
 49
19.05
 74
     4
 75
     0
340
0
 46
0.0
 50
0.0
 44
0.0
 45
0.0
 49
-3.175
 74
     4
 75
     0
340
0
 46
0.0
 50
0.0
 44
0.0
 45
0.0
 49
3.175
 74
     4
 75
     0
340
0
 46
0.0
 50
0.0
 44
0.0
 45
0.0
 49
-3.175
 74
     4
 75
     0
340
0
 46
0.0
 50
0.0
 44
0.0
 45
0.0
  0
ENDTAB
  0
TABLE
  2
LAYER
  5
2
330
0
100
AcDbSymbolTable
 70
    18
  0
LAYER
  5
10
330
2
100
AcDbSymbolTableRecord
100
AcDbLayerTableRecord
  2
0
 70
     0
 62
     7
  6
Continuous
370
    -3
390
F
  0
LAYER
  5
5D
330
2
100
AcDbSymbolTableRecord
100
AcDbLayerTableRecord
  2
Default
 70
     0
 62
     7
  6
Continuous
370
    -3
390
F
  0
LAYER
  5
60
330
2
100
AcDbSymbolTableRecord
100
AcDbLayerTableRecord
  2
$DDT_AUDIT_GENERATED_(60)
 70
     0
 62
     7
  6
Continuous
370
    -3
390
F
  0
LAYER
  5
7C
330
2
100
AcDbSymbolTableRecord
100
AcDbLayerTableRecord
  2
$DDT_AUDIT_GENERATED_(7C)
 70
     0
 62
     7
  6
Continuous
370
    -3
390
F
  0
LAYER
  5
89
330
2
100
AcDbSymbolTableRecord
100
AcDbLayerTableRecord
  2
$DDT_AUDIT_GENERATED_(89)
 70
     0
 62
     7
  6
Continuous
370
    -3
390
F
  0
LAYER
  5
8C
330
2
100
AcDbSymbolTableRecord
100
AcDbLayerTableRecord
  2
$DDT_AUDIT_GENERATED_(8C)
 70
     0
 62
     7
  6
Continuous
370
    -3
390
F
  0
LAYER
  5
9F
330
2
100
AcDbSymbolTableRecord
100
AcDbLayerTableRecord
  2
$DDT_AUDIT_GENERATED_(9F)
 70
     0
 62
     7
  6
Continuous
370
    -3
390
F
  0
LAYER
  5
C3
330
2
100
AcDbSymbolTableRecord
100
AcDbLayerTableRecord
  2
$DDT_AUDIT_GENERATED_(C3)
 70
     0
 62
     7
  6
Continuous
370
    -3
390
F
  0
LAYER
  5
C6
330
2
100
AcDbSymbolTableRecord
100
AcDbLayerTableRecord
  2
$DDT_AUDIT_GENERATED_(C6)
 70
     0
 62
     7
  6
Continuous
370
    -3
390
F
  0
LAYER
  5
CC
330
2
100
AcDbSymbolTableRecord
100
AcDbLayerTableRecord
  2
$DDT_AUDIT_GENERATED_(CC)
 70
     0
 62
     7
  6
Continuous
370
    -3
390
F
  0
LAYER
  5
D3
330
2
100
AcDbSymbolTableRecord
100
AcDbLayerTableRecord
  2
$DDT_AUDIT_GENERATED_(D3)
 70
     0
 62
     7
  6
Continuous
370
    -3
390
F
  0
LAYER
  5
E7
330
2
100
AcDbSymbolTableRecord
100
AcDbLayerTableRecord
  2
02636038_GEHÄUSE
 70
     0
 62
     7
  6
Continuous
370
    -3
390
F
  0
LAYER
  5
F8
330
2
100
AcDbSymbolTableRecord
100
AcDbLayerTableRecord
  2
$DDT_AUDIT_GENERATED_(F8)
 70
     0
 62
     7
  6
Continuous
370
    -3
390
F
  0
LAYER
  5
FB
330
2
100
AcDbSymbolTableRecord
100
AcDbLayerTableRecord
  2
$DDT_AUDIT_GENERATED_(FB)
 70
     0
 62
     7
  6
Continuous
370
    -3
390
F
  0
LAYER
  5
100
330
2
100
AcDbSymbolTableRecord
100
AcDbLayerTableRecord
  2
DV1_Standard
 70
     0
 62
     7
  6
Continuous
370
    -3
390
F
  0
LAYER
  5
153
330
2
100
AcDbSymbolTableRecord
100
AcDbLayerTableRecord
  2
$DDT_AUDIT_GENERATED_(153)
 70
     0
 62
     7
  6
Continuous
370
    -3
390
F
  0
LAYER
  5
16C
330
2
100
AcDbSymbolTableRecord
100
AcDbLayerTableRecord
  2
DV2_Standard
 70
     0
 62
     7
  6
Continuous
370
    -3
390
F
  0
LAYER
  5
1E4
330
2
100
AcDbSymbolTableRecord
100
AcDbLayerTableRecord
  2
DV3_Standard
 70
     0
 62
     7
  6
Continuous
370
    -3
390
F
  0
ENDTAB
  0
TABLE
  2
STYLE
  5
3
330
0
100
AcDbSymbolTable
 70
     2
  0
STYLE
  5
11
330
3
100
AcDbSymbolTableRecord
100
AcDbTextStyleTableRecord
  2
Standard
 70
     0
 40
0.0
 41
1.0
 50
0.0
 71
     0
 42
2.5
  3
txt
  4

  0
STYLE
  5
1ED
330
3
100
AcDbSymbolTableRecord
100
AcDbTextStyleTableRecord
  2
SEACAD_seiso_ttf
 70
     0
 40
0.0
 41
1.0
 50
0.0
 71
     0
 42
0.2
  3
seiso.ttf
  4

  0
ENDTAB
  0
TABLE
  2
VIEW
  5
6
330
0
100
AcDbSymbolTable
 70
     0
  0
ENDTAB
  0
TABLE
  2
UCS
  5
7
330
0
100
AcDbSymbolTable
 70
     0
  0
ENDTAB
  0
TABLE
  2
APPID
  5
9
330
0
100
AcDbSymbolTable
 70
     1
  0
APPID
  5
12
330
9
100
AcDbSymbolTableRecord
100
AcDbRegAppTableRecord
  2
ACAD
 70
     0
  0
ENDTAB
  0
TABLE
  2
DIMSTYLE
  5
A
330
0
100
AcDbSymbolTable
 70
     1
100
AcDbDimStyleTable
  0
DIMSTYLE
105
27
330
A
100
AcDbSymbolTableRecord
100
AcDbDimStyleTableRecord
  2
ISO-25
 70
     0
 41
2.5
 42
0.625
 43
3.75
 44
1.25
 73
     0
 74
     0
 77
     1
 78
     8
140
2.5
141
2.5
143
0.0393700787
147
0.625
171
     3
172
     1
271
     2
272
     2
274
     3
278
    44
283
     0
284
     8
340
11
  0
ENDTAB
  0
TABLE
  2
BLOCK_RECORD
  5
1
330
0
100
AcDbSymbolTable
 70
     4
  0
BLOCK_RECORD
  5
1F
330
1
100
AcDbSymbolTableRecord
100
AcDbBlockTableRecord
  2
*Model_Space
340
22
  0
BLOCK_RECORD
  5
1B
330
1
100
AcDbSymbolTableRecord
100
AcDbBlockTableRecord
  2
*Paper_Space
340
1E
  0
BLOCK_RECORD
  5
5E
330
1
100
AcDbSymbolTableRecord
100
AcDbBlockTableRecord
  2
SE
340
0
102
{BLKREFS
331
5F
102
}
  0
BLOCK_RECORD
  5
108
330
1
100
AcDbSymbolTableRecord
100
AcDbBlockTableRecord
  2
SE1
340
0
102
{BLKREFS
331
109
102
}
  0
BLOCK_RECORD
  5
172
330
1
100
AcDbSymbolTableRecord
100
AcDbBlockTableRecord
  2
SE2
340
0
102
{BLKREFS
331
173
102
}
  0
ENDTAB
  0
ENDSEC
  0
SECTION
  2
BLOCKS
  0
BLOCK
  5
20
330
1F
100
AcDbEntity
  8
0
100
AcDbBlockBegin
  2
*Model_Space
 70
     0
 10
0.0
 20
0.0
 30
0.0
  3
*Model_Space
  1

  0
ENDBLK
  5
21
330
1F
100
AcDbEntity
  8
0
100
AcDbBlockEnd
  0
BLOCK
  5
1C
330
1B
100
AcDbEntity
 67
     1
  8
0
100
AcDbBlockBegin
  2
*Paper_Space
 70
     0
 10
0.0
 20
0.0
 30
0.0
  3
*Paper_Space
  1

  0
ENDBLK
  5
1D
330
1B
100
AcDbEntity
 67
     1
  8
0
100
AcDbBlockEnd
  0
BLOCK
  5
106
330
5E
100
AcDbEntity
  8
0
100
AcDbBlockBegin
  2
SE
 70
     0
 10
0.0
 20
0.0
 30
0.0
  3
SE
  1

  0
SPLINE
  5
61
330
5E
100
AcDbEntity
  8
$DDT_AUDIT_GENERATED_(60)
  6
Continuous
 62
     7
100
AcDbSpline
210
0.0
220
0.0
230
1.0
 70
    12
 71
     3
 72
    35
 73
    31
 74
     0
 42
0.0000000008519296
 43
0.0000000001
 40
0.0
 40
0.0
 40
0.0
 40
0.0
 40
0.0625
 40
0.125
 40
0.1875
 40
0.21875
 40
0.25
 40
0.28125
 40
0.3125
 40
0.34375
 40
0.375
 40
0.40625
 40
0.4375
 40
0.46875
 40
0.484375
 40
0.5
 40
0.515625
 40
0.53125
 40
0.5625
 40
0.59375
 40
0.625
 40
0.65625
 40
0.6875
 40
0.71875
 40
0.75
 40
0.78125
 40
0.8125
 40
0.875
 40
0.9375
 40
1.0
 40
1.0
 40
1.0
 40
1.0
 10
65.63428638292122
 20
701.0280042291075
 30
0.0
 41
1.0
 10
65.38985892069083
 20
701.0280042192179
 30
0.0
 41
1.0
 10
64.90094967593141
 20
701.0276579145393
 30
0.0
 41
1.0
 10
64.16822763842262
 20
700.9892471305188
 30
0.0
 41
1.0
 10
63.56225872176652
 20
700.9050644025419
 30
0.0
 41
1.0
 10
63.08473628684642
 20
700.7993674386906
 30
0.0
 41
1.0
 10
62.73159727139333
 20
700.700330421218
 30
0.0
 41
1.0
 10
62.38480184457842
 20
700.5808323196688
 30
0.0
 41
1.0
 10
62.04569474006743
 20
700.4410117016586
 30
0.0
 41
1.0
 10
61.71562110511022
 20
700.2810072667293
 30
0.0
 41
1.0
 10
61.39579041550931
 20
700.1014028581426
 30
0.0
 41
1.0
 10
61.08741220089852
 20
699.9027823378777
 30
0.0
 41
1.0
 10
60.79155801996652
 20
699.6859438829408
 30
0.0
 41
1.0
 10
60.55634249818961
 20
699.4907286834507
 30
0.0
 41
1.0
 10
60.37545779787952
 20
699.3262928486782
 30
0.0
 41
1.0
 10
60.24356061152182
 20
699.1989456855579
 30
0.0
 41
1.0
 10
60.11555224841272
 20
699.0676897894265
 30
0.0
 41
1.0
 10
59.95021318509632
 20
698.8876300001119
 30
0.0
 41
1.0
 10
59.75383761864352
 20
698.6533823569421
 30
0.0
 41
1.0
 10
59.53558612280382
 20
698.3585668595438
 30
0.0
 41
1.0
 10
59.33556584014202
 20
698.0510936513941
 30
0.0
 41
1.0
 10
59.15460887274902
 20
697.7320234140394
 30
0.0
 41
1.0
 10
58.99333169399731
 20
697.4025677298266
 30
0.0
 41
1.0
 10
58.85235125213742
 20
697.0639382758751
 30
0.0
 41
1.0
 10
58.73182803344372
 20
696.7174945728816
 30
0.0
 41
1.0
 10
58.63193023878581
 20
696.364598155438
 30
0.0
 41
1.0
 10
58.52529772015762
 20
695.88727982643
 30
0.0
 41
1.0
 10
58.44037896644721
 20
695.2813998309955
 30
0.0
 41
1.0
 10
58.40163234551112
 20
694.5486887613112
 30
0.0
 41
1.0
 10
58.40128052637482
 20
694.0597769438465
 30
0.0
 41
1.0
 10
58.40128052637482
 20
693.8153494815316
 30
0.0
 41
1.0
  0
LINE
  5
62
330
5E
100
AcDbEntity
  8
$DDT_AUDIT_GENERATED_(60)
  6
Continuous
 62
     7
100
AcDbLine
 10
16.6975752219
 20
693.8153494815
 30
0.0
 11
16.704942218
 21
749.9434460666
 31
0.0
  0
SPLINE
  5
63
330
5E
100
AcDbEntity
  8
$DDT_AUDIT_GENERATED_(60)
  6
Continuous
 62
     7
100
AcDbSpline
210
0.0
220
0.0
230
1.0
 70
    12
 71
     3
 72
    31
 73
    27
 74
     0
 42
0.0000000008518599
 43
0.0000000001
 40
0.0
 40
0.0
 40
0.0
 40
0.0
 40
0.0625
 40
0.125
 40
0.1875
 40
0.21875
 40
0.25
 40
0.28125
 40
0.3125
 40
0.34375
 40
0.375
 40
0.40625
 40
0.4375
 40
0.46875
 40
0.484375
 40
0.5
 40
0.515625
 40
0.53125
 40
0.5625
 40
0.59375
 40
0.625
 40
0.65625
 40
0.6875
 40
0.71875
 40
0.75
 40
0.7595854068544272
 40
0.7595854068544272
 40
0.7595854068544272
 40
0.7595854068544272
 10
58.40128052042842
 20
749.9434460665622
 30
0.0
 41
1.0
 10
58.40128052637482
 20
749.69899099592
 30
0.0
 41
1.0
 10
58.40162964397231
 20
749.2100256633792
 30
0.0
 41
1.0
 10
58.44036165706152
 20
748.4772299673393
 30
0.0
 41
1.0
 10
58.52526641246092
 20
747.8712791432529
 30
0.0
 41
1.0
 10
58.63187219029942
 20
747.3938982323277
 30
0.0
 41
1.0
 10
58.73175047155372
 20
747.0409509385734
 30
0.0
 41
1.0
 10
58.85224506980231
 20
746.6944541768312
 30
0.0
 41
1.0
 10
58.99319499275722
 20
746.3557670904971
 30
0.0
 41
1.0
 10
59.15443911954482
 20
746.0262492274092
 30
0.0
 41
1.0
 10
59.33536214358631
 20
745.7071122191595
 30
0.0
 41
1.0
 10
59.53534875138391
 20
745.3995677296892
 30
0.0
 41
1.0
 10
59.75356813543072
 20
745.104677005483
 30
0.0
 41
1.0
 10
59.94991929923402
 20
744.8703638604096
 30
0.0
 41
1.0
 10
60.11524079553282
 20
744.6902504730533
 30
0.0
 41
1.0
 10
60.24323709515222
 20
744.5589539038488
 30
0.0
 41
1.0
 10
60.37512346517522
 20
744.4315657155763
 30
0.0
 41
1.0
 10
60.55599553042452
 20
744.2670749270541
 30
0.0
 41
1.0
 10
60.79119884276922
 20
744.0717909626316
 30
0.0
 41
1.0
 10
61.08704485312872
 20
743.8548711670461
 30
0.0
 41
1.0
 10
61.39542168490412
 20
743.6561719271472
 30
0.0
 41
1.0
 10
61.71525808204402
 20
743.4764928920522
 30
0.0
 41
1.0
 10
62.04534430821312
 20
743.3164192023077
 30
0.0
 41
1.0
 10
62.38447055581142
 20
743.1765364551314
 30
0.0
 41
1.0
 10
62.65114491250716
 20
743.0846102975125
 30
0.0
 41
1.0
 10
62.80401868348655
 20
743.0383623198816
 30
0.0
 41
1.0
 10
62.83999624958849
 20
743.0278240692276
 30
0.0
 41
1.0
  0
SPLINE
  5
64
330
5E
100
AcDbEntity
  8
$DDT_AUDIT_GENERATED_(60)
  6
Continuous
 62
     7
100
AcDbSpline
210
0.0
220
0.0
230
1.0
 70
    12
 71
     3
 72
    10
 73
     6
 74
     0
 42
0.0000000008519492
 43
0.0000000001
 40
0.8356735742485835
 40
0.8356735742485835
 40
0.8356735742485835
 40
0.8356735742485835
 40
0.875
 40
0.9375
 40
1.0
 40
1.0
 40
1.0
 40
1.0
 10
63.71111509473383
 20
742.8352477717922
 30
0.0
 41
1.0
 10
63.86312479007302
 20
742.8117677475768
 30
0.0
 41
1.0
 10
64.25863107458449
 20
742.7631902605455
 30
0.0
 41
1.0
 10
64.90086516376103
 20
742.7295064458699
 30
0.0
 41
1.0
 10
65.38983131235892
 20
742.7291573148217
 30
0.0
 41
1.0
 10
65.63428638292122
 20
742.7291573148217
 30
0.0
 41
1.0
  0
SPLINE
  5
65
330
5E
100
AcDbEntity
  8
$DDT_AUDIT_GENERATED_(60)
  6
Continuous
 62
     7
100
AcDbSpline
210
0.0
220
0.0
230
1.0
 70
     8
 71
     3
 72
    44
 73
    40
 74
     0
 42
0.0000000001363545
 43
0.0000000001
 40
0.0
 40
0.0
 40
0.0
 40
0.0
 40
0.0312500000000001
 40
0.0312500000000001
 40
0.0625000000000001
 40
0.0625000000000001
 40
0.0937500000000002
 40
0.0937500000000002
 40
0.1250000000000002
 40
0.1250000000000002
 40
0.1562500000000002
 40
0.1562500000000002
 40
0.1875000000000002
 40
0.1875000000000002
 40
0.2187500000000002
 40
0.2187500000000002
 40
0.2500000000000002
 40
0.2500000000000002
 40
0.2812500000000002
 40
0.2812500000000002
 40
0.3125000000000002
 40
0.3125000000000002
 40
0.3437500000000002
 40
0.3437500000000002
 40
0.3750000000000002
 40
0.3750000000000002
 40
0.4062500000000002
 40
0.4062500000000002
 40
0.4375000000000002
 40
0.4375000000000002
 40
0.4687500000000002
 40
0.4687500000000002
 40
0.5000000000000002
 40
0.5000000000000002
 40
0.5312500000000001
 40
0.5312500000000001
 40
0.5625000000000001
 40
0.5625000000000001
 40
0.5686554677494343
 40
0.5686554677494343
 40
0.5686554677494343
 40
0.5686554677494343
 10
16.6975751724656
 20
653.6938273165092
 30
0.0
 10
16.69765943337928
 20
653.6933494478915
 30
0.0
 10
16.80270286367788
 20
653.6927596905715
 30
0.0
 10
17.21677342804744
 20
653.6914004521233
 30
0.0
 10
17.52336581127847
 20
653.6906325101959
 30
0.0
 10
18.33359069591596
 20
653.6889218106045
 30
0.0
 10
18.84376292476835
 20
653.6879686798032
 30
0.0
 10
20.03321871673487
 20
653.6859450264676
 30
0.0
 10
20.71222835383316
 20
653.6848726218979
 30
0.0
 10
22.23773801470178
 20
653.682607418238
 30
0.0
 10
23.09310718201517
 20
653.681403324254
 30
0.0
 10
24.9165167768849
 20
653.6789547641768
 30
0.0
 10
25.88783321781197
 20
653.6777043275432
 30
0.0
 10
27.94941498569627
 20
653.6751512564309
 30
0.0
 10
29.04891091777805
 20
653.6738385921847
 30
0.0
 10
31.29041133832494
 20
653.6712543284167
 30
0.0
 10
32.43951244441553
 20
653.6699732579834
 30
0.0
 10
34.79451731217618
 20
653.667433281607
 30
0.0
 10
36.00799091364821
 20
653.6661674303491
 30
0.0
 10
38.40279097993332
 20
653.6637522912272
 30
0.0
 10
39.59421821922203
 20
653.6625916199081
 30
0.0
 10
41.96505691047604
 20
653.6603646334955
 30
0.0
 10
43.14883568166921
 20
653.6592953992322
 30
0.0
 10
45.41443073758903
 20
653.6573339583739
 30
0.0
 10
46.50772473152072
 20
653.6564305809584
 30
0.0
 10
48.61451610682703
 20
653.6547800689315
 30
0.0
 10
49.62857963638147
 20
653.6540337680683
 30
0.0
 10
51.49800641515505
 20
653.6527568676596
 30
0.0
 10
52.36423223053036
 20
653.6522174163289
 30
0.0
 10
53.95777315339789
 20
653.6513393176114
 30
0.0
 10
54.68247685340511
 20
653.6510036955976
 30
0.0
 10
55.9357028951349
 20
653.6505613107262
 30
0.0
 10
56.47262506808537
 20
653.6504495791887
 30
0.0
 10
57.36380672300324
 20
653.6504490440076
 30
0.0
 10
57.71413801647972
 20
653.6505628413012
 30
0.0
 10
58.20390300558187
 20
653.651006481057
 30
0.0
 10
58.34802792969761
 20
653.6513358840816
 30
0.0
 10
58.3972270241294
 20
653.651861836479
 30
0.0
 10
58.40123185755871
 20
653.651952617634
 30
0.0
 10
58.40117845124599
 20
653.6520474829592
 30
0.0
  0
LINE
  5
66
330
5E
100
AcDbEntity
  8
$DDT_AUDIT_GENERATED_(60)
  6
Continuous
 62
     7
100
AcDbLine
 10
58.0532052458
 20
651.8793984001
 30
0.0
 11
17.0530174739
 21
651.8793984001
 31
0.0
  0
LINE
  5
67
330
5E
100
AcDbEntity
  8
$DDT_AUDIT_GENERATED_(60)
  6
Continuous
 62
     7
100
AcDbLine
 10
17.0049421664
 20
752.8793984001
 30
0.0
 11
37.5530582977
 21
752.8793984001
 31
0.0
  0
LINE
  5
68
330
5E
100
AcDbEntity
  8
$DDT_AUDIT_GENERATED_(60)
  6
Continuous
 62
     7
100
AcDbLine
 10
58.1012805344
 20
752.8793984001
 30
0.0
 11
37.5530577865
 21
752.8793984001
 31
0.0
  0
LINE
  5
69
330
5E
100
AcDbEntity
  8
$DDT_AUDIT_GENERATED_(60)
  6
Continuous
 62
     7
100
AcDbLine
 10
84.053110639
 20
701.2450132707
 30
0.0
 11
84.053110639
 21
701.0280042192
 31
0.0
  0
LINE
  5
6A
330
5E
100
AcDbEntity
  8
$DDT_AUDIT_GENERATED_(60)
  6
Continuous
 62
     7
100
AcDbLine
 10
84.053110639
 20
701.2450132707
 30
0.0
 11
85.253110639
 21
701.2450132707
 31
0.0
  0
SPLINE
  5
6B
330
5E
100
AcDbEntity
  8
$DDT_AUDIT_GENERATED_(60)
  6
Continuous
 62
     7
100
AcDbSpline
210
0.0
220
0.0
230
1.0
 70
     8
 71
     3
 72
    10
 73
     6
 74
     0
 42
0.000000020589353
 43
0.0000000001
 40
0.0
 40
0.0
 40
0.0
 40
0.0
 40
0.5
 40
0.5
 40
1.0
 40
1.0
 40
1.0
 40
1.0
 10
85.25311063900521
 20
701.245013270711
 30
0.0
 10
85.33214547528583
 20
701.245013270711
 30
0.0
 10
85.41090815798863
 20
701.2785164356359
 30
0.0
 10
85.52103540739951
 20
701.3905810183851
 30
0.0
 10
85.55311063900521
 20
701.4689848564932
 30
0.0
 10
85.55311063900521
 20
701.5482152588434
 30
0.0
  0
LINE
  5
6C
330
5E
100
AcDbEntity
  8
$DDT_AUDIT_GENERATED_(60)
  6
Continuous
 62
     7
100
AcDbLine
 10
85.253110639
 20
701.2448952795
 30
0.0
 11
84.053110639
 21
701.2448952795
 31
0.0
  0
LINE
  5
6D
330
5E
100
AcDbEntity
  8
$DDT_AUDIT_GENERATED_(60)
  6
Continuous
 62
     7
100
AcDbLine
 10
85.253110639
 20
742.7291573148
 30
0.0
 11
65.6342863829
 21
742.7291573148
 31
0.0
  0
LINE
  5
6E
330
5E
100
AcDbEntity
  8
$DDT_AUDIT_GENERATED_(60)
  6
Continuous
 62
     7
100
AcDbLine
 10
65.6342863829
 20
701.0280042192
 30
0.0
 11
84.053110639
 21
701.0280042192
 31
0.0
  0
LINE
  5
6F
330
5E
100
AcDbEntity
  8
$DDT_AUDIT_GENERATED_(60)
  6
Continuous
 62
     7
100
AcDbLine
 10
16.7049421664
 20
752.5793984001
 30
0.0
 11
16.7049421664
 21
749.9434460666
 31
0.0
  0
LINE
  5
70
330
5E
100
AcDbEntity
  8
$DDT_AUDIT_GENERATED_(60)
  6
Continuous
 62
     7
100
AcDbLine
 10
58.4012805534
 20
749.9434460666
 30
0.0
 11
58.4012805534
 21
752.5793984001
 31
0.0
  0
LINE
  5
71
330
5E
100
AcDbEntity
  8
$DDT_AUDIT_GENERATED_(60)
  6
Continuous
 62
     7
100
AcDbLine
 10
16.6975751702
 20
693.8153494815
 30
0.0
 11
16.6975751702
 21
653.6938273165
 31
0.0
  0
LINE
  5
72
330
5E
100
AcDbEntity
  8
$DDT_AUDIT_GENERATED_(60)
  6
Continuous
 62
     7
100
AcDbLine
 10
58.4012805534
 20
653.6504243111
 30
0.0
 11
58.4012805534
 21
653.652047018
 31
0.0
  0
LINE
  5
73
330
5E
100
AcDbEntity
  8
$DDT_AUDIT_GENERATED_(60)
  6
Continuous
 62
     7
100
AcDbLine
 10
16.6954723398
 20
653.7057530731
 30
0.0
 11
16.7530174739
 21
653.3793984001
 31
0.0
  0
LINE
  5
74
330
5E
100
AcDbEntity
  8
$DDT_AUDIT_GENERATED_(60)
  6
Continuous
 62
     7
100
AcDbLine
 10
58.3532052458
 20
653.3793984001
 30
0.0
 11
58.4013055534
 21
653.6521888001
 31
0.0
  0
LINE
  5
75
330
5E
100
AcDbEntity
  8
$DDT_AUDIT_GENERATED_(60)
  6
Continuous
 62
     7
100
AcDbLine
 10
58.3532052458
 20
652.1793984001
 30
0.0
 11
58.3532052458
 21
653.3793984001
 31
0.0
  0
LINE
  5
76
330
5E
100
AcDbEntity
  8
$DDT_AUDIT_GENERATED_(60)
  6
Continuous
 62
     7
100
AcDbLine
 10
16.7530174739
 20
653.3793984001
 30
0.0
 11
16.7530174739
 21
652.1793984001
 31
0.0
  0
ARC
  5
77
330
5E
100
AcDbEntity
  8
$DDT_AUDIT_GENERATED_(60)
  6
Continuous
 62
     7
100
AcDbCircle
 10
85.253110639
 20
742.4291573148
 30
0.0
 40
0.3000000000000017
100
AcDbArc
 50
0.0
 51
90.0
  0
ARC
  5
78
330
5E
100
AcDbEntity
  8
$DDT_AUDIT_GENERATED_(60)
  6
Continuous
 62
     7
100
AcDbCircle
 10
17.0530174739
 20
652.1793984001
 30
0.0
 40
0.3000000000000017
100
AcDbArc
 50
180.0
 51
270.0
  0
ARC
  5
79
330
5E
100
AcDbEntity
  8
$DDT_AUDIT_GENERATED_(60)
  6
Continuous
 62
     7
100
AcDbCircle
 10
58.0532052458
 20
652.1793984001
 30
0.0
 40
0.3000000000000008
100
AcDbArc
 50
270.0
 51
0.0
  0
ARC
  5
7A
330
5E
100
AcDbEntity
  8
$DDT_AUDIT_GENERATED_(60)
  6
Continuous
 62
     7
100
AcDbCircle
 10
17.0049421664
 20
752.5793984001
 30
0.0
 40
0.2999999999999947
100
AcDbArc
 50
90.0
 51
180.0
  0
ARC
  5
7B
330
5E
100
AcDbEntity
  8
$DDT_AUDIT_GENERATED_(60)
  6
Continuous
 62
     7
100
AcDbCircle
 10
58.1012805534
 20
752.5793984001
 30
0.0
 40
0.3000000000000017
100
AcDbArc
 50
0.0
 51
90.0
  0
LINE
  5
7D
330
5E
100
AcDbEntity
  8
$DDT_AUDIT_GENERATED_(7C)
  6
Continuous
 62
     7
100
AcDbLine
 10
85.553110639
 20
701.278580767
 30
0.0
 11
85.553110639
 21
742.478580767
 31
0.0
  0
ARC
  5
7E
330
5E
100
AcDbEntity
  8
$DDT_AUDIT_GENERATED_(7C)
  6
Continuous
 62
     7
100
AcDbCircle
 10
80.5862902772
 20
706.9015245167
 30
0.0
 40
11.5
100
AcDbArc
 50
330.7544490008
 51
349.5976260137
  0
ARC
  5
7F
330
5E
100
AcDbEntity
  8
$DDT_AUDIT_GENERATED_(7C)
  6
Continuous
 62
     7
100
AcDbCircle
 10
80.5862902772
 20
736.8556370174
 30
0.0
 40
11.49999999999996
100
AcDbArc
 50
10.4023739863
 51
29.2455509992
  0
ARC
  5
80
330
5E
100
AcDbEntity
  8
$DDT_AUDIT_GENERATED_(7C)
  6
Continuous
 62
     7
100
AcDbCircle
 10
90.2714170749
 20
742.278580767
 30
0.0
 40
0.4000000000000079
100
AcDbArc
 50
29.2455509992
 51
90.0
  0
ARC
  5
81
330
5E
100
AcDbEntity
  8
$DDT_AUDIT_GENERATED_(7C)
  6
Continuous
 62
     7
100
AcDbCircle
 10
90.2714170749
 20
701.478580767
 30
0.0
 40
0.3999999999999976
100
AcDbArc
 50
270.0
 51
330.7544490008
  0
LINE
  5
82
330
5E
100
AcDbEntity
  8
$DDT_AUDIT_GENERATED_(7C)
  6
Continuous
 62
     7
100
AcDbLine
 10
85.753110639
 20
701.078580767
 30
0.0
 11
90.2714170749
 21
701.078580767
 31
0.0
  0
LINE
  5
83
330
5E
100
AcDbEntity
  8
$DDT_AUDIT_GENERATED_(7C)
  6
Continuous
 62
     7
100
AcDbLine
 10
90.2714170749
 20
742.678580767
 30
0.0
 11
85.753110639
 21
742.678580767
 31
0.0
  0
ARC
  5
84
330
5E
100
AcDbEntity
  8
$DDT_AUDIT_GENERATED_(7C)
  6
Continuous
 62
     7
100
AcDbCircle
 10
91.6022069692
 20
738.877907878
 30
0.0
 40
0.2999999999999947
100
AcDbArc
 50
0.0
 51
10.4023739863
  0
ARC
  5
85
330
5E
100
AcDbEntity
  8
$DDT_AUDIT_GENERATED_(7C)
  6
Continuous
 62
     7
100
AcDbCircle
 10
91.6022069692
 20
704.879253656
 30
0.0
 40
0.2999999999999619
100
AcDbArc
 50
349.5976260137
 51
0.0
  0
LINE
  5
86
330
5E
100
AcDbEntity
  8
$DDT_AUDIT_GENERATED_(7C)
  6
Continuous
 62
     7
100
AcDbLine
 10
91.9022069692
 20
704.879253656
 30
0.0
 11
91.9022069692
 21
738.877907878
 31
0.0
  0
ARC
  5
87
330
5E
100
AcDbEntity
  8
$DDT_AUDIT_GENERATED_(7C)
  6
Continuous
 62
     7
100
AcDbCircle
 10
85.753110639
 20
742.478580767
 30
0.0
 40
0.2000000000000057
100
AcDbArc
 50
90.0
 51
180.0
  0
ARC
  5
88
330
5E
100
AcDbEntity
  8
$DDT_AUDIT_GENERATED_(7C)
  6
Continuous
 62
     7
100
AcDbCircle
 10
85.753110639
 20
701.278580767
 30
0.0
 40
0.1999999999999988
100
AcDbArc
 50
180.0
 51
270.0
  0
ARC
  5
8A
330
5E
100
AcDbEntity
  8
$DDT_AUDIT_GENERATED_(89)
  6
Continuous
 62
     7
100
AcDbCircle
 10
76.8677779722
 20
721.8668659079
 30
0.0
 40
19.0
100
AcDbArc
 50
32.1532465976
 51
37.6941715658
  0
ARC
  5
8B
330
5E
100
AcDbEntity
  8
$DDT_AUDIT_GENERATED_(89)
  6
Continuous
 62
     7
100
AcDbCircle
 10
76.8677779722
 20
721.8668659079
 30
0.0
 40
19.0
100
AcDbArc
 50
322.3058284342
 51
340.6689059166
  0
SPLINE
  5
8D
330
5E
100
AcDbEntity
  8
$DDT_AUDIT_GENERATED_(8C)
  6
Continuous
 62
     7
100
AcDbSpline
210
0.0
220
0.0
230
1.0
 70
     8
 71
     2
 72
    24
 73
    21
 74
     0
 42
0.0000000002266008
 43
0.0000000001
 40
0.1809866076269892
 40
0.1809866076269892
 40
0.1809866076269892
 40
0.1875014306084376
 40
0.1875014306084376
 40
0.2500019074779168
 40
0.2500019074779168
 40
0.3750028612168751
 40
0.3750028612168751
 40
0.4375033380863543
 40
0.4375033380863543
 40
0.5000038149558336
 40
0.5000038149558336
 40
0.5625042918253127
 40
0.5625042918253127
 40
0.6250047686947919
 40
0.6250047686947919
 40
0.7500057224337503
 40
0.7500057224337503
 40
0.8125061993032294
 40
0.8125061993032294
 40
0.8180739493137046
 40
0.8180739493137046
 40
0.8180739493137046
 10
23.53778290401586
 20
915.4299276701261
 30
0.0
 10
23.64467622764711
 20
915.4494116324954
 30
0.0
 10
23.75538410042538
 20
915.4686411824629
 30
0.0
 10
24.61659877949679
 20
915.6182310019425
 30
0.0
 10
25.65501037212486
 20
915.7437081867196
 30
0.0
 10
28.03126110491445
 20
916.0308440915878
 30
0.0
 10
31.08474545594007
 20
916.1853153211861
 30
0.0
 10
32.64007950712585
 20
916.2639973564295
 30
0.0
 10
34.28970904577744
 20
916.303667896702
 30
0.0
 10
35.90462896250727
 20
916.3425037347448
 30
0.0
 10
37.55177948309579
 20
916.3425191859802
 30
0.0
 10
39.26477849309263
 20
916.3425352549131
 30
0.0
 10
40.94386561889
 20
916.3005363370111
 30
0.0
 10
42.51091227476114
 20
916.2613398814862
 30
0.0
 10
43.99049607311691
 20
916.1868753435574
 30
0.0
 10
47.0698154441417
 20
916.0318992655865
 30
0.0
 10
49.45124539900789
 20
915.7437042041255
 30
0.0
 10
50.50400837805455
 20
915.6163013003238
 30
0.0
 10
51.37545961737347
 20
915.4645634214994
 30
0.0
 10
51.46751562540527
 20
915.448534546031
 30
0.0
 10
51.55695960653319
 20
915.4323055222931
 30
0.0
  0
SPLINE
  5
8E
330
5E
100
AcDbEntity
  8
$DDT_AUDIT_GENERATED_(8C)
  6
Continuous
 62
     7
100
AcDbSpline
210
0.0
220
0.0
230
1.0
 70
     8
 71
     3
 72
     8
 73
     4
 74
     0
 42
0.000000002383218
 43
0.0000000001
 40
0.8272469373460528
 40
0.8272469373460528
 40
0.8272469373460528
 40
0.8272469373460528
 40
1.0
 40
1.0
 40
1.0
 40
1.0
 10
49.3633139922139
 20
898.3032179949319
 30
0.0
 10
49.65804347912192
 20
898.504337156538
 30
0.0
 10
49.80917421674943
 20
898.6809347317873
 30
0.0
 10
49.80292194437425
 20
898.8164147117045
 30
0.0
  0
SPLINE
  5
8F
330
5E
100
AcDbEntity
  8
$DDT_AUDIT_GENERATED_(8C)
  6
Continuous
 62
     7
100
AcDbSpline
210
0.0
220
0.0
230
1.0
 70
     8
 71
     3
 72
     8
 73
     4
 74
     0
 42
0.000000002383154
 43
0.0000000001
 40
0.8272464532080936
 40
0.8272464532080936
 40
0.8272464532080936
 40
0.8272464532080936
 40
1.0
 40
1.0
 40
1.0
 40
1.0
 10
25.7429092682313
 20
898.3032230077217
 30
0.0
 10
25.4481794236072
 20
898.504345275036
 30
0.0
 10
25.29704920565145
 20
898.6809814015581
 30
0.0
 10
25.30330074492139
 20
898.8164518875545
 30
0.0
  0
SPLINE
  5
90
330
5E
100
AcDbEntity
  8
$DDT_AUDIT_GENERATED_(8C)
  6
Continuous
 62
     7
100
AcDbSpline
210
0.0
220
0.0
230
1.0
 70
     8
 71
     3
 72
    20
 73
    16
 74
     0
 42
0.0000000003955295
 43
0.0000000001
 40
0.0
 40
0.0
 40
0.0
 40
0.0
 40
0.1250000000000002
 40
0.1250000000000002
 40
0.2500000000000005
 40
0.2500000000000005
 40
0.3750000000000007
 40
0.3750000000000007
 40
0.5000000000000009
 40
0.5000000000000009
 40
0.625000000000001
 40
0.625000000000001
 40
0.7500000000000011
 40
0.7500000000000011
 40
1.0
 40
1.0
 40
1.0
 40
1.0
 10
25.30330074492139
 20
898.8164518875545
 30
0.0
 10
25.31224158299263
 20
899.010199152644
 30
0.0
 10
25.64218591098448
 20
899.2028731336047
 30
0.0
 10
26.87336516090194
 20
899.5565084260601
 30
0.0
 10
27.78844806651091
 20
899.7202912769893
 30
0.0
 10
30.04257002169686
 20
899.9906409969518
 30
0.0
 10
31.40446761439018
 20
900.1000804663373
 30
0.0
 10
34.34892797829453
 20
900.2468033697104
 30
0.0
 10
35.94525205599153
 20
900.2852755916557
 30
0.0
 10
39.146952415809
 20
900.2854906123024
 30
0.0
 10
40.73073037121394
 20
900.2479631691677
 30
0.0
 10
43.71026716836462
 20
900.0998192257749
 30
0.0
 10
45.05365109770175
 20
899.9917549155296
 30
0.0
 10
48.45647856588817
 20
899.5838909589381
 30
0.0
 10
49.7849948413589
 20
899.2049210823019
 30
0.0
 10
49.80292194437425
 20
898.8164147117045
 30
0.0
  0
LINE
  5
91
330
5E
100
AcDbEntity
  8
$DDT_AUDIT_GENERATED_(8C)
  6
Continuous
 62
     7
100
AcDbLine
 10
37.5530582977
 20
753.3793984001
 30
0.0
 11
17.0049421664
 21
753.3793984001
 31
0.0
  0
LINE
  5
92
330
5E
100
AcDbEntity
  8
$DDT_AUDIT_GENERATED_(8C)
  6
Continuous
 62
     7
100
AcDbLine
 10
37.5530577865
 20
753.3793984001
 30
0.0
 11
58.1012805342
 21
753.3793984001
 31
0.0
  0
ARC
  5
93
330
5E
100
AcDbEntity
  8
$DDT_AUDIT_GENERATED_(8C)
  6
Continuous
 62
     7
100
AcDbCircle
 10
24.7874592234
 20
904.4797343764
 30
0.0
 40
11.02008856246444
100
AcDbArc
 50
96.4957168097
 51
126.64431739
  0
ARC
  5
94
330
5E
100
AcDbEntity
  8
$DDT_AUDIT_GENERATED_(8C)
  6
Continuous
 62
     7
100
AcDbCircle
 10
50.3079465439
 20
904.459495954
 30
0.0
 40
11.04278356463475
100
AcDbArc
 50
53.373326633
 51
83.5416731755
  0
LINE
  5
95
330
5E
100
AcDbEntity
  8
$DDT_AUDIT_GENERATED_(8C)
  6
Continuous
 62
     7
100
AcDbLine
 10
16.7033717551
 20
905.8508314182
 30
0.0
 11
16.7033716154
 21
894.6997865133
 31
0.0
  0
ARC
  5
96
330
5E
100
AcDbEntity
  8
$DDT_AUDIT_GENERATED_(8C)
  6
Continuous
 62
     7
100
AcDbCircle
 10
37.553220745
 20
905.849504716
 30
0.0
 40
20.85086751093792
100
AcDbArc
 50
159.7740522162
 51
179.9608720163
  0
ARC
  5
97
330
5E
100
AcDbEntity
  8
$DDT_AUDIT_GENERATED_(8C)
  6
Continuous
 62
     7
100
AcDbCircle
 10
37.553220745
 20
905.849504716
 30
0.0
 40
20.85086751093793
100
AcDbArc
 50
359.9980634121
 51
20.2292204603
  0
ARC
  5
98
330
5E
100
AcDbEntity
  8
$DDT_AUDIT_GENERATED_(8C)
  6
Continuous
 62
     7
100
AcDbCircle
 10
19686.235339643
 20
877.077152454
 30
0.0
 40
19669.53987083225
100
AcDbArc
 50
179.9486665043
 51
180.0553860119
  0
LINE
  5
99
330
5E
100
AcDbEntity
  8
$DDT_AUDIT_GENERATED_(8C)
  6
Continuous
 62
     7
100
AcDbLine
 10
58.4028510485
 20
894.6997859988
 30
0.0
 11
58.4028511882
 21
905.8508319762
 31
0.0
  0
ARC
  5
9A
330
5E
100
AcDbEntity
  8
$DDT_AUDIT_GENERATED_(8C)
  6
Continuous
 62
     7
100
AcDbCircle
 10
-20366.4605467951
 20
877.1029238394
 30
0.0
 40
20424.87098654115
100
AcDbArc
 50
359.9465899213
 51
0.04936284
  0
LINE
  5
9B
330
5E
100
AcDbEntity
  8
$DDT_AUDIT_GENERATED_(8C)
  6
Continuous
 62
     7
100
AcDbLine
 10
58.4012805534
 20
753.6793984001
 30
0.0
 11
58.4012805534
 21
858.0632445639
 31
0.0
  0
LINE
  5
9C
330
5E
100
AcDbEntity
  8
$DDT_AUDIT_GENERATED_(8C)
  6
Continuous
 62
     7
100
AcDbLine
 10
16.7049421664
 20
858.0632445639
 30
0.0
 11
16.7049421664
 21
753.6793984001
 31
0.0
  0
ARC
  5
9D
330
5E
100
AcDbEntity
  8
$DDT_AUDIT_GENERATED_(8C)
  6
Continuous
 62
     7
100
AcDbCircle
 10
17.0049421664
 20
753.6793984001
 30
0.0
 40
0.3000000000000017
100
AcDbArc
 50
180.0
 51
270.0
  0
ARC
  5
9E
330
5E
100
AcDbEntity
  8
$DDT_AUDIT_GENERATED_(8C)
  6
Continuous
 62
     7
100
AcDbCircle
 10
58.1012805534
 20
753.6793984001
 30
0.0
 40
0.2999999999999947
100
AcDbArc
 50
270.0
 51
0.0
  0
ELLIPSE
  5
A0
330
5E
100
AcDbEntity
  8
$DDT_AUDIT_GENERATED_(9F)
  6
Continuous
 62
     7
100
AcDbEllipse
 10
110.8567434838
 20
773.5127291953
 30
0.0
 11
2.991307697375323E-5
 21
-14.00272158823804
 31
0.0
210
0.0
220
0.0
230
1.0
 40
0.017125405
 41
3.141293659928635
 42
4.850967790811975
  0
LINE
  5
A1
330
5E
100
AcDbEntity
  8
$DDT_AUDIT_GENERATED_(9F)
  6
Continuous
 62
     7
100
AcDbLine
 10
110.6192442349
 20
771.5784530858
 30
0.0
 11
110.742698479
 21
719.9383031913
 31
0.0
  0
ARC
  5
A2
330
5E
100
AcDbEntity
  8
$DDT_AUDIT_GENERATED_(9F)
  6
Continuous
 62
     7
100
AcDbCircle
 10
758.8448233384
 20
721.3064450113
 30
0.0
 40
646.7682507147387
100
AcDbArc
 50
179.8392756533
 51
180.081799045
  0
SPLINE
  5
A3
330
5E
100
AcDbEntity
  8
$DDT_AUDIT_GENERATED_(9F)
  6
Continuous
 62
     7
100
AcDbSpline
210
0.0
220
0.0
230
1.0
 70
     8
 71
     3
 72
    12
 73
     8
 74
     0
 42
0.0000000005383187
 43
0.0000000001
 40
0.4323086889592755
 40
0.4323086889592755
 40
0.4323086889592755
 40
0.4323086889592755
 40
0.4999999999999999
 40
0.4999999999999999
 40
0.7499999999999999
 40
0.7499999999999999
 40
1.0
 40
1.0
 40
1.0
 40
1.0
 10
112.3235850308518
 20
711.7382185417143
 30
0.0
 10
112.3112960758257
 20
711.4752638748721
 30
0.0
 10
112.2985168851156
 20
711.2876487417991
 30
0.0
 10
112.2376025970023
 20
710.7913887384534
 30
0.0
 10
112.1873329701899
 20
711.553936810581
 30
0.0
 10
112.110114140886
 20
714.9637232077125
 30
0.0
 10
112.0838895595217
 20
717.5606736341247
 30
0.0
 10
112.0772317517114
 20
720.3830784431835
 30
0.0
  0
SPLINE
  5
A4
330
5E
100
AcDbEntity
  8
$DDT_AUDIT_GENERATED_(9F)
  6
Continuous
 62
     7
100
AcDbSpline
210
0.0
220
0.0
230
1.0
 70
     8
 71
     3
 72
     8
 73
     4
 74
     0
 42
0.0000000015303405
 43
0.0000000001
 40
0.8874262774263374
 40
0.8874262774263374
 40
0.8874262774263374
 40
0.8874262774263374
 40
0.8970067601321949
 40
0.8970067601321949
 40
0.8970067601321949
 40
0.8970067601321949
 10
105.8491833568328
 20
737.4052777029101
 30
0.0
 10
105.8489907889207
 20
737.4266498879388
 30
0.0
 10
105.848871121951
 20
737.4475156847891
 30
0.0
 10
105.8488213908436
 20
737.467880032929
 30
0.0
  0
ELLIPSE
  5
A5
330
5E
100
AcDbEntity
  8
$DDT_AUDIT_GENERATED_(9F)
  6
Continuous
 62
     7
100
AcDbEllipse
 10
110.9801977297
 20
721.8725793004
 30
0.0
 11
0.0
 21
1.948802186028527
 31
0.0
210
0.0
220
0.0
230
1.0
 40
1.0
 41
3.019419601879875
 42
3.141599910210168
  0
ARC
  5
A6
330
5E
100
AcDbEntity
  8
$DDT_AUDIT_GENERATED_(9F)
  6
Continuous
 62
     7
100
AcDbCircle
 10
81.6214772676
 20
723.3459488392
 30
0.0
 40
21.76183108654847
100
AcDbArc
 50
26.3900775989
 51
26.409716211
  0
SPLINE
  5
A7
330
5E
100
AcDbEntity
  8
$DDT_AUDIT_GENERATED_(9F)
  6
Continuous
 62
     7
100
AcDbSpline
210
0.0
220
0.0
230
1.0
 70
    12
 71
     3
 72
     8
 73
     4
 74
     0
 42
0.0000000090439864
 43
0.0000000001
 40
0.1455928044244924
 40
0.1455928044244924
 40
0.1455928044244924
 40
0.1455928044244924
 40
0.1654561394653411
 40
0.1654561394653411
 40
0.1654561394653411
 40
0.1654561394653411
 10
102.3211033824785
 20
714.5547200353326
 30
0.0
 41
1.0
 10
102.321112305513
 20
714.5608745336569
 30
0.0
 41
1.0
 10
102.3212151557679
 20
714.5681904406563
 30
0.0
 41
1.0
 10
102.321416927928
 20
714.5766799390349
 30
0.0
 41
1.0
  0
SPLINE
  5
A8
330
5E
100
AcDbEntity
  8
$DDT_AUDIT_GENERATED_(9F)
  6
Continuous
 62
     7
100
AcDbSpline
210
0.0
220
0.0
230
1.0
 70
     8
 71
     3
 72
     8
 73
     4
 74
     0
 42
0.0000000085988572
 43
0.0000000001
 40
0.8388618880135417
 40
0.8388618880135417
 40
0.8388618880135417
 40
0.8388618880135417
 40
0.8923887631113974
 40
0.8923887631113974
 40
0.8923887631113974
 40
0.8923887631113974
 10
95.1605961325577
 20
714.8359551403643
 30
0.0
 10
95.17152067023727
 20
714.8061112352226
 30
0.0
 10
95.18129850677856
 20
714.7878168090433
 30
0.0
 10
95.18970942624355
 20
714.7829354436788
 30
0.0
  0
SPLINE
  5
A9
330
5E
100
AcDbEntity
  8
$DDT_AUDIT_GENERATED_(9F)
  6
Continuous
 62
     7
100
AcDbSpline
210
0.0
220
0.0
230
1.0
 70
     8
 71
     3
 72
     9
 73
     5
 74
     0
 42
0.0000000096515617
 43
0.0000000001
 40
0.8397976748498193
 40
0.8397976748498193
 40
0.8397976748498193
 40
0.8397976748498193
 40
0.8799179931627344
 40
0.89791069738484
 40
0.89791069738484
 40
0.89791069738484
 40
0.89791069738484
 10
93.30165642359017
 20
732.7590248473349
 30
0.0
 10
93.2930221690427
 20
732.7802538537246
 30
0.0
 10
93.28162288252419
 20
732.8010224654657
 30
0.0
 10
93.27202494977196
 20
732.8059057049152
 30
0.0
 10
93.26920008626394
 20
732.8061230025156
 30
0.0
  0
ELLIPSE
  5
AA
330
5E
100
AcDbEntity
  8
$DDT_AUDIT_GENERATED_(9F)
  6
Continuous
 62
     7
100
AcDbEllipse
 10
112.2619530928
 20
721.8626779054
 30
0.0
 11
2.296386067413003E-5
 21
-10.74999999997545
 31
0.0
210
0.0
220
0.0
230
1.0
 40
0.0171254054
 41
3.280126152045513
 42
4.595091407573393
  0
ELLIPSE
  5
AB
330
5E
100
AcDbEntity
  8
$DDT_AUDIT_GENERATED_(9F)
  6
Continuous
 62
     7
100
AcDbEllipse
 10
112.2619530928
 20
721.8626779054
 30
0.0
 11
2.296386067413003E-5
 21
-10.74999999997545
 31
0.0
210
0.0
220
0.0
230
1.0
 40
0.0171254054
 41
-3.487442343433651
 42
-3.240713187487649
  0
LINE
  5
AC
330
5E
100
AcDbEntity
  8
$DDT_AUDIT_GENERATED_(9F)
  6
Continuous
 62
     7
100
AcDbLine
 10
110.856785265
 20
787.5154501578
 30
0.0
 11
109.832149823
 21
787.5333356705
 31
0.0
  0
ARC
  5
AD
330
5E
100
AcDbEntity
  8
$DDT_AUDIT_GENERATED_(9F)
  6
Continuous
 62
     7
100
AcDbCircle
 10
109.7646232907
 20
785.6099655443
 30
0.0
 40
1.917252312268348
100
AcDbArc
 50
87.9486761746
 51
130.8861618031
  0
SPLINE
  5
AE
330
5E
100
AcDbEntity
  8
$DDT_AUDIT_GENERATED_(9F)
  6
Continuous
 62
     7
100
AcDbSpline
210
0.0
220
0.0
230
1.0
 70
     8
 71
     3
 72
     8
 73
     4
 74
     0
 42
0.0000004549713729
 43
0.0000000001
 40
0.8651585641521771
 40
0.8651585641521771
 40
0.8651585641521771
 40
0.8651585641521771
 40
1.0
 40
1.0
 40
1.0
 40
1.0
 10
112.2409098866292
 20
711.2098559549836
 30
0.0
 10
112.2409145127453
 20
711.2100191240906
 30
0.0
 10
112.2406232654417
 20
711.2111257108348
 30
0.0
 10
112.240098571876
 20
711.2126966297197
 30
0.0
  0
SPLINE
  5
AF
330
5E
100
AcDbEntity
  8
$DDT_AUDIT_GENERATED_(9F)
  6
Continuous
 62
     7
100
AcDbSpline
210
0.0
220
0.0
230
1.0
 70
     8
 71
     3
 72
     9
 73
     5
 74
     0
 42
0.0000000947633717
 43
0.0000000001
 40
0.0
 40
0.0
 40
0.0
 40
0.0
 40
0.2932317571751153
 40
0.4109976811781687
 40
0.4109976811781687
 40
0.4109976811781687
 40
0.4109976811781687
 10
112.2343076706306
 20
732.4730595258159
 30
0.0
 10
112.2369442568441
 20
732.4911557469928
 30
0.0
 10
112.2394240780325
 20
732.5102365617297
 30
0.0
 10
112.2406701738916
 20
732.5158930660407
 30
0.0
 10
112.240654580595
 20
732.5158453054223
 30
0.0
  0
LINE
  5
B0
330
5E
100
AcDbEntity
  8
$DDT_AUDIT_GENERATED_(9F)
  6
Continuous
 62
     7
100
AcDbLine
 10
112.4232351908
 20
731.7021430026
 30
0.0
 11
112.3196959567
 21
775.0119669294
 31
0.0
  0
SPLINE
  5
B1
330
5E
100
AcDbEntity
  8
$DDT_AUDIT_GENERATED_(9F)
  6
Continuous
 62
     7
100
AcDbSpline
210
0.0
220
0.0
230
1.0
 70
     8
 71
     3
 72
    34
 73
    30
 74
     0
 42
0.0000000007930369
 43
0.0000000001
 40
0.0
 40
0.0
 40
0.0
 40
0.0
 40
0.025369938981893
 40
0.0630127724181353
 40
0.1032744465214617
 40
0.1451298179228475
 40
0.1881605077348698
 40
0.2320313556391083
 40
0.2765031963117165
 40
0.3213974390826634
 40
0.3665780112094947
 40
0.411939565426085
 40
0.4574008056384459
 40
0.5029023153286015
 40
0.5484099560138982
 40
0.593927907053968
 40
0.6395331618939399
 40
0.68546844702658
 40
0.7324370631602604
 40
0.7829392827972534
 40
0.8224860459951046
 40
0.8517227668253308
 40
0.8724527348591619
 40
0.8905585099822785
 40
0.9066928660504474
 40
0.9225210565364255
 40
0.9426337036860379
 40
0.9685029875326283
 40
1.0
 40
1.0
 40
1.0
 40
1.0
 10
112.3196301041489
 20
775.0114450185602
 30
0.0
 10
112.3192480404361
 20
775.1717279807908
 30
0.0
 10
112.318425592078
 20
775.5088837634206
 30
0.0
 10
112.3161975754967
 20
776.1084034875647
 30
0.0
 10
112.3130273400542
 20
776.774491287487
 30
0.0
 10
112.3088895398423
 20
777.4625680092536
 30
0.0
 10
112.3038247801273
 20
778.1514678759963
 30
0.0
 10
112.297818908984
 20
778.8334791224381
 30
0.0
 10
112.2908912256997
 20
779.4999629586619
 30
0.0
 10
112.2830655252468
 20
780.1444071783611
 30
0.0
 10
112.274372819601
 20
780.7612405778552
 30
0.0
 10
112.2648453586098
 20
781.3459385778425
 30
0.0
 10
112.2545115184919
 20
781.8949049671809
 30
0.0
 10
112.2433872062922
 20
782.4055178290255
 30
0.0
 10
112.231460854991
 20
782.8762476325536
 30
0.0
 10
112.2186659229591
 20
783.3069273034142
 30
0.0
 10
112.2048151746095
 20
783.6993579558696
 30
0.0
 10
112.1894558690015
 20
784.0587217389776
 30
0.0
 10
112.1712745133395
 20
784.3988315967894
 30
0.0
 10
112.1496764648634
 20
784.7064477758079
 30
0.0
 10
112.121718638463
 20
784.9920084217364
 30
0.0
 10
112.0860407170317
 20
785.2512108248388
 30
0.0
 10
112.0382992826971
 20
785.4986299817433
 30
0.0
 10
111.9778599578324
 20
785.7325232895855
 30
0.0
 10
111.893437844085
 20
785.9794315391908
 30
0.0
 10
111.779859839712
 20
786.2475740925889
 30
0.0
 10
111.6206843360538
 20
786.5624491961858
 30
0.0
 10
111.3878400855322
 20
786.9553251740771
 30
0.0
 10
111.2181911607324
 20
787.2117556903231
 30
0.0
 10
111.1063444183573
 20
787.3785463496505
 30
0.0
  0
ARC
  5
B2
330
5E
100
AcDbEntity
  8
$DDT_AUDIT_GENERATED_(9F)
  6
Continuous
 62
     7
100
AcDbCircle
 10
110.8778766614
 20
787.2422720532
 30
0.0
 40
0.2655920271147556
100
AcDbArc
 50
29.6602188237
 51
94.2923278215
  0
SPLINE
  5
B3
330
5E
100
AcDbEntity
  8
$DDT_AUDIT_GENERATED_(9F)
  6
Continuous
 62
     7
100
AcDbSpline
210
0.0
220
0.0
230
1.0
 70
     8
 71
     3
 72
    23
 73
    19
 74
     0
 42
0.0000000007045441
 43
0.0000000001
 40
0.0
 40
0.0
 40
0.0
 40
0.0
 40
0.0213587369277018
 40
0.0621882602421923
 40
0.104514654608204
 40
0.1497743169542057
 40
0.1992287994142999
 40
0.2542824515050481
 40
0.316593351051989
 40
0.3883311206048753
 40
0.4728447944345773
 40
0.5738866545014655
 40
0.6975614163750946
 40
0.8547005909635831
 40
0.8998604221908676
 40
0.9357606973445889
 40
0.9773471162019359
 40
1.0
 40
1.0
 40
1.0
 40
1.0
 10
108.5155847318884
 20
787.0702814893023
 30
0.0
 10
108.4308191287461
 20
786.9972205830611
 30
0.0
 10
108.2220689418132
 20
786.8152282084486
 30
0.0
 10
107.8764055245009
 20
786.4382510807255
 30
0.0
 10
107.5223337743934
 20
785.9444371808619
 30
0.0
 10
107.2021375532526
 20
785.3751466847634
 30
0.0
 10
106.9169051578104
 20
784.72407512421
 30
0.0
 10
106.6635284056504
 20
783.9751301702654
 30
0.0
 10
106.4411262371635
 20
783.1089960729402
 30
0.0
 10
106.2480201497163
 20
782.095914734412
 30
0.0
 10
106.0819030699051
 20
780.8915467461273
 30
0.0
 10
105.9413770204689
 20
779.4372702749204
 30
0.0
 10
105.8328366719021
 20
777.6398195315105
 30
0.0
 10
105.7880532282022
 20
776.1115849619722
 30
0.0
 10
105.7713253507758
 20
774.9857119375952
 30
0.0
 10
105.7657615077719
 20
774.4075006158771
 30
0.0
 10
105.7633086738052
 20
773.9181217606532
 30
0.0
 10
105.7630565260543
 20
773.6316778083068
 30
0.0
 10
105.7629809268057
 20
773.5127183141337
 30
0.0
  0
LINE
  5
B4
330
5E
100
AcDbEntity
  8
$DDT_AUDIT_GENERATED_(9F)
  6
Continuous
 62
     7
100
AcDbLine
 10
105.7633395078
 20
773.2126555073
 30
0.0
 11
105.8488005771
 21
737.4648166086
 31
0.0
  0
ARC
  5
B5
330
5E
100
AcDbEntity
  8
$DDT_AUDIT_GENERATED_(9F)
  6
Continuous
 62
     7
100
AcDbCircle
 10
112.5558574204
 20
712.7203049383
 30
0.0
 40
5.892195740801453
100
AcDbArc
 50
195.0805985442
 51
229.0530456771
  0
ARC
  5
B6
330
5E
100
AcDbEntity
  8
$DDT_AUDIT_GENERATED_(9F)
  6
Continuous
 62
     7
100
AcDbCircle
 10
109.8719143301
 20
709.7299404577
 30
0.0
 40
1.869709479328233
100
AcDbArc
 50
228.732971404
 51
272.5755362276
  0
LINE
  5
B7
330
5E
100
AcDbEntity
  8
$DDT_AUDIT_GENERATED_(9F)
  6
Continuous
 62
     7
100
AcDbLine
 10
109.9556639204
 20
707.8519684471
 30
0.0
 11
110.9802993354
 21
707.8698583383
 31
0.0
  0
SPLINE
  5
B8
330
5E
100
AcDbEntity
  8
$DDT_AUDIT_GENERATED_(9F)
  6
Continuous
 62
     7
100
AcDbSpline
210
0.0
220
0.0
230
1.0
 70
     8
 71
     3
 72
    11
 73
     7
 74
     0
 42
0.000000029602095
 43
0.0000000001
 40
0.0
 40
0.0
 40
0.0
 40
0.0
 40
0.1303876766207956
 40
0.4310538367017235
 40
0.7058331196763076
 40
1.0
 40
1.0
 40
1.0
 40
1.0
 10
110.9790354720717
 20
707.8778664065517
 30
0.0
 10
111.0003781325406
 20
707.8759346718268
 30
0.0
 10
111.0604306121994
 20
707.8706175309054
 30
0.0
 10
111.1558978933794
 20
707.9225812550068
 30
0.0
 10
111.2213219568242
 20
707.9900812937825
 30
0.0
 10
111.2385078980926
 20
708.0191645799019
 30
0.0
 10
111.2472706579601
 20
708.0367176407914
 30
0.0
  0
SPLINE
  5
B9
330
5E
100
AcDbEntity
  8
$DDT_AUDIT_GENERATED_(9F)
  6
Continuous
 62
     7
100
AcDbSpline
210
0.0
220
0.0
230
1.0
 70
     8
 71
     3
 72
    19
 73
    15
 74
     0
 42
0.0000000011802673
 43
0.0000000001
 40
0.0
 40
0.0
 40
0.0
 40
0.0
 40
0.0480065421498257
 40
0.0810786684793042
 40
0.1068301401579804
 40
0.127732203436023
 40
0.1483754295538117
 40
0.1753509392898946
 40
0.2052459064492773
 40
0.2463637481149324
 40
0.318506684734073
 40
0.3849219023081227
 40
0.464781295676495
 40
0.4742598751916342
 40
0.4742598751916342
 40
0.4742598751916342
 40
0.4742598751916342
 10
111.2298578646603
 20
708.0067631570843
 30
0.0
 10
111.3632948087947
 20
708.2058343991362
 30
0.0
 10
111.5502818924128
 20
708.4893376180045
 30
0.0
 10
111.7948369279589
 20
708.916028277514
 30
0.0
 10
111.9479392324175
 20
709.2356382520372
 30
0.0
 10
112.053624091261
 20
709.5058470651996
 30
0.0
 10
112.1305659865323
 20
709.7559276558616
 30
0.0
 10
112.1853287109987
 20
709.9986555192177
 30
0.0
 10
112.2268196030334
 20
710.2496141166956
 30
0.0
 10
112.2618285661296
 20
710.5449700919293
 30
0.0
 10
112.2868848987336
 20
710.8605210366995
 30
0.0
 10
112.3099033878071
 20
711.2561450638898
 30
0.0
 10
112.3234787644019
 20
711.5686499327135
 30
0.0
 10
112.3307761229138
 20
711.7624979060158
 30
0.0
 10
112.3315450190984
 20
711.7832308449704
 30
0.0
  0
ARC
  5
BA
330
5E
100
AcDbEntity
  8
$DDT_AUDIT_GENERATED_(9F)
  6
Continuous
 62
     7
100
AcDbCircle
 10
100.9071331223
 20
737.9939208393
 30
0.0
 40
4.967558856924588
100
AcDbArc
 50
272.8778188673
 51
350.7435149468
  0
SPLINE
  5
BB
330
5E
100
AcDbEntity
  8
$DDT_AUDIT_GENERATED_(9F)
  6
Continuous
 62
     7
100
AcDbSpline
210
0.0
220
0.0
230
1.0
 70
     8
 71
     3
 72
     8
 73
     4
 74
     0
 42
0.0000000451072
 43
0.0000000001
 40
0.1233049827715093
 40
0.1233049827715093
 40
0.1233049827715093
 40
0.1233049827715093
 40
1.0
 40
1.0
 40
1.0
 40
1.0
 10
105.8482358930031
 20
737.4127349104344
 30
0.0
 10
105.8467949881131
 20
737.4203143385627
 30
0.0
 10
105.8368084866979
 20
737.361360129241
 30
0.0
 10
105.8182763887576
 20
737.2358722824697
 30
0.0
  0
ARC
  5
BC
330
5E
100
AcDbEntity
  8
$DDT_AUDIT_GENERATED_(9F)
  6
Continuous
 62
     7
100
AcDbCircle
 10
102.1525775272
 20
709.5843159797
 30
0.0
 40
4.995226581714482
100
AcDbArc
 50
18.0384351176
 51
88.4566495774
  0
LINE
  5
BD
330
5E
100
AcDbEntity
  8
$DDT_AUDIT_GENERATED_(9F)
  6
Continuous
 62
     7
100
AcDbLine
 10
95.1559496879
 20
714.8391627626
 30
0.0
 11
102.3221850756
 21
714.5905386068
 31
0.0
  0
ARC
  5
BE
330
5E
100
AcDbEntity
  8
$DDT_AUDIT_GENERATED_(9F)
  6
Continuous
 62
     7
100
AcDbCircle
 10
160.8509362019
 20
728.3059991978
 30
0.0
 40
67.27452720387106
100
AcDbArc
 50
184.902212259
 51
191.3969690228
  0
SPLINE
  5
BF
330
5E
100
AcDbEntity
  8
$DDT_AUDIT_GENERATED_(9F)
  6
Continuous
 62
     7
100
AcDbSpline
210
0.0
220
0.0
230
1.0
 70
     8
 71
     3
 72
    10
 73
     6
 74
     0
 42
0.0000000193902311
 43
0.0000000001
 40
0.0
 40
0.0
 40
0.0
 40
0.0
 40
0.2709807684258935
 40
0.5461855240323076
 40
1.0
 40
1.0
 40
1.0
 40
1.0
 10
94.86634593603786
 20
715.1254998306432
 30
0.0
 10
94.87908977225332
 20
715.0709614037974
 30
0.0
 10
94.90141779261995
 20
714.9810241327359
 30
0.0
 10
95.02278196673818
 20
714.8267071988952
 30
0.0
 10
95.11802288100822
 20
714.8081489171993
 30
0.0
 10
95.19071810628876
 20
714.7960644749019
 30
0.0
  0
LINE
  5
C0
330
5E
100
AcDbEntity
  8
$DDT_AUDIT_GENERATED_(9F)
  6
Continuous
 62
     7
100
AcDbLine
 10
101.0625302431
 20
733.0237844723
 30
0.0
 11
93.3022607703
 21
732.7545164655
 31
0.0
  0
ARC
  5
C1
330
5E
100
AcDbEntity
  8
$DDT_AUDIT_GENERATED_(9F)
  6
Continuous
 62
     7
100
AcDbCircle
 10
93.2727746234
 20
732.5057561293
 30
0.0
 40
0.3049407110243739
100
AcDbArc
 50
90.0542482284
 51
168.8236614195
  0
ARC
  5
C2
330
5E
100
AcDbEntity
  8
$DDT_AUDIT_GENERATED_(9F)
  6
Continuous
 62
     7
100
AcDbCircle
 10
195.2984005434
 20
736.559107073
 30
0.0
 40
102.4372333518733
100
AcDbArc
 50
182.2936882998
 51
187.8560370329
  0
LINE
  5
C4
330
5E
100
AcDbEntity
  8
$DDT_AUDIT_GENERATED_(C3)
  6
Continuous
 62
     7
100
AcDbLine
 10
57.9031113599
 20
752.8793984001
 30
0.0
 11
57.9031113599
 21
753.3793984001
 31
0.0
  0
LINE
  5
C5
330
5E
100
AcDbEntity
  8
$DDT_AUDIT_GENERATED_(C3)
  6
Continuous
 62
     7
100
AcDbLine
 10
17.2031113599
 20
753.3793984001
 30
0.0
 11
17.2031113599
 21
752.8793984001
 31
0.0
  0
SPLINE
  5
C7
330
5E
100
AcDbEntity
  8
$DDT_AUDIT_GENERATED_(C6)
  6
Continuous
 62
     7
100
AcDbSpline
210
0.0
220
0.0
230
1.0
 70
     8
 71
     3
 72
    38
 73
    34
 74
     0
 42
0.0000000001196354
 43
0.0000000001
 40
0.2500845085325323
 40
0.2500845085325323
 40
0.2500845085325323
 40
0.2500845085325323
 40
0.2812500000000005
 40
0.2812500000000005
 40
0.3125000000000006
 40
0.3125000000000006
 40
0.3437500000000006
 40
0.3437500000000006
 40
0.3750000000000007
 40
0.3750000000000007
 40
0.4062500000000007
 40
0.4062500000000007
 40
0.4375000000000007
 40
0.4375000000000007
 40
0.4687500000000007
 40
0.4687500000000007
 40
0.5000000000000007
 40
0.5000000000000007
 40
0.5312500000000008
 40
0.5312500000000008
 40
0.5625000000000007
 40
0.5625000000000007
 40
0.6250000000000007
 40
0.6250000000000007
 40
0.6562500000000007
 40
0.6562500000000007
 40
0.6875000000000006
 40
0.6875000000000006
 40
0.7187500000000006
 40
0.7187500000000006
 40
0.7500000000000004
 40
0.7500000000000004
 40
0.7501603782065238
 40
0.7501603782065238
 40
0.7501603782065238
 40
0.7501603782065238
 10
16.65311142570378
 20
468.5331980752858
 30
0.0
 10
16.65312496790936
 20
468.5331980861594
 30
0.0
 10
16.78871980682364
 20
468.5330953888113
 30
0.0
 10
17.3210721376247
 20
468.5328992228235
 30
0.0
 10
17.71550188888066
 20
468.5328063622344
 30
0.0
 10
18.76157205198123
 20
468.5327307509708
 30
0.0
 10
19.41593497854772
 20
468.5327486211638
 30
0.0
 10
20.9286026228255
 20
468.5328911673265
 30
0.0
 10
21.79211810529191
 20
468.5330146461969
 30
0.0
 10
23.74187334094686
 20
468.5332955281782
 30
0.0
 10
24.79969719344104
 20
468.5334488584996
 30
0.0
 10
27.06284419515764
 20
468.5336398912568
 30
0.0
 10
28.28378129359299
 20
468.5336501059724
 30
0.0
 10
30.81652077799042
 20
468.5335357201201
 30
0.0
 10
32.11928765219052
 20
468.5334283031578
 30
0.0
 10
34.79671516047296
 20
468.5332578465831
 30
0.0
 10
36.18179346427134
 20
468.5331979199352
 30
0.0
 10
38.9096534251802
 20
468.5331975345482
 30
0.0
 10
40.26518674741809
 20
468.5332554438051
 30
0.0
 10
42.95911867048578
 20
468.5334261243987
 30
0.0
 10
44.28073516692346
 20
468.53353485949
 30
0.0
 10
48.05453010669519
 20
468.5337066525911
 30
0.0
 10
50.38839377827043
 20
468.533436061973
 30
0.0
 10
53.28174430527653
 20
468.5330193387588
 30
0.0
 10
54.16489837584677
 20
468.5328926792141
 30
0.0
 10
55.68521092146864
 20
468.5327487901679
 30
0.0
 10
56.32793224137509
 20
468.5327306873593
 30
0.0
 10
57.37800948670898
 20
468.5328043303178
 30
0.0
 10
57.78194627148087
 20
468.5328984119389
 30
0.0
 10
58.31533645047757
 20
468.5330942248286
 30
0.0
 10
58.45169361276994
 20
468.5331969599015
 30
0.0
 10
58.45310768919388
 20
468.5331980723555
 30
0.0
 10
58.45311132766689
 20
468.5331980753094
 30
0.0
 10
58.45311138534206
 20
468.5331980755515
 30
0.0
  0
LINE
  5
C8
330
5E
100
AcDbEntity
  8
$DDT_AUDIT_GENERATED_(C6)
  6
Continuous
 62
     7
100
AcDbLine
 10
16.6740006554
 20
468.5190797349
 30
0.0
 11
12.9046318463
 21
467.6491395792
 31
0.0
  0
LINE
  5
C9
330
5E
100
AcDbEntity
  8
$DDT_AUDIT_GENERATED_(C6)
  6
Continuous
 62
     7
100
AcDbLine
 10
62.2015908737
 20
467.6491395792
 30
0.0
 11
58.4409446885
 21
468.5170666231
 31
0.0
  0
LINE
  5
CA
330
5E
100
AcDbEntity
  8
$DDT_AUDIT_GENERATED_(C6)
  6
Continuous
 62
     7
100
AcDbLine
 10
12.90311136
 20
467.660711782
 30
0.0
 11
12.90311136
 21
467.5793983703
 31
0.0
  0
LINE
  5
CB
330
5E
100
AcDbEntity
  8
$DDT_AUDIT_GENERATED_(C6)
  6
Continuous
 62
     7
100
AcDbLine
 10
62.20311136
 20
467.5793983703
 30
0.0
 11
62.20311136
 21
467.660711782
 31
0.0
  0
LINE
  5
CD
330
5E
100
AcDbEntity
  8
$DDT_AUDIT_GENERATED_(CC)
  6
Continuous
 62
     7
100
AcDbLine
 10
66.5531113451
 20
467.5793983703
 30
0.0
 11
8.5531100818
 21
467.5793983703
 31
0.0
  0
LINE
  5
CE
330
5E
100
AcDbEntity
  8
$DDT_AUDIT_GENERATED_(CC)
  6
Continuous
 62
     7
100
AcDbLine
 10
7.553060773
 20
461.8793983703
 30
0.0
 11
67.5531172267
 21
461.8793983703
 31
0.0
  0
SPLINE
  5
CF
330
5E
100
AcDbEntity
  8
$DDT_AUDIT_GENERATED_(CC)
  6
Continuous
 62
     7
100
AcDbSpline
210
0.0
220
0.0
230
1.0
 70
     8
 71
     3
 72
    13
 73
     9
 74
     0
 42
0.0000000063014676
 43
0.0000000001
 40
0.0
 40
0.0
 40
0.0
 40
0.0
 40
0.1294353618362373
 40
0.2550301133060633
 40
0.4999999999999997
 40
0.7449698866939374
 40
0.870564638163771
 40
1.0
 40
1.0
 40
1.0
 40
1.0
 10
67.55311135999823
 20
466.5793983554453
 30
0.0
 10
67.54943035046696
 20
466.6535777343787
 30
0.0
 10
67.54135702207368
 20
466.7774892007561
 30
0.0
 10
67.46128592348235
 20
467.0324347123949
 30
0.0
 10
67.27773741870132
 20
467.3040244290495
 30
0.0
 10
67.00614770204669
 20
467.4875729338304
 30
0.0
 10
66.75120219040804
 20
467.5676440324218
 30
0.0
 10
66.62729072403059
 20
467.575717360815
 30
0.0
 10
66.55311134509722
 20
467.5793983703463
 30
0.0
  0
SPLINE
  5
D0
330
5E
100
AcDbEntity
  8
$DDT_AUDIT_GENERATED_(CC)
  6
Continuous
 62
     7
100
AcDbSpline
210
0.0
220
0.0
230
1.0
 70
     8
 71
     3
 72
    13
 73
     9
 74
     0
 42
0.0000000063014675
 43
0.0000000001
 40
0.0
 40
0.0
 40
0.0
 40
0.0
 40
0.1294353651929508
 40
0.2550301194024468
 40
0.5000000085273761
 40
0.7449698927901809
 40
0.8705646415203834
 40
1.0
 40
1.0
 40
1.0
 40
1.0
 10
8.55311008178991
 20
467.5793983703463
 30
0.0
 10
8.478930698958859
 20
467.575717360839
 30
0.0
 10
8.355019226398273
 20
467.5676440324721
 30
0.0
 10
8.100073702618067
 20
467.4875729344822
 30
0.0
 10
7.828483972690037
 20
467.3040244319088
 30
0.0
 10
7.644935455986365
 20
467.032434714152
 30
0.0
 10
7.564864352555559
 20
466.7774892011605
 30
0.0
 10
7.556791023708584
 20
466.6535777344074
 30
0.0
 10
7.553110013958572
 20
466.5793983554453
 30
0.0
  0
LINE
  5
D1
330
5E
100
AcDbEntity
  8
$DDT_AUDIT_GENERATED_(CC)
  6
Continuous
 62
     7
100
AcDbLine
 10
7.553060773
 20
466.5843983554
 30
0.0
 11
7.553060773
 21
461.8793983703
 31
0.0
  0
LINE
  5
D2
330
5E
100
AcDbEntity
  8
$DDT_AUDIT_GENERATED_(CC)
  6
Continuous
 62
     7
100
AcDbLine
 10
67.5531172267
 20
461.8793983703
 30
0.0
 11
67.5531172267
 21
466.5843983554
 31
0.0
  0
LINE
  5
D4
330
5E
100
AcDbEntity
  8
$DDT_AUDIT_GENERATED_(D3)
  6
Continuous
 62
     7
100
AcDbLine
 10
113.7549798598
 20
722.035748162
 30
0.0
 11
113.7610066363
 21
721.9507860039
 31
0.0
  0
LINE
  5
D5
330
5E
100
AcDbEntity
  8
$DDT_AUDIT_GENERATED_(D3)
  6
Continuous
 62
     7
100
AcDbLine
 10
113.7370823298
 20
722.9733599831
 30
0.0
 11
113.7564711784
 21
721.9501928108
 31
0.0
  0
LINE
  5
D6
330
5E
100
AcDbEntity
  8
$DDT_AUDIT_GENERATED_(D3)
  6
Continuous
 62
     7
100
AcDbLine
 10
113.6970073119
 20
723.8568694993
 30
0.0
 11
113.7279706833
 21
723.2225337948
 31
0.0
  0
LINE
  5
D7
330
5E
100
AcDbEntity
  8
$DDT_AUDIT_GENERATED_(D3)
  6
Continuous
 62
     7
100
AcDbLine
 10
113.6351574261
 20
724.741584298
 30
0.0
 11
113.681764865
 21
724.1064318007
 31
0.0
  0
LINE
  5
D8
330
5E
100
AcDbEntity
  8
$DDT_AUDIT_GENERATED_(D3)
  6
Continuous
 62
     7
100
AcDbLine
 10
113.7279706833
 20
723.2225337948
 30
0.0
 11
113.7370823298
 21
722.9733599831
 31
0.0
  0
LINE
  5
D9
330
5E
100
AcDbEntity
  8
$DDT_AUDIT_GENERATED_(D3)
  6
Continuous
 62
     7
100
AcDbLine
 10
113.681764865
 20
724.1064318007
 30
0.0
 11
113.6970073119
 21
723.8568694993
 31
0.0
  0
LINE
  5
DA
330
5E
100
AcDbEntity
  8
$DDT_AUDIT_GENERATED_(D3)
  6
Continuous
 62
     7
100
AcDbLine
 10
113.6138016247
 20
724.9907636242
 30
0.0
 11
113.6351574261
 21
724.741584298
 31
0.0
  0
ARC
  5
DB
330
5E
100
AcDbEntity
  8
$DDT_AUDIT_GENERATED_(D3)
  6
Continuous
 62
     7
100
AcDbCircle
 10
45.1294998171
 20
726.3079903792
 30
0.0
 40
67.4458333952046
100
AcDbArc
 50
4.6041106923
 51
4.8295175042
  0
ARC
  5
DC
330
5E
100
AcDbEntity
  8
$DDT_AUDIT_GENERATED_(D3)
  6
Continuous
 62
     7
100
AcDbCircle
 10
112.0432871985
 20
711.8681835209
 30
0.0
 40
0.2962044575522543
100
AcDbArc
 50
267.6137942311
 51
340.537559773
  0
ARC
  5
DD
330
5E
100
AcDbEntity
  8
$DDT_AUDIT_GENERATED_(D3)
  6
Continuous
 62
     7
100
AcDbCircle
 10
111.8040454653
 20
712.1131363749
 30
0.0
 40
0.6207804685797251
100
AcDbArc
 50
327.6152050269
 51
343.9583863664
  0
ELLIPSE
  5
DE
330
5E
100
AcDbEntity
  8
$DDT_AUDIT_GENERATED_(D3)
  6
Continuous
 62
     7
100
AcDbEllipse
 10
112.1303822695
 20
711.8243230821
 30
0.0
 11
-0.1823818969007712
 21
0.08207827777722415
 31
0.0
210
0.0
220
0.0
230
0.9999999999999999
 40
0.9665453809
 41
3.132391146492493
 42
3.291496351922934
  0
ELLIPSE
  5
DF
330
5E
100
AcDbEntity
  8
$DDT_AUDIT_GENERATED_(D3)
  6
Continuous
 62
     7
100
AcDbEllipse
 10
112.1360632282
 20
711.8354227909
 30
0.0
 11
-0.1675579747402456
 21
0.1091985581450142
 31
0.0
210
0.0
220
0.0
230
0.9999999999999998
 40
0.9924017769
 41
3.132545131976492
 42
3.443699090033404
  0
ARC
  5
E0
330
5E
100
AcDbEntity
  8
$DDT_AUDIT_GENERATED_(D3)
  6
Continuous
 62
     7
100
AcDbCircle
 10
77.6095930945
 20
721.7756026792
 30
0.0
 40
36.14729541962495
100
AcDbArc
 50
356.4146840674
 51
0.1371267793
  0
ARC
  5
E1
330
5E
100
AcDbEntity
  8
$DDT_AUDIT_GENERATED_(D3)
  6
Continuous
 62
     7
100
AcDbCircle
 10
77.4275818685
 20
722.0464561818
 30
0.0
 40
36.26497980897685
100
AcDbArc
 50
9.5394085686
 51
15.4739867808
  0
ARC
  5
E2
330
5E
100
AcDbEntity
  8
$DDT_AUDIT_GENERATED_(D3)
  6
Continuous
 62
     7
100
AcDbCircle
 10
77.1317890418
 20
721.8274944925
 30
0.0
 40
36.62791778715821
100
AcDbArc
 50
344.2379262775
 51
353.0220409164
  0
ARC
  5
E3
330
5E
100
AcDbEntity
  8
$DDT_AUDIT_GENERATED_(D3)
  6
Continuous
 62
     7
100
AcDbCircle
 10
76.8879030174
 20
721.8628889604
 30
0.0
 40
36.87429756721237
100
AcDbArc
 50
352.9876643916
 51
355.6720109846
  0
ARC
  5
E4
330
5E
100
AcDbEntity
  8
$DDT_AUDIT_GENERATED_(D3)
  6
Continuous
 62
     7
100
AcDbCircle
 10
76.8879030174
 20
721.8628889604
 30
0.0
 40
36.87429756721237
100
AcDbArc
 50
359.7162555953
 51
0.1365830599
  0
ARC
  5
E5
330
5E
100
AcDbEntity
  8
$DDT_AUDIT_GENERATED_(D3)
  6
Continuous
 62
     7
100
AcDbCircle
 10
112.0508909299
 20
731.9119700786
 30
0.0
 40
0.2991833683773551
100
AcDbArc
 50
28.3793672009
 51
56.4536748452
  0
ARC
  5
E6
330
5E
100
AcDbEntity
  8
$DDT_AUDIT_GENERATED_(D3)
  6
Continuous
 62
     7
100
AcDbCircle
 10
112.2291501665
 20
711.779825447
 30
0.0
 40
0.0916817693783088
100
AcDbArc
 50
334.6473360801
 51
334.7698403772
  0
ELLIPSE
  5
E8
330
5E
100
AcDbEntity
  8
02636038_GEHÄUSE
  6
Continuous
 62
     7
100
AcDbEllipse
 10
37.5531113599
 20
891.7038899939
 30
0.0
 11
10.75000000000001
 21
2.775557561562891E-14
 31
0.0
210
0.0
220
0.0
230
1.0
 40
0.1460162127
 41
5.480490692503193
 42
6.283185307179568
  0
ELLIPSE
  5
E9
330
5E
100
AcDbEntity
  8
02636038_GEHÄUSE
  6
Continuous
 62
     7
100
AcDbEllipse
 10
37.5531113599
 20
891.7038899939
 30
0.0
 11
10.75000000000001
 21
2.775557561562891E-14
 31
0.0
210
0.0
220
0.0
230
1.0
 40
0.1460162127
 41
0.0
 42
3.944287268266185
  0
LINE
  5
EA
330
5E
100
AcDbEntity
  8
02636038_GEHÄUSE
  6
Continuous
 62
     7
100
AcDbLine
 10
48.5531113599
 20
891.6403578473
 30
0.0
 11
48.5531113599
 21
892.3957007177
 31
0.0
  0
ELLIPSE
  5
EB
330
5E
100
AcDbEntity
  8
02636038_GEHÄUSE
  6
Continuous
 62
     7
100
AcDbEllipse
 10
37.5531113599
 20
894.6717365854
 30
0.0
 11
-11.80000000000002
 21
0.0
 31
0.0
210
0.0
220
0.0
230
1.0
 40
0.1460162127
 41
2.77125002149806
 42
3.511935285681494
  0
LINE
  5
EC
330
5E
100
AcDbEntity
  8
02636038_GEHÄUSE
  6
Continuous
 62
     7
100
AcDbLine
 10
48.5531113599
 20
892.3957007176
 30
0.0
 11
48.5531113599
 21
893.4983834084
 31
0.0
  0
LINE
  5
ED
330
5E
100
AcDbEntity
  8
02636038_GEHÄUSE
  6
Continuous
 62
     7
100
AcDbLine
 10
48.5531113599
 20
893.4983834084
 30
0.0
 11
48.5531113599
 21
895.295347197
 31
0.0
  0
LINE
  5
EE
330
5E
100
AcDbEntity
  8
02636038_GEHÄUSE
  6
Continuous
 62
     7
100
AcDbLine
 10
26.5531113599
 20
892.3957007176
 30
0.0
 11
26.5531113599
 21
891.6403578473
 31
0.0
  0
ELLIPSE
  5
EF
330
5E
100
AcDbEntity
  8
02636038_GEHÄUSE
  6
Continuous
 62
     7
100
AcDbEllipse
 10
37.5531113599
 20
894.6717365854
 30
0.0
 11
11.79999999999961
 21
-1.110223024625157E-13
 31
0.0
210
0.0
220
0.0
230
1.0
 40
0.1460162127
 41
2.771250021498088
 42
3.51193528568152
  0
LINE
  5
F0
330
5E
100
AcDbEntity
  8
02636038_GEHÄUSE
  6
Continuous
 62
     7
100
AcDbLine
 10
26.5531113599
 20
895.295347197
 30
0.0
 11
26.5531113599
 21
893.4983834084
 31
0.0
  0
LINE
  5
F1
330
5E
100
AcDbEntity
  8
02636038_GEHÄUSE
  6
Continuous
 62
     7
100
AcDbLine
 10
26.5531113599
 20
893.4983834084
 30
0.0
 11
26.5531113599
 21
892.3957007176
 31
0.0
  0
LINE
  5
F2
330
5E
100
AcDbEntity
  8
02636038_GEHÄUSE
  6
Continuous
 62
     7
100
AcDbLine
 10
26.6286095774
 20
891.5962152372
 30
0.0
 11
27.1603331155
 21
891.3026067207
 31
0.0
  0
LINE
  5
F3
330
5E
100
AcDbEntity
  8
02636038_GEHÄUSE
  6
Continuous
 62
     7
100
AcDbLine
 10
47.9458896043
 20
891.3026067207
 30
0.0
 11
48.4776131424
 21
891.5962152372
 31
0.0
  0
LINE
  5
F4
330
5E
100
AcDbEntity
  8
02636038_GEHÄUSE
  6
Continuous
 62
     7
100
AcDbLine
 10
48.4911125905
 20
891.6128363775
 30
0.0
 11
48.5505328235
 21
891.6459445136
 31
0.0
  0
ARC
  5
F5
330
5E
100
AcDbEntity
  8
02636038_GEHÄUSE
  6
Continuous
 62
     7
100
AcDbCircle
 10
26.9655770138
 20
892.2400337252
 30
0.0
 40
0.7263009292251479
100
AcDbArc
 50
235.499987696
 51
243.997465568
  0
LINE
  5
F6
330
5E
100
AcDbEntity
  8
02636038_GEHÄUSE
  6
Continuous
 62
     7
100
AcDbLine
 10
25.7531113599
 20
899.2045757967
 30
0.0
 11
25.7531113599
 21
894.6717365854
 31
0.0
  0
LINE
  5
F7
330
5E
100
AcDbEntity
  8
02636038_GEHÄUSE
  6
Continuous
 62
     7
100
AcDbLine
 10
49.3531113599
 20
894.6717365854
 30
0.0
 11
49.3531113599
 21
899.200366848
 31
0.0
  0
ELLIPSE
  5
F9
330
5E
100
AcDbEntity
  8
$DDT_AUDIT_GENERATED_(F8)
  6
Continuous
 62
     7
100
AcDbEllipse
 10
37.5531113599
 20
891.3081771151
 30
0.0
 11
9.000000000000005
 21
0.0
 31
0.0
210
0.0
220
0.0
230
1.0
 40
0.1460162127
 41
0.0
 42
6.283185307179586
  0
LINE
  5
FA
330
5E
100
AcDbEntity
  8
$DDT_AUDIT_GENERATED_(F8)
  6
Continuous
 62
     7
100
AcDbLine
 10
46.5531113599
 20
891.3081771151
 30
0.0
 11
46.5531113599
 21
892.3569351602
 31
0.0
  0
ARC
  5
FC
330
5E
100
AcDbEntity
  8
$DDT_AUDIT_GENERATED_(FB)
  6
Continuous
 62
     7
100
AcDbCircle
 10
17.0531113599
 20
651.5793984001
 30
0.0
 40
0.2999999999999947
100
AcDbArc
 50
90.0
 51
180.0
  0
ARC
  5
FD
330
5E
100
AcDbEntity
  8
$DDT_AUDIT_GENERATED_(FB)
  6
Continuous
 62
     7
100
AcDbCircle
 10
58.0531113599
 20
651.5793984001
 30
0.0
 40
0.3000000000000017
100
AcDbArc
 50
0.0
 51
90.0
  0
LINE
  5
FE
330
5E
100
AcDbEntity
  8
$DDT_AUDIT_GENERATED_(FB)
  6
Continuous
 62
     7
100
AcDbLine
 10
58.3531113599
 20
468.5331375322
 30
0.0
 11
58.3531113599
 21
651.5793984001
 31
0.0
  0
LINE
  5
FF
330
5E
100
AcDbEntity
  8
$DDT_AUDIT_GENERATED_(FB)
  6
Continuous
 62
     7
100
AcDbLine
 10
16.7531113599
 20
651.5793984001
 30
0.0
 11
16.7531113599
 21
468.5331354663
 31
0.0
  0
LINE
  5
101
330
5E
100
AcDbEntity
  8
DV1_Standard
  6
Continuous
 62
     7
100
AcDbLine
 10
58.4012805264
 20
693.8153494815
 30
0.0
 11
58.4011789784
 21
653.6520456108
 31
0.0
  0
LINE
  5
102
330
5E
100
AcDbEntity
  8
DV1_Standard
  6
Continuous
 62
     7
100
AcDbLine
 10
113.2242813014
 20
727.8555069008
 30
0.0
 11
113.6138016247
 21
724.9907636242
 31
0.0
  0
LINE
  5
104
330
5E
100
AcDbEntity
  8
DV1_Standard
  6
CENTER2
 62
     7
100
AcDbLine
 10
57.5530885528
 20
461.8793983703
 30
0.0
 11
17.5530894469
 21
461.8793983703
 31
0.0
  0
LINE
  5
105
330
5E
100
AcDbEntity
  8
DV1_Standard
  6
CENTER2
 62
     7
100
AcDbLine
 10
37.5530889999
 20
481.8793979233
 30
0.0
 11
37.5530889999
 21
441.8793988174
 31
0.0
  0
ENDBLK
  5
107
330
5E
100
AcDbEntity
  8
0
100
AcDbBlockEnd
  0
BLOCK
  5
170
330
108
100
AcDbEntity
  8
0
100
AcDbBlockBegin
  2
SE1
 70
     0
 10
0.0
 20
0.0
 30
0.0
  3
SE1
  1

  0
SPLINE
  5
10A
330
108
100
AcDbEntity
  8
$DDT_AUDIT_GENERATED_(60)
  6
Continuous
 62
     7
100
AcDbSpline
210
0.0
220
0.0
230
1.0
 70
     8
 71
     3
 72
     9
 73
     5
 74
     0
 42
0.0000000002103879
 43
0.0000000001
 40
0.7149238272664441
 40
0.7149238272664441
 40
0.7149238272664441
 40
0.7149238272664441
 40
0.7357839854143436
 40
0.740212696281779
 40
0.740212696281779
 40
0.740212696281779
 40
0.740212696281779
 10
197.3263338940006
 20
707.3851869541753
 30
0.0
 10
197.3263120606015
 20
707.054862388983
 30
0.0
 10
197.3262943461568
 20
706.6541829613923
 30
0.0
 10
197.3262855380545
 20
706.253371153471
 30
0.0
 10
197.3262842556603
 20
706.1831751103377
 30
0.0
  0
SPLINE
  5
10B
330
108
100
AcDbEntity
  8
$DDT_AUDIT_GENERATED_(60)
  6
Continuous
 62
     7
100
AcDbSpline
210
0.0
220
0.0
230
1.0
 70
     8
 71
     3
 72
     9
 73
     5
 74
     0
 42
0.0000000438115275
 43
0.0000000001
 40
0.0000073355153857
 40
0.0000073355153857
 40
0.0000073355153857
 40
0.0000073355153857
 40
0.0101813273803147
 40
0.075869954697544
 40
0.075869954697544
 40
0.075869954697544
 40
0.075869954697544
 10
239.0275314519897
 20
721.8784936250822
 30
0.0
 10
239.0274273029925
 20
721.8772252198618
 30
0.0
 10
239.0274275088772
 20
721.8753006570852
 30
0.0
 10
239.0274279880109
 20
721.8706486331959
 30
0.0
 10
239.0274287855594
 20
721.8611822183323
 30
0.0
  0
SPLINE
  5
10C
330
108
100
AcDbEntity
  8
$DDT_AUDIT_GENERATED_(60)
  6
Continuous
 62
     7
100
AcDbSpline
210
0.0
220
0.0
230
1.0
 70
     8
 71
     3
 72
    18
 73
    14
 74
     0
 42
0.0000000002235742
 43
0.0000000001
 40
0.4711474072306246
 40
0.4711474072306246
 40
0.4711474072306246
 40
0.4711474072306246
 40
0.4720967079361678
 40
0.4885936858131626
 40
0.5050906636901573
 40
0.5380846194441469
 40
0.5710785751981363
 40
0.6040725309521259
 40
0.6370664867061154
 40
0.6700604424601049
 40
0.7030543982140944
 40
0.7360483539680839
 40
0.7405375950946977
 40
0.7405375950946977
 40
0.7405375950946977
 40
0.7405375950946977
 10
239.0275333904534
 20
718.229341321017
 30
0.0
 10
239.0275335710342
 20
718.2187489704846
 30
0.0
 10
239.0275368898911
 20
718.0235204177006
 30
0.0
 10
239.0275433476408
 20
717.6236673047538
 30
0.0
 10
239.0275556327198
 20
716.7818524943982
 30
0.0
 10
239.0275700244451
 20
715.630627642201
 30
0.0
 10
239.0275849691695
 20
714.1571738539695
 30
0.0
 10
239.0275975068551
 20
712.6353781657635
 30
0.0
 10
239.0276078419672
 20
711.0887444054822
 30
0.0
 10
239.0276162502399
 20
709.529374793293
 30
0.0
 10
239.0276230007364
 20
707.9634055649215
 30
0.0
 10
239.0276267962672
 20
706.8459781673281
 30
0.0
 10
239.0276285548509
 20
706.251314695805
 30
0.0
 10
239.0276287618134
 20
706.1800888968313
 30
0.0
  0
LINE
  5
10D
330
108
100
AcDbEntity
  8
$DDT_AUDIT_GENERATED_(60)
  6
Continuous
 62
     7
100
AcDbLine
 10
239.0276408115
 20
749.9434460666
 30
0.0
 11
239.0276408115
 21
752.5793984001
 31
0.0
  0
ARC
  5
10E
330
108
100
AcDbEntity
  8
$DDT_AUDIT_GENERATED_(60)
  6
Continuous
 62
     7
100
AcDbCircle
 10
-21.4735311374
 20
676.4955283399
 30
0.0
 40
218.9470216630505
100
AcDbArc
 50
357.8826110135
 51
2.117473884
  0
SPLINE
  5
10F
330
108
100
AcDbEntity
  8
$DDT_AUDIT_GENERATED_(60)
  6
Continuous
 62
     7
100
AcDbSpline
210
0.0
220
0.0
230
1.0
 70
     8
 71
     3
 72
     8
 73
     4
 74
     0
 42
0.0000000432853322
 43
0.0000000001
 40
0.0
 40
0.0
 40
0.0
 40
0.0
 40
0.0762600048364493
 40
0.0762600048364493
 40
0.0762600048364493
 40
0.0762600048364493
 10
239.0275316774286
 20
721.878496370244
 30
0.0
 10
239.0276394307042
 20
721.8834090183946
 30
0.0
 10
239.027642798174
 20
721.8862580463559
 30
0.0
 10
239.0276462706943
 20
721.8961131644879
 30
0.0
  0
SPLINE
  5
110
330
108
100
AcDbEntity
  8
$DDT_AUDIT_GENERATED_(60)
  6
Continuous
 62
     7
100
AcDbSpline
210
0.0
220
0.0
230
1.0
 70
     8
 71
     3
 72
    13
 73
     9
 74
     0
 42
0.000000000223504
 43
0.0000000001
 40
0.4711178317789645
 40
0.4711178317789645
 40
0.4711178317789645
 40
0.4711178317789645
 40
0.47207745711942
 40
0.5377840348340835
 40
0.6037177024013447
 40
0.6697413359961374
 40
0.7357883552936535
 40
0.7376827726242987
 40
0.7376827726242987
 40
0.7376827726242987
 40
0.7376827726242987
 10
239.027621343565
 20
725.528126468556
 30
0.0
 10
239.0276216774094
 20
725.5388429553474
 30
0.0
 10
239.0276453839425
 20
726.285637828558
 30
0.0
 10
239.0277646903542
 20
728.090529788234
 30
0.0
 10
239.0271834897186
 20
731.1146314416394
 30
0.0
 10
239.0280243760423
 20
734.2264847282163
 30
0.0
 10
239.0281897031264
 20
736.34788662411
 30
0.0
 10
239.0282115331212
 20
737.4247274717605
 30
0.0
 10
239.0282120945822
 20
737.4547538553097
 30
0.0
  0
SPLINE
  5
111
330
108
100
AcDbEntity
  8
$DDT_AUDIT_GENERATED_(60)
  6
Continuous
 62
     7
100
AcDbSpline
210
0.0
220
0.0
230
1.0
 70
     8
 71
     3
 72
     9
 73
     5
 74
     0
 42
0.0000000002101922
 43
0.0000000001
 40
0.7153346218140338
 40
0.7153346218140338
 40
0.7153346218140338
 40
0.7153346218140338
 40
0.7360527194817327
 40
0.7379607851476884
 40
0.7379607851476884
 40
0.7379607851476884
 40
0.7379607851476884
 10
197.326887813491
 20
736.3790394577625
 30
0.0
 10
197.3268866566713
 20
736.7074275369367
 30
0.0
 10
197.3268854895824
 20
737.0662572351487
 30
0.0
 10
197.3268844172529
 20
737.4252184075025
 30
0.0
 10
197.3268843274916
 20
737.4554905361914
 30
0.0
  0
LINE
  5
112
330
108
100
AcDbEntity
  8
$DDT_AUDIT_GENERATED_(60)
  6
Continuous
 62
     7
100
AcDbLine
 10
197.3771624786
 20
653.3793984001
 30
0.0
 11
238.9773502505
 21
653.3793984001
 31
0.0
  0
LINE
  5
113
330
108
100
AcDbEntity
  8
$DDT_AUDIT_GENERATED_(60)
  6
Continuous
 62
     7
100
AcDbLine
 10
197.6771624786
 20
651.8793984001
 30
0.0
 11
238.6773502505
 21
651.8793984001
 31
0.0
  0
LINE
  5
114
330
108
100
AcDbEntity
  8
$DDT_AUDIT_GENERATED_(60)
  6
Continuous
 62
     7
100
AcDbLine
 10
197.3239360791
 20
752.5793984001
 30
0.0
 11
197.3239360791
 21
749.9434460666
 31
0.0
  0
LINE
  5
115
330
108
100
AcDbEntity
  8
$DDT_AUDIT_GENERATED_(60)
  6
Continuous
 62
     7
100
AcDbLine
 10
197.6239360934
 20
752.8793984001
 30
0.0
 11
238.7276407972
 21
752.8793984001
 31
0.0
  0
ARC
  5
116
330
108
100
AcDbEntity
  8
$DDT_AUDIT_GENERATED_(60)
  6
Continuous
 62
     7
100
AcDbCircle
 10
197.6239360932
 20
752.5793983814
 30
0.0
 40
0.3000000140440321
100
AcDbArc
 50
89.9999999478
 51
179.9999964235
  0
ARC
  5
117
330
108
100
AcDbEntity
  8
$DDT_AUDIT_GENERATED_(60)
  6
Continuous
 62
     7
100
AcDbCircle
 10
238.7276407972
 20
752.5793984001
 30
0.0
 40
0.2999999999999947
100
AcDbArc
 50
0.0
 51
90.0
  0
ARC
  5
118
330
108
100
AcDbEntity
  8
$DDT_AUDIT_GENERATED_(60)
  6
Continuous
 62
     7
100
AcDbCircle
 10
851.7341375226
 20
705.4707157612
 30
0.0
 40
654.4076500945656
100
AcDbArc
 50
179.9369225389
 51
181.0205238398
  0
LINE
  5
119
330
108
100
AcDbEntity
  8
$DDT_AUDIT_GENERATED_(60)
  6
Continuous
 62
     7
100
AcDbLine
 10
197.3263249418
 20
736.3797024726
 30
0.0
 11
197.3263249801
 21
707.3848235263
 31
0.0
  0
ARC
  5
11A
330
108
100
AcDbEntity
  8
$DDT_AUDIT_GENERATED_(60)
  6
Continuous
 62
     7
100
AcDbCircle
 10
-472.0557355131
 20
749.2477248999
 30
0.0
 40
669.4865316896419
100
AcDbArc
 50
358.9905034383
 51
0.0595409943
  0
ARC
  5
11B
330
108
100
AcDbEntity
  8
$DDT_AUDIT_GENERATED_(60)
  6
Continuous
 62
     7
100
AcDbCircle
 10
-415.3796248003
 20
705.4707157609
 30
0.0
 40
654.4076501013483
100
AcDbArc
 50
358.9794761602
 51
0.0630774611
  0
LINE
  5
11C
330
108
100
AcDbEntity
  8
$DDT_AUDIT_GENERATED_(60)
  6
Continuous
 62
     7
100
AcDbLine
 10
239.0276222047
 20
718.227378122
 30
0.0
 11
239.027622049
 21
725.5311350901
 31
0.0
  0
ARC
  5
11D
330
108
100
AcDbEntity
  8
$DDT_AUDIT_GENERATED_(60)
  6
Continuous
 62
     7
100
AcDbCircle
 10
908.4102481462
 20
749.2477248988
 30
0.0
 40
669.4865315936279
100
AcDbArc
 50
179.9404590056
 51
181.0094965617
  0
LINE
  5
11E
330
108
100
AcDbEntity
  8
$DDT_AUDIT_GENERATED_(60)
  6
Continuous
 62
     7
100
AcDbLine
 10
197.3239357537
 20
668.420448175
 30
0.0
 11
197.3239357537
 21
653.6504243111
 31
0.0
  0
LINE
  5
11F
330
108
100
AcDbEntity
  8
$DDT_AUDIT_GENERATED_(60)
  6
Continuous
 62
     7
100
AcDbLine
 10
197.3239357537
 20
693.8153494815
 30
0.0
 11
197.3239357537
 21
684.5740036231
 31
0.0
  0
LINE
  5
120
330
108
100
AcDbEntity
  8
$DDT_AUDIT_GENERATED_(60)
  6
Continuous
 62
     7
100
AcDbLine
 10
239.0276411369
 20
653.6504243111
 30
0.0
 11
239.0276411369
 21
693.8153494815
 31
0.0
  0
LINE
  5
121
330
108
100
AcDbEntity
  8
$DDT_AUDIT_GENERATED_(60)
  6
Continuous
 62
     7
100
AcDbLine
 10
197.3239107537
 20
653.6814039396
 30
0.0
 11
197.3239357537
 21
653.6812621576
 31
0.0
  0
LINE
  5
122
330
108
100
AcDbEntity
  8
$DDT_AUDIT_GENERATED_(60)
  6
Continuous
 62
     7
100
AcDbLine
 10
239.0276411369
 20
653.6646121896
 30
0.0
 11
239.0276661369
 21
653.6647539717
 31
0.0
  0
LINE
  5
123
330
108
100
AcDbEntity
  8
$DDT_AUDIT_GENERATED_(60)
  6
Continuous
 62
     7
100
AcDbLine
 10
238.9773502505
 20
652.1793984001
 30
0.0
 11
238.9773502505
 21
653.3793984001
 31
0.0
  0
LINE
  5
124
330
108
100
AcDbEntity
  8
$DDT_AUDIT_GENERATED_(60)
  6
Continuous
 62
     7
100
AcDbLine
 10
197.3771624786
 20
653.3793984001
 30
0.0
 11
197.3771624786
 21
652.1793984001
 31
0.0
  0
ARC
  5
125
330
108
100
AcDbEntity
  8
$DDT_AUDIT_GENERATED_(60)
  6
Continuous
 62
     7
100
AcDbCircle
 10
197.6771624786
 20
652.1793984001
 30
0.0
 40
0.3000000000000017
100
AcDbArc
 50
180.0
 51
270.0
  0
ARC
  5
126
330
108
100
AcDbEntity
  8
$DDT_AUDIT_GENERATED_(60)
  6
Continuous
 62
     7
100
AcDbCircle
 10
238.6773502505
 20
652.1793984001
 30
0.0
 40
0.3000000000000008
100
AcDbArc
 50
270.0
 51
0.0
  0
LINE
  5
127
330
108
100
AcDbEntity
  8
$DDT_AUDIT_GENERATED_(8C)
  6
Continuous
 62
     7
100
AcDbLine
 10
335.7156486556
 20
895.9168218963
 30
0.0
 11
257.0934229226
 21
886.2632196742
 31
0.0
  0
LINE
  5
128
330
108
100
AcDbEntity
  8
$DDT_AUDIT_GENERATED_(8C)
  6
Continuous
 62
     7
100
AcDbLine
 10
255.0216533082
 20
903.1364793744
 30
0.0
 11
345.839941454
 21
914.2875630442
 31
0.0
  0
SPLINE
  5
129
330
108
100
AcDbEntity
  8
$DDT_AUDIT_GENERATED_(8C)
  6
Continuous
 62
     7
100
AcDbSpline
210
0.0
220
0.0
230
1.0
 70
    12
 71
     5
 72
    12
 73
     6
 74
     0
 42
0.0000000001959765
 43
0.0000000001
 40
0.407608228770716
 40
0.407608228770716
 40
0.407608228770716
 40
0.407608228770716
 40
0.407608228770716
 40
0.407608228770716
 40
1.0
 40
1.0
 40
1.0
 40
1.0
 40
1.0
 40
1.0
 10
230.4782098139641
 20
875.271946652687
 30
0.0
 41
1.0
 10
233.340805612525
 20
879.3280283851283
 30
0.0
 41
1.0
 10
237.6786952990369
 20
882.5240351063868
 30
0.0
 41
1.0
 10
243.4530031835222
 20
884.5883777336865
 30
0.0
 41
1.0
 10
249.8944065821948
 20
885.3792909950735
 30
0.0
 41
1.0
 10
257.0934229226387
 20
886.2632196741863
 30
0.0
 41
1.0
  0
SPLINE
  5
12A
330
108
100
AcDbEntity
  8
$DDT_AUDIT_GENERATED_(8C)
  6
Continuous
 62
     7
100
AcDbSpline
210
0.0
220
0.0
230
1.0
 70
     8
 71
     2
 72
    22
 73
    19
 74
     0
 42
0.0000000002965428
 43
0.0000000001
 40
0.0
 40
0.0
 40
0.0
 40
0.0312502384347396
 40
0.0312502384347396
 40
0.0625004768694792
 40
0.0625004768694792
 40
0.1250009537389584
 40
0.1250009537389584
 40
0.1875014306084376
 40
0.1875014306084376
 40
0.2500019074779168
 40
0.2500019074779168
 40
0.3750028612168751
 40
0.3750028612168751
 40
0.4375033380863543
 40
0.4375033380863543
 40
0.5000038149558336
 40
0.5000038149558336
 40
0.5000292542307418
 40
0.5000292542307418
 40
0.5000292542307418
 10
345.839939002698
 20
914.287583008675
 30
0.0
 10
346.7859597680155
 20
914.4037194878384
 30
0.0
 10
347.7884514068268
 20
914.5268099839361
 30
0.0
 10
348.6543336905634
 20
914.6331269602988
 30
0.0
 10
349.5058676276815
 20
914.7376821812162
 30
0.0
 10
350.9305451357457
 20
914.9126105840653
 30
0.0
 10
352.2634068387698
 20
915.0762654235702
 30
0.0
 10
353.956580040005
 20
915.2841609523214
 30
0.0
 10
355.4590509382955
 20
915.4686411824629
 30
0.0
 10
356.6773622461048
 20
915.6182310019425
 30
0.0
 10
357.6992919042715
 20
915.7437081867196
 30
0.0
 10
360.0378261774997
 20
916.0308440915878
 30
0.0
 10
361.2958933802372
 20
916.1853153211861
 30
0.0
 10
361.9367071307451
 20
916.2639973564295
 30
0.0
 10
362.2597977526142
 20
916.303667896702
 30
0.0
 10
362.5760902703825
 20
916.3425037347448
 30
0.0
 10
362.5762161105966
 20
916.3425191859802
 30
0.0
 10
362.5762161638644
 20
916.3425191925206
 30
0.0
 10
362.5762161604425
 20
916.3425191921004
 30
0.0
  0
SPLINE
  5
12B
330
108
100
AcDbEntity
  8
$DDT_AUDIT_GENERATED_(8C)
  6
Continuous
 62
     7
100
AcDbSpline
210
0.0
220
0.0
230
1.0
 70
    12
 71
     5
 72
    12
 73
     6
 74
     0
 42
0.0000000001257372
 43
0.0000000001
 40
0.0
 40
0.0
 40
0.0
 40
0.0
 40
0.0
 40
0.0
 40
1.0
 40
1.0
 40
1.0
 40
1.0
 40
1.0
 40
1.0
 10
209.6772563645438
 20
858.0632445639313
 30
0.0
 41
1.0
 10
209.6772563645438
 20
875.6102286986413
 30
0.0
 41
1.0
 10
209.6772563645438
 20
888.0629766585204
 30
0.0
 41
1.0
 10
223.6298015440796
 20
899.2820353077904
 30
0.0
 41
1.0
 10
237.6054626528128
 20
900.9980307203534
 30
0.0
 41
1.0
 10
255.0215546170537
 20
903.1372831492386
 30
0.0
 41
1.0
  0
SPLINE
  5
12C
330
108
100
AcDbEntity
  8
$DDT_AUDIT_GENERATED_(8C)
  6
Continuous
 62
     7
100
AcDbSpline
210
0.0
220
0.0
230
1.0
 70
     8
 71
     3
 72
     8
 73
     4
 74
     0
 42
0.000000000104823
 43
0.0000000001
 40
0.0
 40
0.0
 40
0.0
 40
0.0
 40
0.0641191716467013
 40
0.0641191716467013
 40
0.0641191716467013
 40
0.0641191716467013
 10
226.6772563645438
 20
858.0632445639313
 30
0.0
 10
226.676879349332
 20
856.0242809694439
 30
0.0
 10
226.6765023341202
 20
853.9853173749565
 30
0.0
 10
226.6764318948123
 20
851.946346856882
 30
0.0
  0
SPLINE
  5
12D
330
108
100
AcDbEntity
  8
$DDT_AUDIT_GENERATED_(8C)
  6
Continuous
 62
     7
100
AcDbSpline
210
0.0
220
0.0
230
1.0
 70
     8
 71
     3
 72
    18
 73
    14
 74
     0
 42
0.0000000001254406
 43
0.0000000001
 40
0.6240167261518925
 40
0.6240167261518925
 40
0.6240167261518925
 40
0.6240167261518925
 40
0.6262928784716169
 40
0.7093503382000983
 40
0.7511334678078024
 40
0.813479491548105
 40
0.8757159607442254
 40
0.907813181709282
 40
0.9379056950071158
 40
0.9541601677881103
 40
0.9700360648566316
 40
0.9850785120504582
 40
1.0
 40
1.0
 40
1.0
 40
1.0
 10
227.8492475331431
 20
798.5637446398168
 30
0.0
 10
227.857243814544
 20
798.4917798471465
 30
0.0
 10
228.1596751212053
 20
795.794042217425
 30
0.0
 10
228.7598188458679
 20
791.7891966650965
 30
0.0
 10
230.1773757405141
 20
786.0231348874551
 30
0.0
 10
231.8865490183256
 20
781.0655677300433
 30
0.0
 10
233.9525746662033
 20
776.7906511525405
 30
0.0
 10
235.6011906729111
 20
773.9213025366741
 30
0.0
 10
236.5329983931429
 20
772.4339006600744
 30
0.0
 10
237.1242873026121
 20
771.5299093758334
 30
0.0
 10
237.462276970045
 20
771.0251434245957
 30
0.0
 10
237.67843312149
 20
770.7073416336041
 30
0.0
 10
237.7049594826474
 20
770.6686250329137
 30
0.0
 10
237.7181691372431
 20
770.6493448564764
 30
0.0
  0
SPLINE
  5
12E
330
108
100
AcDbEntity
  8
$DDT_AUDIT_GENERATED_(8C)
  6
Continuous
 62
     7
100
AcDbSpline
210
0.0
220
0.0
230
1.0
 70
    12
 71
     5
 72
    12
 73
     6
 74
     0
 42
0.0000000022847051
 43
0.0000000001
 40
0.0
 40
0.0
 40
0.0
 40
0.0
 40
0.0
 40
0.0
 40
0.8711078068373855
 40
0.8711078068373855
 40
0.8711078068373855
 40
0.8711078068373855
 40
0.8711078068373855
 40
0.8711078068373855
 10
197.3255961953439
 20
765.6385812309414
 30
0.0
 41
1.0
 10
197.3270423816963
 20
766.5420103244169
 30
0.0
 41
1.0
 10
197.3272287838278
 20
767.2836066838913
 30
0.0
 41
1.0
 10
197.122380712251
 20
768.036432889707
 30
0.0
 41
1.0
 10
197.290582562897
 20
768.6252523156154
 30
0.0
 41
1.0
 10
197.6974997804001
 20
769.2850445241698
 30
0.0
 41
1.0
  0
ARC
  5
12F
330
108
100
AcDbEntity
  8
$DDT_AUDIT_GENERATED_(8C)
  6
Continuous
 62
     7
100
AcDbCircle
 10
233.7197649259
 20
767.0935623392
 30
0.0
 40
5.350778032017715
100
AcDbArc
 50
352.7234007782
 51
41.6467081424
  0
LINE
  5
130
330
108
100
AcDbEntity
  8
$DDT_AUDIT_GENERATED_(8C)
  6
Continuous
 62
     7
100
AcDbLine
 10
197.3239360791
 20
765.6385812309
 30
0.0
 11
197.3239360791
 21
763.1793984001
 31
0.0
  0
ARC
  5
131
330
108
100
AcDbEntity
  8
$DDT_AUDIT_GENERATED_(8C)
  6
Continuous
 62
     7
100
AcDbCircle
 10
355.2711972994
 20
841.2054147591
 30
0.0
 40
58.10126981133628
100
AcDbArc
 50
109.2592914281
 51
109.6684605033
  0
ARC
  5
132
330
108
100
AcDbEntity
  8
$DDT_AUDIT_GENERATED_(8C)
  6
Continuous
 62
     7
100
AcDbCircle
 10
355.2727064504
 20
841.199922921
 30
0.0
 40
58.10694918048549
100
AcDbArc
 50
97.4492697393
 51
109.6680391435
  0
SPLINE
  5
133
330
108
100
AcDbEntity
  8
$DDT_AUDIT_GENERATED_(8C)
  6
Continuous
 62
     7
100
AcDbSpline
210
0.0
220
0.0
230
1.0
 70
     8
 71
     3
 72
    16
 73
    12
 74
     0
 42
0.0000000004104609
 43
0.0000000001
 40
0.0
 40
0.0
 40
0.0
 40
0.0
 40
0.1250000000000002
 40
0.1250000000000002
 40
0.2500000000000004
 40
0.2500000000000004
 40
0.3750000000000006
 40
0.3750000000000006
 40
0.5000000000000008
 40
0.5000000000000008
 40
0.500183941370868
 40
0.500183941370868
 40
0.500183941370868
 40
0.500183941370868
 10
347.7392389283189
 20
898.8164518875545
 30
0.0
 10
349.3359410178052
 20
899.010199152644
 30
0.0
 10
350.923306369238
 20
899.2028731336047
 30
0.0
 10
353.8360953423477
 20
899.5565084260601
 30
0.0
 10
355.1846668583955
 20
899.7202912769892
 30
0.0
 10
357.410494745903
 20
899.9906409969518
 30
0.0
 10
358.3111908907325
 20
900.1000804663373
 30
0.0
 10
359.518855474356
 20
900.2468033697104
 30
0.0
 10
359.8353761056821
 20
900.2852755916557
 30
0.0
 10
359.8362874639787
 20
900.285383260184
 30
0.0
 10
359.836288132388
 20
900.2853833368938
 30
0.0
 10
359.8362881301135
 20
900.2853833321124
 30
0.0
  0
LINE
  5
134
330
108
100
AcDbEntity
  8
$DDT_AUDIT_GENERATED_(8C)
  6
Continuous
 62
     7
100
AcDbLine
 10
238.7276407972
 20
753.3793984001
 30
0.0
 11
197.6239360934
 21
753.3793984001
 31
0.0
  0
LINE
  5
135
330
108
100
AcDbEntity
  8
$DDT_AUDIT_GENERATED_(8C)
  6
Continuous
 62
     7
100
AcDbLine
 10
239.0276408115
 20
753.6793984001
 30
0.0
 11
239.0276408115
 21
766.415835534
 31
0.0
  0
ARC
  5
136
330
108
100
AcDbEntity
  8
$DDT_AUDIT_GENERATED_(8C)
  6
Continuous
 62
     7
100
AcDbCircle
 10
197.6239360934
 20
753.6793984001
 30
0.0
 40
0.2999999999999947
100
AcDbArc
 50
180.0
 51
270.0
  0
ARC
  5
137
330
108
100
AcDbEntity
  8
$DDT_AUDIT_GENERATED_(8C)
  6
Continuous
 62
     7
100
AcDbCircle
 10
238.7276407975
 20
753.6793984189
 30
0.0
 40
0.3000000140426998
100
AcDbArc
 50
269.9999999478
 51
359.999996424
  0
LINE
  5
138
330
108
100
AcDbEntity
  8
$DDT_AUDIT_GENERATED_(8C)
  6
Continuous
 62
     7
100
AcDbLine
 10
197.3239360791
 20
755.1793984001
 30
0.0
 11
197.3239360791
 21
753.6793984001
 31
0.0
  0
ARC
  5
139
330
108
100
AcDbEntity
  8
$DDT_AUDIT_GENERATED_(8C)
  6
Continuous
 62
     7
100
AcDbCircle
 10
176.8729057949
 20
759.1793984007
 30
0.0
 40
20.83853736901061
100
AcDbArc
 50
348.9332743352
 51
348.9791095679
  0
ARC
  5
13A
330
108
100
AcDbEntity
  8
$DDT_AUDIT_GENERATED_(8C)
  6
Continuous
 62
     7
100
AcDbCircle
 10
176.8728210935
 20
759.1793984007
 30
0.0
 40
20.83862049541239
100
AcDbArc
 50
348.9333190383
 51
11.0666809587
  0
SPLINE
  5
13B
330
108
100
AcDbEntity
  8
$DDT_AUDIT_GENERATED_(8C)
  6
Continuous
 62
     7
100
AcDbSpline
210
0.0
220
0.0
230
1.0
 70
     8
 71
     3
 72
    15
 73
    11
 74
     0
 42
0.0000000008551195
 43
0.0000000001
 40
0.0
 40
0.0
 40
0.0
 40
0.0
 40
0.2304122557682503
 40
0.423281032294663
 40
0.5796225059295352
 40
0.7031553870560558
 40
0.7999520822982588
 40
0.8775034485725262
 40
0.9427688408873257
 40
1.0
 40
1.0
 40
1.0
 40
1.0
 10
359.7212174839005
 20
900.2409009899978
 30
0.0
 10
360.6342054823347
 20
900.6081627820686
 30
0.0
 10
362.0392858588459
 20
901.1909010355167
 30
0.0
 10
364.0564645801704
 20
902.288742270502
 30
0.0
 10
365.5533321553739
 20
903.3462419351463
 30
0.0
 10
366.6139958967551
 20
904.365079946199
 30
0.0
 10
367.2783742779012
 20
905.3252584058555
 30
0.0
 10
367.6105621016071
 20
906.1999938323498
 30
0.0
 10
367.6958190802044
 20
906.9941060135378
 30
0.0
 10
367.6655764007937
 20
907.4356687394042
 30
0.0
 10
367.6449501174342
 20
907.6792304076909
 30
0.0
  0
SPLINE
  5
13C
330
108
100
AcDbEntity
  8
$DDT_AUDIT_GENERATED_(8C)
  6
Continuous
 62
     7
100
AcDbSpline
210
0.0
220
0.0
230
1.0
 70
     8
 71
     3
 72
    20
 73
    16
 74
     0
 42
0.0000000006278575
 43
0.0000000001
 40
0.0
 40
0.0
 40
0.0
 40
0.0
 40
0.1341098847385695
 40
0.2397321049589304
 40
0.3191093437592017
 40
0.3782094300071178
 40
0.4365138164477065
 40
0.4965430334354003
 40
0.5427321589600075
 40
0.5905134650563705
 40
0.642315755704852
 40
0.6994210841634995
 40
0.7855415533616618
 40
0.8850859094503802
 40
1.0
 40
1.0
 40
1.0
 40
1.0
 10
226.6772563645438
 20
858.0632445639311
 30
0.0
 10
226.6770344056554
 20
858.9695429513457
 30
0.0
 10
226.6810014605823
 20
860.3310097328485
 30
0.0
 10
226.733238409843
 20
862.3300849905343
 30
0.0
 10
226.8202294698008
 20
863.8279127476303
 30
0.0
 10
226.9245770571574
 20
865.0144892835546
 30
0.0
 10
227.0487860303271
 20
866.0677931885041
 30
0.0
 10
227.1957266996826
 20
867.0304411640686
 30
0.0
 10
227.3623155515744
 20
867.9171820642822
 30
0.0
 10
227.5459306930675
 20
868.7417596808833
 30
0.0
 10
227.7574219114616
 20
869.5479737881492
 30
0.0
 10
228.0355417729299
 20
870.4580627851436
 30
0.0
 10
228.3960381450441
 20
871.4499270785236
 30
0.0
 10
228.8716616224974
 20
872.544986171855
 30
0.0
 10
229.2002673557347
 20
873.171332083547
 30
0.0
 10
229.4099656718937
 20
873.5638717775735
 30
0.0
  0
ARC
  5
13D
330
108
100
AcDbEntity
  8
$DDT_AUDIT_GENERATED_(8C)
  6
Continuous
 62
     7
100
AcDbCircle
 10
361.9224631349
 20
909.9051238514
 30
0.0
 40
6.470362472859315
100
AcDbArc
 50
57.0347932115
 51
84.4019396451
  0
ARC
  5
13E
330
108
100
AcDbEntity
  8
$DDT_AUDIT_GENERATED_(8C)
  6
Continuous
 62
     7
100
AcDbCircle
 10
346.8745531967
 20
905.849504716
 30
0.0
 40
20.85086751093793
100
AcDbArc
 50
5.0354205443
 51
27.0543996756
  0
ARC
  5
13F
330
108
100
AcDbEntity
  8
$DDT_AUDIT_GENERATED_(8C)
  6
Continuous
 62
     7
100
AcDbCircle
 10
264.4262044587
 20
810.4850111584
 30
0.0
 40
76.24671970894236
100
AcDbArc
 50
104.7944905636
 51
106.4927142692
  0
SPLINE
  5
140
330
108
100
AcDbEntity
  8
$DDT_AUDIT_GENERATED_(8C)
  6
Continuous
 62
     7
100
AcDbSpline
210
0.0
220
0.0
230
1.0
 70
     8
 71
     3
 72
    43
 73
    39
 74
     0
 42
0.0000000001097025
 43
0.0000000001
 40
0.0
 40
0.0
 40
0.0
 40
0.0
 40
0.0639994444188713
 40
0.1228478544756515
 40
0.1761850256048806
 40
0.2240835573319069
 40
0.2665074281862521
 40
0.3035043135219085
 40
0.3351186226114232
 40
0.3561677994640736
 40
0.3738674932978251
 40
0.3882154326724102
 40
0.4013462931744199
 40
0.4158974811047835
 40
0.431874605513985
 40
0.4492699853106916
 40
0.4744717099903431
 40
0.5020039199372915
 40
0.5318100990352856
 40
0.5641448284149232
 40
0.6008612662998328
 40
0.642602631505003
 40
0.6700850257669059
 40
0.699394483767071
 40
0.7305103233905945
 40
0.7634278112051268
 40
0.7981854456189162
 40
0.813242733041659
 40
0.8278648688864982
 40
0.8441203132648786
 40
0.868430114224642
 40
0.8932132771241469
 40
0.9187223948241307
 40
0.9449239948974142
 40
0.9583677019938419
 40
0.9720224941819308
 40
0.9859181103924295
 40
1.0
 40
1.0
 40
1.0
 40
1.0
 10
209.6978091650581
 20
858.0632445639313
 30
0.0
 10
209.6978903146995
 20
855.7400046512835
 30
0.0
 10
209.6979171946207
 20
851.9873269790157
 30
0.0
 10
209.6981216605903
 20
846.0619112687593
 30
0.0
 10
209.696574399634
 20
840.8048110472718
 30
0.0
 10
209.691899323422
 20
836.0581438274244
 30
0.0
 10
209.6828236918045
 20
831.8579671800616
 30
0.0
 10
209.6687273073295
 20
828.193652341831
 30
0.0
 10
209.6511401007642
 20
825.2351134156283
 30
0.0
 10
209.6327660612803
 20
822.9134037141886
 30
0.0
 10
209.6159199519942
 20
821.1615060545369
 30
0.0
 10
209.6004582525363
 20
819.6711561290339
 30
0.0
 10
209.5837007716259
 20
818.2846271688737
 30
0.0
 10
209.5596495585634
 20
816.8440199604097
 30
0.0
 10
209.5263928510762
 20
815.2628284608844
 30
0.0
 10
209.4758152601715
 20
813.3305811336242
 30
0.0
 10
209.3992787612746
 20
811.0179847435063
 30
0.0
 10
209.2824982191139
 20
808.2980198745176
 30
0.0
 10
209.1182639058713
 20
805.346178852053
 30
0.0
 10
208.8831205941336
 20
802.0984719500391
 30
0.0
 10
208.5380769087027
 20
798.4669130299635
 30
0.0
 10
208.0884191233188
 20
795.0110153321235
 30
0.0
 10
207.5389610365486
 20
791.8251350186455
 30
0.0
 10
206.9377202412097
 20
789.0136616474377
 30
0.0
 10
206.1586735927785
 20
786.0801240876187
 30
0.0
 10
205.1678505287864
 20
783.0598225023157
 30
0.0
 10
204.197769411404
 20
780.6354368209707
 30
0.0
 10
203.3788751422721
 20
778.8313215207446
 30
0.0
 10
202.7756849598459
 20
777.5881151651288
 30
0.0
 10
202.0294313718955
 20
776.1471109223921
 30
0.0
 10
201.1335968483163
 20
774.5472916902345
 30
0.0
 10
200.1354180345944
 20
772.8988529664135
 30
0.0
 10
199.1957872056496
 20
771.4450717146727
 30
0.0
 10
198.5316738972408
 20
770.4694995524926
 30
0.0
 10
198.1201715749353
 20
769.880001166333
 30
0.0
 10
197.8831713819487
 20
769.544733104955
 30
0.0
 10
197.72809956593
 20
769.3278599929412
 30
0.0
 10
197.7073355983005
 20
769.2987468835357
 30
0.0
 10
197.6975697975484
 20
769.2851579534215
 30
0.0
  0
ARC
  5
141
330
108
100
AcDbEntity
  8
$DDT_AUDIT_GENERATED_(8C)
  6
Continuous
 62
     7
100
AcDbCircle
 10
758.9340688544
 20
837.0217814815
 30
0.0
 40
532.4705173863302
100
AcDbArc
 50
178.3765032478
 51
184.1554916345
  0
SPLINE
  5
142
330
108
100
AcDbEntity
  8
$DDT_AUDIT_GENERATED_(8C)
  6
Continuous
 62
     7
100
AcDbSpline
210
0.0
220
0.0
230
1.0
 70
     8
 71
     3
 72
     9
 73
     5
 74
     0
 42
0.0000000001119532
 43
0.0000000001
 40
0.7339677853942516
 40
0.7339677853942516
 40
0.7339677853942516
 40
0.7339677853942516
 40
0.7476081485554918
 40
0.7784359528329956
 40
0.7784359528329956
 40
0.7784359528329956
 40
0.7784359528329956
 10
205.6650349011406
 20
784.5653841035787
 30
0.0
 10
205.5368813435731
 20
784.175604677573
 30
0.0
 10
205.1054133656893
 20
782.9129724957975
 30
0.0
 10
204.6294637567103
 20
781.6797315291451
 30
0.0
 10
204.2818812790318
 20
780.8435878552078
 30
0.0
  0
SPLINE
  5
143
330
108
100
AcDbEntity
  8
$DDT_AUDIT_GENERATED_(8C)
  6
Continuous
 62
     7
100
AcDbSpline
210
0.0
220
0.0
230
1.0
 70
     8
 71
     3
 72
     8
 73
     4
 74
     0
 42
0.0000000001697874
 43
0.0000000001
 40
0.0
 40
0.0
 40
0.0
 40
0.0
 40
0.0747541372446609
 40
0.0747541372446609
 40
0.0747541372446609
 40
0.0747541372446609
 10
227.864789939136
 20
798.424526977542
 30
0.0
 10
227.7046781464419
 20
800.0263058844873
 30
0.0
 10
227.570064544606
 20
801.3886629553259
 30
0.0
 10
227.4563778187736
 20
802.808174171742
 30
0.0
  0
ELLIPSE
  5
144
330
108
100
AcDbEntity
  8
$DDT_AUDIT_GENERATED_(9F)
  6
Continuous
 62
     7
100
AcDbEllipse
 10
225.9350926226
 20
773.5127270065
 30
0.0
 11
0.001748633374198776
 21
-14.02060918146636
 31
0.0
210
0.0
220
0.0
230
1.0
 40
0.9998533495
 41
1.432092779296454
 42
2.844598709007927
  0
LINE
  5
145
330
108
100
AcDbEntity
  8
$DDT_AUDIT_GENERATED_(9F)
  6
Continuous
 62
     7
100
AcDbLine
 10
239.8192543073
 20
771.5759799664
 30
0.0
 11
239.0276408115
 21
765.8993909665
 31
0.0
  0
LINE
  5
146
330
108
100
AcDbEntity
  8
$DDT_AUDIT_GENERATED_(C3)
  6
Continuous
 62
     7
100
AcDbLine
 10
238.5272563645
 20
752.8793984001
 30
0.0
 11
238.5272563645
 21
753.3793984001
 31
0.0
  0
LINE
  5
147
330
108
100
AcDbEntity
  8
$DDT_AUDIT_GENERATED_(C3)
  6
Continuous
 62
     7
100
AcDbLine
 10
197.8272563645
 20
753.3793984001
 30
0.0
 11
197.8272563645
 21
752.8793984001
 31
0.0
  0
SPLINE
  5
148
330
108
100
AcDbEntity
  8
$DDT_AUDIT_GENERATED_(C6)
  6
Continuous
 62
     7
100
AcDbSpline
210
0.0
220
0.0
230
1.0
 70
     8
 71
     3
 72
    36
 73
    32
 74
     0
 42
0.0000000001196305
 43
0.0000000001
 40
0.0
 40
0.0
 40
0.0
 40
0.0
 40
0.0312500000000001
 40
0.0312500000000001
 40
0.0625000000000001
 40
0.0625000000000001
 40
0.0937500000000002
 40
0.0937500000000002
 40
0.1250000000000002
 40
0.1250000000000002
 40
0.1875000000000003
 40
0.1875000000000003
 40
0.2500000000000004
 40
0.2500000000000004
 40
0.2812500000000005
 40
0.2812500000000005
 40
0.3125000000000006
 40
0.3125000000000006
 40
0.3437500000000006
 40
0.3437500000000006
 40
0.3750000000000007
 40
0.3750000000000007
 40
0.4062500000000007
 40
0.4062500000000007
 40
0.4375000000000007
 40
0.4375000000000007
 40
0.4687500000000007
 40
0.4687500000000007
 40
0.5000000000000007
 40
0.5000000000000007
 40
0.5000553070811292
 40
0.5000553070811292
 40
0.5000553070811292
 40
0.5000553070811292
 10
197.2772608194664
 20
468.5331977267198
 30
0.0
 10
197.2772608194664
 20
468.5331977267198
 30
0.0
 10
197.4127452001227
 20
468.5332569440799
 30
0.0
 10
197.9436009666561
 20
468.5334265203726
 30
0.0
 10
198.3454113544231
 20
468.5335357125097
 30
0.0
 10
199.3944546020489
 20
468.5336500555459
 30
0.0
 10
200.0364089211338
 20
468.5336410385642
 30
0.0
 10
201.5530787993226
 20
468.5334506737039
 30
0.0
 10
202.4358671861348
 20
468.5332948565304
 30
0.0
 10
205.3284314302816
 20
468.5328782529439
 30
0.0
 10
207.6601249330219
 20
468.5326938000145
 30
0.0
 10
212.6898797215862
 20
468.5328422768172
 30
0.0
 10
215.4401479380263
 20
468.5331969325013
 30
0.0
 10
219.5291707929573
 20
468.5331986431437
 30
0.0
 10
220.9135763546651
 20
468.5330956544137
 30
0.0
 10
223.594077425076
 20
468.5328992228235
 30
0.0
 10
224.8968954088156
 20
468.5328063622344
 30
0.0
 10
227.4272494128759
 20
468.5327307509708
 30
0.0
 10
228.6514024510458
 20
468.5327486211638
 30
0.0
 10
230.9165904430338
 20
468.5328911673265
 30
0.0
 10
231.972325796201
 20
468.5330146461969
 30
0.0
 10
233.9240836884881
 20
468.5332955281782
 30
0.0
 10
234.7909313667452
 20
468.5334488584996
 30
0.0
 10
236.3050824417003
 20
468.5336398912568
 30
0.0
 10
236.9594000971307
 20
468.5336501059724
 30
0.0
 10
238.0092446601202
 20
468.5335357201201
 30
0.0
 10
238.4046498119374
 20
468.5334283031578
 30
0.0
 10
238.9396302779729
 20
468.5332578465831
 30
0.0
 10
239.0767773797338
 20
468.5331979199352
 30
0.0
 10
239.0772603669873
 20
468.5331977269006
 30
0.0
 10
239.0772608060844
 20
468.5331977267415
 30
0.0
 10
239.0772608309701
 20
468.5331977267644
 30
0.0
  0
LINE
  5
149
330
108
100
AcDbEntity
  8
$DDT_AUDIT_GENERATED_(C6)
  6
Continuous
 62
     7
100
AcDbLine
 10
197.2870769931
 20
468.4895413979
 30
0.0
 11
193.5292344518
 21
467.6469473308
 31
0.0
  0
LINE
  5
14A
330
108
100
AcDbEntity
  8
$DDT_AUDIT_GENERATED_(C6)
  6
Continuous
 62
     7
100
AcDbLine
 10
242.825287172
 20
467.6469472645
 30
0.0
 11
239.0035966463
 21
468.5038576027
 31
0.0
  0
LINE
  5
14B
330
108
100
AcDbEntity
  8
$DDT_AUDIT_GENERATED_(C6)
  6
Continuous
 62
     7
100
AcDbLine
 10
193.5272608195
 20
467.660711782
 30
0.0
 11
193.5272608195
 21
467.5793983703
 31
0.0
  0
LINE
  5
14C
330
108
100
AcDbEntity
  8
$DDT_AUDIT_GENERATED_(C6)
  6
Continuous
 62
     7
100
AcDbLine
 10
242.8272608195
 20
467.5793983703
 30
0.0
 11
242.8272608195
 21
467.660711782
 31
0.0
  0
LINE
  5
14D
330
108
100
AcDbEntity
  8
$DDT_AUDIT_GENERATED_(CC)
  6
Continuous
 62
     7
100
AcDbLine
 10
189.1772550862
 20
467.5793983703
 30
0.0
 11
247.1772576429
 21
467.5793983703
 31
0.0
  0
LINE
  5
14E
330
108
100
AcDbEntity
  8
$DDT_AUDIT_GENERATED_(CC)
  6
Continuous
 62
     7
100
AcDbLine
 10
248.1773074455
 20
461.8793983703
 30
0.0
 11
188.1772509918
 21
461.8793983703
 31
0.0
  0
SPLINE
  5
14F
330
108
100
AcDbEntity
  8
$DDT_AUDIT_GENERATED_(CC)
  6
Continuous
 62
     7
100
AcDbSpline
210
0.0
220
0.0
230
1.0
 70
     8
 71
     3
 72
    13
 73
     9
 74
     0
 42
0.0000000063014675
 43
0.0000000001
 40
0.0
 40
0.0
 40
0.0
 40
0.0
 40
0.1294353584734671
 40
0.2550301071986655
 40
0.4999999914570861
 40
0.7449698805865144
 40
0.8705646348009933
 40
1.0
 40
1.0
 40
1.0
 40
1.0
 10
248.1772577107984
 20
466.5793983554453
 30
0.0
 10
248.173576701048
 20
466.6535777344075
 30
0.0
 10
248.1655033722002
 20
466.7774892011614
 30
0.0
 10
248.0854322687604
 20
467.0324347141552
 30
0.0
 10
247.9018837520347
 20
467.3040244319139
 30
0.0
 10
247.6302940220823
 20
467.4875729344835
 30
0.0
 10
247.3753484982799
 20
467.5676440324722
 30
0.0
 10
247.2514370257081
 20
467.575717360839
 30
0.0
 10
247.1772576428699
 20
467.5793983703463
 30
0.0
  0
SPLINE
  5
150
330
108
100
AcDbEntity
  8
$DDT_AUDIT_GENERATED_(CC)
  6
Continuous
 62
     7
100
AcDbSpline
210
0.0
220
0.0
230
1.0
 70
     8
 71
     3
 72
    13
 73
     9
 74
     0
 42
0.0000000063014675
 43
0.0000000001
 40
0.0
 40
0.0
 40
0.0
 40
0.0
 40
0.1294353651991187
 40
0.2550301194136395
 40
0.5000000085430294
 40
0.7449698928013725
 40
0.870564641526546
 40
1.0
 40
1.0
 40
1.0
 40
1.0
 10
189.1772550862176
 20
467.5793983703463
 30
0.0
 10
189.1030757033794
 20
467.575717360839
 30
0.0
 10
188.9791642308075
 20
467.5676440324725
 30
0.0
 10
188.724218707005
 20
467.4875729344831
 30
0.0
 10
188.4526289770525
 20
467.3040244319141
 30
0.0
 10
188.269080460327
 20
467.0324347141552
 30
0.0
 10
188.1890093568873
 20
466.7774892011612
 30
0.0
 10
188.1809360280395
 20
466.6535777344075
 30
0.0
 10
188.1772550182891
 20
466.5793983554453
 30
0.0
  0
LINE
  5
151
330
108
100
AcDbEntity
  8
$DDT_AUDIT_GENERATED_(CC)
  6
Continuous
 62
     7
100
AcDbLine
 10
188.1772509918
 20
466.5843983554
 30
0.0
 11
188.1772509918
 21
461.8793983703
 31
0.0
  0
LINE
  5
152
330
108
100
AcDbEntity
  8
$DDT_AUDIT_GENERATED_(CC)
  6
Continuous
 62
     7
100
AcDbLine
 10
248.1773074455
 20
461.8793983703
 30
0.0
 11
248.1773074455
 21
466.5843983554
 31
0.0
  0
LINE
  5
154
330
108
100
AcDbEntity
  8
$DDT_AUDIT_GENERATED_(153)
  6
Continuous
 62
     7
100
AcDbLine
 10
176.2357644493
 20
691.2444028305
 30
0.0
 11
176.2358983788
 21
695.2444028283
 31
0.0
  0
LINE
  5
155
330
108
100
AcDbEntity
  8
$DDT_AUDIT_GENERATED_(153)
  6
Continuous
 62
     7
100
AcDbLine
 10
189.7031857312
 20
695.2439519116
 30
0.0
 11
176.2358983788
 21
695.2444028283
 31
0.0
  0
LINE
  5
156
330
108
100
AcDbEntity
  8
$DDT_AUDIT_GENERATED_(153)
  6
Continuous
 62
     7
100
AcDbLine
 10
176.2357644493
 20
691.2444028305
 30
0.0
 11
189.7030518017
 21
691.2439519138
 31
0.0
  0
ARC
  5
157
330
108
100
AcDbEntity
  8
$DDT_AUDIT_GENERATED_(153)
  6
Continuous
 62
     7
100
AcDbCircle
 10
189.7030183194
 20
690.2439519144
 30
0.0
 40
0.9999999999999838
100
AcDbArc
 50
17.9980816016
 51
89.9980816016
  0
ARC
  5
158
330
108
100
AcDbEntity
  8
$DDT_AUDIT_GENERATED_(153)
  6
Continuous
 62
     7
100
AcDbCircle
 10
189.7030183194
 20
690.2439519144
 30
0.0
 40
5.00000000000002
100
AcDbArc
 50
17.9980816016
 51
89.9980816016
  0
LINE
  5
159
330
108
100
AcDbEntity
  8
$DDT_AUDIT_GENERATED_(153)
  6
Continuous
 62
     7
100
AcDbLine
 10
197.3770383942
 20
682.8050630547
 30
0.0
 11
194.4583526313
 21
691.7888776673
 31
0.0
  0
LINE
  5
15A
330
108
100
AcDbEntity
  8
$DDT_AUDIT_GENERATED_(153)
  6
Continuous
 62
     7
100
AcDbLine
 10
190.6540851818
 20
690.552937065
 30
0.0
 11
197.3775702694
 21
669.8578199867
 31
0.0
  0
LINE
  5
15B
330
108
100
AcDbEntity
  8
02636038_GEHÄUSE
  6
Continuous
 62
     7
100
AcDbLine
 10
359.3549686932
 20
893.2735642804
 30
0.0
 11
338.0854014541
 21
890.1342157075
 31
0.0
  0
SPLINE
  5
15C
330
108
100
AcDbEntity
  8
02636038_GEHÄUSE
  6
Continuous
 62
     7
100
AcDbSpline
210
0.0
220
0.0
230
1.0
 70
     8
 71
     3
 72
    10
 73
     6
 74
     0
 42
0.0000000019260148
 43
0.0000000001
 40
0.0
 40
0.0
 40
0.0
 40
0.0
 40
0.5
 40
0.5
 40
1.0
 40
1.0
 40
1.0
 40
1.0
 10
351.2326004962677
 20
892.3957007176499
 30
0.0
 10
350.3961672929585
 20
892.1570534376514
 30
0.0
 10
349.551817086305
 20
891.9725284198116
 30
0.0
 10
347.8459596270782
 20
891.7207674765776
 30
0.0
 10
346.9844526056112
 20
891.6535299712928
 30
0.0
 10
346.1150369013268
 20
891.6403578473338
 30
0.0
  0
LINE
  5
15D
330
108
100
AcDbEntity
  8
02636038_GEHÄUSE
  6
Continuous
 62
     7
100
AcDbLine
 10
352.5071938085
 20
895.295347197
 30
0.0
 11
344.0570790626
 21
894.0481259738
 31
0.0
  0
LINE
  5
15E
330
108
100
AcDbEntity
  8
02636038_GEHÄUSE
  6
Continuous
 62
     7
100
AcDbLine
 10
352.5071938085
 20
895.295347197
 30
0.0
 11
352.7724223222
 21
893.4983834084
 31
0.0
  0
SPLINE
  5
15F
330
108
100
AcDbEntity
  8
02636038_GEHÄUSE
  6
Continuous
 62
     7
100
AcDbSpline
210
0.0
220
0.0
230
1.0
 70
     8
 71
     3
 72
    14
 73
    10
 74
     0
 42
0.0000000049320844
 43
0.0000000001
 40
0.0
 40
0.0
 40
0.0
 40
0.0
 40
0.1249999999999997
 40
0.1249999999999997
 40
0.2499999999999994
 40
0.2499999999999994
 40
0.4999999999999996
 40
0.4999999999999996
 40
1.0
 40
1.0
 40
1.0
 40
1.0
 10
352.7724223222331
 20
893.4983834083545
 30
0.0
 10
352.7847497688739
 20
893.4148630699403
 30
0.0
 10
352.7651910599216
 20
893.3270236128816
 30
0.0
 10
352.6907205280896
 20
893.1753445409927
 30
0.0
 10
352.6368689560169
 20
893.1077362001997
 30
0.0
 10
352.4587570920356
 20
892.9286977752201
 30
0.0
 10
352.3148651650019
 20
892.8352960095268
 30
0.0
 10
351.8741384976575
 20
892.597033971521
 30
0.0
 10
351.5538418827799
 20
892.4873558346526
 30
0.0
 10
351.2326004962677
 20
892.3957007176499
 30
0.0
  0
SPLINE
  5
160
330
108
100
AcDbEntity
  8
02636038_GEHÄUSE
  6
Continuous
 62
     7
100
AcDbSpline
210
0.0
220
0.0
230
1.0
 70
     8
 71
     3
 72
    14
 73
    10
 74
     0
 42
0.0000000049319876
 43
0.0000000001
 40
0.0
 40
0.0
 40
0.0
 40
0.0
 40
0.4999999999999996
 40
0.4999999999999996
 40
0.7499999999999993
 40
0.7499999999999993
 40
0.8749999999999997
 40
0.8749999999999997
 40
1.0
 40
1.0
 40
1.0
 40
1.0
 10
346.1150369013268
 20
891.6403578473338
 30
0.0
 10
345.7795810602739
 20
891.6352755076666
 30
0.0
 10
345.4439070659451
 20
891.6474587571597
 30
0.0
 10
344.9506701952014
 20
891.748823801599
 30
0.0
 10
344.7873553222386
 20
891.7965025006059
 30
0.0
 10
344.5664322163465
 20
891.9154255323751
 30
0.0
 10
344.4948773835112
 20
891.9646079372528
 30
0.0
 10
344.3789901819459
 20
892.0887210121067
 30
0.0
 10
344.3346934735222
 20
892.1672458347001
 30
0.0
 10
344.3223075762444
 20
892.2511621851446
 30
0.0
  0
LINE
  5
161
330
108
100
AcDbEntity
  8
02636038_GEHÄUSE
  6
Continuous
 62
     7
100
AcDbLine
 10
344.3223075762
 20
892.2511621851
 30
0.0
 11
344.0570790626
 21
894.0481259738
 31
0.0
  0
LINE
  5
162
330
108
100
AcDbEntity
  8
02636038_GEHÄUSE
  6
Continuous
 62
     7
100
AcDbLine
 10
337.4949298708
 20
890.368046079
 30
0.0
 11
338.0854014541
 21
890.1342157075
 31
0.0
  0
LINE
  5
163
330
108
100
AcDbEntity
  8
02636038_GEHÄUSE
  6
Continuous
 62
     7
100
AcDbLine
 10
359.3549686932
 20
893.2735642804
 30
0.0
 11
359.8527075268
 21
893.6680124859
 31
0.0
  0
ARC
  5
164
330
108
100
AcDbEntity
  8
02636038_GEHÄUSE
  6
Continuous
 62
     7
100
AcDbCircle
 10
359.2316126786
 20
894.4517478939
 30
0.0
 40
1.000000000000022
100
AcDbArc
 50
308.3961302384
 51
8.3961302384
  0
ARC
  5
165
330
108
100
AcDbEntity
  8
02636038_GEHÄUSE
  6
Continuous
 62
     7
100
AcDbCircle
 10
337.8631172198
 20
891.2977976996
 30
0.0
 40
1.000000000000001
100
AcDbArc
 50
188.3961302384
 51
248.3961302384
  0
LINE
  5
166
330
108
100
AcDbEntity
  8
02636038_GEHÄUSE
  6
Continuous
 62
     7
100
AcDbLine
 10
336.1487964151
 20
896.064029062
 30
0.0
 11
336.8738350227
 21
891.1517814869
 31
0.0
  0
LINE
  5
167
330
108
100
AcDbEntity
  8
02636038_GEHÄUSE
  6
Continuous
 62
     7
100
AcDbLine
 10
360.2208948758
 20
894.5977641066
 30
0.0
 11
359.3894093913
 21
900.2312055708
 31
0.0
  0
ARC
  5
168
330
108
100
AcDbEntity
  8
$DDT_AUDIT_GENERATED_(FB)
  6
Continuous
 62
     7
100
AcDbCircle
 10
197.6772563645
 20
651.5793984001
 30
0.0
 40
0.2999999999999947
100
AcDbArc
 50
90.0
 51
180.0
  0
ARC
  5
169
330
108
100
AcDbEntity
  8
$DDT_AUDIT_GENERATED_(FB)
  6
Continuous
 62
     7
100
AcDbCircle
 10
238.6772563645
 20
651.5793984001
 30
0.0
 40
0.3000000000000017
100
AcDbArc
 50
0.0
 51
90.0
  0
LINE
  5
16A
330
108
100
AcDbEntity
  8
$DDT_AUDIT_GENERATED_(FB)
  6
Continuous
 62
     7
100
AcDbLine
 10
238.9772563645
 20
468.5332365777
 30
0.0
 11
238.9772563645
 21
651.5793984001
 31
0.0
  0
LINE
  5
16B
330
108
100
AcDbEntity
  8
$DDT_AUDIT_GENERATED_(FB)
  6
Continuous
 62
     7
100
AcDbLine
 10
197.3772563645
 20
651.5793984001
 30
0.0
 11
197.3772563645
 21
468.5332347683
 31
0.0
  0
LINE
  5
16D
330
108
100
AcDbEntity
  8
DV2_Standard
  6
Continuous
 62
     7
100
AcDbLine
 10
229.4099656719
 20
873.5638717776
 30
0.0
 11
230.4320767987
 21
875.2062711637
 31
0.0
  0
LINE
  5
16E
330
108
100
AcDbEntity
  8
DV2_Standard
  6
CENTER2
 62
     7
100
AcDbLine
 10
238.1772787716
 20
461.8793983703
 30
0.0
 11
198.1772796657
 21
461.8793983703
 31
0.0
  0
LINE
  5
16F
330
108
100
AcDbEntity
  8
DV2_Standard
  6
CENTER2
 62
     7
100
AcDbLine
 10
218.1772792186
 20
481.8793979233
 30
0.0
 11
218.1772792186
 21
441.8793988174
 31
0.0
  0
ENDBLK
  5
171
330
108
100
AcDbEntity
  8
0
100
AcDbBlockEnd
  0
BLOCK
  5
1EB
330
172
100
AcDbEntity
  8
0
100
AcDbBlockBegin
  2
SE2
 70
     0
 10
0.0
 20
0.0
 30
0.0
  3
SE2
  1

  0
SPLINE
  5
174
330
172
100
AcDbEntity
  8
$DDT_AUDIT_GENERATED_(60)
  6
Continuous
 62
     7
100
AcDbSpline
210
0.0
220
0.0
230
1.0
 70
     8
 71
     3
 72
    10
 73
     6
 74
     0
 42
0.0000000002097845
 43
0.0000000001
 40
0.0000073355153857
 40
0.0000073355153857
 40
0.0000073355153857
 40
0.0000073355153857
 40
0.0101813273803147
 40
0.0761692388882937
 40
0.0958710729314062
 40
0.0958710729314062
 40
0.0958710729314062
 40
0.0958710729314062
 10
62.97422456466514
 20
234.981525837782
 30
0.0
 10
62.81223887401239
 20
234.9816299867792
 30
0.0
 10
61.60214111998694
 20
234.9816297800823
 30
0.0
 10
60.07901184751095
 20
234.9816291732631
 30
0.0
 10
58.71760237985936
 20
234.9816279782831
 30
0.0
 10
58.40459507543096
 20
234.9816276639971
 30
0.0
  0
SPLINE
  5
175
330
172
100
AcDbEntity
  8
$DDT_AUDIT_GENERATED_(60)
  6
Continuous
 62
     7
100
AcDbSpline
210
0.0
220
0.0
230
1.0
 70
     8
 71
     3
 72
     9
 73
     5
 74
     0
 42
0.0000000002100207
 43
0.0000000001
 40
0.0
 40
0.0
 40
0.0
 40
0.0
 40
0.0762640968580715
 40
0.0959791296535876
 40
0.0959791296535876
 40
0.0959791296535876
 40
0.0959791296535876
 10
62.97457494345086
 20
234.9815256123432
 30
0.0
 10
61.76449828948144
 20
234.9814178532856
 30
0.0
 10
60.24113244430656
 20
234.9814136221134
 30
0.0
 10
58.71754593856063
 20
234.9814092156578
 30
0.0
 10
58.40459079359756
 20
234.981408321753
 30
0.0
  0
LINE
  5
176
330
172
100
AcDbEntity
  8
$DDT_AUDIT_GENERATED_(60)
  6
Continuous
 62
     7
100
AcDbLine
 10
85.253110639
 20
276.6827832374
 30
0.0
 11
65.6342863829
 21
276.6827832374
 31
0.0
  0
LINE
  5
177
330
172
100
AcDbEntity
  8
$DDT_AUDIT_GENERATED_(60)
  6
Continuous
 62
     7
100
AcDbLine
 10
65.6342863829
 20
234.9816301418
 30
0.0
 11
85.253110639
 21
234.9816301418
 31
0.0
  0
ARC
  5
178
330
172
100
AcDbEntity
  8
$DDT_AUDIT_GENERATED_(60)
  6
Continuous
 62
     7
100
AcDbCircle
 10
53.8042116016
 20
1948.9853512721
 30
0.0
 40
1672.37038317996
100
AcDbArc
 50
269.4864996599
 51
270.4053043609
  0
ARC
  5
179
330
172
100
AcDbEntity
  8
$DDT_AUDIT_GENERATED_(60)
  6
Continuous
 62
     7
100
AcDbCircle
 10
44.5262286602
 20
8389.0897462446
 30
0.0
 40
8154.110275646888
100
AcDbArc
 50
270.0975185629
 51
270.1483183243
  0
ARC
  5
17A
330
172
100
AcDbEntity
  8
$DDT_AUDIT_GENERATED_(60)
  6
Continuous
 62
     7
100
AcDbCircle
 10
85.253110639
 20
235.2816301418
 30
0.0
 40
0.3000000000000017
100
AcDbArc
 50
270.0
 51
0.0
  0
ARC
  5
17B
330
172
100
AcDbEntity
  8
$DDT_AUDIT_GENERATED_(60)
  6
Continuous
 62
     7
100
AcDbCircle
 10
85.253110639
 20
276.3827832374
 30
0.0
 40
0.3000000000000017
100
AcDbArc
 50
0.0
 51
90.0
  0
LINE
  5
17C
330
172
100
AcDbEntity
  8
$DDT_AUDIT_GENERATED_(7C)
  6
Continuous
 62
     7
100
AcDbLine
 10
85.553110639
 20
276.4322066896
 30
0.0
 11
85.553110639
 21
235.2322066896
 31
0.0
  0
ARC
  5
17D
330
172
100
AcDbEntity
  8
$DDT_AUDIT_GENERATED_(7C)
  6
Continuous
 62
     7
100
AcDbCircle
 10
80.5862902772
 20
240.8551504393
 30
0.0
 40
11.5
100
AcDbArc
 50
330.7544490008
 51
349.5976260137
  0
ARC
  5
17E
330
172
100
AcDbEntity
  8
$DDT_AUDIT_GENERATED_(7C)
  6
Continuous
 62
     7
100
AcDbCircle
 10
80.5862902772
 20
270.80926294
 30
0.0
 40
11.49999999999996
100
AcDbArc
 50
10.4023739863
 51
29.2455509992
  0
ARC
  5
17F
330
172
100
AcDbEntity
  8
$DDT_AUDIT_GENERATED_(7C)
  6
Continuous
 62
     7
100
AcDbCircle
 10
90.2714170749
 20
276.2322066896
 30
0.0
 40
0.4000000000000045
100
AcDbArc
 50
29.2455509992
 51
90.0
  0
ARC
  5
180
330
172
100
AcDbEntity
  8
$DDT_AUDIT_GENERATED_(7C)
  6
Continuous
 62
     7
100
AcDbCircle
 10
90.2714170749
 20
235.4322066896
 30
0.0
 40
0.3999999999999976
100
AcDbArc
 50
270.0
 51
330.7544490008
  0
LINE
  5
181
330
172
100
AcDbEntity
  8
$DDT_AUDIT_GENERATED_(7C)
  6
Continuous
 62
     7
100
AcDbLine
 10
85.753110639
 20
235.0322066896
 30
0.0
 11
90.2714170749
 21
235.0322066896
 31
0.0
  0
LINE
  5
182
330
172
100
AcDbEntity
  8
$DDT_AUDIT_GENERATED_(7C)
  6
Continuous
 62
     7
100
AcDbLine
 10
90.2714170749
 20
276.6322066896
 30
0.0
 11
85.753110639
 21
276.6322066896
 31
0.0
  0
ARC
  5
183
330
172
100
AcDbEntity
  8
$DDT_AUDIT_GENERATED_(7C)
  6
Continuous
 62
     7
100
AcDbCircle
 10
91.6022069692
 20
272.8315338006
 30
0.0
 40
0.2999999999999947
100
AcDbArc
 50
0.0
 51
10.4023739863
  0
ARC
  5
184
330
172
100
AcDbEntity
  8
$DDT_AUDIT_GENERATED_(7C)
  6
Continuous
 62
     7
100
AcDbCircle
 10
91.6022069692
 20
238.8328795786
 30
0.0
 40
0.2999999999999612
100
AcDbArc
 50
349.5976260137
 51
0.0
  0
LINE
  5
185
330
172
100
AcDbEntity
  8
$DDT_AUDIT_GENERATED_(7C)
  6
Continuous
 62
     7
100
AcDbLine
 10
91.9022069692
 20
238.8328795786
 30
0.0
 11
91.9022069692
 21
272.8315338006
 31
0.0
  0
ARC
  5
186
330
172
100
AcDbEntity
  8
$DDT_AUDIT_GENERATED_(7C)
  6
Continuous
 62
     7
100
AcDbCircle
 10
85.753110639
 20
276.4322066896
 30
0.0
 40
0.1999999999999988
100
AcDbArc
 50
90.0
 51
180.0
  0
ARC
  5
187
330
172
100
AcDbEntity
  8
$DDT_AUDIT_GENERATED_(7C)
  6
Continuous
 62
     7
100
AcDbCircle
 10
85.753110639
 20
235.2322066896
 30
0.0
 40
0.1999999999999988
100
AcDbArc
 50
180.0
 51
270.0
  0
ARC
  5
188
330
172
100
AcDbEntity
  8
$DDT_AUDIT_GENERATED_(89)
  6
Continuous
 62
     7
100
AcDbCircle
 10
76.8677779722
 20
255.8428149298
 30
0.0
 40
19.00000000000001
100
AcDbArc
 50
25.03186531
 51
37.6941715658
  0
ARC
  5
189
330
172
100
AcDbEntity
  8
$DDT_AUDIT_GENERATED_(89)
  6
Continuous
 62
     7
100
AcDbCircle
 10
76.8677779722
 20
255.8428149298
 30
0.0
 40
19.0
100
AcDbArc
 50
322.3058284342
 51
331.2171140211
  0
LINE
  5
18A
330
172
100
AcDbEntity
  8
$DDT_AUDIT_GENERATED_(8C)
  6
Continuous
 62
     7
100
AcDbLine
 10
20.6832210387
 20
218.9874039816
 30
0.0
 11
20.6832211784
 21
128.1691158357
 31
0.0
  0
ARC
  5
18B
330
172
100
AcDbEntity
  8
$DDT_AUDIT_GENERATED_(8C)
  6
Continuous
 62
     7
100
AcDbCircle
 10
37.5531660203
 20
127.1926024557
 30
0.0
 40
20.83852433580085
100
AcDbArc
 50
343.3337480799
 51
343.5119944299
  0
ARC
  5
18C
330
172
100
AcDbEntity
  8
$DDT_AUDIT_GENERATED_(8C)
  6
Continuous
 62
     7
100
AcDbCircle
 10
37.5532182968
 20
128.2996127281
 30
0.0
 40
16.86289026776418
100
AcDbArc
 50
180.4433910931
 51
359.5531307362
  0
LINE
  5
18D
330
172
100
AcDbEntity
  8
$DDT_AUDIT_GENERATED_(8C)
  6
Continuous
 62
     7
100
AcDbLine
 10
54.4230014576
 20
218.9874048877
 30
0.0
 11
54.4230015973
 21
128.1679950049
 31
0.0
  0
SPLINE
  5
18E
330
172
100
AcDbEntity
  8
$DDT_AUDIT_GENERATED_(8C)
  6
Continuous
 62
     7
100
AcDbSpline
210
0.0
220
0.0
230
1.0
 70
    12
 71
     5
 72
    12
 73
     6
 74
     0
 42
0.0000000002205349
 43
0.0000000001
 40
0.0
 40
0.0
 40
0.0
 40
0.0
 40
0.0
 40
0.0
 40
1.0
 40
1.0
 40
1.0
 40
1.0
 40
1.0
 40
1.0
 10
20.69083709792721
 20
264.331800925228
 30
0.0
 41
1.0
 10
20.69083729308926
 20
264.331800925228
 30
0.0
 41
1.0
 10
20.69083729308866
 20
264.331800925228
 30
0.0
 41
1.0
 10
20.69083729308896
 20
250.3792557456921
 30
0.0
 41
1.0
 10
20.69083729308896
 20
236.403594636959
 30
0.0
 41
1.0
 10
20.69063915798473
 20
218.987502672718
 30
0.0
 41
1.0
  0
SPLINE
  5
18F
330
172
100
AcDbEntity
  8
$DDT_AUDIT_GENERATED_(8C)
  6
Continuous
 62
     7
100
AcDbSpline
210
0.0
220
0.0
230
1.0
 70
    12
 71
     5
 72
    12
 73
     6
 74
     0
 42
0.0000000002205349
 43
0.0000000001
 40
0.0
 40
0.0
 40
0.0
 40
0.0
 40
0.0
 40
0.0
 40
1.0
 40
1.0
 40
1.0
 40
1.0
 40
1.0
 40
1.0
 10
54.41561602367783
 20
218.9875026939647
 30
0.0
 41
1.0
 10
54.41538542670036
 20
236.403594636959
 30
0.0
 41
1.0
 10
54.41538542670036
 20
250.3792557456921
 30
0.0
 41
1.0
 10
54.41538542670006
 20
264.331800925228
 30
0.0
 41
1.0
 10
54.41538542670067
 20
264.331800925228
 30
0.0
 41
1.0
 10
54.4153856218561
 20
264.331800925228
 30
0.0
 41
1.0
  0
LINE
  5
190
330
172
100
AcDbEntity
  8
$DDT_AUDIT_GENERATED_(8C)
  6
Continuous
 62
     7
100
AcDbLine
 10
20.6908370979
 20
264.3318009252
 30
0.0
 11
54.4153856219
 21
264.3318009252
 31
0.0
  0
SPLINE
  5
191
330
172
100
AcDbEntity
  8
$DDT_AUDIT_GENERATED_(8C)
  6
Continuous
 62
     7
100
AcDbSpline
210
0.0
220
0.0
230
1.0
 70
     8
 71
     5
 72
    13
 73
     7
 74
     0
 42
0.0000000683226086
 43
0.0000000001
 40
0.7921621368403184
 40
0.7921621368403184
 40
0.7921621368403184
 40
0.7921621368403184
 40
0.7921621368403184
 40
0.7921621368403184
 40
0.875000032604233
 40
1.0
 40
1.0
 40
1.0
 40
1.0
 40
1.0
 40
1.0
 10
54.44436270328288
 20
264.3392363219817
 30
0.0
 10
54.43927842341406
 20
264.3366935529355
 30
0.0
 10
54.42803176689085
 20
264.3324121611335
 30
0.0
 10
54.42113647302342
 20
264.3316403758769
 30
0.0
 10
54.41688138668741
 20
264.3319075136477
 30
0.0
 10
54.4153857682382
 20
264.331800925228
 30
0.0
 10
54.4153856218561
 20
264.331800925228
 30
0.0
  0
SPLINE
  5
192
330
172
100
AcDbEntity
  8
$DDT_AUDIT_GENERATED_(8C)
  6
Continuous
 62
     7
100
AcDbSpline
210
0.0
220
0.0
230
1.0
 70
     8
 71
     5
 72
    13
 73
     7
 74
     0
 42
0.0000001276591257
 43
0.0000000001
 40
0.0
 40
0.0
 40
0.0
 40
0.0
 40
0.0
 40
0.0
 40
0.12499996739575
 40
0.1250032717475724
 40
0.1250032717475724
 40
0.1250032717475724
 40
0.1250032717475724
 40
0.1250032717475724
 40
0.1250032717475724
 10
20.69083709792721
 20
264.331800925228
 30
0.0
 10
20.69083695152721
 20
264.331800925228
 30
0.0
 10
20.68993741902585
 20
264.3318650312165
 30
0.0
 10
20.68803968388668
 20
264.3317939487893
 30
0.0
 10
20.68516969444022
 20
264.3318950185489
 30
0.0
 10
20.68111388077764
 20
264.3326140312508
 30
0.0
 10
20.68111377356493
 20
264.3326140502577
 30
0.0
  0
ARC
  5
193
330
172
100
AcDbEntity
  8
$DDT_AUDIT_GENERATED_(8C)
  6
Continuous
 62
     7
100
AcDbCircle
 10
37.5788165187
 20
255.8285243086
 30
0.0
 40
20.87431674270154
100
AcDbArc
 50
159.96208222
 51
179.8806705603
  0
SPLINE
  5
194
330
172
100
AcDbEntity
  8
$DDT_AUDIT_GENERATED_(8C)
  6
Continuous
 62
     7
100
AcDbSpline
210
0.0
220
0.0
230
1.0
 70
    12
 71
     5
 72
    12
 73
     6
 74
     0
 42
0.000000002908793
 43
0.0000000001
 40
0.1469621358345891
 40
0.1469621358345891
 40
0.1469621358345891
 40
0.1469621358345891
 40
0.1469621358345891
 40
0.1469621358345891
 40
1.0
 40
1.0
 40
1.0
 40
1.0
 40
1.0
 40
1.0
 10
54.98257390426467
 20
264.3277653460323
 30
0.0
 41
1.0
 10
55.61873134427116
 20
264.3134548454668
 30
0.0
 41
1.0
 10
56.19485446766141
 20
264.2562295055726
 30
0.0
 41
1.0
 10
56.71215561696251
 20
264.0660263172749
 30
0.0
 41
1.0
 10
56.90360149372297
 20
263.6235101403066
 30
0.0
 41
1.0
 10
57.13811850443091
 20
262.9809408534213
 30
0.0
 41
1.0
  0
ARC
  5
195
330
172
100
AcDbEntity
  8
$DDT_AUDIT_GENERATED_(8C)
  6
Continuous
 62
     7
100
AcDbCircle
 10
37.5453510286
 20
255.8244709968
 30
0.0
 40
20.85899153486835
100
AcDbArc
 50
20.3176904324
 51
22.1923106922
  0
ARC
  5
196
330
172
100
AcDbEntity
  8
$DDT_AUDIT_GENERATED_(8C)
  6
Continuous
 62
     7
100
AcDbCircle
 10
37.5453510286
 20
255.8244709968
 30
0.0
 40
20.85899153486835
100
AcDbArc
 50
82.4463225912
 51
86.4986896364
  0
ARC
  5
197
330
172
100
AcDbEntity
  8
$DDT_AUDIT_GENERATED_(8C)
  6
Continuous
 62
     7
100
AcDbCircle
 10
37.5274062011
 20
255.8285243086
 30
0.0
 40
20.87431674270062
100
AcDbArc
 50
0.1199656564
 51
20.03791778
  0
ARC
  5
198
330
172
100
AcDbEntity
  8
$DDT_AUDIT_GENERATED_(8C)
  6
Continuous
 62
     7
100
AcDbCircle
 10
37.5531113575
 20
127.2248928233
 30
0.0
 40
20.87489282332922
100
AcDbArc
 50
196.6526266399
 51
343.3473736267
  0
LINE
  5
199
330
172
100
AcDbEntity
  8
$DDT_AUDIT_GENERATED_(8C)
  6
Continuous
 62
     7
100
AcDbLine
 10
16.7033716154
 20
217.95150718
 30
0.0
 11
16.7033717551
 21
127.133534748
 31
0.0
  0
SPLINE
  5
19A
330
172
100
AcDbEntity
  8
$DDT_AUDIT_GENERATED_(8C)
  6
Continuous
 62
     7
100
AcDbSpline
210
0.0
220
0.0
230
1.0
 70
     8
 71
     3
 72
    13
 73
     9
 74
     0
 42
0.000000005056033
 43
0.0000000001
 40
0.0
 40
0.0
 40
0.0
 40
0.0
 40
0.1756494004977324
 40
0.3438820854785535
 40
0.4289114992761271
 40
0.5215432259503306
 40
0.73964460468329
 40
1.0
 40
1.0
 40
1.0
 40
1.0
 10
19.30868429328916
 20
264.2464024421086
 30
0.0
 10
19.17144663747483
 20
264.2230274890126
 30
0.0
 10
18.94405493970265
 20
264.1794103751495
 30
0.0
 10
18.65178062462379
 20
264.0312799239145
 30
0.0
 10
18.46099717205892
 20
263.8757745439405
 30
0.0
 10
18.28654871076755
 20
263.6832186074423
 30
0.0
 10
18.11908546171105
 20
263.3834856170013
 30
0.0
 10
18.02394335164232
 20
263.1391312019731
 30
0.0
 10
17.9679300161108
 20
262.9808584737017
 30
0.0
  0
ARC
  5
19B
330
172
100
AcDbEntity
  8
$DDT_AUDIT_GENERATED_(8C)
  6
Continuous
 62
     7
100
AcDbCircle
 10
20.3671921429
 20
258.3423128743
 30
0.0
 40
5.998225778696464
100
AcDbArc
 50
86.9070003201
 51
100.1642235656
  0
ARC
  5
19C
330
172
100
AcDbEntity
  8
$DDT_AUDIT_GENERATED_(8C)
  6
Continuous
 62
     7
100
AcDbCircle
 10
37.553220745
 20
127.1345040931
 30
0.0
 40
20.85086751093793
100
AcDbArc
 50
343.6645158171
 51
0.0
  0
ARC
  5
19D
330
172
100
AcDbEntity
  8
$DDT_AUDIT_GENERATED_(8C)
  6
Continuous
 62
     7
100
AcDbCircle
 10
37.553220745
 20
127.1345040931
 30
0.0
 40
20.85086751093793
100
AcDbArc
 50
180.0027988652
 51
196.5525931816
  0
ARC
  5
19E
330
172
100
AcDbEntity
  8
$DDT_AUDIT_GENERATED_(8C)
  6
Continuous
 62
     7
100
AcDbCircle
 10
37.6392516672
 20
255.9883650441
 30
0.0
 40
20.75212172678899
100
AcDbArc
 50
90.237903936
 51
118.4786921517
  0
SPLINE
  5
19F
330
172
100
AcDbEntity
  8
$DDT_AUDIT_GENERATED_(8C)
  6
Continuous
 62
     7
100
AcDbSpline
210
0.0
220
0.0
230
1.0
 70
     8
 71
     3
 72
    38
 73
    34
 74
     0
 42
0.000000000263657
 43
0.0000000001
 40
0.0
 40
0.0
 40
0.0
 40
0.0
 40
0.047299639100027
 40
0.0965639687587879
 40
0.1412070464319869
 40
0.1817597827024243
 40
0.2187015155434575
 40
0.2524579355836925
 40
0.2833943682784995
 40
0.3163169174077262
 40
0.346171591357867
 40
0.3732250987206582
 40
0.3976456682061332
 40
0.4195194879962337
 40
0.4388808531851242
 40
0.4517544192545454
 40
0.4632070212981758
 40
0.4749618158557533
 40
0.4901042734008149
 40
0.5087680211688697
 40
0.531058930647103
 40
0.5571158204863977
 40
0.5871111940141691
 40
0.6175001070370929
 40
0.651380363548424
 40
0.6889331780247118
 40
0.7303547191497204
 40
0.775860128083036
 40
0.8146393975504213
 40
0.8562331910974065
 40
0.9008191627519869
 40
0.9486322886466239
 40
1.0
 40
1.0
 40
1.0
 40
1.0
 10
16.70335872733637
 20
255.8713962472337
 30
0.0
 10
16.70331593508961
 20
255.8735718727864
 30
0.0
 10
16.70322982788247
 20
255.8722128474946
 30
0.0
 10
16.70240961013807
 20
255.825021810352
 30
0.0
 10
16.7013946247188
 20
255.6829006592895
 30
0.0
 10
16.70033698455611
 20
255.4324468209115
 30
0.0
 10
16.69936711269374
 20
255.0710991098435
 30
0.0
 10
16.69854110722653
 20
254.6064915720964
 30
0.0
 10
16.69785227293331
 20
254.0258576371975
 30
0.0
 10
16.69732744462749
 20
253.3305079373089
 30
0.0
 10
16.69698082579711
 20
252.5281572378252
 30
0.0
 10
16.69680744899754
 20
251.6910955313864
 30
0.0
 10
16.69676723500223
 20
250.8491275288216
 30
0.0
 10
16.69682158848145
 20
250.0287716733279
 30
0.0
 10
16.69692869147067
 20
249.3066558612686
 30
0.0
 10
16.69705139014618
 20
248.6964999466782
 30
0.0
 10
16.69717409773176
 20
248.1762896496739
 30
0.0
 10
16.69732410619938
 20
247.6081685336749
 30
0.0
 10
16.69752525588301
 20
246.9141496442319
 30
0.0
 10
16.69780533528044
 20
246.0309318374056
 30
0.0
 10
16.69817858294628
 20
244.9378927943787
 30
0.0
 10
16.69865502517003
 20
243.6131956004414
 30
0.0
 10
16.6992123371463
 20
242.0997734048564
 30
0.0
 10
16.69983251015476
 20
240.3985854489851
 30
0.0
 10
16.70049110104636
 20
238.5126988256994
 30
0.0
 10
16.70117721622907
 20
236.3749867566676
 30
0.0
 10
16.70184880904128
 20
233.972739363139
 30
0.0
 10
16.70240527745726
 20
231.5104040304454
 30
0.0
 10
16.7028300908519
 20
229.0217712513357
 30
0.0
 10
16.70312605216402
 20
226.5311103593736
 30
0.0
 10
16.70331106260269
 20
223.8649924237477
 30
0.0
 10
16.7033864654528
 20
220.926457344894
 30
0.0
 10
16.70338910413255
 20
219.0825702478254
 30
0.0
 10
16.70338671001445
 20
217.94770310811
 30
0.0
  0
LINE
  5
1A0
330
172
100
AcDbEntity
  8
$DDT_AUDIT_GENERATED_(8C)
  6
Continuous
 62
     7
100
AcDbLine
 10
58.4028511882
 20
127.1335260146
 30
0.0
 11
58.4028510485
 21
217.9515071813
 31
0.0
  0
ARC
  5
1A1
330
172
100
AcDbEntity
  8
$DDT_AUDIT_GENERATED_(8C)
  6
Continuous
 62
     7
100
AcDbCircle
 10
37.4356416756
 20
255.6803494975
 30
0.0
 40
21.0152620156047
100
AcDbArc
 50
22.4382729817
 51
82.4053297517
  0
ARC
  5
1A2
330
172
100
AcDbEntity
  8
$DDT_AUDIT_GENERATED_(8C)
  6
Continuous
 62
     7
100
AcDbCircle
 10
-28.0009472701
 20
-586.1922311535
 30
0.0
 40
865.4191444540119
100
AcDbArc
 50
85.5712882409
 51
85.6557807436
  0
ARC
  5
1A3
330
172
100
AcDbEntity
  8
$DDT_AUDIT_GENERATED_(8C)
  6
Continuous
 62
     7
100
AcDbCircle
 10
-2493.5870274608
 20
236.9122232084
 30
0.0
 40
2552.060327500974
100
AcDbArc
 50
359.5742266016
 51
0.4256597494
  0
LINE
  5
1A4
330
172
100
AcDbEntity
  8
$DDT_AUDIT_GENERATED_(9F)
  6
Continuous
 62
     7
100
AcDbLine
 10
111.9620814532
 20
237.735673486
 30
0.0
 11
112.079117323
 21
244.5626152034
 31
0.0
  0
SPLINE
  5
1A5
330
172
100
AcDbEntity
  8
$DDT_AUDIT_GENERATED_(9F)
  6
Continuous
 62
     7
100
AcDbSpline
210
0.0
220
0.0
230
1.0
 70
     8
 71
     3
 72
     8
 73
     4
 74
     0
 42
0.0000000042141407
 43
0.0000000001
 40
0.0
 40
0.0
 40
0.0
 40
0.0
 40
0.0440453605051972
 40
0.0440453605051972
 40
0.0440453605051972
 40
0.0440453605051972
 10
112.4430078405749
 20
265.9137916686595
 30
0.0
 10
112.4441986718935
 20
265.983646121423
 30
0.0
 10
112.4447826726367
 20
266.0180719544875
 30
0.0
 10
112.4447732702346
 20
266.0178495292291
 30
0.0
  0
LINE
  5
1A6
330
172
100
AcDbEntity
  8
$DDT_AUDIT_GENERATED_(9F)
  6
Continuous
 62
     7
100
AcDbLine
 10
111.960370955
 20
237.6359865662
 30
0.0
 11
112.3148688894
 21
258.3332493159
 31
0.0
  0
ARC
  5
1A7
330
172
100
AcDbEntity
  8
$DDT_AUDIT_GENERATED_(9F)
  6
Continuous
 62
     7
100
AcDbCircle
 10
151.9570663173
 20
259.2371017721
 30
0.0
 40
45.10038215588202
100
AcDbArc
 50
170.0008321773
 51
170.2704438702
  0
LINE
  5
1A8
330
172
100
AcDbEntity
  8
$DDT_AUDIT_GENERATED_(9F)
  6
Continuous
 62
     7
100
AcDbLine
 10
108.872372708
 20
268.7261085379
 30
0.0
 11
108.8745758511
 21
268.854738434
 31
0.0
  0
ARC
  5
1A9
330
172
100
AcDbEntity
  8
$DDT_AUDIT_GENERATED_(9F)
  6
Continuous
 62
     7
100
AcDbCircle
 10
120.9809341869
 20
258.3800477677
 30
0.0
 40
18.74624600056305
100
AcDbArc
 50
161.1276867808
 51
161.4343403332
  0
ELLIPSE
  5
1AA
330
172
100
AcDbEntity
  8
$DDT_AUDIT_GENERATED_(9F)
  6
Continuous
 62
     7
100
AcDbEllipse
 10
103.1535433742
 20
269.4429206758
 30
0.0
 11
-0.1316063154856856
 21
4.99826767398303
 31
0.0
210
0.0
220
0.0
230
1.0
 40
0.9974524243
 41
3.200027207119996
 42
4.203244668688731
  0
SPLINE
  5
1AB
330
172
100
AcDbEntity
  8
$DDT_AUDIT_GENERATED_(9F)
  6
Continuous
 62
     7
100
AcDbSpline
210
0.0
220
0.0
230
1.0
 70
     8
 71
     3
 72
     8
 73
     4
 74
     0
 42
0.0000000033333495
 43
0.0000000001
 40
0.1481275675239341
 40
0.1481275675239341
 40
0.1481275675239341
 40
0.1481275675239341
 40
0.1595928644550561
 40
0.1595928644550561
 40
0.1595928644550561
 40
0.1595928644550561
 10
102.8034994549698
 20
245.8416067727374
 30
0.0
 10
102.7940693428104
 20
245.8471946283735
 30
0.0
 10
102.784358381358
 20
245.8532960980787
 30
0.0
 10
102.7743838987682
 20
245.859905748978
 30
0.0
  0
ELLIPSE
  5
1AC
330
172
100
AcDbEntity
  8
$DDT_AUDIT_GENERATED_(9F)
  6
Continuous
 62
     7
100
AcDbEllipse
 10
94.4162450877
 20
263.9078707427
 30
0.0
 11
0.2296787087636074
 21
-0.1929966076903971
 31
0.0
210
0.0
220
0.0
230
0.9999999999999998
 40
0.984272164
 41
3.138054286366224
 42
3.497255217214206
  0
SPLINE
  5
1AD
330
172
100
AcDbEntity
  8
$DDT_AUDIT_GENERATED_(9F)
  6
Continuous
 62
     7
100
AcDbSpline
210
0.0
220
0.0
230
1.0
 70
     8
 71
     3
 72
     8
 73
     4
 74
     0
 42
0.0000000060048543
 43
0.0000000001
 40
0.8393743427798932
 40
0.8393743427798932
 40
0.8393743427798932
 40
0.8393743427798932
 40
0.9013957271268773
 40
0.9013957271268773
 40
0.9013957271268773
 40
0.9013957271268773
 10
94.65302749601851
 20
264.2240877487898
 30
0.0
 10
94.62319451173184
 20
264.2508127809359
 30
0.0
 10
94.5925881600848
 20
264.2606445983346
 30
0.0
 10
94.56150705660899
 20
264.260106072162
 30
0.0
  0
LINE
  5
1AE
330
172
100
AcDbEntity
  8
$DDT_AUDIT_GENERATED_(9F)
  6
Continuous
 62
     7
100
AcDbLine
 10
112.079117323
 20
244.5626152034
 30
0.0
 11
112.4319047592
 21
265.1601910332
 31
0.0
  0
LINE
  5
1AF
330
172
100
AcDbEntity
  8
$DDT_AUDIT_GENERATED_(9F)
  6
Continuous
 62
     7
100
AcDbLine
 10
109.5919993702
 20
234.0554115061
 30
0.0
 11
110.6169411997
 21
234.0557467133
 31
0.0
  0
ARC
  5
1B0
330
172
100
AcDbEntity
  8
$DDT_AUDIT_GENERATED_(9F)
  6
Continuous
 62
     7
100
AcDbCircle
 10
109.540857658
 20
235.9310867401
 30
0.0
 40
1.866363038768398
100
AcDbArc
 50
227.7781335927
 51
271.5953104105
  0
SPLINE
  5
1B1
330
172
100
AcDbEntity
  8
$DDT_AUDIT_GENERATED_(9F)
  6
Continuous
 62
     7
100
AcDbSpline
210
0.0
220
0.0
230
1.0
 70
     8
 71
     3
 72
    11
 73
     7
 74
     0
 42
0.0000000755937346
 43
0.0000000001
 40
0.0
 40
0.0
 40
0.0
 40
0.0
 40
0.4228939247304502
 40
0.6656432463649075
 40
0.7260690080772644
 40
0.7320759588241298
 40
0.7320759588241298
 40
0.7320759588241298
 40
0.7320759588241298
 10
112.4443862569413
 20
265.8885739127808
 30
0.0
 10
112.4449832711219
 20
265.923394137386
 30
0.0
 10
112.4457415980298
 20
265.9676929198434
 30
0.0
 10
112.446016806617
 20
265.9835351282117
 30
0.0
 10
112.4460419941792
 20
265.9851307812613
 30
0.0
 10
112.4460475967145
 20
265.9853912293594
 30
0.0
 10
112.446047875725
 20
265.9854031224971
 30
0.0
  0
ARC
  5
1B2
330
172
100
AcDbEntity
  8
$DDT_AUDIT_GENERATED_(9F)
  6
Continuous
 62
     7
100
AcDbCircle
 10
107.0632247168
 20
237.2925471013
 30
0.0
 40
4.909174263025826
100
AcDbArc
 50
320.7120718666
 51
4.0116152679
  0
SPLINE
  5
1B3
330
172
100
AcDbEntity
  8
$DDT_AUDIT_GENERATED_(9F)
  6
Continuous
 62
     7
100
AcDbSpline
210
0.0
220
0.0
230
1.0
 70
     8
 71
     3
 72
    12
 73
     8
 74
     0
 42
0.0000000319419876
 43
0.0000000001
 40
0.0
 40
0.0
 40
0.0
 40
0.0
 40
0.1190368181101115
 40
0.4517587638574616
 40
0.718889614130428
 40
0.9440707391937099
 40
1.0
 40
1.0
 40
1.0
 40
1.0
 10
110.615764341258
 20
234.0601719694436
 30
0.0
 10
110.6291413216325
 20
234.0587044172572
 30
0.0
 10
110.6728254251793
 20
234.0542940420303
 30
0.0
 10
110.7476237337102
 20
234.0812034854572
 30
0.0
 10
110.816607071528
 20
234.1281578358182
 30
0.0
 10
110.8568988448535
 20
234.1715460470412
 30
0.0
 10
110.8696616492423
 20
234.1956015073183
 30
0.0
 10
110.8725971348619
 20
234.2012016423176
 30
0.0
  0
LINE
  5
1B4
330
172
100
AcDbEntity
  8
$DDT_AUDIT_GENERATED_(9F)
  6
Continuous
 62
     7
100
AcDbLine
 10
105.8684841253
 20
253.1060181083
 30
0.0
 11
105.7834564172
 21
248.1461779467
 31
0.0
  0
SPLINE
  5
1B5
330
172
100
AcDbEntity
  8
$DDT_AUDIT_GENERATED_(9F)
  6
Continuous
 62
     7
100
AcDbSpline
210
0.0
220
0.0
230
1.0
 70
     8
 71
     3
 72
    16
 73
    12
 74
     0
 42
0.000000000704131
 43
0.0000000001
 40
0.0
 40
0.0
 40
0.0
 40
0.0
 40
0.1510892175023303
 40
0.3089293698066972
 40
0.4658110565521206
 40
0.6143759633109219
 40
0.7011648538469525
 40
0.7824113120644025
 40
0.8583899424651791
 40
0.930190505168633
 40
1.0
 40
1.0
 40
1.0
 40
1.0
 10
105.7834072819284
 20
248.1433104777526
 30
0.0
 10
105.7714802409994
 20
247.3577944592373
 30
0.0
 10
105.7545793901525
 20
246.0036940529591
 30
0.0
 10
105.7797356228811
 20
243.7574523254903
 30
0.0
 10
105.8841398990785
 20
241.5814591960505
 30
0.0
 10
106.0711336505526
 20
239.7319776042266
 30
0.0
 10
106.3351404493468
 20
238.2587579837477
 30
0.0
 10
106.6372817262224
 20
237.1413790958569
 30
0.0
 10
107.0420808033982
 20
236.1409862136253
 30
0.0
 10
107.5829536722425
 20
235.2330178626537
 30
0.0
 10
108.0264050036234
 20
234.7924839546585
 30
0.0
 10
108.2867174853595
 20
234.5395136541923
 30
0.0
  0
ARC
  5
1B6
330
172
100
AcDbEntity
  8
$DDT_AUDIT_GENERATED_(9F)
  6
Continuous
 62
     7
100
AcDbCircle
 10
111.9940332898
 20
265.0291724383
 30
0.0
 40
4.935578015833618
100
AcDbArc
 50
128.3675314201
 51
155.6021630349
  0
ARC
  5
1B7
330
172
100
AcDbEntity
  8
$DDT_AUDIT_GENERATED_(9F)
  6
Continuous
 62
     7
100
AcDbCircle
 10
110.1069685357
 20
267.3456951947
 30
0.0
 40
1.945247744988604
100
AcDbArc
 50
87.3249983896
 51
129.4224724849
  0
LINE
  5
1B8
330
172
100
AcDbEntity
  8
$DDT_AUDIT_GENERATED_(9F)
  6
Continuous
 62
     7
100
AcDbLine
 10
111.2200000138
 20
269.2584214947
 30
0.0
 11
110.1956708032
 21
269.2938564475
 31
0.0
  0
ARC
  5
1B9
330
172
100
AcDbEntity
  8
$DDT_AUDIT_GENERATED_(9F)
  6
Continuous
 62
     7
100
AcDbCircle
 10
111.2301713201
 20
268.9918055778
 30
0.0
 40
0.2618667355772517
100
AcDbArc
 50
25.0819535101
 51
91.9749667737
  0
ARC
  5
1BA
330
172
100
AcDbEntity
  8
$DDT_AUDIT_GENERATED_(9F)
  6
Continuous
 62
     7
100
AcDbCircle
 10
107.7261540558
 20
266.226356331
 30
0.0
 40
4.726030647928214
100
AcDbArc
 50
356.7108113048
 51
37.7828119615
  0
LINE
  5
1BB
330
172
100
AcDbEntity
  8
$DDT_AUDIT_GENERATED_(9F)
  6
Continuous
 62
     7
100
AcDbLine
 10
103.5880962677
 20
264.4619193595
 30
0.0
 11
103.2430818103
 21
264.4384493904
 31
0.0
  0
SPLINE
  5
1BC
330
172
100
AcDbEntity
  8
$DDT_AUDIT_GENERATED_(9F)
  6
Continuous
 62
     7
100
AcDbSpline
210
0.0
220
0.0
230
1.0
 70
     8
 71
     3
 72
    11
 73
     7
 74
     0
 42
0.0000000005351553
 43
0.0000000001
 40
0.0
 40
0.0
 40
0.0
 40
0.0
 40
0.0595978362695247
 40
0.1142879851353441
 40
0.1618413551733923
 40
0.1795142685932163
 40
0.1795142685932163
 40
0.1795142685932163
 40
0.1795142685932163
 10
102.7342451099111
 20
245.8606465740881
 30
0.0
 10
103.1571121721221
 20
245.8307755070154
 30
0.0
 10
103.8424162249513
 20
245.7722422791521
 30
0.0
 10
104.8190581175511
 20
245.4001867731977
 30
0.0
 10
105.430379767078
 20
245.0152931349743
 30
0.0
 10
105.7196342652549
 20
244.7758928708066
 30
0.0
 10
105.794276584812
 20
244.7097488987063
 30
0.0
  0
ARC
  5
1BD
330
172
100
AcDbEntity
  8
$DDT_AUDIT_GENERATED_(9F)
  6
Continuous
 62
     7
100
AcDbCircle
 10
94.5571668836
 20
263.8247228476
 30
0.0
 40
0.4620900194425539
100
AcDbArc
 50
87.6452440644
 51
89.3806259851
  0
ARC
  5
1BE
330
172
100
AcDbEntity
  8
$DDT_AUDIT_GENERATED_(9F)
  6
Continuous
 62
     7
100
AcDbCircle
 10
94.5571668836
 20
263.8247228476
 30
0.0
 40
0.4620900194425539
100
AcDbArc
 50
91.8422368871
 51
143.1431936259
  0
LINE
  5
1BF
330
172
100
AcDbEntity
  8
$DDT_AUDIT_GENERATED_(9F)
  6
Continuous
 62
     7
100
AcDbLine
 10
103.1262048485
 20
264.377344009
 30
0.0
 11
94.6525117461
 21
264.2286437213
 31
0.0
  0
SPLINE
  5
1C0
330
172
100
AcDbEntity
  8
$DDT_AUDIT_GENERATED_(9F)
  6
Continuous
 62
     7
100
AcDbSpline
210
0.0
220
0.0
230
1.0
 70
     8
 71
     3
 72
    20
 73
    16
 74
     0
 42
0.0000000009853081
 43
0.0000000001
 40
0.0
 40
0.0
 40
0.0
 40
0.0
 40
0.1020454945063567
 40
0.1920960798382672
 40
0.2704108820903862
 40
0.3382747271415918
 40
0.4028962887021108
 40
0.4655817372935718
 40
0.5263305565485977
 40
0.5875154162551034
 40
0.6639265986531754
 40
0.7329341065375915
 40
0.8119586782635035
 40
0.9009811296905758
 40
1.0
 40
1.0
 40
1.0
 40
1.0
 10
94.18715833700638
 20
264.1015695657858
 30
0.0
 10
94.11357418483854
 20
263.9920123518243
 30
0.0
 10
93.99691245066825
 20
263.8098600569165
 30
0.0
 10
93.83348536106614
 20
263.3124922128223
 30
0.0
 10
93.7029037672855
 20
262.7755435321595
 30
0.0
 10
93.59326531151612
 20
262.2123258210048
 30
0.0
 10
93.49486023245157
 20
261.6205518179945
 30
0.0
 10
93.40540654464343
 20
260.9882475399501
 30
0.0
 10
93.32306877889559
 20
260.3148592698299
 30
0.0
 10
93.2405613331457
 20
259.5424918314894
 30
0.0
 10
93.16372103721712
 20
258.6866622619165
 30
0.0
 10
93.09051144250529
 20
257.7102132432845
 30
0.0
 10
93.02718405332695
 20
256.6485854851792
 30
0.0
 10
92.97112838724928
 20
255.3958378577003
 30
0.0
 10
92.95271675355944
 20
254.5941932997018
 30
0.0
 10
92.94186303245003
 20
254.0949032094131
 30
0.0
  0
SPLINE
  5
1C1
330
172
100
AcDbEntity
  8
$DDT_AUDIT_GENERATED_(9F)
  6
Continuous
 62
     7
100
AcDbSpline
210
0.0
220
0.0
230
1.0
 70
     8
 71
     3
 72
    21
 73
    17
 74
     0
 42
0.0000000012378745
 43
0.0000000001
 40
0.0
 40
0.0
 40
0.0
 40
0.0
 40
0.0953589547791712
 40
0.1835161608145694
 40
0.2644628609367336
 40
0.338201831415393
 40
0.4252583479611413
 40
0.4994852472779854
 40
0.5623676159782764
 40
0.6452458191282537
 40
0.715276544142817
 40
0.7595722541293892
 40
0.8252432136170045
 40
0.8811884185482425
 40
0.946871669098437
 40
1.0
 40
1.0
 40
1.0
 40
1.0
 10
92.94186303027075
 20
254.0949032266982
 30
0.0
 10
92.93627881077805
 20
253.6719609779757
 30
0.0
 10
92.92796239262329
 20
252.9860694466973
 30
0.0
 10
92.9364243938752
 20
251.9415385831834
 30
0.0
 10
92.95717282654769
 20
251.0494781020006
 30
0.0
 10
92.99126101279778
 20
250.2084947073362
 30
0.0
 10
93.0361089462086
 20
249.4534911117939
 30
0.0
 10
93.09035160303296
 20
248.801744858914
 30
0.0
 10
93.15209278472568
 20
248.2262688798851
 30
0.0
 10
93.22200067447432
 20
247.7250703066977
 30
0.0
 10
93.29154235017107
 20
247.3519149798026
 30
0.0
 10
93.37020856505832
 20
247.0186210745507
 30
0.0
 10
93.46915226105489
 20
246.7343266061998
 30
0.0
 10
93.61259280630085
 20
246.4876828771614
 30
0.0
 10
93.77322063313852
 20
246.3233070773208
 30
0.0
 10
93.87303956542625
 20
246.2975718355158
 30
0.0
 10
93.92618510019756
 20
246.2857045171765
 30
0.0
  0
LINE
  5
1C2
330
172
100
AcDbEntity
  8
$DDT_AUDIT_GENERATED_(9F)
  6
Continuous
 62
     7
100
AcDbLine
 10
93.8551138263
 20
246.3268659236
 30
0.0
 11
102.761277114
 21
245.8651442792
 31
0.0
  0
ARC
  5
1C3
330
172
100
AcDbEntity
  8
$DDT_AUDIT_GENERATED_(C6)
  6
Continuous
 62
     7
100
AcDbCircle
 10
37.55311136
 20
255.8317964703
 30
0.0
 40
20.90000000000001
100
AcDbArc
 50
105.6463959899
 51
159.3125581417
  0
ARC
  5
1C4
330
172
100
AcDbEntity
  8
$DDT_AUDIT_GENERATED_(C6)
  6
Continuous
 62
     7
100
AcDbCircle
 10
37.55311136
 20
255.8317964703
 30
0.0
 40
20.90000000000001
100
AcDbArc
 50
159.957972508
 51
184.3122781956
  0
ARC
  5
1C5
330
172
100
AcDbEntity
  8
$DDT_AUDIT_GENERATED_(CC)
  6
Continuous
 62
     7
100
AcDbCircle
 10
37.55311136
 20
255.8317964703
 30
0.0
 40
24.7499999999987
100
AcDbArc
 50
57.438388637
 51
85.3649842547
  0
ARC
  5
1C6
330
172
100
AcDbEntity
  8
$DDT_AUDIT_GENERATED_(CC)
  6
Continuous
 62
     7
100
AcDbCircle
 10
37.55311136
 20
255.8317964703
 30
0.0
 40
24.7499999999987
100
AcDbArc
 50
94.6350157458
 51
212.5827110007
  0
SPLINE
  5
1C7
330
172
100
AcDbEntity
  8
$DDT_AUDIT_GENERATED_(CC)
  6
Continuous
 62
     7
100
AcDbSpline
210
0.0
220
0.0
230
1.0
 70
     8
 71
     3
 72
    20
 73
    16
 74
     0
 42
0.0000000000527317
 43
0.0000000001
 40
0.3724103500010939
 40
0.3724103500010939
 40
0.3724103500010939
 40
0.3724103500010939
 40
0.375
 40
0.375
 40
0.4375
 40
0.4375
 40
0.5
 40
0.5
 40
0.5625
 40
0.5625
 40
0.625
 40
0.625
 40
0.6875
 40
0.6875
 40
0.7393704873108097
 40
0.7393704873108097
 40
0.7393704873108097
 40
0.7393704873108097
 10
16.68786790929916
 20
234.2762343222405
 30
0.0
 10
16.57093840721437
 20
234.3893780059139
 30
0.0
 10
16.45493707904061
 20
234.5034833773099
 30
0.0
 10
13.56307520077572
 20
237.3953408495221
 30
0.0
 10
11.33948419478109
 20
240.7231744748435
 30
0.0
 10
8.33388718967333
 20
247.9793118927746
 30
0.0
 10
7.553063764636658
 20
251.904760705162
 30
0.0
 10
7.553057781447013
 20
259.7587497288988
 30
0.0
 10
8.333875225648164
 20
263.6841997309484
 30
0.0
 10
11.33946117526302
 20
270.9403417282145
 30
0.0
 10
13.56304711095013
 20
274.2681787414072
 30
0.0
 10
19.11665177824512
 20
279.8217918702101
 30
0.0
 10
22.4444854035665
 20
282.0453828762047
 30
0.0
 10
29.08358918343035
 20
284.7953956292774
 30
0.0
 10
32.29945376603184
 20
285.5453277789155
 30
0.0
 10
35.55103773517046
 20
285.7643395984026
 30
0.0
  0
SPLINE
  5
1C8
330
172
100
AcDbEntity
  8
$DDT_AUDIT_GENERATED_(CC)
  6
Continuous
 62
     7
100
AcDbSpline
210
0.0
220
0.0
230
1.0
 70
     8
 71
     3
 72
    12
 73
     8
 74
     0
 42
0.0000000000527687
 43
0.0000000001
 40
0.7606299926496488
 40
0.7606299926496488
 40
0.7606299926496488
 40
0.7606299926496488
 40
0.8125
 40
0.8125
 40
0.875
 40
0.875
 40
0.8775965869376786
 40
0.8775965869376786
 40
0.8775965869376786
 40
0.8775965869376786
 10
39.55518492038011
 20
285.7643365691198
 30
0.0
 10
42.8067384750947
 20
285.5453219050692
 30
0.0
 10
46.02257254843734
 20
284.7953969929192
 30
0.0
 10
52.66165265693757
 20
282.0454058957228
 30
0.0
 10
55.98948967013012
 20
279.8218199600356
 30
0.0
 10
58.88165974898894
 20
276.9296542876991
 30
0.0
 10
58.99606840259728
 20
276.8133398582481
 30
0.0
 10
59.10951017872294
 20
276.6960923221685
 30
0.0
  0
ELLIPSE
  5
1C9
330
172
100
AcDbEntity
  8
$DDT_AUDIT_GENERATED_(153)
  6
Continuous
 62
     7
100
AcDbEllipse
 10
37.5531113599
 20
297.7732258757
 30
0.0
 11
-1.999999999999999
 21
0.0
 31
0.0
210
0.0
220
0.0
230
1.0
 40
0.0000334824
 41
0.0
 42
6.283185307179586
  0
LINE
  5
1CA
330
172
100
AcDbEntity
  8
$DDT_AUDIT_GENERATED_(153)
  6
Continuous
 62
     7
100
AcDbLine
 10
39.5531113599
 20
284.3059385233
 30
0.0
 11
39.5531113599
 21
297.7732258757
 31
0.0
  0
LINE
  5
1CB
330
172
100
AcDbEntity
  8
$DDT_AUDIT_GENERATED_(153)
  6
Continuous
 62
     7
100
AcDbLine
 10
35.5531113599
 20
297.7732258757
 30
0.0
 11
35.5531113599
 21
284.3059385233
 31
0.0
  0
LINE
  5
1CC
330
172
100
AcDbEntity
  8
$DDT_AUDIT_GENERATED_(153)
  6
Continuous
 62
     7
100
AcDbLine
 10
35.5531113599
 20
284.3059385233
 30
0.0
 11
35.5531113599
 21
281.4528383833
 31
0.0
  0
LINE
  5
1CD
330
172
100
AcDbEntity
  8
$DDT_AUDIT_GENERATED_(153)
  6
Continuous
 62
     7
100
AcDbLine
 10
39.5531113599
 20
281.4528383833
 30
0.0
 11
39.5531113599
 21
284.3059385233
 31
0.0
  0
LINE
  5
1CE
330
172
100
AcDbEntity
  8
$DDT_AUDIT_GENERATED_(153)
  6
Continuous
 62
     7
100
AcDbLine
 10
39.5531113599
 20
276.6821855144
 30
0.0
 11
39.5531113599
 21
281.4528383833
 31
0.0
  0
LINE
  5
1CF
330
172
100
AcDbEntity
  8
$DDT_AUDIT_GENERATED_(153)
  6
Continuous
 62
     7
100
AcDbLine
 10
35.5531113599
 20
281.4528383833
 30
0.0
 11
35.5531113599
 21
276.6301691114
 31
0.0
  0
LINE
  5
1D0
330
172
100
AcDbEntity
  8
$DDT_AUDIT_GENERATED_(D3)
  6
Continuous
 62
     7
100
AcDbLine
 10
113.4607548202
 20
251.1718640459
 30
0.0
 11
113.3736330721
 21
250.5442211312
 31
0.0
  0
LINE
  5
1D1
330
172
100
AcDbEntity
  8
$DDT_AUDIT_GENERATED_(D3)
  6
Continuous
 62
     7
100
AcDbLine
 10
113.7429775053
 20
254.6550748238
 30
0.0
 11
113.6796148509
 21
253.3898211765
 31
0.0
  0
LINE
  5
1D2
330
172
100
AcDbEntity
  8
$DDT_AUDIT_GENERATED_(D3)
  6
Continuous
 62
     7
100
AcDbLine
 10
113.7531928734
 20
256.6333368699
 30
0.0
 11
113.7619920505
 21
255.7436638716
 31
0.0
  0
LINE
  5
1D3
330
172
100
AcDbEntity
  8
$DDT_AUDIT_GENERATED_(D3)
  6
Continuous
 62
     7
100
AcDbLine
 10
113.5281191823
 20
259.9383744862
 30
0.0
 11
113.6333975118
 21
258.8793626099
 31
0.0
  0
LINE
  5
1D4
330
172
100
AcDbEntity
  8
$DDT_AUDIT_GENERATED_(D3)
  6
Continuous
 62
     7
100
AcDbLine
 10
113.3736330721
 20
250.5442211312
 30
0.0
 11
113.0824835724
 21
248.8527894861
 31
0.0
  0
LINE
  5
1D5
330
172
100
AcDbEntity
  8
$DDT_AUDIT_GENERATED_(D3)
  6
Continuous
 62
     7
100
AcDbLine
 10
113.7531928734
 20
256.6333368699
 30
0.0
 11
113.6333975118
 21
258.8793626099
 31
0.0
  0
LINE
  5
1D6
330
172
100
AcDbEntity
  8
$DDT_AUDIT_GENERATED_(D3)
  6
Continuous
 62
     7
100
AcDbLine
 10
113.6796148509
 20
253.3898211765
 30
0.0
 11
113.634908801
 21
252.8005528095
 31
0.0
  0
ARC
  5
1D7
330
172
100
AcDbEntity
  8
$DDT_AUDIT_GENERATED_(D3)
  6
Continuous
 62
     7
100
AcDbCircle
 10
77.9196010849
 20
255.8811102229
 30
0.0
 40
35.83867282551926
100
AcDbArc
 50
8.0766907872
 51
15.1876625209
  0
SPLINE
  5
1D8
330
172
100
AcDbEntity
  8
$DDT_AUDIT_GENERATED_(D3)
  6
Continuous
 62
     7
100
AcDbSpline
210
0.0
220
0.0
230
1.0
 70
     8
 71
     3
 72
    14
 73
    10
 74
     0
 42
0.0000000010486974
 43
0.0000000001
 40
0.0082117142469705
 40
0.0082117142469705
 40
0.0082117142469705
 40
0.0082117142469705
 40
0.2500000000000001
 40
0.2500000000000001
 40
0.5000000000000001
 40
0.5000000000000001
 40
0.75
 40
0.75
 40
0.9104043362399512
 40
0.9104043362399512
 40
0.9104043362399512
 40
0.9104043362399512
 10
112.3084928580626
 20
253.7078054085721
 30
0.0
 10
112.2871647487303
 20
252.4461898168902
 30
0.0
 10
112.2697264194348
 20
251.2101800090337
 30
0.0
 10
112.2396998665168
 20
248.9594001637777
 30
0.0
 10
112.2263963686438
 20
247.9508676945559
 30
0.0
 10
112.199128880791
 20
246.3578983652715
 30
0.0
 10
112.1850122181806
 20
245.7658831726278
 30
0.0
 10
112.1685872836612
 20
245.2192107213273
 30
0.0
 10
112.1641163756069
 20
245.1095648392942
 30
0.0
 10
112.16254957903
 20
245.1065339292001
 30
0.0
  0
SPLINE
  5
1D9
330
172
100
AcDbEntity
  8
$DDT_AUDIT_GENERATED_(D3)
  6
Continuous
 62
     7
100
AcDbSpline
210
0.0
220
0.0
230
1.0
 70
     8
 71
     3
 72
     8
 73
     4
 74
     0
 42
0.0000000089324043
 43
0.0000000001
 40
0.8360942273410603
 40
0.8360942273410603
 40
0.8360942273410603
 40
0.8360942273410603
 40
1.0
 40
1.0
 40
1.0
 40
1.0
 10
112.5106432465589
 20
265.3311691053456
 30
0.0
 10
112.5098555727381
 20
265.3923799194777
 30
0.0
 10
112.508310068617
 20
265.3723367771526
 30
0.0
 10
112.5065340471998
 20
265.2701750407949
 30
0.0
  0
LINE
  5
1DA
330
172
100
AcDbEntity
  8
$DDT_AUDIT_GENERATED_(D3)
  6
Continuous
 62
     7
100
AcDbLine
 10
113.7567836249
 20
255.2115778393
 30
0.0
 11
113.7619920505
 21
255.7436638716
 31
0.0
  0
ARC
  5
1DB
330
172
100
AcDbEntity
  8
$DDT_AUDIT_GENERATED_(D3)
  6
Continuous
 62
     7
100
AcDbCircle
 10
77.6531345582
 20
255.8380236909
 30
0.0
 40
36.10855021216327
100
AcDbArc
 50
6.5203583206
 51
8.0849753131
  0
LINE
  5
1DC
330
172
100
AcDbEntity
  8
$DDT_AUDIT_GENERATED_(D3)
  6
Continuous
 62
     7
100
AcDbLine
 10
113.7565314318
 20
255.2014123333
 30
0.0
 11
113.7429775053
 21
254.6550748238
 31
0.0
  0
LINE
  5
1DD
330
172
100
AcDbEntity
  8
$DDT_AUDIT_GENERATED_(D3)
  6
Continuous
 62
     7
100
AcDbLine
 10
113.756780629
 20
255.2114019728
 30
0.0
 11
113.756937634
 21
255.2206186477
 31
0.0
  0
LINE
  5
1DE
330
172
100
AcDbEntity
  8
$DDT_AUDIT_GENERATED_(D3)
  6
Continuous
 62
     7
100
AcDbLine
 10
113.7535057661
 20
255.1605650738
 30
0.0
 11
113.7567814123
 21
255.2114477051
 31
0.0
  0
LINE
  5
1DF
330
172
100
AcDbEntity
  8
$DDT_AUDIT_GENERATED_(D3)
  6
Continuous
 62
     7
100
AcDbLine
 10
113.7224832828
 20
254.6786737224
 30
0.0
 11
113.7535057661
 21
255.1605650738
 31
0.0
  0
ARC
  5
1E0
330
172
100
AcDbEntity
  8
$DDT_AUDIT_GENERATED_(D3)
  6
Continuous
 62
     7
100
AcDbCircle
 10
78.823433883
 20
255.4822775029
 30
0.0
 40
34.90830027436314
100
AcDbArc
 50
342.7309730709
 51
358.6809104911
  0
LINE
  5
1E1
330
172
100
AcDbEntity
  8
$DDT_AUDIT_GENERATED_(D3)
  6
Continuous
 62
     7
100
AcDbLine
 10
113.7566083799
 20
255.2014104355
 30
0.0
 11
113.7567870338
 21
255.2117756207
 31
0.0
  0
ARC
  5
1E2
330
172
100
AcDbEntity
  8
$DDT_AUDIT_GENERATED_(D3)
  6
Continuous
 62
     7
100
AcDbCircle
 10
78.9552589994
 20
256.1603526464
 30
0.0
 40
34.78590344052947
100
AcDbArc
 50
3.5486252163
 51
4.3661039506
  0
ARC
  5
1E3
330
172
100
AcDbEntity
  8
$DDT_AUDIT_GENERATED_(D3)
  6
Continuous
 62
     7
100
AcDbCircle
 10
78.9552589994
 20
256.1603526464
 30
0.0
 40
34.78590344052947
100
AcDbArc
 50
13.4012191975
 51
15.3224043408
  0
LINE
  5
1E5
330
172
100
AcDbEntity
  8
DV3_Standard
  6
CENTER2
 62
     7
100
AcDbLine
 10
57.6392512202
 20
255.9883650441
 30
0.0
 11
17.6392521143
 21
255.9883650441
 31
0.0
  0
LINE
  5
1E6
330
172
100
AcDbEntity
  8
DV3_Standard
  6
CENTER2
 62
     7
100
AcDbLine
 10
37.6392516672
 20
275.9883645971
 30
0.0
 11
37.6392516672
 21
235.9883654911
 31
0.0
  0
LINE
  5
1E7
330
172
100
AcDbEntity
  8
DV3_Standard
  6
CENTER2
 62
     7
100
AcDbLine
 10
62.6392511084
 20
255.9883650441
 30
0.0
 11
61.891373394
 21
255.9883650441
 31
0.0
  0
LINE
  5
1E8
330
172
100
AcDbEntity
  8
DV3_Standard
  6
CENTER2
 62
     7
100
AcDbLine
 10
37.6392516672
 20
280.9883644853
 30
0.0
 11
37.6392516672
 21
280.2404867709
 31
0.0
  0
LINE
  5
1E9
330
172
100
AcDbEntity
  8
DV3_Standard
  6
CENTER2
 62
     7
100
AcDbLine
 10
12.639252226
 20
255.9883650441
 30
0.0
 11
13.3871299404
 21
255.9883650441
 31
0.0
  0
LINE
  5
1EA
330
172
100
AcDbEntity
  8
DV3_Standard
  6
CENTER2
 62
     7
100
AcDbLine
 10
37.6392516672
 20
230.9883656029
 30
0.0
 11
37.6392516672
 21
231.7362433173
 31
0.0
  0
ENDBLK
  5
1EC
330
172
100
AcDbEntity
  8
0
100
AcDbBlockEnd
  0
ENDSEC
  0
SECTION
  2
ENTITIES
  0
INSERT
  5
5F
330
1F
100
AcDbEntity
  8
Default
100
AcDbBlockReference
  2
SE
 10
0.0
 20
0.0
 30
0.0
  0
INSERT
  5
109
330
1F
100
AcDbEntity
  8
Default
100
AcDbBlockReference
  2
SE1
 10
0.0
 20
0.0
 30
0.0
  0
INSERT
  5
173
330
1F
100
AcDbEntity
  8
Default
100
AcDbBlockReference
  2
SE2
 10
0.0
 20
0.0
 30
0.0
  0
TEXT
  5
1EE
330
1F
100
AcDbEntity
  8
Default
  6
Continuous
 62
     7
100
AcDbText
 10
5.9362635081
 20
53.4225120485
 30
0.0
 40
10.0
  1
Grohe AG^J
  7
SEACAD_seiso_ttf
 11
5.9362635081
 21
63.4225120485
 31
0.0
100
AcDbText
 73
     3
  0
TEXT
  5
1EF
330
1F
100
AcDbEntity
  8
Default
  6
Continuous
 62
     7
100
AcDbText
 10
5.9362635081
 20
37.0588756849
 30
0.0
 40
10.0
  1
 
  7
SEACAD_seiso_ttf
 11
5.9362635081
 21
47.0588756849
 31
0.0
100
AcDbText
 73
     3
  0
TEXT
  5
1F0
330
1F
100
AcDbEntity
  8
Default
  6
Continuous
 62
     7
100
AcDbText
 10
5.9362635081
 20
20.6952393213
 30
0.0
 40
10.0
  1
ecn: 
  7
SEACAD_seiso_ttf
 11
5.9362635081
 21
30.6952393213
 31
0.0
100
AcDbText
 73
     3
  0
TEXT
  5
1F1
330
1F
100
AcDbEntity
  8
Default
  6
Continuous
 62
     7
100
AcDbText
 10
5.9362635081
 20
4.3316029576
 30
0.0
 40
10.0
  1
unit: mm
  7
SEACAD_seiso_ttf
 11
5.9362635081
 21
14.3316029576
 31
0.0
100
AcDbText
 73
     3
  0
LINE
  5
1F2
330
1F
100
AcDbEntity
  8
Default
  6
Continuous
 62
     7
100
AcDbLine
 10
0.0
 20
0.0
 30
0.0
 11
100.0
 21
0.0
 31
0.0
  0
LINE
  5
1F3
330
1F
100
AcDbEntity
  8
Default
  6
Continuous
 62
     7
100
AcDbLine
 10
0.0
 20
0.0
 30
0.0
 11
0.0
 21
100.0
 31
0.0
  0
TEXT
  5
1F4
330
1F
100
AcDbEntity
  8
Default
  6
Continuous
 62
     7
100
AcDbText
 10
24.3923665681
 20
-18.2375342018
 30
0.0
 40
10.0
  1
100 mm
  7
SEACAD_seiso_ttf
 11
24.3923665681
 21
-8.2375342018
 31
0.0
100
AcDbText
 73
     3
  0
TEXT
  5
1F5
330
1F
100
AcDbEntity
  8
Default
  6
Continuous
 62
     7
100
AcDbText
 10
-7.6150308803
 20
24.6231930421
 30
0.0
 40
10.0
  1
100 mm
 50
90.0
  7
SEACAD_seiso_ttf
 11
-17.6150308803
 21
24.6231930421
 31
0.0
100
AcDbText
 73
     3
  0
TEXT
  5
1F6
330
1F
100
AcDbEntity
  8
Default
  6
Continuous
 62
     7
100
AcDbText
 10
28.4878128572
 20
20.0907663715
 30
0.0
 40
10.0
  1
216065
  7
SEACAD_seiso_ttf
 11
28.4878128572
 21
30.0907663715
 31
0.0
100
AcDbText
 73
     3
  0
TEXT
  5
1F7
330
1F
100
AcDbEntity
  8
Default
  6
Continuous
 62
     7
100
AcDbText
 10
5.9012241913
 20
36.7242780188
 30
0.0
 40
10.0
  1
32191000
  7
SEACAD_seiso_ttf
 11
5.9012241913
 21
46.7242780188
 31
0.0
100
AcDbText
 73
     3
  0
ENDSEC
  0
SECTION
  2
OBJECTS
  0
DICTIONARY
  5
C
330
0
100
AcDbDictionary
281
     1
  3
ACAD_GROUP
350
D
  3
ACAD_LAYOUT
350
1A
  3
ACAD_MLEADERSTYLE
350
1FB
  3
ACAD_MLINESTYLE
350
17
  3
ACAD_PLOTSETTINGS
350
19
  3
ACAD_PLOTSTYLENAME
350
E
  3
ACAD_SCALELIST
350
3B
  3
ACAD_TABLESTYLE
350
1FA
  3
ACAD_VISUALSTYLE
350
2A
  3
AcDbVariableDictionary
350
1F8
  0
DICTIONARY
  5
D
102
{ACAD_REACTORS
330
C
102
}
330
C
100
AcDbDictionary
281
     1
  0
DICTIONARY
  5
1A
102
{ACAD_REACTORS
330
C
102
}
330
C
100
AcDbDictionary
281
     1
  3
Layout1
350
1E
  3
Model
350
22
  0
DICTIONARY
  5
1FB
102
{ACAD_REACTORS
330
C
102
}
330
C
100
AcDbDictionary
281
     1
  0
DICTIONARY
  5
17
102
{ACAD_REACTORS
330
C
102
}
330
C
100
AcDbDictionary
281
     1
  3
Standard
350
18
  0
DICTIONARY
  5
19
102
{ACAD_REACTORS
330
C
102
}
330
C
100
AcDbDictionary
281
     1
  0
ACDBDICTIONARYWDFLT
  5
E
102
{ACAD_REACTORS
330
C
102
}
330
C
100
AcDbDictionary
281
     1
  3
Normal
350
F
100
AcDbDictionaryWithDefault
340
F
  0
DICTIONARY
  5
3B
102
{ACAD_REACTORS
330
C
102
}
330
C
100
AcDbDictionary
281
     1
  3
A0
350
3C
  3
A1
350
3D
  3
A2
350
3E
  3
A3
350
3F
  3
A4
350
40
  3
A5
350
41
  3
A6
350
42
  3
A7
350
43
  3
A8
350
44
  3
A9
350
45
  3
B0
350
46
  3
B1
350
47
  3
B2
350
48
  3
B3
350
49
  3
B4
350
4A
  3
B5
350
4B
  3
B6
350
4C
  3
B7
350
4D
  3
B8
350
4E
  3
B9
350
4F
  3
C0
350
50
  3
C1
350
51
  3
C2
350
52
  3
C3
350
53
  3
C4
350
54
  3
C5
350
55
  3
C6
350
56
  3
C7
350
57
  3
C8
350
58
  3
C9
350
59
  3
D0
350
5A
  3
D1
350
5B
  3
D2
350
5C
  0
DICTIONARY
  5
1FA
102
{ACAD_REACTORS
330
C
102
}
330
C
100
AcDbDictionary
281
     1
  0
DICTIONARY
  5
2A
102
{ACAD_REACTORS
330
C
102
}
330
C
100
AcDbDictionary
281
     1
  3
2dWireframe
350
2F
  3
3D Hidden
350
31
  3
3dWireframe
350
30
  3
Basic
350
32
  3
Brighten
350
36
  3
ColorChange
350
3A
  3
Conceptual
350
34
  3
Dim
350
35
  3
Facepattern
350
39
  3
Flat
350
2B
  3
FlatWithEdges
350
2C
  3
Gouraud
350
2D
  3
GouraudWithEdges
350
2E
  3
Linepattern
350
38
  3
Realistic
350
33
  3
Thicken
350
37
  0
DICTIONARY
  5
1F8
102
{ACAD_REACTORS
330
C
102
}
330
C
100
AcDbDictionary
281
     1
  3
CANNOSCALE
350
1F9
  3
PSOLHEIGHT
350
1FD
  3
PSOLWIDTH
350
1FC
  0
LAYOUT
  5
1E
102
{ACAD_REACTORS
330
1A
102
}
330
1A
100
AcDbPlotSettings
  1

  2
none_device
  4

  6

 40
0.0
 41
0.0
 42
0.0
 43
0.0
 44
0.0
 45
0.0
 46
0.0
 47
0.0
 48
0.0
 49
0.0
140
0.0
141
0.0
142
1.0
143
1.0
 70
   688
 72
     0
 73
     0
 74
     5
  7

 75
    16
147
1.0
148
0.0
149
0.0
100
AcDbLayout
  1
Layout1
 70
     1
 71
     1
 10
0.0
 20
0.0
 11
1682.0
 21
2378.0
 12
0.0
 22
0.0
 32
0.0
 14
0.0
 24
0.0
 34
0.0
 15
1682.0
 25
2378.0
 35
0.0
146
0.0
 13
0.0
 23
0.0
 33
0.0
 16
1.0
 26
0.0
 36
0.0
 17
0.0
 27
1.0
 37
0.0
 76
     0
330
1B
  0
LAYOUT
  5
22
102
{ACAD_REACTORS
330
1A
102
}
330
1A
100
AcDbPlotSettings
  1

  2
none_device
  4

  6

 40
0.0
 41
0.0
 42
0.0
 43
0.0
 44
0.0
 45
0.0
 46
0.0
 47
0.0
 48
0.0
 49
0.0
140
0.0
141
0.0
142
1.0
143
1.0
 70
  1712
 72
     0
 73
     0
 74
     0
  7

 75
     0
147
1.0
148
0.0
149
0.0
100
AcDbLayout
  1
Model
 70
     1
 71
     0
 10
0.0
 20
0.0
 11
1682.0
 21
2378.0
 12
0.0
 22
0.0
 32
0.0
 14
0.0
 24
0.0
 34
0.0
 15
1682.0
 25
2378.0
 35
0.0
146
0.0
 13
0.0
 23
0.0
 33
0.0
 16
1.0
 26
0.0
 36
0.0
 17
0.0
 27
1.0
 37
0.0
 76
     0
330
1F
331
29
  0
MLINESTYLE
  5
18
102
{ACAD_REACTORS
330
17
102
}
330
17
100
AcDbMlineStyle
  2
Standard
 70
     0
  3

 62
   256
 51
90.0
 52
90.0
 71
     2
 49
0.5
 62
   256
  6
BYLAYER
 49
-0.5
 62
   256
  6
BYLAYER
  0
ACDBPLACEHOLDER
  5
F
102
{ACAD_REACTORS
330
E
102
}
330
E
  0
SCALE
  5
3C
102
{ACAD_REACTORS
330
3B
102
}
330
3B
100
AcDbScale
 70
     0
300
1:1
140
1.0
141
1.0
290
     1
  0
SCALE
  5
3D
102
{ACAD_REACTORS
330
3B
102
}
330
3B
100
AcDbScale
 70
     0
300
1:2
140
1.0
141
2.0
290
     0
  0
SCALE
  5
3E
102
{ACAD_REACTORS
330
3B
102
}
330
3B
100
AcDbScale
 70
     0
300
1:4
140
1.0
141
4.0
290
     0
  0
SCALE
  5
3F
102
{ACAD_REACTORS
330
3B
102
}
330
3B
100
AcDbScale
 70
     0
300
1:5
140
1.0
141
5.0
290
     0
  0
SCALE
  5
40
102
{ACAD_REACTORS
330
3B
102
}
330
3B
100
AcDbScale
 70
     0
300
1:8
140
1.0
141
8.0
290
     0
  0
SCALE
  5
41
102
{ACAD_REACTORS
330
3B
102
}
330
3B
100
AcDbScale
 70
     0
300
1:10
140
1.0
141
10.0
290
     0
  0
SCALE
  5
42
102
{ACAD_REACTORS
330
3B
102
}
330
3B
100
AcDbScale
 70
     0
300
1:16
140
1.0
141
16.0
290
     0
  0
SCALE
  5
43
102
{ACAD_REACTORS
330
3B
102
}
330
3B
100
AcDbScale
 70
     0
300
1:20
140
1.0
141
20.0
290
     0
  0
SCALE
  5
44
102
{ACAD_REACTORS
330
3B
102
}
330
3B
100
AcDbScale
 70
     0
300
1:30
140
1.0
141
30.0
290
     0
  0
SCALE
  5
45
102
{ACAD_REACTORS
330
3B
102
}
330
3B
100
AcDbScale
 70
     0
300
1:40
140
1.0
141
40.0
290
     0
  0
SCALE
  5
46
102
{ACAD_REACTORS
330
3B
102
}
330
3B
100
AcDbScale
 70
     0
300
1:50
140
1.0
141
50.0
290
     0
  0
SCALE
  5
47
102
{ACAD_REACTORS
330
3B
102
}
330
3B
100
AcDbScale
 70
     0
300
1:100
140
1.0
141
100.0
290
     0
  0
SCALE
  5
48
102
{ACAD_REACTORS
330
3B
102
}
330
3B
100
AcDbScale
 70
     0
300
2:1
140
2.0
141
1.0
290
     0
  0
SCALE
  5
49
102
{ACAD_REACTORS
330
3B
102
}
330
3B
100
AcDbScale
 70
     0
300
4:1
140
4.0
141
1.0
290
     0
  0
SCALE
  5
4A
102
{ACAD_REACTORS
330
3B
102
}
330
3B
100
AcDbScale
 70
     0
300
8:1
140
8.0
141
1.0
290
     0
  0
SCALE
  5
4B
102
{ACAD_REACTORS
330
3B
102
}
330
3B
100
AcDbScale
 70
     0
300
10:1
140
10.0
141
1.0
290
     0
  0
SCALE
  5
4C
102
{ACAD_REACTORS
330
3B
102
}
330
3B
100
AcDbScale
 70
     0
300
100:1
140
100.0
141
1.0
290
     0
  0
SCALE
  5
4D
102
{ACAD_REACTORS
330
3B
102
}
330
3B
100
AcDbScale
 70
     0
300
1/128" = 1'-0"
140
0.0078125
141
12.0
290
     0
  0
SCALE
  5
4E
102
{ACAD_REACTORS
330
3B
102
}
330
3B
100
AcDbScale
 70
     0
300
1/64" = 1'-0"
140
0.015625
141
12.0
290
     0
  0
SCALE
  5
4F
102
{ACAD_REACTORS
330
3B
102
}
330
3B
100
AcDbScale
 70
     0
300
1/32" = 1'-0"
140
0.03125
141
12.0
290
     0
  0
SCALE
  5
50
102
{ACAD_REACTORS
330
3B
102
}
330
3B
100
AcDbScale
 70
     0
300
1/16" = 1'-0"
140
0.0625
141
12.0
290
     0
  0
SCALE
  5
51
102
{ACAD_REACTORS
330
3B
102
}
330
3B
100
AcDbScale
 70
     0
300
3/32" = 1'-0"
140
0.09375
141
12.0
290
     0
  0
SCALE
  5
52
102
{ACAD_REACTORS
330
3B
102
}
330
3B
100
AcDbScale
 70
     0
300
1/8" = 1'-0"
140
0.125
141
12.0
290
     0
  0
SCALE
  5
53
102
{ACAD_REACTORS
330
3B
102
}
330
3B
100
AcDbScale
 70
     0
300
3/16" = 1'-0"
140
0.1875
141
12.0
290
     0
  0
SCALE
  5
54
102
{ACAD_REACTORS
330
3B
102
}
330
3B
100
AcDbScale
 70
     0
300
1/4" = 1'-0"
140
0.25
141
12.0
290
     0
  0
SCALE
  5
55
102
{ACAD_REACTORS
330
3B
102
}
330
3B
100
AcDbScale
 70
     0
300
3/8" = 1'-0"
140
0.375
141
12.0
290
     0
  0
SCALE
  5
56
102
{ACAD_REACTORS
330
3B
102
}
330
3B
100
AcDbScale
 70
     0
300
1/2" = 1'-0"
140
0.5
141
12.0
290
     0
  0
SCALE
  5
57
102
{ACAD_REACTORS
330
3B
102
}
330
3B
100
AcDbScale
 70
     0
300
3/4" = 1'-0"
140
0.75
141
12.0
290
     0
  0
SCALE
  5
58
102
{ACAD_REACTORS
330
3B
102
}
330
3B
100
AcDbScale
 70
     0
300
1" = 1'-0"
140
1.0
141
12.0
290
     0
  0
SCALE
  5
59
102
{ACAD_REACTORS
330
3B
102
}
330
3B
100
AcDbScale
 70
     0
300
1-1/2" = 1'-0"
140
1.5
141
12.0
290
     0
  0
SCALE
  5
5A
102
{ACAD_REACTORS
330
3B
102
}
330
3B
100
AcDbScale
 70
     0
300
3" = 1'-0"
140
3.0
141
12.0
290
     0
  0
SCALE
  5
5B
102
{ACAD_REACTORS
330
3B
102
}
330
3B
100
AcDbScale
 70
     0
300
6" = 1'-0"
140
6.0
141
12.0
290
     0
  0
SCALE
  5
5C
102
{ACAD_REACTORS
330
3B
102
}
330
3B
100
AcDbScale
 70
     0
300
1'-0" = 1'-0"
140
12.0
141
12.0
290
     0
  0
VISUALSTYLE
  5
2F
102
{ACAD_REACTORS
330
2A
102
}
330
2A
100
AcDbVisualStyle
  2
2dWireframe
 70
     4
 71
     0
 72
     2
 73
     0
 90
        0
 40
-0.6
 41
-30.0
 62
     5
 63
     7
 74
     1
 91
        4
 64
     7
 65
   257
 75
     1
175
     1
 42
1.0
 92
        0
 66
   257
 43
1.0
 76
     1
 77
     6
 78
     2
 67
     7
 79
     5
170
     0
171
     0
290
     0
174
     0
 93
        1
 44
0.0
173
     0
291
     0
 45
0.0
1001
ACAD
1000
AcDbSavedByObjectVersion
1070
     0
  0
VISUALSTYLE
  5
31
102
{ACAD_REACTORS
330
2A
102
}
330
2A
100
AcDbVisualStyle
  2
3D Hidden
 70
     6
 71
     1
 72
     2
 73
     2
 90
        0
 40
-0.6
 41
-30.0
 62
     5
 63
     7
 74
     2
 91
        2
 64
     7
 65
   257
 75
     2
175
     1
 42
40.0
 92
        0
 66
   257
 43
1.0
 76
     1
 77
     6
 78
     2
 67
     7
 79
     3
170
     0
171
     0
290
     0
174
     0
 93
        1
 44
0.0
173
     0
291
     0
 45
0.0
1001
ACAD
1000
AcDbSavedByObjectVersion
1070
     0
  0
VISUALSTYLE
  5
30
102
{ACAD_REACTORS
330
2A
102
}
330
2A
100
AcDbVisualStyle
  2
3dWireframe
 70
     5
 71
     0
 72
     2
 73
     0
 90
        0
 40
-0.6
 41
-30.0
 62
     5
 63
     7
 74
     1
 91
        4
 64
     7
 65
   257
 75
     1
175
     1
 42
1.0
 92
        0
 66
   257
 43
1.0
 76
     1
 77
     6
 78
     2
 67
     7
 79
     5
170
     0
171
     0
290
     0
174
     0
 93
        1
 44
0.0
173
     0
291
     0
 45
0.0
1001
ACAD
1000
AcDbSavedByObjectVersion
1070
     0
  0
VISUALSTYLE
  5
32
102
{ACAD_REACTORS
330
2A
102
}
330
2A
100
AcDbVisualStyle
  2
Basic
 70
     7
 71
     1
 72
     0
 73
     1
 90
        0
 40
-0.6
 41
-30.0
 62
     5
 63
     7
 74
     0
 91
        4
 64
     7
 65
   257
 75
     1
175
     1
 42
1.0
 92
        8
 66
     7
 43
1.0
 76
     1
 77
     6
 78
     2
 67
     7
 79
     5
170
     0
171
     0
290
     0
174
     0
 93
        1
 44
0.0
173
     0
291
     1
 45
0.0
1001
ACAD
1000
AcDbSavedByObjectVersion
1070
     0
  0
VISUALSTYLE
  5
36
102
{ACAD_REACTORS
330
2A
102
}
330
2A
100
AcDbVisualStyle
  2
Brighten
 70
    12
 71
     2
 72
     2
 73
     0
 90
        0
 40
-0.6
 41
-30.0
 62
     5
 63
     7
 74
     1
 91
        4
 64
     7
 65
   257
 75
     1
175
     1
 42
1.0
 92
        8
 66
     7
 43
1.0
 76
     1
 77
     6
 78
     2
 67
     7
 79
     5
170
     0
171
     0
290
     0
174
     0
 93
        1
 44
50.0
173
     0
291
     1
 45
0.0
1001
ACAD
1000
AcDbSavedByObjectVersion
1070
     0
  0
VISUALSTYLE
  5
3A
102
{ACAD_REACTORS
330
2A
102
}
330
2A
100
AcDbVisualStyle
  2
ColorChange
 70
    16
 71
     2
 72
     2
 73
     3
 90
        0
 40
-0.6
 41
-30.0
 62
     5
 63
     8
 74
     1
 91
        4
 64
     7
 65
   257
 75
     1
175
     1
 42
1.0
 92
        8
 66
     8
 43
1.0
 76
     1
 77
     6
 78
     2
 67
     7
 79
     5
170
     0
171
     0
290
     0
174
     0
 93
        1
 44
0.0
173
     0
291
     1
 45
0.0
1001
ACAD
1000
AcDbSavedByObjectVersion
1070
     0
  0
VISUALSTYLE
  5
34
102
{ACAD_REACTORS
330
2A
102
}
330
2A
100
AcDbVisualStyle
  2
Conceptual
 70
     9
 71
     3
 72
     2
 73
     0
 90
        0
 40
-0.6
 41
-30.0
 62
     5
 63
     7
 74
     2
 91
        2
 64
     7
 65
   257
 75
     1
175
     1
 42
40.0
 92
        8
 66
     7
 43
1.0
 76
     1
 77
     6
 78
     2
 67
     7
 79
     3
170
     0
171
     0
290
     0
174
     0
 93
        1
 44
0.0
173
     0
291
     0
 45
0.0
1001
ACAD
1000
AcDbSavedByObjectVersion
1070
     0
  0
VISUALSTYLE
  5
35
102
{ACAD_REACTORS
330
2A
102
}
330
2A
100
AcDbVisualStyle
  2
Dim
 70
    11
 71
     2
 72
     2
 73
     0
 90
        0
 40
-0.6
 41
-30.0
 62
     5
 63
     7
 74
     1
 91
        4
 64
     7
 65
   257
 75
     1
175
     1
 42
1.0
 92
        8
 66
     7
 43
1.0
 76
     1
 77
     6
 78
     2
 67
     7
 79
     5
170
     0
171
     0
290
     0
174
     0
 93
        1
 44
-50.0
173
     0
291
     1
 45
0.0
1001
ACAD
1000
AcDbSavedByObjectVersion
1070
     0
  0
VISUALSTYLE
  5
39
102
{ACAD_REACTORS
330
2A
102
}
330
2A
100
AcDbVisualStyle
  2
Facepattern
 70
    15
 71
     2
 72
     2
 73
     0
 90
        0
 40
-0.6
 41
-30.0
 62
     5
 63
     7
 74
     1
 91
        4
 64
     7
 65
   257
 75
     1
175
     1
 42
1.0
 92
        8
 66
     7
 43
1.0
 76
     1
 77
     6
 78
     2
 67
     7
 79
     5
170
     0
171
     0
290
     0
174
     0
 93
        1
 44
0.0
173
     0
291
     1
 45
0.0
1001
ACAD
1000
AcDbSavedByObjectVersion
1070
     0
  0
VISUALSTYLE
  5
2B
102
{ACAD_REACTORS
330
2A
102
}
330
2A
100
AcDbVisualStyle
  2
Flat
 70
     0
 71
     2
 72
     1
 73
     1
 90
        2
 40
-0.6
 41
30.0
 62
     5
 63
     7
 74
     0
 91
        4
 64
     7
 65
   257
 75
     1
175
     1
 42
1.0
 92
        8
 66
     7
 43
1.0
 76
     1
 77
     6
 78
     2
 67
     7
 79
     5
170
     0
171
     0
290
     0
174
     0
 93
       13
 44
0.0
173
     0
291
     1
 45
0.0
1001
ACAD
1000
AcDbSavedByObjectVersion
1070
     0
  0
VISUALSTYLE
  5
2C
102
{ACAD_REACTORS
330
2A
102
}
330
2A
100
AcDbVisualStyle
  2
FlatWithEdges
 70
     1
 71
     2
 72
     1
 73
     1
 90
        2
 40
-0.6
 41
30.0
 62
     5
 63
     7
 74
     1
 91
        4
 64
     7
 65
   257
 75
     1
175
     1
 42
1.0
 92
        0
 66
   257
 43
1.0
 76
     1
 77
     6
 78
     2
 67
     7
 79
     5
170
     0
171
     0
290
     0
174
     0
 93
       13
 44
0.0
173
     0
291
     1
 45
0.0
1001
ACAD
1000
AcDbSavedByObjectVersion
1070
     0
  0
VISUALSTYLE
  5
2D
102
{ACAD_REACTORS
330
2A
102
}
330
2A
100
AcDbVisualStyle
  2
Gouraud
 70
     2
 71
     2
 72
     2
 73
     1
 90
        2
 40
-0.6
 41
30.0
 62
     5
 63
     7
 74
     0
 91
        4
 64
     7
 65
   257
 75
     1
175
     1
 42
1.0
 92
        0
 66
     7
 43
1.0
 76
     1
 77
     6
 78
     2
 67
     7
 79
     5
170
     0
171
     0
290
     0
174
     0
 93
       13
 44
0.0
173
     0
291
     1
 45
0.0
1001
ACAD
1000
AcDbSavedByObjectVersion
1070
     0
  0
VISUALSTYLE
  5
2E
102
{ACAD_REACTORS
330
2A
102
}
330
2A
100
AcDbVisualStyle
  2
GouraudWithEdges
 70
     3
 71
     2
 72
     2
 73
     1
 90
        2
 40
-0.6
 41
30.0
 62
     5
 63
     7
 74
     1
 91
        4
 64
     7
 65
   257
 75
     1
175
     1
 42
1.0
 92
        0
 66
   257
 43
1.0
 76
     1
 77
     6
 78
     2
 67
     7
 79
     5
170
     0
171
     0
290
     0
174
     0
 93
       13
 44
0.0
173
     0
291
     1
 45
0.0
1001
ACAD
1000
AcDbSavedByObjectVersion
1070
     0
  0
VISUALSTYLE
  5
38
102
{ACAD_REACTORS
330
2A
102
}
330
2A
100
AcDbVisualStyle
  2
Linepattern
 70
    14
 71
     2
 72
     2
 73
     0
 90
        0
 40
-0.6
 41
-30.0
 62
     5
 63
     7
 74
     1
 91
        4
 64
     7
 65
   257
 75
     7
175
     7
 42
1.0
 92
        8
 66
     7
 43
1.0
 76
     1
 77
     6
 78
     2
 67
     7
 79
     5
170
     0
171
     0
290
     0
174
     0
 93
        1
 44
0.0
173
     0
291
     1
 45
0.0
1001
ACAD
1000
AcDbSavedByObjectVersion
1070
     0
  0
VISUALSTYLE
  5
33
102
{ACAD_REACTORS
330
2A
102
}
330
2A
100
AcDbVisualStyle
  2
Realistic
 70
     8
 71
     2
 72
     2
 73
     0
 90
        0
 40
-0.6
 41
-30.0
 62
     5
 63
     7
 74
     1
 91
        0
 64
     7
 65
   257
 75
     1
175
     1
 42
1.0
 92
        8
 66
     8
 43
1.0
 76
     1
 77
     6
 78
     2
 67
     7
 79
     5
170
     0
171
     0
290
     0
174
     0
 93
       13
 44
0.0
173
     0
291
     0
 45
0.0
1001
ACAD
1000
AcDbSavedByObjectVersion
1070
     0
  0
VISUALSTYLE
  5
37
102
{ACAD_REACTORS
330
2A
102
}
330
2A
100
AcDbVisualStyle
  2
Thicken
 70
    13
 71
     2
 72
     2
 73
     0
 90
        0
 40
-0.6
 41
-30.0
 62
     5
 63
     7
 74
     1
 91
        4
 64
     7
 65
   257
 75
     1
175
     1
 42
1.0
 92
       12
 66
     7
 43
1.0
 76
     1
 77
     6
 78
     2
 67
     7
 79
     5
170
     0
171
     0
290
     0
174
     0
 93
        1
 44
0.0
173
     0
291
     1
 45
0.0
1001
ACAD
1000
AcDbSavedByObjectVersion
1070
     0
  0
DICTIONARYVAR
  5
1F9
102
{ACAD_REACTORS
330
1F8
102
}
330
1F8
100
DictionaryVariables
280
     0
  1
1:1
  0
DICTIONARYVAR
  5
1FD
102
{ACAD_REACTORS
330
1F8
102
}
330
1F8
100
DictionaryVariables
280
     0
  1
80.000000
  0
DICTIONARYVAR
  5
1FC
102
{ACAD_REACTORS
330
1F8
102
}
330
1F8
100
DictionaryVariables
280
     0
  1
5.000000
  0
ENDSEC
  0
EOF
