  0
SECTION
  2
HEADER
  9
$ACADVER
  1
AC1015
  9
$ACADMAINTVER
 70
     6
  9
$DWGCODEPAGE
  3
ANSI_1252
  9
$INSBASE
 10
0.0
 20
0.0
 30
0.0
  9
$EXTMIN
 10
0.0
 20
0.0
 30
0.0
  9
$EXTMAX
 10
1682.0
 20
2378.0
 30
0.0
  9
$LIMMIN
 10
0.0
 20
0.0
  9
$LIMMAX
 10
1682.0
 20
2378.0
  9
$ORTHOMODE
 70
     0
  9
$REGENMODE
 70
     1
  9
$FILLMODE
 70
     1
  9
$QTEXTMODE
 70
     0
  9
$MIRRTEXT
 70
     1
  9
$LTSCALE
 40
1.0
  9
$ATTMODE
 70
     1
  9
$TEXTSIZE
 40
2.5
  9
$TRACEWID
 40
1.0
  9
$TEXTSTYLE
  7
Standard
  9
$CLAYER
  8
0
  9
$CELTYPE
  6
ByLayer
  9
$CECOLOR
 62
   256
  9
$CELTSCALE
 40
1.0
  9
$DISPSILH
 70
     0
  9
$DIMSCALE
 40
1.0
  9
$DIMASZ
 40
2.5
  9
$DIMEXO
 40
0.625
  9
$DIMDLI
 40
3.75
  9
$DIMRND
 40
0.0
  9
$DIMDLE
 40
0.0
  9
$DIMEXE
 40
1.25
  9
$DIMTP
 40
0.0
  9
$DIMTM
 40
0.0
  9
$DIMTXT
 40
2.5
  9
$DIMCEN
 40
2.5
  9
$DIMTSZ
 40
0.0
  9
$DIMTOL
 70
     0
  9
$DIMLIM
 70
     0
  9
$DIMTIH
 70
     0
  9
$DIMTOH
 70
     0
  9
$DIMSE1
 70
     0
  9
$DIMSE2
 70
     0
  9
$DIMTAD
 70
     1
  9
$DIMZIN
 70
     8
  9
$DIMBLK
  1

  9
$DIMASO
 70
     1
  9
$DIMSHO
 70
     1
  9
$DIMPOST
  1

  9
$DIMAPOST
  1

  9
$DIMALT
 70
     0
  9
$DIMALTD
 70
     3
  9
$DIMALTF
 40
0.0393700787
  9
$DIMLFAC
 40
1.0
  9
$DIMTOFL
 70
     1
  9
$DIMTVP
 40
0.0
  9
$DIMTIX
 70
     0
  9
$DIMSOXD
 70
     0
  9
$DIMSAH
 70
     0
  9
$DIMBLK1
  1

  9
$DIMBLK2
  1

  9
$DIMSTYLE
  2
ISO-25
  9
$DIMCLRD
 70
     0
  9
$DIMCLRE
 70
     0
  9
$DIMCLRT
 70
     0
  9
$DIMTFAC
 40
1.0
  9
$DIMGAP
 40
0.625
  9
$DIMJUST
 70
     0
  9
$DIMSD1
 70
     0
  9
$DIMSD2
 70
     0
  9
$DIMTOLJ
 70
     0
  9
$DIMTZIN
 70
     8
  9
$DIMALTZ
 70
     0
  9
$DIMALTTZ
 70
     0
  9
$DIMUPT
 70
     0
  9
$DIMDEC
 70
     2
  9
$DIMTDEC
 70
     2
  9
$DIMALTU
 70
     2
  9
$DIMALTTD
 70
     3
  9
$DIMTXSTY
  7
Standard
  9
$DIMAUNIT
 70
     0
  9
$DIMADEC
 70
     0
  9
$DIMALTRND
 40
0.0
  9
$DIMAZIN
 70
     0
  9
$DIMDSEP
 70
    44
  9
$DIMATFIT
 70
     3
  9
$DIMFRAC
 70
     0
  9
$DIMLDRBLK
  1

  9
$DIMLUNIT
 70
     2
  9
$DIMLWD
 70
    -2
  9
$DIMLWE
 70
    -2
  9
$DIMTMOVE
 70
     0
  9
$LUNITS
 70
     2
  9
$LUPREC
 70
     4
  9
$SKETCHINC
 40
1.0
  9
$FILLETRAD
 40
10.0
  9
$AUNITS
 70
     0
  9
$AUPREC
 70
     0
  9
$MENU
  1
.
  9
$ELEVATION
 40
0.0
  9
$PELEVATION
 40
0.0
  9
$THICKNESS
 40
0.0
  9
$LIMCHECK
 70
     0
  9
$CHAMFERA
 40
10.0
  9
$CHAMFERB
 40
10.0
  9
$CHAMFERC
 40
20.0
  9
$CHAMFERD
 40
0.0
  9
$SKPOLY
 70
     0
  9
$TDCREATE
 40
2455232.477817477
  9
$TDUCREATE
 40
2455232.43615081
  9
$TDUPDATE
 40
2455232.477817488
  9
$TDUUPDATE
 40
2455232.436150822
  9
$TDINDWG
 40
0.0000000116
  9
$TDUSRTIMER
 40
0.0000000116
  9
$USRTIMER
 70
     1
  9
$ANGBASE
 50
0.0
  9
$ANGDIR
 70
     0
  9
$PDMODE
 70
     0
  9
$PDSIZE
 40
0.0
  9
$PLINEWID
 40
0.0
  9
$SPLFRAME
 70
     0
  9
$SPLINETYPE
 70
     6
  9
$SPLINESEGS
 70
     8
  9
$HANDSEED
  5
169
  9
$SURFTAB1
 70
     6
  9
$SURFTAB2
 70
     6
  9
$SURFTYPE
 70
     6
  9
$SURFU
 70
     6
  9
$SURFV
 70
     6
  9
$UCSBASE
  2

  9
$UCSNAME
  2

  9
$UCSORG
 10
0.0
 20
0.0
 30
0.0
  9
$UCSXDIR
 10
1.0
 20
0.0
 30
0.0
  9
$UCSYDIR
 10
0.0
 20
1.0
 30
0.0
  9
$UCSORTHOREF
  2

  9
$UCSORTHOVIEW
 70
     0
  9
$UCSORGTOP
 10
0.0
 20
0.0
 30
0.0
  9
$UCSORGBOTTOM
 10
0.0
 20
0.0
 30
0.0
  9
$UCSORGLEFT
 10
0.0
 20
0.0
 30
0.0
  9
$UCSORGRIGHT
 10
0.0
 20
0.0
 30
0.0
  9
$UCSORGFRONT
 10
0.0
 20
0.0
 30
0.0
  9
$UCSORGBACK
 10
0.0
 20
0.0
 30
0.0
  9
$PUCSBASE
  2

  9
$PUCSNAME
  2

  9
$PUCSORG
 10
0.0
 20
0.0
 30
0.0
  9
$PUCSXDIR
 10
1.0
 20
0.0
 30
0.0
  9
$PUCSYDIR
 10
0.0
 20
1.0
 30
0.0
  9
$PUCSORTHOREF
  2

  9
$PUCSORTHOVIEW
 70
     0
  9
$PUCSORGTOP
 10
0.0
 20
0.0
 30
0.0
  9
$PUCSORGBOTTOM
 10
0.0
 20
0.0
 30
0.0
  9
$PUCSORGLEFT
 10
0.0
 20
0.0
 30
0.0
  9
$PUCSORGRIGHT
 10
0.0
 20
0.0
 30
0.0
  9
$PUCSORGFRONT
 10
0.0
 20
0.0
 30
0.0
  9
$PUCSORGBACK
 10
0.0
 20
0.0
 30
0.0
  9
$USERI1
 70
     0
  9
$USERI2
 70
     0
  9
$USERI3
 70
     0
  9
$USERI4
 70
     0
  9
$USERI5
 70
     0
  9
$USERR1
 40
0.0
  9
$USERR2
 40
0.0
  9
$USERR3
 40
0.0
  9
$USERR4
 40
0.0
  9
$USERR5
 40
0.0
  9
$WORLDVIEW
 70
     1
  9
$SHADEDGE
 70
     3
  9
$SHADEDIF
 70
    70
  9
$TILEMODE
 70
     1
  9
$MAXACTVP
 70
    64
  9
$PINSBASE
 10
0.0
 20
0.0
 30
0.0
  9
$PLIMCHECK
 70
     0
  9
$PEXTMIN
 10
0.0
 20
0.0
 30
0.0
  9
$PEXTMAX
 10
1682.0
 20
2378.0
 30
0.0
  9
$PLIMMIN
 10
0.0
 20
0.0
  9
$PLIMMAX
 10
1682.0
 20
2378.0
  9
$UNITMODE
 70
     0
  9
$VISRETAIN
 70
     1
  9
$PLINEGEN
 70
     0
  9
$PSLTSCALE
 70
     1
  9
$TREEDEPTH
 70
  3020
  9
$CMLSTYLE
  2
Standard
  9
$CMLJUST
 70
     0
  9
$CMLSCALE
 40
20.0
  9
$PROXYGRAPHICS
 70
     1
  9
$MEASUREMENT
 70
     1
  9
$CELWEIGHT
370
    -1
  9
$ENDCAPS
280
     0
  9
$JOINSTYLE
280
     0
  9
$LWDISPLAY
290
     0
  9
$INSUNITS
 70
     4
  9
$HYPERLINKBASE
  1

  9
$STYLESHEET
  1

  9
$XEDIT
290
     1
  9
$CEPSNTYPE
380
     0
  9
$PSTYLEMODE
290
     1
  9
$FINGERPRINTGUID
  2
{0AE05C3E-8610-4F2F-AB7A-81168113C97D}
  9
$VERSIONGUID
  2
{FAEB1C32-E019-11D5-929B-00C0DF256EC4}
  9
$EXTNAMES
290
     1
  9
$PSVPSCALE
 40
0.0
  9
$OLESTARTUP
290
     0
  0
ENDSEC
  0
SECTION
  2
CLASSES
  0
CLASS
  1
ACDBDICTIONARYWDFLT
  2
AcDbDictionaryWithDefault
  3
ObjectDBX Classes
 90
        0
280
     0
281
     0
  0
CLASS
  1
VISUALSTYLE
  2
AcDbVisualStyle
  3
ObjectDBX Classes
 90
     4095
280
     0
281
     0
  0
CLASS
  1
SCALE
  2
AcDbScale
  3
ObjectDBX Classes
 90
     1153
280
     0
281
     0
  0
CLASS
  1
DICTIONARYVAR
  2
AcDbDictionaryVar
  3
ObjectDBX Classes
 90
        0
280
     0
281
     0
  0
CLASS
  1
ACDBPLACEHOLDER
  2
AcDbPlaceHolder
  3
ObjectDBX Classes
 90
        0
280
     0
281
     0
  0
CLASS
  1
LAYOUT
  2
AcDbLayout
  3
ObjectDBX Classes
 90
        0
280
     0
281
     0
  0
ENDSEC
  0
SECTION
  2
TABLES
  0
TABLE
  2
VPORT
  5
8
330
0
100
AcDbSymbolTable
 70
     1
  0
VPORT
  5
29
330
8
100
AcDbSymbolTableRecord
100
AcDbViewportTableRecord
  2
*Active
 70
     0
 10
0.0
 20
0.0
 11
1.0
 21
1.0
 12
344.1869158879
 22
148.5
 13
0.0
 23
0.0
 14
10.0
 24
10.0
 15
10.0
 25
10.0
 16
0.0
 26
0.0
 36
1.0
 17
0.0
 27
0.0
 37
0.0
 40
297.0
 41
1.9729729729
 42
50.0
 43
0.0
 44
0.0
 50
0.0
 51
0.0
 71
     0
 72
   100
 73
     1
 74
     3
 75
     0
 76
     0
 77
     0
 78
     0
281
     0
 65
     1
110
0.0
120
0.0
130
0.0
111
1.0
121
0.0
131
0.0
112
0.0
122
1.0
132
0.0
 79
     0
146
0.0
  0
ENDTAB
  0
TABLE
  2
LTYPE
  5
5
330
0
100
AcDbSymbolTable
 70
     2
  0
LTYPE
  5
14
330
5
100
AcDbSymbolTableRecord
100
AcDbLinetypeTableRecord
  2
ByBlock
 70
     0
  3

 72
    65
 73
     0
 40
0.0
  0
LTYPE
  5
15
330
5
100
AcDbSymbolTableRecord
100
AcDbLinetypeTableRecord
  2
ByLayer
 70
     0
  3

 72
    65
 73
     0
 40
0.0
  0
LTYPE
  5
16
330
5
100
AcDbSymbolTableRecord
100
AcDbLinetypeTableRecord
  2
Continuous
 70
     0
  3
Solid line
 72
    65
 73
     0
 40
0.0
  0
LTYPE
  5
C9
330
5
100
AcDbSymbolTableRecord
100
AcDbLinetypeTableRecord
  2
CENTER2
 70
     0
  3
Center (.5x) ___ _ ___ _ ___ _ ___ _ ___ _ ___
 72
    65
 73
     4
 40
28.575
 49
19.05
 74
     4
 75
     0
340
0
 46
0.0
 50
0.0
 44
0.0
 45
0.0
 49
-3.175
 74
     4
 75
     0
340
0
 46
0.0
 50
0.0
 44
0.0
 45
0.0
 49
3.175
 74
     4
 75
     0
340
0
 46
0.0
 50
0.0
 44
0.0
 45
0.0
 49
-3.175
 74
     4
 75
     0
340
0
 46
0.0
 50
0.0
 44
0.0
 45
0.0
  0
ENDTAB
  0
TABLE
  2
LAYER
  5
2
330
0
100
AcDbSymbolTable
 70
    18
  0
LAYER
  5
10
330
2
100
AcDbSymbolTableRecord
100
AcDbLayerTableRecord
  2
0
 70
     0
 62
     7
  6
Continuous
370
    -3
390
F
  0
LAYER
  5
5D
330
2
100
AcDbSymbolTableRecord
100
AcDbLayerTableRecord
  2
Default
 70
     0
 62
     7
  6
Continuous
370
    -3
390
F
  0
LAYER
  5
60
330
2
100
AcDbSymbolTableRecord
100
AcDbLayerTableRecord
  2
$DDT_AUDIT_GENERATED_(60)
 70
     0
 62
     7
  6
Continuous
370
    -3
390
F
  0
LAYER
  5
6B
330
2
100
AcDbSymbolTableRecord
100
AcDbLayerTableRecord
  2
$DDT_AUDIT_GENERATED_(6B)
 70
     0
 62
     7
  6
Continuous
370
    -3
390
F
  0
LAYER
  5
6F
330
2
100
AcDbSymbolTableRecord
100
AcDbLayerTableRecord
  2
$DDT_AUDIT_GENERATED_(6F)
 70
     0
 62
     7
  6
Continuous
370
    -3
390
F
  0
LAYER
  5
82
330
2
100
AcDbSymbolTableRecord
100
AcDbLayerTableRecord
  2
$DDT_AUDIT_GENERATED_(82)
 70
     0
 62
     7
  6
Continuous
370
    -3
390
F
  0
LAYER
  5
90
330
2
100
AcDbSymbolTableRecord
100
AcDbLayerTableRecord
  2
$DDT_AUDIT_GENERATED_(90)
 70
     0
 62
     7
  6
Continuous
370
    -3
390
F
  0
LAYER
  5
98
330
2
100
AcDbSymbolTableRecord
100
AcDbLayerTableRecord
  2
$DDT_AUDIT_GENERATED_(98)
 70
     0
 62
     7
  6
Continuous
370
    -3
390
F
  0
LAYER
  5
A1
330
2
100
AcDbSymbolTableRecord
100
AcDbLayerTableRecord
  2
$DDT_AUDIT_GENERATED_(A1)
 70
     0
 62
     7
  6
Continuous
370
    -3
390
F
  0
LAYER
  5
AC
330
2
100
AcDbSymbolTableRecord
100
AcDbLayerTableRecord
  2
$DDT_AUDIT_GENERATED_(AC)
 70
     0
 62
     7
  6
Continuous
370
    -3
390
F
  0
LAYER
  5
B9
330
2
100
AcDbSymbolTableRecord
100
AcDbLayerTableRecord
  2
$DDT_AUDIT_GENERATED_(B9)
 70
     0
 62
     7
  6
Continuous
370
    -3
390
F
  0
LAYER
  5
BC
330
2
100
AcDbSymbolTableRecord
100
AcDbLayerTableRecord
  2
$DDT_AUDIT_GENERATED_(BC)
 70
     0
 62
     7
  6
Continuous
370
    -3
390
F
  0
LAYER
  5
C4
330
2
100
AcDbSymbolTableRecord
100
AcDbLayerTableRecord
  2
$DDT_AUDIT_GENERATED_(C4)
 70
     0
 62
     7
  6
Continuous
370
    -3
390
F
  0
LAYER
  5
C8
330
2
100
AcDbSymbolTableRecord
100
AcDbLayerTableRecord
  2
DV1_Standard
 70
     0
 62
     7
  6
Continuous
370
    -3
390
F
  0
LAYER
  5
10D
330
2
100
AcDbSymbolTableRecord
100
AcDbLayerTableRecord
  2
$DDT_AUDIT_GENERATED_(10D)
 70
     0
 62
     7
  6
Continuous
370
    -3
390
F
  0
LAYER
  5
110
330
2
100
AcDbSymbolTableRecord
100
AcDbLayerTableRecord
  2
$DDT_AUDIT_GENERATED_(110)
 70
     0
 62
     7
  6
Continuous
370
    -3
390
F
  0
LAYER
  5
112
330
2
100
AcDbSymbolTableRecord
100
AcDbLayerTableRecord
  2
DV2_Standard
 70
     0
 62
     7
  6
Continuous
370
    -3
390
F
  0
LAYER
  5
14F
330
2
100
AcDbSymbolTableRecord
100
AcDbLayerTableRecord
  2
DV3_Standard
 70
     0
 62
     7
  6
Continuous
370
    -3
390
F
  0
ENDTAB
  0
TABLE
  2
STYLE
  5
3
330
0
100
AcDbSymbolTable
 70
     2
  0
STYLE
  5
11
330
3
100
AcDbSymbolTableRecord
100
AcDbTextStyleTableRecord
  2
Standard
 70
     0
 40
0.0
 41
1.0
 50
0.0
 71
     0
 42
2.5
  3
txt
  4

  0
STYLE
  5
158
330
3
100
AcDbSymbolTableRecord
100
AcDbTextStyleTableRecord
  2
SEACAD_seiso_ttf
 70
     0
 40
0.0
 41
1.0
 50
0.0
 71
     0
 42
0.2
  3
seiso.ttf
  4

  0
ENDTAB
  0
TABLE
  2
VIEW
  5
6
330
0
100
AcDbSymbolTable
 70
     0
  0
ENDTAB
  0
TABLE
  2
UCS
  5
7
330
0
100
AcDbSymbolTable
 70
     0
  0
ENDTAB
  0
TABLE
  2
APPID
  5
9
330
0
100
AcDbSymbolTable
 70
     1
  0
APPID
  5
12
330
9
100
AcDbSymbolTableRecord
100
AcDbRegAppTableRecord
  2
ACAD
 70
     0
  0
ENDTAB
  0
TABLE
  2
DIMSTYLE
  5
A
330
0
100
AcDbSymbolTable
 70
     1
100
AcDbDimStyleTable
  0
DIMSTYLE
105
27
330
A
100
AcDbSymbolTableRecord
100
AcDbDimStyleTableRecord
  2
ISO-25
 70
     0
 41
2.5
 42
0.625
 43
3.75
 44
1.25
 73
     0
 74
     0
 77
     1
 78
     8
140
2.5
141
2.5
143
0.0393700787
147
0.625
171
     3
172
     1
271
     2
272
     2
274
     3
278
    44
283
     0
284
     8
340
11
  0
ENDTAB
  0
TABLE
  2
BLOCK_RECORD
  5
1
330
0
100
AcDbSymbolTable
 70
     4
  0
BLOCK_RECORD
  5
1F
330
1
100
AcDbSymbolTableRecord
100
AcDbBlockTableRecord
  2
*Model_Space
340
22
  0
BLOCK_RECORD
  5
1B
330
1
100
AcDbSymbolTableRecord
100
AcDbBlockTableRecord
  2
*Paper_Space
340
1E
  0
BLOCK_RECORD
  5
5E
330
1
100
AcDbSymbolTableRecord
100
AcDbBlockTableRecord
  2
SE
340
0
102
{BLKREFS
331
5F
102
}
  0
BLOCK_RECORD
  5
CE
330
1
100
AcDbSymbolTableRecord
100
AcDbBlockTableRecord
  2
SE1
340
0
102
{BLKREFS
331
CF
102
}
  0
BLOCK_RECORD
  5
118
330
1
100
AcDbSymbolTableRecord
100
AcDbBlockTableRecord
  2
SE2
340
0
102
{BLKREFS
331
119
102
}
  0
ENDTAB
  0
ENDSEC
  0
SECTION
  2
BLOCKS
  0
BLOCK
  5
20
330
1F
100
AcDbEntity
  8
0
100
AcDbBlockBegin
  2
*Model_Space
 70
     0
 10
0.0
 20
0.0
 30
0.0
  3
*Model_Space
  1

  0
ENDBLK
  5
21
330
1F
100
AcDbEntity
  8
0
100
AcDbBlockEnd
  0
BLOCK
  5
1C
330
1B
100
AcDbEntity
 67
     1
  8
0
100
AcDbBlockBegin
  2
*Paper_Space
 70
     0
 10
0.0
 20
0.0
 30
0.0
  3
*Paper_Space
  1

  0
ENDBLK
  5
1D
330
1B
100
AcDbEntity
 67
     1
  8
0
100
AcDbBlockEnd
  0
BLOCK
  5
CC
330
5E
100
AcDbEntity
  8
0
100
AcDbBlockBegin
  2
SE
 70
     0
 10
0.0
 20
0.0
 30
0.0
  3
SE
  1

  0
LINE
  5
61
330
5E
100
AcDbEntity
  8
$DDT_AUDIT_GENERATED_(60)
  6
Continuous
 62
     7
100
AcDbLine
 10
84.35
 20
648.5667524636
 30
0.0
 11
84.35
 21
688.5667524636
 31
0.0
  0
LINE
  5
62
330
5E
100
AcDbEntity
  8
$DDT_AUDIT_GENERATED_(60)
  6
Continuous
 62
     7
100
AcDbLine
 10
16.35
 20
598.8667524636
 30
0.0
 11
56.35
 21
598.8667524636
 31
0.0
  0
LINE
  5
63
330
5E
100
AcDbEntity
  8
$DDT_AUDIT_GENERATED_(60)
  6
Continuous
 62
     7
100
AcDbLine
 10
16.35
 20
699.8667524636
 30
0.0
 11
56.35
 21
699.8667524636
 31
0.0
  0
LINE
  5
64
330
5E
100
AcDbEntity
  8
$DDT_AUDIT_GENERATED_(60)
  6
Continuous
 62
     7
100
AcDbLine
 10
56.35
 20
693.5667524636
 30
0.0
 11
56.35
 21
699.8667524636
 31
0.0
  0
LINE
  5
65
330
5E
100
AcDbEntity
  8
$DDT_AUDIT_GENERATED_(60)
  6
Continuous
 62
     7
100
AcDbLine
 10
56.35
 20
598.8667524636
 30
0.0
 11
56.35
 21
643.5667524636
 31
0.0
  0
LINE
  5
66
330
5E
100
AcDbEntity
  8
$DDT_AUDIT_GENERATED_(60)
  6
Continuous
 62
     7
100
AcDbLine
 10
16.35
 20
699.8667524636
 30
0.0
 11
16.35
 21
598.8667524636
 31
0.0
  0
LINE
  5
67
330
5E
100
AcDbEntity
  8
$DDT_AUDIT_GENERATED_(60)
  6
Continuous
 62
     7
100
AcDbLine
 10
61.35
 20
648.5667524636
 30
0.0
 11
84.35
 21
648.5667524636
 31
0.0
  0
LINE
  5
68
330
5E
100
AcDbEntity
  8
$DDT_AUDIT_GENERATED_(60)
  6
Continuous
 62
     7
100
AcDbLine
 10
84.35
 20
688.5667524636
 30
0.0
 11
61.35
 21
688.5667524636
 31
0.0
  0
ARC
  5
69
330
5E
100
AcDbEntity
  8
$DDT_AUDIT_GENERATED_(60)
  6
Continuous
 62
     7
100
AcDbCircle
 10
61.35
 20
643.5667524636
 30
0.0
 40
5.000000000000004
100
AcDbArc
 50
90.2961240862
 51
179.6344631865
  0
ARC
  5
6A
330
5E
100
AcDbEntity
  8
$DDT_AUDIT_GENERATED_(60)
  6
Continuous
 62
     7
100
AcDbCircle
 10
61.35
 20
693.5667524636
 30
0.0
 40
4.999999999999999
100
AcDbArc
 50
180.2961240862
 51
269.6344631865
  0
LINE
  5
6C
330
5E
100
AcDbEntity
  8
$DDT_AUDIT_GENERATED_(6B)
  6
Continuous
 62
     7
100
AcDbLine
 10
91.9873782147
 20
656.6167524636
 30
0.0
 11
91.9873782147
 21
657.0930900876
 31
0.0
  0
ARC
  5
6D
330
5E
100
AcDbEntity
  8
$DDT_AUDIT_GENERATED_(6B)
  6
Continuous
 62
     7
100
AcDbCircle
 10
75.95
 20
668.5667524636
 30
0.0
 40
20.0
100
AcDbArc
 50
294.8345874897
 51
323.308942622
  0
ARC
  5
6E
330
5E
100
AcDbEntity
  8
$DDT_AUDIT_GENERATED_(6B)
  6
Continuous
 62
     7
100
AcDbCircle
 10
75.95
 20
668.5667524636
 30
0.0
 40
20.0
100
AcDbArc
 50
62.0422457039
 51
65.1654125103
  0
LINE
  5
70
330
5E
100
AcDbEntity
  8
$DDT_AUDIT_GENERATED_(6F)
  6
Continuous
 62
     7
100
AcDbLine
 10
85.6492968924
 20
670.0489056573
 30
0.0
 11
96.080850944
 21
648.7255297764
 31
0.0
  0
ARC
  5
71
330
5E
100
AcDbEntity
  8
$DDT_AUDIT_GENERATED_(6F)
  6
Continuous
 62
     7
100
AcDbCircle
 10
88.3441111686
 20
671.3672288411
 30
0.0
 40
2.999999999999883
100
AcDbArc
 50
180.0682240886
 51
206.0682240886
  0
LINE
  5
72
330
5E
100
AcDbEntity
  8
$DDT_AUDIT_GENERATED_(6F)
  6
Continuous
 62
     7
100
AcDbLine
 10
85.3441132954
 20
671.363656637
 30
0.0
 11
85.3238270118
 21
688.4004233707
 31
0.0
  0
LINE
  5
73
330
5E
100
AcDbEntity
  8
$DDT_AUDIT_GENERATED_(6F)
  6
Continuous
 62
     7
100
AcDbLine
 10
106.8241689903
 20
688.1260243793
 30
0.0
 11
106.8706076433
 21
649.1260520273
 31
0.0
  0
LINE
  5
74
330
5E
100
AcDbEntity
  8
$DDT_AUDIT_GENERATED_(6F)
  6
Continuous
 62
     7
100
AcDbLine
 10
92.0092844061
 20
742.6084224061
 30
0.0
 11
100.0092787347
 21
742.6179482837
 31
0.0
  0
ARC
  5
75
330
5E
100
AcDbEntity
  8
$DDT_AUDIT_GENERATED_(6F)
  6
Continuous
 62
     7
100
AcDbCircle
 10
85.52382687
 20
688.4006615176
 30
0.0
 40
0.1999999999999944
100
AcDbArc
 50
90.0682240886
 51
180.0682240886
  0
ARC
  5
76
330
5E
100
AcDbEntity
  8
$DDT_AUDIT_GENERATED_(6F)
  6
Continuous
 62
     7
100
AcDbCircle
 10
96.2605052291
 20
648.8134179887
 30
0.0
 40
0.200000000000005
100
AcDbArc
 50
206.0682240886
 51
263.2470679043
  0
ARC
  5
77
330
5E
100
AcDbEntity
  8
$DDT_AUDIT_GENERATED_(6F)
  6
Continuous
 62
     7
100
AcDbCircle
 10
106.3706079978
 20
649.12545666
 30
0.0
 40
0.4999999999999999
100
AcDbArc
 50
270.0682240886
 51
0.0682240886
  0
ARC
  5
78
330
5E
100
AcDbEntity
  8
$DDT_AUDIT_GENERATED_(6F)
  6
Continuous
 62
     7
100
AcDbCircle
 10
106.3241693448
 20
688.1254290119
 30
0.0
 40
0.4999999999999999
100
AcDbArc
 50
0.0682240886
 51
90.0682240886
  0
LINE
  5
79
330
5E
100
AcDbEntity
  8
$DDT_AUDIT_GENERATED_(6F)
  6
Continuous
 62
     7
100
AcDbLine
 10
96.2607433761
 20
648.6134181304
 30
0.0
 11
106.3712033652
 21
648.6254570145
 31
0.0
  0
LINE
  5
7A
330
5E
100
AcDbEntity
  8
$DDT_AUDIT_GENERATED_(6F)
  6
Continuous
 62
     7
100
AcDbLine
 10
91.0838468963
 20
688.6072821728
 30
0.0
 11
85.523588723
 21
688.6006613758
 31
0.0
  0
LINE
  5
7B
330
5E
100
AcDbEntity
  8
$DDT_AUDIT_GENERATED_(6F)
  6
Continuous
 62
     7
100
AcDbLine
 10
106.3235739774
 20
688.6254286575
 30
0.0
 11
101.0735776993
 21
688.6191773003
 31
0.0
  0
LINE
  5
7C
330
5E
100
AcDbEntity
  8
$DDT_AUDIT_GENERATED_(6F)
  6
Continuous
 62
     7
100
AcDbLine
 10
91.5098801279
 20
742.1078273933
 30
0.0
 11
91.5729918715
 21
689.1055094624
 31
0.0
  0
LINE
  5
7D
330
5E
100
AcDbEntity
  8
$DDT_AUDIT_GENERATED_(6F)
  6
Continuous
 62
     7
100
AcDbLine
 10
100.5729826864
 20
689.1185815785
 30
0.0
 11
100.5098737476
 21
742.1185440055
 31
0.0
  0
ARC
  5
7E
330
5E
100
AcDbEntity
  8
$DDT_AUDIT_GENERATED_(6F)
  6
Continuous
 62
     7
100
AcDbCircle
 10
91.0729894212
 20
689.1072695989
 30
0.0
 40
0.4999999999986225
100
AcDbArc
 50
271.2813888455
 51
359.88835017
  0
ARC
  5
7F
330
5E
100
AcDbEntity
  8
$DDT_AUDIT_GENERATED_(6F)
  6
Continuous
 62
     7
100
AcDbCircle
 10
101.0717945554
 20
689.1174157895
 30
0.0
 40
0.4975481127580141
100
AcDbArc
 50
179.3596635919
 51
270.1848764351
  0
ARC
  5
80
330
5E
100
AcDbEntity
  8
$DDT_AUDIT_GENERATED_(6F)
  6
Continuous
 62
     7
100
AcDbCircle
 10
92.0098797735
 20
742.1084227606
 30
0.0
 40
0.4999999999999999
100
AcDbArc
 50
90.0682240886
 51
180.0682240886
  0
ARC
  5
81
330
5E
100
AcDbEntity
  8
$DDT_AUDIT_GENERATED_(6F)
  6
Continuous
 62
     7
100
AcDbCircle
 10
100.0098741021
 20
742.1179486382
 30
0.0
 40
0.5000000000000138
100
AcDbArc
 50
0.0682240886
 51
90.0682240886
  0
LINE
  5
83
330
5E
100
AcDbEntity
  8
$DDT_AUDIT_GENERATED_(82)
  6
Continuous
 62
     7
100
AcDbLine
 10
66.35
 20
408.8667524636
 30
0.0
 11
6.35
 21
408.8667524636
 31
0.0
  0
LINE
  5
84
330
5E
100
AcDbEntity
  8
$DDT_AUDIT_GENERATED_(82)
  6
Continuous
 62
     7
100
AcDbLine
 10
6.85
 20
414.8667524636
 30
0.0
 11
65.85
 21
414.8667524636
 31
0.0
  0
LINE
  5
85
330
5E
100
AcDbEntity
  8
$DDT_AUDIT_GENERATED_(82)
  6
Continuous
 62
     7
100
AcDbLine
 10
11.85
 20
418.8667524636
 30
0.0
 11
60.85
 21
418.8667524636
 31
0.0
  0
LINE
  5
86
330
5E
100
AcDbEntity
  8
$DDT_AUDIT_GENERATED_(82)
  6
Continuous
 62
     7
100
AcDbLine
 10
66.35
 20
408.8667524636
 30
0.0
 11
66.35
 21
414.3667524636
 31
0.0
  0
LINE
  5
87
330
5E
100
AcDbEntity
  8
$DDT_AUDIT_GENERATED_(82)
  6
Continuous
 62
     7
100
AcDbLine
 10
6.35
 20
414.3667524636
 30
0.0
 11
6.35
 21
408.8667524636
 31
0.0
  0
LINE
  5
88
330
5E
100
AcDbEntity
  8
$DDT_AUDIT_GENERATED_(82)
  6
Continuous
 62
     7
100
AcDbLine
 10
61.35
 20
415.3667524636
 30
0.0
 11
61.35
 21
418.3667524636
 31
0.0
  0
LINE
  5
89
330
5E
100
AcDbEntity
  8
$DDT_AUDIT_GENERATED_(82)
  6
Continuous
 62
     7
100
AcDbLine
 10
11.35
 20
418.3667524636
 30
0.0
 11
11.35
 21
415.3667524636
 31
0.0
  0
ARC
  5
8A
330
5E
100
AcDbEntity
  8
$DDT_AUDIT_GENERATED_(82)
  6
Continuous
 62
     7
100
AcDbCircle
 10
65.85
 20
414.3667524636
 30
0.0
 40
0.5000000000000004
100
AcDbArc
 50
0.0
 51
90.0
  0
ARC
  5
8B
330
5E
100
AcDbEntity
  8
$DDT_AUDIT_GENERATED_(82)
  6
Continuous
 62
     7
100
AcDbCircle
 10
6.85
 20
414.3667524636
 30
0.0
 40
0.5000000000000004
100
AcDbArc
 50
90.0
 51
180.0
  0
ARC
  5
8C
330
5E
100
AcDbEntity
  8
$DDT_AUDIT_GENERATED_(82)
  6
Continuous
 62
     7
100
AcDbCircle
 10
60.85
 20
418.3667524636
 30
0.0
 40
0.5000000000000004
100
AcDbArc
 50
0.0
 51
90.0
  0
ARC
  5
8D
330
5E
100
AcDbEntity
  8
$DDT_AUDIT_GENERATED_(82)
  6
Continuous
 62
     7
100
AcDbCircle
 10
11.85
 20
418.3667524636
 30
0.0
 40
0.5000000000000004
100
AcDbArc
 50
90.0
 51
180.0
  0
ARC
  5
8E
330
5E
100
AcDbEntity
  8
$DDT_AUDIT_GENERATED_(82)
  6
Continuous
 62
     7
100
AcDbCircle
 10
61.85
 20
415.3667524636
 30
0.0
 40
0.5000000000000004
100
AcDbArc
 50
180.0
 51
270.0
  0
ARC
  5
8F
330
5E
100
AcDbEntity
  8
$DDT_AUDIT_GENERATED_(82)
  6
Continuous
 62
     7
100
AcDbCircle
 10
10.85
 20
415.3667524636
 30
0.0
 40
0.5000000000000004
100
AcDbArc
 50
270.0
 51
0.0
  0
LINE
  5
91
330
5E
100
AcDbEntity
  8
$DDT_AUDIT_GENERATED_(90)
  6
Continuous
 62
     7
100
AcDbLine
 10
24.85
 20
708.3667524636
 30
0.0
 11
47.85
 21
708.3667524636
 31
0.0
  0
LINE
  5
92
330
5E
100
AcDbEntity
  8
$DDT_AUDIT_GENERATED_(90)
  6
Continuous
 62
     7
100
AcDbLine
 10
24.85
 20
864.679587947
 30
0.0
 11
24.85
 21
824.9777418814
 31
0.0
  0
LINE
  5
93
330
5E
100
AcDbEntity
  8
$DDT_AUDIT_GENERATED_(90)
  6
Continuous
 62
     7
100
AcDbLine
 10
47.85
 20
824.9777418814
 30
0.0
 11
47.85
 21
864.679587947
 31
0.0
  0
LINE
  5
94
330
5E
100
AcDbEntity
  8
$DDT_AUDIT_GENERATED_(90)
  6
Continuous
 62
     7
100
AcDbLine
 10
24.85
 20
824.9777418814
 30
0.0
 11
24.85
 21
708.3667524636
 31
0.0
  0
LINE
  5
95
330
5E
100
AcDbEntity
  8
$DDT_AUDIT_GENERATED_(90)
  6
Continuous
 62
     7
100
AcDbLine
 10
47.85
 20
708.3667524636
 30
0.0
 11
47.85
 21
824.9777418814
 31
0.0
  0
LINE
  5
96
330
5E
100
AcDbEntity
  8
$DDT_AUDIT_GENERATED_(90)
  6
Continuous
 62
     7
100
AcDbLine
 10
24.85
 20
871.8224707437
 30
0.0
 11
24.85
 21
864.679587947
 31
0.0
  0
LINE
  5
97
330
5E
100
AcDbEntity
  8
$DDT_AUDIT_GENERATED_(90)
  6
Continuous
 62
     7
100
AcDbLine
 10
47.85
 20
864.679587947
 30
0.0
 11
47.85
 21
871.8224707437
 31
0.0
  0
ELLIPSE
  5
99
330
5E
100
AcDbEntity
  8
$DDT_AUDIT_GENERATED_(98)
  6
Continuous
 62
     7
100
AcDbEllipse
 10
36.35
 20
879.7439780651
 30
0.0
 11
11.49999999999996
 21
-3.053113317719180E-12
 31
0.0
210
0.0
220
0.0
230
1.0
 40
0.9925461516
 41
5.573630239006947
 42
6.283185307179586
  0
ELLIPSE
  5
9A
330
5E
100
AcDbEntity
  8
$DDT_AUDIT_GENERATED_(98)
  6
Continuous
 62
     7
100
AcDbEllipse
 10
36.35
 20
879.7439780651
 30
0.0
 11
11.49999999999996
 21
-3.053113317719180E-12
 31
0.0
210
0.0
220
0.0
230
1.0
 40
0.9925461516
 41
2.387772174370672
 42
3.837626084984488
  0
ELLIPSE
  5
9B
330
5E
100
AcDbEntity
  8
$DDT_AUDIT_GENERATED_(98)
  6
Continuous
 62
     7
100
AcDbEllipse
 10
36.35
 20
879.7439780651
 30
0.0
 11
11.49999999999996
 21
-3.053113317719180E-12
 31
0.0
210
0.0
220
0.0
230
1.0
 40
0.9925461516
 41
0.0
 42
0.7466396962625892
  0
SPLINE
  5
9C
330
5E
100
AcDbEntity
  8
$DDT_AUDIT_GENERATED_(98)
  6
Continuous
 62
     7
100
AcDbSpline
210
0.0
220
0.0
230
1.0
 70
     8
 71
     3
 72
    32
 73
    28
 74
     0
 42
0.0000000002238124
 43
0.0000000001
 40
0.2161173246337201
 40
0.2161173246337201
 40
0.2161173246337201
 40
0.2161173246337201
 40
0.2499999999999986
 40
0.2499999999999986
 40
0.2812499999999986
 40
0.2812499999999986
 40
0.3124999999999985
 40
0.3124999999999985
 40
0.3749999999999986
 40
0.3749999999999986
 40
0.4374999999999987
 40
0.4374999999999987
 40
0.4999999999999988
 40
0.4999999999999988
 40
0.5624999999999989
 40
0.5624999999999989
 40
0.6249999999999989
 40
0.6249999999999989
 40
0.687499999999999
 40
0.687499999999999
 40
0.7187499999999991
 40
0.7187499999999991
 40
0.7499999999999992
 40
0.7499999999999992
 40
0.7812499999999993
 40
0.7812499999999993
 40
0.7838353678169548
 40
0.7838353678169548
 40
0.7838353678169548
 40
0.7838353678169548
 10
26.40643518008465
 20
871.6617742981133
 30
0.0
 10
26.24203655581488
 20
872.0291238178875
 30
0.0
 10
26.14918544452698
 20
872.3060474100129
 30
0.0
 10
26.15076164522911
 20
872.4897205631426
 30
0.0
 10
26.23212721007281
 20
872.4172782734006
 30
0.0
 10
26.51719262500117
 20
872.0868061883309
 30
0.0
 10
26.7166065659765
 20
871.8392054399584
 30
0.0
 10
27.46757795834613
 20
871.002018590485
 30
0.0
 10
28.13971230995777
 20
870.3536652466616
 30
0.0
 10
29.89320731115245
 20
869.1338707066406
 30
0.0
 10
30.95658065522002
 20
868.5716113491277
 30
0.0
 10
33.45885599069298
 20
867.7481647067862
 30
0.0
 10
34.89408010813075
 20
867.5022130213739
 30
0.0
 10
37.7803092926952
 20
867.4994647320468
 30
0.0
 10
39.23337017201146
 20
867.7465237824296
 30
0.0
 10
41.73506005792024
 20
868.5679490959401
 30
0.0
 10
42.80786587997522
 20
869.1354764965865
 30
0.0
 10
44.54635212674837
 20
870.3431182608439
 30
0.0
 10
45.23625516594453
 20
871.0065249835477
 30
0.0
 10
45.97863787827989
 20
871.8337879859971
 30
0.0
 10
46.18232086725489
 20
872.0862225346328
 30
0.0
 10
46.46791020002626
 20
872.417341264
 30
0.0
 10
46.54909466577764
 20
872.4881198679207
 30
0.0
 10
46.55088956853614
 20
872.315595393715
 30
0.0
 10
46.47127270349014
 20
872.0704763077183
 30
0.0
 10
46.31887303995085
 20
871.7181470198742
 30
0.0
 10
46.30680483214668
 20
871.6906825220241
 30
0.0
 10
46.29432311957281
 20
871.6627125405055
 30
0.0
  0
LINE
  5
9D
330
5E
100
AcDbEntity
  8
$DDT_AUDIT_GENERATED_(98)
  6
Continuous
 62
     7
100
AcDbLine
 10
24.85
 20
879.7439780651
 30
0.0
 11
24.85
 21
871.8224707437
 31
0.0
  0
LINE
  5
9E
330
5E
100
AcDbEntity
  8
$DDT_AUDIT_GENERATED_(98)
  6
Continuous
 62
     7
100
AcDbLine
 10
47.85
 20
871.8224707437
 30
0.0
 11
47.85
 21
879.7439780651
 31
0.0
  0
ARC
  5
9F
330
5E
100
AcDbEntity
  8
$DDT_AUDIT_GENERATED_(98)
  6
Continuous
 62
     7
100
AcDbCircle
 10
36.3592688213
 20
879.6602234917
 30
0.0
 40
11.5054928990187
100
AcDbArc
 50
42.940190019
 51
90.0461574663
  0
ARC
  5
A0
330
5E
100
AcDbEntity
  8
$DDT_AUDIT_GENERATED_(98)
  6
Continuous
 62
     7
100
AcDbCircle
 10
36.3376293088
 20
879.6706415283
 30
0.0
 40
11.4950777854404
100
AcDbArc
 50
89.9383398231
 51
136.6720215552
  0
LINE
  5
A2
330
5E
100
AcDbEntity
  8
$DDT_AUDIT_GENERATED_(A1)
  6
Continuous
 62
     7
100
AcDbLine
 10
21.35
 20
700.3667524636
 30
0.0
 11
51.35
 21
700.3667524636
 31
0.0
  0
LINE
  5
A3
330
5E
100
AcDbEntity
  8
$DDT_AUDIT_GENERATED_(A1)
  6
Continuous
 62
     7
100
AcDbLine
 10
21.85
 20
707.3667524636
 30
0.0
 11
50.85
 21
707.3667524636
 31
0.0
  0
LINE
  5
A4
330
5E
100
AcDbEntity
  8
$DDT_AUDIT_GENERATED_(A1)
  6
Continuous
 62
     7
100
AcDbLine
 10
21.35
 20
706.8667524636
 30
0.0
 11
21.35
 21
700.3667524636
 31
0.0
  0
LINE
  5
A5
330
5E
100
AcDbEntity
  8
$DDT_AUDIT_GENERATED_(A1)
  6
Continuous
 62
     7
100
AcDbLine
 10
51.35
 20
700.3667524636
 30
0.0
 11
51.35
 21
706.8667524636
 31
0.0
  0
LINE
  5
A6
330
5E
100
AcDbEntity
  8
$DDT_AUDIT_GENERATED_(A1)
  6
Continuous
 62
     7
100
AcDbLine
 10
24.85
 20
707.7167524636
 30
0.0
 11
24.85
 21
707.3667524636
 31
0.0
  0
LINE
  5
A7
330
5E
100
AcDbEntity
  8
$DDT_AUDIT_GENERATED_(A1)
  6
Continuous
 62
     7
100
AcDbLine
 10
47.85
 20
707.3667524636
 30
0.0
 11
47.85
 21
707.7167524636
 31
0.0
  0
LINE
  5
A8
330
5E
100
AcDbEntity
  8
$DDT_AUDIT_GENERATED_(A1)
  6
Continuous
 62
     7
100
AcDbLine
 10
47.85
 20
707.7167524636
 30
0.0
 11
47.2
 21
708.3667524636
 31
0.0
  0
LINE
  5
A9
330
5E
100
AcDbEntity
  8
$DDT_AUDIT_GENERATED_(A1)
  6
Continuous
 62
     7
100
AcDbLine
 10
25.5
 20
708.3667524636
 30
0.0
 11
24.85
 21
707.7167524636
 31
0.0
  0
ARC
  5
AA
330
5E
100
AcDbEntity
  8
$DDT_AUDIT_GENERATED_(A1)
  6
Continuous
 62
     7
100
AcDbCircle
 10
21.85
 20
706.8667524636
 30
0.0
 40
0.5000000000000004
100
AcDbArc
 50
90.0
 51
180.0
  0
ARC
  5
AB
330
5E
100
AcDbEntity
  8
$DDT_AUDIT_GENERATED_(A1)
  6
Continuous
 62
     7
100
AcDbCircle
 10
50.85
 20
706.8667524636
 30
0.0
 40
0.5000000000000004
100
AcDbArc
 50
0.0
 51
90.0
  0
ELLIPSE
  5
AD
330
5E
100
AcDbEntity
  8
$DDT_AUDIT_GENERATED_(AC)
  6
Continuous
 62
     7
100
AcDbEllipse
 10
36.35
 20
862.8334812542
 30
0.0
 11
8.125000000000014
 21
0.0
 31
0.0
210
0.0
220
0.0
230
1.0
 40
0.1218693434
 41
0.0
 42
6.283185307179586
  0
ELLIPSE
  5
AE
330
5E
100
AcDbEntity
  8
$DDT_AUDIT_GENERATED_(AC)
  6
Continuous
 62
     7
100
AcDbEllipse
 10
36.35
 20
861.161212146
 30
0.0
 11
-9.921066271730414
 21
-5.749337626303254
 31
0.0
210
0.0
220
0.0
230
1.0
 40
0.0914876479
 41
2.791612974213083
 42
3.385635863047106
  0
LINE
  5
AF
330
5E
100
AcDbEntity
  8
$DDT_AUDIT_GENERATED_(AC)
  6
Continuous
 62
     7
100
AcDbLine
 10
45.85
 20
866.9595057616
 30
0.0
 11
45.85
 21
863.580367435
 31
0.0
  0
ELLIPSE
  5
B0
330
5E
100
AcDbEntity
  8
$DDT_AUDIT_GENERATED_(AC)
  6
Continuous
 62
     7
100
AcDbEllipse
 10
36.35
 20
861.161212146
 30
0.0
 11
9.921066271730759
 21
-5.749337626303253
 31
0.0
210
0.0
220
0.0
230
1.0
 40
0.0914876479
 41
2.897549444132476
 42
3.491572332966502
  0
LINE
  5
B1
330
5E
100
AcDbEntity
  8
$DDT_AUDIT_GENERATED_(AC)
  6
Continuous
 62
     7
100
AcDbLine
 10
26.85
 20
863.580367435
 30
0.0
 11
26.85
 21
866.9595057616
 31
0.0
  0
LINE
  5
B2
330
5E
100
AcDbEntity
  8
$DDT_AUDIT_GENERATED_(AC)
  6
Continuous
 62
     7
100
AcDbLine
 10
26.85
 20
862.8524017987
 30
0.0
 11
26.85
 21
863.580367435
 31
0.0
  0
LINE
  5
B3
330
5E
100
AcDbEntity
  8
$DDT_AUDIT_GENERATED_(AC)
  6
Continuous
 62
     7
100
AcDbLine
 10
45.85
 20
863.580367435
 30
0.0
 11
45.85
 21
862.8524017987
 31
0.0
  0
ELLIPSE
  5
B4
330
5E
100
AcDbEntity
  8
$DDT_AUDIT_GENERATED_(AC)
  6
Continuous
 62
     7
100
AcDbEllipse
 10
36.35
 20
862.8334812542
 30
0.0
 11
-9.250000000000011
 21
0.0
 31
0.0
210
0.0
220
0.0
230
1.0
 40
0.1218693434
 41
0.0
 42
6.283185307179586
  0
LINE
  5
B5
330
5E
100
AcDbEntity
  8
$DDT_AUDIT_GENERATED_(AC)
  6
Continuous
 62
     7
100
AcDbLine
 10
46.285
 20
866.8544319831
 30
0.0
 11
46.285
 21
872.202935251
 31
0.0
  0
LINE
  5
B6
330
5E
100
AcDbEntity
  8
$DDT_AUDIT_GENERATED_(AC)
  6
Continuous
 62
     7
100
AcDbLine
 10
26.415
 20
872.2016421391
 30
0.0
 11
26.415
 21
866.8544319831
 31
0.0
  0
LINE
  5
B7
330
5E
100
AcDbEntity
  8
$DDT_AUDIT_GENERATED_(AC)
  6
Continuous
 62
     7
100
AcDbLine
 10
26.85
 20
862.8522087909
 30
0.0
 11
27.3116004278
 21
862.5937412035
 31
0.0
  0
LINE
  5
B8
330
5E
100
AcDbEntity
  8
$DDT_AUDIT_GENERATED_(AC)
  6
Continuous
 62
     7
100
AcDbLine
 10
45.3883995722
 20
862.5937412035
 30
0.0
 11
45.85
 21
862.8522087909
 31
0.0
  0
LINE
  5
BA
330
5E
100
AcDbEntity
  8
$DDT_AUDIT_GENERATED_(B9)
  6
Continuous
 62
     7
100
AcDbLine
 10
50.85
 20
699.8667524636
 30
0.0
 11
50.85
 21
700.3667524636
 31
0.0
  0
LINE
  5
BB
330
5E
100
AcDbEntity
  8
$DDT_AUDIT_GENERATED_(B9)
  6
Continuous
 62
     7
100
AcDbLine
 10
21.85
 20
700.3667524636
 30
0.0
 11
21.85
 21
699.8667524636
 31
0.0
  0
LINE
  5
BD
330
5E
100
AcDbEntity
  8
$DDT_AUDIT_GENERATED_(BC)
  6
Continuous
 62
     7
100
AcDbLine
 10
111.3277380042
 20
685.1313848122
 30
0.0
 11
111.3670322491
 21
652.1314082067
 31
0.0
  0
LINE
  5
BE
330
5E
100
AcDbEntity
  8
$DDT_AUDIT_GENERATED_(BC)
  6
Continuous
 62
     7
100
AcDbLine
 10
107.8674520175
 20
651.7767957857
 30
0.0
 11
107.8676300977
 21
651.6272409897
 31
0.0
  0
LINE
  5
BF
330
5E
100
AcDbEntity
  8
$DDT_AUDIT_GENERATED_(BC)
  6
Continuous
 62
     7
100
AcDbLine
 10
107.8674520175
 20
651.7767957857
 30
0.0
 11
106.8674527264
 21
651.775605051
 31
0.0
  0
ARC
  5
C0
330
5E
100
AcDbEntity
  8
$DDT_AUDIT_GENERATED_(BC)
  6
Continuous
 62
     7
100
AcDbCircle
 10
110.8670326036
 20
652.1308128393
 30
0.0
 40
0.4999999999999999
100
AcDbArc
 50
270.0682240886
 51
0.0682240886
  0
ARC
  5
C1
330
5E
100
AcDbEntity
  8
$DDT_AUDIT_GENERATED_(BC)
  6
Continuous
 62
     7
100
AcDbCircle
 10
110.8277383587
 20
685.1307894448
 30
0.0
 40
0.4999999999999999
100
AcDbArc
 50
0.0682240886
 51
90.0682240886
  0
LINE
  5
C2
330
5E
100
AcDbEntity
  8
$DDT_AUDIT_GENERATED_(BC)
  6
Continuous
 62
     7
100
AcDbLine
 10
107.8676300977
 20
651.6272409897
 30
0.0
 11
110.8676279709
 21
651.6308131938
 31
0.0
  0
LINE
  5
C3
330
5E
100
AcDbEntity
  8
$DDT_AUDIT_GENERATED_(BC)
  6
Continuous
 62
     7
100
AcDbLine
 10
110.8271429913
 20
685.6307890904
 30
0.0
 11
106.827145827
 21
685.6260261516
 31
0.0
  0
LINE
  5
C5
330
5E
100
AcDbEntity
  8
$DDT_AUDIT_GENERATED_(C4)
  6
Continuous
 62
     7
100
AcDbLine
 10
56.35
 20
598.8667524636
 30
0.0
 11
16.35
 21
598.8667524636
 31
0.0
  0
LINE
  5
C6
330
5E
100
AcDbEntity
  8
$DDT_AUDIT_GENERATED_(C4)
  6
Continuous
 62
     7
100
AcDbLine
 10
56.35
 20
418.8667524636
 30
0.0
 11
56.35
 21
598.8667524636
 31
0.0
  0
LINE
  5
C7
330
5E
100
AcDbEntity
  8
$DDT_AUDIT_GENERATED_(C4)
  6
Continuous
 62
     7
100
AcDbLine
 10
16.35
 20
598.8667524636
 30
0.0
 11
16.35
 21
418.8667524636
 31
0.0
  0
LINE
  5
CA
330
5E
100
AcDbEntity
  8
DV1_Standard
  6
CENTER2
 62
     7
100
AcDbLine
 10
56.349999553
 20
408.8667524636
 30
0.0
 11
16.350000447
 21
408.8667524636
 31
0.0
  0
LINE
  5
CB
330
5E
100
AcDbEntity
  8
DV1_Standard
  6
CENTER2
 62
     7
100
AcDbLine
 10
36.35
 20
428.8667520166
 30
0.0
 11
36.35
 21
388.8667529107
 31
0.0
  0
ENDBLK
  5
CD
330
5E
100
AcDbEntity
  8
0
100
AcDbBlockEnd
  0
BLOCK
  5
116
330
CE
100
AcDbEntity
  8
0
100
AcDbBlockBegin
  2
SE1
 70
     0
 10
0.0
 20
0.0
 30
0.0
  3
SE1
  1

  0
LINE
  5
D0
330
CE
100
AcDbEntity
  8
$DDT_AUDIT_GENERATED_(60)
  6
Continuous
 62
     7
100
AcDbLine
 10
256.6071005637
 20
598.8667524636
 30
0.0
 11
216.6071005637
 21
598.8667524636
 31
0.0
  0
ARC
  5
D1
330
CE
100
AcDbEntity
  8
$DDT_AUDIT_GENERATED_(60)
  6
Continuous
 62
     7
100
AcDbCircle
 10
8.1748063332
 20
620.9882206643
 30
0.0
 40
208.6020443706094
100
AcDbArc
 50
357.6883989883
 51
2.3115995156
  0
LINE
  5
D2
330
CE
100
AcDbEntity
  8
$DDT_AUDIT_GENERATED_(60)
  6
Continuous
 62
     7
100
AcDbLine
 10
256.6071005637
 20
699.8667524636
 30
0.0
 11
216.6071005637
 21
699.8667524636
 31
0.0
  0
LINE
  5
D3
330
CE
100
AcDbEntity
  8
$DDT_AUDIT_GENERATED_(60)
  6
Continuous
 62
     7
100
AcDbLine
 10
256.6071005637
 20
668.5667524636
 30
0.0
 11
256.6071005637
 21
699.8667524636
 31
0.0
  0
LINE
  5
D4
330
CE
100
AcDbEntity
  8
$DDT_AUDIT_GENERATED_(60)
  6
Continuous
 62
     7
100
AcDbLine
 10
256.6071005637
 20
598.8667524636
 30
0.0
 11
256.6071005637
 21
668.5667524636
 31
0.0
  0
LINE
  5
D5
330
CE
100
AcDbEntity
  8
$DDT_AUDIT_GENERATED_(60)
  6
Continuous
 62
     7
100
AcDbLine
 10
216.6071005637
 20
612.5744440195
 30
0.0
 11
216.6071005637
 21
598.8667524636
 31
0.0
  0
LINE
  5
D6
330
CE
100
AcDbEntity
  8
$DDT_AUDIT_GENERATED_(60)
  6
Continuous
 62
     7
100
AcDbLine
 10
216.6071005637
 20
668.5667524636
 30
0.0
 11
216.6071005637
 21
629.3990243241
 31
0.0
  0
LINE
  5
D7
330
CE
100
AcDbEntity
  8
$DDT_AUDIT_GENERATED_(60)
  6
Continuous
 62
     7
100
AcDbLine
 10
216.6071005637
 20
699.8667524636
 30
0.0
 11
216.6071005637
 21
668.5667524636
 31
0.0
  0
LINE
  5
D8
330
CE
100
AcDbEntity
  8
$DDT_AUDIT_GENERATED_(82)
  6
Continuous
 62
     7
100
AcDbLine
 10
206.6071005637
 20
408.8667524636
 30
0.0
 11
266.6071005637
 21
408.8667524636
 31
0.0
  0
LINE
  5
D9
330
CE
100
AcDbEntity
  8
$DDT_AUDIT_GENERATED_(82)
  6
Continuous
 62
     7
100
AcDbLine
 10
266.1071005637
 20
414.8667524636
 30
0.0
 11
207.1071005637
 21
414.8667524636
 31
0.0
  0
LINE
  5
DA
330
CE
100
AcDbEntity
  8
$DDT_AUDIT_GENERATED_(82)
  6
Continuous
 62
     7
100
AcDbLine
 10
261.1071005637
 20
418.8667524636
 30
0.0
 11
212.1071005637
 21
418.8667524636
 31
0.0
  0
LINE
  5
DB
330
CE
100
AcDbEntity
  8
$DDT_AUDIT_GENERATED_(82)
  6
Continuous
 62
     7
100
AcDbLine
 10
266.6071005637
 20
408.8667524636
 30
0.0
 11
266.6071005637
 21
414.3667524636
 31
0.0
  0
LINE
  5
DC
330
CE
100
AcDbEntity
  8
$DDT_AUDIT_GENERATED_(82)
  6
Continuous
 62
     7
100
AcDbLine
 10
206.6071005637
 20
414.3667524636
 30
0.0
 11
206.6071005637
 21
408.8667524636
 31
0.0
  0
LINE
  5
DD
330
CE
100
AcDbEntity
  8
$DDT_AUDIT_GENERATED_(82)
  6
Continuous
 62
     7
100
AcDbLine
 10
261.6071005637
 20
415.3667524636
 30
0.0
 11
261.6071005637
 21
418.3667524636
 31
0.0
  0
LINE
  5
DE
330
CE
100
AcDbEntity
  8
$DDT_AUDIT_GENERATED_(82)
  6
Continuous
 62
     7
100
AcDbLine
 10
211.6071005637
 20
418.3667524636
 30
0.0
 11
211.6071005637
 21
415.3667524636
 31
0.0
  0
ARC
  5
DF
330
CE
100
AcDbEntity
  8
$DDT_AUDIT_GENERATED_(82)
  6
Continuous
 62
     7
100
AcDbCircle
 10
266.1071005637
 20
414.3667524636
 30
0.0
 40
0.5000000000000004
100
AcDbArc
 50
0.0
 51
90.0
  0
ARC
  5
E0
330
CE
100
AcDbEntity
  8
$DDT_AUDIT_GENERATED_(82)
  6
Continuous
 62
     7
100
AcDbCircle
 10
207.1071005637
 20
414.3667524636
 30
0.0
 40
0.5000000000000004
100
AcDbArc
 50
90.0
 51
180.0
  0
ARC
  5
E1
330
CE
100
AcDbEntity
  8
$DDT_AUDIT_GENERATED_(82)
  6
Continuous
 62
     7
100
AcDbCircle
 10
261.1071005637
 20
418.3667524636
 30
0.0
 40
0.5000000000000004
100
AcDbArc
 50
0.0
 51
90.0
  0
ARC
  5
E2
330
CE
100
AcDbEntity
  8
$DDT_AUDIT_GENERATED_(82)
  6
Continuous
 62
     7
100
AcDbCircle
 10
212.1071005637
 20
418.3667524636
 30
0.0
 40
0.5000000000000004
100
AcDbArc
 50
90.0
 51
180.0
  0
ARC
  5
E3
330
CE
100
AcDbEntity
  8
$DDT_AUDIT_GENERATED_(82)
  6
Continuous
 62
     7
100
AcDbCircle
 10
262.1071005637
 20
415.3667524636
 30
0.0
 40
0.5000000000000004
100
AcDbArc
 50
180.0
 51
270.0
  0
ARC
  5
E4
330
CE
100
AcDbEntity
  8
$DDT_AUDIT_GENERATED_(82)
  6
Continuous
 62
     7
100
AcDbCircle
 10
211.1071005637
 20
415.3667524636
 30
0.0
 40
0.5000000000000004
100
AcDbArc
 50
270.0
 51
0.0
  0
LINE
  5
E5
330
CE
100
AcDbEntity
  8
$DDT_AUDIT_GENERATED_(90)
  6
Continuous
 62
     7
100
AcDbLine
 10
248.1071005637
 20
708.3667524636
 30
0.0
 11
225.1071005637
 21
708.3667524636
 31
0.0
  0
LINE
  5
E6
330
CE
100
AcDbEntity
  8
$DDT_AUDIT_GENERATED_(90)
  6
Continuous
 62
     7
100
AcDbLine
 10
331.3079362671
 20
860.4081899998
 30
0.0
 11
328.5049413688
 21
883.2367514876
 31
0.0
  0
ARC
  5
E7
330
CE
100
AcDbEntity
  8
$DDT_AUDIT_GENERATED_(90)
  6
Continuous
 62
     7
100
AcDbCircle
 10
276.6071005637
 20
824.9777418814
 30
0.0
 40
28.5
100
AcDbArc
 50
97.0
 51
180.0
  0
ARC
  5
E8
330
CE
100
AcDbEntity
  8
$DDT_AUDIT_GENERATED_(90)
  6
Continuous
 62
     7
100
AcDbCircle
 10
276.6071005637
 20
824.9777418814
 30
0.0
 40
51.50000000000001
100
AcDbArc
 50
97.0
 51
180.0
  0
LINE
  5
E9
330
CE
100
AcDbEntity
  8
$DDT_AUDIT_GENERATED_(90)
  6
Continuous
 62
     7
100
AcDbLine
 10
225.1071005637
 20
824.9777418814
 30
0.0
 11
225.1071005637
 21
708.3667524636
 31
0.0
  0
LINE
  5
EA
330
CE
100
AcDbEntity
  8
$DDT_AUDIT_GENERATED_(90)
  6
Continuous
 62
     7
100
AcDbLine
 10
248.1071005637
 20
708.3667524636
 30
0.0
 11
248.1071005637
 21
824.9777418814
 31
0.0
  0
LINE
  5
EB
330
CE
100
AcDbEntity
  8
$DDT_AUDIT_GENERATED_(90)
  6
Continuous
 62
     7
100
AcDbLine
 10
328.5049413688
 20
883.2367514876
 30
0.0
 11
270.3308293783
 21
876.0938686909
 31
0.0
  0
LINE
  5
EC
330
CE
100
AcDbEntity
  8
$DDT_AUDIT_GENERATED_(90)
  6
Continuous
 62
     7
100
AcDbLine
 10
273.1338242766
 20
853.2653072032
 30
0.0
 11
331.3079362671
 21
860.4081899998
 31
0.0
  0
LINE
  5
ED
330
CE
100
AcDbEntity
  8
$DDT_AUDIT_GENERATED_(98)
  6
Continuous
 62
     7
100
AcDbLine
 10
331.3079362671
 20
860.4081899998
 30
0.0
 11
328.5049413688
 21
883.2367514876
 31
0.0
  0
LINE
  5
EE
330
CE
100
AcDbEntity
  8
$DDT_AUDIT_GENERATED_(98)
  6
Continuous
 62
     7
100
AcDbLine
 10
396.6941129321
 20
869.4441128162
 30
0.0
 11
394.1348567206
 21
890.2875820007
 31
0.0
  0
SPLINE
  5
EF
330
CE
100
AcDbEntity
  8
$DDT_AUDIT_GENERATED_(98)
  6
Continuous
 62
     7
100
AcDbSpline
210
0.0
220
0.0
230
1.0
 70
     8
 71
     3
 72
    26
 73
    22
 74
     0
 42
0.0000000002050324
 43
0.0000000001
 40
0.0
 40
0.0
 40
0.0
 40
0.0
 40
0.0624999999999996
 40
0.0624999999999996
 40
0.1249999999999993
 40
0.1249999999999993
 40
0.1874999999999989
 40
0.1874999999999989
 40
0.2499999999999986
 40
0.2499999999999986
 40
0.2812499999999986
 40
0.2812499999999986
 40
0.3124999999999985
 40
0.3124999999999985
 40
0.3749999999999986
 40
0.3749999999999986
 40
0.4374999999999987
 40
0.4374999999999987
 40
0.4999999999999988
 40
0.4999999999999988
 40
0.5001802305501782
 40
0.5001802305501782
 40
0.5001802305501782
 40
0.5001802305501782
 10
368.8249346656385
 20
865.0146981745954
 30
0.0
 10
368.8249346656385
 20
865.0146981745954
 30
0.0
 10
369.1113699443503
 20
865.3419385131705
 30
0.0
 10
370.094400533948
 20
866.4331643512091
 30
0.0
 10
370.7823150017626
 20
867.188511381556
 30
0.0
 10
372.3967038528103
 20
868.8412258994039
 30
0.0
 10
373.3216010229425
 20
869.7525674884853
 30
0.0
 10
375.4718879821613
 20
871.4319603762389
 30
0.0
 10
376.7458452116948
 20
872.2253469901383
 30
0.0
 10
378.9347460746493
 20
872.4897205631426
 30
0.0
 10
379.6647386694527
 20
872.4172782734006
 30
0.0
 10
381.051015692211
 20
872.0868061883309
 30
0.0
 10
381.7017306147963
 20
871.8392054399584
 30
0.0
 10
383.5794684968875
 20
871.002018590485
 30
0.0
 10
384.6748485989114
 20
870.3536652466616
 30
0.0
 10
386.652130542155
 20
869.1338707066406
 30
0.0
 10
387.4956413324845
 20
868.5716113491277
 30
0.0
 10
388.7171149786362
 20
867.7481647067862
 30
0.0
 10
389.0708732641615
 20
867.5022130213739
 30
0.0
 10
389.0728730623691
 20
867.5008349141046
 30
0.0
 10
389.0728758408337
 20
867.5008330173855
 30
0.0
 10
389.0728756500324
 20
867.5008331845194
 30
0.0
  0
LINE
  5
F0
330
CE
100
AcDbEntity
  8
$DDT_AUDIT_GENERATED_(98)
  6
Continuous
 62
     7
100
AcDbLine
 10
393.0204412255
 20
891.1582588089
 30
0.0
 11
328.5049413688
 21
883.2367514876
 31
0.0
  0
LINE
  5
F1
330
CE
100
AcDbEntity
  8
$DDT_AUDIT_GENERATED_(98)
  6
Continuous
 62
     7
100
AcDbLine
 10
389.0477925056
 20
867.4977528947
 30
0.0
 11
395.8234361238
 21
868.3296973212
 31
0.0
  0
LINE
  5
F2
330
CE
100
AcDbEntity
  8
$DDT_AUDIT_GENERATED_(98)
  6
Continuous
 62
     7
100
AcDbLine
 10
331.3079362671
 20
860.4081899998
 30
0.0
 11
368.8249346656
 21
865.0146981746
 31
0.0
  0
ARC
  5
F3
330
CE
100
AcDbEntity
  8
$DDT_AUDIT_GENERATED_(98)
  6
Continuous
 62
     7
100
AcDbCircle
 10
395.7015667804
 20
869.3222434728
 30
0.0
 40
1.000000000000025
100
AcDbArc
 50
277.0
 51
7.0
  0
ARC
  5
F4
330
CE
100
AcDbEntity
  8
$DDT_AUDIT_GENERATED_(98)
  6
Continuous
 62
     7
100
AcDbCircle
 10
393.1423105689
 20
890.1657126573
 30
0.0
 40
1.000000000000005
100
AcDbArc
 50
7.0
 51
97.0
  0
LINE
  5
F5
330
CE
100
AcDbEntity
  8
$DDT_AUDIT_GENERATED_(A1)
  6
Continuous
 62
     7
100
AcDbLine
 10
251.6071005637
 20
700.3667524636
 30
0.0
 11
221.6071005637
 21
700.3667524636
 31
0.0
  0
LINE
  5
F6
330
CE
100
AcDbEntity
  8
$DDT_AUDIT_GENERATED_(A1)
  6
Continuous
 62
     7
100
AcDbLine
 10
251.1071005637
 20
707.3667524636
 30
0.0
 11
222.1071005637
 21
707.3667524636
 31
0.0
  0
LINE
  5
F7
330
CE
100
AcDbEntity
  8
$DDT_AUDIT_GENERATED_(A1)
  6
Continuous
 62
     7
100
AcDbLine
 10
221.6071005637
 20
703.9667524636
 30
0.0
 11
221.6071005637
 21
700.3667524636
 31
0.0
  0
LINE
  5
F8
330
CE
100
AcDbEntity
  8
$DDT_AUDIT_GENERATED_(A1)
  6
Continuous
 62
     7
100
AcDbLine
 10
221.6071005637
 20
706.8667524636
 30
0.0
 11
221.6071005637
 21
705.5167524636
 31
0.0
  0
LINE
  5
F9
330
CE
100
AcDbEntity
  8
$DDT_AUDIT_GENERATED_(A1)
  6
Continuous
 62
     7
100
AcDbLine
 10
251.6071005637
 20
700.3667524636
 30
0.0
 11
251.6071005637
 21
706.8667524636
 31
0.0
  0
LINE
  5
FA
330
CE
100
AcDbEntity
  8
$DDT_AUDIT_GENERATED_(A1)
  6
Continuous
 62
     7
100
AcDbLine
 10
225.1071005637
 20
707.7167524636
 30
0.0
 11
225.1071005637
 21
707.3667524636
 31
0.0
  0
LINE
  5
FB
330
CE
100
AcDbEntity
  8
$DDT_AUDIT_GENERATED_(A1)
  6
Continuous
 62
     7
100
AcDbLine
 10
248.1071005637
 20
707.3667524636
 30
0.0
 11
248.1071005637
 21
707.7167524636
 31
0.0
  0
LINE
  5
FC
330
CE
100
AcDbEntity
  8
$DDT_AUDIT_GENERATED_(A1)
  6
Continuous
 62
     7
100
AcDbLine
 10
248.1071005637
 20
707.7167524636
 30
0.0
 11
247.4571005637
 21
708.3667524636
 31
0.0
  0
LINE
  5
FD
330
CE
100
AcDbEntity
  8
$DDT_AUDIT_GENERATED_(A1)
  6
Continuous
 62
     7
100
AcDbLine
 10
225.7571005637
 20
708.3667524636
 30
0.0
 11
225.1071005637
 21
707.7167524636
 31
0.0
  0
ARC
  5
FE
330
CE
100
AcDbEntity
  8
$DDT_AUDIT_GENERATED_(A1)
  6
Continuous
 62
     7
100
AcDbCircle
 10
222.1071005637
 20
706.8667524636
 30
0.0
 40
0.5000000000000004
100
AcDbArc
 50
90.0
 51
180.0
  0
ARC
  5
FF
330
CE
100
AcDbEntity
  8
$DDT_AUDIT_GENERATED_(A1)
  6
Continuous
 62
     7
100
AcDbCircle
 10
251.1071005637
 20
706.8667524636
 30
0.0
 40
0.5000000000000004
100
AcDbArc
 50
0.0
 51
90.0
  0
ELLIPSE
  5
100
330
CE
100
AcDbEntity
  8
$DDT_AUDIT_GENERATED_(AC)
  6
Continuous
 62
     7
100
AcDbEllipse
 10
379.5746834753
 20
861.161212146
 30
0.0
 11
9.860946016556655
 21
1.210771926729859
 31
0.0
210
0.0
220
0.0
230
1.0
 40
0.5773502692
 41
1.273784882377948
 42
1.867807771211921
  0
LINE
  5
101
330
CE
100
AcDbEntity
  8
$DDT_AUDIT_GENERATED_(AC)
  6
Continuous
 62
     7
100
AcDbLine
 10
382.2070992386
 20
863.580367435
 30
0.0
 11
381.7921932229
 21
866.9595057616
 31
0.0
  0
LINE
  5
102
330
CE
100
AcDbEntity
  8
$DDT_AUDIT_GENERATED_(AC)
  6
Continuous
 62
     7
100
AcDbLine
 10
376.4352150771
 20
862.8716691727
 30
0.0
 11
376.0203090615
 21
866.2508074992
 31
0.0
  0
LINE
  5
103
330
CE
100
AcDbEntity
  8
$DDT_AUDIT_GENERATED_(AC)
  6
Continuous
 62
     7
100
AcDbLine
 10
370.1883027444
 20
861.7061898277
 30
0.0
 11
388.5504065498
 21
863.9607726807
 31
0.0
  0
LINE
  5
104
330
CE
100
AcDbEntity
  8
$DDT_AUDIT_GENERATED_(AC)
  6
Continuous
 62
     7
100
AcDbLine
 10
389.1821031744
 20
864.4367902306
 30
0.0
 11
388.7813143292
 21
867.7009534306
 31
0.0
  0
LINE
  5
105
330
CE
100
AcDbEntity
  8
$DDT_AUDIT_GENERATED_(AC)
  6
Continuous
 62
     7
100
AcDbLine
 10
369.0594209072
 20
865.2794208884
 30
0.0
 11
369.4602111413
 21
862.0152463771
 31
0.0
  0
LINE
  5
106
330
CE
100
AcDbEntity
  8
$DDT_AUDIT_GENERATED_(AC)
  6
Continuous
 62
     7
100
AcDbLine
 10
369.4602111413
 20
862.0152463771
 30
0.0
 11
370.1883027444
 21
861.7061898277
 31
0.0
  0
LINE
  5
107
330
CE
100
AcDbEntity
  8
$DDT_AUDIT_GENERATED_(AC)
  6
Continuous
 62
     7
100
AcDbLine
 10
388.5504065498
 20
863.9607726807
 30
0.0
 11
389.1821031744
 21
864.4367902306
 31
0.0
  0
LINE
  5
108
330
CE
100
AcDbEntity
  8
$DDT_AUDIT_GENERATED_(B9)
  6
Continuous
 62
     7
100
AcDbLine
 10
251.1071005637
 20
699.8667524636
 30
0.0
 11
251.1071005637
 21
700.3667524636
 31
0.0
  0
LINE
  5
109
330
CE
100
AcDbEntity
  8
$DDT_AUDIT_GENERATED_(B9)
  6
Continuous
 62
     7
100
AcDbLine
 10
222.1071005637
 20
700.3667524636
 30
0.0
 11
222.1071005637
 21
699.8667524636
 31
0.0
  0
LINE
  5
10A
330
CE
100
AcDbEntity
  8
$DDT_AUDIT_GENERATED_(C4)
  6
Continuous
 62
     7
100
AcDbLine
 10
216.6071005637
 20
598.8667524636
 30
0.0
 11
256.6071005637
 21
598.8667524636
 31
0.0
  0
LINE
  5
10B
330
CE
100
AcDbEntity
  8
$DDT_AUDIT_GENERATED_(C4)
  6
Continuous
 62
     7
100
AcDbLine
 10
256.6071005637
 20
418.8667524636
 30
0.0
 11
256.6071005637
 21
598.8667524636
 31
0.0
  0
LINE
  5
10C
330
CE
100
AcDbEntity
  8
$DDT_AUDIT_GENERATED_(C4)
  6
Continuous
 62
     7
100
AcDbLine
 10
216.6071005637
 20
598.8667524636
 30
0.0
 11
216.6071005637
 21
418.8667524636
 31
0.0
  0
LINE
  5
10E
330
CE
100
AcDbEntity
  8
$DDT_AUDIT_GENERATED_(10D)
  6
Continuous
 62
     7
100
AcDbLine
 10
206.8480950605
 20
644.5512153825
 30
0.0
 11
216.6760902364
 21
614.3037564263
 31
0.0
  0
LINE
  5
10F
330
CE
100
AcDbEntity
  8
$DDT_AUDIT_GENERATED_(10D)
  6
Continuous
 62
     7
100
AcDbLine
 10
216.6758709567
 20
627.2487032095
 30
0.0
 11
210.6523211257
 21
645.78728336
 31
0.0
  0
CIRCLE
  5
111
330
CE
100
AcDbEntity
  8
$DDT_AUDIT_GENERATED_(110)
  6
Continuous
 62
     7
100
AcDbCircle
 10
207.3341143253
 20
649.5275378473
 30
0.0
 40
5.0
  0
LINE
  5
113
330
CE
100
AcDbEntity
  8
DV2_Standard
  6
Continuous
 62
     7
100
AcDbLine
 10
221.6071005637
 20
705.5167524636
 30
0.0
 11
221.6071005637
 21
703.9667524636
 31
0.0
  0
LINE
  5
114
330
CE
100
AcDbEntity
  8
DV2_Standard
  6
CENTER2
 62
     7
100
AcDbLine
 10
256.6071001167
 20
408.8667524636
 30
0.0
 11
216.6071010107
 21
408.8667524636
 31
0.0
  0
LINE
  5
115
330
CE
100
AcDbEntity
  8
DV2_Standard
  6
CENTER2
 62
     7
100
AcDbLine
 10
236.6071005637
 20
428.8667520166
 30
0.0
 11
236.6071005637
 21
388.8667529107
 31
0.0
  0
ENDBLK
  5
117
330
CE
100
AcDbEntity
  8
0
100
AcDbBlockEnd
  0
BLOCK
  5
156
330
118
100
AcDbEntity
  8
0
100
AcDbBlockBegin
  2
SE2
 70
     0
 10
0.0
 20
0.0
 30
0.0
  3
SE2
  1

  0
LINE
  5
11A
330
118
100
AcDbEntity
  8
$DDT_AUDIT_GENERATED_(60)
  6
Continuous
 62
     7
100
AcDbLine
 10
84.35
 20
286.4460257511
 30
0.0
 11
84.35
 21
246.4460257511
 31
0.0
  0
ARC
  5
11B
330
118
100
AcDbEntity
  8
$DDT_AUDIT_GENERATED_(60)
  6
Continuous
 62
     7
100
AcDbCircle
 10
36.35
 20
266.4460257511
 30
0.0
 40
20.0
100
AcDbArc
 50
0.0
 51
234.9003678046
  0
ARC
  5
11C
330
118
100
AcDbEntity
  8
$DDT_AUDIT_GENERATED_(60)
  6
Continuous
 62
     7
100
AcDbCircle
 10
36.35
 20
266.4460257511
 30
0.0
 40
20.0
100
AcDbArc
 50
305.0996321954
 51
0.0
  0
LINE
  5
11D
330
118
100
AcDbEntity
  8
$DDT_AUDIT_GENERATED_(60)
  6
Continuous
 62
     7
100
AcDbLine
 10
47.85
 20
246.4460257511
 30
0.0
 11
84.35
 21
246.4460257511
 31
0.0
  0
LINE
  5
11E
330
118
100
AcDbEntity
  8
$DDT_AUDIT_GENERATED_(60)
  6
Continuous
 62
     7
100
AcDbLine
 10
84.35
 20
286.4460257511
 30
0.0
 11
36.35
 21
286.4460257511
 31
0.0
  0
ARC
  5
11F
330
118
100
AcDbEntity
  8
$DDT_AUDIT_GENERATED_(6B)
  6
Continuous
 62
     7
100
AcDbCircle
 10
75.95
 20
266.4460257511
 30
0.0
 40
20.0
100
AcDbArc
 50
62.0087210461
 51
65.1654125103
  0
ARC
  5
120
330
118
100
AcDbEntity
  8
$DDT_AUDIT_GENERATED_(6B)
  6
Continuous
 62
     7
100
AcDbCircle
 10
75.95
 20
266.4460257511
 30
0.0
 40
20.0
100
AcDbArc
 50
294.8345874897
 51
297.9912789539
  0
ELLIPSE
  5
121
330
118
100
AcDbEntity
  8
$DDT_AUDIT_GENERATED_(6F)
  6
Continuous
 62
     7
100
AcDbEllipse
 10
86.5798302747
 20
266.4460257511
 30
0.0
 11
-1.387778780781446E-14
 21
-19.99999999999999
 31
0.0
210
0.0
220
0.0
230
1.0
 40
0.4840456551
 41
-0.0776427329942508
 42
-0.0000000000000013
  0
ELLIPSE
  5
122
330
118
100
AcDbEntity
  8
$DDT_AUDIT_GENERATED_(6F)
  6
Continuous
 62
     7
100
AcDbEllipse
 10
86.5798302747
 20
266.4460257511
 30
0.0
 11
-1.387778780781446E-14
 21
-19.99999999999999
 31
0.0
210
0.0
220
0.0
230
1.0
 40
0.4840456551
 41
3.141592653589795
 42
3.219235386584044
  0
ELLIPSE
  5
123
330
118
100
AcDbEntity
  8
$DDT_AUDIT_GENERATED_(6F)
  6
Continuous
 62
     7
100
AcDbEllipse
 10
85.3474035587
 20
266.4460257511
 30
0.0
 11
-6.938893903907228E-15
 21
-19.79999999999996
 31
0.0
210
0.0
220
0.0
230
1.0
 40
0.0011907347
 41
3.281606298141752
 42
6.143171662627936
  0
ELLIPSE
  5
124
330
118
100
AcDbEntity
  8
$DDT_AUDIT_GENERATED_(6F)
  6
Continuous
 62
     7
100
AcDbEllipse
 10
106.8473883168
 20
266.4460257511
 30
0.0
 11
0.0
 21
-19.5
 31
0.0
210
0.0
220
0.0
230
1.0
 40
0.0011907347
 41
0.0048112721426476
 42
0.5119418989841351
  0
ELLIPSE
  5
125
330
118
100
AcDbEntity
  8
$DDT_AUDIT_GENERATED_(6F)
  6
Continuous
 62
     7
100
AcDbEllipse
 10
106.8473883168
 20
266.4460257511
 30
0.0
 11
0.0
 21
-19.5
 31
0.0
210
0.0
220
0.0
230
1.0
 40
0.0011907347
 41
-3.653534552573922
 42
-3.151914158546689
  0
ELLIPSE
  5
126
330
118
100
AcDbEntity
  8
$DDT_AUDIT_GENERATED_(6F)
  6
Continuous
 62
     7
100
AcDbEllipse
 10
106.8473883168
 20
266.4460257511
 30
0.0
 11
0.0
 21
-19.5
 31
0.0
210
0.0
220
0.0
230
1.0
 40
0.0011907347
 41
3.14760620329772
 42
6.276823885106745
  0
CIRCLE
  5
127
330
118
100
AcDbEntity
  8
$DDT_AUDIT_GENERATED_(6F)
  6
Continuous
 62
     7
100
AcDbCircle
 10
96.0098737476
 20
266.4460257511
 30
0.0
 40
4.499993619675603
  0
ELLIPSE
  5
128
330
118
100
AcDbEntity
  8
$DDT_AUDIT_GENERATED_(6F)
  6
Continuous
 62
     7
100
AcDbEllipse
 10
106.8473883168
 20
266.4460257511
 30
0.0
 11
0.0
 21
-17.05
 31
0.0
210
0.0
220
0.0
230
1.0
 40
0.0011907347
 41
3.064989967591056
 42
6.283185307179586
  0
ELLIPSE
  5
129
330
118
100
AcDbEntity
  8
$DDT_AUDIT_GENERATED_(6F)
  6
Continuous
 62
     7
100
AcDbEllipse
 10
106.8473883168
 20
266.4460257511
 30
0.0
 11
0.0
 21
-17.05
 31
0.0
210
0.0
220
0.0
230
1.0
 40
0.0011907347
 41
0.0
 42
0.0766026859987809
  0
SPLINE
  5
12A
330
118
100
AcDbEntity
  8
$DDT_AUDIT_GENERATED_(6F)
  6
Continuous
 62
     7
100
AcDbSpline
210
0.0
220
0.0
230
1.0
 70
     8
 71
     3
 72
    13
 73
     9
 74
     0
 42
0.000000015873591
 43
0.0000000001
 40
0.0
 40
0.0
 40
0.0
 40
0.0
 40
0.0432231526702294
 40
0.2315579863512455
 40
0.407818225943604
 40
0.6234303201819241
 40
0.950270936074376
 40
1.0
 40
1.0
 40
1.0
 40
1.0
 10
85.35019691358234
 20
246.8358372893331
 30
0.0
 10
85.34834254899523
 20
246.824323906912
 30
0.0
 10
85.33988262595754
 20
246.7718745424654
 30
0.0
 10
85.39774548248865
 20
246.6704594000938
 30
0.0
 10
85.48663333356463
 20
246.5987568775394
 30
0.0
 10
85.60211759341693
 20
246.5485356912844
 30
0.0
 10
85.71085821705992
 20
246.5206422387232
 30
0.0
 10
85.7933079343673
 20
246.5093373041499
 30
0.0
 10
85.80600357795923
 20
246.5076275317298
 30
0.0
  0
SPLINE
  5
12B
330
118
100
AcDbEntity
  8
$DDT_AUDIT_GENERATED_(6F)
  6
Continuous
 62
     7
100
AcDbSpline
210
0.0
220
0.0
230
1.0
 70
     8
 71
     3
 72
    12
 73
     8
 74
     0
 42
0.000000016937391
 43
0.0000000001
 40
0.0
 40
0.0
 40
0.0
 40
0.0
 40
0.1265846260595109
 40
0.5241434648725508
 40
0.738365960382201
 40
0.9283025650902001
 40
1.0
 40
1.0
 40
1.0
 40
1.0
 10
85.76615753863038
 20
286.3755212185062
 30
0.0
 10
85.73696190964927
 20
286.3713776126583
 30
0.0
 10
85.63364865105419
 20
286.3556358831293
 30
0.0
 10
85.52224000071712
 20
286.3157957966259
 30
0.0
 10
85.40882446389561
 20
286.2343921772699
 30
0.0
 10
85.34305167667982
 20
286.1300103585982
 30
0.0
 10
85.35049474344095
 20
286.0737658823587
 30
0.0
 10
85.35289901404865
 20
286.0555418702923
 30
0.0
  0
SPLINE
  5
12C
330
118
100
AcDbEntity
  8
$DDT_AUDIT_GENERATED_(6F)
  6
Continuous
 62
     7
100
AcDbSpline
210
0.0
220
0.0
230
1.0
 70
     8
 71
     3
 72
    15
 73
    11
 74
     0
 42
0.0000000135929413
 43
0.0000000001
 40
0.0
 40
0.0
 40
0.0
 40
0.0
 40
0.0250472247535285
 40
0.1061339422384806
 40
0.177496327152169
 40
0.2859081837939177
 40
0.4456608611359688
 40
0.656800214466313
 40
0.8748532284334134
 40
1.0
 40
1.0
 40
1.0
 40
1.0
 10
106.8441529464457
 20
286.003141376491
 30
0.0
 10
106.8440235611688
 20
286.0045879986011
 30
0.0
 10
106.8434685584364
 20
286.0101039878802
 30
0.0
 10
106.8404177390409
 20
286.0321866310048
 30
0.0
 10
106.8299561469447
 20
286.0816972763801
 30
0.0
 10
106.8013523836321
 20
286.164785107958
 30
0.0
 10
106.7342514890534
 20
286.2745415829847
 30
0.0
 10
106.6150795474888
 20
286.3790493825699
 30
0.0
 10
106.4711725960469
 20
286.4419914639392
 30
0.0
 10
106.3843472057007
 20
286.4395025171399
 30
0.0
 10
106.3475524639951
 20
286.437866010473
 30
0.0
  0
ARC
  5
12D
330
118
100
AcDbEntity
  8
$DDT_AUDIT_GENERATED_(6F)
  6
Continuous
 62
     7
100
AcDbCircle
 10
106.3550800149
 20
246.9411360289
 30
0.0
 40
0.4915114911160841
100
AcDbArc
 50
269.7670618982
 51
350.4874900272
  0
LINE
  5
12E
330
118
100
AcDbEntity
  8
$DDT_AUDIT_GENERATED_(6F)
  6
Continuous
 62
     7
100
AcDbLine
 10
86.5798302747
 20
246.4460257511
 30
0.0
 11
106.3473886713
 21
246.4460257511
 31
0.0
  0
LINE
  5
12F
330
118
100
AcDbEntity
  8
$DDT_AUDIT_GENERATED_(6F)
  6
Continuous
 62
     7
100
AcDbLine
 10
106.3473886713
 20
286.4460257511
 30
0.0
 11
86.5798302747
 21
286.4460257511
 31
0.0
  0
LINE
  5
130
330
118
100
AcDbEntity
  8
$DDT_AUDIT_GENERATED_(6F)
  6
Continuous
 62
     7
100
AcDbLine
 10
96.0098769378
 20
261.9460257511
 30
0.0
 11
96.0737191149
 21
261.9460257511
 31
0.0
  0
LINE
  5
131
330
118
100
AcDbEntity
  8
$DDT_AUDIT_GENERATED_(6F)
  6
Continuous
 62
     7
100
AcDbLine
 10
96.0737178041
 20
270.9460257511
 30
0.0
 11
96.0098769378
 21
270.9460257511
 31
0.0
  0
ARC
  5
132
330
118
100
AcDbEntity
  8
$DDT_AUDIT_GENERATED_(82)
  6
Continuous
 62
     7
100
AcDbCircle
 10
36.35
 20
266.4460257511
 30
0.0
 40
30.00000000000002
100
AcDbArc
 50
292.5403104635
 51
318.1896851042
  0
ARC
  5
133
330
118
100
AcDbEntity
  8
$DDT_AUDIT_GENERATED_(82)
  6
Continuous
 62
     7
100
AcDbCircle
 10
36.35
 20
266.4460257511
 30
0.0
 40
30.00000000000002
100
AcDbArc
 50
107.4576031237
 51
247.4596895365
  0
ARC
  5
134
330
118
100
AcDbEntity
  8
$DDT_AUDIT_GENERATED_(82)
  6
Continuous
 62
     7
100
AcDbCircle
 10
36.35
 20
266.4460257511
 30
0.0
 40
30.00000000000002
100
AcDbArc
 50
41.8103148958
 51
72.5423968763
  0
ARC
  5
135
330
118
100
AcDbEntity
  8
$DDT_AUDIT_GENERATED_(90)
  6
Continuous
 62
     7
100
AcDbCircle
 10
36.35
 20
266.4460257511
 30
0.0
 40
11.5
100
AcDbArc
 50
0.0
 51
180.0
  0
ELLIPSE
  5
136
330
118
100
AcDbEntity
  8
$DDT_AUDIT_GENERATED_(90)
  6
Continuous
 62
     7
100
AcDbEllipse
 10
36.35
 20
173.1466874968
 30
0.0
 11
11.5
 21
0.0
 31
0.0
210
0.0
220
0.0
230
1.0
 40
0.1218693434
 41
0.0
 42
3.141592653589793
  0
LINE
  5
137
330
118
100
AcDbEntity
  8
$DDT_AUDIT_GENERATED_(90)
  6
Continuous
 62
     7
100
AcDbLine
 10
24.85
 20
266.4460257511
 30
0.0
 11
24.85
 21
231.3207994873
 31
0.0
  0
LINE
  5
138
330
118
100
AcDbEntity
  8
$DDT_AUDIT_GENERATED_(90)
  6
Continuous
 62
     7
100
AcDbLine
 10
47.85
 20
231.3207994873
 30
0.0
 11
47.85
 21
266.4460257511
 31
0.0
  0
LINE
  5
139
330
118
100
AcDbEntity
  8
$DDT_AUDIT_GENERATED_(90)
  6
Continuous
 62
     7
100
AcDbLine
 10
47.85
 20
173.1466874968
 30
0.0
 11
47.85
 21
231.3207994873
 31
0.0
  0
LINE
  5
13A
330
118
100
AcDbEntity
  8
$DDT_AUDIT_GENERATED_(90)
  6
Continuous
 62
     7
100
AcDbLine
 10
24.85
 20
231.3207994873
 30
0.0
 11
24.85
 21
173.1466874968
 31
0.0
  0
ELLIPSE
  5
13B
330
118
100
AcDbEntity
  8
$DDT_AUDIT_GENERATED_(98)
  6
Continuous
 62
     7
100
AcDbEllipse
 10
36.35
 20
173.1466874968
 30
0.0
 11
-11.5
 21
-1.387778780781446E-14
 31
0.0
210
0.0
220
0.0
230
1.0
 40
0.1218693434
 41
3.141592653589793
 42
6.283185307179556
  0
LINE
  5
13C
330
118
100
AcDbEntity
  8
$DDT_AUDIT_GENERATED_(98)
  6
Continuous
 62
     7
100
AcDbLine
 10
47.85
 20
108.6311876402
 30
0.0
 11
47.85
 21
173.1466874968
 31
0.0
  0
LINE
  5
13D
330
118
100
AcDbEntity
  8
$DDT_AUDIT_GENERATED_(98)
  6
Continuous
 62
     7
100
AcDbLine
 10
24.85
 20
173.1466874968
 30
0.0
 11
24.85
 21
108.6311876402
 31
0.0
  0
SPLINE
  5
13E
330
118
100
AcDbEntity
  8
$DDT_AUDIT_GENERATED_(98)
  6
Continuous
 62
     7
100
AcDbSpline
210
0.0
220
0.0
230
1.0
 70
     8
 71
     3
 72
    51
 73
    47
 74
     0
 42
0.0000000004059511
 43
0.0000000001
 40
0.0
 40
0.0
 40
0.0
 40
0.0
 40
0.0060751142371659
 40
0.0186796491650112
 40
0.0309979650532415
 40
0.0437071299246909
 40
0.057659076764134
 40
0.0741221376168229
 40
0.095214002752649
 40
0.1242634656853391
 40
0.1524989090414656
 40
0.1793591478390934
 40
0.2076782741649981
 40
0.2351883009805943
 40
0.2622443944013502
 40
0.289030612236208
 40
0.3156448547132573
 40
0.3421442453606142
 40
0.3685645165460941
 40
0.3949293285066541
 40
0.4212551695359723
 40
0.4475541232383214
 40
0.4738355340276394
 40
0.5001070778792525
 40
0.5263755080556599
 40
0.5526461602173413
 40
0.5789244813007544
 40
0.6052174849747372
 40
0.6315333094724881
 40
0.6578820081784398
 40
0.6842766937932157
 40
0.7107353163369643
 40
0.737283595339381
 40
0.7639601390194641
 40
0.7908259528199676
 40
0.8179834423535748
 40
0.8456180096462922
 40
0.8741002137607154
 40
0.904271072544277
 40
0.9282268316388353
 40
0.9448482470151623
 40
0.9593262458566924
 40
0.9724328286272761
 40
0.9848717925215346
 40
0.9970725646259488
 40
1.0
 40
1.0
 40
1.0
 40
1.0
 10
24.86008920692156
 20
108.6322648556075
 30
0.0
 10
24.85739829925084
 20
108.5806634546273
 30
0.0
 10
24.85119462299202
 20
108.4461053869125
 30
0.0
 10
24.91933171795038
 20
108.2106332670894
 30
0.0
 10
25.03881733559881
 20
107.9780304775185
 30
0.0
 10
25.19279199684338
 20
107.7878878992084
 30
0.0
 10
25.36944585421839
 20
107.6314353005069
 30
0.0
 10
25.58003369447374
 20
107.4924418599448
 30
0.0
 10
25.8558008322439
 20
107.3554073273905
 30
0.0
 10
26.20657513561676
 20
107.2258375572434
 30
0.0
 10
26.63690181821432
 20
107.1042161780272
 30
0.0
 10
27.12305055340647
 20
106.9942769911434
 30
0.0
 10
27.66678233839412
 20
106.8936306665372
 30
0.0
 10
28.27395537164201
 20
106.8005476313347
 30
0.0
 10
28.92716679011162
 20
106.7166734626217
 30
0.0
 10
29.6256125762243
 20
106.6412875199971
 30
0.0
 10
30.36665433088988
 20
106.5742223321552
 30
0.0
 10
31.14649076837989
 20
106.5155546242069
 30
0.0
 10
31.96057639881237
 20
106.465459009916
 30
0.0
 10
32.80384301812244
 20
106.4241385515983
 30
0.0
 10
33.67083888495381
 20
106.3917880515155
 30
0.0
 10
34.55582903174195
 20
106.3685732702912
 30
0.0
 10
35.45287578625362
 20
106.3546186436114
 30
0.0
 10
36.35590867434505
 20
106.35
 30
0.0
 10
37.25877627901808
 20
106.3547404710536
 30
0.0
 10
38.15530717442948
 20
106.3688081596484
 30
0.0
 10
39.03938181674579
 20
106.3921161204726
 30
0.0
 10
39.90500430072898
 20
106.4245253165363
 30
0.0
 10
40.74636260776247
 20
106.4658499598561
 30
0.0
 10
41.55788265102613
 20
106.5158652561356
 30
0.0
 10
42.33430160531683
 20
106.5743202633565
 30
0.0
 10
43.07075487928572
 20
106.6409590046778
 30
0.0
 10
43.76288804928884
 20
106.7155562285595
 30
0.0
 10
44.40701713112678
 20
106.7979825253196
 30
0.0
 10
45.00038351789679
 20
106.8883281300755
 30
0.0
 10
45.54162567875906
 20
106.9871764703926
 30
0.0
 10
46.03173324280721
 20
107.0962202715039
 30
0.0
 10
46.47648866553815
 20
107.2201485745842
 30
0.0
 10
46.84749190442469
 20
107.3558452636573
 30
0.0
 10
47.13927235220506
 20
107.5020914169753
 30
0.0
 10
47.36456821893446
 20
107.6572623569149
 30
0.0
 10
47.54524590227164
 20
107.8276852624421
 30
0.0
 10
47.69938345829571
 20
108.0375714754224
 30
0.0
 10
47.80549320833399
 20
108.2845974201785
 30
0.0
 10
47.85604571713642
 20
108.5014778936146
 30
0.0
 10
47.84567013580936
 20
108.6102246126187
 30
0.0
 10
47.84324472571437
 20
108.6348417732169
 30
0.0
  0
ELLIPSE
  5
13F
330
118
100
AcDbEntity
  8
$DDT_AUDIT_GENERATED_(BC)
  6
Continuous
 62
     7
100
AcDbEllipse
 10
111.3473851267
 20
266.4460257511
 30
0.0
 11
0.0
 21
-16.50000000000001
 31
0.0
210
0.0
220
0.0
230
1.0
 40
0.0011907347
 41
0.0078690975062515
 42
3.134076782929543
  0
ELLIPSE
  5
140
330
118
100
AcDbEntity
  8
$DDT_AUDIT_GENERATED_(BC)
  6
Continuous
 62
     7
100
AcDbEllipse
 10
111.3473851267
 20
266.4460257511
 30
0.0
 11
0.0
 21
-16.50000000000001
 31
0.0
210
0.0
220
0.0
230
1.0
 40
0.0011907347
 41
3.148515887465356
 42
6.276239981903266
  0
SPLINE
  5
141
330
118
100
AcDbEntity
  8
$DDT_AUDIT_GENERATED_(BC)
  6
Continuous
 62
     7
100
AcDbSpline
210
0.0
220
0.0
230
1.0
 70
     8
 71
     3
 72
    15
 73
    11
 74
     0
 42
0.0000000138522008
 43
0.0000000001
 40
0.0
 40
0.0
 40
0.0
 40
0.0
 40
0.0560827688678795
 40
0.2938079371334335
 40
0.482798559963331
 40
0.6416964921133254
 40
0.7752555359107683
 40
0.8809256890147413
 40
0.9519067440091099
 40
1.0
 40
1.0
 40
1.0
 40
1.0
 10
110.8455973390242
 20
249.4518777116438
 30
0.0
 10
110.8608151186712
 20
249.4497976464044
 30
0.0
 10
110.9295162530232
 20
249.4408029112614
 30
0.0
 10
111.0525822328041
 20
249.4826259679266
 30
0.0
 10
111.1749332084727
 20
249.5604390632223
 30
0.0
 10
111.2558413909236
 20
249.6508064757865
 30
0.0
 10
111.3044310160823
 20
249.7368994333666
 30
0.0
 10
111.329037497598
 20
249.8071988317298
 30
0.0
 10
111.3389870175055
 20
249.8529497678825
 30
0.0
 10
111.3411838065722
 20
249.8670566837033
 30
0.0
 10
111.3421084358265
 20
249.8735424894422
 30
0.0
  0
ARC
  5
142
330
118
100
AcDbEntity
  8
$DDT_AUDIT_GENERATED_(BC)
  6
Continuous
 62
     7
100
AcDbCircle
 10
110.8580516736
 20
282.9527430127
 30
0.0
 40
0.4884696888835606
100
AcDbArc
 50
8.0852396903
 51
90.696445812
  0
LINE
  5
143
330
118
100
AcDbEntity
  8
$DDT_AUDIT_GENERATED_(BC)
  6
Continuous
 62
     7
100
AcDbLine
 10
106.8458346476
 20
249.4460257511
 30
0.0
 11
110.8473854811
 21
249.4460257511
 31
0.0
  0
LINE
  5
144
330
118
100
AcDbEntity
  8
$DDT_AUDIT_GENERATED_(BC)
  6
Continuous
 62
     7
100
AcDbLine
 10
110.8473854811
 20
283.4460257511
 30
0.0
 11
106.8458346476
 21
283.4460257511
 31
0.0
  0
LINE
  5
145
330
118
100
AcDbEntity
  8
$DDT_AUDIT_GENERATED_(10D)
  6
Continuous
 62
     7
100
AcDbLine
 10
34.35
 20
290.7190119895
 30
0.0
 11
34.35
 21
286.3457744933
 31
0.0
  0
LINE
  5
146
330
118
100
AcDbEntity
  8
$DDT_AUDIT_GENERATED_(10D)
  6
Continuous
 62
     7
100
AcDbLine
 10
38.35
 20
286.4460257511
 30
0.0
 11
38.35
 21
290.7190119895
 31
0.0
  0
LINE
  5
147
330
118
100
AcDbEntity
  8
$DDT_AUDIT_GENERATED_(110)
  6
Continuous
 62
     7
100
AcDbLine
 10
27.35
 20
300.2190119895
 30
0.0
 11
27.35
 21
291.2190119895
 31
0.0
  0
LINE
  5
148
330
118
100
AcDbEntity
  8
$DDT_AUDIT_GENERATED_(110)
  6
Continuous
 62
     7
100
AcDbLine
 10
45.35
 20
291.2190119895
 30
0.0
 11
45.35
 21
300.2190119895
 31
0.0
  0
LINE
  5
149
330
118
100
AcDbEntity
  8
$DDT_AUDIT_GENERATED_(110)
  6
Continuous
 62
     7
100
AcDbLine
 10
27.85
 20
290.7190119895
 30
0.0
 11
44.85
 21
290.7190119895
 31
0.0
  0
LINE
  5
14A
330
118
100
AcDbEntity
  8
$DDT_AUDIT_GENERATED_(110)
  6
Continuous
 62
     7
100
AcDbLine
 10
44.85
 20
300.7190119895
 30
0.0
 11
27.85
 21
300.7190119895
 31
0.0
  0
ARC
  5
14B
330
118
100
AcDbEntity
  8
$DDT_AUDIT_GENERATED_(110)
  6
Continuous
 62
     7
100
AcDbCircle
 10
27.85
 20
291.2190119895
 30
0.0
 40
0.5000000000000004
100
AcDbArc
 50
180.0
 51
270.0
  0
ARC
  5
14C
330
118
100
AcDbEntity
  8
$DDT_AUDIT_GENERATED_(110)
  6
Continuous
 62
     7
100
AcDbCircle
 10
27.85
 20
300.2190119895
 30
0.0
 40
0.5000000000000004
100
AcDbArc
 50
90.0
 51
180.0
  0
ARC
  5
14D
330
118
100
AcDbEntity
  8
$DDT_AUDIT_GENERATED_(110)
  6
Continuous
 62
     7
100
AcDbCircle
 10
44.85
 20
291.2190119895
 30
0.0
 40
0.5000000000000004
100
AcDbArc
 50
270.0
 51
0.0
  0
ARC
  5
14E
330
118
100
AcDbEntity
  8
$DDT_AUDIT_GENERATED_(110)
  6
Continuous
 62
     7
100
AcDbCircle
 10
44.85
 20
300.2190119895
 30
0.0
 40
0.5000000000000004
100
AcDbArc
 50
0.0
 51
90.0
  0
LINE
  5
150
330
118
100
AcDbEntity
  8
DV3_Standard
  6
CENTER2
 62
     7
100
AcDbLine
 10
56.349999553
 20
266.4460257511
 30
0.0
 11
16.350000447
 21
266.4460257511
 31
0.0
  0
LINE
  5
151
330
118
100
AcDbEntity
  8
DV3_Standard
  6
CENTER2
 62
     7
100
AcDbLine
 10
36.35
 20
286.4460253041
 30
0.0
 11
36.35
 21
246.4460261982
 31
0.0
  0
LINE
  5
152
330
118
100
AcDbEntity
  8
DV3_Standard
  6
CENTER2
 62
     7
100
AcDbLine
 10
61.3499994412
 20
266.4460257511
 30
0.0
 11
59.85
 21
266.4460257511
 31
0.0
  0
LINE
  5
153
330
118
100
AcDbEntity
  8
DV3_Standard
  6
CENTER2
 62
     7
100
AcDbLine
 10
36.35
 20
291.4460251923
 30
0.0
 11
36.35
 21
289.9460257511
 31
0.0
  0
LINE
  5
154
330
118
100
AcDbEntity
  8
DV3_Standard
  6
CENTER2
 62
     7
100
AcDbLine
 10
11.3500005588
 20
266.4460257511
 30
0.0
 11
12.85
 21
266.4460257511
 31
0.0
  0
LINE
  5
155
330
118
100
AcDbEntity
  8
DV3_Standard
  6
CENTER2
 62
     7
100
AcDbLine
 10
36.35
 20
241.4460263099
 30
0.0
 11
36.35
 21
242.9460257511
 31
0.0
  0
ENDBLK
  5
157
330
118
100
AcDbEntity
  8
0
100
AcDbBlockEnd
  0
ENDSEC
  0
SECTION
  2
ENTITIES
  0
INSERT
  5
5F
330
1F
100
AcDbEntity
  8
Default
100
AcDbBlockReference
  2
SE
 10
0.0
 20
0.0
 30
0.0
  0
INSERT
  5
CF
330
1F
100
AcDbEntity
  8
Default
100
AcDbBlockReference
  2
SE1
 10
0.0
 20
0.0
 30
0.0
  0
INSERT
  5
119
330
1F
100
AcDbEntity
  8
Default
100
AcDbBlockReference
  2
SE2
 10
0.0
 20
0.0
 30
0.0
  0
TEXT
  5
159
330
1F
100
AcDbEntity
  8
Default
  6
Continuous
 62
     7
100
AcDbText
 10
5.9362635081
 20
53.4225120485
 30
0.0
 40
10.0
  1
Grohe AG^J
  7
SEACAD_seiso_ttf
 11
5.9362635081
 21
63.4225120485
 31
0.0
100
AcDbText
 73
     3
  0
TEXT
  5
15A
330
1F
100
AcDbEntity
  8
Default
  6
Continuous
 62
     7
100
AcDbText
 10
5.9362635081
 20
37.0588756849
 30
0.0
 40
10.0
  1
 
  7
SEACAD_seiso_ttf
 11
5.9362635081
 21
47.0588756849
 31
0.0
100
AcDbText
 73
     3
  0
TEXT
  5
15B
330
1F
100
AcDbEntity
  8
Default
  6
Continuous
 62
     7
100
AcDbText
 10
5.9362635081
 20
20.6952393213
 30
0.0
 40
10.0
  1
ecn: 
  7
SEACAD_seiso_ttf
 11
5.9362635081
 21
30.6952393213
 31
0.0
100
AcDbText
 73
     3
  0
TEXT
  5
15C
330
1F
100
AcDbEntity
  8
Default
  6
Continuous
 62
     7
100
AcDbText
 10
5.9362635081
 20
4.3316029576
 30
0.0
 40
10.0
  1
unit: mm
  7
SEACAD_seiso_ttf
 11
5.9362635081
 21
14.3316029576
 31
0.0
100
AcDbText
 73
     3
  0
LINE
  5
15D
330
1F
100
AcDbEntity
  8
Default
  6
Continuous
 62
     7
100
AcDbLine
 10
0.0
 20
0.0
 30
0.0
 11
100.0
 21
0.0
 31
0.0
  0
LINE
  5
15E
330
1F
100
AcDbEntity
  8
Default
  6
Continuous
 62
     7
100
AcDbLine
 10
0.0
 20
0.0
 30
0.0
 11
0.0
 21
100.0
 31
0.0
  0
TEXT
  5
15F
330
1F
100
AcDbEntity
  8
Default
  6
Continuous
 62
     7
100
AcDbText
 10
24.3923665681
 20
-18.2375342018
 30
0.0
 40
10.0
  1
100 mm
  7
SEACAD_seiso_ttf
 11
24.3923665681
 21
-8.2375342018
 31
0.0
100
AcDbText
 73
     3
  0
TEXT
  5
160
330
1F
100
AcDbEntity
  8
Default
  6
Continuous
 62
     7
100
AcDbText
 10
-7.6150308803
 20
24.6231930421
 30
0.0
 40
10.0
  1
100 mm
 50
90.0
  7
SEACAD_seiso_ttf
 11
-17.6150308803
 21
24.6231930421
 31
0.0
100
AcDbText
 73
     3
  0
TEXT
  5
161
330
1F
100
AcDbEntity
  8
Default
  6
Continuous
 62
     7
100
AcDbText
 10
28.4878128572
 20
20.0907663715
 30
0.0
 40
10.0
  1
215572
  7
SEACAD_seiso_ttf
 11
28.4878128572
 21
30.0907663715
 31
0.0
100
AcDbText
 73
     3
  0
TEXT
  5
162
330
1F
100
AcDbEntity
  8
Default
  6
Continuous
 62
     7
100
AcDbText
 10
5.9012241913
 20
36.7242780188
 30
0.0
 40
10.0
  1
32130001
  7
SEACAD_seiso_ttf
 11
5.9012241913
 21
46.7242780188
 31
0.0
100
AcDbText
 73
     3
  0
ENDSEC
  0
SECTION
  2
OBJECTS
  0
DICTIONARY
  5
C
330
0
100
AcDbDictionary
281
     1
  3
ACAD_GROUP
350
D
  3
ACAD_LAYOUT
350
1A
  3
ACAD_MLEADERSTYLE
350
166
  3
ACAD_MLINESTYLE
350
17
  3
ACAD_PLOTSETTINGS
350
19
  3
ACAD_PLOTSTYLENAME
350
E
  3
ACAD_SCALELIST
350
3B
  3
ACAD_TABLESTYLE
350
165
  3
ACAD_VISUALSTYLE
350
2A
  3
AcDbVariableDictionary
350
163
  0
DICTIONARY
  5
D
102
{ACAD_REACTORS
330
C
102
}
330
C
100
AcDbDictionary
281
     1
  0
DICTIONARY
  5
1A
102
{ACAD_REACTORS
330
C
102
}
330
C
100
AcDbDictionary
281
     1
  3
Layout1
350
1E
  3
Model
350
22
  0
DICTIONARY
  5
166
102
{ACAD_REACTORS
330
C
102
}
330
C
100
AcDbDictionary
281
     1
  0
DICTIONARY
  5
17
102
{ACAD_REACTORS
330
C
102
}
330
C
100
AcDbDictionary
281
     1
  3
Standard
350
18
  0
DICTIONARY
  5
19
102
{ACAD_REACTORS
330
C
102
}
330
C
100
AcDbDictionary
281
     1
  0
ACDBDICTIONARYWDFLT
  5
E
102
{ACAD_REACTORS
330
C
102
}
330
C
100
AcDbDictionary
281
     1
  3
Normal
350
F
100
AcDbDictionaryWithDefault
340
F
  0
DICTIONARY
  5
3B
102
{ACAD_REACTORS
330
C
102
}
330
C
100
AcDbDictionary
281
     1
  3
A0
350
3C
  3
A1
350
3D
  3
A2
350
3E
  3
A3
350
3F
  3
A4
350
40
  3
A5
350
41
  3
A6
350
42
  3
A7
350
43
  3
A8
350
44
  3
A9
350
45
  3
B0
350
46
  3
B1
350
47
  3
B2
350
48
  3
B3
350
49
  3
B4
350
4A
  3
B5
350
4B
  3
B6
350
4C
  3
B7
350
4D
  3
B8
350
4E
  3
B9
350
4F
  3
C0
350
50
  3
C1
350
51
  3
C2
350
52
  3
C3
350
53
  3
C4
350
54
  3
C5
350
55
  3
C6
350
56
  3
C7
350
57
  3
C8
350
58
  3
C9
350
59
  3
D0
350
5A
  3
D1
350
5B
  3
D2
350
5C
  0
DICTIONARY
  5
165
102
{ACAD_REACTORS
330
C
102
}
330
C
100
AcDbDictionary
281
     1
  0
DICTIONARY
  5
2A
102
{ACAD_REACTORS
330
C
102
}
330
C
100
AcDbDictionary
281
     1
  3
2dWireframe
350
2F
  3
3D Hidden
350
31
  3
3dWireframe
350
30
  3
Basic
350
32
  3
Brighten
350
36
  3
ColorChange
350
3A
  3
Conceptual
350
34
  3
Dim
350
35
  3
Facepattern
350
39
  3
Flat
350
2B
  3
FlatWithEdges
350
2C
  3
Gouraud
350
2D
  3
GouraudWithEdges
350
2E
  3
Linepattern
350
38
  3
Realistic
350
33
  3
Thicken
350
37
  0
DICTIONARY
  5
163
102
{ACAD_REACTORS
330
C
102
}
330
C
100
AcDbDictionary
281
     1
  3
CANNOSCALE
350
164
  3
PSOLHEIGHT
350
168
  3
PSOLWIDTH
350
167
  0
LAYOUT
  5
1E
102
{ACAD_REACTORS
330
1A
102
}
330
1A
100
AcDbPlotSettings
  1

  2
none_device
  4

  6

 40
0.0
 41
0.0
 42
0.0
 43
0.0
 44
0.0
 45
0.0
 46
0.0
 47
0.0
 48
0.0
 49
0.0
140
0.0
141
0.0
142
1.0
143
1.0
 70
   688
 72
     0
 73
     0
 74
     5
  7

 75
    16
147
1.0
148
0.0
149
0.0
100
AcDbLayout
  1
Layout1
 70
     1
 71
     1
 10
0.0
 20
0.0
 11
1682.0
 21
2378.0
 12
0.0
 22
0.0
 32
0.0
 14
0.0
 24
0.0
 34
0.0
 15
1682.0
 25
2378.0
 35
0.0
146
0.0
 13
0.0
 23
0.0
 33
0.0
 16
1.0
 26
0.0
 36
0.0
 17
0.0
 27
1.0
 37
0.0
 76
     0
330
1B
  0
LAYOUT
  5
22
102
{ACAD_REACTORS
330
1A
102
}
330
1A
100
AcDbPlotSettings
  1

  2
none_device
  4

  6

 40
0.0
 41
0.0
 42
0.0
 43
0.0
 44
0.0
 45
0.0
 46
0.0
 47
0.0
 48
0.0
 49
0.0
140
0.0
141
0.0
142
1.0
143
1.0
 70
  1712
 72
     0
 73
     0
 74
     0
  7

 75
     0
147
1.0
148
0.0
149
0.0
100
AcDbLayout
  1
Model
 70
     1
 71
     0
 10
0.0
 20
0.0
 11
1682.0
 21
2378.0
 12
0.0
 22
0.0
 32
0.0
 14
0.0
 24
0.0
 34
0.0
 15
1682.0
 25
2378.0
 35
0.0
146
0.0
 13
0.0
 23
0.0
 33
0.0
 16
1.0
 26
0.0
 36
0.0
 17
0.0
 27
1.0
 37
0.0
 76
     0
330
1F
331
29
  0
MLINESTYLE
  5
18
102
{ACAD_REACTORS
330
17
102
}
330
17
100
AcDbMlineStyle
  2
Standard
 70
     0
  3

 62
   256
 51
90.0
 52
90.0
 71
     2
 49
0.5
 62
   256
  6
BYLAYER
 49
-0.5
 62
   256
  6
BYLAYER
  0
ACDBPLACEHOLDER
  5
F
102
{ACAD_REACTORS
330
E
102
}
330
E
  0
SCALE
  5
3C
102
{ACAD_REACTORS
330
3B
102
}
330
3B
100
AcDbScale
 70
     0
300
1:1
140
1.0
141
1.0
290
     1
  0
SCALE
  5
3D
102
{ACAD_REACTORS
330
3B
102
}
330
3B
100
AcDbScale
 70
     0
300
1:2
140
1.0
141
2.0
290
     0
  0
SCALE
  5
3E
102
{ACAD_REACTORS
330
3B
102
}
330
3B
100
AcDbScale
 70
     0
300
1:4
140
1.0
141
4.0
290
     0
  0
SCALE
  5
3F
102
{ACAD_REACTORS
330
3B
102
}
330
3B
100
AcDbScale
 70
     0
300
1:5
140
1.0
141
5.0
290
     0
  0
SCALE
  5
40
102
{ACAD_REACTORS
330
3B
102
}
330
3B
100
AcDbScale
 70
     0
300
1:8
140
1.0
141
8.0
290
     0
  0
SCALE
  5
41
102
{ACAD_REACTORS
330
3B
102
}
330
3B
100
AcDbScale
 70
     0
300
1:10
140
1.0
141
10.0
290
     0
  0
SCALE
  5
42
102
{ACAD_REACTORS
330
3B
102
}
330
3B
100
AcDbScale
 70
     0
300
1:16
140
1.0
141
16.0
290
     0
  0
SCALE
  5
43
102
{ACAD_REACTORS
330
3B
102
}
330
3B
100
AcDbScale
 70
     0
300
1:20
140
1.0
141
20.0
290
     0
  0
SCALE
  5
44
102
{ACAD_REACTORS
330
3B
102
}
330
3B
100
AcDbScale
 70
     0
300
1:30
140
1.0
141
30.0
290
     0
  0
SCALE
  5
45
102
{ACAD_REACTORS
330
3B
102
}
330
3B
100
AcDbScale
 70
     0
300
1:40
140
1.0
141
40.0
290
     0
  0
SCALE
  5
46
102
{ACAD_REACTORS
330
3B
102
}
330
3B
100
AcDbScale
 70
     0
300
1:50
140
1.0
141
50.0
290
     0
  0
SCALE
  5
47
102
{ACAD_REACTORS
330
3B
102
}
330
3B
100
AcDbScale
 70
     0
300
1:100
140
1.0
141
100.0
290
     0
  0
SCALE
  5
48
102
{ACAD_REACTORS
330
3B
102
}
330
3B
100
AcDbScale
 70
     0
300
2:1
140
2.0
141
1.0
290
     0
  0
SCALE
  5
49
102
{ACAD_REACTORS
330
3B
102
}
330
3B
100
AcDbScale
 70
     0
300
4:1
140
4.0
141
1.0
290
     0
  0
SCALE
  5
4A
102
{ACAD_REACTORS
330
3B
102
}
330
3B
100
AcDbScale
 70
     0
300
8:1
140
8.0
141
1.0
290
     0
  0
SCALE
  5
4B
102
{ACAD_REACTORS
330
3B
102
}
330
3B
100
AcDbScale
 70
     0
300
10:1
140
10.0
141
1.0
290
     0
  0
SCALE
  5
4C
102
{ACAD_REACTORS
330
3B
102
}
330
3B
100
AcDbScale
 70
     0
300
100:1
140
100.0
141
1.0
290
     0
  0
SCALE
  5
4D
102
{ACAD_REACTORS
330
3B
102
}
330
3B
100
AcDbScale
 70
     0
300
1/128" = 1'-0"
140
0.0078125
141
12.0
290
     0
  0
SCALE
  5
4E
102
{ACAD_REACTORS
330
3B
102
}
330
3B
100
AcDbScale
 70
     0
300
1/64" = 1'-0"
140
0.015625
141
12.0
290
     0
  0
SCALE
  5
4F
102
{ACAD_REACTORS
330
3B
102
}
330
3B
100
AcDbScale
 70
     0
300
1/32" = 1'-0"
140
0.03125
141
12.0
290
     0
  0
SCALE
  5
50
102
{ACAD_REACTORS
330
3B
102
}
330
3B
100
AcDbScale
 70
     0
300
1/16" = 1'-0"
140
0.0625
141
12.0
290
     0
  0
SCALE
  5
51
102
{ACAD_REACTORS
330
3B
102
}
330
3B
100
AcDbScale
 70
     0
300
3/32" = 1'-0"
140
0.09375
141
12.0
290
     0
  0
SCALE
  5
52
102
{ACAD_REACTORS
330
3B
102
}
330
3B
100
AcDbScale
 70
     0
300
1/8" = 1'-0"
140
0.125
141
12.0
290
     0
  0
SCALE
  5
53
102
{ACAD_REACTORS
330
3B
102
}
330
3B
100
AcDbScale
 70
     0
300
3/16" = 1'-0"
140
0.1875
141
12.0
290
     0
  0
SCALE
  5
54
102
{ACAD_REACTORS
330
3B
102
}
330
3B
100
AcDbScale
 70
     0
300
1/4" = 1'-0"
140
0.25
141
12.0
290
     0
  0
SCALE
  5
55
102
{ACAD_REACTORS
330
3B
102
}
330
3B
100
AcDbScale
 70
     0
300
3/8" = 1'-0"
140
0.375
141
12.0
290
     0
  0
SCALE
  5
56
102
{ACAD_REACTORS
330
3B
102
}
330
3B
100
AcDbScale
 70
     0
300
1/2" = 1'-0"
140
0.5
141
12.0
290
     0
  0
SCALE
  5
57
102
{ACAD_REACTORS
330
3B
102
}
330
3B
100
AcDbScale
 70
     0
300
3/4" = 1'-0"
140
0.75
141
12.0
290
     0
  0
SCALE
  5
58
102
{ACAD_REACTORS
330
3B
102
}
330
3B
100
AcDbScale
 70
     0
300
1" = 1'-0"
140
1.0
141
12.0
290
     0
  0
SCALE
  5
59
102
{ACAD_REACTORS
330
3B
102
}
330
3B
100
AcDbScale
 70
     0
300
1-1/2" = 1'-0"
140
1.5
141
12.0
290
     0
  0
SCALE
  5
5A
102
{ACAD_REACTORS
330
3B
102
}
330
3B
100
AcDbScale
 70
     0
300
3" = 1'-0"
140
3.0
141
12.0
290
     0
  0
SCALE
  5
5B
102
{ACAD_REACTORS
330
3B
102
}
330
3B
100
AcDbScale
 70
     0
300
6" = 1'-0"
140
6.0
141
12.0
290
     0
  0
SCALE
  5
5C
102
{ACAD_REACTORS
330
3B
102
}
330
3B
100
AcDbScale
 70
     0
300
1'-0" = 1'-0"
140
12.0
141
12.0
290
     0
  0
VISUALSTYLE
  5
2F
102
{ACAD_REACTORS
330
2A
102
}
330
2A
100
AcDbVisualStyle
  2
2dWireframe
 70
     4
 71
     0
 72
     2
 73
     0
 90
        0
 40
-0.6
 41
-30.0
 62
     5
 63
     7
 74
     1
 91
        4
 64
     7
 65
   257
 75
     1
175
     1
 42
1.0
 92
        0
 66
   257
 43
1.0
 76
     1
 77
     6
 78
     2
 67
     7
 79
     5
170
     0
171
     0
290
     0
174
     0
 93
        1
 44
0.0
173
     0
291
     0
 45
0.0
1001
ACAD
1000
AcDbSavedByObjectVersion
1070
     0
  0
VISUALSTYLE
  5
31
102
{ACAD_REACTORS
330
2A
102
}
330
2A
100
AcDbVisualStyle
  2
3D Hidden
 70
     6
 71
     1
 72
     2
 73
     2
 90
        0
 40
-0.6
 41
-30.0
 62
     5
 63
     7
 74
     2
 91
        2
 64
     7
 65
   257
 75
     2
175
     1
 42
40.0
 92
        0
 66
   257
 43
1.0
 76
     1
 77
     6
 78
     2
 67
     7
 79
     3
170
     0
171
     0
290
     0
174
     0
 93
        1
 44
0.0
173
     0
291
     0
 45
0.0
1001
ACAD
1000
AcDbSavedByObjectVersion
1070
     0
  0
VISUALSTYLE
  5
30
102
{ACAD_REACTORS
330
2A
102
}
330
2A
100
AcDbVisualStyle
  2
3dWireframe
 70
     5
 71
     0
 72
     2
 73
     0
 90
        0
 40
-0.6
 41
-30.0
 62
     5
 63
     7
 74
     1
 91
        4
 64
     7
 65
   257
 75
     1
175
     1
 42
1.0
 92
        0
 66
   257
 43
1.0
 76
     1
 77
     6
 78
     2
 67
     7
 79
     5
170
     0
171
     0
290
     0
174
     0
 93
        1
 44
0.0
173
     0
291
     0
 45
0.0
1001
ACAD
1000
AcDbSavedByObjectVersion
1070
     0
  0
VISUALSTYLE
  5
32
102
{ACAD_REACTORS
330
2A
102
}
330
2A
100
AcDbVisualStyle
  2
Basic
 70
     7
 71
     1
 72
     0
 73
     1
 90
        0
 40
-0.6
 41
-30.0
 62
     5
 63
     7
 74
     0
 91
        4
 64
     7
 65
   257
 75
     1
175
     1
 42
1.0
 92
        8
 66
     7
 43
1.0
 76
     1
 77
     6
 78
     2
 67
     7
 79
     5
170
     0
171
     0
290
     0
174
     0
 93
        1
 44
0.0
173
     0
291
     1
 45
0.0
1001
ACAD
1000
AcDbSavedByObjectVersion
1070
     0
  0
VISUALSTYLE
  5
36
102
{ACAD_REACTORS
330
2A
102
}
330
2A
100
AcDbVisualStyle
  2
Brighten
 70
    12
 71
     2
 72
     2
 73
     0
 90
        0
 40
-0.6
 41
-30.0
 62
     5
 63
     7
 74
     1
 91
        4
 64
     7
 65
   257
 75
     1
175
     1
 42
1.0
 92
        8
 66
     7
 43
1.0
 76
     1
 77
     6
 78
     2
 67
     7
 79
     5
170
     0
171
     0
290
     0
174
     0
 93
        1
 44
50.0
173
     0
291
     1
 45
0.0
1001
ACAD
1000
AcDbSavedByObjectVersion
1070
     0
  0
VISUALSTYLE
  5
3A
102
{ACAD_REACTORS
330
2A
102
}
330
2A
100
AcDbVisualStyle
  2
ColorChange
 70
    16
 71
     2
 72
     2
 73
     3
 90
        0
 40
-0.6
 41
-30.0
 62
     5
 63
     8
 74
     1
 91
        4
 64
     7
 65
   257
 75
     1
175
     1
 42
1.0
 92
        8
 66
     8
 43
1.0
 76
     1
 77
     6
 78
     2
 67
     7
 79
     5
170
     0
171
     0
290
     0
174
     0
 93
        1
 44
0.0
173
     0
291
     1
 45
0.0
1001
ACAD
1000
AcDbSavedByObjectVersion
1070
     0
  0
VISUALSTYLE
  5
34
102
{ACAD_REACTORS
330
2A
102
}
330
2A
100
AcDbVisualStyle
  2
Conceptual
 70
     9
 71
     3
 72
     2
 73
     0
 90
        0
 40
-0.6
 41
-30.0
 62
     5
 63
     7
 74
     2
 91
        2
 64
     7
 65
   257
 75
     1
175
     1
 42
40.0
 92
        8
 66
     7
 43
1.0
 76
     1
 77
     6
 78
     2
 67
     7
 79
     3
170
     0
171
     0
290
     0
174
     0
 93
        1
 44
0.0
173
     0
291
     0
 45
0.0
1001
ACAD
1000
AcDbSavedByObjectVersion
1070
     0
  0
VISUALSTYLE
  5
35
102
{ACAD_REACTORS
330
2A
102
}
330
2A
100
AcDbVisualStyle
  2
Dim
 70
    11
 71
     2
 72
     2
 73
     0
 90
        0
 40
-0.6
 41
-30.0
 62
     5
 63
     7
 74
     1
 91
        4
 64
     7
 65
   257
 75
     1
175
     1
 42
1.0
 92
        8
 66
     7
 43
1.0
 76
     1
 77
     6
 78
     2
 67
     7
 79
     5
170
     0
171
     0
290
     0
174
     0
 93
        1
 44
-50.0
173
     0
291
     1
 45
0.0
1001
ACAD
1000
AcDbSavedByObjectVersion
1070
     0
  0
VISUALSTYLE
  5
39
102
{ACAD_REACTORS
330
2A
102
}
330
2A
100
AcDbVisualStyle
  2
Facepattern
 70
    15
 71
     2
 72
     2
 73
     0
 90
        0
 40
-0.6
 41
-30.0
 62
     5
 63
     7
 74
     1
 91
        4
 64
     7
 65
   257
 75
     1
175
     1
 42
1.0
 92
        8
 66
     7
 43
1.0
 76
     1
 77
     6
 78
     2
 67
     7
 79
     5
170
     0
171
     0
290
     0
174
     0
 93
        1
 44
0.0
173
     0
291
     1
 45
0.0
1001
ACAD
1000
AcDbSavedByObjectVersion
1070
     0
  0
VISUALSTYLE
  5
2B
102
{ACAD_REACTORS
330
2A
102
}
330
2A
100
AcDbVisualStyle
  2
Flat
 70
     0
 71
     2
 72
     1
 73
     1
 90
        2
 40
-0.6
 41
30.0
 62
     5
 63
     7
 74
     0
 91
        4
 64
     7
 65
   257
 75
     1
175
     1
 42
1.0
 92
        8
 66
     7
 43
1.0
 76
     1
 77
     6
 78
     2
 67
     7
 79
     5
170
     0
171
     0
290
     0
174
     0
 93
       13
 44
0.0
173
     0
291
     1
 45
0.0
1001
ACAD
1000
AcDbSavedByObjectVersion
1070
     0
  0
VISUALSTYLE
  5
2C
102
{ACAD_REACTORS
330
2A
102
}
330
2A
100
AcDbVisualStyle
  2
FlatWithEdges
 70
     1
 71
     2
 72
     1
 73
     1
 90
        2
 40
-0.6
 41
30.0
 62
     5
 63
     7
 74
     1
 91
        4
 64
     7
 65
   257
 75
     1
175
     1
 42
1.0
 92
        0
 66
   257
 43
1.0
 76
     1
 77
     6
 78
     2
 67
     7
 79
     5
170
     0
171
     0
290
     0
174
     0
 93
       13
 44
0.0
173
     0
291
     1
 45
0.0
1001
ACAD
1000
AcDbSavedByObjectVersion
1070
     0
  0
VISUALSTYLE
  5
2D
102
{ACAD_REACTORS
330
2A
102
}
330
2A
100
AcDbVisualStyle
  2
Gouraud
 70
     2
 71
     2
 72
     2
 73
     1
 90
        2
 40
-0.6
 41
30.0
 62
     5
 63
     7
 74
     0
 91
        4
 64
     7
 65
   257
 75
     1
175
     1
 42
1.0
 92
        0
 66
     7
 43
1.0
 76
     1
 77
     6
 78
     2
 67
     7
 79
     5
170
     0
171
     0
290
     0
174
     0
 93
       13
 44
0.0
173
     0
291
     1
 45
0.0
1001
ACAD
1000
AcDbSavedByObjectVersion
1070
     0
  0
VISUALSTYLE
  5
2E
102
{ACAD_REACTORS
330
2A
102
}
330
2A
100
AcDbVisualStyle
  2
GouraudWithEdges
 70
     3
 71
     2
 72
     2
 73
     1
 90
        2
 40
-0.6
 41
30.0
 62
     5
 63
     7
 74
     1
 91
        4
 64
     7
 65
   257
 75
     1
175
     1
 42
1.0
 92
        0
 66
   257
 43
1.0
 76
     1
 77
     6
 78
     2
 67
     7
 79
     5
170
     0
171
     0
290
     0
174
     0
 93
       13
 44
0.0
173
     0
291
     1
 45
0.0
1001
ACAD
1000
AcDbSavedByObjectVersion
1070
     0
  0
VISUALSTYLE
  5
38
102
{ACAD_REACTORS
330
2A
102
}
330
2A
100
AcDbVisualStyle
  2
Linepattern
 70
    14
 71
     2
 72
     2
 73
     0
 90
        0
 40
-0.6
 41
-30.0
 62
     5
 63
     7
 74
     1
 91
        4
 64
     7
 65
   257
 75
     7
175
     7
 42
1.0
 92
        8
 66
     7
 43
1.0
 76
     1
 77
     6
 78
     2
 67
     7
 79
     5
170
     0
171
     0
290
     0
174
     0
 93
        1
 44
0.0
173
     0
291
     1
 45
0.0
1001
ACAD
1000
AcDbSavedByObjectVersion
1070
     0
  0
VISUALSTYLE
  5
33
102
{ACAD_REACTORS
330
2A
102
}
330
2A
100
AcDbVisualStyle
  2
Realistic
 70
     8
 71
     2
 72
     2
 73
     0
 90
        0
 40
-0.6
 41
-30.0
 62
     5
 63
     7
 74
     1
 91
        0
 64
     7
 65
   257
 75
     1
175
     1
 42
1.0
 92
        8
 66
     8
 43
1.0
 76
     1
 77
     6
 78
     2
 67
     7
 79
     5
170
     0
171
     0
290
     0
174
     0
 93
       13
 44
0.0
173
     0
291
     0
 45
0.0
1001
ACAD
1000
AcDbSavedByObjectVersion
1070
     0
  0
VISUALSTYLE
  5
37
102
{ACAD_REACTORS
330
2A
102
}
330
2A
100
AcDbVisualStyle
  2
Thicken
 70
    13
 71
     2
 72
     2
 73
     0
 90
        0
 40
-0.6
 41
-30.0
 62
     5
 63
     7
 74
     1
 91
        4
 64
     7
 65
   257
 75
     1
175
     1
 42
1.0
 92
       12
 66
     7
 43
1.0
 76
     1
 77
     6
 78
     2
 67
     7
 79
     5
170
     0
171
     0
290
     0
174
     0
 93
        1
 44
0.0
173
     0
291
     1
 45
0.0
1001
ACAD
1000
AcDbSavedByObjectVersion
1070
     0
  0
DICTIONARYVAR
  5
164
102
{ACAD_REACTORS
330
163
102
}
330
163
100
DictionaryVariables
280
     0
  1
1:1
  0
DICTIONARYVAR
  5
168
102
{ACAD_REACTORS
330
163
102
}
330
163
100
DictionaryVariables
280
     0
  1
80.000000
  0
DICTIONARYVAR
  5
167
102
{ACAD_REACTORS
330
163
102
}
330
163
100
DictionaryVariables
280
     0
  1
5.000000
  0
ENDSEC
  0
EOF
