  0
SECTION
  2
HEADER
  9
$ACADVER
  1
AC1015
  9
$ACADMAINTVER
 70
     6
  9
$DWGCODEPAGE
  3
ANSI_1252
  9
$INSBASE
 10
0.0
 20
0.0
 30
0.0
  9
$EXTMIN
 10
0.0
 20
0.0
 30
0.0
  9
$EXTMAX
 10
1682.0
 20
2378.0
 30
0.0
  9
$LIMMIN
 10
0.0
 20
0.0
  9
$LIMMAX
 10
1682.0
 20
2378.0
  9
$ORTHOMODE
 70
     0
  9
$REGENMODE
 70
     1
  9
$FILLMODE
 70
     1
  9
$QTEXTMODE
 70
     0
  9
$MIRRTEXT
 70
     1
  9
$LTSCALE
 40
1.0
  9
$ATTMODE
 70
     1
  9
$TEXTSIZE
 40
2.5
  9
$TRACEWID
 40
1.0
  9
$TEXTSTYLE
  7
Standard
  9
$CLAYER
  8
0
  9
$CELTYPE
  6
ByLayer
  9
$CECOLOR
 62
   256
  9
$CELTSCALE
 40
1.0
  9
$DISPSILH
 70
     0
  9
$DIMSCALE
 40
1.0
  9
$DIMASZ
 40
2.5
  9
$DIMEXO
 40
0.625
  9
$DIMDLI
 40
3.75
  9
$DIMRND
 40
0.0
  9
$DIMDLE
 40
0.0
  9
$DIMEXE
 40
1.25
  9
$DIMTP
 40
0.0
  9
$DIMTM
 40
0.0
  9
$DIMTXT
 40
2.5
  9
$DIMCEN
 40
2.5
  9
$DIMTSZ
 40
0.0
  9
$DIMTOL
 70
     0
  9
$DIMLIM
 70
     0
  9
$DIMTIH
 70
     0
  9
$DIMTOH
 70
     0
  9
$DIMSE1
 70
     0
  9
$DIMSE2
 70
     0
  9
$DIMTAD
 70
     1
  9
$DIMZIN
 70
     8
  9
$DIMBLK
  1

  9
$DIMASO
 70
     1
  9
$DIMSHO
 70
     1
  9
$DIMPOST
  1

  9
$DIMAPOST
  1

  9
$DIMALT
 70
     0
  9
$DIMALTD
 70
     3
  9
$DIMALTF
 40
0.0393700787
  9
$DIMLFAC
 40
1.0
  9
$DIMTOFL
 70
     1
  9
$DIMTVP
 40
0.0
  9
$DIMTIX
 70
     0
  9
$DIMSOXD
 70
     0
  9
$DIMSAH
 70
     0
  9
$DIMBLK1
  1

  9
$DIMBLK2
  1

  9
$DIMSTYLE
  2
ISO-25
  9
$DIMCLRD
 70
     0
  9
$DIMCLRE
 70
     0
  9
$DIMCLRT
 70
     0
  9
$DIMTFAC
 40
1.0
  9
$DIMGAP
 40
0.625
  9
$DIMJUST
 70
     0
  9
$DIMSD1
 70
     0
  9
$DIMSD2
 70
     0
  9
$DIMTOLJ
 70
     0
  9
$DIMTZIN
 70
     8
  9
$DIMALTZ
 70
     0
  9
$DIMALTTZ
 70
     0
  9
$DIMUPT
 70
     0
  9
$DIMDEC
 70
     2
  9
$DIMTDEC
 70
     2
  9
$DIMALTU
 70
     2
  9
$DIMALTTD
 70
     3
  9
$DIMTXSTY
  7
Standard
  9
$DIMAUNIT
 70
     0
  9
$DIMADEC
 70
     0
  9
$DIMALTRND
 40
0.0
  9
$DIMAZIN
 70
     0
  9
$DIMDSEP
 70
    44
  9
$DIMATFIT
 70
     3
  9
$DIMFRAC
 70
     0
  9
$DIMLDRBLK
  1

  9
$DIMLUNIT
 70
     2
  9
$DIMLWD
 70
    -2
  9
$DIMLWE
 70
    -2
  9
$DIMTMOVE
 70
     0
  9
$LUNITS
 70
     2
  9
$LUPREC
 70
     4
  9
$SKETCHINC
 40
1.0
  9
$FILLETRAD
 40
10.0
  9
$AUNITS
 70
     0
  9
$AUPREC
 70
     0
  9
$MENU
  1
.
  9
$ELEVATION
 40
0.0
  9
$PELEVATION
 40
0.0
  9
$THICKNESS
 40
0.0
  9
$LIMCHECK
 70
     0
  9
$CHAMFERA
 40
10.0
  9
$CHAMFERB
 40
10.0
  9
$CHAMFERC
 40
20.0
  9
$CHAMFERD
 40
0.0
  9
$SKPOLY
 70
     0
  9
$TDCREATE
 40
2455231.609830834
  9
$TDUCREATE
 40
2455231.568164167
  9
$TDUPDATE
 40
2455231.609830845
  9
$TDUUPDATE
 40
2455231.568164178
  9
$TDINDWG
 40
0.0000000116
  9
$TDUSRTIMER
 40
0.0000000116
  9
$USRTIMER
 70
     1
  9
$ANGBASE
 50
0.0
  9
$ANGDIR
 70
     0
  9
$PDMODE
 70
     0
  9
$PDSIZE
 40
0.0
  9
$PLINEWID
 40
0.0
  9
$SPLFRAME
 70
     0
  9
$SPLINETYPE
 70
     6
  9
$SPLINESEGS
 70
     8
  9
$HANDSEED
  5
13C
  9
$SURFTAB1
 70
     6
  9
$SURFTAB2
 70
     6
  9
$SURFTYPE
 70
     6
  9
$SURFU
 70
     6
  9
$SURFV
 70
     6
  9
$UCSBASE
  2

  9
$UCSNAME
  2

  9
$UCSORG
 10
0.0
 20
0.0
 30
0.0
  9
$UCSXDIR
 10
1.0
 20
0.0
 30
0.0
  9
$UCSYDIR
 10
0.0
 20
1.0
 30
0.0
  9
$UCSORTHOREF
  2

  9
$UCSORTHOVIEW
 70
     0
  9
$UCSORGTOP
 10
0.0
 20
0.0
 30
0.0
  9
$UCSORGBOTTOM
 10
0.0
 20
0.0
 30
0.0
  9
$UCSORGLEFT
 10
0.0
 20
0.0
 30
0.0
  9
$UCSORGRIGHT
 10
0.0
 20
0.0
 30
0.0
  9
$UCSORGFRONT
 10
0.0
 20
0.0
 30
0.0
  9
$UCSORGBACK
 10
0.0
 20
0.0
 30
0.0
  9
$PUCSBASE
  2

  9
$PUCSNAME
  2

  9
$PUCSORG
 10
0.0
 20
0.0
 30
0.0
  9
$PUCSXDIR
 10
1.0
 20
0.0
 30
0.0
  9
$PUCSYDIR
 10
0.0
 20
1.0
 30
0.0
  9
$PUCSORTHOREF
  2

  9
$PUCSORTHOVIEW
 70
     0
  9
$PUCSORGTOP
 10
0.0
 20
0.0
 30
0.0
  9
$PUCSORGBOTTOM
 10
0.0
 20
0.0
 30
0.0
  9
$PUCSORGLEFT
 10
0.0
 20
0.0
 30
0.0
  9
$PUCSORGRIGHT
 10
0.0
 20
0.0
 30
0.0
  9
$PUCSORGFRONT
 10
0.0
 20
0.0
 30
0.0
  9
$PUCSORGBACK
 10
0.0
 20
0.0
 30
0.0
  9
$USERI1
 70
     0
  9
$USERI2
 70
     0
  9
$USERI3
 70
     0
  9
$USERI4
 70
     0
  9
$USERI5
 70
     0
  9
$USERR1
 40
0.0
  9
$USERR2
 40
0.0
  9
$USERR3
 40
0.0
  9
$USERR4
 40
0.0
  9
$USERR5
 40
0.0
  9
$WORLDVIEW
 70
     1
  9
$SHADEDGE
 70
     3
  9
$SHADEDIF
 70
    70
  9
$TILEMODE
 70
     1
  9
$MAXACTVP
 70
    64
  9
$PINSBASE
 10
0.0
 20
0.0
 30
0.0
  9
$PLIMCHECK
 70
     0
  9
$PEXTMIN
 10
0.0
 20
0.0
 30
0.0
  9
$PEXTMAX
 10
1682.0
 20
2378.0
 30
0.0
  9
$PLIMMIN
 10
0.0
 20
0.0
  9
$PLIMMAX
 10
1682.0
 20
2378.0
  9
$UNITMODE
 70
     0
  9
$VISRETAIN
 70
     1
  9
$PLINEGEN
 70
     0
  9
$PSLTSCALE
 70
     1
  9
$TREEDEPTH
 70
  3020
  9
$CMLSTYLE
  2
Standard
  9
$CMLJUST
 70
     0
  9
$CMLSCALE
 40
20.0
  9
$PROXYGRAPHICS
 70
     1
  9
$MEASUREMENT
 70
     1
  9
$CELWEIGHT
370
    -1
  9
$ENDCAPS
280
     0
  9
$JOINSTYLE
280
     0
  9
$LWDISPLAY
290
     0
  9
$INSUNITS
 70
     4
  9
$HYPERLINKBASE
  1

  9
$STYLESHEET
  1

  9
$XEDIT
290
     1
  9
$CEPSNTYPE
380
     0
  9
$PSTYLEMODE
290
     1
  9
$FINGERPRINTGUID
  2
{8EBB5A5E-AFBA-4943-B074-C7F8B792E0DB}
  9
$VERSIONGUID
  2
{FAEB1C32-E019-11D5-929B-00C0DF256EC4}
  9
$EXTNAMES
290
     1
  9
$PSVPSCALE
 40
0.0
  9
$OLESTARTUP
290
     0
  0
ENDSEC
  0
SECTION
  2
CLASSES
  0
CLASS
  1
ACDBDICTIONARYWDFLT
  2
AcDbDictionaryWithDefault
  3
ObjectDBX Classes
 90
        0
280
     0
281
     0
  0
CLASS
  1
VISUALSTYLE
  2
AcDbVisualStyle
  3
ObjectDBX Classes
 90
     4095
280
     0
281
     0
  0
CLASS
  1
SCALE
  2
AcDbScale
  3
ObjectDBX Classes
 90
     1153
280
     0
281
     0
  0
CLASS
  1
DICTIONARYVAR
  2
AcDbDictionaryVar
  3
ObjectDBX Classes
 90
        0
280
     0
281
     0
  0
CLASS
  1
ACDBPLACEHOLDER
  2
AcDbPlaceHolder
  3
ObjectDBX Classes
 90
        0
280
     0
281
     0
  0
CLASS
  1
LAYOUT
  2
AcDbLayout
  3
ObjectDBX Classes
 90
        0
280
     0
281
     0
  0
ENDSEC
  0
SECTION
  2
TABLES
  0
TABLE
  2
VPORT
  5
8
330
0
100
AcDbSymbolTable
 70
     1
  0
VPORT
  5
29
330
8
100
AcDbSymbolTableRecord
100
AcDbViewportTableRecord
  2
*Active
 70
     0
 10
0.0
 20
0.0
 11
1.0
 21
1.0
 12
344.1869158879
 22
148.5
 13
0.0
 23
0.0
 14
10.0
 24
10.0
 15
10.0
 25
10.0
 16
0.0
 26
0.0
 36
1.0
 17
0.0
 27
0.0
 37
0.0
 40
297.0
 41
1.9729729729
 42
50.0
 43
0.0
 44
0.0
 50
0.0
 51
0.0
 71
     0
 72
   100
 73
     1
 74
     3
 75
     0
 76
     0
 77
     0
 78
     0
281
     0
 65
     1
110
0.0
120
0.0
130
0.0
111
1.0
121
0.0
131
0.0
112
0.0
122
1.0
132
0.0
 79
     0
146
0.0
  0
ENDTAB
  0
TABLE
  2
LTYPE
  5
5
330
0
100
AcDbSymbolTable
 70
     2
  0
LTYPE
  5
14
330
5
100
AcDbSymbolTableRecord
100
AcDbLinetypeTableRecord
  2
ByBlock
 70
     0
  3

 72
    65
 73
     0
 40
0.0
  0
LTYPE
  5
15
330
5
100
AcDbSymbolTableRecord
100
AcDbLinetypeTableRecord
  2
ByLayer
 70
     0
  3

 72
    65
 73
     0
 40
0.0
  0
LTYPE
  5
16
330
5
100
AcDbSymbolTableRecord
100
AcDbLinetypeTableRecord
  2
Continuous
 70
     0
  3
Solid line
 72
    65
 73
     0
 40
0.0
  0
LTYPE
  5
B7
330
5
100
AcDbSymbolTableRecord
100
AcDbLinetypeTableRecord
  2
CENTER2
 70
     0
  3
Center (.5x) ___ _ ___ _ ___ _ ___ _ ___ _ ___
 72
    65
 73
     4
 40
28.575
 49
19.05
 74
     4
 75
     0
340
0
 46
0.0
 50
0.0
 44
0.0
 45
0.0
 49
-3.175
 74
     4
 75
     0
340
0
 46
0.0
 50
0.0
 44
0.0
 45
0.0
 49
3.175
 74
     4
 75
     0
340
0
 46
0.0
 50
0.0
 44
0.0
 45
0.0
 49
-3.175
 74
     4
 75
     0
340
0
 46
0.0
 50
0.0
 44
0.0
 45
0.0
  0
ENDTAB
  0
TABLE
  2
LAYER
  5
2
330
0
100
AcDbSymbolTable
 70
    11
  0
LAYER
  5
10
330
2
100
AcDbSymbolTableRecord
100
AcDbLayerTableRecord
  2
0
 70
     0
 62
     7
  6
Continuous
370
    -3
390
F
  0
LAYER
  5
5D
330
2
100
AcDbSymbolTableRecord
100
AcDbLayerTableRecord
  2
Default
 70
     0
 62
     7
  6
Continuous
370
    -3
390
F
  0
LAYER
  5
60
330
2
100
AcDbSymbolTableRecord
100
AcDbLayerTableRecord
  2
$DDT_AUDIT_GENERATED_(60)
 70
     0
 62
     7
  6
Continuous
370
    -3
390
F
  0
LAYER
  5
74
330
2
100
AcDbSymbolTableRecord
100
AcDbLayerTableRecord
  2
$DDT_AUDIT_GENERATED_(74)
 70
     0
 62
     7
  6
Continuous
370
    -3
390
F
  0
LAYER
  5
7B
330
2
100
AcDbSymbolTableRecord
100
AcDbLayerTableRecord
  2
$DDT_AUDIT_GENERATED_(7B)
 70
     0
 62
     7
  6
Continuous
370
    -3
390
F
  0
LAYER
  5
A2
330
2
100
AcDbSymbolTableRecord
100
AcDbLayerTableRecord
  2
$DDT_AUDIT_GENERATED_(A2)
 70
     0
 62
     7
  6
Continuous
370
    -3
390
F
  0
LAYER
  5
B0
330
2
100
AcDbSymbolTableRecord
100
AcDbLayerTableRecord
  2
$DDT_AUDIT_GENERATED_(B0)
 70
     0
 62
     7
  6
Continuous
370
    -3
390
F
  0
LAYER
  5
B5
330
2
100
AcDbSymbolTableRecord
100
AcDbLayerTableRecord
  2
DV1_Standard
 70
     0
 62
     7
  6
Continuous
370
    -3
390
F
  0
LAYER
  5
114
330
2
100
AcDbSymbolTableRecord
100
AcDbLayerTableRecord
  2
DV2_Standard
 70
     0
 62
     7
  6
Continuous
370
    -3
390
F
  0
LAYER
  5
11E
330
2
100
AcDbSymbolTableRecord
100
AcDbLayerTableRecord
  2
$DDT_AUDIT_GENERATED_(11E)
 70
     0
 62
     7
  6
Continuous
370
    -3
390
F
  0
LAYER
  5
122
330
2
100
AcDbSymbolTableRecord
100
AcDbLayerTableRecord
  2
DV3_Standard
 70
     0
 62
     7
  6
Continuous
370
    -3
390
F
  0
ENDTAB
  0
TABLE
  2
STYLE
  5
3
330
0
100
AcDbSymbolTable
 70
     2
  0
STYLE
  5
11
330
3
100
AcDbSymbolTableRecord
100
AcDbTextStyleTableRecord
  2
Standard
 70
     0
 40
0.0
 41
1.0
 50
0.0
 71
     0
 42
2.5
  3
txt
  4

  0
STYLE
  5
12B
330
3
100
AcDbSymbolTableRecord
100
AcDbTextStyleTableRecord
  2
SEACAD_seiso_ttf
 70
     0
 40
0.0
 41
1.0
 50
0.0
 71
     0
 42
0.2
  3
seiso.ttf
  4

  0
ENDTAB
  0
TABLE
  2
VIEW
  5
6
330
0
100
AcDbSymbolTable
 70
     0
  0
ENDTAB
  0
TABLE
  2
UCS
  5
7
330
0
100
AcDbSymbolTable
 70
     0
  0
ENDTAB
  0
TABLE
  2
APPID
  5
9
330
0
100
AcDbSymbolTable
 70
     1
  0
APPID
  5
12
330
9
100
AcDbSymbolTableRecord
100
AcDbRegAppTableRecord
  2
ACAD
 70
     0
  0
ENDTAB
  0
TABLE
  2
DIMSTYLE
  5
A
330
0
100
AcDbSymbolTable
 70
     1
100
AcDbDimStyleTable
  0
DIMSTYLE
105
27
330
A
100
AcDbSymbolTableRecord
100
AcDbDimStyleTableRecord
  2
ISO-25
 70
     0
 41
2.5
 42
0.625
 43
3.75
 44
1.25
 73
     0
 74
     0
 77
     1
 78
     8
140
2.5
141
2.5
143
0.0393700787
147
0.625
171
     3
172
     1
271
     2
272
     2
274
     3
278
    44
283
     0
284
     8
340
11
  0
ENDTAB
  0
TABLE
  2
BLOCK_RECORD
  5
1
330
0
100
AcDbSymbolTable
 70
     4
  0
BLOCK_RECORD
  5
1F
330
1
100
AcDbSymbolTableRecord
100
AcDbBlockTableRecord
  2
*Model_Space
340
22
  0
BLOCK_RECORD
  5
1B
330
1
100
AcDbSymbolTableRecord
100
AcDbBlockTableRecord
  2
*Paper_Space
340
1E
  0
BLOCK_RECORD
  5
5E
330
1
100
AcDbSymbolTableRecord
100
AcDbBlockTableRecord
  2
SE
340
0
102
{BLKREFS
331
5F
102
}
  0
BLOCK_RECORD
  5
BC
330
1
100
AcDbSymbolTableRecord
100
AcDbBlockTableRecord
  2
SE1
340
0
102
{BLKREFS
331
BD
102
}
  0
BLOCK_RECORD
  5
11B
330
1
100
AcDbSymbolTableRecord
100
AcDbBlockTableRecord
  2
SE2
340
0
102
{BLKREFS
331
11C
102
}
  0
ENDTAB
  0
ENDSEC
  0
SECTION
  2
BLOCKS
  0
BLOCK
  5
20
330
1F
100
AcDbEntity
  8
0
100
AcDbBlockBegin
  2
*Model_Space
 70
     0
 10
0.0
 20
0.0
 30
0.0
  3
*Model_Space
  1

  0
ENDBLK
  5
21
330
1F
100
AcDbEntity
  8
0
100
AcDbBlockEnd
  0
BLOCK
  5
1C
330
1B
100
AcDbEntity
 67
     1
  8
0
100
AcDbBlockBegin
  2
*Paper_Space
 70
     0
 10
0.0
 20
0.0
 30
0.0
  3
*Paper_Space
  1

  0
ENDBLK
  5
1D
330
1B
100
AcDbEntity
 67
     1
  8
0
100
AcDbBlockEnd
  0
BLOCK
  5
BA
330
5E
100
AcDbEntity
  8
0
100
AcDbBlockBegin
  2
SE
 70
     0
 10
0.0
 20
0.0
 30
0.0
  3
SE
  1

  0
SPLINE
  5
61
330
5E
100
AcDbEntity
  8
$DDT_AUDIT_GENERATED_(60)
  6
Continuous
 62
     7
100
AcDbSpline
210
0.0
220
0.0
230
1.0
 70
     8
 71
     3
 72
    26
 73
    22
 74
     0
 42
0.0000000000432178
 43
0.0000000001
 40
0.3749988957644557
 40
0.3749988957644557
 40
0.3749988957644557
 40
0.3749988957644557
 40
0.3751732138067886
 40
0.4063658982019913
 40
0.4376095061284571
 40
0.4688678644701996
 40
0.5000504661887716
 40
0.5314127614457885
 40
0.5625383197063509
 40
0.5938142732404368
 40
0.6250826338989098
 40
0.6563303076730584
 40
0.6876047322425783
 40
0.7187368803701716
 40
0.7500965686284065
 40
0.7812801727837153
 40
0.8125322532744642
 40
0.843781623898188
 40
0.8749705721899872
 40
0.8750000252652853
 40
0.8750005827097171
 40
0.8750005827097171
 40
0.8750005827097171
 40
0.8750005827097171
 10
7.280886760870207
 20
312.8635062810176
 30
0.0
 10
7.280886335307907
 20
312.8635065686414
 30
0.0
 10
7.282947737954661
 20
312.863486929213
 30
0.0
 10
8.055173276717161
 20
312.837635099965
 30
0.0
 10
11.38895324820502
 20
312.8135485701953
 30
0.0
 10
16.75446922568133
 20
312.8379796762103
 30
0.0
 10
23.98151456609786
 20
312.8763614264147
 30
0.0
 10
32.81840624293675
 20
312.8376821409508
 30
0.0
 10
42.89136445846955
 20
312.8135739975269
 30
0.0
 10
53.79456323355895
 20
312.8379222923792
 30
0.0
 10
65.15454345347503
 20
312.8763525785567
 30
0.0
 10
76.51305896839386
 20
312.8376948707131
 30
0.0
 10
87.4114552167013
 20
312.8135730056926
 30
0.0
 10
97.47984283177104
 20
312.837905627103
 30
0.0
 10
106.31034934361
 20
312.8763609471001
 30
0.0
 10
113.5284260156329
 20
312.8377578804065
 30
0.0
 10
118.8848822892925
 20
312.8135473088415
 30
0.0
 10
122.2087332462507
 20
312.837859766188
 30
0.0
 10
122.9721117394814
 20
312.8634907466117
 30
0.0
 10
122.9724659530526
 20
312.863507194376
 30
0.0
 10
122.9724659412948
 20
312.8635071983476
 30
0.0
 10
122.9724659409549
 20
312.8635071984173
 30
0.0
  0
LINE
  5
62
330
5E
100
AcDbEntity
  8
$DDT_AUDIT_GENERATED_(60)
  6
Continuous
 62
     7
100
AcDbLine
 10
44.0001162232
 20
352.9228983677
 30
0.0
 11
86.2532163999
 21
352.9228983677
 31
0.0
  0
SPLINE
  5
63
330
5E
100
AcDbEntity
  8
$DDT_AUDIT_GENERATED_(60)
  6
Continuous
 62
     7
100
AcDbSpline
210
0.0
220
0.0
230
1.0
 70
     8
 71
     3
 72
    11
 73
     7
 74
     0
 42
0.0000000013110273
 43
0.0000000001
 40
0.0
 40
0.0
 40
0.0
 40
0.0
 40
0.2259711041845823
 40
0.5570003665827697
 40
0.9114430361715685
 40
1.0
 40
1.0
 40
1.0
 40
1.0
 10
7.3371638634048
 20
307.8767997831055
 30
0.0
 10
7.760279127253966
 20
307.4081242083261
 30
0.0
 10
8.649245649210574
 20
306.4295374365514
 30
0.0
 10
10.39541559778774
 20
304.854288670072
 30
0.0
 10
11.95767286641283
 20
303.5820332270903
 30
0.0
 10
12.83639931884241
 20
302.9888630135693
 30
0.0
 10
13.04169443089347
 20
302.8507167128499
 30
0.0
  0
SPLINE
  5
64
330
5E
100
AcDbEntity
  8
$DDT_AUDIT_GENERATED_(60)
  6
Continuous
 62
     7
100
AcDbSpline
210
0.0
220
0.0
230
1.0
 70
     8
 71
     3
 72
    11
 73
     7
 74
     0
 42
0.0000000013169429
 43
0.0000000001
 40
0.0
 40
0.0
 40
0.0
 40
0.0
 40
0.0514451964012717
 40
0.3923021932829499
 40
0.7256984952031101
 40
1.0
 40
1.0
 40
1.0
 40
1.0
 10
117.2443262838012
 20
302.8657896541858
 30
0.0
 10
117.3632073175023
 20
302.9454543346262
 30
0.0
 10
118.1414313975555
 20
303.4679111448453
 30
0.0
 10
119.6110881383239
 20
304.648623801934
 30
0.0
 10
121.4323718951959
 20
306.2590434621525
 30
0.0
 10
122.4042902826682
 20
307.3127807133429
 30
0.0
 10
122.9197085032914
 20
307.8754111666954
 30
0.0
  0
SPLINE
  5
65
330
5E
100
AcDbEntity
  8
$DDT_AUDIT_GENERATED_(60)
  6
Continuous
 62
     7
100
AcDbSpline
210
0.0
220
0.0
230
1.0
 70
     8
 71
     3
 72
    15
 73
    11
 74
     0
 42
0.0000000002691954
 43
0.0000000001
 40
0.0
 40
0.0
 40
0.0
 40
0.0
 40
0.1182535862967241
 40
0.2440054221724448
 40
0.3698095443511121
 40
0.49569852359335
 40
0.621680096249072
 40
0.7477426375146792
 40
0.8738606137807381
 40
1.0
 40
1.0
 40
1.0
 40
1.0
 10
122.9662469766724
 20
312.8580821365723
 30
0.0
 10
121.8913002592444
 20
314.0563495322533
 30
0.0
 10
120.0107679149626
 20
316.1344174376155
 30
0.0
 10
116.618825869447
 20
319.3483059760786
 30
0.0
 10
113.056436402858
 20
322.3351722131693
 30
0.0
 10
109.2901463680855
 20
325.1163205650909
 30
0.0
 10
105.3595214936485
 20
327.6651161268268
 30
0.0
 10
101.3066198729435
 20
329.9615474601597
 30
0.0
 10
97.02129225805034
 20
332.072348590826
 30
0.0
 10
94.34032909220704
 20
333.1643737389094
 30
0.0
 10
92.74730676152797
 20
333.8052874191238
 30
0.0
  0
SPLINE
  5
66
330
5E
100
AcDbEntity
  8
$DDT_AUDIT_GENERATED_(60)
  6
Continuous
 62
     7
100
AcDbSpline
210
0.0
220
0.0
230
1.0
 70
     8
 71
     3
 72
    15
 73
    11
 74
     0
 42
0.0000000002692037
 43
0.0000000001
 40
0.0
 40
0.0
 40
0.0
 40
0.0
 40
0.1261432722456292
 40
0.2522651338784698
 40
0.3783315588030514
 40
0.504317012623315
 40
0.6302098701775322
 40
0.7560178680539538
 40
0.8817735780166237
 40
1.0
 40
1.0
 40
1.0
 40
1.0
 10
37.50604494104395
 20
333.8052874191238
 30
0.0
 10
35.91302261036487
 20
333.1643737389094
 30
0.0
 10
33.23205943959516
 20
332.0723485907499
 30
0.0
 10
28.94673184686444
 20
329.9615474604261
 30
0.0
 10
24.89383014495226
 20
327.6651161258382
 30
0.0
 10
20.96320557290679
 20
325.1163205687753
 30
0.0
 10
17.19691441090029
 20
322.3351721994342
 30
0.0
 10
13.63452914723177
 20
319.3483060272923
 30
0.0
 10
10.24285429827906
 20
316.1346849797415
 30
0.0
 10
8.362550643437453
 20
314.0568746343679
 30
0.0
 10
7.287881483693873
 20
312.8589216249277
 30
0.0
  0
ARC
  5
67
330
5E
100
AcDbEntity
  8
$DDT_AUDIT_GENERATED_(60)
  6
Continuous
 62
     7
100
AcDbCircle
 10
120.1412336998
 20
310.3860763429
 30
0.0
 40
3.762119020759494
100
AcDbArc
 50
317.8962141619
 51
41.1871016307
  0
ARC
  5
68
330
5E
100
AcDbEntity
  8
$DDT_AUDIT_GENERATED_(60)
  6
Continuous
 62
     7
100
AcDbCircle
 10
10.1121198948
 20
310.3860763541
 30
0.0
 40
3.76211989478682
100
AcDbArc
 50
138.8129097686
 51
222.1037735988
  0
ARC
  5
69
330
5E
100
AcDbEntity
  8
$DDT_AUDIT_GENERATED_(60)
  6
Continuous
 62
     7
100
AcDbCircle
 10
35.7392740826
 20
338.3925252176
 30
0.0
 40
4.915974255352378
100
AcDbArc
 50
291.0752049232
 51
352.2070236456
  0
ARC
  5
6A
330
5E
100
AcDbEntity
  8
$DDT_AUDIT_GENERATED_(60)
  6
Continuous
 62
     7
100
AcDbCircle
 10
94.5134574511
 20
338.3925866635
 30
0.0
 40
4.916017440296222
100
AcDbArc
 50
187.7936248753
 51
248.9248159391
  0
ARC
  5
6B
330
5E
100
AcDbEntity
  8
$DDT_AUDIT_GENERATED_(60)
  6
Continuous
 62
     7
100
AcDbCircle
 10
13.1766758513
 20
303.1014423296
 30
0.0
 40
0.2999999999999992
100
AcDbArc
 50
234.619446445
 51
270.0
  0
ARC
  5
6C
330
5E
100
AcDbEntity
  8
$DDT_AUDIT_GENERATED_(60)
  6
Continuous
 62
     7
100
AcDbCircle
 10
117.0766758513
 20
303.1014423296
 30
0.0
 40
0.2999999999999999
100
AcDbArc
 50
270.0
 51
305.380553555
  0
LINE
  5
6D
330
5E
100
AcDbEntity
  8
$DDT_AUDIT_GENERATED_(60)
  6
Continuous
 62
     7
100
AcDbLine
 10
13.1766758513
 20
302.8014423296
 30
0.0
 11
117.0766758513
 21
302.8014423296
 31
0.0
  0
LINE
  5
6E
330
5E
100
AcDbEntity
  8
$DDT_AUDIT_GENERATED_(60)
  6
Continuous
 62
     7
100
AcDbLine
 10
47.7266754259
 20
353.2318918435
 30
0.0
 11
47.7266754259
 21
352.9228983677
 31
0.0
  0
LINE
  5
6F
330
5E
100
AcDbEntity
  8
$DDT_AUDIT_GENERATED_(60)
  6
Continuous
 62
     7
100
AcDbLine
 10
82.5266762767
 20
352.9228983677
 30
0.0
 11
82.5266762767
 21
353.2318918435
 31
0.0
  0
LINE
  5
70
330
5E
100
AcDbEntity
  8
$DDT_AUDIT_GENERATED_(60)
  6
Continuous
 62
     7
100
AcDbLine
 10
89.6437910474
 20
337.7259418948
 30
0.0
 11
87.7405653179
 21
351.6272318765
 31
0.0
  0
LINE
  5
71
330
5E
100
AcDbEntity
  8
$DDT_AUDIT_GENERATED_(60)
  6
Continuous
 62
     7
100
AcDbLine
 10
42.5130390062
 20
351.6290608433
 30
0.0
 11
40.6095628728
 21
337.7259418948
 31
0.0
  0
ARC
  5
72
330
5E
100
AcDbEntity
  8
$DDT_AUDIT_GENERATED_(60)
  6
Continuous
 62
     7
100
AcDbCircle
 10
43.9988277078
 20
351.4228988143
 30
0.0
 40
1.49999835303439
100
AcDbArc
 50
89.9983635381
 51
172.0512958167
  0
ARC
  5
73
330
5E
100
AcDbEntity
  8
$DDT_AUDIT_GENERATED_(60)
  6
Continuous
 62
     7
100
AcDbCircle
 10
86.2544902086
 20
351.4228995723
 30
0.0
 40
1.499995391143337
100
AcDbArc
 50
7.8079135176
 51
90.0044092569
  0
ARC
  5
75
330
5E
100
AcDbEntity
  8
$DDT_AUDIT_GENERATED_(74)
  6
Continuous
 62
     7
100
AcDbCircle
 10
65.7543264142
 20
375.7895599786
 30
0.0
 40
89.1689387035441
100
AcDbArc
 50
302.1190414035
 51
304.0696379843
  0
ARC
  5
76
330
5E
100
AcDbEntity
  8
$DDT_AUDIT_GENERATED_(74)
  6
Continuous
 62
     7
100
AcDbCircle
 10
64.4990252884
 20
375.7895599786
 30
0.0
 40
89.16893870354407
100
AcDbArc
 50
235.9303620157
 51
237.8710579118
  0
LINE
  5
77
330
5E
100
AcDbEntity
  8
$DDT_AUDIT_GENERATED_(74)
  6
Continuous
 62
     7
100
AcDbLine
 10
14.3266758513
 20
302.8014423296
 30
0.0
 11
14.3266758513
 21
302.3399963841
 31
0.0
  0
LINE
  5
78
330
5E
100
AcDbEntity
  8
$DDT_AUDIT_GENERATED_(74)
  6
Continuous
 62
     7
100
AcDbLine
 10
115.9266758513
 20
302.3399963841
 30
0.0
 11
115.9266758513
 21
302.8014423296
 31
0.0
  0
ARC
  5
79
330
5E
100
AcDbEntity
  8
$DDT_AUDIT_GENERATED_(74)
  6
Continuous
 62
     7
100
AcDbCircle
 10
14.8266758513
 20
302.3399963841
 30
0.0
 40
0.5000000000000004
100
AcDbArc
 50
180.0
 51
235.9303620157
  0
ARC
  5
7A
330
5E
100
AcDbEntity
  8
$DDT_AUDIT_GENERATED_(74)
  6
Continuous
 62
     7
100
AcDbCircle
 10
115.4266758513
 20
302.3399963841
 30
0.0
 40
0.5000000000000016
100
AcDbArc
 50
304.0696379843
 51
0.0
  0
LINE
  5
7C
330
5E
100
AcDbEntity
  8
$DDT_AUDIT_GENERATED_(7B)
  6
Continuous
 62
     7
100
AcDbLine
 10
87.6266758513
 20
375.737520098
 30
0.0
 11
87.6266758513
 21
376.1864505931
 31
0.0
  0
LINE
  5
7D
330
5E
100
AcDbEntity
  8
$DDT_AUDIT_GENERATED_(7B)
  6
Continuous
 62
     7
100
AcDbLine
 10
42.6266758513
 20
376.1864505931
 30
0.0
 11
42.6266758513
 21
375.737520098
 31
0.0
  0
ARC
  5
7E
330
5E
100
AcDbEntity
  8
$DDT_AUDIT_GENERATED_(7B)
  6
Continuous
 62
     7
100
AcDbCircle
 10
86.6266758513
 20
376.1864505931
 30
0.0
 40
1.000000000000001
100
AcDbArc
 50
0.0
 51
63.0
  0
ARC
  5
7F
330
5E
100
AcDbEntity
  8
$DDT_AUDIT_GENERATED_(7B)
  6
Continuous
 62
     7
100
AcDbCircle
 10
43.6266758513
 20
376.1864505931
 30
0.0
 40
0.9999999999999936
100
AcDbArc
 50
117.0
 51
180.0
  0
LINE
  5
80
330
5E
100
AcDbEntity
  8
$DDT_AUDIT_GENERATED_(7B)
  6
Continuous
 62
     7
100
AcDbLine
 10
87.080666351
 20
377.0774571173
 30
0.0
 11
83.0266758516
 21
379.1430684487
 31
0.0
  0
LINE
  5
81
330
5E
100
AcDbEntity
  8
$DDT_AUDIT_GENERATED_(7B)
  6
Continuous
 62
     7
100
AcDbLine
 10
47.226675851
 20
379.1430684487
 30
0.0
 11
43.1726853515
 21
377.0774571173
 31
0.0
  0
LINE
  5
82
330
5E
100
AcDbEntity
  8
$DDT_AUDIT_GENERATED_(7B)
  6
Continuous
 62
     7
100
AcDbLine
 10
43.1726853515
 20
355.3975830788
 30
0.0
 11
47.4230937216
 21
353.2318918435
 31
0.0
  0
LINE
  5
83
330
5E
100
AcDbEntity
  8
$DDT_AUDIT_GENERATED_(7B)
  6
Continuous
 62
     7
100
AcDbLine
 10
82.830257981
 20
353.2318918435
 30
0.0
 11
87.080666351
 21
355.3975830788
 31
0.0
  0
ARC
  5
84
330
5E
100
AcDbEntity
  8
$DDT_AUDIT_GENERATED_(7B)
  6
Continuous
 62
     7
100
AcDbCircle
 10
86.6266758513
 20
356.288589603
 30
0.0
 40
0.9999999999999996
100
AcDbArc
 50
297.0
 51
0.0
  0
ARC
  5
85
330
5E
100
AcDbEntity
  8
$DDT_AUDIT_GENERATED_(7B)
  6
Continuous
 62
     7
100
AcDbCircle
 10
43.6266758513
 20
356.288589603
 30
0.0
 40
1.000000000000001
100
AcDbArc
 50
180.0
 51
243.0
  0
LINE
  5
86
330
5E
100
AcDbEntity
  8
$DDT_AUDIT_GENERATED_(7B)
  6
Continuous
 62
     7
100
AcDbLine
 10
87.6266758513
 20
356.288589603
 30
0.0
 11
87.6266758513
 21
356.737520098
 31
0.0
  0
LINE
  5
87
330
5E
100
AcDbEntity
  8
$DDT_AUDIT_GENERATED_(7B)
  6
Continuous
 62
     7
100
AcDbLine
 10
42.6266758513
 20
356.737520098
 30
0.0
 11
42.6266758513
 21
356.288589603
 31
0.0
  0
ARC
  5
88
330
5E
100
AcDbEntity
  8
$DDT_AUDIT_GENERATED_(7B)
  6
Continuous
 62
     7
100
AcDbCircle
 10
86.6266758513
 20
356.737520098
 30
0.0
 40
0.9999999999933049
100
AcDbArc
 50
0.0
 51
62.2109608475
  0
ARC
  5
89
330
5E
100
AcDbEntity
  8
$DDT_AUDIT_GENERATED_(7B)
  6
Continuous
 62
     7
100
AcDbCircle
 10
43.6266758513
 20
356.737520098
 30
0.0
 40
0.9999999999933031
100
AcDbArc
 50
117.7890391525
 51
180.0
  0
LINE
  5
8A
330
5E
100
AcDbEntity
  8
$DDT_AUDIT_GENERATED_(7B)
  6
Continuous
 62
     7
100
AcDbLine
 10
87.0928932602
 20
357.6221902781
 30
0.0
 11
83.9401888877
 21
359.2836520259
 31
0.0
  0
LINE
  5
8B
330
5E
100
AcDbEntity
  8
$DDT_AUDIT_GENERATED_(7B)
  6
Continuous
 62
     7
100
AcDbLine
 10
46.3131628149
 20
359.2836520259
 30
0.0
 11
43.1604584424
 21
357.6221902781
 31
0.0
  0
ARC
  5
8C
330
5E
100
AcDbEntity
  8
$DDT_AUDIT_GENERATED_(7B)
  6
Continuous
 62
     7
100
AcDbCircle
 10
84.1266758513
 20
359.637520098
 30
0.0
 40
0.4000000000867439
100
AcDbArc
 50
123.0408483905
 51
242.2109608475
  0
ARC
  5
8D
330
5E
100
AcDbEntity
  8
$DDT_AUDIT_GENERATED_(7B)
  6
Continuous
 62
     7
100
AcDbCircle
 10
46.1266758513
 20
359.637520098
 30
0.0
 40
0.4000000000867434
100
AcDbArc
 50
297.7890391525
 51
56.9591516095
  0
LINE
  5
8E
330
5E
100
AcDbEntity
  8
$DDT_AUDIT_GENERATED_(7B)
  6
Continuous
 62
     7
100
AcDbLine
 10
43.0846777899
 20
362.093267917
 30
0.0
 11
46.3447705783
 21
359.9728329223
 31
0.0
  0
LINE
  5
8F
330
5E
100
AcDbEntity
  8
$DDT_AUDIT_GENERATED_(7B)
  6
Continuous
 62
     7
100
AcDbLine
 10
83.9085811243
 20
359.9728329223
 30
0.0
 11
87.1686739126
 21
362.093267917
 31
0.0
  0
ARC
  5
90
330
5E
100
AcDbEntity
  8
$DDT_AUDIT_GENERATED_(7B)
  6
Continuous
 62
     7
100
AcDbCircle
 10
86.6195539994
 20
362.937520098
 30
0.0
 40
1.007121851753853
100
AcDbArc
 50
303.0408483905
 51
56.9591516082
  0
ARC
  5
91
330
5E
100
AcDbEntity
  8
$DDT_AUDIT_GENERATED_(7B)
  6
Continuous
 62
     7
100
AcDbCircle
 10
43.6337977031
 20
362.937520098
 30
0.0
 40
1.007121851753848
100
AcDbArc
 50
123.0408483918
 51
236.9591516095
  0
LINE
  5
92
330
5E
100
AcDbEntity
  8
$DDT_AUDIT_GENERATED_(7B)
  6
Continuous
 62
     7
100
AcDbLine
 10
87.1686739127
 20
363.781772279
 30
0.0
 11
83.9085811243
 21
365.9022072738
 31
0.0
  0
LINE
  5
93
330
5E
100
AcDbEntity
  8
$DDT_AUDIT_GENERATED_(7B)
  6
Continuous
 62
     7
100
AcDbLine
 10
46.3447705783
 20
365.9022072738
 30
0.0
 11
43.0846777899
 21
363.781772279
 31
0.0
  0
ARC
  5
94
330
5E
100
AcDbEntity
  8
$DDT_AUDIT_GENERATED_(7B)
  6
Continuous
 62
     7
100
AcDbCircle
 10
84.1266758513
 20
366.237520098
 30
0.0
 40
0.4000000000043187
100
AcDbArc
 50
123.0884838012
 51
236.9591516082
  0
ARC
  5
95
330
5E
100
AcDbEntity
  8
$DDT_AUDIT_GENERATED_(7B)
  6
Continuous
 62
     7
100
AcDbCircle
 10
46.1266758513
 20
366.237520098
 30
0.0
 40
0.4000000000043001
100
AcDbArc
 50
303.0408483918
 51
56.9115161988
  0
LINE
  5
96
330
5E
100
AcDbEntity
  8
$DDT_AUDIT_GENERATED_(7B)
  6
Continuous
 62
     7
100
AcDbLine
 10
43.0807422791
 20
368.6996916343
 30
0.0
 11
46.3450492802
 21
366.5726514835
 31
0.0
  0
LINE
  5
97
330
5E
100
AcDbEntity
  8
$DDT_AUDIT_GENERATED_(7B)
  6
Continuous
 62
     7
100
AcDbLine
 10
83.9083024224
 20
366.5726514835
 30
0.0
 11
87.1726094235
 21
368.6996916343
 31
0.0
  0
ARC
  5
98
330
5E
100
AcDbEntity
  8
$DDT_AUDIT_GENERATED_(7B)
  6
Continuous
 62
     7
100
AcDbCircle
 10
86.6266758513
 20
369.537520098
 30
0.0
 40
0.9999999999194239
100
AcDbArc
 50
303.0884838012
 51
56.9115161986
  0
ARC
  5
99
330
5E
100
AcDbEntity
  8
$DDT_AUDIT_GENERATED_(7B)
  6
Continuous
 62
     7
100
AcDbCircle
 10
43.6266758513
 20
369.537520098
 30
0.0
 40
0.9999999999194301
100
AcDbArc
 50
123.0884838014
 51
236.9115161988
  0
LINE
  5
9A
330
5E
100
AcDbEntity
  8
$DDT_AUDIT_GENERATED_(7B)
  6
Continuous
 62
     7
100
AcDbLine
 10
87.1726094235
 20
370.3753485617
 30
0.0
 11
83.9083024224
 21
372.5023887125
 31
0.0
  0
LINE
  5
9B
330
5E
100
AcDbEntity
  8
$DDT_AUDIT_GENERATED_(7B)
  6
Continuous
 62
     7
100
AcDbLine
 10
46.3450492802
 20
372.5023887125
 30
0.0
 11
43.0807422791
 21
370.3753485617
 31
0.0
  0
ARC
  5
9C
330
5E
100
AcDbEntity
  8
$DDT_AUDIT_GENERATED_(7B)
  6
Continuous
 62
     7
100
AcDbCircle
 10
84.1266758513
 20
372.8375200981
 30
0.0
 40
0.4000000000209705
100
AcDbArc
 50
117.789039153
 51
236.9115161986
  0
ARC
  5
9D
330
5E
100
AcDbEntity
  8
$DDT_AUDIT_GENERATED_(7B)
  6
Continuous
 62
     7
100
AcDbCircle
 10
46.1266758513
 20
372.8375200981
 30
0.0
 40
0.4000000000209636
100
AcDbArc
 50
303.0884838014
 51
62.210960847
  0
LINE
  5
9E
330
5E
100
AcDbEntity
  8
$DDT_AUDIT_GENERATED_(7B)
  6
Continuous
 62
     7
100
AcDbLine
 10
43.1604584424
 20
374.8528499179
 30
0.0
 11
46.3131628149
 21
373.1913881701
 31
0.0
  0
LINE
  5
9F
330
5E
100
AcDbEntity
  8
$DDT_AUDIT_GENERATED_(7B)
  6
Continuous
 62
     7
100
AcDbLine
 10
83.9401888877
 20
373.1913881701
 30
0.0
 11
87.0928932602
 21
374.8528499179
 31
0.0
  0
ARC
  5
A0
330
5E
100
AcDbEntity
  8
$DDT_AUDIT_GENERATED_(7B)
  6
Continuous
 62
     7
100
AcDbCircle
 10
86.6266758513
 20
375.737520098
 30
0.0
 40
0.9999999999999959
100
AcDbArc
 50
297.789039153
 51
0.0
  0
ARC
  5
A1
330
5E
100
AcDbEntity
  8
$DDT_AUDIT_GENERATED_(7B)
  6
Continuous
 62
     7
100
AcDbCircle
 10
43.6266758513
 20
375.737520098
 30
0.0
 40
1.000000000000001
100
AcDbArc
 50
180.0
 51
242.210960847
  0
LINE
  5
A3
330
5E
100
AcDbEntity
  8
$DDT_AUDIT_GENERATED_(A2)
  6
Continuous
 62
     7
100
AcDbLine
 10
54.3766758513
 20
394.7574495309
 30
0.0
 11
75.8766758513
 21
394.7574495309
 31
0.0
  0
LINE
  5
A4
330
5E
100
AcDbEntity
  8
$DDT_AUDIT_GENERATED_(A2)
  6
Continuous
 62
     7
100
AcDbLine
 10
43.1726853516
 20
381.2086797802
 30
0.0
 11
44.6116220039
 21
380.4755049356
 31
0.0
  0
LINE
  5
A5
330
5E
100
AcDbEntity
  8
$DDT_AUDIT_GENERATED_(A2)
  6
Continuous
 62
     7
100
AcDbLine
 10
46.5742325094
 20
379.4755049356
 30
0.0
 11
47.226675851
 21
379.1430684487
 31
0.0
  0
LINE
  5
A6
330
5E
100
AcDbEntity
  8
$DDT_AUDIT_GENERATED_(A2)
  6
Continuous
 62
     7
100
AcDbLine
 10
83.0266758516
 20
379.1430684487
 30
0.0
 11
83.6791191933
 21
379.4755049356
 31
0.0
  0
LINE
  5
A7
330
5E
100
AcDbEntity
  8
$DDT_AUDIT_GENERATED_(A2)
  6
Continuous
 62
     7
100
AcDbLine
 10
85.6417296988
 20
380.4755049356
 30
0.0
 11
87.0806663511
 21
381.2086797802
 31
0.0
  0
ARC
  5
A8
330
5E
100
AcDbEntity
  8
$DDT_AUDIT_GENERATED_(A2)
  6
Continuous
 62
     7
100
AcDbCircle
 10
86.6266758513
 20
382.0996863044
 30
0.0
 40
0.999999999999992
100
AcDbArc
 50
297.0
 51
63.0
  0
ARC
  5
A9
330
5E
100
AcDbEntity
  8
$DDT_AUDIT_GENERATED_(A2)
  6
Continuous
 62
     7
100
AcDbCircle
 10
43.6266758513
 20
382.0996863044
 30
0.0
 40
1.000000000000004
100
AcDbArc
 50
117.0
 51
243.0
  0
LINE
  5
AA
330
5E
100
AcDbEntity
  8
$DDT_AUDIT_GENERATED_(A2)
  6
Continuous
 62
     7
100
AcDbLine
 10
87.0806663511
 20
382.9906928286
 30
0.0
 11
82.0407613537
 21
385.5586526878
 31
0.0
  0
LINE
  5
AB
330
5E
100
AcDbEntity
  8
$DDT_AUDIT_GENERATED_(A2)
  6
Continuous
 62
     7
100
AcDbLine
 10
48.212590349
 20
385.5586526878
 30
0.0
 11
43.1726853516
 21
382.9906928286
 31
0.0
  0
ARC
  5
AC
330
5E
100
AcDbEntity
  8
$DDT_AUDIT_GENERATED_(A2)
  6
Continuous
 62
     7
100
AcDbCircle
 10
86.1266758513
 20
393.5777114055
 30
0.0
 40
9.000000000000005
100
AcDbArc
 50
181.6372450778
 51
243.0
  0
ARC
  5
AD
330
5E
100
AcDbEntity
  8
$DDT_AUDIT_GENERATED_(A2)
  6
Continuous
 62
     7
100
AcDbCircle
 10
44.1266758513
 20
393.5777114055
 30
0.0
 40
9.000000000000004
100
AcDbArc
 50
297.0
 51
358.3627549222
  0
ARC
  5
AE
330
5E
100
AcDbEntity
  8
$DDT_AUDIT_GENERATED_(A2)
  6
Continuous
 62
     7
100
AcDbCircle
 10
54.6223892621
 20
393.2777114055
 30
0.0
 40
1.500000000000004
100
AcDbArc
 50
99.4280503934
 51
178.3627549222
  0
ARC
  5
AF
330
5E
100
AcDbEntity
  8
$DDT_AUDIT_GENERATED_(A2)
  6
Continuous
 62
     7
100
AcDbCircle
 10
75.6309624406
 20
393.2777114055
 30
0.0
 40
1.499999999999998
100
AcDbArc
 50
1.6372450778
 51
80.5719496066
  0
LINE
  5
B1
330
5E
100
AcDbEntity
  8
$DDT_AUDIT_GENERATED_(B0)
  6
Continuous
 62
     7
100
AcDbLine
 10
43.6266758513
 20
379.4755049356
 30
0.0
 11
86.6266758513
 21
379.4755049356
 31
0.0
  0
LINE
  5
B2
330
5E
100
AcDbEntity
  8
$DDT_AUDIT_GENERATED_(B0)
  6
Continuous
 62
     7
100
AcDbLine
 10
43.6266758513
 20
380.4755049356
 30
0.0
 11
86.6266758513
 21
380.4755049356
 31
0.0
  0
LINE
  5
B3
330
5E
100
AcDbEntity
  8
$DDT_AUDIT_GENERATED_(B0)
  6
Continuous
 62
     7
100
AcDbLine
 10
86.6266758513
 20
379.4755049356
 30
0.0
 11
86.6266758513
 21
380.4755049356
 31
0.0
  0
LINE
  5
B4
330
5E
100
AcDbEntity
  8
$DDT_AUDIT_GENERATED_(B0)
  6
Continuous
 62
     7
100
AcDbLine
 10
43.6266758513
 20
380.4755049356
 30
0.0
 11
43.6266758513
 21
379.4755049356
 31
0.0
  0
ARC
  5
B6
330
5E
100
AcDbEntity
  8
DV1_Standard
  6
Continuous
 62
     7
100
AcDbCircle
 10
65.0734036119
 20
376.7041762486
 30
0.0
 40
90.24895415711768
100
AcDbArc
 50
237.8710597344
 51
301.7972492444
  0
LINE
  5
B8
330
5E
100
AcDbEntity
  8
DV1_Standard
  6
CENTER2
 62
     7
100
AcDbLine
 10
85.1266754043
 20
394.7574495309
 30
0.0
 11
45.1266762984
 21
394.7574495309
 31
0.0
  0
LINE
  5
B9
330
5E
100
AcDbEntity
  8
DV1_Standard
  6
CENTER2
 62
     7
100
AcDbLine
 10
65.1266758513
 20
414.7574490838
 30
0.0
 11
65.1266758513
 21
374.7574499779
 31
0.0
  0
ENDBLK
  5
BB
330
5E
100
AcDbEntity
  8
0
100
AcDbBlockEnd
  0
BLOCK
  5
119
330
BC
100
AcDbEntity
  8
0
100
AcDbBlockBegin
  2
SE1
 70
     0
 10
0.0
 20
0.0
 30
0.0
  3
SE1
  1

  0
SPLINE
  5
BE
330
BC
100
AcDbEntity
  8
$DDT_AUDIT_GENERATED_(60)
  6
Continuous
 62
     7
100
AcDbSpline
210
0.0
220
0.0
230
1.0
 70
     8
 71
     3
 72
    24
 73
    20
 74
     0
 42
0.0000000000432177
 43
0.0000000001
 40
0.124999088831867
 40
0.124999088831867
 40
0.124999088831867
 40
0.124999088831867
 40
0.1251220445693119
 40
0.1564871514987898
 40
0.1876166178123919
 40
0.2188877028618351
 40
0.2501712365863571
 40
0.2814051868991737
 40
0.3126855498390094
 40
0.3438166973947994
 40
0.3751732138067886
 40
0.4063658982019913
 40
0.4376095061284571
 40
0.4688678644701996
 40
0.5000504661887716
 40
0.5314127614457885
 40
0.5625383197063509
 40
0.5938142732404368
 40
0.624999113269312
 40
0.624999113269312
 40
0.624999113269312
 40
0.624999113269312
 10
185.4054481260156
 20
312.8635066651943
 30
0.0
 10
185.405447988993
 20
312.8635068326346
 30
0.0
 10
185.4069268468894
 20
312.8634990634094
 30
0.0
 10
186.1810182914074
 20
312.8375690643321
 30
0.0
 10
189.5215106775323
 20
312.8135740859727
 30
0.0
 10
194.8877982133185
 20
312.8380424371679
 30
0.0
 10
202.118115024791
 20
312.8763516816391
 30
0.0
 10
210.9689218010962
 20
312.8375735178942
 30
0.0
 10
221.0323749845653
 20
312.8135722563126
 30
0.0
 10
231.9476671250593
 20
312.8380263915832
 30
0.0
 10
243.295075582489
 20
312.8763620132145
 30
0.0
 10
254.653062031838
 20
312.837635099965
 30
0.0
 10
265.5555562528501
 20
312.8135485701953
 30
0.0
 10
275.6136088295926
 20
312.8379796762103
 30
0.0
 10
284.45328837757
 20
312.8763614264147
 30
0.0
 10
291.660035469434
 20
312.8376821409508
 30
0.0
 10
297.0162400493701
 20
312.8135739975269
 30
0.0
 10
300.33521979826
 20
312.8379005822513
 30
0.0
 10
301.0969885959261
 20
312.8634807443198
 30
0.0
 10
301.0970278980212
 20
312.863506968819
 30
0.0
  0
LINE
  5
BF
330
BC
100
AcDbEntity
  8
$DDT_AUDIT_GENERATED_(60)
  6
Continuous
 62
     7
100
AcDbLine
 10
222.1237382136
 20
352.9228983677
 30
0.0
 11
264.3787387544
 21
352.9228983677
 31
0.0
  0
SPLINE
  5
C0
330
BC
100
AcDbEntity
  8
$DDT_AUDIT_GENERATED_(60)
  6
Continuous
 62
     7
100
AcDbSpline
210
0.0
220
0.0
230
1.0
 70
     8
 71
     3
 72
    11
 73
     7
 74
     0
 42
0.0000000013121638
 43
0.0000000001
 40
0.0
 40
0.0
 40
0.0
 40
0.0
 40
0.2262263261900065
 40
0.5575427667360657
 40
0.9122929263293459
 40
1.0
 40
1.0
 40
1.0
 40
1.0
 10
185.4614188561419
 20
307.8771295264908
 30
0.0
 10
185.8846437070403
 20
307.4083302789459
 30
0.0
 10
186.773700358679
 20
306.4296316568685
 30
0.0
 10
188.5199768727679
 20
304.8543380068578
 30
0.0
 10
190.0803629904832
 20
303.5834216054597
 30
0.0
 10
190.957289845995
 20
302.9914109664193
 30
0.0
 10
191.1604304148445
 20
302.8546970748364
 30
0.0
  0
SPLINE
  5
C1
330
BC
100
AcDbEntity
  8
$DDT_AUDIT_GENERATED_(60)
  6
Continuous
 62
     7
100
AcDbSpline
210
0.0
220
0.0
230
1.0
 70
     8
 71
     3
 72
    11
 73
     7
 74
     0
 42
0.0000000013133464
 43
0.0000000001
 40
0.0
 40
0.0
 40
0.0
 40
0.0
 40
0.0540978844292496
 40
0.3940231589743117
 40
0.7265081321428657
 40
1.0
 40
1.0
 40
1.0
 40
1.0
 10
295.3512878888337
 20
302.8538833177225
 30
0.0
 10
295.4766587341592
 20
302.9378596421128
 30
0.0
 10
296.2603174703182
 20
303.4637860370386
 30
0.0
 10
297.7356500588451
 20
304.6484465000619
 30
0.0
 10
299.5568241047255
 20
306.2589811890452
 30
0.0
 10
300.5286506068823
 20
307.3125746871268
 30
0.0
 10
301.043957266482
 20
307.8750809680986
 30
0.0
  0
LINE
  5
C2
330
BC
100
AcDbEntity
  8
$DDT_AUDIT_GENERATED_(60)
  6
Continuous
 62
     7
100
AcDbLine
 10
272.9951792309
 20
332.914380447
 30
0.0
 11
270.8718689049
 21
333.8052874191
 31
0.0
  0
SPLINE
  5
C3
330
BC
100
AcDbEntity
  8
$DDT_AUDIT_GENERATED_(60)
  6
Continuous
 62
     7
100
AcDbSpline
210
0.0
220
0.0
230
1.0
 70
     8
 71
     3
 72
    14
 73
    10
 74
     0
 42
0.000000000341166
 43
0.0000000001
 40
0.0
 40
0.0
 40
0.0
 40
0.0
 40
0.1498588860061156
 40
0.3092353833895851
 40
0.4686781478598662
 40
0.6282284592416968
 40
0.7878961225000952
 40
0.9476664044864966
 40
1.0
 40
1.0
 40
1.0
 40
1.0
 10
301.0905223976195
 20
312.8583920145317
 30
0.0
 10
300.0156781341956
 20
314.0565433616409
 30
0.0
 10
298.1353573982947
 20
316.1343843102111
 30
0.0
 10
294.7429111742833
 20
319.3487991535245
 30
0.0
 10
291.1827631922705
 20
322.3333428125774
 30
0.0
 10
287.4081202246471
 20
325.1231517733762
 30
0.0
 10
283.5086965279836
 20
327.6395954044295
 30
0.0
 10
280.2744948471499
 20
329.5146552476423
 30
0.0
 10
278.5235746636713
 20
330.3616674528722
 30
0.0
 10
278.0171843629475
 20
330.605663947874
 30
0.0
  0
SPLINE
  5
C4
330
BC
100
AcDbEntity
  8
$DDT_AUDIT_GENERATED_(60)
  6
Continuous
 62
     7
100
AcDbSpline
210
0.0
220
0.0
230
1.0
 70
     8
 71
     3
 72
    15
 73
    11
 74
     0
 42
0.0000000002692006
 43
0.0000000001
 40
0.0
 40
0.0
 40
0.0
 40
0.0
 40
0.126141838873846
 40
0.2522622673781933
 40
0.3783272598042111
 40
0.5043112820459895
 40
0.6302027090738971
 40
0.7560092773882735
 40
0.8817635583830482
 40
1.0
 40
1.0
 40
1.0
 40
1.0
 10
215.6306070843962
 20
333.8052874191238
 30
0.0
 10
214.0375847537171
 20
333.1643737389094
 30
0.0
 10
211.3566215847646
 20
332.0723485907779
 30
0.0
 10
207.0712939838587
 20
329.9615474603279
 30
0.0
 10
203.0183923119018
 20
327.6651161262026
 30
0.0
 10
199.0877676283115
 20
325.1163205674169
 30
0.0
 10
195.3214768821143
 20
322.3351722044983
 30
0.0
 10
191.7590900680901
 20
319.3483060084098
 30
0.0
 10
188.3673166650139
 20
316.1345862979605
 30
0.0
 10
186.4869286590797
 20
314.0566809526692
 30
0.0
 10
185.4121571233141
 20
312.8586119833013
 30
0.0
  0
ARC
  5
C5
330
BC
100
AcDbEntity
  8
$DDT_AUDIT_GENERATED_(60)
  6
Continuous
 62
     7
100
AcDbCircle
 10
298.2657958022
 20
310.3860763584
 30
0.0
 40
3.762119126056291
100
AcDbArc
 50
317.8962155879
 51
41.1871002201
  0
ARC
  5
C6
330
BC
100
AcDbEntity
  8
$DDT_AUDIT_GENERATED_(60)
  6
Continuous
 62
     7
100
AcDbCircle
 10
188.2366802027
 20
310.3860763727
 30
0.0
 40
3.762119223056748
100
AcDbArc
 50
138.8129011463
 51
222.1037831682
  0
ARC
  5
C7
330
BC
100
AcDbEntity
  8
$DDT_AUDIT_GENERATED_(60)
  6
Continuous
 62
     7
100
AcDbCircle
 10
213.8643583269
 20
338.3925766764
 30
0.0
 40
4.915994754235778
100
AcDbArc
 50
291.0748332295
 51
352.2064612439
  0
ARC
  5
C8
330
BC
100
AcDbEntity
  8
$DDT_AUDIT_GENERATED_(60)
  6
Continuous
 62
     7
100
AcDbCircle
 10
272.6389633921
 20
338.3926715068
 30
0.0
 40
4.916063180325584
100
AcDbArc
 50
187.7945440638
 51
248.926117874
  0
ARC
  5
C9
330
BC
100
AcDbEntity
  8
$DDT_AUDIT_GENERATED_(60)
  6
Continuous
 62
     7
100
AcDbCircle
 10
191.3012379946
 20
303.1014423296
 30
0.0
 40
0.3000000000000032
100
AcDbArc
 50
234.619446445
 51
270.0
  0
ARC
  5
CA
330
BC
100
AcDbEntity
  8
$DDT_AUDIT_GENERATED_(60)
  6
Continuous
 62
     7
100
AcDbCircle
 10
295.2012379946
 20
303.1014423296
 30
0.0
 40
0.2999999999999999
100
AcDbArc
 50
270.0
 51
305.380553555
  0
LINE
  5
CB
330
BC
100
AcDbEntity
  8
$DDT_AUDIT_GENERATED_(60)
  6
Continuous
 62
     7
100
AcDbLine
 10
191.3012379946
 20
302.8014423296
 30
0.0
 11
295.2012379946
 21
302.8014423296
 31
0.0
  0
LINE
  5
CC
330
BC
100
AcDbEntity
  8
$DDT_AUDIT_GENERATED_(60)
  6
Continuous
 62
     7
100
AcDbLine
 10
225.8512375692
 20
353.2318918435
 30
0.0
 11
225.8512375692
 21
352.9228983677
 31
0.0
  0
LINE
  5
CD
330
BC
100
AcDbEntity
  8
$DDT_AUDIT_GENERATED_(60)
  6
Continuous
 62
     7
100
AcDbLine
 10
260.65123842
 20
352.9228983677
 30
0.0
 11
260.65123842
 21
353.2318918435
 31
0.0
  0
LINE
  5
CE
330
BC
100
AcDbEntity
  8
$DDT_AUDIT_GENERATED_(60)
  6
Continuous
 62
     7
100
AcDbLine
 10
267.7683520819
 20
337.7259418948
 30
0.0
 11
265.8648242119
 21
351.6294387312
 31
0.0
  0
LINE
  5
CF
330
BC
100
AcDbEntity
  8
$DDT_AUDIT_GENERATED_(60)
  6
Continuous
 62
     7
100
AcDbLine
 10
220.6375955241
 20
351.6290278537
 30
0.0
 11
218.7341239074
 21
337.7259418948
 31
0.0
  0
ARC
  5
D0
330
BC
100
AcDbEntity
  8
$DDT_AUDIT_GENERATED_(60)
  6
Continuous
 62
     7
100
AcDbCircle
 10
222.1234132987
 20
351.4228993457
 30
0.0
 40
1.499996322815254
100
AcDbArc
 50
89.9964715442
 51
172.0641135752
  0
ARC
  5
D1
330
BC
100
AcDbEntity
  8
$DDT_AUDIT_GENERATED_(60)
  6
Continuous
 62
     7
100
AcDbCircle
 10
264.3791086311
 20
351.4228983683
 30
0.0
 40
1.499999997781207
100
AcDbArc
 50
7.9699637923
 51
90.0000022061
  0
SPLINE
  5
D2
330
BC
100
AcDbEntity
  8
$DDT_AUDIT_GENERATED_(74)
  6
Continuous
 62
     7
100
AcDbSpline
210
0.0
220
0.0
230
1.0
 70
     8
 71
     3
 72
    20
 73
    16
 74
     0
 42
0.0000000030950291
 43
0.0000000001
 40
0.0
 40
0.0
 40
0.0
 40
0.0
 40
0.1249999999999996
 40
0.1249999999999996
 40
0.2499999999999992
 40
0.2499999999999992
 40
0.3749999999999988
 40
0.3749999999999988
 40
0.4999999999999983
 40
0.4999999999999983
 40
0.6249999999999979
 40
0.6249999999999979
 40
0.7499999999999973
 40
0.7499999999999973
 40
1.0
 40
1.0
 40
1.0
 40
1.0
 10
193.4340801564229
 20
301.4155591212167
 30
0.0
 10
193.4340801563199
 20
301.4155591212842
 30
0.0
 10
193.4543515061939
 20
301.4029244999548
 30
0.0
 10
193.5334491230439
 20
301.3536454343354
 30
0.0
 10
193.5932789249988
 20
301.3163763333224
 30
0.0
 10
193.7453097344807
 20
301.2217394079605
 30
0.0
 10
193.8386429991164
 20
301.1636667100123
 30
0.0
 10
194.0542480150453
 20
301.0296487905451
 30
0.0
 10
194.1744308231671
 20
300.9550017720824
 30
0.0
 10
194.4375039484634
 20
300.7918140483254
 30
0.0
 10
194.5806534129379
 20
300.7031156364533
 30
0.0
 10
194.8775224773863
 20
300.5194676656569
 30
0.0
 10
195.0328743632103
 20
300.4235053499071
 30
0.0
 10
195.515534584691
 20
300.1259666669561
 30
0.0
 10
195.8456939447317
 20
299.9232054342107
 30
0.0
 10
196.1828008213105
 20
299.7174026863535
 30
0.0
  0
SPLINE
  5
D3
330
BC
100
AcDbEntity
  8
$DDT_AUDIT_GENERATED_(74)
  6
Continuous
 62
     7
100
AcDbSpline
210
0.0
220
0.0
230
1.0
 70
    12
 71
     3
 72
    26
 73
    22
 74
     0
 42
0.0000000004453153
 43
0.0000000001
 40
0.0
 40
0.0
 40
0.0
 40
0.0
 40
0.0362502478991454
 40
0.0362502478991454
 40
0.0362502478991454
 40
0.2035846625482191
 40
0.2035846625482191
 40
0.2035846625482191
 40
0.3702521094479804
 40
0.3702521094479804
 40
0.3702521094479804
 40
0.5375865112793992
 40
0.5375865112793992
 40
0.5375865112793992
 40
0.7042539653668802
 40
0.7042539653668802
 40
0.7042539653668802
 40
0.8715883600132511
 40
0.8715883600132511
 40
0.8715883600132511
 40
1.0
 40
1.0
 40
1.0
 40
1.0
 10
193.6562470439405
 20
300.9537187752429
 30
0.0
 41
1.0
 10
193.6319041726896
 20
300.6831307684205
 30
0.0
 41
1.0
 10
193.6194160835415
 20
300.410900308474
 30
0.0
 41
1.0
 10
193.6194160813002
 20
300.1380572296353
 30
0.0
 41
1.0
 10
193.6194160813002
 20
298.8785888879163
 30
0.0
 41
1.0
 10
193.8855194419632
 20
297.6321124408783
 30
0.0
 41
1.0
 10
194.3555289512341
 20
296.4998533169813
 30
0.0
 41
1.0
 10
194.8236650790842
 20
295.3721071937063
 30
0.0
 41
1.0
 10
195.5148728082972
 20
294.3075715862783
 30
0.0
 41
1.0
 10
196.4019016600281
 20
293.4205427345473
 30
0.0
 41
1.0
 10
197.2924803207271
 20
292.5299641177533
 30
0.0
 41
1.0
 10
198.3620357388411
 20
291.8367356882873
 30
0.0
 41
1.0
 10
199.4950106678581
 20
291.3684545308152
 30
0.0
 41
1.0
 10
200.6234698782621
 20
290.9020398099992
 30
0.0
 41
1.0
 10
201.8649677948751
 20
290.6380571558192
 30
0.0
 41
1.0
 10
203.1194160813001
 20
290.6380571558192
 30
0.0
 41
1.0
 10
204.3788845793181
 20
290.6380572100702
 30
0.0
 41
1.0
 10
205.6253609315851
 20
290.9041605726642
 30
0.0
 41
1.0
 10
206.7576199201381
 20
291.3741700257532
 30
0.0
 41
1.0
 10
207.6265102275709
 20
291.7348531047304
 30
0.0
 41
1.0
 10
208.4578775726607
 20
292.2279555131826
 30
0.0
 41
1.0
 10
209.1994471830909
 20
292.8410139530424
 30
0.0
 41
1.0
  0
SPLINE
  5
D4
330
BC
100
AcDbEntity
  8
$DDT_AUDIT_GENERATED_(74)
  6
Continuous
 62
     7
100
AcDbSpline
210
0.0
220
0.0
230
1.0
 70
     8
 71
     3
 72
    10
 73
     6
 74
     0
 42
0.0000000183644992
 43
0.0000000001
 40
0.0
 40
0.0
 40
0.0
 40
0.0
 40
0.5
 40
0.5
 40
1.0
 40
1.0
 40
1.0
 40
1.0
 10
193.4340801564229
 20
301.4155591212167
 30
0.0
 10
193.508882070473
 20
301.3660866005381
 30
0.0
 10
193.5699585785383
 20
301.2960854560947
 30
0.0
 10
193.6477124382096
 20
301.1344507942874
 30
0.0
 10
193.6642826370832
 20
301.0430400259386
 30
0.0
 10
193.6562470439405
 20
300.9537187752429
 30
0.0
  0
ARC
  5
D5
330
BC
100
AcDbEntity
  8
$DDT_AUDIT_GENERATED_(74)
  6
Continuous
 62
     7
100
AcDbCircle
 10
114.4923016261
 20
594.449858765
 30
0.0
 40
343.2189817791223
100
AcDbArc
 50
300.5888827135
 51
301.0083548578
  0
ARC
  5
D6
330
BC
100
AcDbEntity
  8
$DDT_AUDIT_GENERATED_(74)
  6
Continuous
 62
     7
100
AcDbCircle
 10
202.5874549099
 20
302.1650287873
 30
0.0
 40
11.54994312335586
100
AcDbArc
 50
273.87622524
 51
294.2350269062
  0
ARC
  5
D7
330
BC
100
AcDbEntity
  8
$DDT_AUDIT_GENERATED_(74)
  6
Continuous
 62
     7
100
AcDbCircle
 10
243.8788885576
 20
375.7895599786
 30
0.0
 40
89.1689387035441
100
AcDbArc
 50
302.1317607037
 51
304.0696379843
  0
ARC
  5
D8
330
BC
100
AcDbEntity
  8
$DDT_AUDIT_GENERATED_(74)
  6
Continuous
 62
     7
100
AcDbCircle
 10
242.6235874317
 20
375.7895599786
 30
0.0
 40
89.16893870354407
100
AcDbArc
 50
235.9303620157
 51
236.52008985
  0
LINE
  5
D9
330
BC
100
AcDbEntity
  8
$DDT_AUDIT_GENERATED_(74)
  6
Continuous
 62
     7
100
AcDbLine
 10
192.4512379946
 20
302.8014423296
 30
0.0
 11
192.4512379946
 21
302.3399963841
 31
0.0
  0
LINE
  5
DA
330
BC
100
AcDbEntity
  8
$DDT_AUDIT_GENERATED_(74)
  6
Continuous
 62
     7
100
AcDbLine
 10
294.0512379946
 20
302.3399963841
 30
0.0
 11
294.0512379946
 21
302.8014423296
 31
0.0
  0
ARC
  5
DB
330
BC
100
AcDbEntity
  8
$DDT_AUDIT_GENERATED_(74)
  6
Continuous
 62
     7
100
AcDbCircle
 10
192.9512379946
 20
302.3399963841
 30
0.0
 40
0.5000000000000004
100
AcDbArc
 50
180.0
 51
235.9303620157
  0
ARC
  5
DC
330
BC
100
AcDbEntity
  8
$DDT_AUDIT_GENERATED_(74)
  6
Continuous
 62
     7
100
AcDbCircle
 10
293.5512379946
 20
302.3399963841
 30
0.0
 40
0.5000000000000016
100
AcDbArc
 50
304.0696379843
 51
0.0
  0
LINE
  5
DD
330
BC
100
AcDbEntity
  8
$DDT_AUDIT_GENERATED_(7B)
  6
Continuous
 62
     7
100
AcDbLine
 10
265.7512379946
 20
375.737520098
 30
0.0
 11
265.7512379946
 21
376.1864505931
 31
0.0
  0
LINE
  5
DE
330
BC
100
AcDbEntity
  8
$DDT_AUDIT_GENERATED_(7B)
  6
Continuous
 62
     7
100
AcDbLine
 10
220.7512379946
 20
376.1864505931
 30
0.0
 11
220.7512379946
 21
375.737520098
 31
0.0
  0
ARC
  5
DF
330
BC
100
AcDbEntity
  8
$DDT_AUDIT_GENERATED_(7B)
  6
Continuous
 62
     7
100
AcDbCircle
 10
264.7512379946
 20
376.1864505931
 30
0.0
 40
1.000000000000001
100
AcDbArc
 50
0.0
 51
63.0
  0
ARC
  5
E0
330
BC
100
AcDbEntity
  8
$DDT_AUDIT_GENERATED_(7B)
  6
Continuous
 62
     7
100
AcDbCircle
 10
221.7512379946
 20
376.1864505931
 30
0.0
 40
0.9999999999999936
100
AcDbArc
 50
117.0
 51
180.0
  0
LINE
  5
E1
330
BC
100
AcDbEntity
  8
$DDT_AUDIT_GENERATED_(7B)
  6
Continuous
 62
     7
100
AcDbLine
 10
265.2052284944
 20
377.0774571173
 30
0.0
 11
261.151237995
 21
379.1430684487
 31
0.0
  0
LINE
  5
E2
330
BC
100
AcDbEntity
  8
$DDT_AUDIT_GENERATED_(7B)
  6
Continuous
 62
     7
100
AcDbLine
 10
225.3512379943
 20
379.1430684487
 30
0.0
 11
221.2972474949
 21
377.0774571173
 31
0.0
  0
LINE
  5
E3
330
BC
100
AcDbEntity
  8
$DDT_AUDIT_GENERATED_(7B)
  6
Continuous
 62
     7
100
AcDbLine
 10
221.2972474949
 20
355.3975830788
 30
0.0
 11
225.5476558649
 21
353.2318918435
 31
0.0
  0
LINE
  5
E4
330
BC
100
AcDbEntity
  8
$DDT_AUDIT_GENERATED_(7B)
  6
Continuous
 62
     7
100
AcDbLine
 10
260.9548201243
 20
353.2318918435
 30
0.0
 11
265.2052284944
 21
355.3975830788
 31
0.0
  0
ARC
  5
E5
330
BC
100
AcDbEntity
  8
$DDT_AUDIT_GENERATED_(7B)
  6
Continuous
 62
     7
100
AcDbCircle
 10
264.7512379946
 20
356.288589603
 30
0.0
 40
0.9999999999999936
100
AcDbArc
 50
297.0
 51
0.0
  0
ARC
  5
E6
330
BC
100
AcDbEntity
  8
$DDT_AUDIT_GENERATED_(7B)
  6
Continuous
 62
     7
100
AcDbCircle
 10
221.7512379946
 20
356.288589603
 30
0.0
 40
1.000000000000001
100
AcDbArc
 50
180.0
 51
243.0
  0
LINE
  5
E7
330
BC
100
AcDbEntity
  8
$DDT_AUDIT_GENERATED_(7B)
  6
Continuous
 62
     7
100
AcDbLine
 10
265.7512379946
 20
356.288589603
 30
0.0
 11
265.7512379946
 21
356.737520098
 31
0.0
  0
LINE
  5
E8
330
BC
100
AcDbEntity
  8
$DDT_AUDIT_GENERATED_(7B)
  6
Continuous
 62
     7
100
AcDbLine
 10
220.7512379946
 20
356.737520098
 30
0.0
 11
220.7512379946
 21
356.288589603
 31
0.0
  0
ARC
  5
E9
330
BC
100
AcDbEntity
  8
$DDT_AUDIT_GENERATED_(7B)
  6
Continuous
 62
     7
100
AcDbCircle
 10
264.7512379946
 20
356.737520098
 30
0.0
 40
0.9999999999933049
100
AcDbArc
 50
0.0
 51
62.2109608475
  0
ARC
  5
EA
330
BC
100
AcDbEntity
  8
$DDT_AUDIT_GENERATED_(7B)
  6
Continuous
 62
     7
100
AcDbCircle
 10
221.7512379946
 20
356.737520098
 30
0.0
 40
0.9999999999933092
100
AcDbArc
 50
117.7890391525
 51
180.0
  0
LINE
  5
EB
330
BC
100
AcDbEntity
  8
$DDT_AUDIT_GENERATED_(7B)
  6
Continuous
 62
     7
100
AcDbLine
 10
265.2174554036
 20
357.6221902781
 30
0.0
 11
262.064751031
 21
359.2836520259
 31
0.0
  0
LINE
  5
EC
330
BC
100
AcDbEntity
  8
$DDT_AUDIT_GENERATED_(7B)
  6
Continuous
 62
     7
100
AcDbLine
 10
224.4377249583
 20
359.2836520259
 30
0.0
 11
221.2850205857
 21
357.6221902781
 31
0.0
  0
ARC
  5
ED
330
BC
100
AcDbEntity
  8
$DDT_AUDIT_GENERATED_(7B)
  6
Continuous
 62
     7
100
AcDbCircle
 10
262.2512379946
 20
359.637520098
 30
0.0
 40
0.4000000000867376
100
AcDbArc
 50
123.0408483905
 51
242.2109608475
  0
ARC
  5
EE
330
BC
100
AcDbEntity
  8
$DDT_AUDIT_GENERATED_(7B)
  6
Continuous
 62
     7
100
AcDbCircle
 10
224.2512379946
 20
359.637520098
 30
0.0
 40
0.4000000000867434
100
AcDbArc
 50
297.7890391525
 51
56.9591516095
  0
LINE
  5
EF
330
BC
100
AcDbEntity
  8
$DDT_AUDIT_GENERATED_(7B)
  6
Continuous
 62
     7
100
AcDbLine
 10
221.2092399333
 20
362.093267917
 30
0.0
 11
224.4693327217
 21
359.9728329223
 31
0.0
  0
LINE
  5
F0
330
BC
100
AcDbEntity
  8
$DDT_AUDIT_GENERATED_(7B)
  6
Continuous
 62
     7
100
AcDbLine
 10
262.0331432676
 20
359.9728329223
 30
0.0
 11
265.293236056
 21
362.093267917
 31
0.0
  0
ARC
  5
F1
330
BC
100
AcDbEntity
  8
$DDT_AUDIT_GENERATED_(7B)
  6
Continuous
 62
     7
100
AcDbCircle
 10
264.7441161428
 20
362.937520098
 30
0.0
 40
1.007121851753853
100
AcDbArc
 50
303.0408483905
 51
56.9591516082
  0
ARC
  5
F2
330
BC
100
AcDbEntity
  8
$DDT_AUDIT_GENERATED_(7B)
  6
Continuous
 62
     7
100
AcDbCircle
 10
221.7583598465
 20
362.937520098
 30
0.0
 40
1.007121851753848
100
AcDbArc
 50
123.0408483918
 51
236.9591516095
  0
LINE
  5
F3
330
BC
100
AcDbEntity
  8
$DDT_AUDIT_GENERATED_(7B)
  6
Continuous
 62
     7
100
AcDbLine
 10
265.293236056
 20
363.781772279
 30
0.0
 11
262.0331432676
 21
365.9022072738
 31
0.0
  0
LINE
  5
F4
330
BC
100
AcDbEntity
  8
$DDT_AUDIT_GENERATED_(7B)
  6
Continuous
 62
     7
100
AcDbLine
 10
224.4693327216
 20
365.9022072738
 30
0.0
 11
221.2092399333
 21
363.781772279
 31
0.0
  0
ARC
  5
F5
330
BC
100
AcDbEntity
  8
$DDT_AUDIT_GENERATED_(7B)
  6
Continuous
 62
     7
100
AcDbCircle
 10
262.2512379946
 20
366.237520098
 30
0.0
 40
0.4000000000043187
100
AcDbArc
 50
123.0884838012
 51
236.9591516082
  0
ARC
  5
F6
330
BC
100
AcDbEntity
  8
$DDT_AUDIT_GENERATED_(7B)
  6
Continuous
 62
     7
100
AcDbCircle
 10
224.2512379947
 20
366.237520098
 30
0.0
 40
0.4000000000043001
100
AcDbArc
 50
303.0408483918
 51
56.9115161988
  0
LINE
  5
F7
330
BC
100
AcDbEntity
  8
$DDT_AUDIT_GENERATED_(7B)
  6
Continuous
 62
     7
100
AcDbLine
 10
221.2053044225
 20
368.6996916343
 30
0.0
 11
224.4696114235
 21
366.5726514835
 31
0.0
  0
LINE
  5
F8
330
BC
100
AcDbEntity
  8
$DDT_AUDIT_GENERATED_(7B)
  6
Continuous
 62
     7
100
AcDbLine
 10
262.0328645657
 20
366.5726514835
 30
0.0
 11
265.2971715668
 21
368.6996916343
 31
0.0
  0
ARC
  5
F9
330
BC
100
AcDbEntity
  8
$DDT_AUDIT_GENERATED_(7B)
  6
Continuous
 62
     7
100
AcDbCircle
 10
264.7512379946
 20
369.537520098
 30
0.0
 40
0.9999999999194239
100
AcDbArc
 50
303.0884838012
 51
56.9115161986
  0
ARC
  5
FA
330
BC
100
AcDbEntity
  8
$DDT_AUDIT_GENERATED_(7B)
  6
Continuous
 62
     7
100
AcDbCircle
 10
221.7512379946
 20
369.537520098
 30
0.0
 40
0.9999999999194301
100
AcDbArc
 50
123.0884838014
 51
236.9115161988
  0
LINE
  5
FB
330
BC
100
AcDbEntity
  8
$DDT_AUDIT_GENERATED_(7B)
  6
Continuous
 62
     7
100
AcDbLine
 10
265.2971715668
 20
370.3753485617
 30
0.0
 11
262.0328645657
 21
372.5023887125
 31
0.0
  0
LINE
  5
FC
330
BC
100
AcDbEntity
  8
$DDT_AUDIT_GENERATED_(7B)
  6
Continuous
 62
     7
100
AcDbLine
 10
224.4696114236
 20
372.5023887125
 30
0.0
 11
221.2053044225
 21
370.3753485617
 31
0.0
  0
ARC
  5
FD
330
BC
100
AcDbEntity
  8
$DDT_AUDIT_GENERATED_(7B)
  6
Continuous
 62
     7
100
AcDbCircle
 10
262.2512379946
 20
372.8375200981
 30
0.0
 40
0.4000000000209705
100
AcDbArc
 50
117.789039153
 51
236.9115161986
  0
ARC
  5
FE
330
BC
100
AcDbEntity
  8
$DDT_AUDIT_GENERATED_(7B)
  6
Continuous
 62
     7
100
AcDbCircle
 10
224.2512379947
 20
372.8375200981
 30
0.0
 40
0.4000000000209636
100
AcDbArc
 50
303.0884838014
 51
62.210960847
  0
LINE
  5
FF
330
BC
100
AcDbEntity
  8
$DDT_AUDIT_GENERATED_(7B)
  6
Continuous
 62
     7
100
AcDbLine
 10
221.2850205857
 20
374.8528499179
 30
0.0
 11
224.4377249582
 21
373.1913881701
 31
0.0
  0
LINE
  5
100
330
BC
100
AcDbEntity
  8
$DDT_AUDIT_GENERATED_(7B)
  6
Continuous
 62
     7
100
AcDbLine
 10
262.064751031
 20
373.1913881701
 30
0.0
 11
265.2174554036
 21
374.8528499179
 31
0.0
  0
ARC
  5
101
330
BC
100
AcDbEntity
  8
$DDT_AUDIT_GENERATED_(7B)
  6
Continuous
 62
     7
100
AcDbCircle
 10
264.7512379946
 20
375.737520098
 30
0.0
 40
0.9999999999999959
100
AcDbArc
 50
297.789039153
 51
0.0
  0
ARC
  5
102
330
BC
100
AcDbEntity
  8
$DDT_AUDIT_GENERATED_(7B)
  6
Continuous
 62
     7
100
AcDbCircle
 10
221.7512379946
 20
375.737520098
 30
0.0
 40
1.000000000000001
100
AcDbArc
 50
180.0
 51
242.210960847
  0
LINE
  5
103
330
BC
100
AcDbEntity
  8
$DDT_AUDIT_GENERATED_(A2)
  6
Continuous
 62
     7
100
AcDbLine
 10
254.0012379947
 20
394.7574495309
 30
0.0
 11
232.5012379947
 21
394.7574495309
 31
0.0
  0
LINE
  5
104
330
BC
100
AcDbEntity
  8
$DDT_AUDIT_GENERATED_(A2)
  6
Continuous
 62
     7
100
AcDbLine
 10
221.297247495
 20
381.2086797802
 30
0.0
 11
222.7361841472
 21
380.4755049356
 31
0.0
  0
LINE
  5
105
330
BC
100
AcDbEntity
  8
$DDT_AUDIT_GENERATED_(A2)
  6
Continuous
 62
     7
100
AcDbLine
 10
224.6987946527
 20
379.4755049356
 30
0.0
 11
225.3512379943
 21
379.1430684487
 31
0.0
  0
LINE
  5
106
330
BC
100
AcDbEntity
  8
$DDT_AUDIT_GENERATED_(A2)
  6
Continuous
 62
     7
100
AcDbLine
 10
261.151237995
 20
379.1430684487
 30
0.0
 11
261.8036813367
 21
379.4755049356
 31
0.0
  0
LINE
  5
107
330
BC
100
AcDbEntity
  8
$DDT_AUDIT_GENERATED_(A2)
  6
Continuous
 62
     7
100
AcDbLine
 10
263.7662918422
 20
380.4755049356
 30
0.0
 11
265.2052284944
 21
381.2086797802
 31
0.0
  0
ARC
  5
108
330
BC
100
AcDbEntity
  8
$DDT_AUDIT_GENERATED_(A2)
  6
Continuous
 62
     7
100
AcDbCircle
 10
264.7512379947
 20
382.0996863044
 30
0.0
 40
0.999999999999992
100
AcDbArc
 50
297.0
 51
63.0
  0
ARC
  5
109
330
BC
100
AcDbEntity
  8
$DDT_AUDIT_GENERATED_(A2)
  6
Continuous
 62
     7
100
AcDbCircle
 10
221.7512379947
 20
382.0996863044
 30
0.0
 40
1.000000000000004
100
AcDbArc
 50
117.0
 51
243.0
  0
LINE
  5
10A
330
BC
100
AcDbEntity
  8
$DDT_AUDIT_GENERATED_(A2)
  6
Continuous
 62
     7
100
AcDbLine
 10
265.2052284944
 20
382.9906928286
 30
0.0
 11
260.165323497
 21
385.5586526878
 31
0.0
  0
LINE
  5
10B
330
BC
100
AcDbEntity
  8
$DDT_AUDIT_GENERATED_(A2)
  6
Continuous
 62
     7
100
AcDbLine
 10
226.3371524924
 20
385.5586526878
 30
0.0
 11
221.297247495
 21
382.9906928286
 31
0.0
  0
ARC
  5
10C
330
BC
100
AcDbEntity
  8
$DDT_AUDIT_GENERATED_(A2)
  6
Continuous
 62
     7
100
AcDbCircle
 10
264.2512379947
 20
393.5777114055
 30
0.0
 40
9.000000000000005
100
AcDbArc
 50
181.6372450778
 51
243.0
  0
ARC
  5
10D
330
BC
100
AcDbEntity
  8
$DDT_AUDIT_GENERATED_(A2)
  6
Continuous
 62
     7
100
AcDbCircle
 10
222.2512379947
 20
393.5777114055
 30
0.0
 40
9.000000000000002
100
AcDbArc
 50
297.0
 51
358.3627549222
  0
ARC
  5
10E
330
BC
100
AcDbEntity
  8
$DDT_AUDIT_GENERATED_(A2)
  6
Continuous
 62
     7
100
AcDbCircle
 10
232.7469514054
 20
393.2777114055
 30
0.0
 40
1.500000000000004
100
AcDbArc
 50
99.4280503934
 51
178.3627549222
  0
ARC
  5
10F
330
BC
100
AcDbEntity
  8
$DDT_AUDIT_GENERATED_(A2)
  6
Continuous
 62
     7
100
AcDbCircle
 10
253.755524584
 20
393.2777114055
 30
0.0
 40
1.499999999999998
100
AcDbArc
 50
1.6372450778
 51
80.5719496066
  0
LINE
  5
110
330
BC
100
AcDbEntity
  8
$DDT_AUDIT_GENERATED_(B0)
  6
Continuous
 62
     7
100
AcDbLine
 10
264.7512379947
 20
379.4755049356
 30
0.0
 11
221.7512379947
 21
379.4755049356
 31
0.0
  0
LINE
  5
111
330
BC
100
AcDbEntity
  8
$DDT_AUDIT_GENERATED_(B0)
  6
Continuous
 62
     7
100
AcDbLine
 10
264.7512379947
 20
380.4755049356
 30
0.0
 11
221.7512379947
 21
380.4755049356
 31
0.0
  0
LINE
  5
112
330
BC
100
AcDbEntity
  8
$DDT_AUDIT_GENERATED_(B0)
  6
Continuous
 62
     7
100
AcDbLine
 10
264.7512379947
 20
379.4755049356
 30
0.0
 11
264.7512379947
 21
380.4755049356
 31
0.0
  0
LINE
  5
113
330
BC
100
AcDbEntity
  8
$DDT_AUDIT_GENERATED_(B0)
  6
Continuous
 62
     7
100
AcDbLine
 10
221.7512379947
 20
380.4755049356
 30
0.0
 11
221.7512379947
 21
379.4755049356
 31
0.0
  0
ARC
  5
115
330
BC
100
AcDbEntity
  8
DV2_Standard
  6
Continuous
 62
     7
100
AcDbCircle
 10
243.1650298589
 20
376.4455668772
 30
0.0
 40
89.96966725202537
100
AcDbArc
 50
238.5200094487
 51
300.7411132
  0
LINE
  5
116
330
BC
100
AcDbEntity
  8
DV2_Standard
  6
Continuous
 62
     7
100
AcDbLine
 10
272.9951792309
 20
332.914380447
 30
0.0
 11
278.0171843629
 21
330.6056639479
 31
0.0
  0
LINE
  5
117
330
BC
100
AcDbEntity
  8
DV2_Standard
  6
CENTER2
 62
     7
100
AcDbLine
 10
263.2512375477
 20
394.7574495309
 30
0.0
 11
223.2512384417
 21
394.7574495309
 31
0.0
  0
LINE
  5
118
330
BC
100
AcDbEntity
  8
DV2_Standard
  6
CENTER2
 62
     7
100
AcDbLine
 10
243.2512379947
 20
414.7574490838
 30
0.0
 11
243.2512379947
 21
374.7574499779
 31
0.0
  0
ENDBLK
  5
11A
330
BC
100
AcDbEntity
  8
0
100
AcDbBlockEnd
  0
BLOCK
  5
129
330
11B
100
AcDbEntity
  8
0
100
AcDbBlockBegin
  2
SE2
 70
     0
 10
0.0
 20
0.0
 30
0.0
  3
SE2
  1

  0
CIRCLE
  5
11D
330
11B
100
AcDbEntity
  8
$DDT_AUDIT_GENERATED_(60)
  6
Continuous
 62
     7
100
AcDbCircle
 10
65.1273511323
 20
165.108326082
 30
0.0
 40
58.75832608195751
  0
CIRCLE
  5
11F
330
11B
100
AcDbEntity
  8
$DDT_AUDIT_GENERATED_(11E)
  6
Continuous
 62
     7
100
AcDbCircle
 10
65.1266758513
 20
165.1076695015
 30
0.0
 40
0.7500000000000001
  0
CIRCLE
  5
120
330
11B
100
AcDbEntity
  8
$DDT_AUDIT_GENERATED_(A2)
  6
Continuous
 62
     7
100
AcDbCircle
 10
65.1266758513
 20
165.1076695014
 30
0.0
 40
10.75
  0
CIRCLE
  5
121
330
11B
100
AcDbEntity
  8
$DDT_AUDIT_GENERATED_(A2)
  6
Continuous
 62
     7
100
AcDbCircle
 10
65.1266758513
 20
165.1076695014
 30
0.0
 40
22.5
  0
LINE
  5
123
330
11B
100
AcDbEntity
  8
DV3_Standard
  6
CENTER2
 62
     7
100
AcDbLine
 10
85.1266754043
 20
165.1076695015
 30
0.0
 11
45.1266762983
 21
165.1076695015
 31
0.0
  0
LINE
  5
124
330
11B
100
AcDbEntity
  8
DV3_Standard
  6
CENTER2
 62
     7
100
AcDbLine
 10
65.1266758513
 20
185.1076690545
 30
0.0
 11
65.1266758513
 21
145.1076699485
 31
0.0
  0
LINE
  5
125
330
11B
100
AcDbEntity
  8
DV3_Standard
  6
CENTER2
 62
     7
100
AcDbLine
 10
90.1266752925
 20
165.1076695015
 30
0.0
 11
69.3766758513
 21
165.1076695015
 31
0.0
  0
LINE
  5
126
330
11B
100
AcDbEntity
  8
DV3_Standard
  6
CENTER2
 62
     7
100
AcDbLine
 10
65.1266758513
 20
190.1076689427
 30
0.0
 11
65.1266758513
 21
169.3576695015
 31
0.0
  0
LINE
  5
127
330
11B
100
AcDbEntity
  8
DV3_Standard
  6
CENTER2
 62
     7
100
AcDbLine
 10
40.1266764101
 20
165.1076695015
 30
0.0
 11
60.8766758513
 21
165.1076695015
 31
0.0
  0
LINE
  5
128
330
11B
100
AcDbEntity
  8
DV3_Standard
  6
CENTER2
 62
     7
100
AcDbLine
 10
65.1266758513
 20
140.1076700603
 30
0.0
 11
65.1266758513
 21
160.8576695015
 31
0.0
  0
ENDBLK
  5
12A
330
11B
100
AcDbEntity
  8
0
100
AcDbBlockEnd
  0
ENDSEC
  0
SECTION
  2
ENTITIES
  0
INSERT
  5
5F
330
1F
100
AcDbEntity
  8
Default
100
AcDbBlockReference
  2
SE
 10
0.0
 20
0.0
 30
0.0
  0
INSERT
  5
BD
330
1F
100
AcDbEntity
  8
Default
100
AcDbBlockReference
  2
SE1
 10
0.0
 20
0.0
 30
0.0
  0
INSERT
  5
11C
330
1F
100
AcDbEntity
  8
Default
100
AcDbBlockReference
  2
SE2
 10
0.0
 20
0.0
 30
0.0
  0
TEXT
  5
12C
330
1F
100
AcDbEntity
  8
Default
  6
Continuous
 62
     7
100
AcDbText
 10
5.9362635081
 20
53.4225120485
 30
0.0
 40
10.0
  1
Grohe AG^J
  7
SEACAD_seiso_ttf
 11
5.9362635081
 21
63.4225120485
 31
0.0
100
AcDbText
 73
     3
  0
TEXT
  5
12D
330
1F
100
AcDbEntity
  8
Default
  6
Continuous
 62
     7
100
AcDbText
 10
5.9362635081
 20
37.0588756849
 30
0.0
 40
10.0
  1
 
  7
SEACAD_seiso_ttf
 11
5.9362635081
 21
47.0588756849
 31
0.0
100
AcDbText
 73
     3
  0
TEXT
  5
12E
330
1F
100
AcDbEntity
  8
Default
  6
Continuous
 62
     7
100
AcDbText
 10
5.9362635081
 20
20.6952393213
 30
0.0
 40
10.0
  1
ecn: 
  7
SEACAD_seiso_ttf
 11
5.9362635081
 21
30.6952393213
 31
0.0
100
AcDbText
 73
     3
  0
TEXT
  5
12F
330
1F
100
AcDbEntity
  8
Default
  6
Continuous
 62
     7
100
AcDbText
 10
5.9362635081
 20
4.3316029576
 30
0.0
 40
10.0
  1
unit: mm
  7
SEACAD_seiso_ttf
 11
5.9362635081
 21
14.3316029576
 31
0.0
100
AcDbText
 73
     3
  0
LINE
  5
130
330
1F
100
AcDbEntity
  8
Default
  6
Continuous
 62
     7
100
AcDbLine
 10
0.0
 20
0.0
 30
0.0
 11
100.0
 21
0.0
 31
0.0
  0
LINE
  5
131
330
1F
100
AcDbEntity
  8
Default
  6
Continuous
 62
     7
100
AcDbLine
 10
0.0
 20
0.0
 30
0.0
 11
0.0
 21
100.0
 31
0.0
  0
TEXT
  5
132
330
1F
100
AcDbEntity
  8
Default
  6
Continuous
 62
     7
100
AcDbText
 10
24.3923665681
 20
-18.2375342018
 30
0.0
 40
10.0
  1
100 mm
  7
SEACAD_seiso_ttf
 11
24.3923665681
 21
-8.2375342018
 31
0.0
100
AcDbText
 73
     3
  0
TEXT
  5
133
330
1F
100
AcDbEntity
  8
Default
  6
Continuous
 62
     7
100
AcDbText
 10
-7.6150308803
 20
24.6231930421
 30
0.0
 40
10.0
  1
100 mm
 50
90.0
  7
SEACAD_seiso_ttf
 11
-17.6150308803
 21
24.6231930421
 31
0.0
100
AcDbText
 73
     3
  0
TEXT
  5
134
330
1F
100
AcDbEntity
  8
Default
  6
Continuous
 62
     7
100
AcDbText
 10
28.4878128572
 20
20.0907663715
 30
0.0
 40
10.0
  1
213916
  7
SEACAD_seiso_ttf
 11
28.4878128572
 21
30.0907663715
 31
0.0
100
AcDbText
 73
     3
  0
TEXT
  5
135
330
1F
100
AcDbEntity
  8
Default
  6
Continuous
 62
     7
100
AcDbText
 10
5.9012241913
 20
36.7242780188
 30
0.0
 40
10.0
  1
27236000
  7
SEACAD_seiso_ttf
 11
5.9012241913
 21
46.7242780188
 31
0.0
100
AcDbText
 73
     3
  0
ENDSEC
  0
SECTION
  2
OBJECTS
  0
DICTIONARY
  5
C
330
0
100
AcDbDictionary
281
     1
  3
ACAD_GROUP
350
D
  3
ACAD_LAYOUT
350
1A
  3
ACAD_MLEADERSTYLE
350
139
  3
ACAD_MLINESTYLE
350
17
  3
ACAD_PLOTSETTINGS
350
19
  3
ACAD_PLOTSTYLENAME
350
E
  3
ACAD_SCALELIST
350
3B
  3
ACAD_TABLESTYLE
350
138
  3
ACAD_VISUALSTYLE
350
2A
  3
AcDbVariableDictionary
350
136
  0
DICTIONARY
  5
D
102
{ACAD_REACTORS
330
C
102
}
330
C
100
AcDbDictionary
281
     1
  0
DICTIONARY
  5
1A
102
{ACAD_REACTORS
330
C
102
}
330
C
100
AcDbDictionary
281
     1
  3
Layout1
350
1E
  3
Model
350
22
  0
DICTIONARY
  5
139
102
{ACAD_REACTORS
330
C
102
}
330
C
100
AcDbDictionary
281
     1
  0
DICTIONARY
  5
17
102
{ACAD_REACTORS
330
C
102
}
330
C
100
AcDbDictionary
281
     1
  3
Standard
350
18
  0
DICTIONARY
  5
19
102
{ACAD_REACTORS
330
C
102
}
330
C
100
AcDbDictionary
281
     1
  0
ACDBDICTIONARYWDFLT
  5
E
102
{ACAD_REACTORS
330
C
102
}
330
C
100
AcDbDictionary
281
     1
  3
Normal
350
F
100
AcDbDictionaryWithDefault
340
F
  0
DICTIONARY
  5
3B
102
{ACAD_REACTORS
330
C
102
}
330
C
100
AcDbDictionary
281
     1
  3
A0
350
3C
  3
A1
350
3D
  3
A2
350
3E
  3
A3
350
3F
  3
A4
350
40
  3
A5
350
41
  3
A6
350
42
  3
A7
350
43
  3
A8
350
44
  3
A9
350
45
  3
B0
350
46
  3
B1
350
47
  3
B2
350
48
  3
B3
350
49
  3
B4
350
4A
  3
B5
350
4B
  3
B6
350
4C
  3
B7
350
4D
  3
B8
350
4E
  3
B9
350
4F
  3
C0
350
50
  3
C1
350
51
  3
C2
350
52
  3
C3
350
53
  3
C4
350
54
  3
C5
350
55
  3
C6
350
56
  3
C7
350
57
  3
C8
350
58
  3
C9
350
59
  3
D0
350
5A
  3
D1
350
5B
  3
D2
350
5C
  0
DICTIONARY
  5
138
102
{ACAD_REACTORS
330
C
102
}
330
C
100
AcDbDictionary
281
     1
  0
DICTIONARY
  5
2A
102
{ACAD_REACTORS
330
C
102
}
330
C
100
AcDbDictionary
281
     1
  3
2dWireframe
350
2F
  3
3D Hidden
350
31
  3
3dWireframe
350
30
  3
Basic
350
32
  3
Brighten
350
36
  3
ColorChange
350
3A
  3
Conceptual
350
34
  3
Dim
350
35
  3
Facepattern
350
39
  3
Flat
350
2B
  3
FlatWithEdges
350
2C
  3
Gouraud
350
2D
  3
GouraudWithEdges
350
2E
  3
Linepattern
350
38
  3
Realistic
350
33
  3
Thicken
350
37
  0
DICTIONARY
  5
136
102
{ACAD_REACTORS
330
C
102
}
330
C
100
AcDbDictionary
281
     1
  3
CANNOSCALE
350
137
  3
PSOLHEIGHT
350
13B
  3
PSOLWIDTH
350
13A
  0
LAYOUT
  5
1E
102
{ACAD_REACTORS
330
1A
102
}
330
1A
100
AcDbPlotSettings
  1

  2
none_device
  4

  6

 40
0.0
 41
0.0
 42
0.0
 43
0.0
 44
0.0
 45
0.0
 46
0.0
 47
0.0
 48
0.0
 49
0.0
140
0.0
141
0.0
142
1.0
143
1.0
 70
   688
 72
     0
 73
     0
 74
     5
  7

 75
    16
147
1.0
148
0.0
149
0.0
100
AcDbLayout
  1
Layout1
 70
     1
 71
     1
 10
0.0
 20
0.0
 11
1682.0
 21
2378.0
 12
0.0
 22
0.0
 32
0.0
 14
0.0
 24
0.0
 34
0.0
 15
1682.0
 25
2378.0
 35
0.0
146
0.0
 13
0.0
 23
0.0
 33
0.0
 16
1.0
 26
0.0
 36
0.0
 17
0.0
 27
1.0
 37
0.0
 76
     0
330
1B
  0
LAYOUT
  5
22
102
{ACAD_REACTORS
330
1A
102
}
330
1A
100
AcDbPlotSettings
  1

  2
none_device
  4

  6

 40
0.0
 41
0.0
 42
0.0
 43
0.0
 44
0.0
 45
0.0
 46
0.0
 47
0.0
 48
0.0
 49
0.0
140
0.0
141
0.0
142
1.0
143
1.0
 70
  1712
 72
     0
 73
     0
 74
     0
  7

 75
     0
147
1.0
148
0.0
149
0.0
100
AcDbLayout
  1
Model
 70
     1
 71
     0
 10
0.0
 20
0.0
 11
1682.0
 21
2378.0
 12
0.0
 22
0.0
 32
0.0
 14
0.0
 24
0.0
 34
0.0
 15
1682.0
 25
2378.0
 35
0.0
146
0.0
 13
0.0
 23
0.0
 33
0.0
 16
1.0
 26
0.0
 36
0.0
 17
0.0
 27
1.0
 37
0.0
 76
     0
330
1F
331
29
  0
MLINESTYLE
  5
18
102
{ACAD_REACTORS
330
17
102
}
330
17
100
AcDbMlineStyle
  2
Standard
 70
     0
  3

 62
   256
 51
90.0
 52
90.0
 71
     2
 49
0.5
 62
   256
  6
BYLAYER
 49
-0.5
 62
   256
  6
BYLAYER
  0
ACDBPLACEHOLDER
  5
F
102
{ACAD_REACTORS
330
E
102
}
330
E
  0
SCALE
  5
3C
102
{ACAD_REACTORS
330
3B
102
}
330
3B
100
AcDbScale
 70
     0
300
1:1
140
1.0
141
1.0
290
     1
  0
SCALE
  5
3D
102
{ACAD_REACTORS
330
3B
102
}
330
3B
100
AcDbScale
 70
     0
300
1:2
140
1.0
141
2.0
290
     0
  0
SCALE
  5
3E
102
{ACAD_REACTORS
330
3B
102
}
330
3B
100
AcDbScale
 70
     0
300
1:4
140
1.0
141
4.0
290
     0
  0
SCALE
  5
3F
102
{ACAD_REACTORS
330
3B
102
}
330
3B
100
AcDbScale
 70
     0
300
1:5
140
1.0
141
5.0
290
     0
  0
SCALE
  5
40
102
{ACAD_REACTORS
330
3B
102
}
330
3B
100
AcDbScale
 70
     0
300
1:8
140
1.0
141
8.0
290
     0
  0
SCALE
  5
41
102
{ACAD_REACTORS
330
3B
102
}
330
3B
100
AcDbScale
 70
     0
300
1:10
140
1.0
141
10.0
290
     0
  0
SCALE
  5
42
102
{ACAD_REACTORS
330
3B
102
}
330
3B
100
AcDbScale
 70
     0
300
1:16
140
1.0
141
16.0
290
     0
  0
SCALE
  5
43
102
{ACAD_REACTORS
330
3B
102
}
330
3B
100
AcDbScale
 70
     0
300
1:20
140
1.0
141
20.0
290
     0
  0
SCALE
  5
44
102
{ACAD_REACTORS
330
3B
102
}
330
3B
100
AcDbScale
 70
     0
300
1:30
140
1.0
141
30.0
290
     0
  0
SCALE
  5
45
102
{ACAD_REACTORS
330
3B
102
}
330
3B
100
AcDbScale
 70
     0
300
1:40
140
1.0
141
40.0
290
     0
  0
SCALE
  5
46
102
{ACAD_REACTORS
330
3B
102
}
330
3B
100
AcDbScale
 70
     0
300
1:50
140
1.0
141
50.0
290
     0
  0
SCALE
  5
47
102
{ACAD_REACTORS
330
3B
102
}
330
3B
100
AcDbScale
 70
     0
300
1:100
140
1.0
141
100.0
290
     0
  0
SCALE
  5
48
102
{ACAD_REACTORS
330
3B
102
}
330
3B
100
AcDbScale
 70
     0
300
2:1
140
2.0
141
1.0
290
     0
  0
SCALE
  5
49
102
{ACAD_REACTORS
330
3B
102
}
330
3B
100
AcDbScale
 70
     0
300
4:1
140
4.0
141
1.0
290
     0
  0
SCALE
  5
4A
102
{ACAD_REACTORS
330
3B
102
}
330
3B
100
AcDbScale
 70
     0
300
8:1
140
8.0
141
1.0
290
     0
  0
SCALE
  5
4B
102
{ACAD_REACTORS
330
3B
102
}
330
3B
100
AcDbScale
 70
     0
300
10:1
140
10.0
141
1.0
290
     0
  0
SCALE
  5
4C
102
{ACAD_REACTORS
330
3B
102
}
330
3B
100
AcDbScale
 70
     0
300
100:1
140
100.0
141
1.0
290
     0
  0
SCALE
  5
4D
102
{ACAD_REACTORS
330
3B
102
}
330
3B
100
AcDbScale
 70
     0
300
1/128" = 1'-0"
140
0.0078125
141
12.0
290
     0
  0
SCALE
  5
4E
102
{ACAD_REACTORS
330
3B
102
}
330
3B
100
AcDbScale
 70
     0
300
1/64" = 1'-0"
140
0.015625
141
12.0
290
     0
  0
SCALE
  5
4F
102
{ACAD_REACTORS
330
3B
102
}
330
3B
100
AcDbScale
 70
     0
300
1/32" = 1'-0"
140
0.03125
141
12.0
290
     0
  0
SCALE
  5
50
102
{ACAD_REACTORS
330
3B
102
}
330
3B
100
AcDbScale
 70
     0
300
1/16" = 1'-0"
140
0.0625
141
12.0
290
     0
  0
SCALE
  5
51
102
{ACAD_REACTORS
330
3B
102
}
330
3B
100
AcDbScale
 70
     0
300
3/32" = 1'-0"
140
0.09375
141
12.0
290
     0
  0
SCALE
  5
52
102
{ACAD_REACTORS
330
3B
102
}
330
3B
100
AcDbScale
 70
     0
300
1/8" = 1'-0"
140
0.125
141
12.0
290
     0
  0
SCALE
  5
53
102
{ACAD_REACTORS
330
3B
102
}
330
3B
100
AcDbScale
 70
     0
300
3/16" = 1'-0"
140
0.1875
141
12.0
290
     0
  0
SCALE
  5
54
102
{ACAD_REACTORS
330
3B
102
}
330
3B
100
AcDbScale
 70
     0
300
1/4" = 1'-0"
140
0.25
141
12.0
290
     0
  0
SCALE
  5
55
102
{ACAD_REACTORS
330
3B
102
}
330
3B
100
AcDbScale
 70
     0
300
3/8" = 1'-0"
140
0.375
141
12.0
290
     0
  0
SCALE
  5
56
102
{ACAD_REACTORS
330
3B
102
}
330
3B
100
AcDbScale
 70
     0
300
1/2" = 1'-0"
140
0.5
141
12.0
290
     0
  0
SCALE
  5
57
102
{ACAD_REACTORS
330
3B
102
}
330
3B
100
AcDbScale
 70
     0
300
3/4" = 1'-0"
140
0.75
141
12.0
290
     0
  0
SCALE
  5
58
102
{ACAD_REACTORS
330
3B
102
}
330
3B
100
AcDbScale
 70
     0
300
1" = 1'-0"
140
1.0
141
12.0
290
     0
  0
SCALE
  5
59
102
{ACAD_REACTORS
330
3B
102
}
330
3B
100
AcDbScale
 70
     0
300
1-1/2" = 1'-0"
140
1.5
141
12.0
290
     0
  0
SCALE
  5
5A
102
{ACAD_REACTORS
330
3B
102
}
330
3B
100
AcDbScale
 70
     0
300
3" = 1'-0"
140
3.0
141
12.0
290
     0
  0
SCALE
  5
5B
102
{ACAD_REACTORS
330
3B
102
}
330
3B
100
AcDbScale
 70
     0
300
6" = 1'-0"
140
6.0
141
12.0
290
     0
  0
SCALE
  5
5C
102
{ACAD_REACTORS
330
3B
102
}
330
3B
100
AcDbScale
 70
     0
300
1'-0" = 1'-0"
140
12.0
141
12.0
290
     0
  0
VISUALSTYLE
  5
2F
102
{ACAD_REACTORS
330
2A
102
}
330
2A
100
AcDbVisualStyle
  2
2dWireframe
 70
     4
 71
     0
 72
     2
 73
     0
 90
        0
 40
-0.6
 41
-30.0
 62
     5
 63
     7
 74
     1
 91
        4
 64
     7
 65
   257
 75
     1
175
     1
 42
1.0
 92
        0
 66
   257
 43
1.0
 76
     1
 77
     6
 78
     2
 67
     7
 79
     5
170
     0
171
     0
290
     0
174
     0
 93
        1
 44
0.0
173
     0
291
     0
 45
0.0
1001
ACAD
1000
AcDbSavedByObjectVersion
1070
     0
  0
VISUALSTYLE
  5
31
102
{ACAD_REACTORS
330
2A
102
}
330
2A
100
AcDbVisualStyle
  2
3D Hidden
 70
     6
 71
     1
 72
     2
 73
     2
 90
        0
 40
-0.6
 41
-30.0
 62
     5
 63
     7
 74
     2
 91
        2
 64
     7
 65
   257
 75
     2
175
     1
 42
40.0
 92
        0
 66
   257
 43
1.0
 76
     1
 77
     6
 78
     2
 67
     7
 79
     3
170
     0
171
     0
290
     0
174
     0
 93
        1
 44
0.0
173
     0
291
     0
 45
0.0
1001
ACAD
1000
AcDbSavedByObjectVersion
1070
     0
  0
VISUALSTYLE
  5
30
102
{ACAD_REACTORS
330
2A
102
}
330
2A
100
AcDbVisualStyle
  2
3dWireframe
 70
     5
 71
     0
 72
     2
 73
     0
 90
        0
 40
-0.6
 41
-30.0
 62
     5
 63
     7
 74
     1
 91
        4
 64
     7
 65
   257
 75
     1
175
     1
 42
1.0
 92
        0
 66
   257
 43
1.0
 76
     1
 77
     6
 78
     2
 67
     7
 79
     5
170
     0
171
     0
290
     0
174
     0
 93
        1
 44
0.0
173
     0
291
     0
 45
0.0
1001
ACAD
1000
AcDbSavedByObjectVersion
1070
     0
  0
VISUALSTYLE
  5
32
102
{ACAD_REACTORS
330
2A
102
}
330
2A
100
AcDbVisualStyle
  2
Basic
 70
     7
 71
     1
 72
     0
 73
     1
 90
        0
 40
-0.6
 41
-30.0
 62
     5
 63
     7
 74
     0
 91
        4
 64
     7
 65
   257
 75
     1
175
     1
 42
1.0
 92
        8
 66
     7
 43
1.0
 76
     1
 77
     6
 78
     2
 67
     7
 79
     5
170
     0
171
     0
290
     0
174
     0
 93
        1
 44
0.0
173
     0
291
     1
 45
0.0
1001
ACAD
1000
AcDbSavedByObjectVersion
1070
     0
  0
VISUALSTYLE
  5
36
102
{ACAD_REACTORS
330
2A
102
}
330
2A
100
AcDbVisualStyle
  2
Brighten
 70
    12
 71
     2
 72
     2
 73
     0
 90
        0
 40
-0.6
 41
-30.0
 62
     5
 63
     7
 74
     1
 91
        4
 64
     7
 65
   257
 75
     1
175
     1
 42
1.0
 92
        8
 66
     7
 43
1.0
 76
     1
 77
     6
 78
     2
 67
     7
 79
     5
170
     0
171
     0
290
     0
174
     0
 93
        1
 44
50.0
173
     0
291
     1
 45
0.0
1001
ACAD
1000
AcDbSavedByObjectVersion
1070
     0
  0
VISUALSTYLE
  5
3A
102
{ACAD_REACTORS
330
2A
102
}
330
2A
100
AcDbVisualStyle
  2
ColorChange
 70
    16
 71
     2
 72
     2
 73
     3
 90
        0
 40
-0.6
 41
-30.0
 62
     5
 63
     8
 74
     1
 91
        4
 64
     7
 65
   257
 75
     1
175
     1
 42
1.0
 92
        8
 66
     8
 43
1.0
 76
     1
 77
     6
 78
     2
 67
     7
 79
     5
170
     0
171
     0
290
     0
174
     0
 93
        1
 44
0.0
173
     0
291
     1
 45
0.0
1001
ACAD
1000
AcDbSavedByObjectVersion
1070
     0
  0
VISUALSTYLE
  5
34
102
{ACAD_REACTORS
330
2A
102
}
330
2A
100
AcDbVisualStyle
  2
Conceptual
 70
     9
 71
     3
 72
     2
 73
     0
 90
        0
 40
-0.6
 41
-30.0
 62
     5
 63
     7
 74
     2
 91
        2
 64
     7
 65
   257
 75
     1
175
     1
 42
40.0
 92
        8
 66
     7
 43
1.0
 76
     1
 77
     6
 78
     2
 67
     7
 79
     3
170
     0
171
     0
290
     0
174
     0
 93
        1
 44
0.0
173
     0
291
     0
 45
0.0
1001
ACAD
1000
AcDbSavedByObjectVersion
1070
     0
  0
VISUALSTYLE
  5
35
102
{ACAD_REACTORS
330
2A
102
}
330
2A
100
AcDbVisualStyle
  2
Dim
 70
    11
 71
     2
 72
     2
 73
     0
 90
        0
 40
-0.6
 41
-30.0
 62
     5
 63
     7
 74
     1
 91
        4
 64
     7
 65
   257
 75
     1
175
     1
 42
1.0
 92
        8
 66
     7
 43
1.0
 76
     1
 77
     6
 78
     2
 67
     7
 79
     5
170
     0
171
     0
290
     0
174
     0
 93
        1
 44
-50.0
173
     0
291
     1
 45
0.0
1001
ACAD
1000
AcDbSavedByObjectVersion
1070
     0
  0
VISUALSTYLE
  5
39
102
{ACAD_REACTORS
330
2A
102
}
330
2A
100
AcDbVisualStyle
  2
Facepattern
 70
    15
 71
     2
 72
     2
 73
     0
 90
        0
 40
-0.6
 41
-30.0
 62
     5
 63
     7
 74
     1
 91
        4
 64
     7
 65
   257
 75
     1
175
     1
 42
1.0
 92
        8
 66
     7
 43
1.0
 76
     1
 77
     6
 78
     2
 67
     7
 79
     5
170
     0
171
     0
290
     0
174
     0
 93
        1
 44
0.0
173
     0
291
     1
 45
0.0
1001
ACAD
1000
AcDbSavedByObjectVersion
1070
     0
  0
VISUALSTYLE
  5
2B
102
{ACAD_REACTORS
330
2A
102
}
330
2A
100
AcDbVisualStyle
  2
Flat
 70
     0
 71
     2
 72
     1
 73
     1
 90
        2
 40
-0.6
 41
30.0
 62
     5
 63
     7
 74
     0
 91
        4
 64
     7
 65
   257
 75
     1
175
     1
 42
1.0
 92
        8
 66
     7
 43
1.0
 76
     1
 77
     6
 78
     2
 67
     7
 79
     5
170
     0
171
     0
290
     0
174
     0
 93
       13
 44
0.0
173
     0
291
     1
 45
0.0
1001
ACAD
1000
AcDbSavedByObjectVersion
1070
     0
  0
VISUALSTYLE
  5
2C
102
{ACAD_REACTORS
330
2A
102
}
330
2A
100
AcDbVisualStyle
  2
FlatWithEdges
 70
     1
 71
     2
 72
     1
 73
     1
 90
        2
 40
-0.6
 41
30.0
 62
     5
 63
     7
 74
     1
 91
        4
 64
     7
 65
   257
 75
     1
175
     1
 42
1.0
 92
        0
 66
   257
 43
1.0
 76
     1
 77
     6
 78
     2
 67
     7
 79
     5
170
     0
171
     0
290
     0
174
     0
 93
       13
 44
0.0
173
     0
291
     1
 45
0.0
1001
ACAD
1000
AcDbSavedByObjectVersion
1070
     0
  0
VISUALSTYLE
  5
2D
102
{ACAD_REACTORS
330
2A
102
}
330
2A
100
AcDbVisualStyle
  2
Gouraud
 70
     2
 71
     2
 72
     2
 73
     1
 90
        2
 40
-0.6
 41
30.0
 62
     5
 63
     7
 74
     0
 91
        4
 64
     7
 65
   257
 75
     1
175
     1
 42
1.0
 92
        0
 66
     7
 43
1.0
 76
     1
 77
     6
 78
     2
 67
     7
 79
     5
170
     0
171
     0
290
     0
174
     0
 93
       13
 44
0.0
173
     0
291
     1
 45
0.0
1001
ACAD
1000
AcDbSavedByObjectVersion
1070
     0
  0
VISUALSTYLE
  5
2E
102
{ACAD_REACTORS
330
2A
102
}
330
2A
100
AcDbVisualStyle
  2
GouraudWithEdges
 70
     3
 71
     2
 72
     2
 73
     1
 90
        2
 40
-0.6
 41
30.0
 62
     5
 63
     7
 74
     1
 91
        4
 64
     7
 65
   257
 75
     1
175
     1
 42
1.0
 92
        0
 66
   257
 43
1.0
 76
     1
 77
     6
 78
     2
 67
     7
 79
     5
170
     0
171
     0
290
     0
174
     0
 93
       13
 44
0.0
173
     0
291
     1
 45
0.0
1001
ACAD
1000
AcDbSavedByObjectVersion
1070
     0
  0
VISUALSTYLE
  5
38
102
{ACAD_REACTORS
330
2A
102
}
330
2A
100
AcDbVisualStyle
  2
Linepattern
 70
    14
 71
     2
 72
     2
 73
     0
 90
        0
 40
-0.6
 41
-30.0
 62
     5
 63
     7
 74
     1
 91
        4
 64
     7
 65
   257
 75
     7
175
     7
 42
1.0
 92
        8
 66
     7
 43
1.0
 76
     1
 77
     6
 78
     2
 67
     7
 79
     5
170
     0
171
     0
290
     0
174
     0
 93
        1
 44
0.0
173
     0
291
     1
 45
0.0
1001
ACAD
1000
AcDbSavedByObjectVersion
1070
     0
  0
VISUALSTYLE
  5
33
102
{ACAD_REACTORS
330
2A
102
}
330
2A
100
AcDbVisualStyle
  2
Realistic
 70
     8
 71
     2
 72
     2
 73
     0
 90
        0
 40
-0.6
 41
-30.0
 62
     5
 63
     7
 74
     1
 91
        0
 64
     7
 65
   257
 75
     1
175
     1
 42
1.0
 92
        8
 66
     8
 43
1.0
 76
     1
 77
     6
 78
     2
 67
     7
 79
     5
170
     0
171
     0
290
     0
174
     0
 93
       13
 44
0.0
173
     0
291
     0
 45
0.0
1001
ACAD
1000
AcDbSavedByObjectVersion
1070
     0
  0
VISUALSTYLE
  5
37
102
{ACAD_REACTORS
330
2A
102
}
330
2A
100
AcDbVisualStyle
  2
Thicken
 70
    13
 71
     2
 72
     2
 73
     0
 90
        0
 40
-0.6
 41
-30.0
 62
     5
 63
     7
 74
     1
 91
        4
 64
     7
 65
   257
 75
     1
175
     1
 42
1.0
 92
       12
 66
     7
 43
1.0
 76
     1
 77
     6
 78
     2
 67
     7
 79
     5
170
     0
171
     0
290
     0
174
     0
 93
        1
 44
0.0
173
     0
291
     1
 45
0.0
1001
ACAD
1000
AcDbSavedByObjectVersion
1070
     0
  0
DICTIONARYVAR
  5
137
102
{ACAD_REACTORS
330
136
102
}
330
136
100
DictionaryVariables
280
     0
  1
1:1
  0
DICTIONARYVAR
  5
13B
102
{ACAD_REACTORS
330
136
102
}
330
136
100
DictionaryVariables
280
     0
  1
80.000000
  0
DICTIONARYVAR
  5
13A
102
{ACAD_REACTORS
330
136
102
}
330
136
100
DictionaryVariables
280
     0
  1
5.000000
  0
ENDSEC
  0
EOF
