  0
SECTION
  2
HEADER
  9
$ACADVER
  1
AC1015
  9
$ACADMAINTVER
 70
     6
  9
$DWGCODEPAGE
  3
ANSI_1252
  9
$INSBASE
 10
0.0
 20
0.0
 30
0.0
  9
$EXTMIN
 10
0.0
 20
0.0
 30
0.0
  9
$EXTMAX
 10
1682.0
 20
2378.0
 30
0.0
  9
$LIMMIN
 10
0.0
 20
0.0
  9
$LIMMAX
 10
1682.0
 20
2378.0
  9
$ORTHOMODE
 70
     0
  9
$REGENMODE
 70
     1
  9
$FILLMODE
 70
     1
  9
$QTEXTMODE
 70
     0
  9
$MIRRTEXT
 70
     1
  9
$LTSCALE
 40
1.0
  9
$ATTMODE
 70
     1
  9
$TEXTSIZE
 40
2.5
  9
$TRACEWID
 40
1.0
  9
$TEXTSTYLE
  7
Standard
  9
$CLAYER
  8
0
  9
$CELTYPE
  6
ByLayer
  9
$CECOLOR
 62
   256
  9
$CELTSCALE
 40
1.0
  9
$DISPSILH
 70
     0
  9
$DIMSCALE
 40
1.0
  9
$DIMASZ
 40
2.5
  9
$DIMEXO
 40
0.625
  9
$DIMDLI
 40
3.75
  9
$DIMRND
 40
0.0
  9
$DIMDLE
 40
0.0
  9
$DIMEXE
 40
1.25
  9
$DIMTP
 40
0.0
  9
$DIMTM
 40
0.0
  9
$DIMTXT
 40
2.5
  9
$DIMCEN
 40
2.5
  9
$DIMTSZ
 40
0.0
  9
$DIMTOL
 70
     0
  9
$DIMLIM
 70
     0
  9
$DIMTIH
 70
     0
  9
$DIMTOH
 70
     0
  9
$DIMSE1
 70
     0
  9
$DIMSE2
 70
     0
  9
$DIMTAD
 70
     1
  9
$DIMZIN
 70
     8
  9
$DIMBLK
  1

  9
$DIMASO
 70
     1
  9
$DIMSHO
 70
     1
  9
$DIMPOST
  1

  9
$DIMAPOST
  1

  9
$DIMALT
 70
     0
  9
$DIMALTD
 70
     3
  9
$DIMALTF
 40
0.0393700787
  9
$DIMLFAC
 40
1.0
  9
$DIMTOFL
 70
     1
  9
$DIMTVP
 40
0.0
  9
$DIMTIX
 70
     0
  9
$DIMSOXD
 70
     0
  9
$DIMSAH
 70
     0
  9
$DIMBLK1
  1

  9
$DIMBLK2
  1

  9
$DIMSTYLE
  2
ISO-25
  9
$DIMCLRD
 70
     0
  9
$DIMCLRE
 70
     0
  9
$DIMCLRT
 70
     0
  9
$DIMTFAC
 40
1.0
  9
$DIMGAP
 40
0.625
  9
$DIMJUST
 70
     0
  9
$DIMSD1
 70
     0
  9
$DIMSD2
 70
     0
  9
$DIMTOLJ
 70
     0
  9
$DIMTZIN
 70
     8
  9
$DIMALTZ
 70
     0
  9
$DIMALTTZ
 70
     0
  9
$DIMUPT
 70
     0
  9
$DIMDEC
 70
     2
  9
$DIMTDEC
 70
     2
  9
$DIMALTU
 70
     2
  9
$DIMALTTD
 70
     3
  9
$DIMTXSTY
  7
Standard
  9
$DIMAUNIT
 70
     0
  9
$DIMADEC
 70
     0
  9
$DIMALTRND
 40
0.0
  9
$DIMAZIN
 70
     0
  9
$DIMDSEP
 70
    44
  9
$DIMATFIT
 70
     3
  9
$DIMFRAC
 70
     0
  9
$DIMLDRBLK
  1

  9
$DIMLUNIT
 70
     2
  9
$DIMLWD
 70
    -2
  9
$DIMLWE
 70
    -2
  9
$DIMTMOVE
 70
     0
  9
$LUNITS
 70
     2
  9
$LUPREC
 70
     4
  9
$SKETCHINC
 40
1.0
  9
$FILLETRAD
 40
10.0
  9
$AUNITS
 70
     0
  9
$AUPREC
 70
     0
  9
$MENU
  1
.
  9
$ELEVATION
 40
0.0
  9
$PELEVATION
 40
0.0
  9
$THICKNESS
 40
0.0
  9
$LIMCHECK
 70
     0
  9
$CHAMFERA
 40
10.0
  9
$CHAMFERB
 40
10.0
  9
$CHAMFERC
 40
20.0
  9
$CHAMFERD
 40
0.0
  9
$SKPOLY
 70
     0
  9
$TDCREATE
 40
2455229.50999838
  9
$TDUCREATE
 40
2455229.468331713
  9
$TDUPDATE
 40
2455229.509998391
  9
$TDUUPDATE
 40
2455229.468331724
  9
$TDINDWG
 40
0.0000000116
  9
$TDUSRTIMER
 40
0.0000000116
  9
$USRTIMER
 70
     1
  9
$ANGBASE
 50
0.0
  9
$ANGDIR
 70
     0
  9
$PDMODE
 70
     0
  9
$PDSIZE
 40
0.0
  9
$PLINEWID
 40
0.0
  9
$SPLFRAME
 70
     0
  9
$SPLINETYPE
 70
     6
  9
$SPLINESEGS
 70
     8
  9
$HANDSEED
  5
14C
  9
$SURFTAB1
 70
     6
  9
$SURFTAB2
 70
     6
  9
$SURFTYPE
 70
     6
  9
$SURFU
 70
     6
  9
$SURFV
 70
     6
  9
$UCSBASE
  2

  9
$UCSNAME
  2

  9
$UCSORG
 10
0.0
 20
0.0
 30
0.0
  9
$UCSXDIR
 10
1.0
 20
0.0
 30
0.0
  9
$UCSYDIR
 10
0.0
 20
1.0
 30
0.0
  9
$UCSORTHOREF
  2

  9
$UCSORTHOVIEW
 70
     0
  9
$UCSORGTOP
 10
0.0
 20
0.0
 30
0.0
  9
$UCSORGBOTTOM
 10
0.0
 20
0.0
 30
0.0
  9
$UCSORGLEFT
 10
0.0
 20
0.0
 30
0.0
  9
$UCSORGRIGHT
 10
0.0
 20
0.0
 30
0.0
  9
$UCSORGFRONT
 10
0.0
 20
0.0
 30
0.0
  9
$UCSORGBACK
 10
0.0
 20
0.0
 30
0.0
  9
$PUCSBASE
  2

  9
$PUCSNAME
  2

  9
$PUCSORG
 10
0.0
 20
0.0
 30
0.0
  9
$PUCSXDIR
 10
1.0
 20
0.0
 30
0.0
  9
$PUCSYDIR
 10
0.0
 20
1.0
 30
0.0
  9
$PUCSORTHOREF
  2

  9
$PUCSORTHOVIEW
 70
     0
  9
$PUCSORGTOP
 10
0.0
 20
0.0
 30
0.0
  9
$PUCSORGBOTTOM
 10
0.0
 20
0.0
 30
0.0
  9
$PUCSORGLEFT
 10
0.0
 20
0.0
 30
0.0
  9
$PUCSORGRIGHT
 10
0.0
 20
0.0
 30
0.0
  9
$PUCSORGFRONT
 10
0.0
 20
0.0
 30
0.0
  9
$PUCSORGBACK
 10
0.0
 20
0.0
 30
0.0
  9
$USERI1
 70
     0
  9
$USERI2
 70
     0
  9
$USERI3
 70
     0
  9
$USERI4
 70
     0
  9
$USERI5
 70
     0
  9
$USERR1
 40
0.0
  9
$USERR2
 40
0.0
  9
$USERR3
 40
0.0
  9
$USERR4
 40
0.0
  9
$USERR5
 40
0.0
  9
$WORLDVIEW
 70
     1
  9
$SHADEDGE
 70
     3
  9
$SHADEDIF
 70
    70
  9
$TILEMODE
 70
     1
  9
$MAXACTVP
 70
    64
  9
$PINSBASE
 10
0.0
 20
0.0
 30
0.0
  9
$PLIMCHECK
 70
     0
  9
$PEXTMIN
 10
0.0
 20
0.0
 30
0.0
  9
$PEXTMAX
 10
1682.0
 20
2378.0
 30
0.0
  9
$PLIMMIN
 10
0.0
 20
0.0
  9
$PLIMMAX
 10
1682.0
 20
2378.0
  9
$UNITMODE
 70
     0
  9
$VISRETAIN
 70
     1
  9
$PLINEGEN
 70
     0
  9
$PSLTSCALE
 70
     1
  9
$TREEDEPTH
 70
  3020
  9
$CMLSTYLE
  2
Standard
  9
$CMLJUST
 70
     0
  9
$CMLSCALE
 40
20.0
  9
$PROXYGRAPHICS
 70
     1
  9
$MEASUREMENT
 70
     1
  9
$CELWEIGHT
370
    -1
  9
$ENDCAPS
280
     0
  9
$JOINSTYLE
280
     0
  9
$LWDISPLAY
290
     0
  9
$INSUNITS
 70
     4
  9
$HYPERLINKBASE
  1

  9
$STYLESHEET
  1

  9
$XEDIT
290
     1
  9
$CEPSNTYPE
380
     0
  9
$PSTYLEMODE
290
     1
  9
$FINGERPRINTGUID
  2
{5931A2F7-863D-4702-B3BC-60D0A28812C8}
  9
$VERSIONGUID
  2
{FAEB1C32-E019-11D5-929B-00C0DF256EC4}
  9
$EXTNAMES
290
     1
  9
$PSVPSCALE
 40
0.0
  9
$OLESTARTUP
290
     0
  0
ENDSEC
  0
SECTION
  2
CLASSES
  0
CLASS
  1
ACDBDICTIONARYWDFLT
  2
AcDbDictionaryWithDefault
  3
ObjectDBX Classes
 90
        0
280
     0
281
     0
  0
CLASS
  1
VISUALSTYLE
  2
AcDbVisualStyle
  3
ObjectDBX Classes
 90
     4095
280
     0
281
     0
  0
CLASS
  1
SCALE
  2
AcDbScale
  3
ObjectDBX Classes
 90
     1153
280
     0
281
     0
  0
CLASS
  1
DICTIONARYVAR
  2
AcDbDictionaryVar
  3
ObjectDBX Classes
 90
        0
280
     0
281
     0
  0
CLASS
  1
ACDBPLACEHOLDER
  2
AcDbPlaceHolder
  3
ObjectDBX Classes
 90
        0
280
     0
281
     0
  0
CLASS
  1
LAYOUT
  2
AcDbLayout
  3
ObjectDBX Classes
 90
        0
280
     0
281
     0
  0
ENDSEC
  0
SECTION
  2
TABLES
  0
TABLE
  2
VPORT
  5
8
330
0
100
AcDbSymbolTable
 70
     1
  0
VPORT
  5
29
330
8
100
AcDbSymbolTableRecord
100
AcDbViewportTableRecord
  2
*Active
 70
     0
 10
0.0
 20
0.0
 11
1.0
 21
1.0
 12
344.1869158879
 22
148.5
 13
0.0
 23
0.0
 14
10.0
 24
10.0
 15
10.0
 25
10.0
 16
0.0
 26
0.0
 36
1.0
 17
0.0
 27
0.0
 37
0.0
 40
297.0
 41
1.9729729729
 42
50.0
 43
0.0
 44
0.0
 50
0.0
 51
0.0
 71
     0
 72
   100
 73
     1
 74
     3
 75
     0
 76
     0
 77
     0
 78
     0
281
     0
 65
     1
110
0.0
120
0.0
130
0.0
111
1.0
121
0.0
131
0.0
112
0.0
122
1.0
132
0.0
 79
     0
146
0.0
  0
ENDTAB
  0
TABLE
  2
LTYPE
  5
5
330
0
100
AcDbSymbolTable
 70
     2
  0
LTYPE
  5
14
330
5
100
AcDbSymbolTableRecord
100
AcDbLinetypeTableRecord
  2
ByBlock
 70
     0
  3

 72
    65
 73
     0
 40
0.0
  0
LTYPE
  5
15
330
5
100
AcDbSymbolTableRecord
100
AcDbLinetypeTableRecord
  2
ByLayer
 70
     0
  3

 72
    65
 73
     0
 40
0.0
  0
LTYPE
  5
16
330
5
100
AcDbSymbolTableRecord
100
AcDbLinetypeTableRecord
  2
Continuous
 70
     0
  3
Solid line
 72
    65
 73
     0
 40
0.0
  0
LTYPE
  5
7F
330
5
100
AcDbSymbolTableRecord
100
AcDbLinetypeTableRecord
  2
CENTER2
 70
     0
  3
Center (.5x) ___ _ ___ _ ___ _ ___ _ ___ _ ___
 72
    65
 73
     4
 40
28.575
 49
19.05
 74
     4
 75
     0
340
0
 46
0.0
 50
0.0
 44
0.0
 45
0.0
 49
-3.175
 74
     4
 75
     0
340
0
 46
0.0
 50
0.0
 44
0.0
 45
0.0
 49
3.175
 74
     4
 75
     0
340
0
 46
0.0
 50
0.0
 44
0.0
 45
0.0
 49
-3.175
 74
     4
 75
     0
340
0
 46
0.0
 50
0.0
 44
0.0
 45
0.0
  0
ENDTAB
  0
TABLE
  2
LAYER
  5
2
330
0
100
AcDbSymbolTable
 70
    15
  0
LAYER
  5
10
330
2
100
AcDbSymbolTableRecord
100
AcDbLayerTableRecord
  2
0
 70
     0
 62
     7
  6
Continuous
370
    -3
390
F
  0
LAYER
  5
5D
330
2
100
AcDbSymbolTableRecord
100
AcDbLayerTableRecord
  2
Default
 70
     0
 62
     7
  6
Continuous
370
    -3
390
F
  0
LAYER
  5
60
330
2
100
AcDbSymbolTableRecord
100
AcDbLayerTableRecord
  2
$DDT_AUDIT_GENERATED_(60)
 70
     0
 62
     7
  6
Continuous
370
    -3
390
F
  0
LAYER
  5
68
330
2
100
AcDbSymbolTableRecord
100
AcDbLayerTableRecord
  2
$DDT_AUDIT_GENERATED_(68)
 70
     0
 62
     7
  6
Continuous
370
    -3
390
F
  0
LAYER
  5
71
330
2
100
AcDbSymbolTableRecord
100
AcDbLayerTableRecord
  2
$DDT_AUDIT_GENERATED_(71)
 70
     0
 62
     7
  6
Continuous
370
    -3
390
F
  0
LAYER
  5
74
330
2
100
AcDbSymbolTableRecord
100
AcDbLayerTableRecord
  2
$DDT_AUDIT_GENERATED_(74)
 70
     0
 62
     7
  6
Continuous
370
    -3
390
F
  0
LAYER
  5
7B
330
2
100
AcDbSymbolTableRecord
100
AcDbLayerTableRecord
  2
DV1_Standard
 70
     0
 62
     7
  6
Continuous
370
    -3
390
F
  0
LAYER
  5
9C
330
2
100
AcDbSymbolTableRecord
100
AcDbLayerTableRecord
  2
$DDT_AUDIT_GENERATED_(9C)
 70
     0
 62
     7
  6
Continuous
370
    -3
390
F
  0
LAYER
  5
9E
330
2
100
AcDbSymbolTableRecord
100
AcDbLayerTableRecord
  2
$DDT_AUDIT_GENERATED_(9E)
 70
     0
 62
     7
  6
Continuous
370
    -3
390
F
  0
LAYER
  5
A5
330
2
100
AcDbSymbolTableRecord
100
AcDbLayerTableRecord
  2
$DDT_AUDIT_GENERATED_(A5)
 70
     0
 62
     7
  6
Continuous
370
    -3
390
F
  0
LAYER
  5
B8
330
2
100
AcDbSymbolTableRecord
100
AcDbLayerTableRecord
  2
$DDT_AUDIT_GENERATED_(B8)
 70
     0
 62
     7
  6
Continuous
370
    -3
390
F
  0
LAYER
  5
D7
330
2
100
AcDbSymbolTableRecord
100
AcDbLayerTableRecord
  2
$DDT_AUDIT_GENERATED_(D7)
 70
     0
 62
     7
  6
Continuous
370
    -3
390
F
  0
LAYER
  5
DE
330
2
100
AcDbSymbolTableRecord
100
AcDbLayerTableRecord
  2
DV2_Standard
 70
     0
 62
     7
  6
Continuous
370
    -3
390
F
  0
LAYER
  5
105
330
2
100
AcDbSymbolTableRecord
100
AcDbLayerTableRecord
  2
$DDT_AUDIT_GENERATED_(105)
 70
     0
 62
     7
  6
Continuous
370
    -3
390
F
  0
LAYER
  5
132
330
2
100
AcDbSymbolTableRecord
100
AcDbLayerTableRecord
  2
DV3_Standard
 70
     0
 62
     7
  6
Continuous
370
    -3
390
F
  0
ENDTAB
  0
TABLE
  2
STYLE
  5
3
330
0
100
AcDbSymbolTable
 70
     2
  0
STYLE
  5
11
330
3
100
AcDbSymbolTableRecord
100
AcDbTextStyleTableRecord
  2
Standard
 70
     0
 40
0.0
 41
1.0
 50
0.0
 71
     0
 42
2.5
  3
txt
  4

  0
STYLE
  5
13B
330
3
100
AcDbSymbolTableRecord
100
AcDbTextStyleTableRecord
  2
SEACAD_seiso_ttf
 70
     0
 40
0.0
 41
1.0
 50
0.0
 71
     0
 42
0.2
  3
seiso.ttf
  4

  0
ENDTAB
  0
TABLE
  2
VIEW
  5
6
330
0
100
AcDbSymbolTable
 70
     0
  0
ENDTAB
  0
TABLE
  2
UCS
  5
7
330
0
100
AcDbSymbolTable
 70
     0
  0
ENDTAB
  0
TABLE
  2
APPID
  5
9
330
0
100
AcDbSymbolTable
 70
     1
  0
APPID
  5
12
330
9
100
AcDbSymbolTableRecord
100
AcDbRegAppTableRecord
  2
ACAD
 70
     0
  0
ENDTAB
  0
TABLE
  2
DIMSTYLE
  5
A
330
0
100
AcDbSymbolTable
 70
     1
100
AcDbDimStyleTable
  0
DIMSTYLE
105
27
330
A
100
AcDbSymbolTableRecord
100
AcDbDimStyleTableRecord
  2
ISO-25
 70
     0
 41
2.5
 42
0.625
 43
3.75
 44
1.25
 73
     0
 74
     0
 77
     1
 78
     8
140
2.5
141
2.5
143
0.0393700787
147
0.625
171
     3
172
     1
271
     2
272
     2
274
     3
278
    44
283
     0
284
     8
340
11
  0
ENDTAB
  0
TABLE
  2
BLOCK_RECORD
  5
1
330
0
100
AcDbSymbolTable
 70
     4
  0
BLOCK_RECORD
  5
1F
330
1
100
AcDbSymbolTableRecord
100
AcDbBlockTableRecord
  2
*Model_Space
340
22
  0
BLOCK_RECORD
  5
1B
330
1
100
AcDbSymbolTableRecord
100
AcDbBlockTableRecord
  2
*Paper_Space
340
1E
  0
BLOCK_RECORD
  5
5E
330
1
100
AcDbSymbolTableRecord
100
AcDbBlockTableRecord
  2
SE
340
0
102
{BLKREFS
331
5F
102
}
  0
BLOCK_RECORD
  5
8E
330
1
100
AcDbSymbolTableRecord
100
AcDbBlockTableRecord
  2
SE1
340
0
102
{BLKREFS
331
8F
102
}
  0
BLOCK_RECORD
  5
ED
330
1
100
AcDbSymbolTableRecord
100
AcDbBlockTableRecord
  2
SE2
340
0
102
{BLKREFS
331
EE
102
}
  0
ENDTAB
  0
ENDSEC
  0
SECTION
  2
BLOCKS
  0
BLOCK
  5
20
330
1F
100
AcDbEntity
  8
0
100
AcDbBlockBegin
  2
*Model_Space
 70
     0
 10
0.0
 20
0.0
 30
0.0
  3
*Model_Space
  1

  0
ENDBLK
  5
21
330
1F
100
AcDbEntity
  8
0
100
AcDbBlockEnd
  0
BLOCK
  5
1C
330
1B
100
AcDbEntity
 67
     1
  8
0
100
AcDbBlockBegin
  2
*Paper_Space
 70
     0
 10
0.0
 20
0.0
 30
0.0
  3
*Paper_Space
  1

  0
ENDBLK
  5
1D
330
1B
100
AcDbEntity
 67
     1
  8
0
100
AcDbBlockEnd
  0
BLOCK
  5
8C
330
5E
100
AcDbEntity
  8
0
100
AcDbBlockBegin
  2
SE
 70
     0
 10
0.0
 20
0.0
 30
0.0
  3
SE
  1

  0
SPLINE
  5
61
330
5E
100
AcDbEntity
  8
$DDT_AUDIT_GENERATED_(60)
  6
Continuous
 62
     7
100
AcDbSpline
210
0.0
220
0.0
230
1.0
 70
     8
 71
     3
 72
    20
 73
    16
 74
     0
 42
0.0000000002129688
 43
0.0000000001
 40
0.0
 40
0.0
 40
0.0
 40
0.0
 40
0.1249999999999998
 40
0.1249999999999998
 40
0.1874999999999998
 40
0.1874999999999998
 40
0.2499999999999997
 40
0.2499999999999997
 40
0.3124999999999997
 40
0.3124999999999997
 40
0.3749999999999997
 40
0.3749999999999997
 40
0.4374999999999997
 40
0.4374999999999997
 40
0.4908802873220986
 40
0.4908802873220986
 40
0.4908802873220986
 40
0.4908802873220986
 10
105.746608633028
 20
516.7542178412064
 30
0.0
 10
105.7984531305264
 20
513.8927576075555
 30
0.0
 10
105.8311706206756
 20
511.0484246222355
 30
0.0
 10
105.7777682506705
 20
507.1123113294855
 30
0.0
 10
105.7403428258551
 20
505.8309899007826
 30
0.0
 10
105.592070897494
 20
503.4680372940095
 30
0.0
 10
105.4815290047694
 20
502.3824355893596
 30
0.0
 10
105.1441568567741
 20
500.4239775802364
 30
0.0
 10
104.9205015972587
 20
499.5823730861406
 30
0.0
 10
104.3442965423576
 20
498.212503451392
 30
0.0
 10
103.9861998599297
 20
497.679090463056
 30
0.0
 10
103.1459474147059
 20
496.959920779089
 30
0.0
 10
102.662196011887
 20
496.7533622252701
 30
0.0
 10
101.6600294015252
 20
496.5674519617534
 30
0.0
 10
101.1636473182855
 20
496.5577355825839
 30
0.0
 10
100.6344545890784
 20
496.6054371511386
 30
0.0
  0
SPLINE
  5
62
330
5E
100
AcDbEntity
  8
$DDT_AUDIT_GENERATED_(60)
  6
Continuous
 62
     7
100
AcDbSpline
210
0.0
220
0.0
230
1.0
 70
     8
 71
     3
 72
    20
 73
    16
 74
     0
 42
0.0000000001883483
 43
0.0000000001
 40
0.4908802873220986
 40
0.4908802873220986
 40
0.4908802873220986
 40
0.4908802873220986
 40
0.4999999999999998
 40
0.4999999999999998
 40
0.6249999999999998
 40
0.6249999999999998
 40
0.6874999999999999
 40
0.6874999999999999
 40
0.7499999999999999
 40
0.7499999999999999
 40
0.8749999999999999
 40
0.8749999999999999
 40
0.9375
 40
0.9375
 40
1.0
 40
1.0
 40
1.0
 40
1.0
 10
100.6344545890784
 20
496.6054371511386
 30
0.0
 10
100.5440450786822
 20
496.6135866876309
 30
0.0
 10
100.4526778996192
 20
496.623412124363
 30
0.0
 10
99.09503689435108
 20
496.7912002784037
 30
0.0
 10
97.61589203743875
 20
497.2645788709808
 30
0.0
 10
95.28696237087286
 20
498.5205113046298
 30
0.0
 10
94.49112912922963
 20
499.030516332151
 30
0.0
 10
92.8813597902878
 20
500.2706789598198
 30
0.0
 10
92.05882002340094
 20
501.0112189497908
 30
0.0
 10
89.70891516564475
 20
503.5463023120406
 30
0.0
 10
88.2494823434426
 20
505.7279181788123
 30
0.0
 10
86.70166495052825
 20
509.4590482863933
 30
0.0
 10
86.28059773404271
 20
510.8049010168832
 30
0.0
 10
85.70363653291568
 20
513.5580590989705
 30
0.0
 10
85.54288294139563
 20
514.9645639331912
 30
0.0
 10
85.51776576958595
 20
516.4016248592914
 30
0.0
  0
SPLINE
  5
63
330
5E
100
AcDbEntity
  8
$DDT_AUDIT_GENERATED_(60)
  6
Continuous
 62
     7
100
AcDbSpline
210
0.0
220
0.0
230
1.0
 70
     8
 71
     3
 72
    20
 73
    16
 74
     0
 42
0.000000000188224
 43
0.0000000001
 40
0.0
 40
0.0
 40
0.0
 40
0.0
 40
0.0625
 40
0.0625
 40
0.1250000000000001
 40
0.1250000000000001
 40
0.1875000000000002
 40
0.1875000000000002
 40
0.2500000000000003
 40
0.2500000000000003
 40
0.3750000000000002
 40
0.3750000000000002
 40
0.5000000000000002
 40
0.5000000000000002
 40
0.5079067337871258
 40
0.5079067337871258
 40
0.5079067337871258
 40
0.5079067337871258
 10
85.51776576958595
 20
516.4016248592914
 30
0.0
 10
85.49282346033581
 20
517.8341510774811
 30
0.0
 10
85.60365185865224
 20
519.2402206012341
 30
0.0
 10
86.08023941635012
 20
522.0003001128916
 30
0.0
 10
86.45165952361883
 20
523.3582033744641
 30
0.0
 10
87.39416851988194
 20
525.8828610819068
 30
0.0
 10
87.97479128714114
 20
527.0801473186148
 30
0.0
 10
89.27820150745289
 20
529.2644105697608
 30
0.0
 10
89.99331738360333
 20
530.2441634874527
 30
0.0
 10
92.25916189832922
 20
532.872784435137
 30
0.0
 10
93.88747768581999
 20
534.1628874363116
 30
0.0
 10
96.96031204895871
 20
535.9594765357616
 30
0.0
 10
98.38382125531798
 20
536.4697866477127
 30
0.0
 10
99.7370252386022
 20
536.6860464151415
 30
0.0
 10
99.81678633740894
 20
536.6976516860123
 30
0.0
 10
99.89579602343464
 20
536.7079465523983
 30
0.0
  0
SPLINE
  5
64
330
5E
100
AcDbEntity
  8
$DDT_AUDIT_GENERATED_(60)
  6
Continuous
 62
     7
100
AcDbSpline
210
0.0
220
0.0
230
1.0
 70
     8
 71
     3
 72
    20
 73
    16
 74
     0
 42
0.0000000002131257
 43
0.0000000001
 40
0.5079067337871258
 40
0.5079067337871258
 40
0.5079067337871258
 40
0.5079067337871258
 40
0.5625000000000001
 40
0.5625000000000001
 40
0.6250000000000001
 40
0.6250000000000001
 40
0.6875
 40
0.6875
 40
0.7499999999999999
 40
0.7499999999999999
 40
0.8124999999999999
 40
0.8124999999999999
 40
0.8749999999999998
 40
0.8749999999999998
 40
1.0
 40
1.0
 40
1.0
 40
1.0
 10
99.89579602343464
 20
536.7079465523983
 30
0.0
 10
100.4413306194798
 20
536.779029049466
 30
0.0
 10
100.9510421703592
 20
536.7876389878738
 30
0.0
 10
101.9609115651897
 20
536.6366710292009
 30
0.0
 10
102.4514090182159
 20
536.4495111022094
 30
0.0
 10
103.3204572359699
 20
535.758741492653
 30
0.0
 10
103.6879499124345
 20
535.2541207460125
 30
0.0
 10
104.3187673671629
 20
533.8976343516653
 30
0.0
 10
104.5732010894148
 20
533.0571915701431
 30
0.0
 10
104.9756064387699
 20
531.1337264636227
 30
0.0
 10
105.1280401267437
 20
530.0307229723054
 30
0.0
 10
105.3585822168462
 20
527.6778727048971
 30
0.0
 10
105.4403090672616
 20
526.4099673967581
 30
0.0
 10
105.6329934450983
 20
522.441522559353
 30
0.0
 10
105.6985836723588
 20
519.6144049334124
 30
0.0
 10
105.746608633028
 20
516.7542178412064
 30
0.0
  0
SPLINE
  5
65
330
5E
100
AcDbEntity
  8
$DDT_AUDIT_GENERATED_(60)
  6
Continuous
 62
     7
100
AcDbSpline
210
0.0
220
0.0
230
1.0
 70
     8
 71
     3
 72
    32
 73
    28
 74
     0
 42
0.0000000001996988
 43
0.0000000001
 40
0.0
 40
0.0
 40
0.0
 40
0.0
 40
0.0625
 40
0.0625
 40
0.125
 40
0.125
 40
0.1875
 40
0.1875
 40
0.2500000000000001
 40
0.2500000000000001
 40
0.3749999999999999
 40
0.3749999999999999
 40
0.4999999999999999
 40
0.4999999999999999
 40
0.5624999999999999
 40
0.5624999999999999
 40
0.6249999999999999
 40
0.6249999999999999
 40
0.6874999999999999
 40
0.6874999999999999
 40
0.7499999999999998
 40
0.7499999999999998
 40
0.8124999999999998
 40
0.8124999999999998
 40
0.8749999999999998
 40
0.8749999999999998
 40
1.0
 40
1.0
 40
1.0
 40
1.0
 10
132.1822269857903
 20
517.2161560596603
 30
0.0
 10
132.2071984577807
 20
515.7836465262315
 30
0.0
 10
132.0963939529628
 20
514.377854282681
 30
0.0
 10
131.6201264484355
 20
511.6187412610141
 30
0.0
 10
131.2487564072249
 20
510.2604497585703
 30
0.0
 10
130.3061107103114
 20
507.735079729224
 30
0.0
 10
129.7254778894142
 20
506.5377343774813
 30
0.0
 10
128.4221045242353
 20
504.353403419916
 30
0.0
 10
127.7070029126241
 20
503.3736182068876
 30
0.0
 10
125.4411927097965
 20
500.7449043236698
 30
0.0
 10
123.8128741492713
 20
499.4547335343795
 30
0.0
 10
120.7400045109512
 20
497.6580250137925
 30
0.0
 10
119.3164759246338
 20
497.1476701578682
 30
0.0
 10
117.4073903051131
 20
496.8425080336294
 30
0.0
 10
116.8173958490273
 20
496.8195288594114
 30
0.0
 10
115.7393041645812
 20
496.9806296335411
 30
0.0
 10
115.2487947799543
 20
497.1677504869166
 30
0.0
 10
114.3797097564874
 20
497.8584339378573
 30
0.0
 10
114.0121993092526
 20
498.3630053184438
 30
0.0
 10
113.3813512371267
 20
499.7193954167408
 30
0.0
 10
113.126897734234
 20
500.5598039898911
 30
0.0
 10
112.7244647456632
 20
502.4831971173369
 30
0.0
 10
112.5720179143328
 20
503.5861706439539
 30
0.0
 10
112.3414566594123
 20
505.9389763427462
 30
0.0
 10
112.2597227402991
 20
507.2068547222369
 30
0.0
 10
112.0670235386111
 20
511.1752708897797
 30
0.0
 10
112.0014298185999
 20
514.0023687514845
 30
0.0
 10
111.9534016692459
 20
516.8625578166494
 30
0.0
  0
SPLINE
  5
66
330
5E
100
AcDbEntity
  8
$DDT_AUDIT_GENERATED_(60)
  6
Continuous
 62
     7
100
AcDbSpline
210
0.0
220
0.0
230
1.0
 70
     8
 71
     3
 72
    20
 73
    16
 74
     0
 42
0.0000000002129666
 43
0.0000000001
 40
0.0
 40
0.0
 40
0.0
 40
0.0
 40
0.1250000000000002
 40
0.1250000000000002
 40
0.1875000000000005
 40
0.1875000000000005
 40
0.2500000000000007
 40
0.2500000000000007
 40
0.3125000000000008
 40
0.3125000000000008
 40
0.3750000000000011
 40
0.3750000000000011
 40
0.437500000000001
 40
0.437500000000001
 40
0.4908877252226106
 40
0.4908877252226106
 40
0.4908877252226106
 40
0.4908877252226106
 10
111.9534016692459
 20
516.8625578166494
 30
0.0
 10
111.9015538884317
 20
519.7240250056211
 30
0.0
 10
111.8688319581914
 20
522.5683848806412
 30
0.0
 10
111.9222197694002
 20
526.5045446078832
 30
0.0
 10
111.9596372456243
 20
527.7858832801693
 30
0.0
 10
112.1078907604114
 20
530.148892532169
 30
0.0
 10
112.2184204571092
 20
531.2345225803723
 30
0.0
 10
112.5557635940236
 20
533.1930407615768
 30
0.0
 10
112.7794050457653
 20
534.0346938948366
 30
0.0
 10
113.35557890602
 20
535.4046432019042
 30
0.0
 10
113.7136581221804
 20
535.9381025834966
 30
0.0
 10
114.5538830667305
 20
536.6573512321271
 30
0.0
 10
115.0376184808154
 20
536.8639406262813
 30
0.0
 10
116.0398292242096
 20
537.0499120889748
 30
0.0
 10
116.5362779725166
 20
537.0596364127392
 30
0.0
 10
117.065545596361
 20
537.0119283730987
 30
0.0
  0
SPLINE
  5
67
330
5E
100
AcDbEntity
  8
$DDT_AUDIT_GENERATED_(60)
  6
Continuous
 62
     7
100
AcDbSpline
210
0.0
220
0.0
230
1.0
 70
     8
 71
     3
 72
    20
 73
    16
 74
     0
 42
0.0000000001883484
 43
0.0000000001
 40
0.4908877252226106
 40
0.4908877252226106
 40
0.4908877252226106
 40
0.4908877252226106
 40
0.5000000000000009
 40
0.5000000000000009
 40
0.6250000000000004
 40
0.6250000000000004
 40
0.6875000000000002
 40
0.6875000000000002
 40
0.75
 40
0.75
 40
0.875
 40
0.875
 40
0.9375
 40
0.9375
 40
1.0
 40
1.0
 40
1.0
 40
1.0
 10
117.065545596361
 20
537.0119283730987
 30
0.0
 10
117.1558815677689
 20
537.0037855132094
 30
0.0
 10
117.247173619716
 20
536.99396953186
 30
0.0
 10
118.6047185255872
 20
536.8262308041326
 30
0.0
 10
120.0838483492616
 20
536.35288968966
 30
0.0
 10
122.4127702381278
 20
535.0970173993359
 30
0.0
 10
123.2086023838516
 20
534.5870331327975
 30
0.0
 10
124.8183715465579
 20
533.3469171074341
 30
0.0
 10
125.6409152769669
 20
532.6064011336595
 30
0.0
 10
127.9908475413151
 20
530.0713821967223
 30
0.0
 10
129.4503131930743
 20
527.8898073523585
 30
0.0
 10
130.9981962599726
 20
524.1587187234716
 30
0.0
 10
131.4192876444329
 20
522.812881360675
 30
0.0
 10
131.9963029803335
 20
520.0597257927927
 30
0.0
 10
132.1570803463814
 20
518.6532124568163
 30
0.0
 10
132.1822269857903
 20
517.2161560596603
 30
0.0
  0
SPLINE
  5
69
330
5E
100
AcDbEntity
  8
$DDT_AUDIT_GENERATED_(68)
  6
Continuous
 62
     7
100
AcDbSpline
210
0.0
220
0.0
230
1.0
 70
     8
 71
     3
 72
    20
 73
    16
 74
     0
 42
0.0000000002129688
 43
0.0000000001
 40
0.0
 40
0.0
 40
0.0
 40
0.0
 40
0.1250000000000001
 40
0.1250000000000001
 40
0.1875000000000001
 40
0.1875000000000001
 40
0.25
 40
0.25
 40
0.3124999999999999
 40
0.3124999999999999
 40
0.3749999999999999
 40
0.3749999999999999
 40
0.4374999999999998
 40
0.4374999999999998
 40
0.4908802873220941
 40
0.4908802873220941
 40
0.4908802873220941
 40
0.4908802873220941
 10
105.746130747697
 20
431.8083877839757
 30
0.0
 10
105.7480279820256
 20
428.9464585533364
 30
0.0
 10
105.7311000338398
 20
426.1019877747713
 30
0.0
 10
105.609011148306
 20
422.1674059710068
 30
0.0
 10
105.5492292812135
 20
420.8869328574885
 30
0.0
 10
105.3597407260997
 20
418.5269278417998
 30
0.0
 10
105.2302693072624
 20
417.4434207015879
 30
0.0
 10
104.8587687375137
 20
415.4911489309529
 30
0.0
 10
104.6204595180873
 20
414.6535759397889
 30
0.0
 10
104.0204347003752
 20
413.2939711076302
 30
0.0
 10
103.6530832175352
 20
412.7668890095214
 30
0.0
 10
102.8004075052066
 20
412.0624932857646
 30
0.0
 10
102.3131248362351
 20
411.8644088179105
 30
0.0
 10
101.3078662792225
 20
411.6960170884295
 30
0.0
 10
100.8113902231801
 20
411.6949652509765
 30
0.0
 10
100.283110599751
 20
411.7518952409449
 30
0.0
  0
SPLINE
  5
6A
330
5E
100
AcDbEntity
  8
$DDT_AUDIT_GENERATED_(68)
  6
Continuous
 62
     7
100
AcDbSpline
210
0.0
220
0.0
230
1.0
 70
     8
 71
     3
 72
    20
 73
    16
 74
     0
 42
0.0000000001883483
 43
0.0000000001
 40
0.4908802873220941
 40
0.4908802873220941
 40
0.4908802873220941
 40
0.4908802873220941
 40
0.4999999999999998
 40
0.4999999999999998
 40
0.6249999999999997
 40
0.6249999999999997
 40
0.6874999999999997
 40
0.6874999999999997
 40
0.7499999999999998
 40
0.7499999999999998
 40
0.8749999999999999
 40
0.8749999999999999
 40
0.9374999999999999
 40
0.9374999999999999
 40
1.0
 40
1.0
 40
1.0
 40
1.0
 10
100.283110599751
 20
411.7518952409449
 30
0.0
 10
100.1928570881842
 20
411.7616213997445
 30
0.0
 10
100.1016753023004
 20
411.773039917159
 30
0.0
 10
98.74716937939287
 20
411.964496618871
 30
0.0
 10
97.27651139900303
 20
412.4636177508181
 30
0.0
 10
94.9698554829956
 20
413.7600043269791
 30
0.0
 10
94.18304426563506
 20
414.2838208834537
 30
0.0
 10
92.59516392458706
 20
415.5518889771209
 30
0.0
 10
91.78567363937879
 20
416.3066714775871
 30
0.0
 10
89.48036998870481
 20
418.8823802290284
 30
0.0
 10
88.05923389198735
 20
421.0891344399177
 30
0.0
 10
86.57676943826684
 20
424.846709416543
 30
0.0
 10
86.17925472121509
 20
426.1997058033427
 30
0.0
 10
85.65043062790824
 20
428.9625139274995
 30
0.0
 10
85.5142484139616
 20
430.371610081237
 30
0.0
 10
85.51421523897629
 20
431.8088904910883
 30
0.0
  0
SPLINE
  5
6B
330
5E
100
AcDbEntity
  8
$DDT_AUDIT_GENERATED_(68)
  6
Continuous
 62
     7
100
AcDbSpline
210
0.0
220
0.0
230
1.0
 70
     8
 71
     3
 72
    20
 73
    16
 74
     0
 42
0.000000000188224
 43
0.0000000001
 40
0.0
 40
0.0
 40
0.0
 40
0.0
 40
0.0625
 40
0.0625
 40
0.1250000000000001
 40
0.1250000000000001
 40
0.1875000000000001
 40
0.1875000000000001
 40
0.2500000000000002
 40
0.2500000000000002
 40
0.3750000000000004
 40
0.3750000000000004
 40
0.5000000000000007
 40
0.5000000000000007
 40
0.5079067337871274
 40
0.5079067337871274
 40
0.5079067337871274
 40
0.5079067337871274
 10
85.51421523897629
 20
431.8088904910883
 30
0.0
 10
85.51427775835256
 20
433.241633831915
 30
0.0
 10
85.64962857377473
 20
434.6455549822169
 30
0.0
 10
86.17431357431583
 20
437.3968965206362
 30
0.0
 10
86.56937579212665
 20
438.7481107922937
 30
0.0
 10
87.55580259212982
 20
441.2559349320655
 30
0.0
 10
88.15723245375406
 20
442.4429055517596
 30
0.0
 10
89.49856480840108
 20
444.6040884841134
 30
0.0
 10
90.23067081506753
 20
445.57121168777
 30
0.0
 10
92.54204599184752
 20
448.1598878443573
 30
0.0
 10
94.19262918087935
 20
449.4213763276645
 30
0.0
 10
97.29635033962536
 20
451.1640634436727
 30
0.0
 10
98.72854887812046
 20
451.6494521716855
 30
0.0
 10
100.0853210152408
 20
451.8420623357954
 30
0.0
 10
100.1652725059499
 20
451.8522738160129
 30
0.0
 10
100.2444498286102
 20
451.8611882052879
 30
0.0
  0
SPLINE
  5
6C
330
5E
100
AcDbEntity
  8
$DDT_AUDIT_GENERATED_(68)
  6
Continuous
 62
     7
100
AcDbSpline
210
0.0
220
0.0
230
1.0
 70
     8
 71
     3
 72
    20
 73
    16
 74
     0
 42
0.0000000002131257
 43
0.0000000001
 40
0.5079067337871274
 40
0.5079067337871274
 40
0.5079067337871274
 40
0.5079067337871274
 40
0.5625000000000006
 40
0.5625000000000006
 40
0.6250000000000006
 40
0.6250000000000006
 40
0.6875000000000004
 40
0.6875000000000004
 40
0.7500000000000003
 40
0.7500000000000003
 40
0.8125000000000002
 40
0.8125000000000002
 40
0.8750000000000001
 40
0.8750000000000001
 40
1.0
 40
1.0
 40
1.0
 40
1.0
 10
100.2444498286102
 20
451.8611882052879
 30
0.0
 10
100.7911418977234
 20
451.9227389846512
 30
0.0
 10
101.3009260812092
 20
451.9224519185721
 30
0.0
 10
102.3080069138657
 20
451.7538823019233
 30
0.0
 10
102.7951632706394
 20
451.5581905193886
 30
0.0
 10
103.65202353616
 20
450.8523591346796
 30
0.0
 10
104.0106533953429
 20
450.3414016126706
 30
0.0
 10
104.6177008216367
 20
448.9741125351638
 30
0.0
 10
104.8574280433899
 20
448.1293572764159
 30
0.0
 10
105.2262030096544
 20
446.1991621812383
 30
0.0
 10
105.3593634160069
 20
445.0936663480181
 30
0.0
 10
105.5488074942795
 20
442.7371509168445
 30
0.0
 10
105.6083938985381
 20
441.4680123866148
 30
0.0
 10
105.7317900173844
 20
437.4968091565038
 30
0.0
 10
105.7480302490818
 20
434.6689774069667
 30
0.0
 10
105.746130747697
 20
431.8083877839757
 30
0.0
  0
SPLINE
  5
6D
330
5E
100
AcDbEntity
  8
$DDT_AUDIT_GENERATED_(68)
  6
Continuous
 62
     7
100
AcDbSpline
210
0.0
220
0.0
230
1.0
 70
     8
 71
     3
 72
    20
 73
    16
 74
     0
 42
0.0000000001880616
 43
0.0000000001
 40
0.0
 40
0.0
 40
0.0
 40
0.0
 40
0.0625000000000002
 40
0.0625000000000002
 40
0.1250000000000003
 40
0.1250000000000003
 40
0.1875000000000004
 40
0.1875000000000004
 40
0.2500000000000006
 40
0.2500000000000006
 40
0.3750000000000009
 40
0.3750000000000009
 40
0.5000000000000012
 40
0.5000000000000012
 40
0.5068954097247819
 40
0.5068954097247819
 40
0.5068954097247819
 40
0.5068954097247819
 10
132.1857847612777
 20
431.8088904910883
 30
0.0
 10
132.1857516913893
 20
430.3761633235214
 30
0.0
 10
132.0504296050333
 20
428.9725189941919
 30
0.0
 10
131.5260814764933
 20
426.2221382128642
 30
0.0
 10
131.1310625413778
 20
424.870534885693
 30
0.0
 10
130.1444866298131
 20
422.362000918263
 30
0.0
 10
129.5430456843825
 20
421.174971367998
 30
0.0
 10
128.2017489976151
 20
419.0137200963262
 30
0.0
 10
127.469656689684
 20
418.0465643533013
 30
0.0
 10
125.1583141976278
 20
415.4577946765098
 30
0.0
 10
123.5077270529181
 20
414.1962384638075
 30
0.0
 10
120.4039685401771
 20
412.4534325604874
 30
0.0
 10
118.9717498437856
 20
411.9679994335431
 30
0.0
 10
117.6252766169778
 20
411.776805600293
 30
0.0
 10
117.5554648597272
 20
411.7677585481136
 30
0.0
 10
117.4862408574476
 20
411.7596931131989
 30
0.0
  0
SPLINE
  5
6E
330
5E
100
AcDbEntity
  8
$DDT_AUDIT_GENERATED_(68)
  6
Continuous
 62
     7
100
AcDbSpline
210
0.0
220
0.0
230
1.0
 70
     8
 71
     3
 72
    20
 73
    16
 74
     0
 42
0.0000000002132815
 43
0.0000000001
 40
0.5068954097247819
 40
0.5068954097247819
 40
0.5068954097247819
 40
0.5068954097247819
 40
0.5625000000000016
 40
0.5625000000000016
 40
0.6250000000000018
 40
0.6250000000000018
 40
0.6875000000000014
 40
0.6875000000000014
 40
0.7500000000000012
 40
0.7500000000000012
 40
0.8125000000000009
 40
0.8125000000000009
 40
0.8750000000000007
 40
0.8750000000000007
 40
1.0
 40
1.0
 40
1.0
 40
1.0
 10
117.4862408574476
 20
411.7596931131989
 30
0.0
 10
116.9280184402746
 20
411.6946534387308
 30
0.0
 10
116.4080166183823
 20
411.6934464803451
 30
0.0
 10
115.3922076451964
 20
411.8634146057494
 30
0.0
 10
114.9050386767106
 20
412.0590675288544
 30
0.0
 10
114.0481401074076
 20
412.7648134104182
 30
0.0
 10
113.6894916186045
 20
413.2757218840346
 30
0.0
 10
113.0824118989787
 20
414.6429152145046
 30
0.0
 10
112.8426643025789
 20
415.4876366153106
 30
0.0
 10
112.4738604451004
 20
417.4177602247473
 30
0.0
 10
112.3406863744369
 20
418.5232263272142
 30
0.0
 10
112.1512223564355
 20
420.879697531032
 30
0.0
 10
112.0916284145861
 20
422.1488092600806
 30
0.0
 10
111.968216973788
 20
426.1199840834076
 30
0.0
 10
111.9519729049385
 20
428.9477961326761
 30
0.0
 10
111.953869252557
 20
431.8083877839757
 30
0.0
  0
SPLINE
  5
6F
330
5E
100
AcDbEntity
  8
$DDT_AUDIT_GENERATED_(68)
  6
Continuous
 62
     7
100
AcDbSpline
210
0.0
220
0.0
230
1.0
 70
     8
 71
     3
 72
    20
 73
    16
 74
     0
 42
0.0000000002129666
 43
0.0000000001
 40
0.0
 40
0.0
 40
0.0
 40
0.0
 40
0.1249999999999991
 40
0.1249999999999991
 40
0.1874999999999988
 40
0.1874999999999988
 40
0.2499999999999985
 40
0.2499999999999985
 40
0.3124999999999982
 40
0.3124999999999982
 40
0.3749999999999979
 40
0.3749999999999979
 40
0.4374999999999982
 40
0.4374999999999982
 40
0.4908877252225992
 40
0.4908877252225992
 40
0.4908877252225992
 40
0.4908877252225992
 10
111.953869252557
 20
431.8083877839757
 30
0.0
 10
111.9519688567999
 20
434.6703240261783
 30
0.0
 10
111.968892834861
 20
437.5148217678385
 30
0.0
 10
112.0909679742092
 20
441.4494502531087
 30
0.0
 10
112.150742194863
 20
442.7299407463059
 30
0.0
 10
112.3402133278026
 20
445.0900027199552
 30
0.0
 10
112.4696730471341
 20
446.1735384122537
 30
0.0
 10
112.841145660368
 20
448.1258708521186
 30
0.0
 10
113.0794419229942
 20
448.9634927160175
 30
0.0
 10
113.6794369412846
 20
450.3231777527824
 30
0.0
 10
114.0467717701913
 20
450.85030654191
 30
0.0
 10
114.8994213641581
 20
451.5547816982565
 30
0.0
 10
115.3866885850687
 20
451.7528972807906
 30
0.0
 10
116.3919923364651
 20
451.9213494299
 30
0.0
 10
116.8885351860737
 20
451.922408047272
 30
0.0
 10
117.4168895797971
 20
451.8654702801117
 30
0.0
  0
SPLINE
  5
70
330
5E
100
AcDbEntity
  8
$DDT_AUDIT_GENERATED_(68)
  6
Continuous
 62
     7
100
AcDbSpline
210
0.0
220
0.0
230
1.0
 70
     8
 71
     3
 72
    20
 73
    16
 74
     0
 42
0.0000000001883484
 43
0.0000000001
 40
0.4908877252225992
 40
0.4908877252225992
 40
0.4908877252225992
 40
0.4908877252225992
 40
0.4999999999999984
 40
0.4999999999999984
 40
0.624999999999999
 40
0.624999999999999
 40
0.6874999999999991
 40
0.6874999999999991
 40
0.7499999999999991
 40
0.7499999999999991
 40
0.8749999999999996
 40
0.8749999999999996
 40
0.9374999999999998
 40
0.9374999999999998
 40
1.0
 40
1.0
 40
1.0
 40
1.0
 10
117.4168895797971
 20
451.8654702801117
 30
0.0
 10
117.5070696800989
 20
451.8557520803305
 30
0.0
 10
117.5981765153282
 20
451.8443443280073
 30
0.0
 10
118.9525872160834
 20
451.6529387222465
 30
0.0
 10
120.423230819608
 20
451.1538553250621
 30
0.0
 10
122.7298800087461
 20
449.8575290188056
 30
0.0
 10
123.5166904926831
 20
449.3337332392782
 30
0.0
 10
125.1045714708448
 20
448.0657117438943
 30
0.0
 10
125.914066138112
 20
447.3109531867936
 30
0.0
 10
128.2193983155805
 20
444.7353083725418
 30
0.0
 10
129.6405679527946
 20
442.5285946048577
 30
0.0
 10
131.1230987943997
 20
438.7710599544399
 30
0.0
 10
131.5206379439485
 20
437.4180785112036
 30
0.0
 10
132.0495162076629
 20
434.6552719560868
 30
0.0
 10
132.1857220441402
 20
433.2461668869659
 30
0.0
 10
132.1857847612777
 20
431.8088904910883
 30
0.0
  0
CIRCLE
  5
72
330
5E
100
AcDbEntity
  8
$DDT_AUDIT_GENERATED_(71)
  6
Continuous
 62
     7
100
AcDbCircle
 10
108.8500000001
 20
431.8086829301
 30
0.0
 40
26.79999999999999
  0
CIRCLE
  5
73
330
5E
100
AcDbEntity
  8
$DDT_AUDIT_GENERATED_(71)
  6
Continuous
 62
     7
100
AcDbCircle
 10
108.8500000001
 20
516.8086829301
 30
0.0
 40
26.79999999999999
  0
ARC
  5
75
330
5E
100
AcDbEntity
  8
$DDT_AUDIT_GENERATED_(74)
  6
Continuous
 62
     7
100
AcDbCircle
 10
108.8501292424
 20
476.3086222843
 30
0.0
 40
102.5001292424121
100
AcDbArc
 50
90.0000722441
 51
179.9999661
  0
ARC
  5
76
330
5E
100
AcDbEntity
  8
$DDT_AUDIT_GENERATED_(74)
  6
Continuous
 62
     7
100
AcDbCircle
 10
108.850129649
 20
476.3087437667
 30
0.0
 40
102.5001296490154
100
AcDbArc
 50
180.0000340066
 51
269.9999275286
  0
SPLINE
  5
77
330
5E
100
AcDbEntity
  8
$DDT_AUDIT_GENERATED_(74)
  6
Continuous
 62
     7
100
AcDbSpline
210
0.0
220
0.0
230
1.0
 70
     8
 71
     3
 72
    32
 73
    28
 74
     0
 42
0.0000000000620096
 43
0.0000000001
 40
0.0
 40
0.0
 40
0.0
 40
0.0
 40
0.000000047260315
 40
0.000000047260315
 40
0.000000047260315
 40
0.125000041352777
 40
0.125000041352777
 40
0.125000041352777
 40
0.2500000354452391
 40
0.2500000354452391
 40
0.2500000354452391
 40
0.3750000295376951
 40
0.3750000295376951
 40
0.3750000295376951
 40
0.5000000236301572
 40
0.5000000236301572
 40
0.5000000236301572
 40
0.6250000177226196
 40
0.6250000177226196
 40
0.6250000177226196
 40
0.7500000118150816
 40
0.7500000118150816
 40
0.7500000118150816
 40
0.8750000059075376
 40
0.8750000059075376
 40
0.8750000059075376
 40
1.0
 40
1.0
 40
1.0
 40
1.0
 10
108.850000000133
 20
373.8086141177787
 30
0.0
 10
108.850002536665
 20
373.80854530545
 30
0.0
 10
108.8500050730653
 20
373.808545305455
 30
0.0
 10
108.8500076094656
 20
373.8085453054601
 30
0.0
 10
115.558596463346
 20
373.8085586850441
 30
0.0
 10
122.267153807265
 20
374.4690417563601
 30
0.0
 10
128.846779077172
 20
375.7780387142331
 30
0.0
 10
135.426404347079
 20
377.0870356721061
 30
0.0
 10
141.877297924613
 20
379.0433175446881
 30
0.0
 10
148.075108328032
 20
381.6108328251061
 30
0.0
 10
154.272918731451
 20
384.1783481055241
 30
0.0
 10
160.21823037239
 20
387.3555842821641
 30
0.0
 10
165.796078065379
 20
391.0828477021461
 30
0.0
 10
171.373925758368
 20
394.8101111221271
 30
0.0
 10
176.584959335416
 20
399.0864106434831
 30
0.0
 10
181.328628964908
 20
403.8300659122062
 30
0.0
 10
186.072298594401
 20
408.5737211809291
 30
0.0
 10
190.348604281213
 20
413.7847321921501
 30
0.0
 10
194.075861369438
 20
419.3625792264681
 30
0.0
 10
197.803118457663
 20
424.9404262607871
 30
0.0
 10
200.980334651006
 20
430.8857621995721
 30
0.0
 10
203.54783781033
 20
437.0835841875391
 30
0.0
 10
206.115340969653
 20
443.2814061755062
 30
0.0
 10
208.07161920371
 20
449.7322947699531
 30
0.0
 10
209.380634418944
 20
456.3119157691941
 30
0.0
 10
210.689649634177
 20
462.8915367684342
 30
0.0
 10
211.350178402591
 20
469.6000922264001
 30
0.0
 10
211.3500905869226
 20
476.3086777212699
 30
0.0
  0
ARC
  5
78
330
5E
100
AcDbEntity
  8
$DDT_AUDIT_GENERATED_(74)
  6
Continuous
 62
     7
100
AcDbCircle
 10
108.8497906698
 20
476.3084516094
 30
0.0
 40
102.5002999174196
100
AcDbArc
 50
0.0001263924
 51
89.9998829881
  0
CIRCLE
  5
79
330
5E
100
AcDbEntity
  8
$DDT_AUDIT_GENERATED_(74)
  6
Continuous
 62
     7
100
AcDbCircle
 10
108.8500000001
 20
516.8086829301
 30
0.0
 40
31.35
  0
CIRCLE
  5
7A
330
5E
100
AcDbEntity
  8
$DDT_AUDIT_GENERATED_(74)
  6
Continuous
 62
     7
100
AcDbCircle
 10
108.8500000001
 20
431.8086829301
 30
0.0
 40
31.35
  0
LINE
  5
7C
330
5E
100
AcDbEntity
  8
DV1_Standard
  6
Continuous
 62
     7
100
AcDbLine
 10
100.6933035029
 20
496.6003589698
 30
0.0
 11
101.2397030412
 21
496.5769237225
 31
0.0
  0
LINE
  5
7D
330
5E
100
AcDbEntity
  8
DV1_Standard
  6
Continuous
 62
     7
100
AcDbLine
 10
116.9651047584
 20
496.8515035609
 30
0.0
 11
117.2318449307
 21
496.8578378565
 31
0.0
  0
LINE
  5
7E
330
5E
100
AcDbEntity
  8
DV1_Standard
  6
Continuous
 62
     7
100
AcDbLine
 10
117.2318449307
 20
496.8578378565
 30
0.0
 11
118.287435343
 21
496.9866077845
 31
0.0
  0
LINE
  5
80
330
5E
100
AcDbEntity
  8
DV1_Standard
  6
CENTER2
 62
     7
100
AcDbLine
 10
128.8499995531
 20
516.8086829301
 30
0.0
 11
88.8500004472
 21
516.8086829301
 31
0.0
  0
LINE
  5
81
330
5E
100
AcDbEntity
  8
DV1_Standard
  6
CENTER2
 62
     7
100
AcDbLine
 10
108.8500000001
 20
536.8086824831
 30
0.0
 11
108.8500000001
 21
496.8086833771
 31
0.0
  0
LINE
  5
82
330
5E
100
AcDbEntity
  8
DV1_Standard
  6
CENTER2
 62
     7
100
AcDbLine
 10
133.8499994413
 20
516.8086829301
 30
0.0
 11
143.7000000001
 21
516.8086829301
 31
0.0
  0
LINE
  5
83
330
5E
100
AcDbEntity
  8
DV1_Standard
  6
CENTER2
 62
     7
100
AcDbLine
 10
108.8500000001
 20
541.8086823713
 30
0.0
 11
108.8500000001
 21
551.6586829301
 31
0.0
  0
LINE
  5
84
330
5E
100
AcDbEntity
  8
DV1_Standard
  6
CENTER2
 62
     7
100
AcDbLine
 10
83.8500005589
 20
516.8086829301
 30
0.0
 11
74.0000000001
 21
516.8086829301
 31
0.0
  0
LINE
  5
85
330
5E
100
AcDbEntity
  8
DV1_Standard
  6
CENTER2
 62
     7
100
AcDbLine
 10
108.8500000001
 20
491.8086834889
 30
0.0
 11
108.8500000001
 21
481.9586829301
 31
0.0
  0
LINE
  5
86
330
5E
100
AcDbEntity
  8
DV1_Standard
  6
CENTER2
 62
     7
100
AcDbLine
 10
128.8499995531
 20
431.8086829301
 30
0.0
 11
88.8500004472
 21
431.8086829301
 31
0.0
  0
LINE
  5
87
330
5E
100
AcDbEntity
  8
DV1_Standard
  6
CENTER2
 62
     7
100
AcDbLine
 10
108.8500000001
 20
451.8086824831
 30
0.0
 11
108.8500000001
 21
411.8086833771
 31
0.0
  0
LINE
  5
88
330
5E
100
AcDbEntity
  8
DV1_Standard
  6
CENTER2
 62
     7
100
AcDbLine
 10
133.8499994413
 20
431.8086829301
 30
0.0
 11
143.7000000001
 21
431.8086829301
 31
0.0
  0
LINE
  5
89
330
5E
100
AcDbEntity
  8
DV1_Standard
  6
CENTER2
 62
     7
100
AcDbLine
 10
108.8500000001
 20
456.8086823713
 30
0.0
 11
108.8500000001
 21
466.6586829301
 31
0.0
  0
LINE
  5
8A
330
5E
100
AcDbEntity
  8
DV1_Standard
  6
CENTER2
 62
     7
100
AcDbLine
 10
83.8500005589
 20
431.8086829301
 30
0.0
 11
74.0000000001
 21
431.8086829301
 31
0.0
  0
LINE
  5
8B
330
5E
100
AcDbEntity
  8
DV1_Standard
  6
CENTER2
 62
     7
100
AcDbLine
 10
108.8500000001
 20
406.8086834889
 30
0.0
 11
108.8500000001
 21
396.9586829301
 31
0.0
  0
ENDBLK
  5
8D
330
5E
100
AcDbEntity
  8
0
100
AcDbBlockEnd
  0
BLOCK
  5
EB
330
8E
100
AcDbEntity
  8
0
100
AcDbBlockBegin
  2
SE1
 70
     0
 10
0.0
 20
0.0
 30
0.0
  3
SE1
  1

  0
SPLINE
  5
90
330
8E
100
AcDbEntity
  8
$DDT_AUDIT_GENERATED_(60)
  6
Continuous
 62
     7
100
AcDbSpline
210
0.0
220
0.0
230
1.0
 70
     8
 71
     3
 72
    32
 73
    28
 74
     0
 42
0.0000000001866084
 43
0.0000000001
 40
0.0
 40
0.0
 40
0.0
 40
0.0
 40
0.1250000000000004
 40
0.1250000000000004
 40
0.1875000000000006
 40
0.1875000000000006
 40
0.2500000000000008
 40
0.2500000000000008
 40
0.312500000000001
 40
0.312500000000001
 40
0.3750000000000012
 40
0.3750000000000012
 40
0.4375000000000014
 40
0.4375000000000014
 40
0.5000000000000016
 40
0.5000000000000016
 40
0.6250000000000016
 40
0.6250000000000016
 40
0.6875000000000014
 40
0.6875000000000014
 40
0.7500000000000012
 40
0.7500000000000012
 40
0.8750000000000007
 40
0.8750000000000007
 40
0.9375000000000003
 40
0.9375000000000003
 40
1.0
 40
1.0
 40
1.0
 40
1.0
 10
458.4704773656758
 20
516.7191915590349
 30
0.0
 10
458.4687362724113
 20
519.1051879700045
 30
0.0
 10
458.0646195823254
 20
521.4378450455681
 30
0.0
 10
456.810128405084
 20
524.7751703173967
 30
0.0
 10
456.2913689089086
 20
525.8315892924003
 30
0.0
 10
455.0411669589736
 20
527.8237809877522
 30
0.0
 10
454.2985569582692
 20
528.7644495271736
 30
0.0
 10
452.6456276974463
 20
530.4104309232285
 30
0.0
 10
451.7144879621196
 20
531.1351227440686
 30
0.0
 10
449.7197724277536
 20
532.2951970732419
 30
0.0
 10
448.6710237357025
 20
532.7240523219401
 30
0.0
 10
446.4848556369994
 20
533.3013599422801
 30
0.0
 10
445.3778571765212
 20
533.4435921668313
 30
0.0
 10
443.1993626603298
 20
533.5523217735531
 30
0.0
 10
442.1154063094056
 20
533.5162080557329
 30
0.0
 10
438.9153337953886
 20
533.2077742948132
 30
0.0
 10
436.9035921826622
 20
532.7517890750439
 30
0.0
 10
434.0724014670167
 20
531.6098016552779
 30
0.0
 10
433.1557471382449
 20
531.1447363611048
 30
0.0
 10
431.4492137208717
 20
530.0571511480279
 30
0.0
 10
430.6531123483286
 20
529.4313282340671
 30
0.0
 10
428.4477427555752
 20
527.2569153452046
 30
0.0
 10
427.2751466476512
 20
525.4129300594208
 30
0.0
 10
426.09816548433
 20
522.2446149617273
 30
0.0
 10
425.8025068317176
 20
521.1402282033896
 30
0.0
 10
425.4029355952027
 20
518.8291281210192
 30
0.0
 10
425.2995821059277
 20
517.6311174394748
 30
0.0
 10
425.2987414171257
 20
516.4331334666103
 30
0.0
  0
SPLINE
  5
91
330
8E
100
AcDbEntity
  8
$DDT_AUDIT_GENERATED_(60)
  6
Continuous
 62
     7
100
AcDbSpline
210
0.0
220
0.0
230
1.0
 70
     8
 71
     3
 72
    32
 73
    28
 74
     0
 42
0.0000000001872288
 43
0.0000000001
 40
0.0
 40
0.0
 40
0.0
 40
0.0
 40
0.0625000000000001
 40
0.0625000000000001
 40
0.1250000000000002
 40
0.1250000000000002
 40
0.1875000000000003
 40
0.1875000000000003
 40
0.2500000000000003
 40
0.2500000000000003
 40
0.3750000000000006
 40
0.3750000000000006
 40
0.5000000000000009
 40
0.5000000000000009
 40
0.562500000000001
 40
0.562500000000001
 40
0.6250000000000011
 40
0.6250000000000011
 40
0.6875000000000009
 40
0.6875000000000009
 40
0.7500000000000007
 40
0.7500000000000007
 40
0.8125000000000004
 40
0.8125000000000004
 40
0.8750000000000002
 40
0.8750000000000002
 40
1.0
 40
1.0
 40
1.0
 40
1.0
 10
425.2987414171257
 20
516.4331334666103
 30
0.0
 10
425.2995763677998
 20
515.2372200988715
 30
0.0
 10
425.4003190002031
 20
514.0652683966648
 30
0.0
 10
425.7968179346217
 20
511.7675761818417
 30
0.0
 10
426.0982434806381
 20
510.6509013859495
 30
0.0
 10
426.8796091741046
 20
508.5726083888225
 30
0.0
 10
427.3720871978761
 20
507.5876502224087
 30
0.0
 10
428.5167185674017
 20
505.8132956540208
 30
0.0
 10
429.1731708139596
 20
505.0233299200044
 30
0.0
 10
431.3864139382629
 20
502.9013427104792
 30
0.0
 10
433.095051967239
 20
501.8885862229741
 30
0.0
 10
436.8992863196983
 20
500.4345026262288
 30
0.0
 10
438.9115108582464
 20
500.0207493625097
 30
0.0
 10
442.0867228730106
 20
499.765797184633
 30
0.0
 10
443.178663730315
 20
499.7447601836676
 30
0.0
 10
445.3623308735144
 20
499.8831168234183
 30
0.0
 10
446.4589751533697
 20
500.0368065118636
 30
0.0
 10
448.6507046709203
 20
500.6373510000338
 30
0.0
 10
449.7031092981475
 20
501.0773319783097
 30
0.0
 10
451.6939129070648
 20
502.2494830900253
 30
0.0
 10
452.6274751086842
 20
502.9806601054474
 30
0.0
 10
454.2826159796704
 20
504.6354131735122
 30
0.0
 10
455.0250626589317
 20
505.5771397952673
 30
0.0
 10
456.279450297955
 20
507.5756564431932
 30
0.0
 10
456.8042214959274
 20
508.6442620820836
 30
0.0
 10
458.0597172273955
 20
511.9803942044732
 30
0.0
 10
458.4687511773705
 20
514.3359984467688
 30
0.0
 10
458.4704773656758
 20
516.7191915590349
 30
0.0
  0
LINE
  5
92
330
8E
100
AcDbEntity
  8
$DDT_AUDIT_GENERATED_(60)
  6
Continuous
 62
     7
100
AcDbLine
 10
384.6841455425
 20
493.1194202532
 30
0.0
 11
384.6841455425
 21
540.5169613907
 31
0.0
  0
ARC
  5
93
330
8E
100
AcDbEntity
  8
$DDT_AUDIT_GENERATED_(60)
  6
Continuous
 62
     7
100
AcDbCircle
 10
384.9809581011
 20
493.1225112464
 30
0.0
 40
0.2968286528825012
100
AcDbArc
 50
180.5966542021
 51
271.1206675738
  0
SPLINE
  5
94
330
8E
100
AcDbEntity
  8
$DDT_AUDIT_GENERATED_(60)
  6
Continuous
 62
     7
100
AcDbSpline
210
0.0
220
0.0
230
1.0
 70
     8
 71
     3
 72
    17
 73
    13
 74
     0
 42
0.0000000027716896
 43
0.0000000001
 40
0.0
 40
0.0
 40
0.0
 40
0.0
 40
0.1113197268491622
 40
0.1113197268491622
 40
0.1113197268491622
 40
0.2229656338691642
 40
0.2229656338691642
 40
0.2229656338691642
 40
0.3352815270988266
 40
0.3352815270988266
 40
0.3352815270988266
 40
0.4103158892910634
 40
0.4103158892910634
 40
0.4103158892910634
 40
0.4103158892910634
 10
386.1858742847739
 20
492.835552995526
 30
0.0
 10
386.3624828510667
 20
492.8369860343391
 30
0.0
 10
386.5411162847122
 20
492.8370271185433
 30
0.0
 10
386.7075298212324
 20
492.8359847918637
 30
0.0
 10
386.8743476072829
 20
492.834939933178
 30
0.0
 10
387.0334313119075
 20
492.8327996491195
 30
0.0
 10
387.1710806150735
 20
492.8305366588042
 30
0.0
 10
387.3094323539677
 20
492.8282621202631
 30
0.0
 10
387.4300646317042
 20
492.8258428728481
 30
0.0
 10
387.5212465742653
 20
492.8244791568964
 30
0.0
 10
387.5821987985912
 20
492.823567556219
 30
0.0
 10
387.6312011694957
 20
492.8231302371026
 30
0.0
 10
387.6661478992187
 20
492.8233831006831
 30
0.0
  0
ELLIPSE
  5
95
330
8E
100
AcDbEntity
  8
$DDT_AUDIT_GENERATED_(60)
  6
Continuous
 62
     7
100
AcDbEllipse
 10
384.9850181961
 20
493.0255208066
 30
0.0
 11
0.0
 21
0.1999999999685787
 31
0.0
210
0.0
220
0.0
230
1.0
 40
1.0
 41
3.149789366523188
 42
3.150328513806059
  0
ELLIPSE
  5
96
330
8E
100
AcDbEntity
  8
$DDT_AUDIT_GENERATED_(60)
  6
Continuous
 62
     7
100
AcDbEllipse
 10
386.1841455425
 20
493.0353398198
 30
0.0
 11
0.0
 21
0.199999898452343
 31
0.0
210
0.0
220
0.0
230
1.0
 40
1.0
 41
3.149722920929437
 42
3.150245371864004
  0
ARC
  5
97
330
8E
100
AcDbEntity
  8
$DDT_AUDIT_GENERATED_(60)
  6
Continuous
 62
     7
100
AcDbCircle
 10
384.9841455425
 20
540.5169613907
 30
0.0
 40
0.2999999999999947
100
AcDbArc
 50
89.5
 51
180.0
  0
SPLINE
  5
98
330
8E
100
AcDbEntity
  8
$DDT_AUDIT_GENERATED_(60)
  6
Continuous
 62
     7
100
AcDbSpline
210
0.0
220
0.0
230
1.0
 70
     8
 71
     3
 72
     8
 73
     4
 74
     0
 42
0.0000000083392198
 43
0.0000000001
 40
0.0
 40
0.0
 40
0.0
 40
0.0
 40
1.0
 40
1.0
 40
1.0
 40
1.0
 10
384.9866571991548
 20
492.8255295551405
 30
0.0
 10
385.5462469623023
 20
492.8301915638221
 30
0.0
 10
385.9459515368117
 20
492.8334222552899
 30
0.0
 10
386.1857709226829
 20
492.8352216295438
 30
0.0
  0
SPLINE
  5
99
330
8E
100
AcDbEntity
  8
$DDT_AUDIT_GENERATED_(60)
  6
Continuous
 62
     7
100
AcDbSpline
210
0.0
220
0.0
230
1.0
 70
     8
 71
     3
 72
    22
 73
    18
 74
     0
 42
0.0000000002306116
 43
0.0000000001
 40
0.0
 40
0.0
 40
0.0
 40
0.0
 40
0.0098521350137743
 40
0.1170412997818635
 40
0.2174480752702009
 40
0.3097427627809007
 40
0.3887820905540302
 40
0.4607099479700772
 40
0.5276379038476272
 40
0.5920360901067553
 40
0.6551648097350057
 40
0.7176481903856288
 40
0.7799765891234405
 40
0.8425220697352463
 40
0.9055618043303381
 40
0.9693060831789241
 40
1.0
 40
1.0
 40
1.0
 40
1.0
 10
426.4584514626389
 20
493.7052041827354
 30
0.0
 10
426.614628919178
 20
493.713085185383
 30
0.0
 10
428.210725601899
 20
493.7939066011359
 30
0.0
 10
431.448285585441
 20
494.0230425036589
 30
0.0
 10
435.7211582267497
 20
494.3938542613213
 30
0.0
 10
439.625653589648
 20
494.8471204422773
 30
0.0
 10
443.0951715455184
 20
495.3743267465564
 30
0.0
 10
446.1700824791876
 20
496.0487241152838
 30
0.0
 10
448.9606942564714
 20
496.9761629444391
 30
0.0
 10
451.4782053804072
 20
498.2382545699534
 30
0.0
 10
453.7345422637234
 20
499.8117284873722
 30
0.0
 10
455.7264846808444
 20
501.6653587844048
 30
0.0
 10
457.4407046978579
 20
503.7642299434871
 30
0.0
 10
458.8734010749533
 20
506.082153124986
 30
0.0
 10
459.9873797816324
 20
508.5611702661548
 30
0.0
 10
460.7143912312937
 20
510.7865405135804
 30
0.0
 10
460.92396870401
 20
512.0453624547321
 30
0.0
 10
461.0016827937339
 20
512.5263076205277
 30
0.0
  0
SPLINE
  5
9A
330
8E
100
AcDbEntity
  8
$DDT_AUDIT_GENERATED_(60)
  6
Continuous
 62
     7
100
AcDbSpline
210
0.0
220
0.0
230
1.0
 70
     8
 71
     3
 72
    11
 73
     7
 74
     0
 42
0.000000000556545
 43
0.0000000001
 40
0.0
 40
0.0
 40
0.0
 40
0.0
 40
0.1736860917157839
 40
0.5294180606633141
 40
0.8957367185597742
 40
1.0
 40
1.0
 40
1.0
 40
1.0
 10
387.64809973334
 20
492.8225450777733
 30
0.0
 10
388.7923473454059
 20
492.8320161682443
 30
0.0
 10
391.7626581459746
 20
492.8568539469363
 30
0.0
 10
397.2202980595992
 20
492.9037770441119
 30
0.0
 10
402.2761736883106
 20
492.9561788324147
 30
0.0
 10
404.9281045943535
 20
493.00591993835
 30
0.0
 10
405.6148952896167
 20
493.0188400178837
 30
0.0
  0
SPLINE
  5
9B
330
8E
100
AcDbEntity
  8
$DDT_AUDIT_GENERATED_(60)
  6
Continuous
 62
     7
100
AcDbSpline
210
0.0
220
0.0
230
1.0
 70
     8
 71
     3
 72
    28
 73
    24
 74
     0
 42
0.0000000001178568
 43
0.0000000001
 40
0.0
 40
0.0
 40
0.0
 40
0.0
 40
0.0156733631363587
 40
0.0482233708816454
 40
0.0804136142477222
 40
0.1123514746348919
 40
0.1441784855967095
 40
0.1760846356209415
 40
0.2083203177867172
 40
0.2412042330082868
 40
0.2753799350719207
 40
0.3121087577723149
 40
0.3524689403278148
 40
0.4025936485244002
 40
0.4573321885402798
 40
0.5158725522117623
 40
0.577384406331595
 40
0.6410261815283144
 40
0.70594909830421
 40
0.7829488584476205
 40
0.8591395998123356
 40
0.9331146940162223
 40
1.0
 40
1.0
 40
1.0
 40
1.0
 10
461.0016827937339
 20
521.0910582396584
 30
0.0
 10
460.92396870401
 20
521.5720034054541
 30
0.0
 10
460.7143912302594
 20
522.8308253468001
 30
0.0
 10
459.9873797894875
 20
525.0561955925554
 30
0.0
 10
458.8734010468572
 20
527.5352127404797
 30
0.0
 10
457.4407048014829
 20
529.8531358972275
 30
0.0
 10
455.7264842951434
 20
531.9520071482566
 30
0.0
 10
453.7345437136506
 20
533.8056371003651
 30
0.0
 10
451.4781998607922
 20
535.3791123273971
 30
0.0
 10
448.9607156604871
 20
536.6411988938213
 30
0.0
 10
446.1699965147734
 20
537.5686578980619
 30
0.0
 10
443.0955332895293
 20
538.2429711400524
 30
0.0
 10
439.5403258536705
 20
538.7832706044028
 30
0.0
 10
435.4626988758852
 20
539.2509522494411
 30
0.0
 10
430.8615336820897
 20
539.6438300999126
 30
0.0
 10
425.9320832385654
 20
539.9587473680755
 30
0.0
 10
420.7470877514567
 20
540.204692442151
 30
0.0
 10
415.3785687654288
 20
540.3915773775298
 30
0.0
 10
409.5736918092841
 20
540.5375066946133
 30
0.0
 10
403.4016744543192
 20
540.643523535114
 30
0.0
 10
397.0187241749857
 20
540.7172092313899
 30
0.0
 10
390.7601575070468
 20
540.7684948878561
 30
0.0
 10
387.0662097984085
 20
540.7998852832695
 30
0.0
 10
384.9872492288069
 20
540.8170564932182
 30
0.0
  0
SPLINE
  5
9D
330
8E
100
AcDbEntity
  8
$DDT_AUDIT_GENERATED_(9C)
  6
Continuous
 62
     7
100
AcDbSpline
210
0.0
220
0.0
230
1.0
 70
     8
 71
     3
 72
    11
 73
     7
 74
     0
 42
0.0000000005242864
 43
0.0000000001
 40
0.0
 40
0.0
 40
0.0
 40
0.0
 40
0.2407994476853425
 40
0.5892042037685042
 40
0.8557313651404839
 40
1.0
 40
1.0
 40
1.0
 40
1.0
 10
406.5095840146648
 20
493.0315781551557
 30
0.0
 10
408.1933698649399
 20
493.0601648519052
 30
0.0
 10
411.6881946069583
 20
493.1217529268447
 30
0.0
 10
417.2128159370809
 20
493.2805836479523
 30
0.0
 10
422.1243664619484
 20
493.4667136687349
 30
0.0
 10
424.5638224844322
 20
493.6024026462161
 30
0.0
 10
425.5711833911509
 20
493.6588510698776
 30
0.0
  0
LINE
  5
9F
330
8E
100
AcDbEntity
  8
$DDT_AUDIT_GENERATED_(9E)
  6
Continuous
 62
     7
100
AcDbLine
 10
383.9841455425
 20
407.5586829301
 30
0.0
 11
383.9841455425
 21
456.0586829301
 31
0.0
  0
ARC
  5
A0
330
8E
100
AcDbEntity
  8
$DDT_AUDIT_GENERATED_(9E)
  6
Continuous
 62
     7
100
AcDbCircle
 10
381.9841455425
 20
456.0586829301
 30
0.0
 40
2.000000000000002
100
AcDbArc
 50
0.0
 51
90.0
  0
ARC
  5
A1
330
8E
100
AcDbEntity
  8
$DDT_AUDIT_GENERATED_(9E)
  6
Continuous
 62
     7
100
AcDbCircle
 10
381.9841455425
 20
407.5586829301
 30
0.0
 40
2.000000000000002
100
AcDbArc
 50
270.0
 51
0.0
  0
LINE
  5
A2
330
8E
100
AcDbEntity
  8
$DDT_AUDIT_GENERATED_(9E)
  6
Continuous
 62
     7
100
AcDbLine
 10
383.9341455425
 20
492.5586829301
 30
0.0
 11
383.9341455425
 21
541.0586829301
 31
0.0
  0
ARC
  5
A3
330
8E
100
AcDbEntity
  8
$DDT_AUDIT_GENERATED_(9E)
  6
Continuous
 62
     7
100
AcDbCircle
 10
381.9341455425
 20
541.0586829301
 30
0.0
 40
2.000000000000002
100
AcDbArc
 50
0.0
 51
90.0
  0
ARC
  5
A4
330
8E
100
AcDbEntity
  8
$DDT_AUDIT_GENERATED_(9E)
  6
Continuous
 62
     7
100
AcDbCircle
 10
381.9341455425
 20
492.5586829301
 30
0.0
 40
2.000000000000002
100
AcDbArc
 50
270.0
 51
0.0
  0
SPLINE
  5
A6
330
8E
100
AcDbEntity
  8
$DDT_AUDIT_GENERATED_(A5)
  6
Continuous
 62
     7
100
AcDbSpline
210
0.0
220
0.0
230
1.0
 70
     8
 71
     3
 72
     8
 73
     4
 74
     0
 42
0.000000002667305
 43
0.0000000001
 40
0.0
 40
0.0
 40
0.0
 40
0.0
 40
1.0
 40
1.0
 40
1.0
 40
1.0
 10
461.0842051830287
 20
513.0943862543278
 30
0.0
 10
461.2265168462962
 20
513.445303762429
 30
0.0
 10
461.3431628490449
 20
514.683275058324
 30
0.0
 10
461.4341431912746
 20
516.8083001420129
 30
0.0
  0
SPLINE
  5
A7
330
8E
100
AcDbEntity
  8
$DDT_AUDIT_GENERATED_(A5)
  6
Continuous
 62
     7
100
AcDbSpline
210
0.0
220
0.0
230
1.0
 70
     8
 71
     3
 72
     8
 73
     4
 74
     0
 42
0.0000000025857236
 43
0.0000000001
 40
0.0
 40
0.0
 40
0.0
 40
0.0
 40
1.0
 40
1.0
 40
1.0
 40
1.0
 10
461.4341431912744
 20
516.8090657181734
 30
0.0
 10
461.3495301576614
 20
518.9350186857024
 30
0.0
 10
461.2244653992069
 20
520.2112180990919
 30
0.0
 10
461.0589489159111
 20
520.6376639583419
 30
0.0
  0
LINE
  5
A8
330
8E
100
AcDbEntity
  8
$DDT_AUDIT_GENERATED_(A5)
  6
Continuous
 62
     7
100
AcDbLine
 10
461.4341431913
 20
516.808300142
 30
0.0
 11
461.4341431913
 21
516.8090657182
 31
0.0
  0
SPLINE
  5
A9
330
8E
100
AcDbEntity
  8
$DDT_AUDIT_GENERATED_(68)
  6
Continuous
 62
     7
100
AcDbSpline
210
0.0
220
0.0
230
1.0
 70
     8
 71
     3
 72
    32
 73
    28
 74
     0
 42
0.0000000001868937
 43
0.0000000001
 40
0.0
 40
0.0
 40
0.0
 40
0.0
 40
0.1250000000000001
 40
0.1250000000000001
 40
0.1874999999999999
 40
0.1874999999999999
 40
0.2499999999999998
 40
0.2499999999999998
 40
0.3124999999999996
 40
0.3124999999999996
 40
0.3749999999999995
 40
0.3749999999999995
 40
0.4374999999999997
 40
0.4374999999999997
 40
0.4999999999999999
 40
0.4999999999999999
 40
0.6249999999999997
 40
0.6249999999999997
 40
0.6874999999999998
 40
0.6874999999999998
 40
0.7499999999999998
 40
0.7499999999999998
 40
0.8749999999999999
 40
0.8749999999999999
 40
0.9375
 40
0.9375
 40
1.0
 40
1.0
 40
1.0
 40
1.0
 10
458.5204773656758
 20
431.8087359156158
 30
0.0
 10
458.5187362724113
 20
434.1951013827315
 30
0.0
 10
458.1146195823253
 20
436.5286097629849
 30
0.0
 10
456.860128405084
 20
439.8690038054897
 30
0.0
 10
456.3413689089086
 20
440.9267471438735
 30
0.0
 10
455.0911669589737
 20
442.9226240460768
 30
0.0
 10
454.3485569582691
 20
443.8657016386455
 30
0.0
 10
452.6956276974462
 20
445.5179214494974
 30
0.0
 10
451.7644879621195
 20
446.2465262599999
 30
0.0
 10
449.7697724277535
 20
447.4161847472246
 30
0.0
 10
448.7210237357024
 20
447.8506326712636
 30
0.0
 10
446.5348556369993
 20
448.4409853989094
 30
0.0
 10
445.4278571765211
 20
448.590497771218
 30
0.0
 10
443.2493626603297
 20
448.7148617601563
 30
0.0
 10
442.1654063094054
 20
448.6871893375396
 30
0.0
 10
438.9653337953884
 20
448.4057072461675
 30
0.0
 10
436.9535921826619
 20
447.9694025800329
 30
0.0
 10
434.1224014670165
 20
446.8589627454451
 30
0.0
 10
433.2057471382445
 20
446.4048196533969
 30
0.0
 10
431.4992137208715
 20
445.3387647619688
 30
0.0
 10
430.7031123483284
 20
444.7236164802214
 30
0.0
 10
428.4977427555748
 20
442.5803366102506
 30
0.0
 10
427.325146647651
 20
440.7553365864529
 30
0.0
 10
426.14816548433
 20
437.6067673539714
 30
0.0
 10
425.8525068317178
 20
436.5074795635703
 30
0.0
 10
425.4529355952029
 20
434.2031897821644
 30
0.0
 10
425.3495821059278
 20
433.0068692248607
 30
0.0
 10
425.3487414171258
 20
431.8087162918949
 30
0.0
  0
SPLINE
  5
AA
330
8E
100
AcDbEntity
  8
$DDT_AUDIT_GENERATED_(68)
  6
Continuous
 62
     7
100
AcDbSpline
210
0.0
220
0.0
230
1.0
 70
     8
 71
     3
 72
    32
 73
    28
 74
     0
 42
0.0000000001869177
 43
0.0000000001
 40
0.0
 40
0.0
 40
0.0
 40
0.0
 40
0.0625000000000001
 40
0.0625000000000001
 40
0.1250000000000002
 40
0.1250000000000002
 40
0.1875000000000002
 40
0.1875000000000002
 40
0.2500000000000003
 40
0.2500000000000003
 40
0.3750000000000006
 40
0.3750000000000006
 40
0.5000000000000008
 40
0.5000000000000008
 40
0.5625000000000009
 40
0.5625000000000009
 40
0.625000000000001
 40
0.625000000000001
 40
0.6875000000000008
 40
0.6875000000000008
 40
0.7500000000000004
 40
0.7500000000000004
 40
0.8125000000000003
 40
0.8125000000000003
 40
0.8750000000000002
 40
0.8750000000000002
 40
1.0
 40
1.0
 40
1.0
 40
1.0
 10
425.3487414171258
 20
431.8087162918949
 30
0.0
 10
425.3495763677998
 20
430.6126073258336
 30
0.0
 10
425.4503190002033
 20
429.4386521954098
 30
0.0
 10
425.8468179346216
 20
427.1335009125439
 30
0.0
 10
426.1482434806377
 20
426.0112869681976
 30
0.0
 10
426.9296091741046
 20
423.919247092867
 30
0.0
 10
427.422087197876
 20
422.9258755239109
 30
0.0
 10
428.5667185674018
 20
421.1330742387581
 30
0.0
 10
429.2231708139597
 20
420.3330183820092
 30
0.0
 10
431.4364139382632
 20
418.1791201477687
 30
0.0
 10
433.1450519672389
 20
417.1441894912659
 30
0.0
 10
436.9492863196983
 20
415.6472227103382
 30
0.0
 10
438.9615108582465
 20
415.2136768605333
 30
0.0
 10
442.1367228730105
 20
414.9318706541308
 30
0.0
 10
443.228663730315
 20
414.9023062254683
 30
0.0
 10
445.4123308735145
 20
415.0250141566412
 30
0.0
 10
446.5089751533698
 20
415.1715280402549
 30
0.0
 10
448.7007046709203
 20
415.7591544727483
 30
0.0
 10
449.7531092981475
 20
416.1936501226124
 30
0.0
 10
451.7439129070649
 20
417.3565764426511
 30
0.0
 10
452.6774751086842
 20
418.0840438871735
 30
0.0
 10
454.3326159796704
 20
419.7330417988896
 30
0.0
 10
455.0750626589318
 20
420.6726414604947
 30
0.0
 10
456.3294502979551
 20
422.6680618952798
 30
0.0
 10
456.8542214959274
 20
423.7356514980362
 30
0.0
 10
458.1097172273954
 20
427.0697261903717
 30
0.0
 10
458.5187511773705
 20
429.4251853516052
 30
0.0
 10
458.5204773656758
 20
431.8087359156158
 30
0.0
  0
LINE
  5
AB
330
8E
100
AcDbEntity
  8
$DDT_AUDIT_GENERATED_(68)
  6
Continuous
 62
     7
100
AcDbLine
 10
384.7341455425
 20
408.1395970154
 30
0.0
 11
384.7341455425
 21
455.5169613907
 31
0.0
  0
ARC
  5
AC
330
8E
100
AcDbEntity
  8
$DDT_AUDIT_GENERATED_(68)
  6
Continuous
 62
     7
100
AcDbCircle
 10
385.0296636705
 20
408.144098896
 30
0.0
 40
0.2955524165325651
100
AcDbArc
 50
180.8727681442
 51
271.3765056774
  0
ARC
  5
AD
330
8E
100
AcDbEntity
  8
$DDT_AUDIT_GENERATED_(68)
  6
Continuous
 62
     7
100
AcDbCircle
 10
386.4380595046
 20
382.2020056815
 30
0.0
 40
25.65698606826069
100
AcDbArc
 50
87.8930315247
 51
90.4515136596
  0
SPLINE
  5
AE
330
8E
100
AcDbEntity
  8
$DDT_AUDIT_GENERATED_(68)
  6
Continuous
 62
     7
100
AcDbSpline
210
0.0
220
0.0
230
1.0
 70
    12
 71
     2
 72
     6
 73
     3
 74
     0
 42
0.0000009814816702
 43
0.0000000001
 40
0.9018518329842105
 40
0.9018518329842105
 40
0.9018518329842105
 40
1.0
 40
1.0
 40
1.0
 10
385.0366159906481
 20
407.8482288932849
 30
0.0
 41
0.9905595663258148
 10
385.036691436106
 20
407.8482284299513
 30
0.0
 41
0.9947660838904396
 10
385.0367635031748
 20
407.8486317687074
 30
0.0
 41
1.0
  0
SPLINE
  5
AF
330
8E
100
AcDbEntity
  8
$DDT_AUDIT_GENERATED_(68)
  6
Continuous
 62
     7
100
AcDbSpline
210
0.0
220
0.0
230
1.0
 70
    12
 71
     2
 72
     6
 73
     3
 74
     0
 42
0.0000002852693434
 43
0.0000000001
 40
0.0964730656604556
 40
0.0964730656604556
 40
0.0964730656604556
 40
0.125
 40
0.125
 40
0.125
 10
386.2357302332957
 20
407.8577996019932
 30
0.0
 41
0.9908976746276874
 10
386.2357083511591
 20
407.8577976053045
 30
0.0
 41
0.9896955962003899
 10
386.2356862049504
 20
407.8578294024485
 30
0.0
 41
0.9885784975091356
  0
ARC
  5
B0
330
8E
100
AcDbEntity
  8
$DDT_AUDIT_GENERATED_(68)
  6
Continuous
 62
     7
100
AcDbCircle
 10
385.0341455425
 20
455.5169613907
 30
0.0
 40
0.2999999999999982
100
AcDbArc
 50
89.5
 51
180.0
  0
SPLINE
  5
B1
330
8E
100
AcDbEntity
  8
$DDT_AUDIT_GENERATED_(68)
  6
Continuous
 62
     7
100
AcDbSpline
210
0.0
220
0.0
230
1.0
 70
     8
 71
     3
 72
     8
 73
     4
 74
     0
 42
0.0000000083392355
 43
0.0000000001
 40
0.0
 40
0.0
 40
0.0
 40
0.0
 40
1.0
 40
1.0
 40
1.0
 40
1.0
 10
385.0366160263828
 20
407.8482304054312
 30
0.0
 10
385.5962055839205
 20
407.8527761419002
 30
0.0
 10
385.9959100586861
 20
407.8559248239788
 30
0.0
 10
386.23572945068
 20
407.8576764516671
 30
0.0
  0
ARC
  5
B2
330
8E
100
AcDbEntity
  8
$DDT_AUDIT_GENERATED_(68)
  6
Continuous
 62
     7
100
AcDbCircle
 10
386.7345522337
 20
388.5482623488
 30
0.0
 40
19.30355530796529
100
AcDbArc
 50
86.9327591722
 51
88.129168373
  0
SPLINE
  5
B3
330
8E
100
AcDbEntity
  8
$DDT_AUDIT_GENERATED_(68)
  6
Continuous
 62
     7
100
AcDbSpline
210
0.0
220
0.0
230
1.0
 70
     8
 71
     3
 72
    28
 73
    24
 74
     0
 42
0.0000000001217608
 43
0.0000000001
 40
0.0
 40
0.0
 40
0.0
 40
0.0
 40
0.037294837832129
 40
0.1151929589215017
 40
0.1954093512084815
 40
0.2764101810797399
 40
0.356665924905661
 40
0.4182094484948484
 40
0.4776193402321174
 40
0.5341683958180349
 40
0.5871393126133779
 40
0.6358305905575578
 40
0.6775288288952345
 40
0.7154753173858965
 40
0.750784041969766
 40
0.7847581532736337
 40
0.8180625407371371
 40
0.8510264711236911
 40
0.8839086387609848
 40
0.9169053307999352
 40
0.950162773037237
 40
0.9837919068745226
 40
1.0
 40
1.0
 40
1.0
 40
1.0
 10
387.7587274263464
 20
407.8230517500919
 30
0.0
 10
388.8807448597659
 20
407.8323400173273
 30
0.0
 10
391.8276470009549
 20
407.8572126805362
 30
0.0
 10
397.309777951584
 20
407.9023081468389
 30
0.0
 10
403.8034570156734
 20
407.9785655757098
 30
0.0
 10
410.419560641105
 20
408.0951406874831
 30
0.0
 10
416.5081497386131
 20
408.2570472552564
 30
0.0
 10
422.008251430935
 20
408.4649325359858
 30
0.0
 10
426.8569690228045
 20
408.7095770650789
 30
0.0
 10
431.4673984706964
 20
409.0171809564155
 30
0.0
 10
435.7785242316852
 20
409.3952521318028
 30
0.0
 10
439.674047280765
 20
409.8468156078628
 30
0.0
 10
443.1455341451673
 20
410.3743955582728
 30
0.0
 10
446.2199963104146
 20
411.0487077627146
 30
0.0
 10
449.0107157148568
 20
411.9761670168147
 30
0.0
 10
451.5281998343678
 20
413.2382535169349
 30
0.0
 10
453.7845437657577
 20
414.8117287743426
 30
0.0
 10
455.7764841146766
 20
416.6653586698631
 30
0.0
 10
457.4907054712349
 20
418.7642301167202
 30
0.0
 10
458.9233985298048
 20
421.0821525424838
 30
0.0
 10
460.0373893094654
 20
423.5611724506242
 30
0.0
 10
460.7644954025779
 20
425.7869388933846
 30
0.0
 10
460.9741241800655
 20
427.0461326516648
 30
0.0
 10
461.0519047930248
 20
427.5275276588294
 30
0.0
  0
SPLINE
  5
B4
330
8E
100
AcDbEntity
  8
$DDT_AUDIT_GENERATED_(68)
  6
Continuous
 62
     7
100
AcDbSpline
210
0.0
220
0.0
230
1.0
 70
     8
 71
     3
 72
    28
 73
    24
 74
     0
 42
0.0000000001178551
 43
0.0000000001
 40
0.0
 40
0.0
 40
0.0
 40
0.0
 40
0.0156877671433158
 40
0.0482373099418741
 40
0.0804270935001235
 40
0.112364497684523
 40
0.1441910540269518
 40
0.1760967483013664
 40
0.2083319700102637
 40
0.2412154155155457
 40
0.2753906294109126
 40
0.312118927474075
 40
0.3524785335217291
 40
0.4026025257332591
 40
0.457340283859767
 40
0.5158798113363462
 40
0.5773907868162853
 40
0.6410316529491601
 40
0.70595364236129
 40
0.7829523026344068
 40
0.8591419556849124
 40
0.9331159932230584
 40
1.0
 40
1.0
 40
1.0
 40
1.0
 10
461.0519047930248
 20
436.0898382013568
 30
0.0
 10
460.9741241800655
 20
436.5712332085214
 30
0.0
 10
460.7644954025805
 20
437.8304269667991
 30
0.0
 10
460.0373893094468
 20
440.0561934095803
 30
0.0
 10
458.923398529871
 20
442.5352133176373
 30
0.0
 10
457.4907054709901
 20
444.8531357437059
 30
0.0
 10
455.7764841155886
 20
446.9520071894297
 30
0.0
 10
453.7845437623295
 20
448.8056370892028
 30
0.0
 10
451.528199847418
 20
450.3791123304638
 30
0.0
 10
449.0107156642496
 20
451.6411988929587
 30
0.0
 10
446.2199965136674
 20
452.5686578983156
 30
0.0
 10
443.1455332898658
 20
453.2429711399752
 30
0.0
 10
439.5903258535524
 20
453.78327060443
 30
0.0
 10
435.5126988759199
 20
454.2509522494324
 30
0.0
 10
430.911533682093
 20
454.6438300999153
 30
0.0
 10
425.9820832385082
 20
454.9587473680751
 30
0.0
 10
420.7970877516982
 20
455.2046924421496
 30
0.0
 10
415.4285687644821
 20
455.3915773775358
 30
0.0
 10
409.6236918131779
 20
455.5375066945881
 30
0.0
 10
403.4516744368406
 20
455.6435235352274
 30
0.0
 10
397.068724238303
 20
455.7172092309791
 30
0.0
 10
390.8101672014309
 20
455.7684948080415
 30
0.0
 10
387.1162282571968
 20
455.7998851272669
 30
0.0
 10
385.037278374284
 20
455.8170562495202
 30
0.0
  0
SPLINE
  5
B5
330
8E
100
AcDbEntity
  8
$DDT_AUDIT_GENERATED_(A5)
  6
Continuous
 62
     7
100
AcDbSpline
210
0.0
220
0.0
230
1.0
 70
     8
 71
     3
 72
     8
 73
     4
 74
     0
 42
0.0000000026680519
 43
0.0000000001
 40
0.0
 40
0.0
 40
0.0
 40
0.0
 40
1.0
 40
1.0
 40
1.0
 40
1.0
 10
461.1344292113156
 20
428.0954035281368
 30
0.0
 10
461.2765321613629
 20
428.4456515041573
 30
0.0
 10
461.3931034880158
 20
429.6832837087826
 30
0.0
 10
461.4841431912744
 20
431.8083001420128
 30
0.0
  0
SPLINE
  5
B6
330
8E
100
AcDbEntity
  8
$DDT_AUDIT_GENERATED_(A5)
  6
Continuous
 62
     7
100
AcDbSpline
210
0.0
220
0.0
230
1.0
 70
     8
 71
     3
 72
     8
 73
     4
 74
     0
 42
0.0000000025856461
 43
0.0000000001
 40
0.0
 40
0.0
 40
0.0
 40
0.0
 40
1.0
 40
1.0
 40
1.0
 40
1.0
 10
461.4841431912744
 20
431.8090657181734
 30
0.0
 10
461.3995361161847
 20
433.9350195540155
 30
0.0
 10
461.27446310019
 20
435.2112564634699
 30
0.0
 10
461.1089241432907
 20
435.6377764465366
 30
0.0
  0
LINE
  5
B7
330
8E
100
AcDbEntity
  8
$DDT_AUDIT_GENERATED_(A5)
  6
Continuous
 62
     7
100
AcDbLine
 10
461.4841431913
 20
431.808300142
 30
0.0
 11
461.4841431913
 21
431.8090657182
 31
0.0
  0
LINE
  5
B9
330
8E
100
AcDbEntity
  8
$DDT_AUDIT_GENERATED_(B8)
  6
Continuous
 62
     7
100
AcDbLine
 10
384.1841455425
 20
408.8586829301
 30
0.0
 11
384.5341455425
 21
408.8586829301
 31
0.0
  0
LINE
  5
BA
330
8E
100
AcDbEntity
  8
$DDT_AUDIT_GENERATED_(B8)
  6
Continuous
 62
     7
100
AcDbLine
 10
384.5341455425
 20
454.7586829301
 30
0.0
 11
384.1841455425
 21
454.7586829301
 31
0.0
  0
ARC
  5
BB
330
8E
100
AcDbEntity
  8
$DDT_AUDIT_GENERATED_(B8)
  6
Continuous
 62
     7
100
AcDbCircle
 10
384.5341455425
 20
454.5586829301
 30
0.0
 40
0.1999999999999919
100
AcDbArc
 50
0.0
 51
90.0
  0
ARC
  5
BC
330
8E
100
AcDbEntity
  8
$DDT_AUDIT_GENERATED_(B8)
  6
Continuous
 62
     7
100
AcDbCircle
 10
384.5341455425
 20
409.0586829301
 30
0.0
 40
0.1999999999999919
100
AcDbArc
 50
270.0
 51
0.0
  0
ARC
  5
BD
330
8E
100
AcDbEntity
  8
$DDT_AUDIT_GENERATED_(B8)
  6
Continuous
 62
     7
100
AcDbCircle
 10
384.1841455425
 20
409.0586829301
 30
0.0
 40
0.1999999999999919
100
AcDbArc
 50
180.0
 51
270.0
  0
ARC
  5
BE
330
8E
100
AcDbEntity
  8
$DDT_AUDIT_GENERATED_(B8)
  6
Continuous
 62
     7
100
AcDbCircle
 10
384.1841455425
 20
454.5586829301
 30
0.0
 40
0.1999999999999988
100
AcDbArc
 50
90.0
 51
180.0
  0
ARC
  5
BF
330
8E
100
AcDbEntity
  8
$DDT_AUDIT_GENERATED_(71)
  6
Continuous
 62
     7
100
AcDbCircle
 10
-2329.9440751745
 20
431.8080631009
 30
0.0
 40
2712.023045020495
100
AcDbArc
 50
359.4338115398
 51
0.5662147316
  0
SPLINE
  5
C0
330
8E
100
AcDbEntity
  8
$DDT_AUDIT_GENERATED_(71)
  6
Continuous
 62
     7
100
AcDbSpline
210
0.0
220
0.0
230
1.0
 70
     8
 71
     3
 72
     8
 73
     4
 74
     0
 42
0.0000000021441013
 43
0.0000000001
 40
0.0
 40
0.0
 40
0.0
 40
0.0
 40
1.0
 40
1.0
 40
1.0
 40
1.0
 10
380.6051511863769
 20
400.578095109876
 30
0.0
 10
381.0814381627758
 20
402.025996967598
 30
0.0
 10
381.5315942214494
 20
403.5137517112979
 30
0.0
 10
381.9556193623978
 20
405.0413593409754
 30
0.0
  0
SPLINE
  5
C1
330
8E
100
AcDbEntity
  8
$DDT_AUDIT_GENERATED_(71)
  6
Continuous
 62
     7
100
AcDbSpline
210
0.0
220
0.0
230
1.0
 70
     8
 71
     3
 72
     8
 73
     4
 74
     0
 42
0.0000000021348522
 43
0.0000000001
 40
0.0
 40
0.0
 40
0.0
 40
0.0
 40
1.0
 40
1.0
 40
1.0
 40
1.0
 10
381.9556193623978
 20
458.5759620150549
 30
0.0
 10
381.5316713617332
 20
460.1035930048628
 30
0.0
 10
381.0794877379955
 20
461.5977699348702
 30
0.0
 10
380.5990684911851
 20
463.0584928050769
 30
0.0
  0
LINE
  5
C2
330
8E
100
AcDbEntity
  8
$DDT_AUDIT_GENERATED_(71)
  6
Continuous
 62
     7
100
AcDbLine
 10
380.5996740823
 20
463.0586835226
 30
0.0
 11
380.4341455425
 21
463.0586835226
 31
0.0
  0
LINE
  5
C3
330
8E
100
AcDbEntity
  8
$DDT_AUDIT_GENERATED_(71)
  6
Continuous
 62
     7
100
AcDbLine
 10
380.4341455425
 20
400.5586835226
 30
0.0
 11
380.5992324271
 21
400.5586835226
 31
0.0
  0
ARC
  5
C4
330
8E
100
AcDbEntity
  8
$DDT_AUDIT_GENERATED_(71)
  6
Continuous
 62
     7
100
AcDbCircle
 10
-2329.9440751746
 20
516.8080631009
 30
0.0
 40
2712.0230450205
100
AcDbArc
 50
359.4338115398
 51
0.5662147316
  0
SPLINE
  5
C5
330
8E
100
AcDbEntity
  8
$DDT_AUDIT_GENERATED_(71)
  6
Continuous
 62
     7
100
AcDbSpline
210
0.0
220
0.0
230
1.0
 70
     8
 71
     3
 72
     8
 73
     4
 74
     0
 42
0.0000000021441013
 43
0.0000000001
 40
0.0
 40
0.0
 40
0.0
 40
0.0
 40
1.0
 40
1.0
 40
1.0
 40
1.0
 10
380.6051511863769
 20
485.5780951098759
 30
0.0
 10
381.0814381627758
 20
487.025996967598
 30
0.0
 10
381.5315942214494
 20
488.5137517112979
 30
0.0
 10
381.9556193623978
 20
490.0413593409754
 30
0.0
  0
SPLINE
  5
C6
330
8E
100
AcDbEntity
  8
$DDT_AUDIT_GENERATED_(71)
  6
Continuous
 62
     7
100
AcDbSpline
210
0.0
220
0.0
230
1.0
 70
     8
 71
     3
 72
     8
 73
     4
 74
     0
 42
0.0000000021030212
 43
0.0000000001
 40
0.0
 40
0.0
 40
0.0
 40
0.0
 40
1.0
 40
1.0
 40
1.0
 40
1.0
 10
381.9556193623978
 20
543.5759620150549
 30
0.0
 10
381.5319393895859
 20
545.1036741708275
 30
0.0
 10
381.0726415389485
 20
546.6203849723229
 30
0.0
 10
380.5777258104854
 20
548.1260944195408
 30
0.0
  0
LINE
  5
C7
330
8E
100
AcDbEntity
  8
$DDT_AUDIT_GENERATED_(71)
  6
Continuous
 62
     7
100
AcDbLine
 10
380.5996740823
 20
548.0586835226
 30
0.0
 11
380.4341455425
 21
548.0586835226
 31
0.0
  0
LINE
  5
C8
330
8E
100
AcDbEntity
  8
$DDT_AUDIT_GENERATED_(71)
  6
Continuous
 62
     7
100
AcDbLine
 10
380.4341455425
 20
485.5586835226
 30
0.0
 11
380.5992324271
 21
485.5586835226
 31
0.0
  0
LINE
  5
C9
330
8E
100
AcDbEntity
  8
$DDT_AUDIT_GENERATED_(74)
  6
Continuous
 62
     7
100
AcDbLine
 10
380.4341219881
 20
476.3086829301
 30
0.0
 11
380.4340986345
 21
374.8085470865
 31
0.0
  0
LINE
  5
CA
330
8E
100
AcDbEntity
  8
$DDT_AUDIT_GENERATED_(74)
  6
Continuous
 62
     7
100
AcDbLine
 10
380.4341219871
 20
476.3086829301
 30
0.0
 11
380.4340982339
 21
577.8088183407
 31
0.0
  0
LINE
  5
CB
330
8E
100
AcDbEntity
  8
$DDT_AUDIT_GENERATED_(74)
  6
Continuous
 62
     7
100
AcDbLine
 10
367.1341455425
 20
374.8086829301
 30
0.0
 11
367.1341455425
 21
576.8236678811
 31
0.0
  0
ARC
  5
CC
330
8E
100
AcDbEntity
  8
$DDT_AUDIT_GENERATED_(74)
  6
Continuous
 62
     7
100
AcDbCircle
 10
368.1509066373
 20
577.6828396802
 30
0.0
 40
1.017047434084102
100
AcDbArc
 50
97.2603465541
 51
168.4794147209
  0
LINE
  5
CD
330
8E
100
AcDbEntity
  8
$DDT_AUDIT_GENERATED_(74)
  6
Continuous
 62
     7
100
AcDbLine
 10
369.1341455425
 20
578.8086829301
 30
0.0
 11
369.1341455425
 21
578.7551240328
 31
0.0
  0
SPLINE
  5
CE
330
8E
100
AcDbEntity
  8
$DDT_AUDIT_GENERATED_(74)
  6
Continuous
 62
     7
100
AcDbSpline
210
0.0
220
0.0
230
1.0
 70
     8
 71
     3
 72
    12
 73
     8
 74
     0
 42
0.0000000099297951
 43
0.0000000001
 40
0.0
 40
0.0
 40
0.0
 40
0.0
 40
0.2500000000000007
 40
0.2500000000000007
 40
0.5000000000000007
 40
0.5000000000000007
 40
1.0
 40
1.0
 40
1.0
 40
1.0
 10
369.1341455425253
 20
578.7551240328474
 30
0.0
 10
369.1341455425253
 20
578.7501053570879
 30
0.0
 10
369.1106276441718
 20
578.7448638741374
 30
0.0
 10
369.0172267908148
 20
578.7340369283305
 30
0.0
 10
368.9484575467054
 20
578.7286295120944
 30
0.0
 10
368.6823081991249
 20
578.7132428328289
 30
0.0
 10
368.4268870994305
 20
578.7043907409962
 30
0.0
 10
368.1341455425253
 20
578.6996122218234
 30
0.0
  0
LINE
  5
CF
330
8E
100
AcDbEntity
  8
$DDT_AUDIT_GENERATED_(74)
  6
Continuous
 62
     7
100
AcDbLine
 10
368.1341455425
 20
578.6996122218
 30
0.0
 11
368.0223741102
 21
578.6917325747
 31
0.0
  0
ARC
  5
D0
330
8E
100
AcDbEntity
  8
$DDT_AUDIT_GENERATED_(74)
  6
Continuous
 62
     7
100
AcDbCircle
 10
372.9734599588
 20
576.6102467037
 30
0.0
 40
5.84321328135654
100
AcDbArc
 50
174.7940927967
 51
177.9068275301
  0
LINE
  5
D1
330
8E
100
AcDbEntity
  8
$DDT_AUDIT_GENERATED_(74)
  6
Continuous
 62
     7
100
AcDbLine
 10
367.1543496454
 20
577.8859643833
 30
0.0
 11
367.1543496454
 21
577.140432154
 31
0.0
  0
LINE
  5
D2
330
8E
100
AcDbEntity
  8
$DDT_AUDIT_GENERATED_(74)
  6
Continuous
 62
     7
100
AcDbLine
 10
368.1341455425
 20
373.8086829301
 30
0.0
 11
379.4391760877
 21
373.8086829301
 31
0.0
  0
LINE
  5
D3
330
8E
100
AcDbEntity
  8
$DDT_AUDIT_GENERATED_(74)
  6
Continuous
 62
     7
100
AcDbLine
 10
379.4391760877
 20
578.8086829301
 30
0.0
 11
369.1341455425
 21
578.8086829301
 31
0.0
  0
ARC
  5
D4
330
8E
100
AcDbEntity
  8
$DDT_AUDIT_GENERATED_(74)
  6
Continuous
 62
     7
100
AcDbCircle
 10
379.4341849229
 20
374.8084590199
 30
0.0
 40
0.9999137154546114
100
AcDbArc
 50
269.9977434756
 51
0.005046268
  0
ARC
  5
D5
330
8E
100
AcDbEntity
  8
$DDT_AUDIT_GENERATED_(74)
  6
Continuous
 62
     7
100
AcDbCircle
 10
379.4341852667
 20
577.8089071529
 30
0.0
 40
0.9999129711654337
100
AcDbArc
 50
359.9949110044
 51
90.0022762266
  0
ARC
  5
D6
330
8E
100
AcDbEntity
  8
$DDT_AUDIT_GENERATED_(74)
  6
Continuous
 62
     7
100
AcDbCircle
 10
368.1341455425
 20
374.8086829301
 30
0.0
 40
1.000000000000001
100
AcDbArc
 50
180.0
 51
270.0
  0
LINE
  5
D8
330
8E
100
AcDbEntity
  8
$DDT_AUDIT_GENERATED_(D7)
  6
Continuous
 62
     7
100
AcDbLine
 10
384.1341455425
 20
493.8586829301
 30
0.0
 11
384.4841455425
 21
493.8586829301
 31
0.0
  0
LINE
  5
D9
330
8E
100
AcDbEntity
  8
$DDT_AUDIT_GENERATED_(D7)
  6
Continuous
 62
     7
100
AcDbLine
 10
384.4841455425
 20
539.7586829301
 30
0.0
 11
384.1341455425
 21
539.7586829301
 31
0.0
  0
ARC
  5
DA
330
8E
100
AcDbEntity
  8
$DDT_AUDIT_GENERATED_(D7)
  6
Continuous
 62
     7
100
AcDbCircle
 10
384.4841455425
 20
539.5586829301
 30
0.0
 40
0.1999999999999919
100
AcDbArc
 50
0.0
 51
90.0
  0
ARC
  5
DB
330
8E
100
AcDbEntity
  8
$DDT_AUDIT_GENERATED_(D7)
  6
Continuous
 62
     7
100
AcDbCircle
 10
384.4841455425
 20
494.0586829301
 30
0.0
 40
0.1999999999999988
100
AcDbArc
 50
270.0
 51
0.0
  0
ARC
  5
DC
330
8E
100
AcDbEntity
  8
$DDT_AUDIT_GENERATED_(D7)
  6
Continuous
 62
     7
100
AcDbCircle
 10
384.1341455425
 20
494.0586829301
 30
0.0
 40
0.1999999999999919
100
AcDbArc
 50
180.0
 51
270.0
  0
ARC
  5
DD
330
8E
100
AcDbEntity
  8
$DDT_AUDIT_GENERATED_(D7)
  6
Continuous
 62
     7
100
AcDbCircle
 10
384.1341455425
 20
539.5586829301
 30
0.0
 40
0.1999999999999988
100
AcDbArc
 50
90.0
 51
180.0
  0
LINE
  5
DF
330
8E
100
AcDbEntity
  8
DV2_Standard
  6
Continuous
 62
     7
100
AcDbLine
 10
461.0016827937
 20
521.0910582397
 30
0.0
 11
461.0589489159
 21
520.6376639583
 31
0.0
  0
LINE
  5
E0
330
8E
100
AcDbEntity
  8
DV2_Standard
  6
Continuous
 62
     7
100
AcDbLine
 10
461.084205183
 20
513.0943862543
 30
0.0
 11
461.0016827937
 21
512.5263076205
 31
0.0
  0
LINE
  5
E1
330
8E
100
AcDbEntity
  8
DV2_Standard
  6
Continuous
 62
     7
100
AcDbLine
 10
461.051904793
 20
436.0898382014
 30
0.0
 11
461.1089241433
 21
435.6377764465
 31
0.0
  0
LINE
  5
E2
330
8E
100
AcDbEntity
  8
DV2_Standard
  6
Continuous
 62
     7
100
AcDbLine
 10
461.1344292113
 20
428.0954035281
 30
0.0
 11
461.051904793
 21
427.5275276588
 31
0.0
  0
LINE
  5
E3
330
8E
100
AcDbEntity
  8
DV2_Standard
  6
Continuous
 62
     7
100
AcDbLine
 10
405.6148952896
 20
493.0188400179
 30
0.0
 11
406.5095840147
 21
493.0315781552
 31
0.0
  0
LINE
  5
E4
330
8E
100
AcDbEntity
  8
DV2_Standard
  6
Continuous
 62
     7
100
AcDbLine
 10
425.5711833912
 20
493.6588510699
 30
0.0
 11
426.4584514626
 21
493.7052041827
 31
0.0
  0
LINE
  5
E5
330
8E
100
AcDbEntity
  8
DV2_Standard
  6
Continuous
 62
     7
100
AcDbLine
 10
367.1286684384
 20
548.0586835226
 30
0.0
 11
367.1341455425
 21
485.5780951099
 31
0.0
  0
LINE
  5
E6
330
8E
100
AcDbEntity
  8
DV2_Standard
  6
Continuous
 62
     7
100
AcDbLine
 10
367.1280628473
 20
463.0584928051
 30
0.0
 11
367.1341455425
 21
400.5780951099
 31
0.0
  0
LINE
  5
E7
330
8E
100
AcDbEntity
  8
DV2_Standard
  6
CENTER2
 62
     7
100
AcDbLine
 10
387.1314065434
 20
516.8183893162
 30
0.0
 11
347.1314074375
 21
516.8183893162
 31
0.0
  0
LINE
  5
E8
330
8E
100
AcDbEntity
  8
DV2_Standard
  6
CENTER2
 62
     7
100
AcDbLine
 10
367.1314069905
 20
536.8183888692
 30
0.0
 11
367.1314069905
 21
496.8183897633
 31
0.0
  0
LINE
  5
E9
330
8E
100
AcDbEntity
  8
DV2_Standard
  6
CENTER2
 62
     7
100
AcDbLine
 10
387.1311037479
 20
431.8182939575
 30
0.0
 11
347.131104642
 21
431.8182939575
 31
0.0
  0
LINE
  5
EA
330
8E
100
AcDbEntity
  8
DV2_Standard
  6
CENTER2
 62
     7
100
AcDbLine
 10
367.1311041949
 20
451.8182935104
 30
0.0
 11
367.1311041949
 21
411.8182944045
 31
0.0
  0
ENDBLK
  5
EC
330
8E
100
AcDbEntity
  8
0
100
AcDbBlockEnd
  0
BLOCK
  5
139
330
ED
100
AcDbEntity
  8
0
100
AcDbBlockBegin
  2
SE2
 70
     0
 10
0.0
 20
0.0
 30
0.0
  3
SE2
  1

  0
ARC
  5
EF
330
ED
100
AcDbEntity
  8
$DDT_AUDIT_GENERATED_(60)
  6
Continuous
 62
     7
100
AcDbCircle
 10
108.5425130992
 20
110.6753647302
 30
0.0
 40
4.999621865495817
100
AcDbArc
 50
195.7447588129
 51
232.6404083651
  0
ARC
  5
F0
330
ED
100
AcDbEntity
  8
$DDT_AUDIT_GENERATED_(60)
  6
Continuous
 62
     7
100
AcDbCircle
 10
105.8129686573
 20
107.1009701245
 30
0.0
 40
0.5022107740380519
100
AcDbArc
 50
232.7044028865
 51
262.4069702762
  0
ARC
  5
F1
330
ED
100
AcDbEntity
  8
$DDT_AUDIT_GENERATED_(60)
  6
Continuous
 62
     7
100
AcDbCircle
 10
94.9249831674
 20
148.8222278004
 30
0.0
 40
9.857931418455028
100
AcDbArc
 50
197.8453296106
 51
219.4655179599
  0
LINE
  5
F2
330
ED
100
AcDbEntity
  8
$DDT_AUDIT_GENERATED_(60)
  6
Continuous
 62
     7
100
AcDbLine
 10
85.1417215395
 20
183.1499976487
 30
0.0
 11
132.5582784607
 21
183.1499976487
 31
0.0
  0
ARC
  5
F3
330
ED
100
AcDbEntity
  8
$DDT_AUDIT_GENERATED_(60)
  6
Continuous
 62
     7
100
AcDbCircle
 10
109.1588781902
 20
110.6744194744
 30
0.0
 40
4.998026308358158
100
AcDbArc
 50
307.3534899731
 51
344.2613428493
  0
ARC
  5
F4
330
ED
100
AcDbEntity
  8
$DDT_AUDIT_GENERATED_(60)
  6
Continuous
 62
     7
100
AcDbCircle
 10
111.8870506298
 20
107.1009164798
 30
0.0
 40
0.5021564124854596
100
AcDbArc
 50
277.5928223351
 51
307.2975552621
  0
ARC
  5
F5
330
ED
100
AcDbEntity
  8
$DDT_AUDIT_GENERATED_(60)
  6
Continuous
 62
     7
100
AcDbCircle
 10
172.4382566711
 20
101.1144623703
 30
0.0
 40
59.0374299927292
100
AcDbArc
 50
171.8531879226
 51
171.9400229502
  0
ARC
  5
F6
330
ED
100
AcDbEntity
  8
$DDT_AUDIT_GENERATED_(60)
  6
Continuous
 62
     7
100
AcDbCircle
 10
122.7776289127
 20
148.8208003686
 30
0.0
 40
9.855007594451187
100
AcDbArc
 50
320.5312362347
 51
342.1579161954
  0
ARC
  5
F7
330
ED
100
AcDbEntity
  8
$DDT_AUDIT_GENERATED_(60)
  6
Continuous
 62
     7
100
AcDbCircle
 10
172.3643982649
 20
101.146980493
 30
0.0
 40
58.96387463771137
100
AcDbArc
 50
135.3913469747
 51
135.547007927
  0
ARC
  5
F8
330
ED
100
AcDbEntity
  8
$DDT_AUDIT_GENERATED_(60)
  6
Continuous
 62
     7
100
AcDbCircle
 10
172.3643982649
 20
101.146980493
 30
0.0
 40
58.96387463771137
100
AcDbArc
 50
171.9363612117
 51
172.0338132599
  0
ARC
  5
F9
330
ED
100
AcDbEntity
  8
$DDT_AUDIT_GENERATED_(60)
  6
Continuous
 62
     7
100
AcDbCircle
 10
178.9189984629
 20
97.9521601798
 30
0.0
 40
65.89955448763902
100
AcDbArc
 50
137.4703539829
 51
169.9154659629
  0
ARC
  5
FA
330
ED
100
AcDbEntity
  8
$DDT_AUDIT_GENERATED_(60)
  6
Continuous
 62
     7
100
AcDbCircle
 10
85.1417215395
 20
182.8499976487
 30
0.0
 40
0.3000000000000086
100
AcDbArc
 50
90.0
 51
180.5
  0
ARC
  5
FB
330
ED
100
AcDbEntity
  8
$DDT_AUDIT_GENERATED_(60)
  6
Continuous
 62
     7
100
AcDbCircle
 10
132.5582784607
 20
182.8499976487
 30
0.0
 40
0.2999999999999947
100
AcDbArc
 50
359.5
 51
90.0
  0
ARC
  5
FC
330
ED
100
AcDbEntity
  8
$DDT_AUDIT_GENERATED_(60)
  6
Continuous
 62
     7
100
AcDbCircle
 10
95.2477884468
 20
148.8282663368
 30
0.0
 40
10.12006058690093
100
AcDbArc
 50
197.8375043827
 51
219.5851490868
  0
ARC
  5
FD
330
ED
100
AcDbEntity
  8
$DDT_AUDIT_GENERATED_(60)
  6
Continuous
 62
     7
100
AcDbCircle
 10
85.9240261957
 20
145.9377455017
 30
0.0
 40
0.4074932171991649
100
AcDbArc
 50
182.2920613949
 51
202.1997210428
  0
ARC
  5
FE
330
ED
100
AcDbEntity
  8
$DDT_AUDIT_GENERATED_(60)
  6
Continuous
 62
     7
100
AcDbCircle
 10
131.748243239
 20
145.948141436
 30
0.0
 40
0.4366331700189202
100
AcDbArc
 50
337.8663593994
 51
356.3859721078
  0
SPLINE
  5
FF
330
ED
100
AcDbEntity
  8
$DDT_AUDIT_GENERATED_(60)
  6
Continuous
 62
     7
100
AcDbSpline
210
0.0
220
0.0
230
1.0
 70
     8
 71
     3
 72
     8
 73
     4
 74
     0
 42
0.0000000302289765
 43
0.0000000001
 40
0.0
 40
0.0
 40
0.0
 40
0.0
 40
1.0
 40
1.0
 40
1.0
 40
1.0
 10
105.7487549275301
 20
106.6175408538581
 30
0.0
 10
105.9240181088664
 20
106.5804164801517
 30
0.0
 10
106.0325097970758
 20
106.5631868855378
 30
0.0
 10
106.074229992158
 20
106.5658520700163
 30
0.0
  0
SPLINE
  5
100
330
ED
100
AcDbEntity
  8
$DDT_AUDIT_GENERATED_(60)
  6
Continuous
 62
     7
100
AcDbSpline
210
0.0
220
0.0
230
1.0
 70
     8
 71
     3
 72
    13
 73
     9
 74
     0
 42
0.0000000002707568
 43
0.0000000001
 40
0.0
 40
0.0
 40
0.0
 40
0.0
 40
0.1565458545561114
 40
0.3296088745435075
 40
0.507822301357115
 40
0.6877784805687049
 40
0.8660793330618417
 40
1.0
 40
1.0
 40
1.0
 40
1.0
 10
84.84162500092631
 20
182.8469090012501
 30
0.0
 10
84.85909579041619
 20
180.7270094141783
 30
0.0
 10
84.89107299831328
 20
176.9606672602855
 30
0.0
 10
84.9435592873569
 20
170.5839740013309
 30
0.0
 10
85.01993502097778
 20
164.0703300658976
 30
0.0
 10
85.13631508306248
 20
157.4963226902499
 30
0.0
 10
85.29790433216805
 20
151.307367997517
 30
0.0
 10
85.44152795454875
 20
147.7338703964633
 30
0.0
 10
85.51528866267238
 20
145.9217936972123
 30
0.0
  0
SPLINE
  5
101
330
ED
100
AcDbEntity
  8
$DDT_AUDIT_GENERATED_(60)
  6
Continuous
 62
     7
100
AcDbSpline
210
0.0
220
0.0
230
1.0
 70
     8
 71
     3
 72
    14
 73
    10
 74
     0
 42
0.0000000002707554
 43
0.0000000001
 40
0.0
 40
0.0
 40
0.0
 40
0.0
 40
0.0299694041867781
 40
0.1760465729766305
 40
0.32506435010317
 40
0.5018021441775716
 40
0.6766829948790967
 40
0.8464782636135776
 40
1.0
 40
1.0
 40
1.0
 40
1.0
 10
132.1791463839239
 20
145.9218825377401
 30
0.0
 10
132.1991159744053
 20
146.3272436094869
 30
0.0
 10
132.2993759261306
 20
148.3674221886447
 30
0.0
 10
132.4305494455372
 20
152.4917000277223
 30
0.0
 10
132.5795900360772
 20
158.2486466926825
 30
0.0
 10
132.6846229131944
 20
164.4358223677323
 30
0.0
 10
132.7585829578988
 20
170.8145461747236
 30
0.0
 10
132.8097975798653
 20
177.074202768208
 30
0.0
 10
132.8412022902582
 20
180.7679259331582
 30
0.0
 10
132.8583734647669
 20
182.8468821839728
 30
0.0
  0
LINE
  5
102
330
ED
100
AcDbEntity
  8
$DDT_AUDIT_GENERATED_(9E)
  6
Continuous
 62
     7
100
AcDbLine
 10
84.6000000001
 20
183.8999976487
 30
0.0
 11
133.1000000001
 21
183.8999976487
 31
0.0
  0
ARC
  5
103
330
ED
100
AcDbEntity
  8
$DDT_AUDIT_GENERATED_(9E)
  6
Continuous
 62
     7
100
AcDbCircle
 10
133.1000000001
 20
185.8999976487
 30
0.0
 40
2.000000000000002
100
AcDbArc
 50
270.0
 51
0.0
  0
ARC
  5
104
330
ED
100
AcDbEntity
  8
$DDT_AUDIT_GENERATED_(9E)
  6
Continuous
 62
     7
100
AcDbCircle
 10
84.6000000001
 20
185.8999976487
 30
0.0
 40
2.000000000000002
100
AcDbArc
 50
180.0
 51
270.0
  0
LINE
  5
106
330
ED
100
AcDbEntity
  8
$DDT_AUDIT_GENERATED_(105)
  6
Continuous
 62
     7
100
AcDbLine
 10
110.3499753928
 20
200.6999976487
 30
0.0
 11
122.9563035667
 21
200.6999976487
 31
0.0
  0
LINE
  5
107
330
ED
100
AcDbEntity
  8
$DDT_AUDIT_GENERATED_(105)
  6
Continuous
 62
     7
100
AcDbLine
 10
107.3499757176
 20
200.6999976487
 30
0.0
 11
110.3499753928
 21
200.6999976487
 31
0.0
  0
LINE
  5
108
330
ED
100
AcDbEntity
  8
$DDT_AUDIT_GENERATED_(105)
  6
Continuous
 62
     7
100
AcDbLine
 10
103.9766878243
 20
200.6999976487
 30
0.0
 11
107.3499757176
 21
200.6999976487
 31
0.0
  0
LINE
  5
109
330
ED
100
AcDbEntity
  8
$DDT_AUDIT_GENERATED_(A5)
  6
Continuous
 62
     7
100
AcDbLine
 10
106.5290996012
 20
106.5688854271
 30
0.0
 11
108.849617212
 21
106.4
 31
0.0
  0
LINE
  5
10A
330
ED
100
AcDbEntity
  8
$DDT_AUDIT_GENERATED_(A5)
  6
Continuous
 62
     7
100
AcDbLine
 10
108.8503827882
 20
106.4
 30
0.0
 11
111.1710481027
 21
106.5688961769
 31
0.0
  0
LINE
  5
10B
330
ED
100
AcDbEntity
  8
$DDT_AUDIT_GENERATED_(A5)
  6
Continuous
 62
     7
100
AcDbLine
 10
108.849617212
 20
106.4
 30
0.0
 11
108.8503827882
 21
106.4
 31
0.0
  0
ARC
  5
10C
330
ED
100
AcDbEntity
  8
$DDT_AUDIT_GENERATED_(68)
  6
Continuous
 62
     7
100
AcDbCircle
 10
49.2850460167
 20
103.0533956901
 30
0.0
 40
54.79298277881075
100
AcDbArc
 50
45.7365314759
 51
46.0259468068
  0
ARC
  5
10D
330
ED
100
AcDbEntity
  8
$DDT_AUDIT_GENERATED_(68)
  6
Continuous
 62
     7
100
AcDbCircle
 10
49.3344944891
 20
103.0778273971
 30
0.0
 40
54.74106987965061
100
AcDbArc
 50
46.0010464484
 51
46.0454379574
  0
LINE
  5
10E
330
ED
100
AcDbEntity
  8
$DDT_AUDIT_GENERATED_(68)
  6
Continuous
 62
     7
100
AcDbLine
 10
87.3295969368
 20
142.4854018208
 30
0.0
 11
87.3113081612
 21
142.5063913434
 31
0.0
  0
LINE
  5
10F
330
ED
100
AcDbEntity
  8
$DDT_AUDIT_GENERATED_(68)
  6
Continuous
 62
     7
100
AcDbLine
 10
132.1622067063
 20
145.7512800809
 30
0.0
 11
132.1857847474
 21
145.8825621976
 31
0.0
  0
ARC
  5
110
330
ED
100
AcDbEntity
  8
$DDT_AUDIT_GENERATED_(68)
  6
Continuous
 62
     7
100
AcDbCircle
 10
168.3655079083
 20
103.0778262127
 30
0.0
 40
54.74107239610028
100
AcDbArc
 50
133.9545629883
 51
134.2205082988
  0
ARC
  5
111
330
ED
100
AcDbEntity
  8
$DDT_AUDIT_GENERATED_(68)
  6
Continuous
 62
     7
100
AcDbCircle
 10
168.3804226253
 20
103.0657204807
 30
0.0
 40
54.76256135218062
100
AcDbArc
 50
133.9279880343
 51
134.1873287695
  0
LINE
  5
112
330
ED
100
AcDbEntity
  8
$DDT_AUDIT_GENERATED_(68)
  6
Continuous
 62
     7
100
AcDbLine
 10
130.388691839
 20
142.5063913434
 30
0.0
 11
130.3704030634
 21
142.4854018208
 31
0.0
  0
ARC
  5
113
330
ED
100
AcDbEntity
  8
$DDT_AUDIT_GENERATED_(68)
  6
Continuous
 62
     7
100
AcDbCircle
 10
38.912705952
 20
97.9292401101
 30
0.0
 40
65.79307140104625
100
AcDbArc
 50
10.4893671453
 51
42.4846666074
  0
ARC
  5
114
330
ED
100
AcDbEntity
  8
$DDT_AUDIT_GENERATED_(68)
  6
Continuous
 62
     7
100
AcDbCircle
 10
178.8795498013
 20
97.8815338178
 30
0.0
 40
65.89311039266538
100
AcDbArc
 50
137.4003839605
 51
169.3799475962
  0
LINE
  5
115
330
ED
100
AcDbEntity
  8
$DDT_AUDIT_GENERATED_(A5)
  6
Continuous
 62
     7
100
AcDbLine
 10
108.849617212
 20
106.35
 30
0.0
 11
108.8503827882
 21
106.35
 31
0.0
  0
LINE
  5
116
330
ED
100
AcDbEntity
  8
$DDT_AUDIT_GENERATED_(B8)
  6
Continuous
 62
     7
100
AcDbLine
 10
85.9000000001
 20
183.3499976487
 30
0.0
 11
85.9000000001
 21
183.2999976487
 31
0.0
  0
LINE
  5
117
330
ED
100
AcDbEntity
  8
$DDT_AUDIT_GENERATED_(B8)
  6
Continuous
 62
     7
100
AcDbLine
 10
131.8000000001
 20
183.2999976487
 30
0.0
 11
131.8000000001
 21
183.3499976487
 31
0.0
  0
ARC
  5
118
330
ED
100
AcDbEntity
  8
$DDT_AUDIT_GENERATED_(B8)
  6
Continuous
 62
     7
100
AcDbCircle
 10
131.6000000001
 20
183.2999976487
 30
0.0
 40
0.2000000000000057
100
AcDbArc
 50
311.4096221093
 51
0.0
  0
ARC
  5
119
330
ED
100
AcDbEntity
  8
$DDT_AUDIT_GENERATED_(B8)
  6
Continuous
 62
     7
100
AcDbCircle
 10
86.1000000001
 20
183.2999976487
 30
0.0
 40
0.1999999999999988
100
AcDbArc
 50
180.0
 51
228.5903778907
  0
ARC
  5
11A
330
ED
100
AcDbEntity
  8
$DDT_AUDIT_GENERATED_(71)
  6
Continuous
 62
     7
100
AcDbCircle
 10
108.8492323249
 20
-2523.5483957027
 30
0.0
 40
2709.568530946017
100
AcDbArc
 50
89.4332692095
 51
90.5666982876
  0
SPLINE
  5
11B
330
ED
100
AcDbEntity
  8
$DDT_AUDIT_GENERATED_(71)
  6
Continuous
 62
     7
100
AcDbSpline
210
0.0
220
0.0
230
1.0
 70
     8
 71
     3
 72
     8
 73
     4
 74
     0
 42
0.0000000021402713
 43
0.0000000001
 40
0.0
 40
0.0
 40
0.0
 40
0.0
 40
1.0
 40
1.0
 40
1.0
 40
1.0
 10
77.61150391217564
 20
187.2315044020819
 30
0.0
 10
79.06470135003717
 20
186.7535105910355
 30
0.0
 10
80.55510871437427
 20
186.3025170666337
 30
0.0
 10
82.08272600518697
 20
185.8785238288766
 30
0.0
  0
SPLINE
  5
11C
330
ED
100
AcDbEntity
  8
$DDT_AUDIT_GENERATED_(71)
  6
Continuous
 62
     7
100
AcDbSpline
210
0.0
220
0.0
230
1.0
 70
     8
 71
     3
 72
     8
 73
     4
 74
     0
 42
0.0000000021463158
 43
0.0000000001
 40
0.0
 40
0.0
 40
0.0
 40
0.0
 40
1.0
 40
1.0
 40
1.0
 40
1.0
 10
135.6173286792606
 20
185.8785238288766
 30
0.0
 10
137.1449307303911
 20
186.3025673914132
 30
0.0
 10
138.6311559950378
 20
186.7522405742958
 30
0.0
 10
140.0760044732009
 20
187.2275433775241
 30
0.0
  0
LINE
  5
11D
330
ED
100
AcDbEntity
  8
$DDT_AUDIT_GENERATED_(71)
  6
Continuous
 62
     7
100
AcDbLine
 10
140.100003993
 20
187.2349781361
 30
0.0
 11
140.100003993
 21
187.3999976487
 31
0.0
  0
LINE
  5
11E
330
ED
100
AcDbEntity
  8
$DDT_AUDIT_GENERATED_(71)
  6
Continuous
 62
     7
100
AcDbLine
 10
77.600003993
 20
187.3999976487
 30
0.0
 11
77.600003993
 21
187.2346652297
 31
0.0
  0
SPLINE
  5
11F
330
ED
100
AcDbEntity
  8
$DDT_AUDIT_GENERATED_(74)
  6
Continuous
 62
     7
100
AcDbSpline
210
0.0
220
0.0
230
1.0
 70
     8
 71
     3
 72
    17
 73
    13
 74
     0
 42
0.0000000063269817
 43
0.0000000001
 40
0.0
 40
0.0
 40
0.0
 40
0.0
 40
0.2450873813310192
 40
0.2450873813310192
 40
0.2450873813310192
 40
0.4967249208866795
 40
0.4967249208866795
 40
0.4967249208866795
 40
0.7483624604433398
 40
0.7483624604433398
 40
0.7483624604433398
 40
1.0
 40
1.0
 40
1.0
 40
1.0
 10
7.350000220590569
 20
187.4000212041836
 30
0.0
 10
7.224702621091317
 20
187.4012155490388
 30
0.0
 10
7.095049194291326
 20
187.4243438022685
 30
0.0
 10
6.974558010653969
 20
187.4731517539882
 30
0.0
 10
6.85084660281296
 20
187.5232641376402
 30
0.0
 10
6.737788529038974
 20
187.5989259960042
 30
0.0
 10
6.646452462673979
 20
187.6893494497632
 30
0.0
 10
6.555116396308986
 20
187.7797729035232
 30
0.0
 10
6.478522975735979
 20
187.8917220891332
 30
0.0
 10
6.427121841055983
 20
188.0149055769762
 30
0.0
 10
6.37572070637496
 20
188.1380890648182
 30
0.0
 10
6.349999999999994
 20
188.2716000960252
 30
0.0
 10
6.350000000000383
 20
188.399997648494
 30
0.0
  0
LINE
  5
120
330
ED
100
AcDbEntity
  8
$DDT_AUDIT_GENERATED_(74)
  6
Continuous
 62
     7
100
AcDbLine
 10
7.4724512137
 20
187.4000212042
 30
0.0
 11
7.3500002206
 21
187.4000212042
 31
0.0
  0
LINE
  5
121
330
ED
100
AcDbEntity
  8
$DDT_AUDIT_GENERATED_(74)
  6
Continuous
 62
     7
100
AcDbLine
 10
211.225360468
 20
188.3999976492
 30
0.0
 11
211.3500905869
 21
188.3999976487
 31
0.0
  0
LINE
  5
122
330
ED
100
AcDbEntity
  8
$DDT_AUDIT_GENERATED_(74)
  6
Continuous
 62
     7
100
AcDbLine
 10
7.4724514685
 20
187.4000212042
 30
0.0
 11
210.2276618713
 21
187.4000212031
 31
0.0
  0
LINE
  5
123
330
ED
100
AcDbEntity
  8
$DDT_AUDIT_GENERATED_(74)
  6
Continuous
 62
     7
100
AcDbLine
 10
210.35
 20
200.6999976487
 30
0.0
 11
122.9563035667
 21
200.6999976487
 31
0.0
  0
LINE
  5
124
330
ED
100
AcDbEntity
  8
$DDT_AUDIT_GENERATED_(74)
  6
Continuous
 62
     7
100
AcDbLine
 10
94.7436964336
 20
200.6999976487
 30
0.0
 11
7.35
 21
200.6999976487
 31
0.0
  0
ARC
  5
125
330
ED
100
AcDbEntity
  8
$DDT_AUDIT_GENERATED_(74)
  6
Continuous
 62
     7
100
AcDbCircle
 10
96.5357617426
 20
257.9939088272
 30
0.0
 40
57.32193084845277
100
AcDbArc
 50
268.2084603462
 51
269.05384474
  0
LINE
  5
126
330
ED
100
AcDbEntity
  8
$DDT_AUDIT_GENERATED_(74)
  6
Continuous
 62
     7
100
AcDbLine
 10
103.8554136732
 20
200.6797935459
 30
0.0
 11
95.5892176531
 21
200.6797935459
 31
0.0
  0
LINE
  5
127
330
ED
100
AcDbEntity
  8
$DDT_AUDIT_GENERATED_(74)
  6
Continuous
 62
     7
100
AcDbLine
 10
6.35
 20
199.6999976487
 30
0.0
 11
6.35
 21
188.3949671035
 31
0.0
  0
LINE
  5
128
330
ED
100
AcDbEntity
  8
$DDT_AUDIT_GENERATED_(74)
  6
Continuous
 62
     7
100
AcDbLine
 10
211.35
 20
188.3949671035
 30
0.0
 11
211.35
 21
199.6999976487
 31
0.0
  0
ARC
  5
129
330
ED
100
AcDbEntity
  8
$DDT_AUDIT_GENERATED_(74)
  6
Continuous
 62
     7
100
AcDbCircle
 10
210.2272111965
 20
188.3993552937
 30
0.0
 40
0.999310468810706
100
AcDbArc
 50
270.0294983503
 51
0.0368296306
  0
ARC
  5
12A
330
ED
100
AcDbEntity
  8
$DDT_AUDIT_GENERATED_(74)
  6
Continuous
 62
     7
100
AcDbCircle
 10
7.35
 20
199.6999976487
 30
0.0
 40
1.000000000000001
100
AcDbArc
 50
90.0
 51
180.0
  0
ARC
  5
12B
330
ED
100
AcDbEntity
  8
$DDT_AUDIT_GENERATED_(74)
  6
Continuous
 62
     7
100
AcDbCircle
 10
210.35
 20
199.6999976487
 30
0.0
 40
1.000000000000001
100
AcDbArc
 50
0.0
 51
90.0
  0
LINE
  5
12C
330
ED
100
AcDbEntity
  8
$DDT_AUDIT_GENERATED_(D7)
  6
Continuous
 62
     7
100
AcDbLine
 10
85.9000000001
 20
183.6999976487
 30
0.0
 11
85.9000000001
 21
183.3499976487
 31
0.0
  0
LINE
  5
12D
330
ED
100
AcDbEntity
  8
$DDT_AUDIT_GENERATED_(D7)
  6
Continuous
 62
     7
100
AcDbLine
 10
131.8000000001
 20
183.3499976487
 30
0.0
 11
131.8000000001
 21
183.6999976487
 31
0.0
  0
ARC
  5
12E
330
ED
100
AcDbEntity
  8
$DDT_AUDIT_GENERATED_(D7)
  6
Continuous
 62
     7
100
AcDbCircle
 10
131.6000000001
 20
183.3499976487
 30
0.0
 40
0.1999999999999919
100
AcDbArc
 50
270.0
 51
0.0
  0
ARC
  5
12F
330
ED
100
AcDbEntity
  8
$DDT_AUDIT_GENERATED_(D7)
  6
Continuous
 62
     7
100
AcDbCircle
 10
86.1000000001
 20
183.3499976487
 30
0.0
 40
0.1999999999999988
100
AcDbArc
 50
180.0
 51
270.0
  0
ARC
  5
130
330
ED
100
AcDbEntity
  8
$DDT_AUDIT_GENERATED_(D7)
  6
Continuous
 62
     7
100
AcDbCircle
 10
86.1000000001
 20
183.6999976487
 30
0.0
 40
0.1999999999999919
100
AcDbArc
 50
90.0
 51
180.0
  0
ARC
  5
131
330
ED
100
AcDbEntity
  8
$DDT_AUDIT_GENERATED_(D7)
  6
Continuous
 62
     7
100
AcDbCircle
 10
131.6000000001
 20
183.6999976487
 30
0.0
 40
0.1999999999999988
100
AcDbArc
 50
0.0
 51
90.0
  0
LINE
  5
133
330
ED
100
AcDbEntity
  8
DV3_Standard
  6
Continuous
 62
     7
100
AcDbLine
 10
106.0742299922
 20
106.56585207
 30
0.0
 11
106.5290996012
 21
106.5688854271
 31
0.0
  0
LINE
  5
134
330
ED
100
AcDbEntity
  8
DV3_Standard
  6
Continuous
 62
     7
100
AcDbLine
 10
111.1710481027
 20
106.5688961769
 30
0.0
 11
111.9534016692
 21
106.6031629241
 31
0.0
  0
LINE
  5
135
330
ED
100
AcDbEntity
  8
DV3_Standard
  6
Continuous
 62
     7
100
AcDbLine
 10
103.7304767325
 20
109.3187053019
 30
0.0
 11
103.6101023351
 21
109.886461595
 31
0.0
  0
LINE
  5
136
330
ED
100
AcDbEntity
  8
DV3_Standard
  6
Continuous
 62
     7
100
AcDbLine
 10
77.6115039122
 20
200.6999976487
 30
0.0
 11
140.0760044732
 21
200.6960366242
 31
0.0
  0
LINE
  5
137
330
ED
100
AcDbEntity
  8
DV3_Standard
  6
CENTER2
 62
     7
100
AcDbLine
 10
128.8437537457
 20
200.6980171365
 30
0.0
 11
88.8437546397
 21
200.6980171365
 31
0.0
  0
LINE
  5
138
330
ED
100
AcDbEntity
  8
DV3_Standard
  6
CENTER2
 62
     7
100
AcDbLine
 10
108.8437541927
 20
220.6980166894
 30
0.0
 11
108.8437541927
 21
180.6980175835
 31
0.0
  0
ENDBLK
  5
13A
330
ED
100
AcDbEntity
  8
0
100
AcDbBlockEnd
  0
ENDSEC
  0
SECTION
  2
ENTITIES
  0
INSERT
  5
5F
330
1F
100
AcDbEntity
  8
Default
100
AcDbBlockReference
  2
SE
 10
0.0
 20
0.0
 30
0.0
  0
INSERT
  5
8F
330
1F
100
AcDbEntity
  8
Default
100
AcDbBlockReference
  2
SE1
 10
0.0
 20
0.0
 30
0.0
  0
INSERT
  5
EE
330
1F
100
AcDbEntity
  8
Default
100
AcDbBlockReference
  2
SE2
 10
0.0
 20
0.0
 30
0.0
  0
TEXT
  5
13C
330
1F
100
AcDbEntity
  8
Default
  6
Continuous
 62
     7
100
AcDbText
 10
5.9362635081
 20
53.4225120485
 30
0.0
 40
10.0
  1
Grohe AG^J
  7
SEACAD_seiso_ttf
 11
5.9362635081
 21
63.4225120485
 31
0.0
100
AcDbText
 73
     3
  0
TEXT
  5
13D
330
1F
100
AcDbEntity
  8
Default
  6
Continuous
 62
     7
100
AcDbText
 10
5.9362635081
 20
37.0588756849
 30
0.0
 40
10.0
  1
 
  7
SEACAD_seiso_ttf
 11
5.9362635081
 21
47.0588756849
 31
0.0
100
AcDbText
 73
     3
  0
TEXT
  5
13E
330
1F
100
AcDbEntity
  8
Default
  6
Continuous
 62
     7
100
AcDbText
 10
5.9362635081
 20
20.6952393213
 30
0.0
 40
10.0
  1
ecn: 
  7
SEACAD_seiso_ttf
 11
5.9362635081
 21
30.6952393213
 31
0.0
100
AcDbText
 73
     3
  0
TEXT
  5
13F
330
1F
100
AcDbEntity
  8
Default
  6
Continuous
 62
     7
100
AcDbText
 10
5.9362635081
 20
4.3316029576
 30
0.0
 40
10.0
  1
unit: mm
  7
SEACAD_seiso_ttf
 11
5.9362635081
 21
14.3316029576
 31
0.0
100
AcDbText
 73
     3
  0
LINE
  5
140
330
1F
100
AcDbEntity
  8
Default
  6
Continuous
 62
     7
100
AcDbLine
 10
0.0
 20
0.0
 30
0.0
 11
100.0
 21
0.0
 31
0.0
  0
LINE
  5
141
330
1F
100
AcDbEntity
  8
Default
  6
Continuous
 62
     7
100
AcDbLine
 10
0.0
 20
0.0
 30
0.0
 11
0.0
 21
100.0
 31
0.0
  0
TEXT
  5
142
330
1F
100
AcDbEntity
  8
Default
  6
Continuous
 62
     7
100
AcDbText
 10
24.3923665681
 20
-18.2375342018
 30
0.0
 40
10.0
  1
100 mm
  7
SEACAD_seiso_ttf
 11
24.3923665681
 21
-8.2375342018
 31
0.0
100
AcDbText
 73
     3
  0
TEXT
  5
143
330
1F
100
AcDbEntity
  8
Default
  6
Continuous
 62
     7
100
AcDbText
 10
-7.6150308803
 20
24.6231930421
 30
0.0
 40
10.0
  1
100 mm
 50
90.0
  7
SEACAD_seiso_ttf
 11
-17.6150308803
 21
24.6231930421
 31
0.0
100
AcDbText
 73
     3
  0
TEXT
  5
144
330
1F
100
AcDbEntity
  8
Default
  6
Continuous
 62
     7
100
AcDbText
 10
28.4878128572
 20
20.0907663715
 30
0.0
 40
10.0
  1
215390
  7
SEACAD_seiso_ttf
 11
28.4878128572
 21
30.0907663715
 31
0.0
100
AcDbText
 73
     3
  0
TEXT
  5
145
330
1F
100
AcDbEntity
  8
Default
  6
Continuous
 62
     7
100
AcDbText
 10
5.9012241913
 20
36.7242780188
 30
0.0
 40
10.0
  1
19364000
  7
SEACAD_seiso_ttf
 11
5.9012241913
 21
46.7242780188
 31
0.0
100
AcDbText
 73
     3
  0
ENDSEC
  0
SECTION
  2
OBJECTS
  0
DICTIONARY
  5
C
330
0
100
AcDbDictionary
281
     1
  3
ACAD_GROUP
350
D
  3
ACAD_LAYOUT
350
1A
  3
ACAD_MLEADERSTYLE
350
149
  3
ACAD_MLINESTYLE
350
17
  3
ACAD_PLOTSETTINGS
350
19
  3
ACAD_PLOTSTYLENAME
350
E
  3
ACAD_SCALELIST
350
3B
  3
ACAD_TABLESTYLE
350
148
  3
ACAD_VISUALSTYLE
350
2A
  3
AcDbVariableDictionary
350
146
  0
DICTIONARY
  5
D
102
{ACAD_REACTORS
330
C
102
}
330
C
100
AcDbDictionary
281
     1
  0
DICTIONARY
  5
1A
102
{ACAD_REACTORS
330
C
102
}
330
C
100
AcDbDictionary
281
     1
  3
Layout1
350
1E
  3
Model
350
22
  0
DICTIONARY
  5
149
102
{ACAD_REACTORS
330
C
102
}
330
C
100
AcDbDictionary
281
     1
  0
DICTIONARY
  5
17
102
{ACAD_REACTORS
330
C
102
}
330
C
100
AcDbDictionary
281
     1
  3
Standard
350
18
  0
DICTIONARY
  5
19
102
{ACAD_REACTORS
330
C
102
}
330
C
100
AcDbDictionary
281
     1
  0
ACDBDICTIONARYWDFLT
  5
E
102
{ACAD_REACTORS
330
C
102
}
330
C
100
AcDbDictionary
281
     1
  3
Normal
350
F
100
AcDbDictionaryWithDefault
340
F
  0
DICTIONARY
  5
3B
102
{ACAD_REACTORS
330
C
102
}
330
C
100
AcDbDictionary
281
     1
  3
A0
350
3C
  3
A1
350
3D
  3
A2
350
3E
  3
A3
350
3F
  3
A4
350
40
  3
A5
350
41
  3
A6
350
42
  3
A7
350
43
  3
A8
350
44
  3
A9
350
45
  3
B0
350
46
  3
B1
350
47
  3
B2
350
48
  3
B3
350
49
  3
B4
350
4A
  3
B5
350
4B
  3
B6
350
4C
  3
B7
350
4D
  3
B8
350
4E
  3
B9
350
4F
  3
C0
350
50
  3
C1
350
51
  3
C2
350
52
  3
C3
350
53
  3
C4
350
54
  3
C5
350
55
  3
C6
350
56
  3
C7
350
57
  3
C8
350
58
  3
C9
350
59
  3
D0
350
5A
  3
D1
350
5B
  3
D2
350
5C
  0
DICTIONARY
  5
148
102
{ACAD_REACTORS
330
C
102
}
330
C
100
AcDbDictionary
281
     1
  0
DICTIONARY
  5
2A
102
{ACAD_REACTORS
330
C
102
}
330
C
100
AcDbDictionary
281
     1
  3
2dWireframe
350
2F
  3
3D Hidden
350
31
  3
3dWireframe
350
30
  3
Basic
350
32
  3
Brighten
350
36
  3
ColorChange
350
3A
  3
Conceptual
350
34
  3
Dim
350
35
  3
Facepattern
350
39
  3
Flat
350
2B
  3
FlatWithEdges
350
2C
  3
Gouraud
350
2D
  3
GouraudWithEdges
350
2E
  3
Linepattern
350
38
  3
Realistic
350
33
  3
Thicken
350
37
  0
DICTIONARY
  5
146
102
{ACAD_REACTORS
330
C
102
}
330
C
100
AcDbDictionary
281
     1
  3
CANNOSCALE
350
147
  3
PSOLHEIGHT
350
14B
  3
PSOLWIDTH
350
14A
  0
LAYOUT
  5
1E
102
{ACAD_REACTORS
330
1A
102
}
330
1A
100
AcDbPlotSettings
  1

  2
none_device
  4

  6

 40
0.0
 41
0.0
 42
0.0
 43
0.0
 44
0.0
 45
0.0
 46
0.0
 47
0.0
 48
0.0
 49
0.0
140
0.0
141
0.0
142
1.0
143
1.0
 70
   688
 72
     0
 73
     0
 74
     5
  7

 75
    16
147
1.0
148
0.0
149
0.0
100
AcDbLayout
  1
Layout1
 70
     1
 71
     1
 10
0.0
 20
0.0
 11
1682.0
 21
2378.0
 12
0.0
 22
0.0
 32
0.0
 14
0.0
 24
0.0
 34
0.0
 15
1682.0
 25
2378.0
 35
0.0
146
0.0
 13
0.0
 23
0.0
 33
0.0
 16
1.0
 26
0.0
 36
0.0
 17
0.0
 27
1.0
 37
0.0
 76
     0
330
1B
  0
LAYOUT
  5
22
102
{ACAD_REACTORS
330
1A
102
}
330
1A
100
AcDbPlotSettings
  1

  2
none_device
  4

  6

 40
0.0
 41
0.0
 42
0.0
 43
0.0
 44
0.0
 45
0.0
 46
0.0
 47
0.0
 48
0.0
 49
0.0
140
0.0
141
0.0
142
1.0
143
1.0
 70
  1712
 72
     0
 73
     0
 74
     0
  7

 75
     0
147
1.0
148
0.0
149
0.0
100
AcDbLayout
  1
Model
 70
     1
 71
     0
 10
0.0
 20
0.0
 11
1682.0
 21
2378.0
 12
0.0
 22
0.0
 32
0.0
 14
0.0
 24
0.0
 34
0.0
 15
1682.0
 25
2378.0
 35
0.0
146
0.0
 13
0.0
 23
0.0
 33
0.0
 16
1.0
 26
0.0
 36
0.0
 17
0.0
 27
1.0
 37
0.0
 76
     0
330
1F
331
29
  0
MLINESTYLE
  5
18
102
{ACAD_REACTORS
330
17
102
}
330
17
100
AcDbMlineStyle
  2
Standard
 70
     0
  3

 62
   256
 51
90.0
 52
90.0
 71
     2
 49
0.5
 62
   256
  6
BYLAYER
 49
-0.5
 62
   256
  6
BYLAYER
  0
ACDBPLACEHOLDER
  5
F
102
{ACAD_REACTORS
330
E
102
}
330
E
  0
SCALE
  5
3C
102
{ACAD_REACTORS
330
3B
102
}
330
3B
100
AcDbScale
 70
     0
300
1:1
140
1.0
141
1.0
290
     1
  0
SCALE
  5
3D
102
{ACAD_REACTORS
330
3B
102
}
330
3B
100
AcDbScale
 70
     0
300
1:2
140
1.0
141
2.0
290
     0
  0
SCALE
  5
3E
102
{ACAD_REACTORS
330
3B
102
}
330
3B
100
AcDbScale
 70
     0
300
1:4
140
1.0
141
4.0
290
     0
  0
SCALE
  5
3F
102
{ACAD_REACTORS
330
3B
102
}
330
3B
100
AcDbScale
 70
     0
300
1:5
140
1.0
141
5.0
290
     0
  0
SCALE
  5
40
102
{ACAD_REACTORS
330
3B
102
}
330
3B
100
AcDbScale
 70
     0
300
1:8
140
1.0
141
8.0
290
     0
  0
SCALE
  5
41
102
{ACAD_REACTORS
330
3B
102
}
330
3B
100
AcDbScale
 70
     0
300
1:10
140
1.0
141
10.0
290
     0
  0
SCALE
  5
42
102
{ACAD_REACTORS
330
3B
102
}
330
3B
100
AcDbScale
 70
     0
300
1:16
140
1.0
141
16.0
290
     0
  0
SCALE
  5
43
102
{ACAD_REACTORS
330
3B
102
}
330
3B
100
AcDbScale
 70
     0
300
1:20
140
1.0
141
20.0
290
     0
  0
SCALE
  5
44
102
{ACAD_REACTORS
330
3B
102
}
330
3B
100
AcDbScale
 70
     0
300
1:30
140
1.0
141
30.0
290
     0
  0
SCALE
  5
45
102
{ACAD_REACTORS
330
3B
102
}
330
3B
100
AcDbScale
 70
     0
300
1:40
140
1.0
141
40.0
290
     0
  0
SCALE
  5
46
102
{ACAD_REACTORS
330
3B
102
}
330
3B
100
AcDbScale
 70
     0
300
1:50
140
1.0
141
50.0
290
     0
  0
SCALE
  5
47
102
{ACAD_REACTORS
330
3B
102
}
330
3B
100
AcDbScale
 70
     0
300
1:100
140
1.0
141
100.0
290
     0
  0
SCALE
  5
48
102
{ACAD_REACTORS
330
3B
102
}
330
3B
100
AcDbScale
 70
     0
300
2:1
140
2.0
141
1.0
290
     0
  0
SCALE
  5
49
102
{ACAD_REACTORS
330
3B
102
}
330
3B
100
AcDbScale
 70
     0
300
4:1
140
4.0
141
1.0
290
     0
  0
SCALE
  5
4A
102
{ACAD_REACTORS
330
3B
102
}
330
3B
100
AcDbScale
 70
     0
300
8:1
140
8.0
141
1.0
290
     0
  0
SCALE
  5
4B
102
{ACAD_REACTORS
330
3B
102
}
330
3B
100
AcDbScale
 70
     0
300
10:1
140
10.0
141
1.0
290
     0
  0
SCALE
  5
4C
102
{ACAD_REACTORS
330
3B
102
}
330
3B
100
AcDbScale
 70
     0
300
100:1
140
100.0
141
1.0
290
     0
  0
SCALE
  5
4D
102
{ACAD_REACTORS
330
3B
102
}
330
3B
100
AcDbScale
 70
     0
300
1/128" = 1'-0"
140
0.0078125
141
12.0
290
     0
  0
SCALE
  5
4E
102
{ACAD_REACTORS
330
3B
102
}
330
3B
100
AcDbScale
 70
     0
300
1/64" = 1'-0"
140
0.015625
141
12.0
290
     0
  0
SCALE
  5
4F
102
{ACAD_REACTORS
330
3B
102
}
330
3B
100
AcDbScale
 70
     0
300
1/32" = 1'-0"
140
0.03125
141
12.0
290
     0
  0
SCALE
  5
50
102
{ACAD_REACTORS
330
3B
102
}
330
3B
100
AcDbScale
 70
     0
300
1/16" = 1'-0"
140
0.0625
141
12.0
290
     0
  0
SCALE
  5
51
102
{ACAD_REACTORS
330
3B
102
}
330
3B
100
AcDbScale
 70
     0
300
3/32" = 1'-0"
140
0.09375
141
12.0
290
     0
  0
SCALE
  5
52
102
{ACAD_REACTORS
330
3B
102
}
330
3B
100
AcDbScale
 70
     0
300
1/8" = 1'-0"
140
0.125
141
12.0
290
     0
  0
SCALE
  5
53
102
{ACAD_REACTORS
330
3B
102
}
330
3B
100
AcDbScale
 70
     0
300
3/16" = 1'-0"
140
0.1875
141
12.0
290
     0
  0
SCALE
  5
54
102
{ACAD_REACTORS
330
3B
102
}
330
3B
100
AcDbScale
 70
     0
300
1/4" = 1'-0"
140
0.25
141
12.0
290
     0
  0
SCALE
  5
55
102
{ACAD_REACTORS
330
3B
102
}
330
3B
100
AcDbScale
 70
     0
300
3/8" = 1'-0"
140
0.375
141
12.0
290
     0
  0
SCALE
  5
56
102
{ACAD_REACTORS
330
3B
102
}
330
3B
100
AcDbScale
 70
     0
300
1/2" = 1'-0"
140
0.5
141
12.0
290
     0
  0
SCALE
  5
57
102
{ACAD_REACTORS
330
3B
102
}
330
3B
100
AcDbScale
 70
     0
300
3/4" = 1'-0"
140
0.75
141
12.0
290
     0
  0
SCALE
  5
58
102
{ACAD_REACTORS
330
3B
102
}
330
3B
100
AcDbScale
 70
     0
300
1" = 1'-0"
140
1.0
141
12.0
290
     0
  0
SCALE
  5
59
102
{ACAD_REACTORS
330
3B
102
}
330
3B
100
AcDbScale
 70
     0
300
1-1/2" = 1'-0"
140
1.5
141
12.0
290
     0
  0
SCALE
  5
5A
102
{ACAD_REACTORS
330
3B
102
}
330
3B
100
AcDbScale
 70
     0
300
3" = 1'-0"
140
3.0
141
12.0
290
     0
  0
SCALE
  5
5B
102
{ACAD_REACTORS
330
3B
102
}
330
3B
100
AcDbScale
 70
     0
300
6" = 1'-0"
140
6.0
141
12.0
290
     0
  0
SCALE
  5
5C
102
{ACAD_REACTORS
330
3B
102
}
330
3B
100
AcDbScale
 70
     0
300
1'-0" = 1'-0"
140
12.0
141
12.0
290
     0
  0
VISUALSTYLE
  5
2F
102
{ACAD_REACTORS
330
2A
102
}
330
2A
100
AcDbVisualStyle
  2
2dWireframe
 70
     4
 71
     0
 72
     2
 73
     0
 90
        0
 40
-0.6
 41
-30.0
 62
     5
 63
     7
 74
     1
 91
        4
 64
     7
 65
   257
 75
     1
175
     1
 42
1.0
 92
        0
 66
   257
 43
1.0
 76
     1
 77
     6
 78
     2
 67
     7
 79
     5
170
     0
171
     0
290
     0
174
     0
 93
        1
 44
0.0
173
     0
291
     0
 45
0.0
1001
ACAD
1000
AcDbSavedByObjectVersion
1070
     0
  0
VISUALSTYLE
  5
31
102
{ACAD_REACTORS
330
2A
102
}
330
2A
100
AcDbVisualStyle
  2
3D Hidden
 70
     6
 71
     1
 72
     2
 73
     2
 90
        0
 40
-0.6
 41
-30.0
 62
     5
 63
     7
 74
     2
 91
        2
 64
     7
 65
   257
 75
     2
175
     1
 42
40.0
 92
        0
 66
   257
 43
1.0
 76
     1
 77
     6
 78
     2
 67
     7
 79
     3
170
     0
171
     0
290
     0
174
     0
 93
        1
 44
0.0
173
     0
291
     0
 45
0.0
1001
ACAD
1000
AcDbSavedByObjectVersion
1070
     0
  0
VISUALSTYLE
  5
30
102
{ACAD_REACTORS
330
2A
102
}
330
2A
100
AcDbVisualStyle
  2
3dWireframe
 70
     5
 71
     0
 72
     2
 73
     0
 90
        0
 40
-0.6
 41
-30.0
 62
     5
 63
     7
 74
     1
 91
        4
 64
     7
 65
   257
 75
     1
175
     1
 42
1.0
 92
        0
 66
   257
 43
1.0
 76
     1
 77
     6
 78
     2
 67
     7
 79
     5
170
     0
171
     0
290
     0
174
     0
 93
        1
 44
0.0
173
     0
291
     0
 45
0.0
1001
ACAD
1000
AcDbSavedByObjectVersion
1070
     0
  0
VISUALSTYLE
  5
32
102
{ACAD_REACTORS
330
2A
102
}
330
2A
100
AcDbVisualStyle
  2
Basic
 70
     7
 71
     1
 72
     0
 73
     1
 90
        0
 40
-0.6
 41
-30.0
 62
     5
 63
     7
 74
     0
 91
        4
 64
     7
 65
   257
 75
     1
175
     1
 42
1.0
 92
        8
 66
     7
 43
1.0
 76
     1
 77
     6
 78
     2
 67
     7
 79
     5
170
     0
171
     0
290
     0
174
     0
 93
        1
 44
0.0
173
     0
291
     1
 45
0.0
1001
ACAD
1000
AcDbSavedByObjectVersion
1070
     0
  0
VISUALSTYLE
  5
36
102
{ACAD_REACTORS
330
2A
102
}
330
2A
100
AcDbVisualStyle
  2
Brighten
 70
    12
 71
     2
 72
     2
 73
     0
 90
        0
 40
-0.6
 41
-30.0
 62
     5
 63
     7
 74
     1
 91
        4
 64
     7
 65
   257
 75
     1
175
     1
 42
1.0
 92
        8
 66
     7
 43
1.0
 76
     1
 77
     6
 78
     2
 67
     7
 79
     5
170
     0
171
     0
290
     0
174
     0
 93
        1
 44
50.0
173
     0
291
     1
 45
0.0
1001
ACAD
1000
AcDbSavedByObjectVersion
1070
     0
  0
VISUALSTYLE
  5
3A
102
{ACAD_REACTORS
330
2A
102
}
330
2A
100
AcDbVisualStyle
  2
ColorChange
 70
    16
 71
     2
 72
     2
 73
     3
 90
        0
 40
-0.6
 41
-30.0
 62
     5
 63
     8
 74
     1
 91
        4
 64
     7
 65
   257
 75
     1
175
     1
 42
1.0
 92
        8
 66
     8
 43
1.0
 76
     1
 77
     6
 78
     2
 67
     7
 79
     5
170
     0
171
     0
290
     0
174
     0
 93
        1
 44
0.0
173
     0
291
     1
 45
0.0
1001
ACAD
1000
AcDbSavedByObjectVersion
1070
     0
  0
VISUALSTYLE
  5
34
102
{ACAD_REACTORS
330
2A
102
}
330
2A
100
AcDbVisualStyle
  2
Conceptual
 70
     9
 71
     3
 72
     2
 73
     0
 90
        0
 40
-0.6
 41
-30.0
 62
     5
 63
     7
 74
     2
 91
        2
 64
     7
 65
   257
 75
     1
175
     1
 42
40.0
 92
        8
 66
     7
 43
1.0
 76
     1
 77
     6
 78
     2
 67
     7
 79
     3
170
     0
171
     0
290
     0
174
     0
 93
        1
 44
0.0
173
     0
291
     0
 45
0.0
1001
ACAD
1000
AcDbSavedByObjectVersion
1070
     0
  0
VISUALSTYLE
  5
35
102
{ACAD_REACTORS
330
2A
102
}
330
2A
100
AcDbVisualStyle
  2
Dim
 70
    11
 71
     2
 72
     2
 73
     0
 90
        0
 40
-0.6
 41
-30.0
 62
     5
 63
     7
 74
     1
 91
        4
 64
     7
 65
   257
 75
     1
175
     1
 42
1.0
 92
        8
 66
     7
 43
1.0
 76
     1
 77
     6
 78
     2
 67
     7
 79
     5
170
     0
171
     0
290
     0
174
     0
 93
        1
 44
-50.0
173
     0
291
     1
 45
0.0
1001
ACAD
1000
AcDbSavedByObjectVersion
1070
     0
  0
VISUALSTYLE
  5
39
102
{ACAD_REACTORS
330
2A
102
}
330
2A
100
AcDbVisualStyle
  2
Facepattern
 70
    15
 71
     2
 72
     2
 73
     0
 90
        0
 40
-0.6
 41
-30.0
 62
     5
 63
     7
 74
     1
 91
        4
 64
     7
 65
   257
 75
     1
175
     1
 42
1.0
 92
        8
 66
     7
 43
1.0
 76
     1
 77
     6
 78
     2
 67
     7
 79
     5
170
     0
171
     0
290
     0
174
     0
 93
        1
 44
0.0
173
     0
291
     1
 45
0.0
1001
ACAD
1000
AcDbSavedByObjectVersion
1070
     0
  0
VISUALSTYLE
  5
2B
102
{ACAD_REACTORS
330
2A
102
}
330
2A
100
AcDbVisualStyle
  2
Flat
 70
     0
 71
     2
 72
     1
 73
     1
 90
        2
 40
-0.6
 41
30.0
 62
     5
 63
     7
 74
     0
 91
        4
 64
     7
 65
   257
 75
     1
175
     1
 42
1.0
 92
        8
 66
     7
 43
1.0
 76
     1
 77
     6
 78
     2
 67
     7
 79
     5
170
     0
171
     0
290
     0
174
     0
 93
       13
 44
0.0
173
     0
291
     1
 45
0.0
1001
ACAD
1000
AcDbSavedByObjectVersion
1070
     0
  0
VISUALSTYLE
  5
2C
102
{ACAD_REACTORS
330
2A
102
}
330
2A
100
AcDbVisualStyle
  2
FlatWithEdges
 70
     1
 71
     2
 72
     1
 73
     1
 90
        2
 40
-0.6
 41
30.0
 62
     5
 63
     7
 74
     1
 91
        4
 64
     7
 65
   257
 75
     1
175
     1
 42
1.0
 92
        0
 66
   257
 43
1.0
 76
     1
 77
     6
 78
     2
 67
     7
 79
     5
170
     0
171
     0
290
     0
174
     0
 93
       13
 44
0.0
173
     0
291
     1
 45
0.0
1001
ACAD
1000
AcDbSavedByObjectVersion
1070
     0
  0
VISUALSTYLE
  5
2D
102
{ACAD_REACTORS
330
2A
102
}
330
2A
100
AcDbVisualStyle
  2
Gouraud
 70
     2
 71
     2
 72
     2
 73
     1
 90
        2
 40
-0.6
 41
30.0
 62
     5
 63
     7
 74
     0
 91
        4
 64
     7
 65
   257
 75
     1
175
     1
 42
1.0
 92
        0
 66
     7
 43
1.0
 76
     1
 77
     6
 78
     2
 67
     7
 79
     5
170
     0
171
     0
290
     0
174
     0
 93
       13
 44
0.0
173
     0
291
     1
 45
0.0
1001
ACAD
1000
AcDbSavedByObjectVersion
1070
     0
  0
VISUALSTYLE
  5
2E
102
{ACAD_REACTORS
330
2A
102
}
330
2A
100
AcDbVisualStyle
  2
GouraudWithEdges
 70
     3
 71
     2
 72
     2
 73
     1
 90
        2
 40
-0.6
 41
30.0
 62
     5
 63
     7
 74
     1
 91
        4
 64
     7
 65
   257
 75
     1
175
     1
 42
1.0
 92
        0
 66
   257
 43
1.0
 76
     1
 77
     6
 78
     2
 67
     7
 79
     5
170
     0
171
     0
290
     0
174
     0
 93
       13
 44
0.0
173
     0
291
     1
 45
0.0
1001
ACAD
1000
AcDbSavedByObjectVersion
1070
     0
  0
VISUALSTYLE
  5
38
102
{ACAD_REACTORS
330
2A
102
}
330
2A
100
AcDbVisualStyle
  2
Linepattern
 70
    14
 71
     2
 72
     2
 73
     0
 90
        0
 40
-0.6
 41
-30.0
 62
     5
 63
     7
 74
     1
 91
        4
 64
     7
 65
   257
 75
     7
175
     7
 42
1.0
 92
        8
 66
     7
 43
1.0
 76
     1
 77
     6
 78
     2
 67
     7
 79
     5
170
     0
171
     0
290
     0
174
     0
 93
        1
 44
0.0
173
     0
291
     1
 45
0.0
1001
ACAD
1000
AcDbSavedByObjectVersion
1070
     0
  0
VISUALSTYLE
  5
33
102
{ACAD_REACTORS
330
2A
102
}
330
2A
100
AcDbVisualStyle
  2
Realistic
 70
     8
 71
     2
 72
     2
 73
     0
 90
        0
 40
-0.6
 41
-30.0
 62
     5
 63
     7
 74
     1
 91
        0
 64
     7
 65
   257
 75
     1
175
     1
 42
1.0
 92
        8
 66
     8
 43
1.0
 76
     1
 77
     6
 78
     2
 67
     7
 79
     5
170
     0
171
     0
290
     0
174
     0
 93
       13
 44
0.0
173
     0
291
     0
 45
0.0
1001
ACAD
1000
AcDbSavedByObjectVersion
1070
     0
  0
VISUALSTYLE
  5
37
102
{ACAD_REACTORS
330
2A
102
}
330
2A
100
AcDbVisualStyle
  2
Thicken
 70
    13
 71
     2
 72
     2
 73
     0
 90
        0
 40
-0.6
 41
-30.0
 62
     5
 63
     7
 74
     1
 91
        4
 64
     7
 65
   257
 75
     1
175
     1
 42
1.0
 92
       12
 66
     7
 43
1.0
 76
     1
 77
     6
 78
     2
 67
     7
 79
     5
170
     0
171
     0
290
     0
174
     0
 93
        1
 44
0.0
173
     0
291
     1
 45
0.0
1001
ACAD
1000
AcDbSavedByObjectVersion
1070
     0
  0
DICTIONARYVAR
  5
147
102
{ACAD_REACTORS
330
146
102
}
330
146
100
DictionaryVariables
280
     0
  1
1:1
  0
DICTIONARYVAR
  5
14B
102
{ACAD_REACTORS
330
146
102
}
330
146
100
DictionaryVariables
280
     0
  1
80.000000
  0
DICTIONARYVAR
  5
14A
102
{ACAD_REACTORS
330
146
102
}
330
146
100
DictionaryVariables
280
     0
  1
5.000000
  0
ENDSEC
  0
EOF
