  0
SECTION
  2
HEADER
  9
$ACADVER
  1
AC1015
  9
$ACADMAINTVER
 70
     6
  9
$DWGCODEPAGE
  3
ANSI_1252
  9
$INSBASE
 10
0.0
 20
0.0
 30
0.0
  9
$EXTMIN
 10
0.0
 20
0.0
 30
0.0
  9
$EXTMAX
 10
1682.0
 20
2378.0
 30
0.0
  9
$LIMMIN
 10
0.0
 20
0.0
  9
$LIMMAX
 10
1682.0
 20
2378.0
  9
$ORTHOMODE
 70
     0
  9
$REGENMODE
 70
     1
  9
$FILLMODE
 70
     1
  9
$QTEXTMODE
 70
     0
  9
$MIRRTEXT
 70
     1
  9
$LTSCALE
 40
1.0
  9
$ATTMODE
 70
     1
  9
$TEXTSIZE
 40
2.5
  9
$TRACEWID
 40
1.0
  9
$TEXTSTYLE
  7
Standard
  9
$CLAYER
  8
0
  9
$CELTYPE
  6
ByLayer
  9
$CECOLOR
 62
   256
  9
$CELTSCALE
 40
1.0
  9
$DISPSILH
 70
     0
  9
$DIMSCALE
 40
1.0
  9
$DIMASZ
 40
2.5
  9
$DIMEXO
 40
0.625
  9
$DIMDLI
 40
3.75
  9
$DIMRND
 40
0.0
  9
$DIMDLE
 40
0.0
  9
$DIMEXE
 40
1.25
  9
$DIMTP
 40
0.0
  9
$DIMTM
 40
0.0
  9
$DIMTXT
 40
2.5
  9
$DIMCEN
 40
2.5
  9
$DIMTSZ
 40
0.0
  9
$DIMTOL
 70
     0
  9
$DIMLIM
 70
     0
  9
$DIMTIH
 70
     0
  9
$DIMTOH
 70
     0
  9
$DIMSE1
 70
     0
  9
$DIMSE2
 70
     0
  9
$DIMTAD
 70
     1
  9
$DIMZIN
 70
     8
  9
$DIMBLK
  1

  9
$DIMASO
 70
     1
  9
$DIMSHO
 70
     1
  9
$DIMPOST
  1

  9
$DIMAPOST
  1

  9
$DIMALT
 70
     0
  9
$DIMALTD
 70
     3
  9
$DIMALTF
 40
0.0393700787
  9
$DIMLFAC
 40
1.0
  9
$DIMTOFL
 70
     1
  9
$DIMTVP
 40
0.0
  9
$DIMTIX
 70
     0
  9
$DIMSOXD
 70
     0
  9
$DIMSAH
 70
     0
  9
$DIMBLK1
  1

  9
$DIMBLK2
  1

  9
$DIMSTYLE
  2
ISO-25
  9
$DIMCLRD
 70
     0
  9
$DIMCLRE
 70
     0
  9
$DIMCLRT
 70
     0
  9
$DIMTFAC
 40
1.0
  9
$DIMGAP
 40
0.625
  9
$DIMJUST
 70
     0
  9
$DIMSD1
 70
     0
  9
$DIMSD2
 70
     0
  9
$DIMTOLJ
 70
     0
  9
$DIMTZIN
 70
     8
  9
$DIMALTZ
 70
     0
  9
$DIMALTTZ
 70
     0
  9
$DIMUPT
 70
     0
  9
$DIMDEC
 70
     2
  9
$DIMTDEC
 70
     2
  9
$DIMALTU
 70
     2
  9
$DIMALTTD
 70
     3
  9
$DIMTXSTY
  7
Standard
  9
$DIMAUNIT
 70
     0
  9
$DIMADEC
 70
     0
  9
$DIMALTRND
 40
0.0
  9
$DIMAZIN
 70
     0
  9
$DIMDSEP
 70
    44
  9
$DIMATFIT
 70
     3
  9
$DIMFRAC
 70
     0
  9
$DIMLDRBLK
  1

  9
$DIMLUNIT
 70
     2
  9
$DIMLWD
 70
    -2
  9
$DIMLWE
 70
    -2
  9
$DIMTMOVE
 70
     0
  9
$LUNITS
 70
     2
  9
$LUPREC
 70
     4
  9
$SKETCHINC
 40
1.0
  9
$FILLETRAD
 40
10.0
  9
$AUNITS
 70
     0
  9
$AUPREC
 70
     0
  9
$MENU
  1
.
  9
$ELEVATION
 40
0.0
  9
$PELEVATION
 40
0.0
  9
$THICKNESS
 40
0.0
  9
$LIMCHECK
 70
     0
  9
$CHAMFERA
 40
10.0
  9
$CHAMFERB
 40
10.0
  9
$CHAMFERC
 40
20.0
  9
$CHAMFERD
 40
0.0
  9
$SKPOLY
 70
     0
  9
$TDCREATE
 40
2455225.639241586
  9
$TDUCREATE
 40
2455225.597574919
  9
$TDUPDATE
 40
2455225.639241597
  9
$TDUUPDATE
 40
2455225.597574931
  9
$TDINDWG
 40
0.0000000116
  9
$TDUSRTIMER
 40
0.0000000116
  9
$USRTIMER
 70
     1
  9
$ANGBASE
 50
0.0
  9
$ANGDIR
 70
     0
  9
$PDMODE
 70
     0
  9
$PDSIZE
 40
0.0
  9
$PLINEWID
 40
0.0
  9
$SPLFRAME
 70
     0
  9
$SPLINETYPE
 70
     6
  9
$SPLINESEGS
 70
     8
  9
$HANDSEED
  5
1D1
  9
$SURFTAB1
 70
     6
  9
$SURFTAB2
 70
     6
  9
$SURFTYPE
 70
     6
  9
$SURFU
 70
     6
  9
$SURFV
 70
     6
  9
$UCSBASE
  2

  9
$UCSNAME
  2

  9
$UCSORG
 10
0.0
 20
0.0
 30
0.0
  9
$UCSXDIR
 10
1.0
 20
0.0
 30
0.0
  9
$UCSYDIR
 10
0.0
 20
1.0
 30
0.0
  9
$UCSORTHOREF
  2

  9
$UCSORTHOVIEW
 70
     0
  9
$UCSORGTOP
 10
0.0
 20
0.0
 30
0.0
  9
$UCSORGBOTTOM
 10
0.0
 20
0.0
 30
0.0
  9
$UCSORGLEFT
 10
0.0
 20
0.0
 30
0.0
  9
$UCSORGRIGHT
 10
0.0
 20
0.0
 30
0.0
  9
$UCSORGFRONT
 10
0.0
 20
0.0
 30
0.0
  9
$UCSORGBACK
 10
0.0
 20
0.0
 30
0.0
  9
$PUCSBASE
  2

  9
$PUCSNAME
  2

  9
$PUCSORG
 10
0.0
 20
0.0
 30
0.0
  9
$PUCSXDIR
 10
1.0
 20
0.0
 30
0.0
  9
$PUCSYDIR
 10
0.0
 20
1.0
 30
0.0
  9
$PUCSORTHOREF
  2

  9
$PUCSORTHOVIEW
 70
     0
  9
$PUCSORGTOP
 10
0.0
 20
0.0
 30
0.0
  9
$PUCSORGBOTTOM
 10
0.0
 20
0.0
 30
0.0
  9
$PUCSORGLEFT
 10
0.0
 20
0.0
 30
0.0
  9
$PUCSORGRIGHT
 10
0.0
 20
0.0
 30
0.0
  9
$PUCSORGFRONT
 10
0.0
 20
0.0
 30
0.0
  9
$PUCSORGBACK
 10
0.0
 20
0.0
 30
0.0
  9
$USERI1
 70
     0
  9
$USERI2
 70
     0
  9
$USERI3
 70
     0
  9
$USERI4
 70
     0
  9
$USERI5
 70
     0
  9
$USERR1
 40
0.0
  9
$USERR2
 40
0.0
  9
$USERR3
 40
0.0
  9
$USERR4
 40
0.0
  9
$USERR5
 40
0.0
  9
$WORLDVIEW
 70
     1
  9
$SHADEDGE
 70
     3
  9
$SHADEDIF
 70
    70
  9
$TILEMODE
 70
     1
  9
$MAXACTVP
 70
    64
  9
$PINSBASE
 10
0.0
 20
0.0
 30
0.0
  9
$PLIMCHECK
 70
     0
  9
$PEXTMIN
 10
0.0
 20
0.0
 30
0.0
  9
$PEXTMAX
 10
1682.0
 20
2378.0
 30
0.0
  9
$PLIMMIN
 10
0.0
 20
0.0
  9
$PLIMMAX
 10
1682.0
 20
2378.0
  9
$UNITMODE
 70
     0
  9
$VISRETAIN
 70
     1
  9
$PLINEGEN
 70
     0
  9
$PSLTSCALE
 70
     1
  9
$TREEDEPTH
 70
  3020
  9
$CMLSTYLE
  2
Standard
  9
$CMLJUST
 70
     0
  9
$CMLSCALE
 40
20.0
  9
$PROXYGRAPHICS
 70
     1
  9
$MEASUREMENT
 70
     1
  9
$CELWEIGHT
370
    -1
  9
$ENDCAPS
280
     0
  9
$JOINSTYLE
280
     0
  9
$LWDISPLAY
290
     0
  9
$INSUNITS
 70
     4
  9
$HYPERLINKBASE
  1

  9
$STYLESHEET
  1

  9
$XEDIT
290
     1
  9
$CEPSNTYPE
380
     0
  9
$PSTYLEMODE
290
     1
  9
$FINGERPRINTGUID
  2
{5D944C52-024D-452B-AFAE-5C0CF3AB521F}
  9
$VERSIONGUID
  2
{FAEB1C32-E019-11D5-929B-00C0DF256EC4}
  9
$EXTNAMES
290
     1
  9
$PSVPSCALE
 40
0.0
  9
$OLESTARTUP
290
     0
  0
ENDSEC
  0
SECTION
  2
CLASSES
  0
CLASS
  1
ACDBDICTIONARYWDFLT
  2
AcDbDictionaryWithDefault
  3
ObjectDBX Classes
 90
        0
280
     0
281
     0
  0
CLASS
  1
VISUALSTYLE
  2
AcDbVisualStyle
  3
ObjectDBX Classes
 90
     4095
280
     0
281
     0
  0
CLASS
  1
SCALE
  2
AcDbScale
  3
ObjectDBX Classes
 90
     1153
280
     0
281
     0
  0
CLASS
  1
DICTIONARYVAR
  2
AcDbDictionaryVar
  3
ObjectDBX Classes
 90
        0
280
     0
281
     0
  0
CLASS
  1
ACDBPLACEHOLDER
  2
AcDbPlaceHolder
  3
ObjectDBX Classes
 90
        0
280
     0
281
     0
  0
CLASS
  1
LAYOUT
  2
AcDbLayout
  3
ObjectDBX Classes
 90
        0
280
     0
281
     0
  0
ENDSEC
  0
SECTION
  2
TABLES
  0
TABLE
  2
VPORT
  5
8
330
0
100
AcDbSymbolTable
 70
     1
  0
VPORT
  5
29
330
8
100
AcDbSymbolTableRecord
100
AcDbViewportTableRecord
  2
*Active
 70
     0
 10
0.0
 20
0.0
 11
1.0
 21
1.0
 12
344.1869158879
 22
148.5
 13
0.0
 23
0.0
 14
10.0
 24
10.0
 15
10.0
 25
10.0
 16
0.0
 26
0.0
 36
1.0
 17
0.0
 27
0.0
 37
0.0
 40
297.0
 41
1.9729729729
 42
50.0
 43
0.0
 44
0.0
 50
0.0
 51
0.0
 71
     0
 72
   100
 73
     1
 74
     3
 75
     0
 76
     0
 77
     0
 78
     0
281
     0
 65
     1
110
0.0
120
0.0
130
0.0
111
1.0
121
0.0
131
0.0
112
0.0
122
1.0
132
0.0
 79
     0
146
0.0
  0
ENDTAB
  0
TABLE
  2
LTYPE
  5
5
330
0
100
AcDbSymbolTable
 70
     2
  0
LTYPE
  5
14
330
5
100
AcDbSymbolTableRecord
100
AcDbLinetypeTableRecord
  2
ByBlock
 70
     0
  3

 72
    65
 73
     0
 40
0.0
  0
LTYPE
  5
15
330
5
100
AcDbSymbolTableRecord
100
AcDbLinetypeTableRecord
  2
ByLayer
 70
     0
  3

 72
    65
 73
     0
 40
0.0
  0
LTYPE
  5
16
330
5
100
AcDbSymbolTableRecord
100
AcDbLinetypeTableRecord
  2
Continuous
 70
     0
  3
Solid line
 72
    65
 73
     0
 40
0.0
  0
LTYPE
  5
83
330
5
100
AcDbSymbolTableRecord
100
AcDbLinetypeTableRecord
  2
CENTER2
 70
     0
  3
Center (.5x) ___ _ ___ _ ___ _ ___ _ ___ _ ___
 72
    65
 73
     4
 40
28.575
 49
19.05
 74
     4
 75
     0
340
0
 46
0.0
 50
0.0
 44
0.0
 45
0.0
 49
-3.175
 74
     4
 75
     0
340
0
 46
0.0
 50
0.0
 44
0.0
 45
0.0
 49
3.175
 74
     4
 75
     0
340
0
 46
0.0
 50
0.0
 44
0.0
 45
0.0
 49
-3.175
 74
     4
 75
     0
340
0
 46
0.0
 50
0.0
 44
0.0
 45
0.0
  0
ENDTAB
  0
TABLE
  2
LAYER
  5
2
330
0
100
AcDbSymbolTable
 70
    14
  0
LAYER
  5
10
330
2
100
AcDbSymbolTableRecord
100
AcDbLayerTableRecord
  2
0
 70
     0
 62
     7
  6
Continuous
370
    -3
390
F
  0
LAYER
  5
5D
330
2
100
AcDbSymbolTableRecord
100
AcDbLayerTableRecord
  2
Default
 70
     0
 62
     7
  6
Continuous
370
    -3
390
F
  0
LAYER
  5
60
330
2
100
AcDbSymbolTableRecord
100
AcDbLayerTableRecord
  2
$DDT_AUDIT_GENERATED_(60)
 70
     0
 62
     7
  6
Continuous
370
    -3
390
F
  0
LAYER
  5
73
330
2
100
AcDbSymbolTableRecord
100
AcDbLayerTableRecord
  2
$DDT_AUDIT_GENERATED_(73)
 70
     0
 62
     7
  6
Continuous
370
    -3
390
F
  0
LAYER
  5
77
330
2
100
AcDbSymbolTableRecord
100
AcDbLayerTableRecord
  2
$DDT_AUDIT_GENERATED_(77)
 70
     0
 62
     7
  6
Continuous
370
    -3
390
F
  0
LAYER
  5
82
330
2
100
AcDbSymbolTableRecord
100
AcDbLayerTableRecord
  2
DV1_Standard
 70
     0
 62
     7
  6
Continuous
370
    -3
390
F
  0
LAYER
  5
AE
330
2
100
AcDbSymbolTableRecord
100
AcDbLayerTableRecord
  2
$DDT_AUDIT_GENERATED_(AE)
 70
     0
 62
     7
  6
Continuous
370
    -3
390
F
  0
LAYER
  5
B6
330
2
100
AcDbSymbolTableRecord
100
AcDbLayerTableRecord
  2
$DDT_AUDIT_GENERATED_(B6)
 70
     0
 62
     7
  6
Continuous
370
    -3
390
F
  0
LAYER
  5
B9
330
2
100
AcDbSymbolTableRecord
100
AcDbLayerTableRecord
  2
$DDT_AUDIT_GENERATED_(B9)
 70
     0
 62
     7
  6
Continuous
370
    -3
390
F
  0
LAYER
  5
D6
330
2
100
AcDbSymbolTableRecord
100
AcDbLayerTableRecord
  2
$DDT_AUDIT_GENERATED_(D6)
 70
     0
 62
     7
  6
Continuous
370
    -3
390
F
  0
LAYER
  5
EA
330
2
100
AcDbSymbolTableRecord
100
AcDbLayerTableRecord
  2
$DDT_AUDIT_GENERATED_(EA)
 70
     0
 62
     7
  6
Continuous
370
    -3
390
F
  0
LAYER
  5
106
330
2
100
AcDbSymbolTableRecord
100
AcDbLayerTableRecord
  2
$DDT_AUDIT_GENERATED_(106)
 70
     0
 62
     7
  6
Continuous
370
    -3
390
F
  0
LAYER
  5
115
330
2
100
AcDbSymbolTableRecord
100
AcDbLayerTableRecord
  2
DV2_Standard
 70
     0
 62
     7
  6
Continuous
370
    -3
390
F
  0
LAYER
  5
1B9
330
2
100
AcDbSymbolTableRecord
100
AcDbLayerTableRecord
  2
DV3_Standard
 70
     0
 62
     7
  6
Continuous
370
    -3
390
F
  0
ENDTAB
  0
TABLE
  2
STYLE
  5
3
330
0
100
AcDbSymbolTable
 70
     2
  0
STYLE
  5
11
330
3
100
AcDbSymbolTableRecord
100
AcDbTextStyleTableRecord
  2
Standard
 70
     0
 40
0.0
 41
1.0
 50
0.0
 71
     0
 42
2.5
  3
txt
  4

  0
STYLE
  5
1C0
330
3
100
AcDbSymbolTableRecord
100
AcDbTextStyleTableRecord
  2
SEACAD_seiso_ttf
 70
     0
 40
0.0
 41
1.0
 50
0.0
 71
     0
 42
0.2
  3
seiso.ttf
  4

  0
ENDTAB
  0
TABLE
  2
VIEW
  5
6
330
0
100
AcDbSymbolTable
 70
     0
  0
ENDTAB
  0
TABLE
  2
UCS
  5
7
330
0
100
AcDbSymbolTable
 70
     0
  0
ENDTAB
  0
TABLE
  2
APPID
  5
9
330
0
100
AcDbSymbolTable
 70
     1
  0
APPID
  5
12
330
9
100
AcDbSymbolTableRecord
100
AcDbRegAppTableRecord
  2
ACAD
 70
     0
  0
ENDTAB
  0
TABLE
  2
DIMSTYLE
  5
A
330
0
100
AcDbSymbolTable
 70
     1
100
AcDbDimStyleTable
  0
DIMSTYLE
105
27
330
A
100
AcDbSymbolTableRecord
100
AcDbDimStyleTableRecord
  2
ISO-25
 70
     0
 41
2.5
 42
0.625
 43
3.75
 44
1.25
 73
     0
 74
     0
 77
     1
 78
     8
140
2.5
141
2.5
143
0.0393700787
147
0.625
171
     3
172
     1
271
     2
272
     2
274
     3
278
    44
283
     0
284
     8
340
11
  0
ENDTAB
  0
TABLE
  2
BLOCK_RECORD
  5
1
330
0
100
AcDbSymbolTable
 70
     4
  0
BLOCK_RECORD
  5
1F
330
1
100
AcDbSymbolTableRecord
100
AcDbBlockTableRecord
  2
*Model_Space
340
22
  0
BLOCK_RECORD
  5
1B
330
1
100
AcDbSymbolTableRecord
100
AcDbBlockTableRecord
  2
*Paper_Space
340
1E
  0
BLOCK_RECORD
  5
5E
330
1
100
AcDbSymbolTableRecord
100
AcDbBlockTableRecord
  2
SE
340
0
102
{BLKREFS
331
5F
102
}
  0
BLOCK_RECORD
  5
92
330
1
100
AcDbSymbolTableRecord
100
AcDbBlockTableRecord
  2
SE1
340
0
102
{BLKREFS
331
93
102
}
  0
BLOCK_RECORD
  5
11A
330
1
100
AcDbSymbolTableRecord
100
AcDbBlockTableRecord
  2
SE2
340
0
102
{BLKREFS
331
11B
102
}
  0
ENDTAB
  0
ENDSEC
  0
SECTION
  2
BLOCKS
  0
BLOCK
  5
20
330
1F
100
AcDbEntity
  8
0
100
AcDbBlockBegin
  2
*Model_Space
 70
     0
 10
0.0
 20
0.0
 30
0.0
  3
*Model_Space
  1

  0
ENDBLK
  5
21
330
1F
100
AcDbEntity
  8
0
100
AcDbBlockEnd
  0
BLOCK
  5
1C
330
1B
100
AcDbEntity
 67
     1
  8
0
100
AcDbBlockBegin
  2
*Paper_Space
 70
     0
 10
0.0
 20
0.0
 30
0.0
  3
*Paper_Space
  1

  0
ENDBLK
  5
1D
330
1B
100
AcDbEntity
 67
     1
  8
0
100
AcDbBlockEnd
  0
BLOCK
  5
90
330
5E
100
AcDbEntity
  8
0
100
AcDbBlockBegin
  2
SE
 70
     0
 10
0.0
 20
0.0
 30
0.0
  3
SE
  1

  0
ARC
  5
61
330
5E
100
AcDbEntity
  8
$DDT_AUDIT_GENERATED_(60)
  6
Continuous
 62
     7
100
AcDbCircle
 10
119.21888926
 20
442.7279642561
 30
0.0
 40
28.63881946321209
100
AcDbArc
 50
339.3164492293
 51
339.3195750965
  0
ARC
  5
62
330
5E
100
AcDbEntity
  8
$DDT_AUDIT_GENERATED_(60)
  6
Continuous
 62
     7
100
AcDbCircle
 10
116.3492135194
 20
442.6812222667
 30
0.0
 40
28.49999999999999
100
AcDbArc
 50
39.0883190936
 51
140.9482980066
  0
ARC
  5
63
330
5E
100
AcDbEntity
  8
$DDT_AUDIT_GENERATED_(60)
  6
Continuous
 62
     7
100
AcDbCircle
 10
116.3492135194
 20
442.6812222667
 30
0.0
 40
28.5
100
AcDbArc
 50
309.7468974445
 51
3.8669437856
  0
ARC
  5
64
330
5E
100
AcDbEntity
  8
$DDT_AUDIT_GENERATED_(60)
  6
Continuous
 62
     7
100
AcDbCircle
 10
116.3492135194
 20
442.6812222667
 30
0.0
 40
28.5
100
AcDbArc
 50
176.1583544859
 51
230.3134027721
  0
ARC
  5
65
330
5E
100
AcDbEntity
  8
$DDT_AUDIT_GENERATED_(60)
  6
Continuous
 62
     7
100
AcDbCircle
 10
114.6082615777
 20
441.9962280773
 30
0.0
 40
30.28847354756618
100
AcDbArc
 50
4.9377391882
 51
38.0175236909
  0
ARC
  5
66
330
5E
100
AcDbEntity
  8
$DDT_AUDIT_GENERATED_(60)
  6
Continuous
 62
     7
100
AcDbCircle
 10
118.0838946762
 20
441.9997775188
 30
0.0
 40
30.28168658803603
100
AcDbArc
 50
142.0149164414
 51
175.0917360511
  0
ARC
  5
67
330
5E
100
AcDbEntity
  8
$DDT_AUDIT_GENERATED_(60)
  6
Continuous
 62
     7
100
AcDbCircle
 10
113.4488209648
 20
442.7210467444
 30
0.0
 40
28.60791523219372
100
AcDbArc
 50
200.7257463238
 51
200.7262982342
  0
LINE
  5
68
330
5E
100
AcDbEntity
  8
$DDT_AUDIT_GENERATED_(60)
  6
Continuous
 62
     7
100
AcDbLine
 10
22.4242030673
 20
433.7792678059
 30
0.0
 11
22.4140837286
 21
471.3792664441
 31
0.0
  0
LINE
  5
69
330
5E
100
AcDbEntity
  8
$DDT_AUDIT_GENERATED_(60)
  6
Continuous
 62
     7
100
AcDbLine
 10
210.2757969327
 20
471.4298259222
 30
0.0
 11
210.2859162714
 21
433.829827284
 31
0.0
  0
LINE
  5
6A
330
5E
100
AcDbEntity
  8
$DDT_AUDIT_GENERATED_(60)
  6
Continuous
 62
     7
100
AcDbLine
 10
146.020592682
 20
432.6125314267
 30
0.0
 11
209.0862392725
 21
432.6295043698
 31
0.0
  0
LINE
  5
6B
330
5E
100
AcDbEntity
  8
$DDT_AUDIT_GENERATED_(60)
  6
Continuous
 62
     7
100
AcDbLine
 10
23.6245259814
 20
432.5795908069
 30
0.0
 11
86.6872114939
 21
432.5965629532
 31
0.0
  0
LINE
  5
6C
330
5E
100
AcDbEntity
  8
$DDT_AUDIT_GENERATED_(60)
  6
Continuous
 62
     7
100
AcDbLine
 10
209.0754740186
 20
472.6295029212
 30
0.0
 11
23.6137607275
 21
472.5795893583
 31
0.0
  0
ARC
  5
6D
330
5E
100
AcDbEntity
  8
$DDT_AUDIT_GENERATED_(60)
  6
Continuous
 62
     7
100
AcDbCircle
 10
146.0269480302
 20
427.9806567409
 30
0.0
 40
4.633368044259679
100
AcDbArc
 50
90.179426446
 51
149.4760807755
  0
ARC
  5
6E
330
5E
100
AcDbEntity
  8
$DDT_AUDIT_GENERATED_(60)
  6
Continuous
 62
     7
100
AcDbCircle
 10
86.6242207831
 20
427.6762715678
 30
0.0
 40
4.921031800968094
100
AcDbArc
 50
38.7792912468
 51
89.2088625933
  0
ARC
  5
6F
330
5E
100
AcDbEntity
  8
$DDT_AUDIT_GENERATED_(60)
  6
Continuous
 62
     7
100
AcDbCircle
 10
23.6242030238
 20
433.7795907635
 30
0.0
 40
1.200000000000003
100
AcDbArc
 50
180.0154200906
 51
270.0154200906
  0
ARC
  5
70
330
5E
100
AcDbEntity
  8
$DDT_AUDIT_GENERATED_(60)
  6
Continuous
 62
     7
100
AcDbCircle
 10
23.6140836851
 20
471.3795894018
 30
0.0
 40
1.2
100
AcDbArc
 50
90.0154200906
 51
180.0154200906
  0
ARC
  5
71
330
5E
100
AcDbEntity
  8
$DDT_AUDIT_GENERATED_(60)
  6
Continuous
 62
     7
100
AcDbCircle
 10
209.0757969762
 20
471.4295029646
 30
0.0
 40
1.200000000000003
100
AcDbArc
 50
0.0154200906
 51
90.0154200906
  0
ARC
  5
72
330
5E
100
AcDbEntity
  8
$DDT_AUDIT_GENERATED_(60)
  6
Continuous
 62
     7
100
AcDbCircle
 10
209.0859163149
 20
433.8295043263
 30
0.0
 40
1.2
100
AcDbArc
 50
270.0154200906
 51
0.0154200906
  0
ARC
  5
74
330
5E
100
AcDbEntity
  8
$DDT_AUDIT_GENERATED_(73)
  6
Continuous
 62
     7
100
AcDbCircle
 10
191.35
 20
452.5847520489
 30
0.0
 40
35.0
100
AcDbArc
 50
214.7856124968
 51
0.0
  0
ARC
  5
75
330
5E
100
AcDbEntity
  8
$DDT_AUDIT_GENERATED_(73)
  6
Continuous
 62
     7
100
AcDbCircle
 10
191.35
 20
452.5847520489
 30
0.0
 40
35.0
100
AcDbArc
 50
0.0
 51
145.0857260437
  0
ARC
  5
76
330
5E
100
AcDbEntity
  8
$DDT_AUDIT_GENERATED_(73)
  6
Continuous
 62
     7
100
AcDbCircle
 10
41.35
 20
452.5847520489
 30
0.0
 40
35.0
100
AcDbArc
 50
34.8645466346
 51
325.1647374692
  0
ARC
  5
78
330
5E
100
AcDbEntity
  8
$DDT_AUDIT_GENERATED_(77)
  6
Continuous
 62
     7
100
AcDbCircle
 10
80.0465025925
 20
413.4577801537
 30
0.0
 40
19.56205916516904
100
AcDbArc
 50
27.2330044071
 51
38.7525257884
  0
ARC
  5
79
330
5E
100
AcDbEntity
  8
$DDT_AUDIT_GENERATED_(77)
  6
Continuous
 62
     7
100
AcDbCircle
 10
116.3499999999
 20
442.6139339479
 30
0.0
 40
27.00000000012952
100
AcDbArc
 50
321.2171963804
 51
218.7804695161
  0
ARC
  5
7A
330
5E
100
AcDbEntity
  8
$DDT_AUDIT_GENERATED_(77)
  6
Continuous
 62
     7
100
AcDbCircle
 10
152.6288196422
 20
413.4714179084
 30
0.0
 40
19.53427829195607
100
AcDbArc
 50
141.2365871019
 51
152.605951737
  0
ARC
  5
7B
330
5E
100
AcDbEntity
  8
$DDT_AUDIT_GENERATED_(77)
  6
Continuous
 62
     7
100
AcDbCircle
 10
153.6587561824
 20
413.0472964181
 30
0.0
 40
20.64142737999746
100
AcDbArc
 50
153.1872573483
 51
176.7800127179
  0
ARC
  5
7C
330
5E
100
AcDbEntity
  8
$DDT_AUDIT_GENERATED_(77)
  6
Continuous
 62
     7
100
AcDbCircle
 10
-1368.7619475092
 20
491.0528053555
 30
0.0
 40
1503.776671520753
100
AcDbArc
 50
354.6252922607
 51
357.0707951674
  0
ARC
  5
7D
330
5E
100
AcDbEntity
  8
$DDT_AUDIT_GENERATED_(77)
  6
Continuous
 62
     7
100
AcDbCircle
 10
79.2990218943
 20
413.1266256933
 30
0.0
 40
20.36882059148202
100
AcDbArc
 50
3.0283335283
 51
26.7846660789
  0
SPLINE
  5
7E
330
5E
100
AcDbEntity
  8
$DDT_AUDIT_GENERATED_(77)
  6
Continuous
 62
     7
100
AcDbSpline
210
0.0
220
0.0
230
1.0
 70
     8
 71
     3
 72
    16
 73
    12
 74
     0
 42
0.0000000015692201
 43
0.0000000001
 40
0.0
 40
0.0
 40
0.0
 40
0.0
 40
0.1054629869218514
 40
0.248051693089635
 40
0.4000779211383313
 40
0.5475907167068501
 40
0.6561428261715986
 40
0.7548068973718426
 40
0.8632385770640354
 40
0.9704299706428801
 40
1.0
 40
1.0
 40
1.0
 40
1.0
 10
124.5062987597768
 20
345.5015261201717
 30
0.0
 10
124.7263207382704
 20
345.6112024738727
 30
0.0
 10
125.1634959056049
 20
345.8322517308438
 30
0.0
 10
125.8830334324853
 20
346.3205879967584
 30
0.0
 10
126.6019996318425
 20
346.9170309626996
 30
0.0
 10
127.2017277941788
 20
347.5473025284055
 30
0.0
 10
127.6652777014095
 20
348.1413523169022
 30
0.0
 10
128.0092287424784
 20
348.7202723290062
 30
0.0
 10
128.254940162606
 20
349.3347906311564
 30
0.0
 10
128.3790063467789
 20
349.8577601532712
 30
0.0
 10
128.4053523457221
 20
350.1253939415954
 30
0.0
 10
128.4117224557131
 20
350.1930627636578
 30
0.0
  0
ARC
  5
7F
330
5E
100
AcDbEntity
  8
$DDT_AUDIT_GENERATED_(77)
  6
Continuous
 62
     7
100
AcDbCircle
 10
1607.7969943353
 20
491.4677600546
 30
0.0
 40
1510.126324405551
100
AcDbArc
 50
182.9327632417
 51
185.367936776
  0
ARC
  5
80
330
5E
100
AcDbEntity
  8
$DDT_AUDIT_GENERATED_(77)
  6
Continuous
 62
     7
100
AcDbCircle
 10
116.3488555111
 20
361.0968707808
 30
0.0
 40
17.5939491314918
100
AcDbArc
 50
242.3659969789
 51
297.6127172072
  0
SPLINE
  5
81
330
5E
100
AcDbEntity
  8
$DDT_AUDIT_GENERATED_(77)
  6
Continuous
 62
     7
100
AcDbSpline
210
0.0
220
0.0
230
1.0
 70
     8
 71
     3
 72
    16
 73
    12
 74
     0
 42
0.0000000015716317
 43
0.0000000001
 40
0.0
 40
0.0
 40
0.0
 40
0.0
 40
0.0725474635726234
 40
0.1706213308884948
 40
0.27279783236077
 40
0.3713007068191518
 40
0.476322319290602
 40
0.6015142656847909
 40
0.7402082479882804
 40
0.8884811727209444
 40
1.0
 40
1.0
 40
1.0
 40
1.0
 10
104.2897629194571
 20
350.1917822794926
 30
0.0
 10
104.3077323494395
 20
350.0254017867667
 30
0.0
 10
104.3463754556531
 20
349.6936867896991
 30
0.0
 10
104.5166160937506
 20
349.1268513233999
 30
0.0
 10
104.7791320772289
 20
348.553905365221
 30
0.0
 10
105.1343117295993
 20
348.0088777034291
 30
0.0
 10
105.5697103617714
 20
347.464389003727
 30
0.0
 10
106.1184505936011
 20
346.9032259486515
 30
0.0
 10
106.7838506798694
 20
346.3433945573727
 30
0.0
 10
107.4972440401319
 20
345.8533794541768
 30
0.0
 10
107.9529002961725
 20
345.6194731480717
 30
0.0
 10
108.1845990080123
 20
345.5023547795614
 30
0.0
  0
LINE
  5
84
330
5E
100
AcDbEntity
  8
DV1_Standard
  6
CENTER2
 62
     7
100
AcDbLine
 10
61.349999553
 20
452.5847520489
 30
0.0
 11
21.350000447
 21
452.5847520489
 31
0.0
  0
LINE
  5
85
330
5E
100
AcDbEntity
  8
DV1_Standard
  6
CENTER2
 62
     7
100
AcDbLine
 10
41.35
 20
472.5847516019
 30
0.0
 11
41.35
 21
432.584752496
 31
0.0
  0
LINE
  5
86
330
5E
100
AcDbEntity
  8
DV1_Standard
  6
CENTER2
 62
     7
100
AcDbLine
 10
66.3499994412
 20
452.5847520489
 30
0.0
 11
79.85
 21
452.5847520489
 31
0.0
  0
LINE
  5
87
330
5E
100
AcDbEntity
  8
DV1_Standard
  6
CENTER2
 62
     7
100
AcDbLine
 10
41.35
 20
477.5847514901
 30
0.0
 11
41.35
 21
491.0847520489
 31
0.0
  0
LINE
  5
88
330
5E
100
AcDbEntity
  8
DV1_Standard
  6
CENTER2
 62
     7
100
AcDbLine
 10
16.3500005588
 20
452.5847520489
 30
0.0
 11
2.85
 21
452.5847520489
 31
0.0
  0
LINE
  5
89
330
5E
100
AcDbEntity
  8
DV1_Standard
  6
CENTER2
 62
     7
100
AcDbLine
 10
41.35
 20
427.5847526077
 30
0.0
 11
41.35
 21
414.0847520489
 31
0.0
  0
LINE
  5
8A
330
5E
100
AcDbEntity
  8
DV1_Standard
  6
CENTER2
 62
     7
100
AcDbLine
 10
211.349999553
 20
452.5847520489
 30
0.0
 11
171.350000447
 21
452.5847520489
 31
0.0
  0
LINE
  5
8B
330
5E
100
AcDbEntity
  8
DV1_Standard
  6
CENTER2
 62
     7
100
AcDbLine
 10
191.35
 20
472.5847516019
 30
0.0
 11
191.35
 21
432.584752496
 31
0.0
  0
LINE
  5
8C
330
5E
100
AcDbEntity
  8
DV1_Standard
  6
CENTER2
 62
     7
100
AcDbLine
 10
216.3499994412
 20
452.5847520489
 30
0.0
 11
229.85
 21
452.5847520489
 31
0.0
  0
LINE
  5
8D
330
5E
100
AcDbEntity
  8
DV1_Standard
  6
CENTER2
 62
     7
100
AcDbLine
 10
191.35
 20
477.5847514901
 30
0.0
 11
191.35
 21
491.0847520489
 31
0.0
  0
LINE
  5
8E
330
5E
100
AcDbEntity
  8
DV1_Standard
  6
CENTER2
 62
     7
100
AcDbLine
 10
166.3500005588
 20
452.5847520489
 30
0.0
 11
152.85
 21
452.5847520489
 31
0.0
  0
LINE
  5
8F
330
5E
100
AcDbEntity
  8
DV1_Standard
  6
CENTER2
 62
     7
100
AcDbLine
 10
191.35
 20
427.5847526077
 30
0.0
 11
191.35
 21
414.0847520489
 31
0.0
  0
ENDBLK
  5
91
330
5E
100
AcDbEntity
  8
0
100
AcDbBlockEnd
  0
BLOCK
  5
118
330
92
100
AcDbEntity
  8
0
100
AcDbBlockBegin
  2
SE1
 70
     0
 10
0.0
 20
0.0
 30
0.0
  3
SE1
  1

  0
LINE
  5
94
330
92
100
AcDbEntity
  8
$DDT_AUDIT_GENERATED_(60)
  6
Continuous
 62
     7
100
AcDbLine
 10
390.0680622906
 20
414.9812222667
 30
0.0
 11
390.0680622906
 21
470.3812222667
 31
0.0
  0
LINE
  5
95
330
92
100
AcDbEntity
  8
$DDT_AUDIT_GENERATED_(60)
  6
Continuous
 62
     7
100
AcDbLine
 10
352.2606107342
 20
434.7641425936
 30
0.0
 11
352.2606107342
 21
437.9717361242
 31
0.0
  0
LINE
  5
96
330
92
100
AcDbEntity
  8
$DDT_AUDIT_GENERATED_(60)
  6
Continuous
 62
     7
100
AcDbLine
 10
352.2606107342
 20
434.7641427444
 30
0.0
 11
352.2606107342
 21
416.1812232741
 31
0.0
  0
ARC
  5
97
330
92
100
AcDbEntity
  8
$DDT_AUDIT_GENERATED_(60)
  6
Continuous
 62
     7
100
AcDbCircle
 10
354.2606013899
 20
440.6504758424
 30
0.0
 40
1.999990655777781
100
AcDbArc
 50
179.9998476027
 51
221.5786386446
  0
ARC
  5
98
330
92
100
AcDbEntity
  8
$DDT_AUDIT_GENERATED_(60)
  6
Continuous
 62
     7
100
AcDbCircle
 10
367.7254451571
 20
452.6295036455
 30
0.0
 40
20.00000038967908
100
AcDbArc
 50
39.7982300326
 51
136.3227744508
  0
ARC
  5
99
330
92
100
AcDbEntity
  8
$DDT_AUDIT_GENERATED_(60)
  6
Continuous
 62
     7
100
AcDbCircle
 10
367.7254451571
 20
452.5795900826
 30
0.0
 40
20.00000038968205
100
AcDbArc
 50
223.6772255491
 51
136.3227744508
  0
ARC
  5
9A
330
92
100
AcDbEntity
  8
$DDT_AUDIT_GENERATED_(60)
  6
Continuous
 62
     7
100
AcDbCircle
 10
364.0706104987
 20
387.2754063477
 30
0.0
 40
28.45145749362349
100
AcDbArc
 50
71.0274479007
 51
108.9725468769
  0
LINE
  5
9B
330
92
100
AcDbEntity
  8
$DDT_AUDIT_GENERATED_(60)
  6
Continuous
 62
     7
100
AcDbLine
 10
352.7645181334
 20
465.8919671178
 30
0.0
 11
353.2606107342
 21
466.4310306087
 31
0.0
  0
ARC
  5
9C
330
92
100
AcDbEntity
  8
$DDT_AUDIT_GENERATED_(60)
  6
Continuous
 62
     7
100
AcDbCircle
 10
354.2611269016
 20
464.5644780853
 30
0.0
 40
2.000516167478041
100
AcDbArc
 50
138.4270374214
 51
180.000391773
  0
ARC
  5
9D
330
92
100
AcDbEntity
  8
$DDT_AUDIT_GENERATED_(60)
  6
Continuous
 62
     7
100
AcDbCircle
 10
354.2611153849
 20
440.6446179578
 30
0.0
 40
2.000504650847776
100
AcDbArc
 50
179.9995082568
 51
221.5730883047
  0
LINE
  5
9E
330
92
100
AcDbEntity
  8
$DDT_AUDIT_GENERATED_(60)
  6
Continuous
 62
     7
100
AcDbLine
 10
352.7645181334
 20
465.8629941413
 30
0.0
 11
353.2606107342
 21
466.4018702672
 31
0.0
  0
LINE
  5
9F
330
92
100
AcDbEntity
  8
$DDT_AUDIT_GENERATED_(60)
  6
Continuous
 62
     7
100
AcDbLine
 10
353.2606107342
 20
438.7780701936
 30
0.0
 11
352.7645181334
 21
439.3171332969
 31
0.0
  0
ARC
  5
A0
330
92
100
AcDbEntity
  8
$DDT_AUDIT_GENERATED_(60)
  6
Continuous
 62
     7
100
AcDbCircle
 10
354.2600966179
 20
464.5358962564
 30
0.0
 40
1.999485883766497
100
AcDbArc
 50
138.4158318749
 51
179.9996095254
  0
LINE
  5
A1
330
92
100
AcDbEntity
  8
$DDT_AUDIT_GENERATED_(60)
  6
Continuous
 62
     7
100
AcDbLine
 10
353.2606107342
 20
438.7676901154
 30
0.0
 11
353.2606107342
 21
439.7464908712
 31
0.0
  0
LINE
  5
A2
330
92
100
AcDbEntity
  8
$DDT_AUDIT_GENERATED_(60)
  6
Continuous
 62
     7
100
AcDbLine
 10
353.2606107342
 20
439.7464908712
 30
0.0
 11
353.2606107342
 21
440.6336343213
 31
0.0
  0
LINE
  5
A3
330
92
100
AcDbEntity
  8
$DDT_AUDIT_GENERATED_(60)
  6
Continuous
 62
     7
100
AcDbLine
 10
353.2606107342
 20
440.6336343213
 30
0.0
 11
353.2606107342
 21
464.5249089629
 31
0.0
  0
LINE
  5
A4
330
92
100
AcDbEntity
  8
$DDT_AUDIT_GENERATED_(60)
  6
Continuous
 62
     7
100
AcDbLine
 10
353.2606107342
 20
464.5249089629
 30
0.0
 11
353.2606107342
 21
465.4121116128
 31
0.0
  0
LINE
  5
A5
330
92
100
AcDbEntity
  8
$DDT_AUDIT_GENERATED_(60)
  6
Continuous
 62
     7
100
AcDbLine
 10
353.2606107342
 20
465.4121116128
 30
0.0
 11
353.2606107342
 21
466.3914900499
 31
0.0
  0
LINE
  5
A6
330
92
100
AcDbEntity
  8
$DDT_AUDIT_GENERATED_(60)
  6
Continuous
 62
     7
100
AcDbLine
 10
389.2680622906
 20
471.1812222667
 30
0.0
 11
380.0726145509
 21
471.1812222667
 31
0.0
  0
ARC
  5
A7
330
92
100
AcDbEntity
  8
$DDT_AUDIT_GENERATED_(60)
  6
Continuous
 62
     7
100
AcDbCircle
 10
389.2680622906
 20
470.3812222667
 30
0.0
 40
0.800000000000002
100
AcDbArc
 50
0.0
 51
90.0
  0
ARC
  5
A8
330
92
100
AcDbEntity
  8
$DDT_AUDIT_GENERATED_(60)
  6
Continuous
 62
     7
100
AcDbCircle
 10
389.2680622906
 20
414.9812222667
 30
0.0
 40
0.800000000000002
100
AcDbArc
 50
270.0
 51
0.0
  0
LINE
  5
A9
330
92
100
AcDbEntity
  8
$DDT_AUDIT_GENERATED_(60)
  6
Continuous
 62
     7
100
AcDbLine
 10
387.7254441406
 20
452.5795900827
 30
0.0
 11
387.7254441406
 21
452.5965006923
 31
0.0
  0
LINE
  5
AA
330
92
100
AcDbEntity
  8
$DDT_AUDIT_GENERATED_(60)
  6
Continuous
 62
     7
100
AcDbLine
 10
373.2911226574
 20
414.1812222667
 30
0.0
 11
389.2680622906
 21
414.1812222667
 31
0.0
  0
LINE
  5
AB
330
92
100
AcDbEntity
  8
$DDT_AUDIT_GENERATED_(60)
  6
Continuous
 62
     7
100
AcDbLine
 10
354.2606107342
 20
414.1812222667
 30
0.0
 11
354.853787279
 21
414.1812222667
 31
0.0
  0
SPLINE
  5
AC
330
92
100
AcDbEntity
  8
$DDT_AUDIT_GENERATED_(60)
  6
Continuous
 62
     7
100
AcDbSpline
210
0.0
220
0.0
230
1.0
 70
     8
 71
     3
 72
    19
 73
    15
 74
     0
 42
0.0000000004576624
 43
0.0000000001
 40
0.0
 40
0.0
 40
0.0
 40
0.0
 40
0.0583753577052218
 40
0.1027417102872533
 40
0.1244906972286559
 40
0.1418779370022957
 40
0.1569488635977637
 40
0.1752136836036348
 40
0.1900562317616009
 40
0.20504449175903
 40
0.2221279776438683
 40
0.2428610824975376
 40
0.2683292837910518
 40
0.2961442165251089
 40
0.2961442165251089
 40
0.2961442165251089
 40
0.2961442165251089
 10
380.0793119860987
 20
471.1812130831348
 30
0.0
 10
379.4787783189537
 20
471.1883884543778
 30
0.0
 10
378.591821996354
 20
471.2016006597052
 30
0.0
 10
377.4081905079839
 20
471.2810612859029
 30
0.0
 10
376.6328707868555
 20
471.353174890428
 30
0.0
 10
376.1285150543272
 20
471.4083019515472
 30
0.0
 10
375.6572974220979
 20
471.4661686771813
 30
0.0
 10
375.2120676942896
 20
471.5269262552748
 30
0.0
 10
374.7629019046897
 20
471.5946820244358
 30
0.0
 10
374.3815526932425
 20
471.6566856810522
 30
0.0
 10
374.0692575939784
 20
471.7092784610116
 30
0.0
 10
373.8295074078974
 20
471.7487345889577
 30
0.0
 10
373.6808134633646
 20
471.7691384733093
 30
0.0
 10
373.6490707820395
 20
471.7676766884099
 30
0.0
 10
373.6487737677708
 20
471.763088019672
 30
0.0
  0
ARC
  5
AD
330
92
100
AcDbEntity
  8
$DDT_AUDIT_GENERATED_(60)
  6
Continuous
 62
     7
100
AcDbCircle
 10
354.2606107342
 20
416.1812222667
 30
0.0
 40
2.0
100
AcDbArc
 50
180.0
 51
270.0
  0
LINE
  5
AF
330
92
100
AcDbEntity
  8
$DDT_AUDIT_GENERATED_(AE)
  6
Continuous
 62
     7
100
AcDbLine
 10
423.5680622906
 20
467.871415316
 30
0.0
 11
423.5680622906
 21
417.4910292174
 31
0.0
  0
ARC
  5
B0
330
92
100
AcDbEntity
  8
$DDT_AUDIT_GENERATED_(AE)
  6
Continuous
 62
     7
100
AcDbCircle
 10
415.4680622906
 20
442.6812222667
 30
0.0
 40
26.3
100
AcDbArc
 50
37.7158076108
 51
72.0621734783
  0
ARC
  5
B1
330
92
100
AcDbEntity
  8
$DDT_AUDIT_GENERATED_(AE)
  6
Continuous
 62
     7
100
AcDbCircle
 10
415.4680622906
 20
442.6812222667
 30
0.0
 40
26.3
100
AcDbArc
 50
287.9378265217
 51
293.3013790739
  0
LINE
  5
B2
330
92
100
AcDbEntity
  8
$DDT_AUDIT_GENERATED_(AE)
  6
Continuous
 62
     7
100
AcDbLine
 10
390.0680622906
 20
416.7030383169
 30
0.0
 11
423.0724253345
 21
416.9910482539
 31
0.0
  0
LINE
  5
B3
330
92
100
AcDbEntity
  8
$DDT_AUDIT_GENERATED_(AE)
  6
Continuous
 62
     7
100
AcDbLine
 10
423.0724253345
 20
468.3713962795
 30
0.0
 11
390.0680622906
 21
468.6594062164
 31
0.0
  0
ARC
  5
B4
330
92
100
AcDbEntity
  8
$DDT_AUDIT_GENERATED_(AE)
  6
Continuous
 62
     7
100
AcDbCircle
 10
423.0680622906
 20
467.871415316
 30
0.0
 40
0.5000000000000004
100
AcDbArc
 50
0.0
 51
89.500025649
  0
ARC
  5
B5
330
92
100
AcDbEntity
  8
$DDT_AUDIT_GENERATED_(AE)
  6
Continuous
 62
     7
100
AcDbCircle
 10
423.0680622906
 20
417.4910292174
 30
0.0
 40
0.5000000000000013
100
AcDbArc
 50
270.499974351
 51
0.0
  0
LINE
  5
B7
330
92
100
AcDbEntity
  8
$DDT_AUDIT_GENERATED_(B6)
  6
Continuous
 62
     7
100
AcDbLine
 10
353.2606129664
 20
463.0847520489
 30
0.0
 11
352.2606129664
 21
463.0847520489
 31
0.0
  0
LINE
  5
B8
330
92
100
AcDbEntity
  8
$DDT_AUDIT_GENERATED_(B6)
  6
Continuous
 62
     7
100
AcDbLine
 10
352.2606129664
 20
442.0847520489
 30
0.0
 11
353.2606129664
 21
442.0847520489
 31
0.0
  0
LINE
  5
BA
330
92
100
AcDbEntity
  8
$DDT_AUDIT_GENERATED_(B9)
  6
Continuous
 62
     7
100
AcDbLine
 10
352.2606129664
 20
438.0847520489
 30
0.0
 11
352.2606129664
 21
467.0847520489
 31
0.0
  0
LINE
  5
BB
330
92
100
AcDbEntity
  8
$DDT_AUDIT_GENERATED_(B9)
  6
Continuous
 62
     7
100
AcDbLine
 10
335.2606129664
 20
438.0847520489
 30
0.0
 11
335.2606129664
 21
467.0847520489
 31
0.0
  0
LINE
  5
BC
330
92
100
AcDbEntity
  8
$DDT_AUDIT_GENERATED_(B9)
  6
Continuous
 62
     7
100
AcDbLine
 10
338.7606129664
 20
468.8347520489
 30
0.0
 11
338.7606129664
 21
468.7001331057
 31
0.0
  0
LINE
  5
BD
330
92
100
AcDbEntity
  8
$DDT_AUDIT_GENERATED_(B9)
  6
Continuous
 62
     7
100
AcDbLine
 10
338.7606129664
 20
462.4501331057
 30
0.0
 11
338.7606129664
 21
458.8347520489
 31
0.0
  0
LINE
  5
BE
330
92
100
AcDbEntity
  8
$DDT_AUDIT_GENERATED_(B9)
  6
Continuous
 62
     7
100
AcDbLine
 10
338.7606129664
 20
446.3347520489
 30
0.0
 11
338.7606129664
 21
442.7193709922
 31
0.0
  0
LINE
  5
BF
330
92
100
AcDbEntity
  8
$DDT_AUDIT_GENERATED_(B9)
  6
Continuous
 62
     7
100
AcDbLine
 10
338.7606129664
 20
436.4693709922
 30
0.0
 11
338.7606129664
 21
436.3347520489
 31
0.0
  0
SPLINE
  5
C0
330
92
100
AcDbEntity
  8
$DDT_AUDIT_GENERATED_(B9)
  6
Continuous
 62
     7
100
AcDbSpline
210
0.0
220
0.0
230
1.0
 70
     8
 71
     3
 72
    14
 73
    10
 74
     0
 42
0.0000000011014719
 43
0.0000000001
 40
0.0
 40
0.0
 40
0.0
 40
0.0
 40
0.25
 40
0.25
 40
0.5
 40
0.5
 40
0.75
 40
0.75
 40
1.0
 40
1.0
 40
1.0
 40
1.0
 10
338.7606129664238
 20
442.7193709921581
 30
0.0
 10
337.7828063979707
 20
442.3720531435308
 30
0.0
 10
337.0859479037898
 20
441.8741258309474
 30
0.0
 10
336.1792659519201
 20
440.7842177663792
 30
0.0
 10
335.965318851601
 20
440.1903435849742
 30
0.0
 10
335.9644516985591
 20
439.0019384815853
 30
0.0
 10
336.1717702568282
 20
438.4163846991883
 30
0.0
 10
337.0823687527516
 20
437.3161029560817
 30
0.0
 10
337.7838835652673
 20
436.8163062299079
 30
0.0
 10
338.7606129664238
 20
436.4693709921581
 30
0.0
  0
SPLINE
  5
C1
330
92
100
AcDbEntity
  8
$DDT_AUDIT_GENERATED_(B9)
  6
Continuous
 62
     7
100
AcDbSpline
210
0.0
220
0.0
230
1.0
 70
     8
 71
     3
 72
    14
 73
    10
 74
     0
 42
0.0000000006969408
 43
0.0000000001
 40
0.0
 40
0.0
 40
0.0
 40
0.0
 40
0.25
 40
0.25
 40
0.5
 40
0.5
 40
0.75
 40
0.75
 40
1.0
 40
1.0
 40
1.0
 40
1.0
 10
338.7606129664238
 20
458.8347520489247
 30
0.0
 10
337.784984523654
 20
458.1416636964126
 30
0.0
 10
337.0790058350067
 20
457.1341035285817
 30
0.0
 10
336.1732920706104
 20
454.9434580762079
 30
0.0
 10
335.9629896739204
 20
453.7592437727185
 30
0.0
 10
335.9668045120575
 20
451.3791557638941
 30
0.0
 10
336.1821037546072
 20
450.1961321543504
 30
0.0
 10
337.0872900692455
 20
448.024129114508
 30
0.0
 10
337.7923240307174
 20
447.0226264012746
 30
0.0
 10
338.7606129664238
 20
446.3347520489247
 30
0.0
  0
SPLINE
  5
C2
330
92
100
AcDbEntity
  8
$DDT_AUDIT_GENERATED_(B9)
  6
Continuous
 62
     7
100
AcDbSpline
210
0.0
220
0.0
230
1.0
 70
     8
 71
     3
 72
    14
 73
    10
 74
     0
 42
0.0000000011014719
 43
0.0000000001
 40
0.0
 40
0.0
 40
0.0
 40
0.0
 40
0.25
 40
0.25
 40
0.5
 40
0.5
 40
0.75
 40
0.75
 40
1.0
 40
1.0
 40
1.0
 40
1.0
 10
338.7606129664238
 20
468.7001331056912
 30
0.0
 10
337.7828063979707
 20
468.352815257064
 30
0.0
 10
337.0859479037898
 20
467.8548879444806
 30
0.0
 10
336.1792659519201
 20
466.7649798799123
 30
0.0
 10
335.965318851601
 20
466.1711056985073
 30
0.0
 10
335.9644516985591
 20
464.9827005951184
 30
0.0
 10
336.1717702568282
 20
464.3971468127214
 30
0.0
 10
337.0823687527516
 20
463.2968650696149
 30
0.0
 10
337.7838835652673
 20
462.7970683434411
 30
0.0
 10
338.7606129664238
 20
462.4501331056913
 30
0.0
  0
LINE
  5
C3
330
92
100
AcDbEntity
  8
$DDT_AUDIT_GENERATED_(B9)
  6
Continuous
 62
     7
100
AcDbLine
 10
348.7606129664
 20
468.7001331057
 30
0.0
 11
348.7606129664
 21
468.8347520489
 31
0.0
  0
LINE
  5
C4
330
92
100
AcDbEntity
  8
$DDT_AUDIT_GENERATED_(B9)
  6
Continuous
 62
     7
100
AcDbLine
 10
348.7606129664
 20
462.4501331057
 30
0.0
 11
348.7606129664
 21
458.8347520489
 31
0.0
  0
LINE
  5
C5
330
92
100
AcDbEntity
  8
$DDT_AUDIT_GENERATED_(B9)
  6
Continuous
 62
     7
100
AcDbLine
 10
348.7606129664
 20
446.3347520489
 30
0.0
 11
348.7606129664
 21
442.7193709922
 31
0.0
  0
LINE
  5
C6
330
92
100
AcDbEntity
  8
$DDT_AUDIT_GENERATED_(B9)
  6
Continuous
 62
     7
100
AcDbLine
 10
348.7606129664
 20
436.4693709922
 30
0.0
 11
348.7606129664
 21
436.3347520489
 31
0.0
  0
LINE
  5
C7
330
92
100
AcDbEntity
  8
$DDT_AUDIT_GENERATED_(B9)
  6
Continuous
 62
     7
100
AcDbLine
 10
338.7606129664
 20
468.7001331057
 30
0.0
 11
348.7606129664
 21
468.7001331057
 31
0.0
  0
SPLINE
  5
C8
330
92
100
AcDbEntity
  8
$DDT_AUDIT_GENERATED_(B9)
  6
Continuous
 62
     7
100
AcDbSpline
210
0.0
220
0.0
230
1.0
 70
     8
 71
     3
 72
    14
 73
    10
 74
     0
 42
0.0000000011014719
 43
0.0000000001
 40
0.0
 40
0.0
 40
0.0
 40
0.0
 40
0.2499999999999999
 40
0.2499999999999999
 40
0.4999999999999999
 40
0.4999999999999999
 40
0.7499999999999999
 40
0.7499999999999999
 40
1.0
 40
1.0
 40
1.0
 40
1.0
 10
348.7606129664238
 20
468.7001331056912
 30
0.0
 10
349.7384195348769
 20
468.352815257064
 30
0.0
 10
350.4352780290578
 20
467.8548879444806
 30
0.0
 10
351.3419599809274
 20
466.7649798799123
 30
0.0
 10
351.5559070812466
 20
466.1711056985073
 30
0.0
 10
351.5567742342884
 20
464.9827005951184
 30
0.0
 10
351.3494556760193
 20
464.3971468127214
 30
0.0
 10
350.438857180096
 20
463.2968650696149
 30
0.0
 10
349.7373423675801
 20
462.7970683434411
 30
0.0
 10
348.7606129664238
 20
462.4501331056913
 30
0.0
  0
LINE
  5
C9
330
92
100
AcDbEntity
  8
$DDT_AUDIT_GENERATED_(B9)
  6
Continuous
 62
     7
100
AcDbLine
 10
348.7606129664
 20
462.4501331057
 30
0.0
 11
338.7606129664
 21
462.4501331057
 31
0.0
  0
LINE
  5
CA
330
92
100
AcDbEntity
  8
$DDT_AUDIT_GENERATED_(B9)
  6
Continuous
 62
     7
100
AcDbLine
 10
338.7606129664
 20
458.8347520489
 30
0.0
 11
348.7606129664
 21
458.8347520489
 31
0.0
  0
SPLINE
  5
CB
330
92
100
AcDbEntity
  8
$DDT_AUDIT_GENERATED_(B9)
  6
Continuous
 62
     7
100
AcDbSpline
210
0.0
220
0.0
230
1.0
 70
     8
 71
     3
 72
    14
 73
    10
 74
     0
 42
0.0000000006969408
 43
0.0000000001
 40
0.0
 40
0.0
 40
0.0
 40
0.0
 40
0.25
 40
0.25
 40
0.5
 40
0.5
 40
0.75
 40
0.75
 40
1.0
 40
1.0
 40
1.0
 40
1.0
 10
348.7606129664238
 20
458.8347520489247
 30
0.0
 10
349.7362414091935
 20
458.1416636964126
 30
0.0
 10
350.4422200978408
 20
457.1341035285817
 30
0.0
 10
351.3479338622371
 20
454.9434580762079
 30
0.0
 10
351.5582362589271
 20
453.7592437727185
 30
0.0
 10
351.55442142079
 20
451.3791557638941
 30
0.0
 10
351.3391221782403
 20
450.1961321543504
 30
0.0
 10
350.4339358636021
 20
448.024129114508
 30
0.0
 10
349.7289019021301
 20
447.0226264012746
 30
0.0
 10
348.7606129664238
 20
446.3347520489247
 30
0.0
  0
LINE
  5
CC
330
92
100
AcDbEntity
  8
$DDT_AUDIT_GENERATED_(B9)
  6
Continuous
 62
     7
100
AcDbLine
 10
348.7606129664
 20
446.3347520489
 30
0.0
 11
338.7606129664
 21
446.3347520489
 31
0.0
  0
LINE
  5
CD
330
92
100
AcDbEntity
  8
$DDT_AUDIT_GENERATED_(B9)
  6
Continuous
 62
     7
100
AcDbLine
 10
338.7606129664
 20
442.7193709922
 30
0.0
 11
348.7606129664
 21
442.7193709922
 31
0.0
  0
SPLINE
  5
CE
330
92
100
AcDbEntity
  8
$DDT_AUDIT_GENERATED_(B9)
  6
Continuous
 62
     7
100
AcDbSpline
210
0.0
220
0.0
230
1.0
 70
     8
 71
     3
 72
    14
 73
    10
 74
     0
 42
0.0000000011014719
 43
0.0000000001
 40
0.0
 40
0.0
 40
0.0
 40
0.0
 40
0.2500000000000001
 40
0.2500000000000001
 40
0.5000000000000001
 40
0.5000000000000001
 40
0.7500000000000002
 40
0.7500000000000002
 40
1.0
 40
1.0
 40
1.0
 40
1.0
 10
348.7606129664238
 20
442.7193709921581
 30
0.0
 10
349.7384195348769
 20
442.3720531435308
 30
0.0
 10
350.4352780290578
 20
441.8741258309474
 30
0.0
 10
351.3419599809274
 20
440.7842177663792
 30
0.0
 10
351.5559070812466
 20
440.1903435849742
 30
0.0
 10
351.5567742342884
 20
439.0019384815853
 30
0.0
 10
351.3494556760193
 20
438.4163846991883
 30
0.0
 10
350.438857180096
 20
437.3161029560817
 30
0.0
 10
349.7373423675801
 20
436.8163062299079
 30
0.0
 10
348.7606129664238
 20
436.4693709921581
 30
0.0
  0
LINE
  5
CF
330
92
100
AcDbEntity
  8
$DDT_AUDIT_GENERATED_(B9)
  6
Continuous
 62
     7
100
AcDbLine
 10
348.7606129664
 20
436.4693709922
 30
0.0
 11
338.7606129664
 21
436.4693709922
 31
0.0
  0
LINE
  5
D0
330
92
100
AcDbEntity
  8
$DDT_AUDIT_GENERATED_(B9)
  6
Continuous
 62
     7
100
AcDbLine
 10
338.7606129664
 20
436.3347520489
 30
0.0
 11
348.7606129664
 21
436.3347520489
 31
0.0
  0
ARC
  5
D1
330
92
100
AcDbEntity
  8
$DDT_AUDIT_GENERATED_(B9)
  6
Continuous
 62
     7
100
AcDbCircle
 10
346.1249117682
 20
459.1883496525
 30
0.0
 40
10.0
100
AcDbArc
 50
52.1519040322
 51
74.7179936136
  0
ARC
  5
D2
330
92
100
AcDbEntity
  8
$DDT_AUDIT_GENERATED_(B9)
  6
Continuous
 62
     7
100
AcDbCircle
 10
346.1249117682
 20
445.9811544453
 30
0.0
 40
9.999999999999998
100
AcDbArc
 50
285.2820063864
 51
307.8480959678
  0
ARC
  5
D3
330
92
100
AcDbEntity
  8
$DDT_AUDIT_GENERATED_(B9)
  6
Continuous
 62
     7
100
AcDbCircle
 10
341.3963141646
 20
459.1883496525
 30
0.0
 40
9.999999999999996
100
AcDbArc
 50
105.2820063864
 51
127.8480959678
  0
ARC
  5
D4
330
92
100
AcDbEntity
  8
$DDT_AUDIT_GENERATED_(B9)
  6
Continuous
 62
     7
100
AcDbCircle
 10
341.3963141646
 20
445.9811544453
 30
0.0
 40
9.999999999999998
100
AcDbArc
 50
232.1519040322
 51
254.7179936136
  0
LINE
  5
D5
330
92
100
AcDbEntity
  8
$DDT_AUDIT_GENERATED_(B9)
  6
Continuous
 62
     7
100
AcDbLine
 10
348.7606129664
 20
468.8347520489
 30
0.0
 11
338.7606129664
 21
468.8347520489
 31
0.0
  0
LINE
  5
D7
330
92
100
AcDbEntity
  8
$DDT_AUDIT_GENERATED_(D6)
  6
Continuous
 62
     7
100
AcDbLine
 10
334.2606129664
 20
441.5847520489
 30
0.0
 11
335.1350942223
 21
439.3647520489
 31
0.0
  0
LINE
  5
D8
330
92
100
AcDbEntity
  8
$DDT_AUDIT_GENERATED_(D6)
  6
Continuous
 62
     7
100
AcDbLine
 10
333.7606129664
 20
441.5847520489
 30
0.0
 11
334.2606129664
 21
441.5847520489
 31
0.0
  0
LINE
  5
D9
330
92
100
AcDbEntity
  8
$DDT_AUDIT_GENERATED_(D6)
  6
Continuous
 62
     7
100
AcDbLine
 10
334.2606129664
 20
463.5847520489
 30
0.0
 11
335.1350942223
 21
465.8047520489
 31
0.0
  0
LINE
  5
DA
330
92
100
AcDbEntity
  8
$DDT_AUDIT_GENERATED_(D6)
  6
Continuous
 62
     7
100
AcDbLine
 10
333.7606129664
 20
463.5847520489
 30
0.0
 11
334.2606129664
 21
463.5847520489
 31
0.0
  0
LINE
  5
DB
330
92
100
AcDbEntity
  8
$DDT_AUDIT_GENERATED_(D6)
  6
Continuous
 62
     7
100
AcDbLine
 10
335.2606129664
 20
465.8047520489
 30
0.0
 11
335.1350942223
 21
465.8047520489
 31
0.0
  0
LINE
  5
DC
330
92
100
AcDbEntity
  8
$DDT_AUDIT_GENERATED_(D6)
  6
Continuous
 62
     7
100
AcDbLine
 10
335.1350942223
 20
439.3647520489
 30
0.0
 11
335.2606129664
 21
439.3647520489
 31
0.0
  0
LINE
  5
DD
330
92
100
AcDbEntity
  8
$DDT_AUDIT_GENERATED_(D6)
  6
Continuous
 62
     7
100
AcDbLine
 10
334.6742189658
 20
464.6347520489
 30
0.0
 11
335.2606129664
 21
464.6347520489
 31
0.0
  0
LINE
  5
DE
330
92
100
AcDbEntity
  8
$DDT_AUDIT_GENERATED_(D6)
  6
Continuous
 62
     7
100
AcDbLine
 10
334.6742189658
 20
440.5347520489
 30
0.0
 11
335.2606129664
 21
440.5347520489
 31
0.0
  0
LINE
  5
DF
330
92
100
AcDbEntity
  8
$DDT_AUDIT_GENERATED_(73)
  6
Continuous
 62
     7
100
AcDbLine
 10
307.7606129664
 20
487.5847520489
 30
0.0
 11
307.7606129664
 21
417.5847520489
 31
0.0
  0
LINE
  5
E0
330
92
100
AcDbEntity
  8
$DDT_AUDIT_GENERATED_(73)
  6
Continuous
 62
     7
100
AcDbLine
 10
333.7606129664
 20
437.7172237074
 30
0.0
 11
333.7606129664
 21
467.4522803904
 31
0.0
  0
LINE
  5
E1
330
92
100
AcDbEntity
  8
$DDT_AUDIT_GENERATED_(73)
  6
Continuous
 62
     7
100
AcDbLine
 10
312.9469765103
 20
487.5847520489
 30
0.0
 11
312.9469765103
 21
417.5847520489
 31
0.0
  0
LINE
  5
E2
330
92
100
AcDbEntity
  8
$DDT_AUDIT_GENERATED_(73)
  6
Continuous
 62
     7
100
AcDbLine
 10
307.7606129664
 20
417.5847520489
 30
0.0
 11
312.9469765103
 21
417.5847520489
 31
0.0
  0
LINE
  5
E3
330
92
100
AcDbEntity
  8
$DDT_AUDIT_GENERATED_(73)
  6
Continuous
 62
     7
100
AcDbLine
 10
312.9469765103
 20
487.5847520489
 30
0.0
 11
307.7606129664
 21
487.5847520489
 31
0.0
  0
LINE
  5
E4
330
92
100
AcDbEntity
  8
$DDT_AUDIT_GENERATED_(73)
  6
Continuous
 62
     7
100
AcDbLine
 10
314.3431767826
 20
418.1527517697
 30
0.0
 11
333.3077631706
 21
436.643223498
 31
0.0
  0
LINE
  5
E5
330
92
100
AcDbEntity
  8
$DDT_AUDIT_GENERATED_(73)
  6
Continuous
 62
     7
100
AcDbLine
 10
333.3077631706
 20
468.5262805998
 30
0.0
 11
314.3431767826
 21
487.0167523282
 31
0.0
  0
ARC
  5
E6
330
92
100
AcDbEntity
  8
$DDT_AUDIT_GENERATED_(73)
  6
Continuous
 62
     7
100
AcDbCircle
 10
332.2606129664
 20
437.7172237074
 30
0.0
 40
1.500000000000003
100
AcDbArc
 50
314.2747757009
 51
0.0
  0
ARC
  5
E7
330
92
100
AcDbEntity
  8
$DDT_AUDIT_GENERATED_(73)
  6
Continuous
 62
     7
100
AcDbCircle
 10
332.2606129664
 20
467.4522803904
 30
0.0
 40
1.500000000000001
100
AcDbArc
 50
0.0
 51
45.7252242991
  0
ARC
  5
E8
330
92
100
AcDbEntity
  8
$DDT_AUDIT_GENERATED_(73)
  6
Continuous
 62
     7
100
AcDbCircle
 10
312.9469765103
 20
485.5847520489
 30
0.0
 40
2.0
100
AcDbArc
 50
45.7252242991
 51
90.0
  0
ARC
  5
E9
330
92
100
AcDbEntity
  8
$DDT_AUDIT_GENERATED_(73)
  6
Continuous
 62
     7
100
AcDbCircle
 10
312.9469765103
 20
419.5847520489
 30
0.0
 40
2.000000000000002
100
AcDbArc
 50
270.0
 51
314.2747757009
  0
LINE
  5
EB
330
92
100
AcDbEntity
  8
$DDT_AUDIT_GENERATED_(EA)
  6
Continuous
 62
     7
100
AcDbLine
 10
437.4751190674
 20
415.798212449
 30
0.0
 11
435.2116065351
 21
415.6795867838
 31
0.0
  0
SPLINE
  5
EC
330
92
100
AcDbEntity
  8
$DDT_AUDIT_GENERATED_(77)
  6
Continuous
 62
     7
100
AcDbSpline
210
0.0
220
0.0
230
1.0
 70
     8
 71
     3
 72
    18
 73
    14
 74
     0
 42
0.0000000005330501
 43
0.0000000001
 40
0.0
 40
0.0
 40
0.0
 40
0.0
 40
0.0327236881959001
 40
0.0816434119860562
 40
0.1171932157947471
 40
0.1573284263686617
 40
0.202282008948891
 40
0.3326097408161886
 40
0.462711367890534
 40
0.7339538518913061
 40
0.8991542023975287
 40
0.9885185979308755
 40
1.0
 40
1.0
 40
1.0
 40
1.0
 10
444.3609032080904
 20
416.6122993255138
 30
0.0
 10
444.3959355935103
 20
416.6864587479919
 30
0.0
 10
444.4833255841086
 20
416.8714820374064
 30
0.0
 10
444.5799736675576
 20
417.1795114171226
 30
0.0
 10
444.742295766516
 20
417.5389635412898
 30
0.0
 10
444.9985646626221
 20
417.9104374057909
 30
0.0
 10
445.5572503962445
 20
418.6180128332113
 30
0.0
 10
446.6201178453932
 20
419.7431455440397
 30
0.0
 10
449.1421526807732
 20
421.8239451699345
 30
0.0
 10
452.8691940623833
 20
423.9328561502041
 30
0.0
 10
456.9087860719924
 20
425.1568565616017
 30
0.0
 10
459.0365659961672
 20
425.5606505554086
 30
0.0
 10
459.8496404403796
 20
425.6884848774207
 30
0.0
 10
459.9422810343276
 20
425.7028046791832
 30
0.0
  0
ARC
  5
ED
330
92
100
AcDbEntity
  8
$DDT_AUDIT_GENERATED_(77)
  6
Continuous
 62
     7
100
AcDbCircle
 10
476.5041937599
 20
344.8308860057
 30
0.0
 40
23.53738433187328
100
AcDbArc
 50
166.6797363913
 51
170.4163023285
  0
ARC
  5
EE
330
92
100
AcDbEntity
  8
$DDT_AUDIT_GENERATED_(77)
  6
Continuous
 62
     7
100
AcDbCircle
 10
483.8705777231
 20
342.614919951
 30
0.0
 40
31.13083028374223
100
AcDbArc
 50
168.8426340578
 51
174.0668350204
  0
ARC
  5
EF
330
92
100
AcDbEntity
  8
$DDT_AUDIT_GENERATED_(77)
  6
Continuous
 62
     7
100
AcDbCircle
 10
133.0819489774
 20
417.5824931368
 30
0.0
 40
327.5133523392952
100
AcDbArc
 50
348.1368067818
 51
359.4092351944
  0
ARC
  5
F0
330
92
100
AcDbEntity
  8
$DDT_AUDIT_GENERATED_(77)
  6
Continuous
 62
     7
100
AcDbCircle
 10
397.2661575811
 20
416.6769809928
 30
0.0
 40
63.35995026680835
100
AcDbArc
 50
357.7646156972
 51
5.191029602
  0
ARC
  5
F1
330
92
100
AcDbEntity
  8
$DDT_AUDIT_GENERATED_(77)
  6
Continuous
 62
     7
100
AcDbCircle
 10
668.9082017289
 20
458.5804455077
 30
0.0
 40
211.5379065586554
100
AcDbArc
 50
177.0101845626
 51
188.9412642939
  0
ARC
  5
F2
330
92
100
AcDbEntity
  8
$DDT_AUDIT_GENERATED_(77)
  6
Continuous
 62
     7
100
AcDbCircle
 10
438.0498322546
 20
384.0719502827
 30
0.0
 40
31.73897251322067
100
AcDbArc
 50
83.6131474231
 51
91.0506307727
  0
ARC
  5
F3
330
92
100
AcDbEntity
  8
$DDT_AUDIT_GENERATED_(77)
  6
Continuous
 62
     7
100
AcDbCircle
 10
438.0498322546
 20
384.0719502827
 30
0.0
 40
31.73897251322067
100
AcDbArc
 50
95.1589480772
 51
96.3868495223
  0
LINE
  5
F4
330
92
100
AcDbEntity
  8
$DDT_AUDIT_GENERATED_(77)
  6
Continuous
 62
     7
100
AcDbLine
 10
442.755028631
 20
469.1438532122
 30
0.0
 11
426.8176265385
 21
443.6386783404
 31
0.0
  0
SPLINE
  5
F5
330
92
100
AcDbEntity
  8
$DDT_AUDIT_GENERATED_(77)
  6
Continuous
 62
     7
100
AcDbSpline
210
0.0
220
0.0
230
1.0
 70
     8
 71
     3
 72
    19
 73
    15
 74
     0
 42
0.0000000000800237
 43
0.0000000001
 40
0.0
 40
0.0
 40
0.0
 40
0.0
 40
0.0749069852318433
 40
0.1566984120794059
 40
0.2383185425051014
 40
0.3197971079719146
 40
0.4011903823218125
 40
0.4825008046844804
 40
0.5637055815389967
 40
0.6528610090981429
 40
0.7417699937589575
 40
0.8304290846331375
 40
0.918945622036014
 40
1.0
 40
1.0
 40
1.0
 40
1.0
 10
455.2728667704517
 20
344.4659570140917
 30
0.0
 10
455.9759883758507
 20
347.8248446791621
 30
0.0
 10
457.2059046777395
 20
353.754324595782
 30
0.0
 10
459.072798069526
 20
363.7097458152248
 30
0.0
 10
460.68623216028
 20
373.7255374429596
 30
0.0
 10
461.9650339695002
 20
383.8450076812247
 30
0.0
 10
462.8310592503722
 20
393.9765090557837
 30
0.0
 10
463.3171115367395
 20
404.1261858257762
 30
0.0
 10
463.4420645334922
 20
414.6098666661049
 30
0.0
 10
463.18609989931
 20
425.4030846104999
 30
0.0
 10
462.524062746985
 20
436.5103552818271
 30
0.0
 10
461.513155635828
 20
447.4866648024112
 30
0.0
 10
460.2372563327335
 20
458.3873096769171
 30
0.0
 10
459.3521357391541
 20
464.8804581736243
 30
0.0
 10
458.8441353253622
 20
468.5588656822328
 30
0.0
  0
ARC
  5
F6
330
92
100
AcDbEntity
  8
$DDT_AUDIT_GENERATED_(77)
  6
Continuous
 62
     7
100
AcDbCircle
 10
200.9934885373
 20
405.0117794905
 30
0.0
 40
252.839025208327
100
AcDbArc
 50
347.7341787501
 51
0.1360505104
  0
LINE
  5
F7
330
92
100
AcDbEntity
  8
$DDT_AUDIT_GENERATED_(77)
  6
Continuous
 62
     7
100
AcDbLine
 10
448.4836706139
 20
349.6395933201
 30
0.0
 11
453.1639934521
 21
343.9469667393
 31
0.0
  0
ARC
  5
F8
330
92
100
AcDbEntity
  8
$DDT_AUDIT_GENERATED_(77)
  6
Continuous
 62
     7
100
AcDbCircle
 10
443.8391087614
 20
405.6139355938
 30
0.0
 40
9.999998771760529
100
AcDbArc
 50
359.9844188195
 51
89.9999970732
  0
ARC
  5
F9
330
92
100
AcDbEntity
  8
$DDT_AUDIT_GENERATED_(77)
  6
Continuous
 62
     7
100
AcDbCircle
 10
450.0288504806
 20
350.9078876277
 30
0.0
 40
2.002789996740483
100
AcDbArc
 50
168.8349740253
 51
219.3797073375
  0
ARC
  5
FA
330
92
100
AcDbEntity
  8
$DDT_AUDIT_GENERATED_(77)
  6
Continuous
 62
     7
100
AcDbCircle
 10
457.6784737404
 20
468.4273611884
 30
0.0
 40
1.176780207832486
100
AcDbArc
 50
6.4329563095
 51
90.9860418025
  0
ARC
  5
FB
330
92
100
AcDbEntity
  8
$DDT_AUDIT_GENERATED_(77)
  6
Continuous
 62
     7
100
AcDbCircle
 10
454.1057571598
 20
344.6900621024
 30
0.0
 40
1.190412493269838
100
AcDbArc
 50
218.2660463331
 51
349.1273070314
  0
LINE
  5
FC
330
92
100
AcDbEntity
  8
$DDT_AUDIT_GENERATED_(77)
  6
Continuous
 62
     7
100
AcDbLine
 10
441.5805549426
 20
415.613933948
 30
0.0
 11
443.839286329
 21
415.613933948
 31
0.0
  0
LINE
  5
FD
330
92
100
AcDbEntity
  8
$DDT_AUDIT_GENERATED_(77)
  6
Continuous
 62
     7
100
AcDbLine
 10
426.7369328363
 20
415.613933948
 30
0.0
 11
434.5497477337
 21
415.613933948
 31
0.0
  0
LINE
  5
FE
330
92
100
AcDbEntity
  8
$DDT_AUDIT_GENERATED_(77)
  6
Continuous
 62
     7
100
AcDbLine
 10
457.6575758304
 20
469.613933948
 30
0.0
 11
443.6030767271
 21
469.613933948
 31
0.0
  0
ARC
  5
FF
330
92
100
AcDbEntity
  8
$DDT_AUDIT_GENERATED_(77)
  6
Continuous
 62
     7
100
AcDbCircle
 10
426.7369328363
 20
416.613933948
 30
0.0
 40
0.9999999999998364
100
AcDbArc
 50
219.1280654846
 51
270.0
  0
ARC
  5
100
330
92
100
AcDbEntity
  8
$DDT_AUDIT_GENERATED_(77)
  6
Continuous
 62
     7
100
AcDbCircle
 10
443.6030767271
 20
468.613933948
 30
0.0
 40
0.999999999999995
100
AcDbArc
 50
90.7185048279
 51
148.0
  0
ARC
  5
101
330
92
100
AcDbEntity
  8
$DDT_AUDIT_GENERATED_(77)
  6
Continuous
 62
     7
100
AcDbCircle
 10
426.2714904042
 20
416.235300428
 30
0.0
 40
0.4000000000000115
100
AcDbArc
 50
180.0
 51
219.1280654847
  0
LINE
  5
102
330
92
100
AcDbEntity
  8
$DDT_AUDIT_GENERATED_(77)
  6
Continuous
 62
     7
100
AcDbLine
 10
425.8714904043
 20
441.05459568
 30
0.0
 11
425.8714904042
 21
416.235300428
 31
0.0
  0
ARC
  5
103
330
92
100
AcDbEntity
  8
$DDT_AUDIT_GENERATED_(77)
  6
Continuous
 62
     7
100
AcDbCircle
 10
429.009195709
 20
441.1410885852
 30
0.0
 40
3.128394521719712
100
AcDbArc
 50
154.1471882545
 51
181.5764890372
  0
ARC
  5
104
330
92
100
AcDbEntity
  8
$DDT_AUDIT_GENERATED_(77)
  6
Continuous
 62
     7
100
AcDbCircle
 10
426.8967202501
 20
442.2256361164
 30
0.0
 40
0.7587303321320017
100
AcDbArc
 50
151.0780484144
 51
158.2790960786
  0
ARC
  5
105
330
92
100
AcDbEntity
  8
$DDT_AUDIT_GENERATED_(77)
  6
Continuous
 62
     7
100
AcDbCircle
 10
438.627503552
 20
436.3331266061
 30
0.0
 40
13.8848142382052
100
AcDbArc
 50
148.5325917566
 51
153.2068548754
  0
LINE
  5
107
330
92
100
AcDbEntity
  8
$DDT_AUDIT_GENERATED_(106)
  6
Continuous
 62
     7
100
AcDbLine
 10
355.0706107342
 20
407.6812222667
 30
0.0
 11
373.0706107342
 21
407.6812222667
 31
0.0
  0
LINE
  5
108
330
92
100
AcDbEntity
  8
$DDT_AUDIT_GENERATED_(106)
  6
Continuous
 62
     7
100
AcDbLine
 10
374.5506107342
 20
406.2012222667
 30
0.0
 11
353.5906107342
 21
406.2012222667
 31
0.0
  0
LINE
  5
109
330
92
100
AcDbEntity
  8
$DDT_AUDIT_GENERATED_(106)
  6
Continuous
 62
     7
100
AcDbLine
 10
373.3506107342
 20
398.7812222667
 30
0.0
 11
354.7906107342
 21
398.7812222667
 31
0.0
  0
LINE
  5
10A
330
92
100
AcDbEntity
  8
$DDT_AUDIT_GENERATED_(106)
  6
Continuous
 62
     7
100
AcDbLine
 10
374.5506107342
 20
399.9812222667
 30
0.0
 11
353.5906107342
 21
399.9812222667
 31
0.0
  0
LINE
  5
10B
330
92
100
AcDbEntity
  8
$DDT_AUDIT_GENERATED_(106)
  6
Continuous
 62
     7
100
AcDbLine
 10
353.5906107342
 20
406.2012222667
 30
0.0
 11
353.5906107342
 21
399.9812222667
 31
0.0
  0
LINE
  5
10C
330
92
100
AcDbEntity
  8
$DDT_AUDIT_GENERATED_(106)
  6
Continuous
 62
     7
100
AcDbLine
 10
374.5506107342
 20
399.9812222667
 30
0.0
 11
374.5506107342
 21
406.2012222667
 31
0.0
  0
LINE
  5
10D
330
92
100
AcDbEntity
  8
$DDT_AUDIT_GENERATED_(106)
  6
Continuous
 62
     7
100
AcDbLine
 10
355.0706107342
 20
414.2611976489
 30
0.0
 11
355.0706107342
 21
407.6812222667
 31
0.0
  0
LINE
  5
10E
330
92
100
AcDbEntity
  8
$DDT_AUDIT_GENERATED_(106)
  6
Continuous
 62
     7
100
AcDbLine
 10
373.0706107342
 20
407.6812222667
 30
0.0
 11
373.0706107342
 21
414.2612333736
 31
0.0
  0
LINE
  5
10F
330
92
100
AcDbEntity
  8
$DDT_AUDIT_GENERATED_(106)
  6
Continuous
 62
     7
100
AcDbLine
 10
374.5506107342
 20
406.2012222667
 30
0.0
 11
373.0706107342
 21
407.6812222667
 31
0.0
  0
LINE
  5
110
330
92
100
AcDbEntity
  8
$DDT_AUDIT_GENERATED_(106)
  6
Continuous
 62
     7
100
AcDbLine
 10
355.0706107342
 20
407.6812222667
 30
0.0
 11
353.5906107342
 21
406.2012222667
 31
0.0
  0
LINE
  5
111
330
92
100
AcDbEntity
  8
$DDT_AUDIT_GENERATED_(106)
  6
Continuous
 62
     7
100
AcDbLine
 10
353.5906107342
 20
399.9812222667
 30
0.0
 11
354.7906107342
 21
398.7812222667
 31
0.0
  0
LINE
  5
112
330
92
100
AcDbEntity
  8
$DDT_AUDIT_GENERATED_(106)
  6
Continuous
 62
     7
100
AcDbLine
 10
373.3506107342
 20
398.7812222667
 30
0.0
 11
374.5506107342
 21
399.9812222667
 31
0.0
  0
LINE
  5
113
330
92
100
AcDbEntity
  8
$DDT_AUDIT_GENERATED_(106)
  6
Continuous
 62
     7
100
AcDbLine
 10
373.3856107342
 20
407.3662222667
 30
0.0
 11
373.3856107342
 21
398.8162222667
 31
0.0
  0
LINE
  5
114
330
92
100
AcDbEntity
  8
$DDT_AUDIT_GENERATED_(106)
  6
Continuous
 62
     7
100
AcDbLine
 10
354.7556107342
 20
407.3662222667
 30
0.0
 11
354.7556107342
 21
398.8162222667
 31
0.0
  0
LINE
  5
116
330
92
100
AcDbEntity
  8
DV2_Standard
  6
CENTER2
 62
     7
100
AcDbLine
 10
327.7606125194
 20
452.5847520489
 30
0.0
 11
287.7606134135
 21
452.5847520489
 31
0.0
  0
LINE
  5
117
330
92
100
AcDbEntity
  8
DV2_Standard
  6
CENTER2
 62
     7
100
AcDbLine
 10
307.7606129664
 20
472.5847516019
 30
0.0
 11
307.7606129664
 21
432.584752496
 31
0.0
  0
ENDBLK
  5
119
330
92
100
AcDbEntity
  8
0
100
AcDbBlockEnd
  0
BLOCK
  5
1BE
330
11A
100
AcDbEntity
  8
0
100
AcDbBlockBegin
  2
SE2
 70
     0
 10
0.0
 20
0.0
 30
0.0
  3
SE2
  1

  0
LINE
  5
11C
330
11A
100
AcDbEntity
  8
$DDT_AUDIT_GENERATED_(60)
  6
Continuous
 62
     7
100
AcDbLine
 10
88.6492135194
 20
179.6054281001
 30
0.0
 11
144.0492135194
 21
179.6054281001
 31
0.0
  0
SPLINE
  5
11D
330
11A
100
AcDbEntity
  8
$DDT_AUDIT_GENERATED_(60)
  6
Continuous
 62
     7
100
AcDbSpline
210
0.0
220
0.0
230
1.0
 70
     8
 71
     3
 72
    24
 73
    20
 74
     0
 42
0.0000000001723844
 43
0.0000000001
 40
0.0
 40
0.0
 40
0.0
 40
0.0
 40
0.0038814825640653
 40
0.1689758046956111
 40
0.2518870313850485
 40
0.3347993289738228
 40
0.4176258534932016
 40
0.4590776913013939
 40
0.5005099470978314
 40
0.5456033785813962
 40
0.5907319878325773
 40
0.6809013843706828
 40
0.7247679653317919
 40
0.7712140251152114
 40
0.8165190571887239
 40
0.8615243774399505
 40
0.909514996324511
 40
0.9556211508295135
 40
1.0
 40
1.0
 40
1.0
 40
1.0
 10
91.12030485422673
 20
183.986808984311
 30
0.0
 10
91.16751858561005
 20
184.016492167022
 30
0.0
 10
93.22291317298802
 20
185.3087148169348
 30
0.0
 10
96.86234730037528
 20
187.930313475714
 30
0.0
 10
102.1723598477018
 20
191.64496222947
 30
0.0
 10
106.4688899278346
 20
194.3829400362608
 30
0.0
 10
110.3848607548949
 20
196.3195031919024
 30
0.0
 10
113.769375077547
 20
197.2417017351821
 30
0.0
 10
116.4776671695361
 20
197.49181579235
 30
0.0
 10
119.262134470067
 20
197.1862788446798
 30
0.0
 10
122.915705589015
 20
196.0811677302972
 30
0.0
 10
126.2495830504314
 20
194.316907702765
 30
0.0
 10
129.3814353578768
 20
192.3641777281589
 30
0.0
 10
131.6402124728507
 20
190.8477750856325
 30
0.0
 10
133.8287995803043
 20
189.3245611861734
 30
0.0
 10
135.949363187663
 20
187.8210559790894
 30
0.0
 10
137.9764742983879
 20
186.3909361972264
 30
0.0
 10
139.8848477017087
 20
185.0706702078384
 30
0.0
 10
141.0135863422109
 20
184.3442464247773
 30
0.0
 10
141.5671821851132
 20
183.9879680339632
 30
0.0
  0
LINE
  5
11E
330
11A
100
AcDbEntity
  8
$DDT_AUDIT_GENERATED_(60)
  6
Continuous
 62
     7
100
AcDbLine
 10
63.3083657503
 20
217.4128796565
 30
0.0
 11
169.4071995444
 21
217.4128796565
 31
0.0
  0
ELLIPSE
  5
11F
330
11A
100
AcDbEntity
  8
$DDT_AUDIT_GENERATED_(60)
  6
Continuous
 62
     7
100
AcDbEllipse
 10
22.4191433979
 20
201.9480462501
 30
0.0
 11
0.0
 21
14.06327084572349
 31
0.0
210
0.0
220
0.0
230
1.0
 40
1.0
 41
0.0002387660836995
 42
3.141591874343789
  0
ELLIPSE
  5
120
330
11A
100
AcDbEntity
  8
$DDT_AUDIT_GENERATED_(60)
  6
Continuous
 62
     7
100
AcDbEllipse
 10
22.4159284523
 20
215.4128796565
 30
0.0
 11
-8.326672684688674E-14
 21
-0.7999999999999995
 31
0.0
210
0.0
220
0.0
230
1.0
 40
0.0002691313
 41
3.141592653589793
 42
3.867275692099068
  0
ELLIPSE
  5
121
330
11A
100
AcDbEntity
  8
$DDT_AUDIT_GENERATED_(60)
  6
Continuous
 62
     7
100
AcDbEllipse
 10
210.2808566021
 20
201.9480462501
 30
0.0
 11
0.0
 21
14.06327084576993
 31
0.0
210
0.0
220
0.0
230
1.0
 40
1.0
 41
0.0002387660836951
 42
6.282946541095891
  0
ELLIPSE
  5
122
330
11A
100
AcDbEntity
  8
$DDT_AUDIT_GENERATED_(60)
  6
Continuous
 62
     7
100
AcDbEllipse
 10
210.2776416565
 20
215.4128796565
 30
0.0
 11
0.0
 21
0.7999999999999829
 31
0.0
210
0.0
220
0.0
230
1.0
 40
1.0
 41
0.0
 42
0.000238766083704
  0
ELLIPSE
  5
123
330
11A
100
AcDbEntity
  8
$DDT_AUDIT_GENERATED_(60)
  6
Continuous
 62
     7
100
AcDbEllipse
 10
210.2840715477
 20
215.4128796565
 30
0.0
 11
-2.775557561562891E-14
 21
-0.8000000000000156
 31
0.0
210
0.0
220
0.0
230
1.0
 40
0.0002691313
 41
2.415909615096448
 42
3.141592653586699
  0
ARC
  5
124
330
11A
100
AcDbEntity
  8
$DDT_AUDIT_GENERATED_(60)
  6
Continuous
 62
     7
100
AcDbCircle
 10
23.6159284946
 20
216.2128796565
 30
0.0
 40
1.200000042251273
100
AcDbArc
 50
170.4059321141
 51
180.0
  0
ARC
  5
125
330
11A
100
AcDbEntity
  8
$DDT_AUDIT_GENERATED_(60)
  6
Continuous
 62
     7
100
AcDbCircle
 10
209.0840715054
 20
216.2128796565
 30
0.0
 40
1.200000042252203
100
AcDbArc
 50
0.0
 51
9.5940678859
  0
LINE
  5
126
330
11A
100
AcDbEntity
  8
$DDT_AUDIT_GENERATED_(60)
  6
Continuous
 62
     7
100
AcDbLine
 10
170.1859260276
 20
216.9089722572
 30
0.0
 11
170.5346073771
 21
216.4128796565
 31
0.0
  0
ARC
  5
127
330
11A
100
AcDbEntity
  8
$DDT_AUDIT_GENERATED_(60)
  6
Continuous
 62
     7
100
AcDbCircle
 10
169.3010616767
 20
216.3951903539
 30
0.0
 40
1.023209051776802
100
AcDbArc
 50
30.1408867574
 51
84.0459765235
  0
LINE
  5
128
330
11A
100
AcDbEntity
  8
$DDT_AUDIT_GENERATED_(60)
  6
Continuous
 62
     7
100
AcDbLine
 10
210.1506358425
 20
216.4128796565
 30
0.0
 11
209.0771394301
 21
216.4128796565
 31
0.0
  0
LINE
  5
129
330
11A
100
AcDbEntity
  8
$DDT_AUDIT_GENERATED_(60)
  6
Continuous
 62
     7
100
AcDbLine
 10
170.5346073771
 20
216.4128796565
 30
0.0
 11
209.0771394301
 21
216.4128796565
 31
0.0
  0
LINE
  5
12A
330
11A
100
AcDbEntity
  8
$DDT_AUDIT_GENERATED_(60)
  6
Continuous
 62
     7
100
AcDbLine
 10
62.5322634989
 20
216.9089722572
 30
0.0
 11
62.1847604772
 21
216.4128796565
 31
0.0
  0
LINE
  5
12B
330
11A
100
AcDbEntity
  8
$DDT_AUDIT_GENERATED_(60)
  6
Continuous
 62
     7
100
AcDbLine
 10
62.1847604772
 20
216.4128796565
 30
0.0
 11
23.6154261391
 21
216.4128796565
 31
0.0
  0
ARC
  5
12C
330
11A
100
AcDbEntity
  8
$DDT_AUDIT_GENERATED_(60)
  6
Continuous
 62
     7
100
AcDbCircle
 10
63.4149617148
 20
216.3990861407
 30
0.0
 40
1.019382162056414
100
AcDbArc
 50
96.0023461895
 51
149.9873410902
  0
LINE
  5
12D
330
11A
100
AcDbEntity
  8
$DDT_AUDIT_GENERATED_(60)
  6
Continuous
 62
     7
100
AcDbLine
 10
22.5424567341
 20
216.4128796565
 30
0.0
 11
23.6154261391
 21
216.4128796565
 31
0.0
  0
ARC
  5
12E
330
11A
100
AcDbEntity
  8
$DDT_AUDIT_GENERATED_(60)
  6
Continuous
 62
     7
100
AcDbCircle
 10
144.0492135194
 20
180.4054281001
 30
0.0
 40
0.800000000000002
100
AcDbArc
 50
270.0
 51
0.0
  0
ARC
  5
12F
330
11A
100
AcDbEntity
  8
$DDT_AUDIT_GENERATED_(60)
  6
Continuous
 62
     7
100
AcDbCircle
 10
88.6492135194
 20
180.4054281001
 30
0.0
 40
0.7999999999999986
100
AcDbArc
 50
180.0
 51
270.0
  0
LINE
  5
130
330
11A
100
AcDbEntity
  8
$DDT_AUDIT_GENERATED_(60)
  6
Continuous
 62
     7
100
AcDbLine
 10
146.2415737835
 20
181.9480462501
 30
0.0
 11
209.0808566455
 21
181.9480462501
 31
0.0
  0
LINE
  5
131
330
11A
100
AcDbEntity
  8
$DDT_AUDIT_GENERATED_(60)
  6
Continuous
 62
     7
100
AcDbLine
 10
23.6191433545
 20
181.9480462501
 30
0.0
 11
86.4797798009
 21
181.9480462501
 31
0.0
  0
SPLINE
  5
132
330
11A
100
AcDbEntity
  8
$DDT_AUDIT_GENERATED_(60)
  6
Continuous
 62
     7
100
AcDbSpline
210
0.0
220
0.0
230
1.0
 70
     8
 71
     3
 72
    12
 73
     8
 74
     0
 42
0.000000005903644
 43
0.0000000001
 40
0.0
 40
0.0
 40
0.0
 40
0.0
 40
0.1946541884832005
 40
0.4237781086279142
 40
0.5963200971738154
 40
0.7871182834959605
 40
1.0
 40
1.0
 40
1.0
 40
1.0
 10
86.45283542612997
 20
181.9480219850329
 30
0.0
 10
86.55385732729333
 20
181.944194361005
 30
0.0
 10
86.74032149425688
 20
181.933536037753
 30
0.0
 10
87.03779386871823
 20
181.8697092510058
 30
0.0
 10
87.34029970334565
 20
181.7382103058589
 30
0.0
 10
87.63549103063131
 20
181.5160446311587
 30
0.0
 10
87.74887839206328
 20
181.2977890813271
 30
0.0
 10
87.81966340111987
 20
181.1582034662627
 30
0.0
  0
SPLINE
  5
133
330
11A
100
AcDbEntity
  8
$DDT_AUDIT_GENERATED_(60)
  6
Continuous
 62
     7
100
AcDbSpline
210
0.0
220
0.0
230
1.0
 70
     8
 71
     3
 72
    12
 73
     8
 74
     0
 42
0.0000000059214642
 43
0.0000000001
 40
0.0
 40
0.0
 40
0.0
 40
0.0
 40
0.2108656657165513
 40
0.401583282883155
 40
0.5751672188059228
 40
0.8052390252682359
 40
1.0
 40
1.0
 40
1.0
 40
1.0
 10
144.8782455317084
 20
181.1599538404423
 30
0.0
 10
144.9495237690312
 20
181.300663454265
 30
0.0
 10
145.0639353507851
 20
181.5216180082833
 30
0.0
 10
145.3592455733641
 20
181.7426092915447
 30
0.0
 10
145.6581267589904
 20
181.870313481062
 30
0.0
 10
145.9526716455992
 20
181.933326740242
 30
0.0
 10
146.138780379402
 20
181.9440627365507
 30
0.0
 10
146.239430289623
 20
181.9480172066611
 30
0.0
  0
ARC
  5
134
330
11A
100
AcDbEntity
  8
$DDT_AUDIT_GENERATED_(60)
  6
Continuous
 62
     7
100
AcDbCircle
 10
23.5959405324
 20
183.1343842853
 30
0.0
 40
1.174941606419935
100
AcDbArc
 50
186.230605826
 51
271.0147342178
  0
ARC
  5
135
330
11A
100
AcDbEntity
  8
$DDT_AUDIT_GENERATED_(60)
  6
Continuous
 62
     7
100
AcDbCircle
 10
209.0992849205
 20
183.1394786465
 30
0.0
 40
1.180036250191892
100
AcDbArc
 50
268.9896185259
 51
353.5452470184
  0
LINE
  5
136
330
11A
100
AcDbEntity
  8
$DDT_AUDIT_GENERATED_(AE)
  6
Continuous
 62
     7
100
AcDbLine
 10
122.1784306216
 20
132.6024190504
 30
0.0
 11
110.4936693404
 21
132.6024190504
 31
0.0
  0
LINE
  5
137
330
11A
100
AcDbEntity
  8
$DDT_AUDIT_GENERATED_(AE)
  6
Continuous
 62
     7
100
AcDbLine
 10
91.1598069507
 20
146.1054281001
 30
0.0
 11
141.5401930493
 21
146.1054281001
 31
0.0
  0
ARC
  5
138
330
11A
100
AcDbEntity
  8
$DDT_AUDIT_GENERATED_(AE)
  6
Continuous
 62
     7
100
AcDbCircle
 10
116.35
 20
154.2054281001
 30
0.0
 40
26.3
100
AcDbArc
 50
318.7027268613
 51
342.0621734783
  0
ARC
  5
139
330
11A
100
AcDbEntity
  8
$DDT_AUDIT_GENERATED_(AE)
  6
Continuous
 62
     7
100
AcDbCircle
 10
116.35
 20
154.2054281001
 30
0.0
 40
26.3
100
AcDbArc
 50
197.9378265217
 51
221.0415599562
  0
LINE
  5
13A
330
11A
100
AcDbEntity
  8
$DDT_AUDIT_GENERATED_(AE)
  6
Continuous
 62
     7
100
AcDbLine
 10
90.3718160502
 20
179.6054281001
 30
0.0
 11
90.6598259872
 21
146.6010650562
 31
0.0
  0
LINE
  5
13B
330
11A
100
AcDbEntity
  8
$DDT_AUDIT_GENERATED_(AE)
  6
Continuous
 62
     7
100
AcDbLine
 10
142.0401740128
 20
146.6010650562
 30
0.0
 11
142.3281839498
 21
179.6054281001
 31
0.0
  0
ARC
  5
13C
330
11A
100
AcDbEntity
  8
$DDT_AUDIT_GENERATED_(AE)
  6
Continuous
 62
     7
100
AcDbCircle
 10
141.5401930493
 20
146.6054281001
 30
0.0
 40
0.5000000000000004
100
AcDbArc
 50
270.0
 51
359.500025649
  0
ARC
  5
13D
330
11A
100
AcDbEntity
  8
$DDT_AUDIT_GENERATED_(AE)
  6
Continuous
 62
     7
100
AcDbCircle
 10
91.1598069507
 20
146.6054281001
 30
0.0
 40
0.5000000000000013
100
AcDbArc
 50
180.499974351
 51
270.0
  0
ELLIPSE
  5
13E
330
11A
100
AcDbEntity
  8
$DDT_AUDIT_GENERATED_(D6)
  6
Continuous
 62
     7
100
AcDbEllipse
 10
191.35
 20
239.7458948883
 30
0.0
 11
13.22
 21
-3.469446951953614E-15
 31
0.0
210
0.0
220
0.0
230
1.0
 40
0.3939104756
 41
4.124426621247903
 42
5.300351339521479
  0
LINE
  5
13F
330
11A
100
AcDbEntity
  8
$DDT_AUDIT_GENERATED_(D6)
  6
Continuous
 62
     7
100
AcDbLine
 10
184.0173060885
 20
235.4128796565
 30
0.0
 11
184.0173060885
 21
235.9128796565
 31
0.0
  0
LINE
  5
140
330
11A
100
AcDbEntity
  8
$DDT_AUDIT_GENERATED_(D6)
  6
Continuous
 62
     7
100
AcDbLine
 10
198.6826939115
 20
235.9128796565
 30
0.0
 11
198.6826939115
 21
235.4128796565
 31
0.0
  0
LINE
  5
141
330
11A
100
AcDbEntity
  8
$DDT_AUDIT_GENERATED_(D6)
  6
Continuous
 62
     7
100
AcDbLine
 10
198.6826939115
 20
235.4128796565
 30
0.0
 11
184.0173060885
 21
235.4128796565
 31
0.0
  0
LINE
  5
142
330
11A
100
AcDbEntity
  8
$DDT_AUDIT_GENERATED_(D6)
  6
Continuous
 62
     7
100
AcDbLine
 10
204.57
 20
234.4128771596
 30
0.0
 11
204.57
 21
235.9128796565
 31
0.0
  0
LINE
  5
143
330
11A
100
AcDbEntity
  8
$DDT_AUDIT_GENERATED_(D6)
  6
Continuous
 62
     7
100
AcDbLine
 10
178.13
 20
235.9128796565
 30
0.0
 11
178.13
 21
234.4128771596
 31
0.0
  0
LINE
  5
144
330
11A
100
AcDbEntity
  8
$DDT_AUDIT_GENERATED_(D6)
  6
Continuous
 62
     7
100
AcDbLine
 10
203.4
 20
235.9128796565
 30
0.0
 11
203.4
 21
234.4128771596
 31
0.0
  0
LINE
  5
145
330
11A
100
AcDbEntity
  8
$DDT_AUDIT_GENERATED_(D6)
  6
Continuous
 62
     7
100
AcDbLine
 10
179.3
 20
235.9128796565
 30
0.0
 11
179.3
 21
234.4128771596
 31
0.0
  0
LINE
  5
146
330
11A
100
AcDbEntity
  8
$DDT_AUDIT_GENERATED_(73)
  6
Continuous
 62
     7
100
AcDbLine
 10
226.35
 20
261.9128796565
 30
0.0
 11
156.35
 21
261.9128796565
 31
0.0
  0
LINE
  5
147
330
11A
100
AcDbEntity
  8
$DDT_AUDIT_GENERATED_(73)
  6
Continuous
 62
     7
100
AcDbLine
 10
176.4824716585
 20
235.9128796565
 30
0.0
 11
206.2175283415
 21
235.9128796565
 31
0.0
  0
LINE
  5
148
330
11A
100
AcDbEntity
  8
$DDT_AUDIT_GENERATED_(73)
  6
Continuous
 62
     7
100
AcDbLine
 10
156.9179997208
 20
255.3303158404
 30
0.0
 11
225.7820002792
 21
255.3303158404
 31
0.0
  0
LINE
  5
149
330
11A
100
AcDbEntity
  8
$DDT_AUDIT_GENERATED_(73)
  6
Continuous
 62
     7
100
AcDbLine
 10
156.35
 20
261.9128796565
 30
0.0
 11
156.35
 21
256.7265161126
 31
0.0
  0
LINE
  5
14A
330
11A
100
AcDbEntity
  8
$DDT_AUDIT_GENERATED_(73)
  6
Continuous
 62
     7
100
AcDbLine
 10
226.35
 20
256.7265161126
 30
0.0
 11
226.35
 21
261.9128796565
 31
0.0
  0
LINE
  5
14B
330
11A
100
AcDbEntity
  8
$DDT_AUDIT_GENERATED_(73)
  6
Continuous
 62
     7
100
AcDbLine
 10
156.9179997208
 20
255.3303158404
 30
0.0
 11
175.4084714491
 21
236.3657294523
 31
0.0
  0
LINE
  5
14C
330
11A
100
AcDbEntity
  8
$DDT_AUDIT_GENERATED_(73)
  6
Continuous
 62
     7
100
AcDbLine
 10
207.2915285509
 20
236.3657294523
 30
0.0
 11
225.7820002792
 21
255.3303158404
 31
0.0
  0
ARC
  5
14D
330
11A
100
AcDbEntity
  8
$DDT_AUDIT_GENERATED_(73)
  6
Continuous
 62
     7
100
AcDbCircle
 10
176.4824716585
 20
237.4128796565
 30
0.0
 40
1.500000000000002
100
AcDbArc
 50
224.2747757009
 51
270.0
  0
ARC
  5
14E
330
11A
100
AcDbEntity
  8
$DDT_AUDIT_GENERATED_(73)
  6
Continuous
 62
     7
100
AcDbCircle
 10
206.2175283415
 20
237.4128796565
 30
0.0
 40
1.500000000000001
100
AcDbArc
 50
270.0
 51
315.7252242991
  0
ARC
  5
14F
330
11A
100
AcDbEntity
  8
$DDT_AUDIT_GENERATED_(73)
  6
Continuous
 62
     7
100
AcDbCircle
 10
224.35
 20
256.7265161126
 30
0.0
 40
2.0
100
AcDbArc
 50
315.7252242991
 51
0.0
  0
ARC
  5
150
330
11A
100
AcDbEntity
  8
$DDT_AUDIT_GENERATED_(73)
  6
Continuous
 62
     7
100
AcDbCircle
 10
158.35
 20
256.7265161126
 30
0.0
 40
2.000000000000002
100
AcDbArc
 50
180.0
 51
224.2747757009
  0
LINE
  5
151
330
11A
100
AcDbEntity
  8
$DDT_AUDIT_GENERATED_(B6)
  6
Continuous
 62
     7
100
AcDbLine
 10
51.85
 20
216.4128774243
 30
0.0
 11
51.85
 21
217.4128774243
 31
0.0
  0
LINE
  5
152
330
11A
100
AcDbEntity
  8
$DDT_AUDIT_GENERATED_(B6)
  6
Continuous
 62
     7
100
AcDbLine
 10
30.85
 20
217.4128774243
 30
0.0
 11
30.85
 21
216.4128774243
 31
0.0
  0
LINE
  5
153
330
11A
100
AcDbEntity
  8
$DDT_AUDIT_GENERATED_(B9)
  6
Continuous
 62
     7
100
AcDbLine
 10
176.85
 20
217.4128771596
 30
0.0
 11
205.85
 21
217.4128771596
 31
0.0
  0
LINE
  5
154
330
11A
100
AcDbEntity
  8
$DDT_AUDIT_GENERATED_(B9)
  6
Continuous
 62
     7
100
AcDbLine
 10
176.85
 20
234.4128771596
 30
0.0
 11
205.85
 21
234.4128771596
 31
0.0
  0
LINE
  5
155
330
11A
100
AcDbEntity
  8
$DDT_AUDIT_GENERATED_(B9)
  6
Continuous
 62
     7
100
AcDbLine
 10
206.35
 20
230.9128771596
 30
0.0
 11
204.2626587737
 21
230.9128771596
 31
0.0
  0
LINE
  5
156
330
11A
100
AcDbEntity
  8
$DDT_AUDIT_GENERATED_(B9)
  6
Continuous
 62
     7
100
AcDbLine
 10
193.4373412263
 20
230.9128771596
 30
0.0
 11
189.2626587737
 21
230.9128771596
 31
0.0
  0
LINE
  5
157
330
11A
100
AcDbEntity
  8
$DDT_AUDIT_GENERATED_(B9)
  6
Continuous
 62
     7
100
AcDbLine
 10
178.4373412263
 20
230.9128771596
 30
0.0
 11
176.35
 21
230.9128771596
 31
0.0
  0
LINE
  5
158
330
11A
100
AcDbEntity
  8
$DDT_AUDIT_GENERATED_(B9)
  6
Continuous
 62
     7
100
AcDbLine
 10
176.35
 20
230.9128771596
 30
0.0
 11
176.35
 21
233.7086058887
 31
0.0
  0
ARC
  5
159
330
11A
100
AcDbEntity
  8
$DDT_AUDIT_GENERATED_(B9)
  6
Continuous
 62
     7
100
AcDbCircle
 10
183.85
 20
227.1343176405
 30
0.0
 40
6.601089837288619
100
AcDbArc
 50
34.9187681796
 51
145.0812318204
  0
ARC
  5
15A
330
11A
100
AcDbEntity
  8
$DDT_AUDIT_GENERATED_(B9)
  6
Continuous
 62
     7
100
AcDbCircle
 10
198.85
 20
227.1343176405
 30
0.0
 40
6.601089837288622
100
AcDbArc
 50
34.9187681796
 51
145.0812318204
  0
LINE
  5
15B
330
11A
100
AcDbEntity
  8
$DDT_AUDIT_GENERATED_(B9)
  6
Continuous
 62
     7
100
AcDbLine
 10
206.35
 20
230.9128771596
 30
0.0
 11
206.35
 21
233.7086058887
 31
0.0
  0
LINE
  5
15C
330
11A
100
AcDbEntity
  8
$DDT_AUDIT_GENERATED_(B9)
  6
Continuous
 62
     7
100
AcDbLine
 10
206.35
 20
220.9128771596
 30
0.0
 11
204.2626587737
 21
220.9128771596
 31
0.0
  0
LINE
  5
15D
330
11A
100
AcDbEntity
  8
$DDT_AUDIT_GENERATED_(B9)
  6
Continuous
 62
     7
100
AcDbLine
 10
193.4373412263
 20
220.9128771596
 30
0.0
 11
189.2626587737
 21
220.9128771596
 31
0.0
  0
LINE
  5
15E
330
11A
100
AcDbEntity
  8
$DDT_AUDIT_GENERATED_(B9)
  6
Continuous
 62
     7
100
AcDbLine
 10
178.4373412263
 20
220.9128771596
 30
0.0
 11
176.35
 21
220.9128771596
 31
0.0
  0
LINE
  5
15F
330
11A
100
AcDbEntity
  8
$DDT_AUDIT_GENERATED_(B9)
  6
Continuous
 62
     7
100
AcDbLine
 10
206.35
 20
218.1171484305
 30
0.0
 11
206.35
 21
220.9128771596
 31
0.0
  0
LINE
  5
160
330
11A
100
AcDbEntity
  8
$DDT_AUDIT_GENERATED_(B9)
  6
Continuous
 62
     7
100
AcDbLine
 10
206.35
 20
220.9128771596
 30
0.0
 11
206.35
 21
230.9128771596
 31
0.0
  0
LINE
  5
161
330
11A
100
AcDbEntity
  8
$DDT_AUDIT_GENERATED_(B9)
  6
Continuous
 62
     7
100
AcDbLine
 10
204.2626587737
 20
230.9128771596
 30
0.0
 11
204.2626587737
 21
220.9128771596
 31
0.0
  0
ARC
  5
162
330
11A
100
AcDbEntity
  8
$DDT_AUDIT_GENERATED_(B9)
  6
Continuous
 62
     7
100
AcDbCircle
 10
198.85
 20
224.6914366788
 30
0.0
 40
6.601089837288599
100
AcDbArc
 50
214.9187681796
 51
325.0812318204
  0
LINE
  5
163
330
11A
100
AcDbEntity
  8
$DDT_AUDIT_GENERATED_(B9)
  6
Continuous
 62
     7
100
AcDbLine
 10
193.4373412263
 20
220.9128771596
 30
0.0
 11
193.4373412263
 21
230.9128771596
 31
0.0
  0
LINE
  5
164
330
11A
100
AcDbEntity
  8
$DDT_AUDIT_GENERATED_(B9)
  6
Continuous
 62
     7
100
AcDbLine
 10
189.2626587737
 20
230.9128771596
 30
0.0
 11
189.2626587737
 21
220.9128771596
 31
0.0
  0
ARC
  5
165
330
11A
100
AcDbEntity
  8
$DDT_AUDIT_GENERATED_(B9)
  6
Continuous
 62
     7
100
AcDbCircle
 10
183.85
 20
224.6914366788
 30
0.0
 40
6.601089837288613
100
AcDbArc
 50
214.9187681795
 51
325.0812318204
  0
LINE
  5
166
330
11A
100
AcDbEntity
  8
$DDT_AUDIT_GENERATED_(B9)
  6
Continuous
 62
     7
100
AcDbLine
 10
178.4373412263
 20
220.9128771596
 30
0.0
 11
178.4373412263
 21
230.9128771596
 31
0.0
  0
LINE
  5
167
330
11A
100
AcDbEntity
  8
$DDT_AUDIT_GENERATED_(B9)
  6
Continuous
 62
     7
100
AcDbLine
 10
176.35
 20
230.9128771596
 30
0.0
 11
176.35
 21
220.9128771596
 31
0.0
  0
LINE
  5
168
330
11A
100
AcDbEntity
  8
$DDT_AUDIT_GENERATED_(B9)
  6
Continuous
 62
     7
100
AcDbLine
 10
176.35
 20
220.9128771596
 30
0.0
 11
176.35
 21
218.1171484305
 31
0.0
  0
ARC
  5
169
330
11A
100
AcDbEntity
  8
$DDT_AUDIT_GENERATED_(B9)
  6
Continuous
 62
     7
100
AcDbCircle
 10
197.9535976036
 20
223.5485783578
 30
0.0
 40
9.999999999999998
100
AcDbArc
 50
322.1519040322
 51
327.0967182391
  0
ARC
  5
16A
330
11A
100
AcDbEntity
  8
$DDT_AUDIT_GENERATED_(B9)
  6
Continuous
 62
     7
100
AcDbCircle
 10
184.7464023964
 20
223.5485783578
 30
0.0
 40
9.999999999999991
100
AcDbArc
 50
212.8947962553
 51
217.8480959678
  0
ARC
  5
16B
330
11A
100
AcDbEntity
  8
$DDT_AUDIT_GENERATED_(B9)
  6
Continuous
 62
     7
100
AcDbCircle
 10
197.9535976036
 20
228.2771759614
 30
0.0
 40
9.999999999999996
100
AcDbArc
 50
32.8947962553
 51
37.8480959678
  0
ARC
  5
16C
330
11A
100
AcDbEntity
  8
$DDT_AUDIT_GENERATED_(B9)
  6
Continuous
 62
     7
100
AcDbCircle
 10
184.7464023964
 20
228.2771759614
 30
0.0
 40
9.999999999999998
100
AcDbArc
 50
142.1519040322
 51
147.0967182391
  0
LINE
  5
16D
330
11A
100
AcDbEntity
  8
$DDT_AUDIT_GENERATED_(B9)
  6
Continuous
 62
     7
100
AcDbLine
 10
26.85
 20
217.4128774243
 30
0.0
 11
55.85
 21
217.4128774243
 31
0.0
  0
LINE
  5
16E
330
11A
100
AcDbEntity
  8
$DDT_AUDIT_GENERATED_(B9)
  6
Continuous
 62
     7
100
AcDbLine
 10
26.85
 20
234.4128774243
 30
0.0
 11
55.85
 21
234.4128774243
 31
0.0
  0
LINE
  5
16F
330
11A
100
AcDbEntity
  8
$DDT_AUDIT_GENERATED_(B9)
  6
Continuous
 62
     7
100
AcDbLine
 10
56.35
 20
230.9128774243
 30
0.0
 11
54.2626587737
 21
230.9128774243
 31
0.0
  0
LINE
  5
170
330
11A
100
AcDbEntity
  8
$DDT_AUDIT_GENERATED_(B9)
  6
Continuous
 62
     7
100
AcDbLine
 10
43.4373412263
 20
230.9128774243
 30
0.0
 11
39.2626587737
 21
230.9128774243
 31
0.0
  0
LINE
  5
171
330
11A
100
AcDbEntity
  8
$DDT_AUDIT_GENERATED_(B9)
  6
Continuous
 62
     7
100
AcDbLine
 10
28.4373412263
 20
230.9128774243
 30
0.0
 11
26.35
 21
230.9128774243
 31
0.0
  0
LINE
  5
172
330
11A
100
AcDbEntity
  8
$DDT_AUDIT_GENERATED_(B9)
  6
Continuous
 62
     7
100
AcDbLine
 10
26.35
 20
230.9128774243
 30
0.0
 11
26.35
 21
233.7086061534
 31
0.0
  0
ARC
  5
173
330
11A
100
AcDbEntity
  8
$DDT_AUDIT_GENERATED_(B9)
  6
Continuous
 62
     7
100
AcDbCircle
 10
33.85
 20
227.1343179051
 30
0.0
 40
6.601089837288619
100
AcDbArc
 50
34.9187681796
 51
145.0812318204
  0
ARC
  5
174
330
11A
100
AcDbEntity
  8
$DDT_AUDIT_GENERATED_(B9)
  6
Continuous
 62
     7
100
AcDbCircle
 10
48.85
 20
227.1343179051
 30
0.0
 40
6.601089837288623
100
AcDbArc
 50
34.9187681795
 51
145.0812318205
  0
LINE
  5
175
330
11A
100
AcDbEntity
  8
$DDT_AUDIT_GENERATED_(B9)
  6
Continuous
 62
     7
100
AcDbLine
 10
56.35
 20
230.9128774243
 30
0.0
 11
56.35
 21
233.7086061534
 31
0.0
  0
LINE
  5
176
330
11A
100
AcDbEntity
  8
$DDT_AUDIT_GENERATED_(B9)
  6
Continuous
 62
     7
100
AcDbLine
 10
56.35
 20
220.9128774243
 30
0.0
 11
54.2626587737
 21
220.9128774243
 31
0.0
  0
LINE
  5
177
330
11A
100
AcDbEntity
  8
$DDT_AUDIT_GENERATED_(B9)
  6
Continuous
 62
     7
100
AcDbLine
 10
43.4373412263
 20
220.9128774243
 30
0.0
 11
39.2626587737
 21
220.9128774243
 31
0.0
  0
LINE
  5
178
330
11A
100
AcDbEntity
  8
$DDT_AUDIT_GENERATED_(B9)
  6
Continuous
 62
     7
100
AcDbLine
 10
28.4373412263
 20
220.9128774243
 30
0.0
 11
26.35
 21
220.9128774243
 31
0.0
  0
LINE
  5
179
330
11A
100
AcDbEntity
  8
$DDT_AUDIT_GENERATED_(B9)
  6
Continuous
 62
     7
100
AcDbLine
 10
56.35
 20
218.1171486951
 30
0.0
 11
56.35
 21
220.9128774243
 31
0.0
  0
LINE
  5
17A
330
11A
100
AcDbEntity
  8
$DDT_AUDIT_GENERATED_(B9)
  6
Continuous
 62
     7
100
AcDbLine
 10
56.35
 20
220.9128774243
 30
0.0
 11
56.35
 21
230.9128774243
 31
0.0
  0
LINE
  5
17B
330
11A
100
AcDbEntity
  8
$DDT_AUDIT_GENERATED_(B9)
  6
Continuous
 62
     7
100
AcDbLine
 10
54.2626587737
 20
230.9128774243
 30
0.0
 11
54.2626587737
 21
220.9128774243
 31
0.0
  0
ARC
  5
17C
330
11A
100
AcDbEntity
  8
$DDT_AUDIT_GENERATED_(B9)
  6
Continuous
 62
     7
100
AcDbCircle
 10
48.85
 20
224.6914369434
 30
0.0
 40
6.601089837288599
100
AcDbArc
 50
214.9187681796
 51
325.0812318204
  0
LINE
  5
17D
330
11A
100
AcDbEntity
  8
$DDT_AUDIT_GENERATED_(B9)
  6
Continuous
 62
     7
100
AcDbLine
 10
43.4373412263
 20
220.9128774243
 30
0.0
 11
43.4373412263
 21
230.9128774243
 31
0.0
  0
LINE
  5
17E
330
11A
100
AcDbEntity
  8
$DDT_AUDIT_GENERATED_(B9)
  6
Continuous
 62
     7
100
AcDbLine
 10
39.2626587737
 20
230.9128774243
 30
0.0
 11
39.2626587737
 21
220.9128774243
 31
0.0
  0
ARC
  5
17F
330
11A
100
AcDbEntity
  8
$DDT_AUDIT_GENERATED_(B9)
  6
Continuous
 62
     7
100
AcDbCircle
 10
33.85
 20
224.6914369434
 30
0.0
 40
6.601089837288613
100
AcDbArc
 50
214.9187681796
 51
325.0812318204
  0
LINE
  5
180
330
11A
100
AcDbEntity
  8
$DDT_AUDIT_GENERATED_(B9)
  6
Continuous
 62
     7
100
AcDbLine
 10
28.4373412263
 20
220.9128774243
 30
0.0
 11
28.4373412263
 21
230.9128774243
 31
0.0
  0
LINE
  5
181
330
11A
100
AcDbEntity
  8
$DDT_AUDIT_GENERATED_(B9)
  6
Continuous
 62
     7
100
AcDbLine
 10
26.35
 20
230.9128774243
 30
0.0
 11
26.35
 21
220.9128774243
 31
0.0
  0
LINE
  5
182
330
11A
100
AcDbEntity
  8
$DDT_AUDIT_GENERATED_(B9)
  6
Continuous
 62
     7
100
AcDbLine
 10
26.35
 20
220.9128774243
 30
0.0
 11
26.35
 21
218.1171486951
 31
0.0
  0
ARC
  5
183
330
11A
100
AcDbEntity
  8
$DDT_AUDIT_GENERATED_(B9)
  6
Continuous
 62
     7
100
AcDbCircle
 10
47.9535976036
 20
223.5485786225
 30
0.0
 40
9.999999999999998
100
AcDbArc
 50
322.1519040322
 51
327.0967182391
  0
ARC
  5
184
330
11A
100
AcDbEntity
  8
$DDT_AUDIT_GENERATED_(B9)
  6
Continuous
 62
     7
100
AcDbCircle
 10
34.7464023964
 20
223.5485786225
 30
0.0
 40
9.999999999999991
100
AcDbArc
 50
212.8947962553
 51
217.8480959678
  0
ARC
  5
185
330
11A
100
AcDbEntity
  8
$DDT_AUDIT_GENERATED_(B9)
  6
Continuous
 62
     7
100
AcDbCircle
 10
47.9535976036
 20
228.277176226
 30
0.0
 40
9.999999999999996
100
AcDbArc
 50
32.8947962553
 51
37.8480959678
  0
ARC
  5
186
330
11A
100
AcDbEntity
  8
$DDT_AUDIT_GENERATED_(B9)
  6
Continuous
 62
     7
100
AcDbCircle
 10
34.7464023964
 20
228.277176226
 30
0.0
 40
9.999999999999998
100
AcDbArc
 50
142.1519040322
 51
147.0967182391
  0
ELLIPSE
  5
187
330
11A
100
AcDbEntity
  8
$DDT_AUDIT_GENERATED_(D6)
  6
Continuous
 62
     7
100
AcDbEllipse
 10
41.35
 20
239.745892656
 30
0.0
 11
-13.22000000000001
 21
6.938893903907228E-15
 31
0.0
210
0.0
220
0.0
230
1.0
 40
0.3939104756
 41
0.9828339676581134
 42
2.15875868593168
  0
LINE
  5
188
330
11A
100
AcDbEntity
  8
$DDT_AUDIT_GENERATED_(D6)
  6
Continuous
 62
     7
100
AcDbLine
 10
48.6826939115
 20
235.4128774243
 30
0.0
 11
48.6826939115
 21
235.9128774243
 31
0.0
  0
LINE
  5
189
330
11A
100
AcDbEntity
  8
$DDT_AUDIT_GENERATED_(D6)
  6
Continuous
 62
     7
100
AcDbLine
 10
34.0173060885
 20
235.9128774243
 30
0.0
 11
34.0173060885
 21
235.4128774243
 31
0.0
  0
LINE
  5
18A
330
11A
100
AcDbEntity
  8
$DDT_AUDIT_GENERATED_(D6)
  6
Continuous
 62
     7
100
AcDbLine
 10
34.0173060885
 20
235.4128774243
 30
0.0
 11
48.6826939115
 21
235.4128774243
 31
0.0
  0
LINE
  5
18B
330
11A
100
AcDbEntity
  8
$DDT_AUDIT_GENERATED_(D6)
  6
Continuous
 62
     7
100
AcDbLine
 10
54.57
 20
234.4128774243
 30
0.0
 11
54.57
 21
235.9128774243
 31
0.0
  0
LINE
  5
18C
330
11A
100
AcDbEntity
  8
$DDT_AUDIT_GENERATED_(D6)
  6
Continuous
 62
     7
100
AcDbLine
 10
28.13
 20
235.9128774243
 30
0.0
 11
28.13
 21
234.4128774243
 31
0.0
  0
LINE
  5
18D
330
11A
100
AcDbEntity
  8
$DDT_AUDIT_GENERATED_(D6)
  6
Continuous
 62
     7
100
AcDbLine
 10
53.4
 20
235.9128774243
 30
0.0
 11
53.4
 21
234.4128774243
 31
0.0
  0
LINE
  5
18E
330
11A
100
AcDbEntity
  8
$DDT_AUDIT_GENERATED_(D6)
  6
Continuous
 62
     7
100
AcDbLine
 10
29.3
 20
235.9128774243
 30
0.0
 11
29.3
 21
234.4128774243
 31
0.0
  0
LINE
  5
18F
330
11A
100
AcDbEntity
  8
$DDT_AUDIT_GENERATED_(73)
  6
Continuous
 62
     7
100
AcDbLine
 10
76.35
 20
261.9128774243
 30
0.0
 11
6.35
 21
261.9128774243
 31
0.0
  0
LINE
  5
190
330
11A
100
AcDbEntity
  8
$DDT_AUDIT_GENERATED_(73)
  6
Continuous
 62
     7
100
AcDbLine
 10
26.4824716585
 20
235.9128774243
 30
0.0
 11
56.2175283415
 21
235.9128774243
 31
0.0
  0
LINE
  5
191
330
11A
100
AcDbEntity
  8
$DDT_AUDIT_GENERATED_(73)
  6
Continuous
 62
     7
100
AcDbLine
 10
6.9179997208
 20
255.3303136081
 30
0.0
 11
75.7820002792
 21
255.3303136081
 31
0.0
  0
LINE
  5
192
330
11A
100
AcDbEntity
  8
$DDT_AUDIT_GENERATED_(73)
  6
Continuous
 62
     7
100
AcDbLine
 10
6.35
 20
261.9128774243
 30
0.0
 11
6.35
 21
256.7265138804
 31
0.0
  0
LINE
  5
193
330
11A
100
AcDbEntity
  8
$DDT_AUDIT_GENERATED_(73)
  6
Continuous
 62
     7
100
AcDbLine
 10
76.35
 20
256.7265138804
 30
0.0
 11
76.35
 21
261.9128774243
 31
0.0
  0
LINE
  5
194
330
11A
100
AcDbEntity
  8
$DDT_AUDIT_GENERATED_(73)
  6
Continuous
 62
     7
100
AcDbLine
 10
6.9179997208
 20
255.3303136081
 30
0.0
 11
25.4084714491
 21
236.3657272201
 31
0.0
  0
LINE
  5
195
330
11A
100
AcDbEntity
  8
$DDT_AUDIT_GENERATED_(73)
  6
Continuous
 62
     7
100
AcDbLine
 10
57.2915285509
 20
236.3657272201
 30
0.0
 11
75.7820002792
 21
255.3303136081
 31
0.0
  0
ARC
  5
196
330
11A
100
AcDbEntity
  8
$DDT_AUDIT_GENERATED_(73)
  6
Continuous
 62
     7
100
AcDbCircle
 10
26.4824716585
 20
237.4128774243
 30
0.0
 40
1.500000000000002
100
AcDbArc
 50
224.2747757009
 51
270.0
  0
ARC
  5
197
330
11A
100
AcDbEntity
  8
$DDT_AUDIT_GENERATED_(73)
  6
Continuous
 62
     7
100
AcDbCircle
 10
56.2175283415
 20
237.4128774243
 30
0.0
 40
1.500000000000001
100
AcDbArc
 50
270.0
 51
315.7252242991
  0
ARC
  5
198
330
11A
100
AcDbEntity
  8
$DDT_AUDIT_GENERATED_(73)
  6
Continuous
 62
     7
100
AcDbCircle
 10
74.35
 20
256.7265138804
 30
0.0
 40
2.0
100
AcDbArc
 50
315.7252242991
 51
0.0
  0
ARC
  5
199
330
11A
100
AcDbEntity
  8
$DDT_AUDIT_GENERATED_(73)
  6
Continuous
 62
     7
100
AcDbCircle
 10
8.35
 20
256.7265138804
 30
0.0
 40
2.000000000000002
100
AcDbArc
 50
180.0
 51
224.2747757009
  0
LINE
  5
19A
330
11A
100
AcDbEntity
  8
$DDT_AUDIT_GENERATED_(B6)
  6
Continuous
 62
     7
100
AcDbLine
 10
201.85
 20
216.4128771596
 30
0.0
 11
201.85
 21
217.4128771596
 31
0.0
  0
LINE
  5
19B
330
11A
100
AcDbEntity
  8
$DDT_AUDIT_GENERATED_(B6)
  6
Continuous
 62
     7
100
AcDbLine
 10
180.85
 20
217.4128771596
 30
0.0
 11
180.85
 21
216.4128771596
 31
0.0
  0
ARC
  5
19C
330
11A
100
AcDbEntity
  8
$DDT_AUDIT_GENERATED_(77)
  6
Continuous
 62
     7
100
AcDbCircle
 10
120.5586671051
 20
174.6725566475
 30
0.0
 40
68.05709877908062
100
AcDbArc
 50
279.7459730586
 51
283.7110391939
  0
SPLINE
  5
19D
330
11A
100
AcDbEntity
  8
$DDT_AUDIT_GENERATED_(77)
  6
Continuous
 62
     7
100
AcDbSpline
210
0.0
220
0.0
230
1.0
 70
     8
 71
     3
 72
    10
 73
     6
 74
     0
 42
0.0000000001666437
 43
0.0000000001
 40
0.0
 40
0.0
 40
0.0
 40
0.0
 40
0.0624999999999999
 40
0.0624999999999999
 40
0.0690715651364124
 40
0.0690715651364124
 40
0.0690715651364124
 40
0.0690715651364124
 10
136.6899234231594
 20
108.5548490055158
 30
0.0
 10
138.2192484327705
 20
108.9047293406902
 30
0.0
 10
139.4729726965709
 20
109.2452870660649
 30
0.0
 10
140.5016562642492
 20
109.5778889117407
 30
0.0
 10
140.5961684092907
 20
109.6091771142937
 30
0.0
 10
140.6872680573064
 20
109.6400830565001
 30
0.0
  0
SPLINE
  5
19E
330
11A
100
AcDbEntity
  8
$DDT_AUDIT_GENERATED_(77)
  6
Continuous
 62
     7
100
AcDbSpline
210
0.0
220
0.0
230
1.0
 70
     8
 71
     3
 72
    10
 73
     6
 74
     0
 42
0.0000000001725176
 43
0.0000000001
 40
0.9226286074569668
 40
0.9226286074569668
 40
0.9226286074569668
 40
0.9226286074569668
 40
0.9375
 40
0.9375
 40
1.0
 40
1.0
 40
1.0
 40
1.0
 10
91.69125704234479
 20
109.7509351501009
 30
0.0
 10
91.87959356569637
 20
109.6827544421972
 30
0.0
 10
92.08622926134426
 20
109.6122989722317
 30
0.0
 10
93.24882930042786
 20
109.2372383296604
 30
0.0
 10
94.48032680142045
 20
108.9032942265612
 30
0.0
 10
96.00949456418873
 20
108.5535557684168
 30
0.0
  0
ARC
  5
19F
330
11A
100
AcDbEntity
  8
$DDT_AUDIT_GENERATED_(77)
  6
Continuous
 62
     7
100
AcDbCircle
 10
112.1003065515
 20
174.5097412013
 30
0.0
 40
67.89059306903853
100
AcDbArc
 50
256.2898106166
 51
260.2877659784
  0
SPLINE
  5
1A0
330
11A
100
AcDbEntity
  8
$DDT_AUDIT_GENERATED_(77)
  6
Continuous
 62
     7
100
AcDbSpline
210
0.0
220
0.0
230
1.0
 70
     8
 71
     3
 72
     8
 73
     4
 74
     0
 42
0.0000000012059527
 43
0.0000000001
 40
0.1512728996205906
 40
0.1512728996205906
 40
0.1512728996205906
 40
0.1512728996205906
 40
0.1518561776994066
 40
0.1518561776994066
 40
0.1518561776994066
 40
0.1518561776994066
 10
89.35173377554658
 20
111.7364127798649
 30
0.0
 10
89.35174089095527
 20
111.7380286740479
 30
0.0
 10
89.35177872053701
 20
111.7396402543009
 30
0.0
 10
89.35184726230929
 20
111.7412475174421
 30
0.0
  0
SPLINE
  5
1A1
330
11A
100
AcDbEntity
  8
$DDT_AUDIT_GENERATED_(77)
  6
Continuous
 62
     7
100
AcDbSpline
210
0.0
220
0.0
230
1.0
 70
     8
 71
     3
 72
    38
 73
    34
 74
     0
 42
0.0000000001283826
 43
0.0000000001
 40
0.1518561776994066
 40
0.1518561776994066
 40
0.1518561776994066
 40
0.1518561776994066
 40
0.1875000000000001
 40
0.1875000000000001
 40
0.2500000000000001
 40
0.2500000000000001
 40
0.2812500000000001
 40
0.2812500000000001
 40
0.3125000000000001
 40
0.3125000000000001
 40
0.375
 40
0.375
 40
0.4374999999999999
 40
0.4374999999999999
 40
0.4687499999999999
 40
0.4687499999999999
 40
0.4999999999999999
 40
0.4999999999999999
 40
0.5624999999999999
 40
0.5624999999999999
 40
0.6249999999999999
 40
0.6249999999999999
 40
0.6562499999999999
 40
0.6562499999999999
 40
0.6874999999999999
 40
0.6874999999999999
 40
0.75
 40
0.75
 40
0.8125
 40
0.8125
 40
0.84375
 40
0.84375
 40
0.8488041838258836
 40
0.8488041838258836
 40
0.8488041838258836
 40
0.8488041838258836
 10
89.3518472623093
 20
111.7412475174421
 30
0.0
 10
89.35603581463202
 20
111.8394665383063
 30
0.0
 10
89.47491501954339
 20
111.9215638704454
 30
0.0
 10
90.11679446243065
 20
112.1012258462102
 30
0.0
 10
90.8884160157302
 20
112.1678915425674
 30
0.0
 10
92.518137414934
 20
112.2142480298705
 30
0.0
 10
93.13872125153489
 20
112.2211935319714
 30
0.0
 10
94.53521285879657
 20
112.2229276588925
 30
0.0
 10
95.31829277891057
 20
112.2176092096545
 30
0.0
 10
97.84624473572778
 20
112.1905860003315
 30
0.0
 10
99.76696714357324
 20
112.1587307298106
 30
0.0
 10
104.089899096753
 20
112.0963465804488
 30
0.0
 10
106.3921336550383
 20
112.0672044148893
 30
0.0
 10
110.0467554054131
 20
112.0367036492647
 30
0.0
 10
111.3037135616162
 20
112.0286623095063
 30
0.0
 10
113.808961985458
 20
112.0180009705152
 30
0.0
 10
115.0665662941547
 20
112.0152759688513
 30
0.0
 10
118.8542274211971
 20
112.0152117322577
 30
0.0
 10
121.4134720974218
 20
112.0265170836683
 30
0.0
 10
126.2582110918531
 20
112.0668585266386
 30
0.0
 10
128.6162906986324
 20
112.0966778289439
 30
0.0
 10
131.820017265456
 20
112.1430009472278
 30
0.0
 10
132.8367567055716
 20
112.1586266723026
 30
0.0
 10
134.7673053823194
 20
112.1871062254132
 30
0.0
 10
135.6872303711071
 20
112.2000225283827
 30
0.0
 10
138.215430865635
 20
112.2272979248337
 30
0.0
 10
139.6131349412966
 20
112.2310273534159
 30
0.0
 10
141.8167949358069
 20
112.1691781686957
 30
0.0
 10
142.570825689815
 20
112.1045279821631
 30
0.0
 10
143.1932946332667
 20
111.9326729639628
 30
0.0
 10
143.3132362183607
 20
111.8624247151812
 30
0.0
 10
143.3474217652685
 20
111.7671266342407
 30
0.0
 10
143.3498724675692
 20
111.7535416181982
 30
0.0
 10
143.3500179928703
 20
111.7396365496886
 30
0.0
  0
ELLIPSE
  5
1A2
330
11A
100
AcDbEntity
  8
$DDT_AUDIT_GENERATED_(77)
  6
Continuous
 62
     7
100
AcDbEllipse
 10
116.35
 20
142.3170168132
 30
0.0
 11
0.0
 21
27.0
 31
0.0
210
0.0
220
0.0
230
1.0
 40
1.0
 41
-1.570796326794897
 42
-1.567279978234825
  0
ELLIPSE
  5
1A3
330
11A
100
AcDbEntity
  8
$DDT_AUDIT_GENERATED_(77)
  6
Continuous
 62
     7
100
AcDbEllipse
 10
116.35
 20
142.3170168132
 30
0.0
 11
0.0
 21
27.0
 31
0.0
210
0.0
220
0.0
230
1.0
 40
1.0
 41
1.570796326794897
 42
4.71238898038469
  0
ELLIPSE
  5
1A4
330
11A
100
AcDbEntity
  8
$DDT_AUDIT_GENERATED_(77)
  6
Continuous
 62
     7
100
AcDbEllipse
 10
116.35
 20
142.3170168132
 30
0.0
 11
0.0
 21
26.99986409097266
 31
0.0
210
0.0
220
0.0
230
1.0
 40
1.0
 41
1.568405913166129
 42
1.570796326794897
  0
ELLIPSE
  5
1A5
330
11A
100
AcDbEntity
  8
$DDT_AUDIT_GENERATED_(77)
  6
Continuous
 62
     7
100
AcDbEllipse
 10
142.3454539134
 20
142.6208189073
 30
0.0
 11
-0.9995523813739505
 21
-0.02991716713982018
 31
0.0
210
0.0
220
0.0
230
0.9999999999999999
 40
0.8479414469
 41
3.106309387958556
 42
4.250959873325948
  0
LINE
  5
1A6
330
11A
100
AcDbEntity
  8
$DDT_AUDIT_GENERATED_(77)
  6
Continuous
 62
     7
100
AcDbLine
 10
141.9791600255
 20
142.6773217701
 30
0.0
 11
142.1791229519
 21
143.1248948555
 31
0.0
  0
ELLIPSE
  5
1A7
330
11A
100
AcDbEntity
  8
$DDT_AUDIT_GENERATED_(77)
  6
Continuous
 62
     7
100
AcDbEllipse
 10
116.35
 20
146.1958691418
 30
0.0
 11
-26.47528135923026
 21
1.387778780781446E-14
 31
0.0
210
0.0
220
0.0
230
1.0
 40
0.5299192642
 41
0.2534979767174552
 42
0.5482571756121192
  0
ELLIPSE
  5
1A8
330
11A
100
AcDbEntity
  8
$DDT_AUDIT_GENERATED_(77)
  6
Continuous
 62
     7
100
AcDbEllipse
 10
116.35
 20
146.1958691418
 30
0.0
 11
-26.47528135923026
 21
1.387778780781446E-14
 31
0.0
210
0.0
220
0.0
230
1.0
 40
0.5299192642
 41
2.582727417447922
 42
2.888094676873543
  0
LINE
  5
1A9
330
11A
100
AcDbEntity
  8
$DDT_AUDIT_GENERATED_(77)
  6
Continuous
 62
     7
100
AcDbLine
 10
90.5209199847
 20
143.1247987513
 30
0.0
 11
90.7208399745
 21
142.67732177
 31
0.0
  0
ELLIPSE
  5
1AA
330
11A
100
AcDbEntity
  8
$DDT_AUDIT_GENERATED_(77)
  6
Continuous
 62
     7
100
AcDbEllipse
 10
142.682504069
 20
143.4019999865
 30
0.0
 11
-2.043504254700679E-12
 21
-0.3999999999874937
 31
0.0
210
0.0
220
0.0
230
1.0
 40
0.998251257
 41
2.458679080954642
 42
3.141592653589793
  0
ARC
  5
1AB
330
11A
100
AcDbEntity
  8
$DDT_AUDIT_GENERATED_(77)
  6
Continuous
 62
     7
100
AcDbCircle
 10
116.2909120725
 20
203.8585310725
 30
0.0
 40
97.5085310725237
100
AcDbArc
 50
260.1185285927
 51
280.1317122551
  0
SPLINE
  5
1AC
330
11A
100
AcDbEntity
  8
$DDT_AUDIT_GENERATED_(77)
  6
Continuous
 62
     7
100
AcDbSpline
210
0.0
220
0.0
230
1.0
 70
     8
 71
     3
 72
    16
 73
    12
 74
     0
 42
0.0000000031493898
 43
0.0000000001
 40
0.0
 40
0.0
 40
0.0
 40
0.0
 40
0.0152811342557316
 40
0.0896563271800257
 40
0.1639558070623891
 40
0.2445133263691485
 40
0.3401819480523776
 40
0.4653647287332915
 40
0.64928017725558
 40
0.8692880716216331
 40
1.0
 40
1.0
 40
1.0
 40
1.0
 10
89.3644910464619
 20
111.7408531819609
 30
0.0
 10
89.3608825607867
 20
111.7110335467286
 30
0.0
 10
89.34293436953347
 20
111.5615221988362
 30
0.0
 10
89.42400369868018
 20
111.2827815521754
 30
0.0
 10
89.56355280710464
 20
110.9923424294769
 30
0.0
 10
89.7464808499688
 20
110.761671058931
 30
0.0
 10
89.95828915547673
 20
110.5658096010113
 30
0.0
 10
90.2373046375392
 20
110.3698260095406
 30
0.0
 10
90.6205862462102
 20
110.1622063621283
 30
0.0
 10
91.07742442054155
 20
109.9601688733421
 30
0.0
 10
91.41861439681676
 20
109.8369478776591
 30
0.0
 10
91.56931175140522
 20
109.7830546364607
 30
0.0
  0
SPLINE
  5
1AD
330
11A
100
AcDbEntity
  8
$DDT_AUDIT_GENERATED_(77)
  6
Continuous
 62
     7
100
AcDbSpline
210
0.0
220
0.0
230
1.0
 70
     8
 71
     3
 72
    16
 73
    12
 74
     0
 42
0.0000000028336975
 43
0.0000000001
 40
0.0
 40
0.0
 40
0.0
 40
0.0
 40
0.0666637280642969
 40
0.2596650709345307
 40
0.4607233066575377
 40
0.6454318350482523
 40
0.7553618324761856
 40
0.8354505457906822
 40
0.9073089332379373
 40
0.9751154671324999
 40
1.0
 40
1.0
 40
1.0
 40
1.0
 10
140.7967527875768
 20
109.6657664581011
 30
0.0
 10
140.8919294337209
 20
109.6967921063768
 30
0.0
 10
141.2072071376274
 20
109.7999888107134
 30
0.0
 10
141.70336385877
 20
109.992692640358
 30
0.0
 10
142.2222504070182
 20
110.2286546895251
 30
0.0
 10
142.6038509068706
 20
110.4539372735782
 30
0.0
 10
142.8902552852036
 20
110.6897727308058
 30
0.0
 10
143.1004582993898
 20
110.9321464749013
 30
0.0
 10
143.2572512014084
 20
111.2200655110174
 30
0.0
 10
143.3507589484644
 20
111.5148520285839
 30
0.0
 10
143.3392880006857
 20
111.6836898180329
 30
0.0
 10
143.335531175886
 20
111.7370847752806
 30
0.0
  0
LINE
  5
1AE
330
11A
100
AcDbEntity
  8
$DDT_AUDIT_GENERATED_(77)
  6
Continuous
 62
     7
100
AcDbLine
 10
89.35
 20
142.3170168132
 30
0.0
 11
89.3500000001
 21
111.7366886923
 31
0.0
  0
LINE
  5
1AF
330
11A
100
AcDbEntity
  8
$DDT_AUDIT_GENERATED_(77)
  6
Continuous
 62
     7
100
AcDbLine
 10
143.3500000001
 20
111.7354994722
 30
0.0
 11
143.35
 21
142.3170168132
 31
0.0
  0
SPLINE
  5
1B0
330
11A
100
AcDbEntity
  8
$DDT_AUDIT_GENERATED_(77)
  6
Continuous
 62
     7
100
AcDbSpline
210
0.0
220
0.0
230
1.0
 70
     8
 71
     3
 72
    14
 73
    10
 74
     0
 42
0.000000008637627
 43
0.0000000001
 40
0.0
 40
0.0
 40
0.0
 40
0.0
 40
0.1541962908774065
 40
0.2979864071314163
 40
0.4279465861053104
 40
0.5463445556344166
 40
0.6855276127313821
 40
0.9306818293771808
 40
1.0
 40
1.0
 40
1.0
 40
1.0
 10
89.76057058652972
 20
143.7087063982332
 30
0.0
 10
89.69585127784391
 20
143.6500466203706
 30
0.0
 10
89.59107804415123
 20
143.5526321666254
 30
0.0
 10
89.4779935033224
 20
143.3623605334987
 30
0.0
 10
89.41529429771852
 20
143.1904649233421
 30
0.0
 10
89.38512236771265
 20
143.0479486007892
 30
0.0
 10
89.36750926471224
 20
142.9068925136026
 30
0.0
 10
89.35949756994563
 20
142.7839960484221
 30
0.0
 10
89.356628812978
 20
142.6949402898687
 30
0.0
 10
89.35594242432465
 20
142.6720348770902
 30
0.0
  0
SPLINE
  5
1B1
330
11A
100
AcDbEntity
  8
$DDT_AUDIT_GENERATED_(77)
  6
Continuous
 62
     7
100
AcDbSpline
210
0.0
220
0.0
230
1.0
 70
     8
 71
     3
 72
    13
 73
     9
 74
     0
 42
0.0000000088177333
 43
0.0000000001
 40
0.0
 40
0.0
 40
0.0
 40
0.0
 40
0.1002915742619986
 40
0.3499827644761575
 40
0.5042221976947993
 40
0.658253173097158
 40
0.8209522507948177
 40
1.0
 40
1.0
 40
1.0
 40
1.0
 10
143.3429125781841
 20
142.6955168598396
 30
0.0
 10
143.3419178334316
 20
142.7273162513108
 30
0.0
 10
143.3385366575817
 20
142.8227928467593
 30
0.0
 10
143.3285263629562
 20
142.9504552053482
 30
0.0
 10
143.3034682612291
 20
143.1176859662303
 30
0.0
 10
143.2458056377945
 20
143.3128032562423
 30
0.0
 10
143.1279170620905
 20
143.5312061350544
 30
0.0
 10
143.0128518010309
 20
143.6415393365684
 30
0.0
 10
142.9408897793384
 20
143.7088142504585
 30
0.0
  0
LINE
  5
1B2
330
11A
100
AcDbEntity
  8
$DDT_AUDIT_GENERATED_(77)
  6
Continuous
 62
     7
100
AcDbLine
 10
143.3448204676
 20
142.6495866707
 30
0.0
 11
143.3435540673
 21
142.6886524497
 31
0.0
  0
LINE
  5
1B3
330
11A
100
AcDbEntity
  8
$DDT_AUDIT_GENERATED_(77)
  6
Continuous
 62
     7
100
AcDbLine
 10
143.3448493816
 20
142.4214497718
 30
0.0
 11
143.3450062948
 21
142.6507360745
 31
0.0
  0
LINE
  5
1B4
330
11A
100
AcDbEntity
  8
$DDT_AUDIT_GENERATED_(77)
  6
Continuous
 62
     7
100
AcDbLine
 10
89.3549937052
 20
142.6507360744
 30
0.0
 11
89.3548460363
 21
142.3880194556
 31
0.0
  0
LINE
  5
1B5
330
11A
100
AcDbEntity
  8
$DDT_AUDIT_GENERATED_(77)
  6
Continuous
 62
     7
100
AcDbLine
 10
142.682504069
 20
143.8019999865
 30
0.0
 11
140.5048894323
 21
143.8019999865
 31
0.0
  0
LINE
  5
1B6
330
11A
100
AcDbEntity
  8
$DDT_AUDIT_GENERATED_(77)
  6
Continuous
 62
     7
100
AcDbLine
 10
92.1951105678
 20
143.8019999864
 30
0.0
 11
90.017495931
 21
143.8019999864
 31
0.0
  0
ARC
  5
1B7
330
11A
100
AcDbEntity
  8
$DDT_AUDIT_GENERATED_(77)
  6
Continuous
 62
     7
100
AcDbCircle
 10
89.9897492573
 20
143.4877730701
 30
0.0
 40
0.311973656348368
100
AcDbArc
 50
86.0510371491
 51
136.0678416828
  0
SPLINE
  5
1B8
330
11A
100
AcDbEntity
  8
$DDT_AUDIT_GENERATED_(77)
  6
Continuous
 62
     7
100
AcDbSpline
210
0.0
220
0.0
230
1.0
 70
     8
 71
     3
 72
    38
 73
    34
 74
     0
 42
0.0000000002083026
 43
0.0000000001
 40
0.0
 40
0.0
 40
0.0
 40
0.0
 40
0.0051956913096909
 40
0.0389134879090647
 40
0.0726164703836592
 40
0.1063165168034938
 40
0.1400201604191345
 40
0.1737327188196192
 40
0.2074567906121838
 40
0.2411932042242108
 40
0.2749416842546621
 40
0.308701297479446
 40
0.3424707403110156
 40
0.3762485172522383
 40
0.4100330466566377
 40
0.4438227190937706
 40
0.4776159254116571
 40
0.5114110658497167
 40
0.5452065477318748
 40
0.5790003102671031
 40
0.6127906801318206
 40
0.6465760213901786
 40
0.6803546681629266
 40
0.7141249307231702
 40
0.7478851189978545
 40
0.7816335941925548
 40
0.8153688647566231
 40
0.8490897508040938
 40
0.8827956518415293
 40
0.9164869658572028
 40
0.9501657208702373
 40
0.9838364849487135
 40
1.0
 40
1.0
 40
1.0
 40
1.0
 10
138.8954018367275
 20
138.884200039963
 30
0.0
 10
138.8441786216934
 20
138.8375864810621
 30
0.0
 10
138.5143839403291
 20
138.5380370928717
 30
0.0
 10
137.7378726548184
 20
137.9576314205525
 30
0.0
 10
136.6293031498738
 20
137.2094859876786
 30
0.0
 10
135.4035653101872
 20
136.4967385715382
 30
0.0
 10
134.0918936671598
 20
135.8306714419719
 30
0.0
 10
132.693568130871
 20
135.212591409911
 30
0.0
 10
131.2170091998591
 20
134.6461939310578
 30
0.0
 10
129.6687398560625
 20
134.1342235502476
 30
0.0
 10
128.0562925645891
 20
133.6793388345189
 30
0.0
 10
126.3873690687115
 20
133.2838548683953
 30
0.0
 10
124.6700058910292
 20
132.949793742364
 30
0.0
 10
122.9124717788685
 20
132.6788575076012
 30
0.0
 10
121.1232384251542
 20
132.4724255126245
 30
0.0
 10
119.3109326446564
 20
132.3315478612045
 30
0.0
 10
117.4842943122356
 20
132.2569419843401
 30
0.0
 10
115.6521333108559
 20
132.2489901015764
 30
0.0
 10
113.8232955541308
 20
132.3077376880378
 30
0.0
 10
112.0066132614549
 20
132.432892075697
 30
0.0
 10
110.2108612505758
 20
132.6238231595851
 30
0.0
 10
108.4447064832213
 20
132.8795669415808
 30
0.0
 10
106.7166742946197
 20
133.1988279975325
 30
0.0
 10
105.0351048832123
 20
133.579984267962
 30
0.0
 10
103.4081217168698
 20
134.0210876765366
 30
0.0
 10
101.8435502259942
 20
134.5198856932332
 30
0.0
 10
100.3490196066302
 20
135.0737708248766
 30
0.0
 10
98.93137751608062
 20
135.6800069249424
 30
0.0
 10
97.59866114636833
 20
136.3349346132811
 30
0.0
 10
96.35252538016202
 20
137.0370019494365
 30
0.0
 10
95.21625452531296
 20
137.7755552287595
 30
0.0
 10
94.31828231065326
 20
138.4346235007341
 30
0.0
 10
93.89112867694635
 20
138.8123342139408
 30
0.0
 10
93.72898749702148
 20
138.9565663022202
 30
0.0
  0
LINE
  5
1BA
330
11A
100
AcDbEntity
  8
DV3_Standard
  6
CENTER2
 62
     7
100
AcDbLine
 10
61.349999553
 20
261.9128774243
 30
0.0
 11
21.350000447
 21
261.9128774243
 31
0.0
  0
LINE
  5
1BB
330
11A
100
AcDbEntity
  8
DV3_Standard
  6
CENTER2
 62
     7
100
AcDbLine
 10
41.35
 20
281.9128769772
 30
0.0
 11
41.35
 21
241.9128778713
 31
0.0
  0
LINE
  5
1BC
330
11A
100
AcDbEntity
  8
DV3_Standard
  6
CENTER2
 62
     7
100
AcDbLine
 10
211.349999553
 20
261.9128796565
 30
0.0
 11
171.350000447
 21
261.9128796565
 31
0.0
  0
LINE
  5
1BD
330
11A
100
AcDbEntity
  8
DV3_Standard
  6
CENTER2
 62
     7
100
AcDbLine
 10
191.35
 20
281.9128792095
 30
0.0
 11
191.35
 21
241.9128801036
 31
0.0
  0
ENDBLK
  5
1BF
330
11A
100
AcDbEntity
  8
0
100
AcDbBlockEnd
  0
ENDSEC
  0
SECTION
  2
ENTITIES
  0
INSERT
  5
5F
330
1F
100
AcDbEntity
  8
Default
100
AcDbBlockReference
  2
SE
 10
0.0
 20
0.0
 30
0.0
  0
INSERT
  5
93
330
1F
100
AcDbEntity
  8
Default
100
AcDbBlockReference
  2
SE1
 10
0.0
 20
0.0
 30
0.0
  0
INSERT
  5
11B
330
1F
100
AcDbEntity
  8
Default
100
AcDbBlockReference
  2
SE2
 10
0.0
 20
0.0
 30
0.0
  0
TEXT
  5
1C1
330
1F
100
AcDbEntity
  8
Default
  6
Continuous
 62
     7
100
AcDbText
 10
5.9362635081
 20
53.4225120485
 30
0.0
 40
10.0
  1
Grohe AG^J
  7
SEACAD_seiso_ttf
 11
5.9362635081
 21
63.4225120485
 31
0.0
100
AcDbText
 73
     3
  0
TEXT
  5
1C2
330
1F
100
AcDbEntity
  8
Default
  6
Continuous
 62
     7
100
AcDbText
 10
5.9362635081
 20
37.0588756849
 30
0.0
 40
10.0
  1
 
  7
SEACAD_seiso_ttf
 11
5.9362635081
 21
47.0588756849
 31
0.0
100
AcDbText
 73
     3
  0
TEXT
  5
1C3
330
1F
100
AcDbEntity
  8
Default
  6
Continuous
 62
     7
100
AcDbText
 10
5.9362635081
 20
20.6952393213
 30
0.0
 40
10.0
  1
ecn: 
  7
SEACAD_seiso_ttf
 11
5.9362635081
 21
30.6952393213
 31
0.0
100
AcDbText
 73
     3
  0
TEXT
  5
1C4
330
1F
100
AcDbEntity
  8
Default
  6
Continuous
 62
     7
100
AcDbText
 10
5.9362635081
 20
4.3316029576
 30
0.0
 40
10.0
  1
unit: mm
  7
SEACAD_seiso_ttf
 11
5.9362635081
 21
14.3316029576
 31
0.0
100
AcDbText
 73
     3
  0
LINE
  5
1C5
330
1F
100
AcDbEntity
  8
Default
  6
Continuous
 62
     7
100
AcDbLine
 10
0.0
 20
0.0
 30
0.0
 11
100.0
 21
0.0
 31
0.0
  0
LINE
  5
1C6
330
1F
100
AcDbEntity
  8
Default
  6
Continuous
 62
     7
100
AcDbLine
 10
0.0
 20
0.0
 30
0.0
 11
0.0
 21
100.0
 31
0.0
  0
TEXT
  5
1C7
330
1F
100
AcDbEntity
  8
Default
  6
Continuous
 62
     7
100
AcDbText
 10
24.3923665681
 20
-18.2375342018
 30
0.0
 40
10.0
  1
100 mm
  7
SEACAD_seiso_ttf
 11
24.3923665681
 21
-8.2375342018
 31
0.0
100
AcDbText
 73
     3
  0
TEXT
  5
1C8
330
1F
100
AcDbEntity
  8
Default
  6
Continuous
 62
     7
100
AcDbText
 10
-7.6150308803
 20
24.6231930421
 30
0.0
 40
10.0
  1
100 mm
 50
90.0
  7
SEACAD_seiso_ttf
 11
-17.6150308803
 21
24.6231930421
 31
0.0
100
AcDbText
 73
     3
  0
TEXT
  5
1C9
330
1F
100
AcDbEntity
  8
Default
  6
Continuous
 62
     7
100
AcDbText
 10
28.4878128572
 20
20.0907663715
 30
0.0
 40
10.0
  1
216030
  7
SEACAD_seiso_ttf
 11
28.4878128572
 21
30.0907663715
 31
0.0
100
AcDbText
 73
     3
  0
TEXT
  5
1CA
330
1F
100
AcDbEntity
  8
Default
  6
Continuous
 62
     7
100
AcDbText
 10
5.9012241913
 20
36.7242780188
 30
0.0
 40
10.0
  1
33590001
  7
SEACAD_seiso_ttf
 11
5.9012241913
 21
46.7242780188
 31
0.0
100
AcDbText
 73
     3
  0
ENDSEC
  0
SECTION
  2
OBJECTS
  0
DICTIONARY
  5
C
330
0
100
AcDbDictionary
281
     1
  3
ACAD_GROUP
350
D
  3
ACAD_LAYOUT
350
1A
  3
ACAD_MLEADERSTYLE
350
1CE
  3
ACAD_MLINESTYLE
350
17
  3
ACAD_PLOTSETTINGS
350
19
  3
ACAD_PLOTSTYLENAME
350
E
  3
ACAD_SCALELIST
350
3B
  3
ACAD_TABLESTYLE
350
1CD
  3
ACAD_VISUALSTYLE
350
2A
  3
AcDbVariableDictionary
350
1CB
  0
DICTIONARY
  5
D
102
{ACAD_REACTORS
330
C
102
}
330
C
100
AcDbDictionary
281
     1
  0
DICTIONARY
  5
1A
102
{ACAD_REACTORS
330
C
102
}
330
C
100
AcDbDictionary
281
     1
  3
Layout1
350
1E
  3
Model
350
22
  0
DICTIONARY
  5
1CE
102
{ACAD_REACTORS
330
C
102
}
330
C
100
AcDbDictionary
281
     1
  0
DICTIONARY
  5
17
102
{ACAD_REACTORS
330
C
102
}
330
C
100
AcDbDictionary
281
     1
  3
Standard
350
18
  0
DICTIONARY
  5
19
102
{ACAD_REACTORS
330
C
102
}
330
C
100
AcDbDictionary
281
     1
  0
ACDBDICTIONARYWDFLT
  5
E
102
{ACAD_REACTORS
330
C
102
}
330
C
100
AcDbDictionary
281
     1
  3
Normal
350
F
100
AcDbDictionaryWithDefault
340
F
  0
DICTIONARY
  5
3B
102
{ACAD_REACTORS
330
C
102
}
330
C
100
AcDbDictionary
281
     1
  3
A0
350
3C
  3
A1
350
3D
  3
A2
350
3E
  3
A3
350
3F
  3
A4
350
40
  3
A5
350
41
  3
A6
350
42
  3
A7
350
43
  3
A8
350
44
  3
A9
350
45
  3
B0
350
46
  3
B1
350
47
  3
B2
350
48
  3
B3
350
49
  3
B4
350
4A
  3
B5
350
4B
  3
B6
350
4C
  3
B7
350
4D
  3
B8
350
4E
  3
B9
350
4F
  3
C0
350
50
  3
C1
350
51
  3
C2
350
52
  3
C3
350
53
  3
C4
350
54
  3
C5
350
55
  3
C6
350
56
  3
C7
350
57
  3
C8
350
58
  3
C9
350
59
  3
D0
350
5A
  3
D1
350
5B
  3
D2
350
5C
  0
DICTIONARY
  5
1CD
102
{ACAD_REACTORS
330
C
102
}
330
C
100
AcDbDictionary
281
     1
  0
DICTIONARY
  5
2A
102
{ACAD_REACTORS
330
C
102
}
330
C
100
AcDbDictionary
281
     1
  3
2dWireframe
350
2F
  3
3D Hidden
350
31
  3
3dWireframe
350
30
  3
Basic
350
32
  3
Brighten
350
36
  3
ColorChange
350
3A
  3
Conceptual
350
34
  3
Dim
350
35
  3
Facepattern
350
39
  3
Flat
350
2B
  3
FlatWithEdges
350
2C
  3
Gouraud
350
2D
  3
GouraudWithEdges
350
2E
  3
Linepattern
350
38
  3
Realistic
350
33
  3
Thicken
350
37
  0
DICTIONARY
  5
1CB
102
{ACAD_REACTORS
330
C
102
}
330
C
100
AcDbDictionary
281
     1
  3
CANNOSCALE
350
1CC
  3
PSOLHEIGHT
350
1D0
  3
PSOLWIDTH
350
1CF
  0
LAYOUT
  5
1E
102
{ACAD_REACTORS
330
1A
102
}
330
1A
100
AcDbPlotSettings
  1

  2
none_device
  4

  6

 40
0.0
 41
0.0
 42
0.0
 43
0.0
 44
0.0
 45
0.0
 46
0.0
 47
0.0
 48
0.0
 49
0.0
140
0.0
141
0.0
142
1.0
143
1.0
 70
   688
 72
     0
 73
     0
 74
     5
  7

 75
    16
147
1.0
148
0.0
149
0.0
100
AcDbLayout
  1
Layout1
 70
     1
 71
     1
 10
0.0
 20
0.0
 11
1682.0
 21
2378.0
 12
0.0
 22
0.0
 32
0.0
 14
0.0
 24
0.0
 34
0.0
 15
1682.0
 25
2378.0
 35
0.0
146
0.0
 13
0.0
 23
0.0
 33
0.0
 16
1.0
 26
0.0
 36
0.0
 17
0.0
 27
1.0
 37
0.0
 76
     0
330
1B
  0
LAYOUT
  5
22
102
{ACAD_REACTORS
330
1A
102
}
330
1A
100
AcDbPlotSettings
  1

  2
none_device
  4

  6

 40
0.0
 41
0.0
 42
0.0
 43
0.0
 44
0.0
 45
0.0
 46
0.0
 47
0.0
 48
0.0
 49
0.0
140
0.0
141
0.0
142
1.0
143
1.0
 70
  1712
 72
     0
 73
     0
 74
     0
  7

 75
     0
147
1.0
148
0.0
149
0.0
100
AcDbLayout
  1
Model
 70
     1
 71
     0
 10
0.0
 20
0.0
 11
1682.0
 21
2378.0
 12
0.0
 22
0.0
 32
0.0
 14
0.0
 24
0.0
 34
0.0
 15
1682.0
 25
2378.0
 35
0.0
146
0.0
 13
0.0
 23
0.0
 33
0.0
 16
1.0
 26
0.0
 36
0.0
 17
0.0
 27
1.0
 37
0.0
 76
     0
330
1F
331
29
  0
MLINESTYLE
  5
18
102
{ACAD_REACTORS
330
17
102
}
330
17
100
AcDbMlineStyle
  2
Standard
 70
     0
  3

 62
   256
 51
90.0
 52
90.0
 71
     2
 49
0.5
 62
   256
  6
BYLAYER
 49
-0.5
 62
   256
  6
BYLAYER
  0
ACDBPLACEHOLDER
  5
F
102
{ACAD_REACTORS
330
E
102
}
330
E
  0
SCALE
  5
3C
102
{ACAD_REACTORS
330
3B
102
}
330
3B
100
AcDbScale
 70
     0
300
1:1
140
1.0
141
1.0
290
     1
  0
SCALE
  5
3D
102
{ACAD_REACTORS
330
3B
102
}
330
3B
100
AcDbScale
 70
     0
300
1:2
140
1.0
141
2.0
290
     0
  0
SCALE
  5
3E
102
{ACAD_REACTORS
330
3B
102
}
330
3B
100
AcDbScale
 70
     0
300
1:4
140
1.0
141
4.0
290
     0
  0
SCALE
  5
3F
102
{ACAD_REACTORS
330
3B
102
}
330
3B
100
AcDbScale
 70
     0
300
1:5
140
1.0
141
5.0
290
     0
  0
SCALE
  5
40
102
{ACAD_REACTORS
330
3B
102
}
330
3B
100
AcDbScale
 70
     0
300
1:8
140
1.0
141
8.0
290
     0
  0
SCALE
  5
41
102
{ACAD_REACTORS
330
3B
102
}
330
3B
100
AcDbScale
 70
     0
300
1:10
140
1.0
141
10.0
290
     0
  0
SCALE
  5
42
102
{ACAD_REACTORS
330
3B
102
}
330
3B
100
AcDbScale
 70
     0
300
1:16
140
1.0
141
16.0
290
     0
  0
SCALE
  5
43
102
{ACAD_REACTORS
330
3B
102
}
330
3B
100
AcDbScale
 70
     0
300
1:20
140
1.0
141
20.0
290
     0
  0
SCALE
  5
44
102
{ACAD_REACTORS
330
3B
102
}
330
3B
100
AcDbScale
 70
     0
300
1:30
140
1.0
141
30.0
290
     0
  0
SCALE
  5
45
102
{ACAD_REACTORS
330
3B
102
}
330
3B
100
AcDbScale
 70
     0
300
1:40
140
1.0
141
40.0
290
     0
  0
SCALE
  5
46
102
{ACAD_REACTORS
330
3B
102
}
330
3B
100
AcDbScale
 70
     0
300
1:50
140
1.0
141
50.0
290
     0
  0
SCALE
  5
47
102
{ACAD_REACTORS
330
3B
102
}
330
3B
100
AcDbScale
 70
     0
300
1:100
140
1.0
141
100.0
290
     0
  0
SCALE
  5
48
102
{ACAD_REACTORS
330
3B
102
}
330
3B
100
AcDbScale
 70
     0
300
2:1
140
2.0
141
1.0
290
     0
  0
SCALE
  5
49
102
{ACAD_REACTORS
330
3B
102
}
330
3B
100
AcDbScale
 70
     0
300
4:1
140
4.0
141
1.0
290
     0
  0
SCALE
  5
4A
102
{ACAD_REACTORS
330
3B
102
}
330
3B
100
AcDbScale
 70
     0
300
8:1
140
8.0
141
1.0
290
     0
  0
SCALE
  5
4B
102
{ACAD_REACTORS
330
3B
102
}
330
3B
100
AcDbScale
 70
     0
300
10:1
140
10.0
141
1.0
290
     0
  0
SCALE
  5
4C
102
{ACAD_REACTORS
330
3B
102
}
330
3B
100
AcDbScale
 70
     0
300
100:1
140
100.0
141
1.0
290
     0
  0
SCALE
  5
4D
102
{ACAD_REACTORS
330
3B
102
}
330
3B
100
AcDbScale
 70
     0
300
1/128" = 1'-0"
140
0.0078125
141
12.0
290
     0
  0
SCALE
  5
4E
102
{ACAD_REACTORS
330
3B
102
}
330
3B
100
AcDbScale
 70
     0
300
1/64" = 1'-0"
140
0.015625
141
12.0
290
     0
  0
SCALE
  5
4F
102
{ACAD_REACTORS
330
3B
102
}
330
3B
100
AcDbScale
 70
     0
300
1/32" = 1'-0"
140
0.03125
141
12.0
290
     0
  0
SCALE
  5
50
102
{ACAD_REACTORS
330
3B
102
}
330
3B
100
AcDbScale
 70
     0
300
1/16" = 1'-0"
140
0.0625
141
12.0
290
     0
  0
SCALE
  5
51
102
{ACAD_REACTORS
330
3B
102
}
330
3B
100
AcDbScale
 70
     0
300
3/32" = 1'-0"
140
0.09375
141
12.0
290
     0
  0
SCALE
  5
52
102
{ACAD_REACTORS
330
3B
102
}
330
3B
100
AcDbScale
 70
     0
300
1/8" = 1'-0"
140
0.125
141
12.0
290
     0
  0
SCALE
  5
53
102
{ACAD_REACTORS
330
3B
102
}
330
3B
100
AcDbScale
 70
     0
300
3/16" = 1'-0"
140
0.1875
141
12.0
290
     0
  0
SCALE
  5
54
102
{ACAD_REACTORS
330
3B
102
}
330
3B
100
AcDbScale
 70
     0
300
1/4" = 1'-0"
140
0.25
141
12.0
290
     0
  0
SCALE
  5
55
102
{ACAD_REACTORS
330
3B
102
}
330
3B
100
AcDbScale
 70
     0
300
3/8" = 1'-0"
140
0.375
141
12.0
290
     0
  0
SCALE
  5
56
102
{ACAD_REACTORS
330
3B
102
}
330
3B
100
AcDbScale
 70
     0
300
1/2" = 1'-0"
140
0.5
141
12.0
290
     0
  0
SCALE
  5
57
102
{ACAD_REACTORS
330
3B
102
}
330
3B
100
AcDbScale
 70
     0
300
3/4" = 1'-0"
140
0.75
141
12.0
290
     0
  0
SCALE
  5
58
102
{ACAD_REACTORS
330
3B
102
}
330
3B
100
AcDbScale
 70
     0
300
1" = 1'-0"
140
1.0
141
12.0
290
     0
  0
SCALE
  5
59
102
{ACAD_REACTORS
330
3B
102
}
330
3B
100
AcDbScale
 70
     0
300
1-1/2" = 1'-0"
140
1.5
141
12.0
290
     0
  0
SCALE
  5
5A
102
{ACAD_REACTORS
330
3B
102
}
330
3B
100
AcDbScale
 70
     0
300
3" = 1'-0"
140
3.0
141
12.0
290
     0
  0
SCALE
  5
5B
102
{ACAD_REACTORS
330
3B
102
}
330
3B
100
AcDbScale
 70
     0
300
6" = 1'-0"
140
6.0
141
12.0
290
     0
  0
SCALE
  5
5C
102
{ACAD_REACTORS
330
3B
102
}
330
3B
100
AcDbScale
 70
     0
300
1'-0" = 1'-0"
140
12.0
141
12.0
290
     0
  0
VISUALSTYLE
  5
2F
102
{ACAD_REACTORS
330
2A
102
}
330
2A
100
AcDbVisualStyle
  2
2dWireframe
 70
     4
 71
     0
 72
     2
 73
     0
 90
        0
 40
-0.6
 41
-30.0
 62
     5
 63
     7
 74
     1
 91
        4
 64
     7
 65
   257
 75
     1
175
     1
 42
1.0
 92
        0
 66
   257
 43
1.0
 76
     1
 77
     6
 78
     2
 67
     7
 79
     5
170
     0
171
     0
290
     0
174
     0
 93
        1
 44
0.0
173
     0
291
     0
 45
0.0
1001
ACAD
1000
AcDbSavedByObjectVersion
1070
     0
  0
VISUALSTYLE
  5
31
102
{ACAD_REACTORS
330
2A
102
}
330
2A
100
AcDbVisualStyle
  2
3D Hidden
 70
     6
 71
     1
 72
     2
 73
     2
 90
        0
 40
-0.6
 41
-30.0
 62
     5
 63
     7
 74
     2
 91
        2
 64
     7
 65
   257
 75
     2
175
     1
 42
40.0
 92
        0
 66
   257
 43
1.0
 76
     1
 77
     6
 78
     2
 67
     7
 79
     3
170
     0
171
     0
290
     0
174
     0
 93
        1
 44
0.0
173
     0
291
     0
 45
0.0
1001
ACAD
1000
AcDbSavedByObjectVersion
1070
     0
  0
VISUALSTYLE
  5
30
102
{ACAD_REACTORS
330
2A
102
}
330
2A
100
AcDbVisualStyle
  2
3dWireframe
 70
     5
 71
     0
 72
     2
 73
     0
 90
        0
 40
-0.6
 41
-30.0
 62
     5
 63
     7
 74
     1
 91
        4
 64
     7
 65
   257
 75
     1
175
     1
 42
1.0
 92
        0
 66
   257
 43
1.0
 76
     1
 77
     6
 78
     2
 67
     7
 79
     5
170
     0
171
     0
290
     0
174
     0
 93
        1
 44
0.0
173
     0
291
     0
 45
0.0
1001
ACAD
1000
AcDbSavedByObjectVersion
1070
     0
  0
VISUALSTYLE
  5
32
102
{ACAD_REACTORS
330
2A
102
}
330
2A
100
AcDbVisualStyle
  2
Basic
 70
     7
 71
     1
 72
     0
 73
     1
 90
        0
 40
-0.6
 41
-30.0
 62
     5
 63
     7
 74
     0
 91
        4
 64
     7
 65
   257
 75
     1
175
     1
 42
1.0
 92
        8
 66
     7
 43
1.0
 76
     1
 77
     6
 78
     2
 67
     7
 79
     5
170
     0
171
     0
290
     0
174
     0
 93
        1
 44
0.0
173
     0
291
     1
 45
0.0
1001
ACAD
1000
AcDbSavedByObjectVersion
1070
     0
  0
VISUALSTYLE
  5
36
102
{ACAD_REACTORS
330
2A
102
}
330
2A
100
AcDbVisualStyle
  2
Brighten
 70
    12
 71
     2
 72
     2
 73
     0
 90
        0
 40
-0.6
 41
-30.0
 62
     5
 63
     7
 74
     1
 91
        4
 64
     7
 65
   257
 75
     1
175
     1
 42
1.0
 92
        8
 66
     7
 43
1.0
 76
     1
 77
     6
 78
     2
 67
     7
 79
     5
170
     0
171
     0
290
     0
174
     0
 93
        1
 44
50.0
173
     0
291
     1
 45
0.0
1001
ACAD
1000
AcDbSavedByObjectVersion
1070
     0
  0
VISUALSTYLE
  5
3A
102
{ACAD_REACTORS
330
2A
102
}
330
2A
100
AcDbVisualStyle
  2
ColorChange
 70
    16
 71
     2
 72
     2
 73
     3
 90
        0
 40
-0.6
 41
-30.0
 62
     5
 63
     8
 74
     1
 91
        4
 64
     7
 65
   257
 75
     1
175
     1
 42
1.0
 92
        8
 66
     8
 43
1.0
 76
     1
 77
     6
 78
     2
 67
     7
 79
     5
170
     0
171
     0
290
     0
174
     0
 93
        1
 44
0.0
173
     0
291
     1
 45
0.0
1001
ACAD
1000
AcDbSavedByObjectVersion
1070
     0
  0
VISUALSTYLE
  5
34
102
{ACAD_REACTORS
330
2A
102
}
330
2A
100
AcDbVisualStyle
  2
Conceptual
 70
     9
 71
     3
 72
     2
 73
     0
 90
        0
 40
-0.6
 41
-30.0
 62
     5
 63
     7
 74
     2
 91
        2
 64
     7
 65
   257
 75
     1
175
     1
 42
40.0
 92
        8
 66
     7
 43
1.0
 76
     1
 77
     6
 78
     2
 67
     7
 79
     3
170
     0
171
     0
290
     0
174
     0
 93
        1
 44
0.0
173
     0
291
     0
 45
0.0
1001
ACAD
1000
AcDbSavedByObjectVersion
1070
     0
  0
VISUALSTYLE
  5
35
102
{ACAD_REACTORS
330
2A
102
}
330
2A
100
AcDbVisualStyle
  2
Dim
 70
    11
 71
     2
 72
     2
 73
     0
 90
        0
 40
-0.6
 41
-30.0
 62
     5
 63
     7
 74
     1
 91
        4
 64
     7
 65
   257
 75
     1
175
     1
 42
1.0
 92
        8
 66
     7
 43
1.0
 76
     1
 77
     6
 78
     2
 67
     7
 79
     5
170
     0
171
     0
290
     0
174
     0
 93
        1
 44
-50.0
173
     0
291
     1
 45
0.0
1001
ACAD
1000
AcDbSavedByObjectVersion
1070
     0
  0
VISUALSTYLE
  5
39
102
{ACAD_REACTORS
330
2A
102
}
330
2A
100
AcDbVisualStyle
  2
Facepattern
 70
    15
 71
     2
 72
     2
 73
     0
 90
        0
 40
-0.6
 41
-30.0
 62
     5
 63
     7
 74
     1
 91
        4
 64
     7
 65
   257
 75
     1
175
     1
 42
1.0
 92
        8
 66
     7
 43
1.0
 76
     1
 77
     6
 78
     2
 67
     7
 79
     5
170
     0
171
     0
290
     0
174
     0
 93
        1
 44
0.0
173
     0
291
     1
 45
0.0
1001
ACAD
1000
AcDbSavedByObjectVersion
1070
     0
  0
VISUALSTYLE
  5
2B
102
{ACAD_REACTORS
330
2A
102
}
330
2A
100
AcDbVisualStyle
  2
Flat
 70
     0
 71
     2
 72
     1
 73
     1
 90
        2
 40
-0.6
 41
30.0
 62
     5
 63
     7
 74
     0
 91
        4
 64
     7
 65
   257
 75
     1
175
     1
 42
1.0
 92
        8
 66
     7
 43
1.0
 76
     1
 77
     6
 78
     2
 67
     7
 79
     5
170
     0
171
     0
290
     0
174
     0
 93
       13
 44
0.0
173
     0
291
     1
 45
0.0
1001
ACAD
1000
AcDbSavedByObjectVersion
1070
     0
  0
VISUALSTYLE
  5
2C
102
{ACAD_REACTORS
330
2A
102
}
330
2A
100
AcDbVisualStyle
  2
FlatWithEdges
 70
     1
 71
     2
 72
     1
 73
     1
 90
        2
 40
-0.6
 41
30.0
 62
     5
 63
     7
 74
     1
 91
        4
 64
     7
 65
   257
 75
     1
175
     1
 42
1.0
 92
        0
 66
   257
 43
1.0
 76
     1
 77
     6
 78
     2
 67
     7
 79
     5
170
     0
171
     0
290
     0
174
     0
 93
       13
 44
0.0
173
     0
291
     1
 45
0.0
1001
ACAD
1000
AcDbSavedByObjectVersion
1070
     0
  0
VISUALSTYLE
  5
2D
102
{ACAD_REACTORS
330
2A
102
}
330
2A
100
AcDbVisualStyle
  2
Gouraud
 70
     2
 71
     2
 72
     2
 73
     1
 90
        2
 40
-0.6
 41
30.0
 62
     5
 63
     7
 74
     0
 91
        4
 64
     7
 65
   257
 75
     1
175
     1
 42
1.0
 92
        0
 66
     7
 43
1.0
 76
     1
 77
     6
 78
     2
 67
     7
 79
     5
170
     0
171
     0
290
     0
174
     0
 93
       13
 44
0.0
173
     0
291
     1
 45
0.0
1001
ACAD
1000
AcDbSavedByObjectVersion
1070
     0
  0
VISUALSTYLE
  5
2E
102
{ACAD_REACTORS
330
2A
102
}
330
2A
100
AcDbVisualStyle
  2
GouraudWithEdges
 70
     3
 71
     2
 72
     2
 73
     1
 90
        2
 40
-0.6
 41
30.0
 62
     5
 63
     7
 74
     1
 91
        4
 64
     7
 65
   257
 75
     1
175
     1
 42
1.0
 92
        0
 66
   257
 43
1.0
 76
     1
 77
     6
 78
     2
 67
     7
 79
     5
170
     0
171
     0
290
     0
174
     0
 93
       13
 44
0.0
173
     0
291
     1
 45
0.0
1001
ACAD
1000
AcDbSavedByObjectVersion
1070
     0
  0
VISUALSTYLE
  5
38
102
{ACAD_REACTORS
330
2A
102
}
330
2A
100
AcDbVisualStyle
  2
Linepattern
 70
    14
 71
     2
 72
     2
 73
     0
 90
        0
 40
-0.6
 41
-30.0
 62
     5
 63
     7
 74
     1
 91
        4
 64
     7
 65
   257
 75
     7
175
     7
 42
1.0
 92
        8
 66
     7
 43
1.0
 76
     1
 77
     6
 78
     2
 67
     7
 79
     5
170
     0
171
     0
290
     0
174
     0
 93
        1
 44
0.0
173
     0
291
     1
 45
0.0
1001
ACAD
1000
AcDbSavedByObjectVersion
1070
     0
  0
VISUALSTYLE
  5
33
102
{ACAD_REACTORS
330
2A
102
}
330
2A
100
AcDbVisualStyle
  2
Realistic
 70
     8
 71
     2
 72
     2
 73
     0
 90
        0
 40
-0.6
 41
-30.0
 62
     5
 63
     7
 74
     1
 91
        0
 64
     7
 65
   257
 75
     1
175
     1
 42
1.0
 92
        8
 66
     8
 43
1.0
 76
     1
 77
     6
 78
     2
 67
     7
 79
     5
170
     0
171
     0
290
     0
174
     0
 93
       13
 44
0.0
173
     0
291
     0
 45
0.0
1001
ACAD
1000
AcDbSavedByObjectVersion
1070
     0
  0
VISUALSTYLE
  5
37
102
{ACAD_REACTORS
330
2A
102
}
330
2A
100
AcDbVisualStyle
  2
Thicken
 70
    13
 71
     2
 72
     2
 73
     0
 90
        0
 40
-0.6
 41
-30.0
 62
     5
 63
     7
 74
     1
 91
        4
 64
     7
 65
   257
 75
     1
175
     1
 42
1.0
 92
       12
 66
     7
 43
1.0
 76
     1
 77
     6
 78
     2
 67
     7
 79
     5
170
     0
171
     0
290
     0
174
     0
 93
        1
 44
0.0
173
     0
291
     1
 45
0.0
1001
ACAD
1000
AcDbSavedByObjectVersion
1070
     0
  0
DICTIONARYVAR
  5
1CC
102
{ACAD_REACTORS
330
1CB
102
}
330
1CB
100
DictionaryVariables
280
     0
  1
1:1
  0
DICTIONARYVAR
  5
1D0
102
{ACAD_REACTORS
330
1CB
102
}
330
1CB
100
DictionaryVariables
280
     0
  1
80.000000
  0
DICTIONARYVAR
  5
1CF
102
{ACAD_REACTORS
330
1CB
102
}
330
1CB
100
DictionaryVariables
280
     0
  1
5.000000
  0
ENDSEC
  0
EOF
