  0
SECTION
  2
HEADER
  9
$ACADVER
  1
AC1015
  9
$ACADMAINTVER
 70
     6
  9
$DWGCODEPAGE
  3
ANSI_1252
  9
$INSBASE
 10
0.0
 20
0.0
 30
0.0
  9
$EXTMIN
 10
0.0
 20
0.0
 30
0.0
  9
$EXTMAX
 10
1682.0
 20
2378.0
 30
0.0
  9
$LIMMIN
 10
0.0
 20
0.0
  9
$LIMMAX
 10
1682.0
 20
2378.0
  9
$ORTHOMODE
 70
     0
  9
$REGENMODE
 70
     1
  9
$FILLMODE
 70
     1
  9
$QTEXTMODE
 70
     0
  9
$MIRRTEXT
 70
     1
  9
$LTSCALE
 40
1.0
  9
$ATTMODE
 70
     1
  9
$TEXTSIZE
 40
2.5
  9
$TRACEWID
 40
1.0
  9
$TEXTSTYLE
  7
Standard
  9
$CLAYER
  8
0
  9
$CELTYPE
  6
ByLayer
  9
$CECOLOR
 62
   256
  9
$CELTSCALE
 40
1.0
  9
$DISPSILH
 70
     0
  9
$DIMSCALE
 40
1.0
  9
$DIMASZ
 40
2.5
  9
$DIMEXO
 40
0.625
  9
$DIMDLI
 40
3.75
  9
$DIMRND
 40
0.0
  9
$DIMDLE
 40
0.0
  9
$DIMEXE
 40
1.25
  9
$DIMTP
 40
0.0
  9
$DIMTM
 40
0.0
  9
$DIMTXT
 40
2.5
  9
$DIMCEN
 40
2.5
  9
$DIMTSZ
 40
0.0
  9
$DIMTOL
 70
     0
  9
$DIMLIM
 70
     0
  9
$DIMTIH
 70
     0
  9
$DIMTOH
 70
     0
  9
$DIMSE1
 70
     0
  9
$DIMSE2
 70
     0
  9
$DIMTAD
 70
     1
  9
$DIMZIN
 70
     8
  9
$DIMBLK
  1

  9
$DIMASO
 70
     1
  9
$DIMSHO
 70
     1
  9
$DIMPOST
  1

  9
$DIMAPOST
  1

  9
$DIMALT
 70
     0
  9
$DIMALTD
 70
     3
  9
$DIMALTF
 40
0.0393700787
  9
$DIMLFAC
 40
1.0
  9
$DIMTOFL
 70
     1
  9
$DIMTVP
 40
0.0
  9
$DIMTIX
 70
     0
  9
$DIMSOXD
 70
     0
  9
$DIMSAH
 70
     0
  9
$DIMBLK1
  1

  9
$DIMBLK2
  1

  9
$DIMSTYLE
  2
ISO-25
  9
$DIMCLRD
 70
     0
  9
$DIMCLRE
 70
     0
  9
$DIMCLRT
 70
     0
  9
$DIMTFAC
 40
1.0
  9
$DIMGAP
 40
0.625
  9
$DIMJUST
 70
     0
  9
$DIMSD1
 70
     0
  9
$DIMSD2
 70
     0
  9
$DIMTOLJ
 70
     0
  9
$DIMTZIN
 70
     8
  9
$DIMALTZ
 70
     0
  9
$DIMALTTZ
 70
     0
  9
$DIMUPT
 70
     0
  9
$DIMDEC
 70
     2
  9
$DIMTDEC
 70
     2
  9
$DIMALTU
 70
     2
  9
$DIMALTTD
 70
     3
  9
$DIMTXSTY
  7
Standard
  9
$DIMAUNIT
 70
     0
  9
$DIMADEC
 70
     0
  9
$DIMALTRND
 40
0.0
  9
$DIMAZIN
 70
     0
  9
$DIMDSEP
 70
    44
  9
$DIMATFIT
 70
     3
  9
$DIMFRAC
 70
     0
  9
$DIMLDRBLK
  1

  9
$DIMLUNIT
 70
     2
  9
$DIMLWD
 70
    -2
  9
$DIMLWE
 70
    -2
  9
$DIMTMOVE
 70
     0
  9
$LUNITS
 70
     2
  9
$LUPREC
 70
     4
  9
$SKETCHINC
 40
1.0
  9
$FILLETRAD
 40
10.0
  9
$AUNITS
 70
     0
  9
$AUPREC
 70
     0
  9
$MENU
  1
.
  9
$ELEVATION
 40
0.0
  9
$PELEVATION
 40
0.0
  9
$THICKNESS
 40
0.0
  9
$LIMCHECK
 70
     0
  9
$CHAMFERA
 40
10.0
  9
$CHAMFERB
 40
10.0
  9
$CHAMFERC
 40
20.0
  9
$CHAMFERD
 40
0.0
  9
$SKPOLY
 70
     0
  9
$TDCREATE
 40
2455236.539628298
  9
$TDUCREATE
 40
2455236.497961632
  9
$TDUPDATE
 40
2455236.53962831
  9
$TDUUPDATE
 40
2455236.497961644
  9
$TDINDWG
 40
0.0000000116
  9
$TDUSRTIMER
 40
0.0000000116
  9
$USRTIMER
 70
     1
  9
$ANGBASE
 50
0.0
  9
$ANGDIR
 70
     0
  9
$PDMODE
 70
     0
  9
$PDSIZE
 40
0.0
  9
$PLINEWID
 40
0.0
  9
$SPLFRAME
 70
     0
  9
$SPLINETYPE
 70
     6
  9
$SPLINESEGS
 70
     8
  9
$HANDSEED
  5
14C
  9
$SURFTAB1
 70
     6
  9
$SURFTAB2
 70
     6
  9
$SURFTYPE
 70
     6
  9
$SURFU
 70
     6
  9
$SURFV
 70
     6
  9
$UCSBASE
  2

  9
$UCSNAME
  2

  9
$UCSORG
 10
0.0
 20
0.0
 30
0.0
  9
$UCSXDIR
 10
1.0
 20
0.0
 30
0.0
  9
$UCSYDIR
 10
0.0
 20
1.0
 30
0.0
  9
$UCSORTHOREF
  2

  9
$UCSORTHOVIEW
 70
     0
  9
$UCSORGTOP
 10
0.0
 20
0.0
 30
0.0
  9
$UCSORGBOTTOM
 10
0.0
 20
0.0
 30
0.0
  9
$UCSORGLEFT
 10
0.0
 20
0.0
 30
0.0
  9
$UCSORGRIGHT
 10
0.0
 20
0.0
 30
0.0
  9
$UCSORGFRONT
 10
0.0
 20
0.0
 30
0.0
  9
$UCSORGBACK
 10
0.0
 20
0.0
 30
0.0
  9
$PUCSBASE
  2

  9
$PUCSNAME
  2

  9
$PUCSORG
 10
0.0
 20
0.0
 30
0.0
  9
$PUCSXDIR
 10
1.0
 20
0.0
 30
0.0
  9
$PUCSYDIR
 10
0.0
 20
1.0
 30
0.0
  9
$PUCSORTHOREF
  2

  9
$PUCSORTHOVIEW
 70
     0
  9
$PUCSORGTOP
 10
0.0
 20
0.0
 30
0.0
  9
$PUCSORGBOTTOM
 10
0.0
 20
0.0
 30
0.0
  9
$PUCSORGLEFT
 10
0.0
 20
0.0
 30
0.0
  9
$PUCSORGRIGHT
 10
0.0
 20
0.0
 30
0.0
  9
$PUCSORGFRONT
 10
0.0
 20
0.0
 30
0.0
  9
$PUCSORGBACK
 10
0.0
 20
0.0
 30
0.0
  9
$USERI1
 70
     0
  9
$USERI2
 70
     0
  9
$USERI3
 70
     0
  9
$USERI4
 70
     0
  9
$USERI5
 70
     0
  9
$USERR1
 40
0.0
  9
$USERR2
 40
0.0
  9
$USERR3
 40
0.0
  9
$USERR4
 40
0.0
  9
$USERR5
 40
0.0
  9
$WORLDVIEW
 70
     1
  9
$SHADEDGE
 70
     3
  9
$SHADEDIF
 70
    70
  9
$TILEMODE
 70
     1
  9
$MAXACTVP
 70
    64
  9
$PINSBASE
 10
0.0
 20
0.0
 30
0.0
  9
$PLIMCHECK
 70
     0
  9
$PEXTMIN
 10
0.0
 20
0.0
 30
0.0
  9
$PEXTMAX
 10
1682.0
 20
2378.0
 30
0.0
  9
$PLIMMIN
 10
0.0
 20
0.0
  9
$PLIMMAX
 10
1682.0
 20
2378.0
  9
$UNITMODE
 70
     0
  9
$VISRETAIN
 70
     1
  9
$PLINEGEN
 70
     0
  9
$PSLTSCALE
 70
     1
  9
$TREEDEPTH
 70
  3020
  9
$CMLSTYLE
  2
Standard
  9
$CMLJUST
 70
     0
  9
$CMLSCALE
 40
20.0
  9
$PROXYGRAPHICS
 70
     1
  9
$MEASUREMENT
 70
     1
  9
$CELWEIGHT
370
    -1
  9
$ENDCAPS
280
     0
  9
$JOINSTYLE
280
     0
  9
$LWDISPLAY
290
     0
  9
$INSUNITS
 70
     4
  9
$HYPERLINKBASE
  1

  9
$STYLESHEET
  1

  9
$XEDIT
290
     1
  9
$CEPSNTYPE
380
     0
  9
$PSTYLEMODE
290
     1
  9
$FINGERPRINTGUID
  2
{EF601DDC-862B-4F19-81D7-53CE3715DA91}
  9
$VERSIONGUID
  2
{FAEB1C32-E019-11D5-929B-00C0DF256EC4}
  9
$EXTNAMES
290
     1
  9
$PSVPSCALE
 40
0.0
  9
$OLESTARTUP
290
     0
  0
ENDSEC
  0
SECTION
  2
CLASSES
  0
CLASS
  1
ACDBDICTIONARYWDFLT
  2
AcDbDictionaryWithDefault
  3
ObjectDBX Classes
 90
        0
280
     0
281
     0
  0
CLASS
  1
VISUALSTYLE
  2
AcDbVisualStyle
  3
ObjectDBX Classes
 90
     4095
280
     0
281
     0
  0
CLASS
  1
SCALE
  2
AcDbScale
  3
ObjectDBX Classes
 90
     1153
280
     0
281
     0
  0
CLASS
  1
DICTIONARYVAR
  2
AcDbDictionaryVar
  3
ObjectDBX Classes
 90
        0
280
     0
281
     0
  0
CLASS
  1
ACDBPLACEHOLDER
  2
AcDbPlaceHolder
  3
ObjectDBX Classes
 90
        0
280
     0
281
     0
  0
CLASS
  1
LAYOUT
  2
AcDbLayout
  3
ObjectDBX Classes
 90
        0
280
     0
281
     0
  0
ENDSEC
  0
SECTION
  2
TABLES
  0
TABLE
  2
VPORT
  5
8
330
0
100
AcDbSymbolTable
 70
     1
  0
VPORT
  5
29
330
8
100
AcDbSymbolTableRecord
100
AcDbViewportTableRecord
  2
*Active
 70
     0
 10
0.0
 20
0.0
 11
1.0
 21
1.0
 12
344.1869158879
 22
148.5
 13
0.0
 23
0.0
 14
10.0
 24
10.0
 15
10.0
 25
10.0
 16
0.0
 26
0.0
 36
1.0
 17
0.0
 27
0.0
 37
0.0
 40
297.0
 41
1.9729729729
 42
50.0
 43
0.0
 44
0.0
 50
0.0
 51
0.0
 71
     0
 72
   100
 73
     1
 74
     3
 75
     0
 76
     0
 77
     0
 78
     0
281
     0
 65
     1
110
0.0
120
0.0
130
0.0
111
1.0
121
0.0
131
0.0
112
0.0
122
1.0
132
0.0
 79
     0
146
0.0
  0
ENDTAB
  0
TABLE
  2
LTYPE
  5
5
330
0
100
AcDbSymbolTable
 70
     2
  0
LTYPE
  5
14
330
5
100
AcDbSymbolTableRecord
100
AcDbLinetypeTableRecord
  2
ByBlock
 70
     0
  3

 72
    65
 73
     0
 40
0.0
  0
LTYPE
  5
15
330
5
100
AcDbSymbolTableRecord
100
AcDbLinetypeTableRecord
  2
ByLayer
 70
     0
  3

 72
    65
 73
     0
 40
0.0
  0
LTYPE
  5
16
330
5
100
AcDbSymbolTableRecord
100
AcDbLinetypeTableRecord
  2
Continuous
 70
     0
  3
Solid line
 72
    65
 73
     0
 40
0.0
  0
LTYPE
  5
C6
330
5
100
AcDbSymbolTableRecord
100
AcDbLinetypeTableRecord
  2
CENTER2
 70
     0
  3
Center (.5x) ___ _ ___ _ ___ _ ___ _ ___ _ ___
 72
    65
 73
     4
 40
28.575
 49
19.05
 74
     4
 75
     0
340
0
 46
0.0
 50
0.0
 44
0.0
 45
0.0
 49
-3.175
 74
     4
 75
     0
340
0
 46
0.0
 50
0.0
 44
0.0
 45
0.0
 49
3.175
 74
     4
 75
     0
340
0
 46
0.0
 50
0.0
 44
0.0
 45
0.0
 49
-3.175
 74
     4
 75
     0
340
0
 46
0.0
 50
0.0
 44
0.0
 45
0.0
  0
ENDTAB
  0
TABLE
  2
LAYER
  5
2
330
0
100
AcDbSymbolTable
 70
    12
  0
LAYER
  5
10
330
2
100
AcDbSymbolTableRecord
100
AcDbLayerTableRecord
  2
0
 70
     0
 62
     7
  6
Continuous
370
    -3
390
F
  0
LAYER
  5
5D
330
2
100
AcDbSymbolTableRecord
100
AcDbLayerTableRecord
  2
Default
 70
     0
 62
     7
  6
Continuous
370
    -3
390
F
  0
LAYER
  5
60
330
2
100
AcDbSymbolTableRecord
100
AcDbLayerTableRecord
  2
$DDT_AUDIT_GENERATED_(60)
 70
     0
 62
     7
  6
Continuous
370
    -3
390
F
  0
LAYER
  5
73
330
2
100
AcDbSymbolTableRecord
100
AcDbLayerTableRecord
  2
$DDT_AUDIT_GENERATED_(73)
 70
     0
 62
     7
  6
Continuous
370
    -3
390
F
  0
LAYER
  5
78
330
2
100
AcDbSymbolTableRecord
100
AcDbLayerTableRecord
  2
$DDT_AUDIT_GENERATED_(78)
 70
     0
 62
     7
  6
Continuous
370
    -3
390
F
  0
LAYER
  5
7C
330
2
100
AcDbSymbolTableRecord
100
AcDbLayerTableRecord
  2
$DDT_AUDIT_GENERATED_(7C)
 70
     0
 62
     7
  6
Continuous
370
    -3
390
F
  0
LAYER
  5
90
330
2
100
AcDbSymbolTableRecord
100
AcDbLayerTableRecord
  2
$DDT_AUDIT_GENERATED_(90)
 70
     0
 62
     7
  6
Continuous
370
    -3
390
F
  0
LAYER
  5
92
330
2
100
AcDbSymbolTableRecord
100
AcDbLayerTableRecord
  2
$DDT_AUDIT_GENERATED_(92)
 70
     0
 62
     7
  6
Continuous
370
    -3
390
F
  0
LAYER
  5
9D
330
2
100
AcDbSymbolTableRecord
100
AcDbLayerTableRecord
  2
A4240973_WINKEL_
 70
     0
 62
     7
  6
Continuous
370
    -3
390
F
  0
LAYER
  5
B0
330
2
100
AcDbSymbolTableRecord
100
AcDbLayerTableRecord
  2
DV1_Standard
 70
     0
 62
     7
  6
Continuous
370
    -3
390
F
  0
LAYER
  5
116
330
2
100
AcDbSymbolTableRecord
100
AcDbLayerTableRecord
  2
DV2_Standard
 70
     0
 62
     7
  6
Continuous
370
    -3
390
F
  0
LAYER
  5
131
330
2
100
AcDbSymbolTableRecord
100
AcDbLayerTableRecord
  2
DV3_Standard
 70
     0
 62
     7
  6
Continuous
370
    -3
390
F
  0
ENDTAB
  0
TABLE
  2
STYLE
  5
3
330
0
100
AcDbSymbolTable
 70
     2
  0
STYLE
  5
11
330
3
100
AcDbSymbolTableRecord
100
AcDbTextStyleTableRecord
  2
Standard
 70
     0
 40
0.0
 41
1.0
 50
0.0
 71
     0
 42
2.5
  3
txt
  4

  0
STYLE
  5
13B
330
3
100
AcDbSymbolTableRecord
100
AcDbTextStyleTableRecord
  2
SEACAD_seiso_ttf
 70
     0
 40
0.0
 41
1.0
 50
0.0
 71
     0
 42
0.2
  3
seiso.ttf
  4

  0
ENDTAB
  0
TABLE
  2
VIEW
  5
6
330
0
100
AcDbSymbolTable
 70
     0
  0
ENDTAB
  0
TABLE
  2
UCS
  5
7
330
0
100
AcDbSymbolTable
 70
     0
  0
ENDTAB
  0
TABLE
  2
APPID
  5
9
330
0
100
AcDbSymbolTable
 70
     1
  0
APPID
  5
12
330
9
100
AcDbSymbolTableRecord
100
AcDbRegAppTableRecord
  2
ACAD
 70
     0
  0
ENDTAB
  0
TABLE
  2
DIMSTYLE
  5
A
330
0
100
AcDbSymbolTable
 70
     1
100
AcDbDimStyleTable
  0
DIMSTYLE
105
27
330
A
100
AcDbSymbolTableRecord
100
AcDbDimStyleTableRecord
  2
ISO-25
 70
     0
 41
2.5
 42
0.625
 43
3.75
 44
1.25
 73
     0
 74
     0
 77
     1
 78
     8
140
2.5
141
2.5
143
0.0393700787
147
0.625
171
     3
172
     1
271
     2
272
     2
274
     3
278
    44
283
     0
284
     8
340
11
  0
ENDTAB
  0
TABLE
  2
BLOCK_RECORD
  5
1
330
0
100
AcDbSymbolTable
 70
     4
  0
BLOCK_RECORD
  5
1F
330
1
100
AcDbSymbolTableRecord
100
AcDbBlockTableRecord
  2
*Model_Space
340
22
  0
BLOCK_RECORD
  5
1B
330
1
100
AcDbSymbolTableRecord
100
AcDbBlockTableRecord
  2
*Paper_Space
340
1E
  0
BLOCK_RECORD
  5
5E
330
1
100
AcDbSymbolTableRecord
100
AcDbBlockTableRecord
  2
SE
340
0
102
{BLKREFS
331
5F
102
}
  0
BLOCK_RECORD
  5
CB
330
1
100
AcDbSymbolTableRecord
100
AcDbBlockTableRecord
  2
SE1
340
0
102
{BLKREFS
331
CC
102
}
  0
BLOCK_RECORD
  5
11D
330
1
100
AcDbSymbolTableRecord
100
AcDbBlockTableRecord
  2
SE2
340
0
102
{BLKREFS
331
11E
102
}
  0
ENDTAB
  0
ENDSEC
  0
SECTION
  2
BLOCKS
  0
BLOCK
  5
20
330
1F
100
AcDbEntity
  8
0
100
AcDbBlockBegin
  2
*Model_Space
 70
     0
 10
0.0
 20
0.0
 30
0.0
  3
*Model_Space
  1

  0
ENDBLK
  5
21
330
1F
100
AcDbEntity
  8
0
100
AcDbBlockEnd
  0
BLOCK
  5
1C
330
1B
100
AcDbEntity
 67
     1
  8
0
100
AcDbBlockBegin
  2
*Paper_Space
 70
     0
 10
0.0
 20
0.0
 30
0.0
  3
*Paper_Space
  1

  0
ENDBLK
  5
1D
330
1B
100
AcDbEntity
 67
     1
  8
0
100
AcDbBlockEnd
  0
BLOCK
  5
C9
330
5E
100
AcDbEntity
  8
0
100
AcDbBlockBegin
  2
SE
 70
     0
 10
0.0
 20
0.0
 30
0.0
  3
SE
  1

  0
SPLINE
  5
61
330
5E
100
AcDbEntity
  8
$DDT_AUDIT_GENERATED_(60)
  6
Continuous
 62
     7
100
AcDbSpline
210
0.0
220
0.0
230
1.0
 70
     8
 71
     3
 72
    16
 73
    12
 74
     0
 42
0.0000000002583777
 43
0.0000000001
 40
0.2388664227073184
 40
0.2388664227073184
 40
0.2388664227073184
 40
0.2388664227073184
 40
0.2499999999999996
 40
0.2499999999999996
 40
0.3124999999999996
 40
0.3124999999999996
 40
0.3749999999999995
 40
0.3749999999999995
 40
0.4999999999999994
 40
0.4999999999999994
 40
0.5020113850233049
 40
0.5020113850233049
 40
0.5020113850233049
 40
0.5020113850233049
 10
94.66787545236033
 20
463.2800021855128
 30
0.0
 10
94.78356079863191
 20
463.3752558876485
 30
0.0
 10
94.89727351197138
 20
463.4722336952647
 30
0.0
 10
95.63572838249743
 20
464.12470788452
 30
0.0
 10
96.20660875200095
 20
464.7433213149154
 30
0.0
 10
97.18792526975207
 20
466.0469099769114
 30
0.0
 10
97.60331974506526
 20
466.7339463153707
 30
0.0
 10
98.62710624791286
 20
468.8991866486236
 30
0.0
 10
98.99510180300274
 20
470.438993161081
 30
0.0
 10
99.00049625562923
 20
472.0337433927875
 30
0.0
 10
99.00048774667704
 20
472.0589914686634
 30
0.0
 10
99.00038547886284
 20
472.084232462981
 30
0.0
  0
SPLINE
  5
62
330
5E
100
AcDbEntity
  8
$DDT_AUDIT_GENERATED_(60)
  6
Continuous
 62
     7
100
AcDbSpline
210
0.0
220
0.0
230
1.0
 70
     8
 71
     3
 72
    16
 73
    12
 74
     0
 42
0.0000000002577652
 43
0.0000000001
 40
0.498202903795434
 40
0.498202903795434
 40
0.498202903795434
 40
0.498202903795434
 40
0.5
 40
0.5
 40
0.625
 40
0.625
 40
0.6875000000000001
 40
0.6875000000000001
 40
0.7500000000000002
 40
0.7500000000000002
 40
0.7691487988410435
 40
0.7691487988410435
 40
0.7691487988410435
 40
0.7691487988410435
 10
71.65245440335251
 20
472.0805167840503
 30
0.0
 10
71.65237019287194
 20
472.0580001789222
 30
0.0
 10
71.65236108584268
 20
472.0354793833581
 30
0.0
 10
71.65702763079727
 20
470.4462093616988
 30
0.0
 10
72.02379357664063
 20
468.9027489136155
 30
0.0
 10
73.05163108497634
 20
466.7297939823925
 30
0.0
 10
73.46786364540982
 20
466.0426580857858
 30
0.0
 10
74.44711107767013
 20
464.7425234561887
 30
0.0
 10
75.01803367292783
 20
464.1235415669858
 30
0.0
 10
75.8396769292959
 20
463.398040762126
 30
0.0
 10
76.03832236901016
 20
463.2329428383014
 30
0.0
 10
76.24250745522559
 20
463.0731205268432
 30
0.0
  0
ELLIPSE
  5
63
330
5E
100
AcDbEntity
  8
$DDT_AUDIT_GENERATED_(60)
  6
Continuous
 62
     7
100
AcDbEllipse
 10
85.3264252117
 20
551.0605090277
 30
0.0
 11
69.00000000000011
 21
6.813316577591877E-8
 31
0.0
210
0.0
220
0.0
230
1.0
 40
0.3888583456
 41
0.0000000069026085
 42
0.1835436224700399
  0
ELLIPSE
  5
64
330
5E
100
AcDbEntity
  8
$DDT_AUDIT_GENERATED_(60)
  6
Continuous
 62
     7
100
AcDbEllipse
 10
85.3264252117
 20
551.0605090277
 30
0.0
 11
69.00000000000011
 21
6.813316577591877E-8
 31
0.0
210
0.0
220
0.0
230
1.0
 40
0.3888583456
 41
2.971450143911764
 42
3.141594497363885
  0
SPLINE
  5
65
330
5E
100
AcDbEntity
  8
$DDT_AUDIT_GENERATED_(60)
  6
Continuous
 62
     7
100
AcDbSpline
210
0.0
220
0.0
230
1.0
 70
     8
 71
     3
 72
     8
 73
     4
 74
     0
 42
0.0000000869490069
 43
0.0000000001
 40
0.0
 40
0.0
 40
0.0
 40
0.0
 40
0.2567867432855249
 40
0.2567867432855249
 40
0.2567867432855249
 40
0.2567867432855249
 10
153.8927690614844
 20
549.1887163375744
 30
0.0
 10
153.888209963913
 20
549.1729782321049
 30
0.0
 10
153.8836612000338
 20
549.1652934892857
 30
0.0
 10
153.8794505089078
 20
549.1655379385788
 30
0.0
  0
ELLIPSE
  5
66
330
5E
100
AcDbEntity
  8
$DDT_AUDIT_GENERATED_(60)
  6
Continuous
 62
     7
100
AcDbEllipse
 10
85.3264252106
 20
552.1921653791
 30
0.0
 11
-68.99999999998276
 21
-6.813218045298441E-8
 31
0.0
210
0.0
220
0.0
230
1.0
 40
0.3888583456
 41
3.029418983832781
 42
3.120502669605775
  0
SPLINE
  5
67
330
5E
100
AcDbEntity
  8
$DDT_AUDIT_GENERATED_(60)
  6
Continuous
 62
     7
100
AcDbSpline
210
0.0
220
0.0
230
1.0
 70
     8
 71
     3
 72
    28
 73
    24
 74
     0
 42
0.0000000000955817
 43
0.0000000001
 40
0.0
 40
0.0
 40
0.0
 40
0.0
 40
0.0284387869801009
 40
0.0522312243745174
 40
0.0722265777922086
 40
0.1041618759376796
 40
0.1506713464366124
 40
0.1848949325858599
 40
0.2159617553807559
 40
0.2446710910316645
 40
0.2751859970056937
 40
0.3070417469279058
 40
0.3404086038055622
 40
0.3669569638522203
 40
0.385856585553281
 40
0.4020664612487738
 40
0.42408315850523
 40
0.445739933413296
 40
0.4720228142762017
 40
0.5010112530998478
 40
0.5267817533994612
 40
0.5527109846221209
 40
0.5715936502231204
 40
0.5715936502231204
 40
0.5715936502231204
 40
0.5715936502231204
 10
99.00182526570248
 20
472.0835458210356
 30
0.0
 10
99.0031527627763
 20
473.0847845497273
 30
0.0
 10
99.02285089416931
 20
474.6174735970914
 30
0.0
 10
99.11119721623947
 20
477.1121781922317
 30
0.0
 10
99.22421208398029
 20
479.6838167499038
 30
0.0
 10
99.40258651290515
 20
483.1211815119128
 30
0.0
 10
99.6333702658919
 20
487.0797933281577
 30
0.0
 10
99.87655533049417
 20
491.0063356674061
 30
0.0
 10
100.0898641195682
 20
494.2853142103625
 30
0.0
 10
100.3077341590816
 20
497.4237945113678
 30
0.0
 10
100.5465710036581
 20
500.5350577753426
 30
0.0
 10
100.8399835037897
 20
503.7709974652849
 30
0.0
 10
101.2039611763328
 20
506.8434888215269
 30
0.0
 10
101.6372882663756
 20
509.4351504322864
 30
0.0
 10
102.0830017851868
 20
511.3828606287413
 30
0.0
 10
102.5769742891711
 20
513.0787003349833
 30
0.0
 10
103.2424280860995
 20
514.8257971148985
 30
0.0
 10
104.2575172672031
 20
516.795828365342
 30
0.0
 10
105.8009451409707
 20
518.9731411268335
 30
0.0
 10
107.9878438647565
 20
521.1746048087259
 30
0.0
 10
110.6814478711433
 20
523.1959011419112
 30
0.0
 10
113.2539838687775
 20
524.6861437194679
 30
0.0
 10
114.8105535519257
 20
525.3991253116243
 30
0.0
 10
115.4173796096929
 20
525.6529348137609
 30
0.0
  0
SPLINE
  5
68
330
5E
100
AcDbEntity
  8
$DDT_AUDIT_GENERATED_(60)
  6
Continuous
 62
     7
100
AcDbSpline
210
0.0
220
0.0
230
1.0
 70
     8
 71
     3
 72
    12
 73
     8
 74
     0
 42
0.000000000077495
 43
0.0000000001
 40
0.5909703064730986
 40
0.5909703064730986
 40
0.5909703064730986
 40
0.5909703064730986
 40
0.6024484023853488
 40
0.6155522564059456
 40
0.6322626813627243
 40
0.6511668836177705
 40
0.655329186199346
 40
0.655329186199346
 40
0.655329186199346
 40
0.655329186199346
 10
117.1667682240798
 20
526.3111069804369
 30
0.0
 10
117.501281240936
 20
526.4235690361234
 30
0.0
 10
118.2213546132644
 20
526.6508759900379
 30
0.0
 10
119.5685130760844
 20
527.0345816086159
 30
0.0
 10
121.7722641145117
 20
527.6224347915439
 30
0.0
 10
123.7370376056785
 20
528.1508343467652
 30
0.0
 10
124.9431431648056
 20
528.4895687683262
 30
0.0
 10
125.1625178169328
 20
528.551680711128
 30
0.0
  0
SPLINE
  5
69
330
5E
100
AcDbEntity
  8
$DDT_AUDIT_GENERATED_(60)
  6
Continuous
 62
     7
100
AcDbSpline
210
0.0
220
0.0
230
1.0
 70
     8
 71
     3
 72
    30
 73
    26
 74
     0
 42
0.0000000000701117
 43
0.0000000001
 40
0.6696641425609761
 40
0.6696641425609761
 40
0.6696641425609761
 40
0.6696641425609761
 40
0.6830944819059764
 40
0.700172189258206
 40
0.7179159667572178
 40
0.7359586187117239
 40
0.7478254192643622
 40
0.7619897004266107
 40
0.7785779976451892
 40
0.7919681904923813
 40
0.8009964029837545
 40
0.8106360247933552
 40
0.8243452683072782
 40
0.8429233268165599
 40
0.8565164476840719
 40
0.8701880456874981
 40
0.8851644771793266
 40
0.896857359272519
 40
0.9081631685984528
 40
0.9235148798715275
 40
0.9362810825993948
 40
0.9455509388373625
 40
0.9570928428941533
 40
0.975174694669562
 40
1.0
 40
1.0
 40
1.0
 40
1.0
 10
127.4730275618436
 20
529.2259641257065
 30
0.0
 10
128.2030355872519
 20
529.4459429222031
 30
0.0
 10
129.8710067357511
 20
529.9645965066685
 30
0.0
 10
132.5096986229222
 20
530.8517535149222
 30
0.0
 10
135.3746395194413
 20
531.9105735848609
 30
0.0
 10
137.8860447932978
 20
532.9321063069264
 30
0.0
 10
140.1637191046135
 20
533.9363187805993
 30
0.0
 10
142.2923253207094
 20
534.9422002092115
 30
0.0
 10
144.4360025231779
 20
536.0430328504825
 30
0.0
 10
146.2522966302752
 20
537.0583217076561
 30
0.0
 10
147.7077230533112
 20
537.9284197691045
 30
0.0
 10
149.1237724067851
 20
538.8260912846274
 30
0.0
 10
150.8744096767667
 20
540.0240320219527
 30
0.0
 10
152.6701401314932
 20
541.4012872861719
 30
0.0
 10
154.3094241647137
 20
542.829122237196
 30
0.0
 10
155.6777122635133
 20
544.1662254922991
 30
0.0
 10
156.8599183115363
 20
545.4829508295246
 30
0.0
 10
157.8468962412192
 20
546.7433554482974
 30
0.0
 10
158.7315776121401
 20
548.0236538815898
 30
0.0
 10
159.5159771038009
 20
549.3709477684074
 30
0.0
 10
160.123075471604
 20
550.6437430744123
 30
0.0
 10
160.5824633567169
 20
551.826681003523
 30
0.0
 10
160.999743364032
 20
553.1430749766308
 30
0.0
 10
161.4123434138473
 20
555.1319129321022
 30
0.0
 10
161.4845383317569
 20
556.479008155091
 30
0.0
 10
161.5009155561149
 20
557.4321181264671
 30
0.0
  0
SPLINE
  5
6A
330
5E
100
AcDbEntity
  8
$DDT_AUDIT_GENERATED_(60)
  6
Continuous
 62
     7
100
AcDbSpline
210
0.0
220
0.0
230
1.0
 70
     8
 71
     3
 72
    50
 73
    46
 74
     0
 42
0.0000000000701457
 43
0.0000000001
 40
0.0
 40
0.0
 40
0.0
 40
0.0
 40
0.0114338532807972
 40
0.0213649123845219
 40
0.0297899144018309
 40
0.0367263474220548
 40
0.0421973574486706
 40
0.0465158730027636
 40
0.0510146787220721
 40
0.0577522836086194
 40
0.0651177120990732
 40
0.0729876346197477
 40
0.0800192520140333
 40
0.0850362613168982
 40
0.0891940079546557
 40
0.0930003785386689
 40
0.0979776018757988
 40
0.1042219034153035
 40
0.1114807457925501
 40
0.1190476416173302
 40
0.1251160307679061
 40
0.1301041952382724
 40
0.1354730786871982
 40
0.1422689168082209
 40
0.1502156127906373
 40
0.1594256476352798
 40
0.1681842505012386
 40
0.1750673207887657
 40
0.1837725417726276
 40
0.1944559693828908
 40
0.2052982801136748
 40
0.2163221889036088
 40
0.2258308012082853
 40
0.2356217156021269
 40
0.2465150107824665
 40
0.2554505211597674
 40
0.2627037001801436
 40
0.2712100254770204
 40
0.279351227555552
 40
0.2867714060873812
 40
0.2931522961272692
 40
0.3013240899206818
 40
0.3101640020910808
 40
0.3201372883840355
 40
0.330468916473788
 40
0.330468916473788
 40
0.330468916473788
 40
0.330468916473788
 10
9.151957087047109
 20
557.4388194838792
 30
0.0
 10
9.15824075970162
 20
557.0008769802474
 30
0.0
 10
9.17155485207688
 20
556.3125579714633
 30
0.0
 10
9.272582186599793
 20
555.2549697954416
 30
0.0
 10
9.406676575157451
 20
554.3768252794124
 30
0.0
 10
9.555482938524179
 20
553.6483328692364
 30
0.0
 10
9.70027542716792
 20
553.0631890331762
 30
0.0
 10
9.84233826830619
 20
552.5603881376511
 30
0.0
 10
10.0135052266096
 20
552.0165116855675
 30
0.0
 10
10.24382188411688
 20
551.3697031000574
 30
0.0
 10
10.55415984246433
 20
550.6106999176434
 30
0.0
 10
10.91036703972181
 20
549.8473192189225
 30
0.0
 10
11.2668524285893
 20
549.1668189793712
 30
0.0
 10
11.58198669515498
 20
548.6147449739738
 30
0.0
 10
11.84997618437575
 20
548.1732216366837
 30
0.0
 10
12.13071587417575
 20
547.7337157869323
 30
0.0
 10
12.47152574260535
 20
547.2280989147096
 30
0.0
 10
12.91565091298077
 20
546.6107620602487
 30
0.0
 10
13.4560850460998
 20
545.9132890032481
 30
0.0
 10
14.02912954529017
 20
545.228465138075
 30
0.0
 10
14.56940953445263
 20
544.6247081366624
 30
0.0
 10
15.06621847939862
 20
544.0976473588948
 30
0.0
 10
15.60970342575982
 20
543.5476351062475
 30
0.0
 10
16.27915282751394
 20
542.905875887056
 30
0.0
 10
17.11269117021286
 20
542.1556698123933
 30
0.0
 10
18.05987299127504
 20
541.36058921177
 30
0.0
 10
19.01330454725342
 20
540.613930523797
 30
0.0
 10
19.98431755064981
 20
539.8960805796811
 30
0.0
 10
21.07057826190051
 20
539.1361234992361
 30
0.0
 10
22.37465211321302
 20
538.2818244070288
 30
0.0
 10
23.82737005551475
 20
537.3937082743832
 30
0.0
 10
25.26752460217477
 20
536.5693995130947
 30
0.0
 10
26.70883489864336
 20
535.7918048543248
 30
0.0
 10
28.1773501866627
 20
535.0413574015182
 30
0.0
 10
29.6432398107486
 20
534.333083259245
 30
0.0
 10
31.02594181357932
 20
533.6996258624149
 30
0.0
 10
32.29972739612326
 20
533.1409153224613
 30
0.0
 10
33.54397262318862
 20
532.6175373920062
 30
0.0
 10
34.82062955627251
 20
532.1038631505169
 30
0.0
 10
35.9999002282023
 20
531.6489035231274
 30
0.0
 10
37.18331362257864
 20
531.2090066433533
 30
0.0
 10
38.4490566254869
 20
530.7565171137823
 30
0.0
 10
39.92176802134954
 20
530.2535097235094
 30
0.0
 10
41.51055008167974
 20
529.7370673729075
 30
0.0
 10
42.62447189680918
 20
529.3933468588539
 30
0.0
 10
43.18431980003614
 20
529.2246661169618
 30
0.0
  0
SPLINE
  5
6B
330
5E
100
AcDbEntity
  8
$DDT_AUDIT_GENERATED_(60)
  6
Continuous
 62
     7
100
AcDbSpline
210
0.0
220
0.0
230
1.0
 70
     8
 71
     3
 72
    17
 73
    13
 74
     0
 42
0.0000000000769168
 43
0.0000000001
 40
0.3448810678721606
 40
0.3448810678721606
 40
0.3448810678721606
 40
0.3448810678721606
 40
0.3451023182201746
 40
0.3580269467678657
 40
0.3705558121199414
 40
0.3826765244820698
 40
0.3879932888038243
 40
0.3923222092073852
 40
0.3958174218547498
 40
0.4005273200660011
 40
0.4055673771861044
 40
0.4088962194638211
 40
0.4088962194638211
 40
0.4088962194638211
 40
0.4088962194638211
 10
45.47661263282881
 20
528.5557508422107
 30
0.0
 10
45.48806344321234
 20
528.5525098921187
 30
0.0
 10
46.1681590444821
 20
528.3601025521374
 30
0.0
 10
47.46510492019291
 20
528.0026041762824
 30
0.0
 10
49.24297657699469
 20
527.5274194371299
 30
0.0
 10
50.5539920888431
 20
527.1767862397031
 30
0.0
 10
51.44894699826983
 20
526.9293451727135
 30
0.0
 10
51.96020214938928
 20
526.7839502782474
 30
0.0
 10
52.39036659232477
 20
526.6579342482374
 30
0.0
 10
52.76825652305323
 20
526.5434649458936
 30
0.0
 10
53.14936524061756
 20
526.4230080705947
 30
0.0
 10
53.39274384815285
 20
526.3425839617975
 30
0.0
 10
53.48951380618266
 20
526.3100185194237
 30
0.0
  0
SPLINE
  5
6C
330
5E
100
AcDbEntity
  8
$DDT_AUDIT_GENERATED_(60)
  6
Continuous
 62
     7
100
AcDbSpline
210
0.0
220
0.0
230
1.0
 70
     8
 71
     3
 72
    47
 73
    43
 74
     0
 42
0.0000000000956413
 43
0.0000000001
 40
0.4284056647480429
 40
0.4284056647480429
 40
0.4284056647480429
 40
0.4284056647480429
 40
0.4289428346403631
 40
0.4335839145712335
 40
0.4367937518559968
 40
0.4398919039511111
 40
0.4442791303224504
 40
0.4531119288200129
 40
0.4594466717554287
 40
0.46550199431228
 40
0.4720831289977223
 40
0.4792310490006104
 40
0.4869759096641503
 40
0.495116922793635
 40
0.5160024410759679
 40
0.5374039366463732
 40
0.5587236640768879
 40
0.5787289874969351
 40
0.5976180241918845
 40
0.6153280956602749
 40
0.6279551223622872
 40
0.6407404223067102
 40
0.6546724159579393
 40
0.6698342024294314
 40
0.6862727700496387
 40
0.7030119157425099
 40
0.7194734682464858
 40
0.7355433712141028
 40
0.7553700804196297
 40
0.7743777513394764
 40
0.7941730971134229
 40
0.8151062856812166
 40
0.8371061902289102
 40
0.8600582194754318
 40
0.8831394874826626
 40
0.9053351486041104
 40
0.9258100493078908
 40
0.9444602316070279
 40
0.9556956399766475
 40
0.9692316701079857
 40
0.9847254984093291
 40
1.0
 40
1.0
 40
1.0
 40
1.0
 10
55.25058310421411
 20
525.646813252377
 30
0.0
 10
55.26792271842893
 20
525.6395614727932
 30
0.0
 10
55.43526923535367
 20
525.5693641967622
 30
0.0
 10
55.70867483507176
 20
525.4513591616595
 30
0.0
 10
56.07064696620541
 20
525.2884586230697
 30
0.0
 10
56.4424820040289
 20
525.1154067849243
 30
0.0
 10
57.0205835309137
 20
524.8353018399687
 30
0.0
 10
57.71312989898536
 20
524.476003372687
 30
0.0
 10
58.46631234533461
 20
524.0545457669172
 30
0.0
 10
59.14631128711773
 20
523.6500354863373
 30
0.0
 10
59.84909563428176
 20
523.2048998035657
 30
0.0
 10
60.59271389321223
 20
522.7008544581265
 30
0.0
 10
61.36656394164973
 20
522.1360926272648
 30
0.0
 10
62.5509219880114
 20
521.1992125704919
 30
0.0
 10
64.00791424879999
 20
519.8557987901854
 30
0.0
 10
65.51038946199002
 20
518.0894956554857
 30
0.0
 10
66.65885084425364
 20
516.3170911595554
 30
0.0
 10
67.4938354863398
 20
514.6148358276168
 30
0.0
 10
68.11019975398925
 20
512.9701157389557
 30
0.0
 10
68.5429908145316
 20
511.4708498696873
 30
0.0
 10
68.85316499822464
 20
510.1470707204653
 30
0.0
 10
69.09779991434603
 20
508.9129372873682
 30
0.0
 10
69.32416071460575
 20
507.5601668298087
 30
0.0
 10
69.53593843281456
 20
506.0578724479278
 30
0.0
 10
69.7304514968849
 20
504.428412203251
 30
0.0
 10
69.90346119849882
 20
502.743675301389
 30
0.0
 10
70.05582440254517
 20
501.0643354208334
 30
0.0
 10
70.2033530497146
 20
499.2710481069809
 30
0.0
 10
70.34610447009152
 20
497.3806564029593
 30
0.0
 10
70.48966620753384
 20
495.3471037501855
 30
0.0
 10
70.62927831780226
 20
493.267928123693
 30
0.0
 10
70.77074854766856
 20
491.0776739637449
 30
0.0
 10
70.91496998186105
 20
488.7705776785307
 30
0.0
 10
71.05955915425872
 20
486.3807680486178
 30
0.0
 10
71.19903521468349
 20
483.9806718446267
 30
0.0
 10
71.3252928264768
 20
481.6826387165499
 30
0.0
 10
71.43315239773574
 20
479.5542057488432
 30
0.0
 10
71.51127854166303
 20
477.8188008556972
 30
0.0
 10
71.56878482469311
 20
476.3431911726624
 30
0.0
 10
71.61193433105684
 20
475.0136852299993
 30
0.0
 10
71.64762163370213
 20
473.5342423570705
 30
0.0
 10
71.6499179494758
 20
472.6201222084189
 30
0.0
 10
71.65090381270497
 20
472.0821517432734
 30
0.0
  0
SPLINE
  5
6D
330
5E
100
AcDbEntity
  8
$DDT_AUDIT_GENERATED_(60)
  6
Continuous
 62
     7
100
AcDbSpline
210
0.0
220
0.0
230
1.0
 70
     8
 71
     3
 72
    65
 73
    61
 74
     0
 42
0.000000000111711
 43
0.0000000001
 40
0.0
 40
0.0
 40
0.0
 40
0.0
 40
0.0174513405151472
 40
0.0383674618265378
 40
0.0563983808558647
 40
0.0728689937212934
 40
0.0858686474719341
 40
0.0954016352477131
 40
0.1026046496240273
 40
0.1108060364587324
 40
0.1202200952546071
 40
0.1328676693439641
 40
0.1454225229729963
 40
0.1562921932996367
 40
0.165501566581801
 40
0.1754393838542746
 40
0.1874044576844128
 40
0.2012544193047243
 40
0.2141788523728562
 40
0.2250682686771098
 40
0.2342223669816526
 40
0.2442760686788145
 40
0.2616108225485402
 40
0.2791482590074129
 40
0.2940891128564016
 40
0.3077115081306004
 40
0.3245926629053968
 40
0.3446999112335875
 40
0.3668619679954271
 40
0.3843874463299923
 40
0.3989378855123716
 40
0.4104141395665109
 40
0.4202678326204331
 40
0.4317823554255606
 40
0.4450779964292727
 40
0.4600860344584889
 40
0.4861775559816311
 40
0.5096250765383281
 40
0.5315102493969835
 40
0.553052950758278
 40
0.5762887127115839
 40
0.6076413246375765
 40
0.6398569602239685
 40
0.6752542540819333
 40
0.6987770745954571
 40
0.7201079236824299
 40
0.7389756250002254
 40
0.7490102391559429
 40
0.7584522545124108
 40
0.7679773039845716
 40
0.7798711319667367
 40
0.7946189671560737
 40
0.812027961222784
 40
0.8320969490738586
 40
0.854824981642996
 40
0.8802118234810635
 40
0.9077341283320491
 40
0.9378236426102321
 40
0.9704832764892676
 40
1.0
 40
1.0
 40
1.0
 40
1.0
 10
161.4885270719683
 20
557.4349332918464
 30
0.0
 10
161.4875332816818
 20
557.8088755709662
 30
0.0
 10
161.4824411005553
 20
558.5032855041218
 30
0.0
 10
161.3555112862158
 20
559.6229393159382
 30
0.0
 10
161.1630968346477
 20
560.6904342513543
 30
0.0
 10
160.9359877831435
 20
561.6078124199405
 30
0.0
 10
160.7082470311861
 20
562.3560105528476
 30
0.0
 10
160.5103331033725
 20
562.9239800212931
 30
0.0
 10
160.3301420548267
 20
563.3964896734739
 30
0.0
 10
160.1384517381853
 20
563.8621791110035
 30
0.0
 10
159.8868627363162
 20
564.425887332612
 30
0.0
 10
159.5734994800182
 20
565.0653752159413
 30
0.0
 10
159.2161440745938
 20
565.7266766834933
 30
0.0
 10
158.8673583591306
 20
566.3201382128083
 30
0.0
 10
158.5270873123541
 20
566.8613815016486
 30
0.0
 10
158.1567052362857
 20
567.4158566072018
 30
0.0
 10
157.7068245268581
 20
568.0466159772946
 30
0.0
 10
157.188047373266
 20
568.722827921329
 30
0.0
 10
156.6511214302155
 20
569.3744188609728
 30
0.0
 10
156.1563111767667
 20
569.9396341089569
 30
0.0
 10
155.68549043061
 20
570.4516934722922
 30
0.0
 10
155.0976259291801
 20
571.0627519898075
 30
0.0
 10
154.343819403284
 20
571.799500050598
 30
0.0
 10
153.4577237226937
 20
572.6033606593683
 30
0.0
 10
152.5909427817904
 20
573.3389902220798
 30
0.0
 10
151.6981508498594
 20
574.054697123703
 30
0.0
 10
150.6753892534457
 20
574.828040104111
 30
0.0
 10
149.4254292160049
 20
575.7113026719547
 30
0.0
 10
148.0917214646175
 20
576.5854946780429
 30
0.0
 10
146.8253299359841
 20
577.3603507701308
 30
0.0
 10
145.7763992543954
 20
577.9681840400706
 30
0.0
 10
144.8936219775883
 20
578.4580483517772
 30
0.0
 10
144.0763914649442
 20
578.8960347550295
 30
0.0
 10
143.1957033833924
 20
579.352026975012
 30
0.0
 10
142.161796565894
 20
579.8664309309577
 30
0.0
 10
140.7135723360915
 20
580.5551680806716
 30
0.0
 10
138.9379176957523
 20
581.3462389782912
 30
0.0
 10
136.9048665209642
 20
582.1838795727277
 30
0.0
 10
134.94479892801
 20
582.935784783392
 30
0.0
 10
132.9386373676448
 20
583.6542161542442
 30
0.0
 10
130.5909793054251
 20
584.4368868136777
 30
0.0
 10
127.8348576327923
 20
585.2777220156233
 30
0.0
 10
124.5988130700075
 20
586.1653558612273
 30
0.0
 10
121.5422179898984
 20
586.9106301511866
 30
0.0
 10
118.7925492373201
 20
587.5125564817305
 30
0.0
 10
116.5730198241852
 20
587.9580521627163
 30
0.0
 10
114.8011941166643
 20
588.2856984105478
 30
0.0
 10
113.4369188378604
 20
588.5229063723926
 30
0.0
 10
112.3866467137706
 20
588.6977688016013
 30
0.0
 10
111.2555441377827
 20
588.8776271218817
 30
0.0
 10
109.9392306704209
 20
589.0764958690888
 30
0.0
 10
108.3327461091142
 20
589.3038085616984
 30
0.0
 10
106.4216700987195
 20
589.5524416156461
 30
0.0
 10
104.2059424148244
 20
589.811789158238
 30
0.0
 10
101.6792376649609
 20
590.0704664837883
 30
0.0
 10
98.85710337805078
 20
590.3136253964516
 30
0.0
 10
95.73314058976648
 20
590.527996792505
 30
0.0
 10
92.33769953291046
 20
590.696324377824
 30
0.0
 10
88.75972042218469
 20
590.8055231316664
 30
0.0
 10
86.56249208031791
 20
590.81393042789
 30
0.0
 10
85.32654470216626
 20
590.8169730359325
 30
0.0
  0
SPLINE
  5
6E
330
5E
100
AcDbEntity
  8
$DDT_AUDIT_GENERATED_(60)
  6
Continuous
 62
     7
100
AcDbSpline
210
0.0
220
0.0
230
1.0
 70
     8
 71
     3
 72
    66
 73
    62
 74
     0
 42
0.0000000001117142
 43
0.0000000001
 40
0.0
 40
0.0
 40
0.0
 40
0.0
 40
0.0353049944113293
 40
0.0679961573632389
 40
0.0980778510172538
 40
0.1255531689709231
 40
0.1504239922666318
 40
0.1723163181805494
 40
0.191696891892842
 40
0.2085649143164975
 40
0.222919431630223
 40
0.2378098128114662
 40
0.2498296224366607
 40
0.2625394945529804
 40
0.2764063709513997
 40
0.2915874646544685
 40
0.3080890279817773
 40
0.3256753452201046
 40
0.3589676028144997
 40
0.390126583928475
 40
0.4201732819716439
 40
0.4489546842280759
 40
0.4698122003913195
 40
0.491086067266785
 40
0.5139017871313937
 40
0.53924484576051
 40
0.5540806617281274
 40
0.5673498428402604
 40
0.5789879360927274
 40
0.5890949585360994
 40
0.6005868359878809
 40
0.6145075149542665
 40
0.6309974081070807
 40
0.6479892899997788
 40
0.6644237323350979
 40
0.6799885800294958
 40
0.6926380954026424
 40
0.7024605335400731
 40
0.7128934552230475
 40
0.7252022612187172
 40
0.7392705266839246
 40
0.7524538667806011
 40
0.7636164942428187
 40
0.7741542994533924
 40
0.787155861293176
 40
0.8025904203298403
 40
0.8168933393724465
 40
0.8286124880572576
 40
0.839084793114255
 40
0.8516351573212687
 40
0.8632846365690355
 40
0.8748325471326028
 40
0.8849529109257366
 40
0.8936428177355777
 40
0.9016540345634869
 40
0.910929158496648
 40
0.9230469255112841
 40
0.9380107801745421
 40
0.9558236502507429
 40
0.9764870628592669
 40
1.0
 40
1.0
 40
1.0
 40
1.0
 10
85.3264246944293
 20
590.8231489930229
 30
0.0
 10
83.8482350388363
 20
590.8147872820376
 30
0.0
 10
81.45123808754684
 20
590.7974464790573
 30
0.0
 10
77.6565797014561
 20
590.6694346734274
 30
0.0
 10
74.26443541243621
 20
590.4879790515864
 30
0.0
 10
71.16685084216019
 20
590.2636877391317
 30
0.0
 10
68.40143473422953
 20
590.0151947878865
 30
0.0
 10
65.95427942967427
 20
589.7566186887055
 30
0.0
 10
63.81759274006428
 20
589.5005079668797
 30
0.0
 10
61.96789402225175
 20
589.2553749631741
 30
0.0
 10
60.28824389868348
 20
589.0141159111816
 30
0.0
 10
58.7862638297913
 20
588.7826090652981
 30
0.0
 10
57.33656338671312
 20
588.544251358468
 30
0.0
 10
55.96133926829336
 20
588.3048496964798
 30
0.0
 10
54.48842112031032
 20
588.0336031372589
 30
0.0
 10
52.89505336923277
 20
587.7220642465612
 30
0.0
 10
51.19035039608301
 20
587.3671837650311
 30
0.0
 10
48.88847081287286
 20
586.8558239583841
 30
0.0
 10
46.13625494196377
 20
586.1850191407825
 30
0.0
 10
43.04220500891329
 20
585.3411935258692
 30
0.0
 10
40.17716436737909
 20
584.4753565328181
 30
0.0
 10
37.71782144295322
 20
583.6574860229407
 30
0.0
 10
35.58794675546807
 20
582.8906825942678
 30
0.0
 10
33.68705837258146
 20
582.1591166071053
 30
0.0
 10
31.71180364365857
 20
581.3442590020393
 30
0.0
 10
29.97811986820413
 20
580.5725903175347
 30
0.0
 10
28.55329679282283
 20
579.8965974295642
 30
0.0
 10
27.51975129821476
 20
579.383768129617
 30
0.0
 10
26.62882439682523
 20
578.9236622848025
 30
0.0
 10
25.8008704216559
 20
578.4808070993511
 30
0.0
 10
24.92668531611589
 20
577.9964678642389
 30
0.0
 10
23.91625223827546
 20
577.4124850840187
 30
0.0
 10
22.80556000116557
 20
576.736643535175
 30
0.0
 10
21.67972805176144
 20
576.0107999061503
 30
0.0
 10
20.61925944391152
 20
575.2856190579253
 30
0.0
 10
19.69155585751292
 20
574.6135307209998
 30
0.0
 10
18.92720808620141
 20
574.0301266631798
 30
0.0
 10
18.27859513018781
 20
573.5132633108119
 30
0.0
 10
17.65523620353143
 20
572.9962195141214
 30
0.0
 10
16.97664224230455
 20
572.4069278305585
 30
0.0
 10
16.27972378146553
 20
571.7677673115012
 30
0.0
 10
15.63182035181199
 20
571.1378417005989
 30
0.0
 10
15.06520553292945
 20
570.5561691271404
 30
0.0
 10
14.51960473965616
 20
569.966919073807
 30
0.0
 10
13.93551976219715
 20
569.2987881793458
 30
0.0
 10
13.33325889615836
 20
568.5579588075824
 30
0.0
 10
12.78850328019313
 20
567.8316494510707
 30
0.0
 10
12.33906527620107
 20
567.1858125221496
 30
0.0
 10
11.93468199965725
 20
566.5638924771134
 30
0.0
 10
11.55637023674902
 20
565.9367092791919
 30
0.0
 10
11.19516496965078
 20
565.28501461779
 30
0.0
 10
10.88424676667454
 20
564.6728567364684
 30
0.0
 10
10.62241248458354
 20
564.1096592567875
 30
0.0
 10
10.40749070667599
 20
563.6072587449008
 30
0.0
 10
10.21270465737981
 20
563.1138358249146
 30
0.0
 10
10.01028465622275
 20
562.5524296754885
 30
0.0
 10
9.788200915530371
 20
561.8554988625501
 30
0.0
 10
9.557942834564765
 20
560.9899400524855
 30
0.0
 10
9.349304825164994
 20
559.961447840361
 30
0.0
 10
9.18722723300558
 20
558.7359185190064
 30
0.0
 10
9.163776845522776
 20
557.940511017256
 30
0.0
 10
9.151950888103555
 20
557.4372176067111
 30
0.0
  0
ARC
  5
6F
330
5E
100
AcDbEntity
  8
$DDT_AUDIT_GENERATED_(60)
  6
Continuous
 62
     7
100
AcDbCircle
 10
85.2375592721
 20
474.452901659
 30
0.0
 40
14.49911367017079
100
AcDbArc
 50
231.8627342404
 51
270.3521247783
  0
ARC
  5
70
330
5E
100
AcDbEntity
  8
$DDT_AUDIT_GENERATED_(60)
  6
Continuous
 62
     7
100
AcDbCircle
 10
85.4212144999
 20
474.4215684825
 30
0.0
 40
14.46680324071851
100
AcDbArc
 50
269.623250631
 51
309.4957754231
  0
SPLINE
  5
71
330
5E
100
AcDbEntity
  8
$DDT_AUDIT_GENERATED_(60)
  6
Continuous
 62
     7
100
AcDbSpline
210
0.0
220
0.0
230
1.0
 70
     8
 71
     3
 72
    77
 73
    73
 74
     0
 42
0.0000000000675121
 43
0.0000000001
 40
0.0
 40
0.0
 40
0.0
 40
0.0
 40
0.0055506486950833
 40
0.0201839983023642
 40
0.0347858360588179
 40
0.0493617908108979
 40
0.0639182676311413
 40
0.0784612470791882
 40
0.0929957130431529
 40
0.1075255097200011
 40
0.1220534308432908
 40
0.1365811747952623
 40
0.1511098727683881
 40
0.1656404398019396
 40
0.1801734000644255
 40
0.1947090074642624
 40
0.2092473350242681
 40
0.2237883389688005
 40
0.2383319035247615
 40
0.2528778715529003
 40
0.2674260650366096
 40
0.2819762984512945
 40
0.2965283872148871
 40
0.3110821527876075
 40
0.3256374255210029
 40
0.3401940460186051
 40
0.354751865530901
 40
0.369310745739435
 40
0.3838705581682393
 40
0.398431183380409
 40
0.4129925100625287
 40
0.427554434062123
 40
0.4421168574178381
 40
0.4566796874049304
 40
0.4712428356071683
 40
0.4858062170186617
 40
0.5003697491740827
 40
0.5149333513025963
 40
0.5294969339315693
 40
0.5440604001282833
 40
0.5586236688841787
 40
0.5731866573132316
 40
0.5877492797979761
 40
0.6023114471111115
 40
0.616873065504823
 40
0.6314340357651325
 40
0.6459942522330708
 40
0.660553601801266
 40
0.6751119629048987
 40
0.689669204541564
 40
0.7042251853777416
 40
0.7187797530338135
 40
0.7333327436900896
 40
0.7478839822300031
 40
0.7624332832438644
 40
0.776980453371391
 40
0.7915252956827926
 40
0.8060676171117754
 40
0.820607240390615
 40
0.8351440225322174
 40
0.8496778826862663
 40
0.8642088431694072
 40
0.8787370885639909
 40
0.8932630487639749
 40
0.9077875121597275
 40
0.9223116216878975
 40
0.9368367675608141
 40
0.9513655075202806
 40
0.9659014180737107
 40
0.9804492215596478
 40
0.9950147255183099
 40
1.0
 40
1.0
 40
1.0
 40
1.0
 10
17.3148359351997
 20
555.5017120455782
 30
0.0
 10
17.37593369456403
 20
555.6493676279541
 30
0.0
 10
17.5668060251622
 20
556.1070329025762
 30
0.0
 10
18.04253866573433
 20
556.9658258509337
 30
0.0
 10
18.71148597914071
 20
558.0040856680771
 30
0.0
 10
19.50080983911998
 20
559.0406669963251
 30
0.0
 10
20.39512022824813
 20
560.0619441814393
 30
0.0
 10
21.39687780309768
 20
561.0696532233698
 30
0.0
 10
22.50360386649747
 20
562.0613737460857
 30
0.0
 10
23.71393018267649
 20
563.0357459426522
 30
0.0
 10
25.02594656114717
 20
563.9910853137679
 30
0.0
 10
26.4376298785064
 20
564.9257766563887
 30
0.0
 10
27.94673674331009
 20
565.8381972507274
 30
0.0
 10
29.55085024597977
 20
566.7267610468749
 30
0.0
 10
31.24737834424745
 20
567.5899188602635
 30
0.0
 10
33.03355442195101
 20
568.4261622698325
 30
0.0
 10
34.90644602886965
 20
569.2340298071518
 30
0.0
 10
36.86296417477761
 20
570.0121120047974
 30
0.0
 10
38.89987199423275
 20
570.7590549749577
 30
0.0
 10
41.01379300492206
 20
571.4735631375502
 30
0.0
 10
43.20121894033428
 20
572.1544013307779
 30
0.0
 10
45.45851725924154
 20
572.8003965248365
 30
0.0
 10
47.78193841609904
 20
573.4104392719726
 30
0.0
 10
50.16762297447301
 20
573.983484982767
 30
0.0
 10
52.61160863036144
 20
574.518555083102
 30
0.0
 10
55.10983719826365
 20
575.0147380837363
 30
0.0
 10
57.6581615994323
 20
575.4711905792711
 30
0.0
 10
60.25235288037328
 20
575.8871381837407
 30
0.0
 10
62.8881072803149
 20
576.2618764041985
 30
0.0
 10
65.56105335891269
 20
576.5947714502349
 30
0.0
 10
68.26675918961644
 20
576.8852609755924
 30
0.0
 10
71.00073961960695
 20
577.132854747213
 30
0.0
 10
73.75846359374445
 20
577.3371352369563
 30
0.0
 10
76.53536153733432
 20
577.4977581314386
 30
0.0
 10
79.32683279052021
 20
577.6144527559549
 30
0.0
 10
82.12825308563329
 20
577.6870224090369
 30
0.0
 10
84.93498205767092
 20
577.7153446048993
 30
0.0
 10
87.74237016273143
 20
577.6993712252433
 30
0.0
 10
90.54576574539479
 20
577.639128635801
 30
0.0
 10
93.34052368343248
 20
577.5347176980073
 30
0.0
 10
96.12201354457567
 20
577.3863135845667
 30
0.0
 10
98.88562755210181
 20
577.1941654515581
 30
0.0
 10
101.626786972189
 20
576.9585961383674
 30
0.0
 10
104.340949544319
 20
576.6800017541738
 30
0.0
 10
107.0236168559484
 20
576.3588511779825
 30
0.0
 10
109.6703416514536
 20
575.9956854767605
 30
0.0
 10
112.2767350667871
 20
575.5911172472026
 30
0.0
 10
114.8384737827816
 20
575.1458298876408
 30
0.0
 10
117.351307092103
 20
574.6605768075821
 30
0.0
 10
119.8110638775959
 20
574.1361805832357
 30
0.0
 10
122.2136595034064
 20
573.5735320680303
 30
0.0
 10
124.555102625062
 20
572.973589467321
 30
0.0
 10
126.8315019310031
 20
572.3373773858613
 30
0.0
 10
129.0390728362095
 20
571.665985854648
 30
0.0
 10
131.1741441592287
 20
570.9605693393723
 30
0.0
 10
133.2331648266873
 20
570.222345725209
 30
0.0
 10
135.2127106674823
 20
569.4525952576067
 30
0.0
 10
137.1094913711219
 20
568.6526594020161
 30
0.0
 10
138.9203577309301
 20
567.8239395295692
 30
0.0
 10
140.6423092171063
 20
566.9678953587118
 30
0.0
 10
142.2725022906277
 20
566.0860427148531
 30
0.0
 10
143.8082585361099
 20
565.1799511277585
 30
0.0
 10
145.2470765763226
 20
564.2512376273157
 30
0.0
 10
146.5866331754812
 20
563.3015678335571
 30
0.0
 10
147.8248230858968
 20
562.3326228794556
 30
0.0
 10
148.9596336714532
 20
561.3461986260478
 30
0.0
 10
149.9896367954335
 20
560.3438016547086
 30
0.0
 10
150.9122453382415
 20
559.328044080447
 30
0.0
 10
151.7302619353714
 20
558.297299366852
 30
0.0
 10
152.4274087119671
 20
557.2654931398857
 30
0.0
 10
152.920714150976
 20
556.4248031249923
 30
0.0
 10
153.1198691189155
 20
555.9816859307232
 30
0.0
 10
153.1789974580131
 20
555.8492569635047
 30
0.0
  0
LINE
  5
72
330
5E
100
AcDbEntity
  8
$DDT_AUDIT_GENERATED_(60)
  6
Continuous
 62
     7
100
AcDbLine
 10
153.6666262622
 20
549.1799069881
 30
0.0
 11
153.8793264695
 21
549.1653229401
 31
0.0
  0
SPLINE
  5
74
330
5E
100
AcDbEntity
  8
$DDT_AUDIT_GENERATED_(73)
  6
Continuous
 62
     7
100
AcDbSpline
210
0.0
220
0.0
230
1.0
 70
     8
 71
     3
 72
    12
 73
     8
 74
     0
 42
0.0000000000610459
 43
0.0000000001
 40
0.5048509014860231
 40
0.5048509014860231
 40
0.5048509014860231
 40
0.5048509014860231
 40
0.5312499999999998
 40
0.5312499999999998
 40
0.5468749999999998
 40
0.5468749999999998
 40
0.5562758164083579
 40
0.5562758164083579
 40
0.5562758164083579
 40
0.5562758164083579
 10
20.94302452235486
 20
553.7956317579266
 30
0.0
 10
20.37607714620449
 20
552.4123513919991
 30
0.0
 10
20.10272872779391
 20
551.0149429115822
 30
0.0
 10
20.14298502476663
 20
548.7757044200081
 30
0.0
 10
20.26499209970578
 20
547.9388120405488
 30
0.0
 10
20.62577773611812
 20
546.6206147202395
 30
0.0
 10
20.79854332863082
 20
546.1287695512441
 30
0.0
 10
21.00817081635663
 20
545.6400294539574
 30
0.0
  0
SPLINE
  5
75
330
5E
100
AcDbEntity
  8
$DDT_AUDIT_GENERATED_(73)
  6
Continuous
 62
     7
100
AcDbSpline
210
0.0
220
0.0
230
1.0
 70
     8
 71
     3
 72
    10
 73
     6
 74
     0
 42
0.0000000000568241
 43
0.0000000001
 40
0.5562758164083579
 40
0.5562758164083579
 40
0.5562758164083579
 40
0.5562758164083579
 40
0.5624999999999998
 40
0.5624999999999998
 40
0.5693990447630717
 40
0.5693990447630717
 40
0.5693990447630717
 40
0.5693990447630717
 10
21.00817081635663
 20
545.6400294539574
 30
0.0
 10
21.14696301405343
 20
545.3164396760094
 30
0.0
 10
21.30191409363104
 20
544.9942110458451
 30
0.0
 10
21.66245634941261
 20
544.3175489514515
 30
0.0
 10
21.87203456041188
 20
543.9629656704578
 30
0.0
 10
22.10155836650674
 20
543.609808028119
 30
0.0
  0
LINE
  5
76
330
5E
100
AcDbEntity
  8
$DDT_AUDIT_GENERATED_(73)
  6
Continuous
 62
     7
100
AcDbLine
 10
18.3461568008
 20
557.4091294762
 30
0.0
 11
18.3461568009
 21
557.311242815
 31
0.0
  0
SPLINE
  5
77
330
5E
100
AcDbEntity
  8
$DDT_AUDIT_GENERATED_(73)
  6
Continuous
 62
     7
100
AcDbSpline
210
0.0
220
0.0
230
1.0
 70
     8
 71
     3
 72
    75
 73
    71
 74
     0
 42
0.0000000000711505
 43
0.0000000001
 40
0.0
 40
0.0
 40
0.0
 40
0.0
 40
0.0148034389519467
 40
0.0297316626848753
 40
0.0445917280031131
 40
0.0594450617461191
 40
0.0742947230875644
 40
0.0891424489115746
 40
0.1039883724087982
 40
0.1188311840693577
 40
0.1336684976531135
 40
0.1484972809808854
 40
0.1632959034361801
 40
0.1781016659134101
 40
0.1929284767278155
 40
0.2077479478126379
 40
0.2225675191329254
 40
0.2373946039875721
 40
0.2522342533509116
 40
0.2670939578930607
 40
0.2819814260804816
 40
0.296892627295467
 40
0.3117560604406268
 40
0.3265854471440188
 40
0.3414131263976296
 40
0.3562430272803397
 40
0.3710787701658627
 40
0.3859229712348232
 40
0.4007784936321426
 40
0.4156484489082057
 40
0.4305359031170079
 40
0.4454205771809999
 40
0.460191825370664
 40
0.4750245181885782
 40
0.4899031169652248
 40
0.5048114025666991
 40
0.5197322888829929
 40
0.5346434650413497
 40
0.5495263033050257
 40
0.5643638953396262
 40
0.5791484075007073
 40
0.5938882863572926
 40
0.6086846299453832
 40
0.6235588891384743
 40
0.6384855082636267
 40
0.6534376500072206
 40
0.668383287558786
 40
0.6832898313532569
 40
0.6981304610713862
 40
0.7128819288549773
 40
0.7275893819915018
 40
0.7423453992432713
 40
0.7571861747541215
 40
0.77208678830438
 40
0.7870210114667473
 40
0.8019602082376894
 40
0.8168694291609249
 40
0.8317220979377354
 40
0.8464931034005482
 40
0.8611726697604207
 40
0.8758853309274959
 40
0.890686198734791
 40
0.9055296798841571
 40
0.9204019624447778
 40
0.9352894065191769
 40
0.9501779148127921
 40
0.9650542188885994
 40
0.9799100164021477
 40
0.9947372494329705
 40
1.0
 40
1.0
 40
1.0
 40
1.0
 10
20.92539731471496
 20
553.7007690106152
 30
0.0
 10
21.08914234719733
 20
554.0763509885409
 30
0.0
 10
21.37134404518687
 20
554.7118863613665
 30
0.0
 10
21.9743273755548
 20
555.7525608817429
 30
0.0
 10
22.6706314607274
 20
556.7601329458789
 30
0.0
 10
23.48009529284376
 20
557.7619108618992
 30
0.0
 10
24.39612575630629
 20
558.7487662850676
 30
0.0
 10
25.41890082508466
 20
559.7210998147839
 30
0.0
 10
26.54623242307552
 20
560.6763315593231
 30
0.0
 10
27.77622443596906
 20
561.612600518379
 30
0.0
 10
29.10653819825234
 20
562.5279122752454
 30
0.0
 10
30.53406634180029
 20
563.4196706871924
 30
0.0
 10
32.05649342890296
 20
564.2873252224265
 30
0.0
 10
33.67108830580234
 20
565.1311357514763
 30
0.0
 10
35.37658304772511
 20
565.9495303160235
 30
0.0
 10
37.16992050071303
 20
566.7408979989077
 30
0.0
 10
39.04751882835985
 20
567.503507715454
 30
0.0
 10
41.00696764184782
 20
568.236313009193
 30
0.0
 10
43.04578376213948
 20
568.9382901504131
 30
0.0
 10
45.16140332351031
 20
569.608486079817
 30
0.0
 10
47.35078840583566
 20
570.2457580642204
 30
0.0
 10
49.60662181585678
 20
570.8483268775244
 30
0.0
 10
51.92190059516977
 20
571.4123194041985
 30
0.0
 10
54.29109307045517
 20
571.9366796847296
 30
0.0
 10
56.71255662130493
 20
572.4211206313884
 30
0.0
 10
59.18424259096903
 20
572.8652085965581
 30
0.0
 10
61.70243987527228
 20
573.2682003670803
 30
0.0
 10
64.26331185956327
 20
573.6294044348048
 30
0.0
 10
66.86291853603646
 20
573.948170876595
 30
0.0
 10
69.49731794614532
 20
574.2239575395092
 30
0.0
 10
72.16102284173972
 20
574.4559906394579
 30
0.0
 10
74.842024581512
 20
574.6438172657682
 30
0.0
 10
77.53803473459045
 20
574.788403666685
 30
0.0
 10
80.24710114875566
 20
574.8900182654073
 30
0.0
 10
82.9732811443634
 20
574.948796858383
 30
0.0
 10
85.70891854796426
 20
574.9643847214786
 30
0.0
 10
88.44589835143847
 20
574.9366047781235
 30
0.0
 10
91.17592977177021
 20
574.8654776659113
 30
0.0
 10
93.89072462247753
 20
574.7512118632194
 30
0.0
 10
96.58291554139421
 20
574.5942188091581
 30
0.0
 10
99.24669678640593
 20
574.3947269085814
 30
0.0
 10
101.8834541592237
 20
574.1509042435166
 30
0.0
 10
104.4967342121306
 20
573.8634341450122
 30
0.0
 10
107.0876559256676
 20
573.5319738404341
 30
0.0
 10
109.6497504634255
 20
573.15708099628
 30
0.0
 10
112.1735596063431
 20
572.7398508085446
 30
0.0
 10
114.6494373512375
 20
572.2817164400085
 30
0.0
 10
117.0679852890202
 20
571.7843364611314
 30
0.0
 10
119.4206005805168
 20
571.2496712723664
 30
0.0
 10
121.7028160701381
 20
570.6783755603625
 30
0.0
 10
123.9166472071051
 20
570.0716511629187
 30
0.0
 10
126.0678716624375
 20
569.429148531895
 30
0.0
 10
128.1577089318488
 20
568.7503942035537
 30
0.0
 10
130.1813867324437
 20
568.0366729256499
 30
0.0
 10
132.1313308510371
 20
567.2903601901404
 30
0.0
 10
133.9999282131927
 20
566.5142004241676
 30
0.0
 10
135.7800280038738
 20
565.711161444438
 30
0.0
 10
137.4651243938516
 20
564.8843146670699
 30
0.0
 10
139.0501153110509
 20
564.0365746235434
 30
0.0
 10
140.5353307120783
 20
563.1675209377829
 30
0.0
 10
141.9258983634672
 20
562.2742504905248
 30
0.0
 10
143.2232390452929
 20
561.3560706776433
 30
0.0
 10
144.4243363732258
 20
560.4145806233525
 30
0.0
 10
145.5245274333357
 20
559.4531546062542
 30
0.0
 10
146.5208054178139
 20
558.4742939444665
 30
0.0
 10
147.4092553945106
 20
557.4817098610331
 30
0.0
 10
148.1913687554799
 20
556.4749203082825
 30
0.0
 10
148.8509297992534
 20
555.4688200170468
 30
0.0
 10
149.3137674076689
 20
554.6451462253947
 30
0.0
 10
149.4978583491714
 20
554.2103528396625
 30
0.0
 10
149.5539727383364
 20
554.0768102443454
 30
0.0
  0
ELLIPSE
  5
79
330
5E
100
AcDbEntity
  8
$DDT_AUDIT_GENERATED_(78)
  6
Continuous
 62
     7
100
AcDbEllipse
 10
85.3264795182
 20
469.6918389372
 30
0.0
 11
13.75
 21
2.775557561562891E-14
 31
0.0
210
0.0
220
0.0
230
1.0
 40
0.8660254038
 41
3.141592653589795
 42
6.283185307179584
  0
LINE
  5
7A
330
5E
100
AcDbEntity
  8
$DDT_AUDIT_GENERATED_(78)
  6
Continuous
 62
     7
100
AcDbLine
 10
71.5764795182
 20
471.6918389372
 30
0.0
 11
71.5764795182
 21
469.6918389372
 31
0.0
  0
LINE
  5
7B
330
5E
100
AcDbEntity
  8
$DDT_AUDIT_GENERATED_(78)
  6
Continuous
 62
     7
100
AcDbLine
 10
99.0764795182
 20
469.6918389372
 30
0.0
 11
99.0764795182
 21
471.6918389372
 31
0.0
  0
ELLIPSE
  5
7D
330
5E
100
AcDbEntity
  8
$DDT_AUDIT_GENERATED_(7C)
  6
Continuous
 62
     7
100
AcDbEllipse
 10
85.3264252134
 20
549.2765602054
 30
0.0
 11
64.79799988564143
 21
6.398395702156279E-8
 31
0.0
210
0.0
220
0.0
230
1.0
 40
0.3888583456
 41
3.602356594221706
 42
3.633168678905006
  0
ELLIPSE
  5
7E
330
5E
100
AcDbEntity
  8
$DDT_AUDIT_GENERATED_(7C)
  6
Continuous
 62
     7
100
AcDbEllipse
 10
85.3264252134
 20
549.2765602054
 30
0.0
 11
64.79799988564143
 21
6.398395702156279E-8
 31
0.0
210
0.0
220
0.0
230
1.0
 40
0.3888583456
 41
3.673696602386145
 42
3.813278284846158
  0
ELLIPSE
  5
7F
330
5E
100
AcDbEntity
  8
$DDT_AUDIT_GENERATED_(7C)
  6
Continuous
 62
     7
100
AcDbEllipse
 10
85.3264252134
 20
549.2765602054
 30
0.0
 11
64.79799988564143
 21
6.398395702156279E-8
 31
0.0
210
0.0
220
0.0
230
1.0
 40
0.3888583456
 41
3.875523814629427
 42
4.003233352896834
  0
ELLIPSE
  5
80
330
5E
100
AcDbEntity
  8
$DDT_AUDIT_GENERATED_(7C)
  6
Continuous
 62
     7
100
AcDbEllipse
 10
85.3264252134
 20
549.2765602054
 30
0.0
 11
64.79799988564143
 21
6.398395702156279E-8
 31
0.0
210
0.0
220
0.0
230
1.0
 40
0.3888583456
 41
4.057580675344047
 42
4.197980333208596
  0
ELLIPSE
  5
81
330
5E
100
AcDbEntity
  8
$DDT_AUDIT_GENERATED_(7C)
  6
Continuous
 62
     7
100
AcDbEllipse
 10
85.3264252134
 20
549.2765602054
 30
0.0
 11
64.79799988564143
 21
6.398395702156279E-8
 31
0.0
210
0.0
220
0.0
230
1.0
 40
0.3888583456
 41
4.246052278709131
 42
4.270374893025572
  0
ELLIPSE
  5
82
330
5E
100
AcDbEntity
  8
$DDT_AUDIT_GENERATED_(7C)
  6
Continuous
 62
     7
100
AcDbEllipse
 10
85.3264252134
 20
549.2765602054
 30
0.0
 11
64.79799988564143
 21
6.398395702156279E-8
 31
0.0
210
0.0
220
0.0
230
1.0
 40
0.3888583456
 41
4.30162994176796
 42
4.394840961516406
  0
ELLIPSE
  5
83
330
5E
100
AcDbEntity
  8
$DDT_AUDIT_GENERATED_(7C)
  6
Continuous
 62
     7
100
AcDbEllipse
 10
85.3264252134
 20
549.2765602054
 30
0.0
 11
64.79799988564143
 21
6.398395702156279E-8
 31
0.0
210
0.0
220
0.0
230
1.0
 40
0.3888583456
 41
4.480848292302746
 42
4.592666763500933
  0
ELLIPSE
  5
84
330
5E
100
AcDbEntity
  8
$DDT_AUDIT_GENERATED_(7C)
  6
Continuous
 62
     7
100
AcDbEllipse
 10
85.3264252134
 20
549.2765602054
 30
0.0
 11
64.79799988564143
 21
6.398395702156279E-8
 31
0.0
210
0.0
220
0.0
230
1.0
 40
0.3888583456
 41
4.649237350301567
 42
4.775311417020253
  0
ELLIPSE
  5
85
330
5E
100
AcDbEntity
  8
$DDT_AUDIT_GENERATED_(7C)
  6
Continuous
 62
     7
100
AcDbEllipse
 10
85.3264252134
 20
549.2765602054
 30
0.0
 11
64.79799988564143
 21
6.398395702156279E-8
 31
0.0
210
0.0
220
0.0
230
1.0
 40
0.3888583456
 41
-1.451074092151035
 42
-1.339316514648334
  0
ELLIPSE
  5
86
330
5E
100
AcDbEntity
  8
$DDT_AUDIT_GENERATED_(7C)
  6
Continuous
 62
     7
100
AcDbEllipse
 10
85.3264252134
 20
549.2765602054
 30
0.0
 11
64.79799988564143
 21
6.398395702156279E-8
 31
0.0
210
0.0
220
0.0
230
1.0
 40
0.3888583456
 41
-1.300679606032995
 42
-1.297700218221141
  0
ELLIPSE
  5
87
330
5E
100
AcDbEntity
  8
$DDT_AUDIT_GENERATED_(7C)
  6
Continuous
 62
     7
100
AcDbEllipse
 10
85.3264252134
 20
549.2765602054
 30
0.0
 11
64.79799988564143
 21
6.398395702156279E-8
 31
0.0
210
0.0
220
0.0
230
1.0
 40
0.3888583456
 41
-1.253248294915638
 42
-1.160869939889885
  0
ELLIPSE
  5
88
330
5E
100
AcDbEntity
  8
$DDT_AUDIT_GENERATED_(7C)
  6
Continuous
 62
     7
100
AcDbEllipse
 10
85.3264252134
 20
549.2765602054
 30
0.0
 11
64.79799988564143
 21
6.398395702156279E-8
 31
0.0
210
0.0
220
0.0
230
1.0
 40
0.3888583456
 41
-1.129044289951642
 42
-1.104459612508748
  0
ELLIPSE
  5
89
330
5E
100
AcDbEntity
  8
$DDT_AUDIT_GENERATED_(7C)
  6
Continuous
 62
     7
100
AcDbEllipse
 10
85.3264252134
 20
549.2765602054
 30
0.0
 11
64.79799988564143
 21
6.398395702156279E-8
 31
0.0
210
0.0
220
0.0
230
1.0
 40
0.3888583456
 41
-1.056387666692569
 42
-0.9159880095601025
  0
ELLIPSE
  5
8A
330
5E
100
AcDbEntity
  8
$DDT_AUDIT_GENERATED_(7C)
  6
Continuous
 62
     7
100
AcDbEllipse
 10
85.3264252134
 20
549.2765602054
 30
0.0
 11
64.79799988564143
 21
6.398395702156279E-8
 31
0.0
210
0.0
220
0.0
230
1.0
 40
0.3888583456
 41
-0.8616406865870267
 42
-0.7340099448429918
  0
ELLIPSE
  5
8B
330
5E
100
AcDbEntity
  8
$DDT_AUDIT_GENERATED_(7C)
  6
Continuous
 62
     7
100
AcDbEllipse
 10
85.3264252134
 20
549.2765602054
 30
0.0
 11
64.79799988564143
 21
6.398395702156279E-8
 31
0.0
210
0.0
220
0.0
230
1.0
 40
0.3888583456
 41
-0.6716856189975662
 42
-0.5338471957030073
  0
ELLIPSE
  5
8C
330
5E
100
AcDbEntity
  8
$DDT_AUDIT_GENERATED_(7C)
  6
Continuous
 62
     7
100
AcDbEllipse
 10
85.3264252134
 20
549.2765602054
 30
0.0
 11
64.79799988564143
 21
6.398395702156279E-8
 31
0.0
210
0.0
220
0.0
230
1.0
 40
0.3888583456
 41
-0.4919560817676789
 42
-0.4695261975198592
  0
LINE
  5
8D
330
5E
100
AcDbEntity
  8
$DDT_AUDIT_GENERATED_(7C)
  6
Continuous
 62
     7
100
AcDbLine
 10
150.3280093486
 20
549.2529115728
 30
0.0
 11
150.3599688543
 21
550.3772721196
 31
0.0
  0
ARC
  5
8E
330
5E
100
AcDbEntity
  8
$DDT_AUDIT_GENERATED_(7C)
  6
Continuous
 62
     7
100
AcDbCircle
 10
131.4651374996
 20
554.278225419
 30
0.0
 40
20.13279091700756
100
AcDbArc
 50
305.6611848944
 51
330.0675245301
  0
ARC
  5
8F
330
5E
100
AcDbEntity
  8
$DDT_AUDIT_GENERATED_(7C)
  6
Continuous
 62
     7
100
AcDbCircle
 10
39.1983684665
 20
554.3245009112
 30
0.0
 40
20.17197661457537
100
AcDbArc
 50
210.5311559704
 51
233.2620481361
  0
SPLINE
  5
91
330
5E
100
AcDbEntity
  8
$DDT_AUDIT_GENERATED_(90)
  6
Continuous
 62
     7
100
AcDbSpline
210
0.0
220
0.0
230
1.0
 70
     8
 71
     3
 72
     8
 73
     4
 74
     0
 42
0.0000000303104227
 43
0.0000000001
 40
0.9507896353348128
 40
0.9507896353348128
 40
0.9507896353348128
 40
0.9507896353348128
 40
1.0
 40
1.0
 40
1.0
 40
1.0
 10
45.27014060043707
 20
528.584255755246
 30
0.0
 10
45.26761827731081
 20
528.580195859388
 30
0.0
 10
45.26381072647543
 20
528.5764530472825
 30
0.0
 10
45.25872081599018
 20
528.573060839185
 30
0.0
  0
SPLINE
  5
93
330
5E
100
AcDbEntity
  8
$DDT_AUDIT_GENERATED_(92)
  6
Continuous
 62
     7
100
AcDbSpline
210
0.0
220
0.0
230
1.0
 70
     8
 71
     5
 72
    12
 73
     6
 74
     0
 42
0.0000000016226343
 43
0.0000000001
 40
0.9350032913044328
 40
0.9350032913044328
 40
0.9350032913044328
 40
0.9350032913044328
 40
0.9350032913044328
 40
0.9350032913044328
 40
1.0
 40
1.0
 40
1.0
 40
1.0
 40
1.0
 40
1.0
 10
78.23624078799482
 20
507.7785873253743
 30
0.0
 10
78.23063528082605
 20
507.8535213610098
 30
0.0
 10
78.2275813489085
 20
507.9309106257398
 30
0.0
 10
78.22647130508183
 20
508.0108194598527
 30
0.0
 10
78.22647130508183
 20
508.0933905262052
 30
0.0
 10
78.22647130508183
 20
508.1788729009503
 30
0.0
  0
LINE
  5
94
330
5E
100
AcDbEntity
  8
$DDT_AUDIT_GENERATED_(92)
  6
Continuous
 62
     7
100
AcDbLine
 10
78.2264743743
 20
508.178872901
 30
0.0
 11
78.2264710238
 21
508.9912120252
 31
0.0
  0
LINE
  5
95
330
5E
100
AcDbEntity
  8
$DDT_AUDIT_GENERATED_(92)
  6
Continuous
 62
     7
100
AcDbLine
 10
78.2264805213
 20
502.1703414746
 30
0.0
 11
78.2264743743
 21
508.178872901
 31
0.0
  0
LINE
  5
96
330
5E
100
AcDbEntity
  8
$DDT_AUDIT_GENERATED_(92)
  6
Continuous
 62
     7
100
AcDbLine
 10
92.426475446
 20
508.178658745
 30
0.0
 11
92.426475446
 21
502.1703414746
 31
0.0
  0
LINE
  5
97
330
5E
100
AcDbEntity
  8
$DDT_AUDIT_GENERATED_(92)
  6
Continuous
 62
     7
100
AcDbLine
 10
78.2264710238
 20
508.9912120252
 30
0.0
 11
78.2264771536
 21
502.9868813758
 31
0.0
  0
LINE
  5
98
330
5E
100
AcDbEntity
  8
$DDT_AUDIT_GENERATED_(92)
  6
Continuous
 62
     7
100
AcDbLine
 10
92.426475446
 20
508.9909998768
 30
0.0
 11
92.426475446
 21
508.178658745
 31
0.0
  0
SPLINE
  5
99
330
5E
100
AcDbEntity
  8
$DDT_AUDIT_GENERATED_(92)
  6
Continuous
 62
     7
100
AcDbSpline
210
0.0
220
0.0
230
1.0
 70
     8
 71
     3
 72
    34
 73
    30
 74
     0
 42
0.0000000005318239
 43
0.0000000001
 40
0.0
 40
0.0
 40
0.0
 40
0.0
 40
0.0366317587997316
 40
0.0666612253012385
 40
0.090953460336433
 40
0.1100948138616112
 40
0.128488538486738
 40
0.1456062889577905
 40
0.1647231124214564
 40
0.2087057524907867
 40
0.2562635313879823
 40
0.2944933866332672
 40
0.3230260964525982
 40
0.3491589716791817
 40
0.3821864847774865
 40
0.4413523452086545
 40
0.4998107250212185
 40
0.5559957548358522
 40
0.6047099014133767
 40
0.6471208042017353
 40
0.6988027527791629
 40
0.7563609792188369
 40
0.8019149295453165
 40
0.825479080243551
 40
0.8644439942665145
 40
0.8905116706437817
 40
0.921434722750963
 40
0.9577049276597187
 40
1.0
 40
1.0
 40
1.0
 40
1.0
 10
78.26871986027798
 20
501.7198922681506
 30
0.0
 10
78.29567154769536
 20
501.4610755371673
 30
0.0
 10
78.34162389370968
 20
501.0655113349007
 30
0.0
 10
78.49053512746171
 20
500.4976337002579
 30
0.0
 10
78.66512730268154
 20
500.074717044568
 30
0.0
 10
78.85083707293326
 20
499.7401062581167
 30
0.0
 10
79.03527018830671
 20
499.4747198895988
 30
0.0
 10
79.22871891356134
 20
499.2383197447771
 30
0.0
 10
79.53479253608664
 20
498.912476761332
 30
0.0
 10
80.00479433580114
 20
498.5115967819601
 30
0.0
 10
80.63714651193621
 20
498.104737529552
 30
0.0
 10
81.26336245287337
 20
497.7945311274138
 30
0.0
 10
81.8056817508755
 20
497.5780718669153
 30
0.0
 10
82.33650459295873
 20
497.4025847896257
 30
0.0
 10
83.08463372411401
 20
497.2054437016631
 30
0.0
 10
84.09113002739409
 20
497.0364205895841
 30
0.0
 10
85.29137444955785
 20
496.9696211568366
 30
0.0
 10
86.42007636321043
 20
497.0261663996016
 30
0.0
 10
87.40907799299774
 20
497.173919008827
 30
0.0
 10
88.32467115885463
 20
497.3954144497395
 30
0.0
 10
89.2402408575945
 20
497.7146775953155
 30
0.0
 10
90.08175391301417
 20
498.1359531297616
 30
0.0
 10
90.66908201484232
 20
498.5348109617081
 30
0.0
 10
91.15266187007452
 20
498.9436339891564
 30
0.0
 10
91.52367896969061
 20
499.3512387099801
 30
0.0
 10
91.84480507040341
 20
499.8399184700769
 30
0.0
 10
92.0893163443843
 20
500.3484712394016
 30
0.0
 10
92.28837704111858
 20
500.9950265856187
 30
0.0
 10
92.34910578710942
 20
501.4369659655313
 30
0.0
 10
92.38424813438151
 20
501.7198894786014
 30
0.0
  0
LINE
  5
9A
330
5E
100
AcDbEntity
  8
$DDT_AUDIT_GENERATED_(92)
  6
Continuous
 62
     7
100
AcDbLine
 10
78.2687854005
 20
501.8229478959
 30
0.0
 11
78.2687212778
 21
501.7198847616
 31
0.0
  0
SPLINE
  5
9B
330
5E
100
AcDbEntity
  8
$DDT_AUDIT_GENERATED_(92)
  6
Continuous
 62
     7
100
AcDbSpline
210
0.0
220
0.0
230
1.0
 70
     8
 71
     3
 72
    21
 73
    17
 74
     0
 42
0.0000000011033613
 43
0.0000000001
 40
0.0
 40
0.0
 40
0.0
 40
0.0
 40
0.0335895432427094
 40
0.0791510800958521
 40
0.1545032440345715
 40
0.2306033664214869
 40
0.3075725887498784
 40
0.3880534772943972
 40
0.4703971394048722
 40
0.5534393150686452
 40
0.6379396984730366
 40
0.72157510354741
 40
0.8058691446483183
 40
0.8893599697855891
 40
0.9719940925142613
 40
1.0
 40
1.0
 40
1.0
 40
1.0
 10
92.42356632643794
 20
509.0044585476674
 30
0.0
 10
92.4229922250595
 20
509.0901682614606
 30
0.0
 10
92.42056426410656
 20
509.261007316707
 30
0.0
 10
92.35933694602305
 20
509.6454568494568
 30
0.0
 10
92.21098041918542
 20
510.1013343113057
 30
0.0
 10
91.93014358331511
 20
510.6102952500149
 30
0.0
 10
91.54717100679362
 20
511.0853327646197
 30
0.0
 10
91.06526306698164
 20
511.5302900802347
 30
0.0
 10
90.4828824723183
 20
511.9378771879577
 30
0.0
 10
89.81355413688638
 20
512.2994054428692
 30
0.0
 10
89.0704352927309
 20
512.609048588627
 30
0.0
 10
88.26364217919921
 20
512.8605647334987
 30
0.0
 10
87.4107234195592
 20
513.0515269608627
 30
0.0
 10
86.5346665828193
 20
513.175257098806
 30
0.0
 10
85.81414404649652
 20
513.2250536914072
 30
0.0
 10
85.43789221352371
 20
513.2248878783656
 30
0.0
 10
85.32633563374269
 20
513.2245748298983
 30
0.0
  0
SPLINE
  5
9C
330
5E
100
AcDbEntity
  8
$DDT_AUDIT_GENERATED_(92)
  6
Continuous
 62
     7
100
AcDbSpline
210
0.0
220
0.0
230
1.0
 70
     8
 71
     3
 72
    20
 73
    16
 74
     0
 42
0.0000000011037271
 43
0.0000000001
 40
0.0
 40
0.0
 40
0.0
 40
0.0
 40
0.068301852914744
 40
0.1502961864138363
 40
0.2317808304576507
 40
0.314520711209151
 40
0.3986471312888421
 40
0.4830907108781047
 40
0.5680649148825385
 40
0.6533618535995348
 40
0.7373732345544997
 40
0.8116331342493612
 40
0.8910417564476637
 40
0.9685640228432867
 40
1.0
 40
1.0
 40
1.0
 40
1.0
 10
85.32596850273377
 20
513.2243604626717
 30
0.0
 10
85.05380567761773
 20
513.2211474146602
 30
0.0
 10
84.54703298027029
 20
513.212789791874
 30
0.0
 10
83.70008793951149
 20
513.1243634580023
 30
0.0
 10
82.85108801742973
 20
512.9722553299506
 30
0.0
 10
82.02779242941028
 20
512.7571943316406
 30
0.0
 10
81.24852133273451
 20
512.4804697364677
 30
0.0
 10
80.52838896523491
 20
512.1432592733447
 30
0.0
 10
79.88017665746571
 20
511.7503267641303
 30
0.0
 10
79.3213998949562
 20
511.3024448928003
 30
0.0
 10
78.88078323782831
 20
510.8271577540008
 30
0.0
 10
78.54416151961732
 20
510.3140552088977
 30
0.0
 10
78.32562550943754
 20
509.7923975770414
 30
0.0
 10
78.23099767684482
 20
509.310126507124
 30
0.0
 10
78.23073725719561
 20
509.0852863586559
 30
0.0
 10
78.23128655426666
 20
509.0090022636158
 30
0.0
  0
LINE
  5
9E
330
5E
100
AcDbEntity
  8
A4240973_WINKEL_
  6
Continuous
 62
     7
100
AcDbLine
 10
97.0425973505
 20
443.0412297571
 30
0.0
 11
73.6103731905
 21
443.0412297571
 31
0.0
  0
LINE
  5
9F
330
5E
100
AcDbEntity
  8
A4240973_WINKEL_
  6
Continuous
 62
     7
100
AcDbLine
 10
94.5764959049
 20
434.0412297571
 30
0.0
 11
76.0764959049
 21
434.0412297571
 31
0.0
  0
LINE
  5
A0
330
5E
100
AcDbEntity
  8
A4240973_WINKEL_
  6
Continuous
 62
     7
100
AcDbLine
 10
94.5764959049
 20
435.5412297571
 30
0.0
 11
76.0764959049
 21
435.5412297571
 31
0.0
  0
LINE
  5
A1
330
5E
100
AcDbEntity
  8
A4240973_WINKEL_
  6
Continuous
 62
     7
100
AcDbLine
 10
95.8039959049
 20
436.7687297571
 30
0.0
 11
74.8489959049
 21
436.7687297571
 31
0.0
  0
ARC
  5
A2
330
5E
100
AcDbEntity
  8
A4240973_WINKEL_
  6
Continuous
 62
     7
100
AcDbCircle
 10
-101.8564257426
 20
469.6337597763
 30
0.0
 40
200.9327104368621
100
AcDbArc
 50
352.4756129192
 51
359.9313786498
  0
ARC
  5
A3
330
5E
100
AcDbEntity
  8
A4240973_WINKEL_
  6
Continuous
 62
     7
100
AcDbCircle
 10
274.9780761077
 20
469.7988126572
 30
0.0
 40
203.4017028260248
100
AcDbArc
 50
180.1141903063
 51
187.4789900667
  0
ARC
  5
A4
330
5E
100
AcDbEntity
  8
A4240973_WINKEL_
  6
Continuous
 62
     7
100
AcDbCircle
 10
97.0425992806
 20
443.3412296822
 30
0.0
 40
0.2999994904599509
100
AcDbArc
 50
269.9925998434
 51
355.7432997003
  0
ARC
  5
A5
330
5E
100
AcDbEntity
  8
A4240973_WINKEL_
  6
Continuous
 62
     7
100
AcDbCircle
 10
73.6104045004
 20
443.3412296605
 30
0.0
 40
0.2999991752167045
100
AcDbArc
 50
183.3855126267
 51
270.0119763577
  0
LINE
  5
A6
330
5E
100
AcDbEntity
  8
A4240973_WINKEL_
  6
Continuous
 62
     7
100
AcDbLine
 10
74.8489959049
 20
442.5412297571
 30
0.0
 11
74.8489959049
 21
442.0412297571
 31
0.0
  0
LINE
  5
A7
330
5E
100
AcDbEntity
  8
A4240973_WINKEL_
  6
Continuous
 62
     7
100
AcDbLine
 10
95.8039959049
 20
442.0412297571
 30
0.0
 11
95.8039959049
 21
442.5412297571
 31
0.0
  0
LINE
  5
A8
330
5E
100
AcDbEntity
  8
A4240973_WINKEL_
  6
Continuous
 62
     7
100
AcDbLine
 10
74.8489959049
 20
442.0412297571
 30
0.0
 11
74.8489959049
 21
436.7687297571
 31
0.0
  0
LINE
  5
A9
330
5E
100
AcDbEntity
  8
A4240973_WINKEL_
  6
Continuous
 62
     7
100
AcDbLine
 10
95.8039959049
 20
436.7687297571
 30
0.0
 11
95.8039959049
 21
442.0412297571
 31
0.0
  0
LINE
  5
AA
330
5E
100
AcDbEntity
  8
A4240973_WINKEL_
  6
Continuous
 62
     7
100
AcDbLine
 10
94.5764959049
 20
434.0412297571
 30
0.0
 11
94.5764959049
 21
435.5412297571
 31
0.0
  0
LINE
  5
AB
330
5E
100
AcDbEntity
  8
A4240973_WINKEL_
  6
Continuous
 62
     7
100
AcDbLine
 10
76.0764959049
 20
435.5412297571
 30
0.0
 11
76.0764959049
 21
434.0412297571
 31
0.0
  0
LINE
  5
AC
330
5E
100
AcDbEntity
  8
A4240973_WINKEL_
  6
Continuous
 62
     7
100
AcDbLine
 10
74.8489959049
 20
436.7687297571
 30
0.0
 11
76.0764959049
 21
435.5412297571
 31
0.0
  0
LINE
  5
AD
330
5E
100
AcDbEntity
  8
A4240973_WINKEL_
  6
Continuous
 62
     7
100
AcDbLine
 10
94.5764959049
 20
435.5412297571
 30
0.0
 11
95.8039959049
 21
436.7687297571
 31
0.0
  0
ARC
  5
AE
330
5E
100
AcDbEntity
  8
A4240973_WINKEL_
  6
Continuous
 62
     7
100
AcDbCircle
 10
96.3039959049
 20
442.5412297571
 30
0.0
 40
0.5000000000000022
100
AcDbArc
 50
90.0
 51
180.0
  0
ARC
  5
AF
330
5E
100
AcDbEntity
  8
A4240973_WINKEL_
  6
Continuous
 62
     7
100
AcDbCircle
 10
74.3489959049
 20
442.5412297571
 30
0.0
 40
0.5000000000000004
100
AcDbArc
 50
0.0
 51
90.0
  0
ARC
  5
B1
330
5E
100
AcDbEntity
  8
DV1_Standard
  6
Continuous
 62
     7
100
AcDbCircle
 10
67.8856263819
 20
604.3484008968
 30
0.0
 40
78.2152128698661
100
AcDbArc
 50
251.5419492685
 51
253.608278004
  0
SPLINE
  5
B2
330
5E
100
AcDbEntity
  8
DV1_Standard
  6
Continuous
 62
     7
100
AcDbSpline
210
0.0
220
0.0
230
1.0
 70
     8
 71
     3
 72
     8
 73
     4
 74
     0
 42
0.0000000040967031
 43
0.0000000001
 40
0.0
 40
0.0
 40
0.0
 40
0.0
 40
1.0
 40
1.0
 40
1.0
 40
1.0
 10
43.21730645966301
 20
529.2147320873078
 30
0.0
 10
44.7485118058574
 20
528.7673692409757
 30
0.0
 10
45.5296863188219
 20
528.5397716478507
 30
0.0
 10
45.56082999855646
 20
528.5319393079328
 30
0.0
  0
SPLINE
  5
B3
330
5E
100
AcDbEntity
  8
DV1_Standard
  6
Continuous
 62
     7
100
AcDbSpline
210
0.0
220
0.0
230
1.0
 70
     8
 71
     3
 72
     8
 73
     4
 74
     0
 42
0.0000000031977544
 43
0.0000000001
 40
0.0
 40
0.0
 40
0.0
 40
0.0
 40
1.0
 40
1.0
 40
1.0
 40
1.0
 10
53.41759253451986
 20
527.3461657828325
 30
0.0
 10
55.34794068263319
 20
526.9431626612651
 30
0.0
 10
56.36877593076592
 20
526.7323829852124
 30
0.0
 10
56.48009827891805
 20
526.7138267546745
 30
0.0
  0
LINE
  5
B4
330
5E
100
AcDbEntity
  8
DV1_Standard
  6
Continuous
 62
     7
100
AcDbLine
 10
28.2695595785
 20
537.333512614
 30
0.0
 11
29.4601189431
 21
536.4734567675
 31
0.0
  0
SPLINE
  5
B5
330
5E
100
AcDbEntity
  8
DV1_Standard
  6
Continuous
 62
     7
100
AcDbSpline
210
0.0
220
0.0
230
1.0
 70
     8
 71
     3
 72
     8
 73
     4
 74
     0
 42
0.0000000035219858
 43
0.0000000001
 40
0.0
 40
0.0
 40
0.0
 40
0.0
 40
1.0
 40
1.0
 40
1.0
 40
1.0
 10
34.64060912516435
 20
533.5783875844745
 30
0.0
 10
35.70759030911744
 20
533.0658571047778
 30
0.0
 10
36.56774846434435
 20
532.6714594615801
 30
0.0
 10
37.22108359084509
 20
532.3951946548814
 30
0.0
  0
SPLINE
  5
B6
330
5E
100
AcDbEntity
  8
DV1_Standard
  6
Continuous
 62
     7
100
AcDbSpline
210
0.0
220
0.0
230
1.0
 70
     8
 71
     3
 72
     8
 73
     4
 74
     0
 42
0.00000000535319
 43
0.0000000001
 40
0.0
 40
0.0
 40
0.0
 40
0.0
 40
1.0
 40
1.0
 40
1.0
 40
1.0
 10
53.50301865048369
 20
526.3054699892821
 30
0.0
 10
54.37442718282599
 20
525.9965778541136
 30
0.0
 10
54.95687953316729
 20
525.7770545214776
 30
0.0
 10
55.25037570150761
 20
525.6468999913736
 30
0.0
  0
SPLINE
  5
B7
330
5E
100
AcDbEntity
  8
DV1_Standard
  6
Continuous
 62
     7
100
AcDbSpline
210
0.0
220
0.0
230
1.0
 70
     8
 71
     3
 72
     8
 73
     4
 74
     0
 42
0.0000000053023546
 43
0.0000000001
 40
0.0
 40
0.0
 40
0.0
 40
0.0
 40
1.0
 40
1.0
 40
1.0
 40
1.0
 10
57.60515231862097
 20
526.5015686615163
 30
0.0
 10
58.50990294737464
 20
526.3261112874613
 30
0.0
 10
59.12881454675873
 20
526.2168018552267
 30
0.0
 10
59.46188711677323
 20
526.1736403648127
 30
0.0
  0
SPLINE
  5
B8
330
5E
100
AcDbEntity
  8
DV1_Standard
  6
Continuous
 62
     7
100
AcDbSpline
210
0.0
220
0.0
230
1.0
 70
     8
 71
     3
 72
     8
 73
     4
 74
     0
 42
0.0000000018530165
 43
0.0000000001
 40
0.0
 40
0.0
 40
0.0
 40
0.0
 40
1.0
 40
1.0
 40
1.0
 40
1.0
 10
65.06685332022101
 20
525.3425563421632
 30
0.0
 10
68.3024980310792
 20
524.9727150774878
 30
0.0
 10
70.0905214784833
 20
524.7765632528485
 30
0.0
 10
70.4309236624333
 20
524.7541008682451
 30
0.0
  0
SPLINE
  5
B9
330
5E
100
AcDbEntity
  8
DV1_Standard
  6
Continuous
 62
     7
100
AcDbSpline
210
0.0
220
0.0
230
1.0
 70
     8
 71
     3
 72
     8
 73
     4
 74
     0
 42
0.0000000027621082
 43
0.0000000001
 40
0.0
 40
0.0
 40
0.0
 40
0.0
 40
1.0
 40
1.0
 40
1.0
 40
1.0
 10
77.60213234925875
 20
524.258984201939
 30
0.0
 10
79.6863300965037
 20
524.1770154801375
 30
0.0
 10
80.89233681432819
 20
524.1340079599572
 30
0.0
 10
81.2201525027322
 20
524.1299616413985
 30
0.0
  0
SPLINE
  5
BA
330
5E
100
AcDbEntity
  8
DV1_Standard
  6
Continuous
 62
     7
100
AcDbSpline
210
0.0
220
0.0
230
1.0
 70
     8
 71
     3
 72
     8
 73
     4
 74
     0
 42
0.0000000027023562
 43
0.0000000001
 40
0.0
 40
0.0
 40
0.0
 40
0.0
 40
1.0
 40
1.0
 40
1.0
 40
1.0
 10
89.37643546349081
 20
524.1292718138259
 30
0.0
 10
91.39393335053481
 20
524.258984201939
 30
0.0
 10
92.62007596843007
 20
524.1510976574809
 30
0.0
 10
93.05477339983511
 20
524.2591735963023
 30
0.0
  0
SPLINE
  5
BB
330
5E
100
AcDbEntity
  8
DV1_Standard
  6
Continuous
 62
     7
100
AcDbSpline
210
0.0
220
0.0
230
1.0
 70
     8
 71
     3
 72
     8
 73
     4
 74
     0
 42
0.0000000041102981
 43
0.0000000001
 40
0.0
 40
0.0
 40
0.0
 40
0.0
 40
1.0
 40
1.0
 40
1.0
 40
1.0
 10
100.2056605356293
 20
524.7526077192049
 30
0.0
 10
101.3143677476739
 20
524.8573660609472
 30
0.0
 10
102.1213227199116
 20
524.9378169962156
 30
0.0
 10
102.6265254523422
 20
524.9939605250099
 30
0.0
  0
SPLINE
  5
BC
330
5E
100
AcDbEntity
  8
DV1_Standard
  6
Continuous
 62
     7
100
AcDbSpline
210
0.0
220
0.0
230
1.0
 70
     8
 71
     3
 72
     8
 73
     4
 74
     0
 42
0.0000000033510698
 43
0.0000000001
 40
0.0
 40
0.0
 40
0.0
 40
0.0
 40
1.0
 40
1.0
 40
1.0
 40
1.0
 10
102.6265317095652
 20
524.993960862055
 30
0.0
 10
104.150889338567
 20
525.1657620792304
 30
0.0
 10
105.1387373052031
 20
525.2821346145599
 30
0.0
 10
105.5900756094734
 20
525.3430784680438
 30
0.0
  0
SPLINE
  5
BD
330
5E
100
AcDbEntity
  8
DV1_Standard
  6
Continuous
 62
     7
100
AcDbSpline
210
0.0
220
0.0
230
1.0
 70
     8
 71
     3
 72
     8
 73
     4
 74
     0
 42
0.00000000532497
 43
0.0000000001
 40
0.0
 40
0.0
 40
0.0
 40
0.0
 40
1.0
 40
1.0
 40
1.0
 40
1.0
 10
111.2349333346384
 20
526.1810914405235
 30
0.0
 10
112.2836494865241
 20
526.3638616229945
 30
0.0
 10
112.900049078137
 20
526.4729244134179
 30
0.0
 10
113.0841321094771
 20
526.5082798117935
 30
0.0
  0
SPLINE
  5
BE
330
5E
100
AcDbEntity
  8
DV1_Standard
  6
Continuous
 62
     7
100
AcDbSpline
210
0.0
220
0.0
230
1.0
 70
     8
 71
     3
 72
     8
 73
     4
 74
     0
 42
0.00000000363887
 43
0.0000000001
 40
0.0
 40
0.0
 40
0.0
 40
0.0
 40
1.0
 40
1.0
 40
1.0
 40
1.0
 10
114.5248325529713
 20
526.7824113691046
 30
0.0
 10
115.865055679423
 20
527.0524154790362
 30
0.0
 10
116.7618790473015
 20
527.2388707717607
 30
0.0
 10
117.2153026566069
 20
527.3417772472778
 30
0.0
  0
SPLINE
  5
BF
330
5E
100
AcDbEntity
  8
DV1_Standard
  6
Continuous
 62
     7
100
AcDbSpline
210
0.0
220
0.0
230
1.0
 70
     8
 71
     3
 72
     8
 73
     4
 74
     0
 42
0.0000000054245772
 43
0.0000000001
 40
0.0
 40
0.0
 40
0.0
 40
0.0
 40
1.0
 40
1.0
 40
1.0
 40
1.0
 10
115.4556845864705
 20
525.6689214625038
 30
0.0
 10
116.3234221990014
 20
526.0365289539659
 30
0.0
 10
116.8979295402357
 20
526.250932832946
 30
0.0
 10
117.1792066101732
 20
526.3121330994443
 30
0.0
  0
LINE
  5
C0
330
5E
100
AcDbEntity
  8
DV1_Standard
  6
Continuous
 62
     7
100
AcDbLine
 10
132.554353253
 20
532.0246389647
 30
0.0
 11
136.1094279717
 21
533.4962499028
 31
0.0
  0
SPLINE
  5
C1
330
5E
100
AcDbEntity
  8
DV1_Standard
  6
Continuous
 62
     7
100
AcDbSpline
210
0.0
220
0.0
230
1.0
 70
     8
 71
     3
 72
     8
 73
     4
 74
     0
 42
0.0000000034413239
 43
0.0000000001
 40
0.0
 40
0.0
 40
0.0
 40
0.0
 40
1.0
 40
1.0
 40
1.0
 40
1.0
 10
124.7886482492328
 20
529.2909293896421
 30
0.0
 10
126.3785405808287
 20
529.7834802000739
 30
0.0
 10
127.302091558834
 20
530.0752964535355
 30
0.0
 10
127.5593011832486
 20
530.1663781500268
 30
0.0
  0
SPLINE
  5
C2
330
5E
100
AcDbEntity
  8
DV1_Standard
  6
Continuous
 62
     7
100
AcDbSpline
210
0.0
220
0.0
230
1.0
 70
     8
 71
     3
 72
     8
 73
     4
 74
     0
 42
0.0000000026285388
 43
0.0000000001
 40
0.0
 40
0.0
 40
0.0
 40
0.0
 40
1.0
 40
1.0
 40
1.0
 40
1.0
 10
149.5539727383364
 20
554.0768102443454
 30
0.0
 10
150.0572147810476
 20
552.4310575864628
 30
0.0
 10
150.3258801530332
 20
551.1978782115456
 30
0.0
 10
150.3599688542933
 20
550.3772721195936
 30
0.0
  0
SPLINE
  5
C3
330
5E
100
AcDbEntity
  8
DV1_Standard
  6
Continuous
 62
     7
100
AcDbSpline
210
0.0
220
0.0
230
1.0
 70
     8
 71
     3
 72
     8
 73
     4
 74
     0
 42
0.0000000014144529
 43
0.0000000001
 40
0.0
 40
0.0
 40
0.0
 40
0.0
 40
1.0
 40
1.0
 40
1.0
 40
1.0
 10
150.3280093485543
 20
549.2529115728381
 30
0.0
 10
149.6502218732508
 20
545.7870759649628
 30
0.0
 10
148.8671905637086
 20
543.6234248660479
 30
0.0
 10
147.9789154199276
 20
542.7619582760933
 30
0.0
  0
SPLINE
  5
C4
330
5E
100
AcDbEntity
  8
DV1_Standard
  6
Continuous
 62
     7
100
AcDbSpline
210
0.0
220
0.0
230
1.0
 70
     8
 71
     3
 72
     8
 73
     4
 74
     0
 42
0.0000000069928296
 43
0.0000000001
 40
0.0
 40
0.0
 40
0.0
 40
0.0
 40
1.0
 40
1.0
 40
1.0
 40
1.0
 10
142.288857685084
 20
537.2655443866082
 30
0.0
 10
141.8078548831768
 20
536.9242339215377
 30
0.0
 10
141.41493176153
 20
536.6544650603148
 30
0.0
 10
141.1100883201435
 20
536.4562378029393
 30
0.0
  0
SPLINE
  5
C5
330
5E
100
AcDbEntity
  8
DV1_Standard
  6
Continuous
 62
     7
100
AcDbSpline
210
0.0
220
0.0
230
1.0
 70
     8
 71
     3
 72
     8
 73
     4
 74
     0
 42
0.0000000049216172
 43
0.0000000001
 40
0.0
 40
0.0
 40
0.0
 40
0.0
 40
1.0
 40
1.0
 40
1.0
 40
1.0
 10
125.3892026511103
 20
528.6160406627284
 30
0.0
 10
126.2070097338601
 20
528.8501405163822
 30
0.0
 10
126.8571084667787
 20
529.0400621052473
 30
0.0
 10
127.339498849866
 20
529.1858054293239
 30
0.0
  0
LINE
  5
C7
330
5E
100
AcDbEntity
  8
DV1_Standard
  6
CENTER2
 62
     7
100
AcDbLine
 10
105.3264954578
 20
434.0412297571
 30
0.0
 11
65.3264963519
 21
434.0412297571
 31
0.0
  0
LINE
  5
C8
330
5E
100
AcDbEntity
  8
DV1_Standard
  6
CENTER2
 62
     7
100
AcDbLine
 10
85.3264959049
 20
454.04122931
 30
0.0
 11
85.3264959049
 21
414.0412302041
 31
0.0
  0
ENDBLK
  5
CA
330
5E
100
AcDbEntity
  8
0
100
AcDbBlockEnd
  0
BLOCK
  5
11B
330
CB
100
AcDbEntity
  8
0
100
AcDbBlockBegin
  2
SE1
 70
     0
 10
0.0
 20
0.0
 30
0.0
  3
SE1
  1

  0
ARC
  5
CD
330
CB
100
AcDbEntity
  8
$DDT_AUDIT_GENERATED_(60)
  6
Continuous
 62
     7
100
AcDbCircle
 10
614.1327791315
 20
118.5346813131
 30
0.0
 40
490.6904149489361
100
AcDbArc
 50
109.9526454521
 51
112.9153428992
  0
ARC
  5
CE
330
CB
100
AcDbEntity
  8
$DDT_AUDIT_GENERATED_(60)
  6
Continuous
 62
     7
100
AcDbCircle
 10
-499.3471898873
 20
2806.5390891774
 30
0.0
 40
2419.395960056081
100
AcDbArc
 50
293.015418055
 51
293.0180564563
  0
SPLINE
  5
CF
330
CB
100
AcDbEntity
  8
$DDT_AUDIT_GENERATED_(60)
  6
Continuous
 62
     7
100
AcDbSpline
210
0.0
220
0.0
230
1.0
 70
     8
 71
     5
 72
    21
 73
    15
 74
     0
 42
0.0000000000517189
 43
0.0000000001
 40
0.0
 40
0.0
 40
0.0
 40
0.0
 40
0.0
 40
0.0
 40
0.1790918720387681
 40
0.2692025337249666
 40
0.3593131954111606
 40
0.4494238570973543
 40
0.5395345187835482
 40
0.6296451804697419
 40
0.719755842155936
 40
0.8098665038421299
 40
0.8999771655283237
 40
1.0
 40
1.0
 40
1.0
 40
1.0
 40
1.0
 40
1.0
 10
250.2394134773243
 20
484.0147025143891
 30
0.0
 10
259.6855975508939
 20
489.3102363739006
 30
0.0
 10
279.16908408072
 20
499.8777941477666
 30
0.0
 10
305.7760163043271
 20
513.3896449474666
 30
0.0
 10
328.7346711244774
 20
525.0404302564638
 30
0.0
 10
345.6827659752287
 20
533.4336210452288
 30
0.0
 10
356.6243144474208
 20
539.4488574288208
 30
0.0
 10
365.4641575498476
 20
544.2488736180036
 30
0.0
 10
374.373645119845
 20
548.508203760603
 30
0.0
 10
384.0119758449591
 20
553.0196114292938
 30
0.0
 10
394.95202001435
 20
558.1515563602121
 30
0.0
 10
405.0700898743625
 20
562.6588372074142
 30
0.0
 10
413.6018390729656
 20
566.4535986849556
 30
0.0
 10
419.8024943731721
 20
569.120252992558
 30
0.0
 10
423.0723504894837
 20
570.5003834740392
 30
0.0
  0
LINE
  5
D0
330
CB
100
AcDbEntity
  8
$DDT_AUDIT_GENERATED_(60)
  6
Continuous
 62
     7
100
AcDbLine
 10
263.7020070815
 20
460.0892156478
 30
0.0
 11
250.1263315966
 21
483.6029753348
 31
0.0
  0
SPLINE
  5
D1
330
CB
100
AcDbEntity
  8
$DDT_AUDIT_GENERATED_(60)
  6
Continuous
 62
     7
100
AcDbSpline
210
0.0
220
0.0
230
1.0
 70
     8
 71
     3
 72
    10
 73
     6
 74
     0
 42
0.0000000200993024
 43
0.0000000001
 40
0.0
 40
0.0
 40
0.0
 40
0.0
 40
0.5
 40
0.5
 40
1.0
 40
1.0
 40
1.0
 40
1.0
 10
264.1232388519987
 20
459.9863476110039
 30
0.0
 10
264.0551602135665
 20
459.9428880404114
 30
0.0
 10
263.969105916259
 20
459.9286190066236
 30
0.0
 10
263.8121818559675
 20
459.9669410685796
 30
0.0
 10
263.7423909746225
 20
460.0192686931329
 30
0.0
 10
263.7020070815378
 20
460.0892156477632
 30
0.0
  0
ARC
  5
D2
330
CB
100
AcDbEntity
  8
$DDT_AUDIT_GENERATED_(60)
  6
Continuous
 62
     7
100
AcDbCircle
 10
250.3860832242
 20
483.7530266104
 30
0.0
 40
0.2999771547228139
100
AcDbArc
 50
119.2706974635
 51
210.0138289657
  0
LINE
  5
D3
330
CB
100
AcDbEntity
  8
$DDT_AUDIT_GENERATED_(60)
  6
Continuous
 62
     7
100
AcDbLine
 10
348.6679279036
 20
515.3600943075
 30
0.0
 11
348.1778320954
 21
515.0547545131
 31
0.0
  0
SPLINE
  5
D4
330
CB
100
AcDbEntity
  8
$DDT_AUDIT_GENERATED_(60)
  6
Continuous
 62
     7
100
AcDbSpline
210
0.0
220
0.0
230
1.0
 70
    12
 71
     3
 72
    10
 73
     6
 74
     0
 42
0.0000000001580928
 43
0.0000000001
 40
0.0
 40
0.0
 40
0.0
 40
0.0
 40
0.2987900371419869
 40
0.7357240308317133
 40
0.9087752267399548
 40
0.9087752267399548
 40
0.9087752267399548
 40
0.9087752267399548
 10
495.3509637333524
 20
577.8129162551397
 30
0.0
 41
0.853553390593
 10
499.279457502699
 20
582.3864455583089
 30
0.0
 41
0.853553390593
 10
500.558770639724
 20
590.0148821774965
 30
0.0
 41
0.853553390593
 10
488.1283814305017
 20
592.5973455404134
 30
0.0
 41
0.8535533905929998
 10
465.4694288847709
 20
586.1251597862702
 30
0.0
 41
0.853553390593
 10
458.3796780111859
 20
583.8087386953249
 30
0.0
 41
0.853553390593
  0
ARC
  5
D5
330
CB
100
AcDbEntity
  8
$DDT_AUDIT_GENERATED_(60)
  6
Continuous
 62
     7
100
AcDbCircle
 10
380.8716635578
 20
467.5382307311
 30
0.0
 40
57.65423857806721
100
AcDbArc
 50
103.3353376529
 51
123.9567307919
  0
ARC
  5
D6
330
CB
100
AcDbEntity
  8
$DDT_AUDIT_GENERATED_(60)
  6
Continuous
 62
     7
100
AcDbCircle
 10
1656.2432323615
 20
-2413.7048770516
 30
0.0
 40
3207.592845468894
100
AcDbArc
 50
112.455216063
 51
113.6879172678
  0
ARC
  5
D7
330
CB
100
AcDbEntity
  8
$DDT_AUDIT_GENERATED_(60)
  6
Continuous
 62
     7
100
AcDbCircle
 10
-2002.8846547579
 20
4000.9743464237
 30
0.0
 40
4204.511957103354
100
AcDbArc
 50
302.6281449678
 51
303.5709589645
  0
LINE
  5
D8
330
CB
100
AcDbEntity
  8
$DDT_AUDIT_GENERATED_(60)
  6
Continuous
 62
     7
100
AcDbLine
 10
322.0813722436
 20
497.7681842723
 30
0.0
 11
322.0813887187
 21
497.7681443702
 31
0.0
  0
ARC
  5
D9
330
CB
100
AcDbEntity
  8
$DDT_AUDIT_GENERATED_(60)
  6
Continuous
 62
     7
100
AcDbCircle
 10
345.3277014551
 20
475.9984257794
 30
0.0
 40
31.84829990221053
100
AcDbArc
 50
122.5460410545
 51
136.8786827856
  0
LINE
  5
DA
330
CB
100
AcDbEntity
  8
$DDT_AUDIT_GENERATED_(60)
  6
Continuous
 62
     7
100
AcDbLine
 10
322.0813887186
 20
497.7681443702
 30
0.0
 11
322.081372243
 21
497.7681842719
 31
0.0
  0
ARC
  5
DB
330
CB
100
AcDbEntity
  8
$DDT_AUDIT_GENERATED_(60)
  6
Continuous
 62
     7
100
AcDbCircle
 10
2624.0743050524
 20
-3130.630717498
 30
0.0
 40
4298.047670967901
100
AcDbArc
 50
122.0767800652
 51
122.2875163626
  0
ARC
  5
DC
330
CB
100
AcDbEntity
  8
$DDT_AUDIT_GENERATED_(60)
  6
Continuous
 62
     7
100
AcDbCircle
 10
420.2725061456
 20
381.7698709562
 30
0.0
 40
151.533833473592
100
AcDbArc
 50
118.4092484603
 51
121.2885674469
  0
ARC
  5
DD
330
CB
100
AcDbEntity
  8
$DDT_AUDIT_GENERATED_(60)
  6
Continuous
 62
     7
100
AcDbCircle
 10
321.9154437075
 20
498.0180688653
 30
0.0
 40
0.3000000000000635
100
AcDbArc
 50
303.5833882414
 51
0.4492373968
  0
ARC
  5
DE
330
CB
100
AcDbEntity
  8
$DDT_AUDIT_GENERATED_(60)
  6
Continuous
 62
     7
100
AcDbCircle
 10
674.9846075701
 20
-37.6460522614
 30
0.0
 40
658.2634509824722
100
AcDbArc
 50
110.3101081358
 51
112.4099249947
  0
ARC
  5
DF
330
CB
100
AcDbEntity
  8
$DDT_AUDIT_GENERATED_(60)
  6
Continuous
 62
     7
100
AcDbCircle
 10
579.4587489707
 20
214.2627891085
 30
0.0
 40
388.868160732389
100
AcDbArc
 50
107.565165645
 51
109.9856841084
  0
LINE
  5
E0
330
CB
100
AcDbEntity
  8
$DDT_AUDIT_GENERATED_(60)
  6
Continuous
 62
     7
100
AcDbLine
 10
431.078247759
 20
550.6667372593
 30
0.0
 11
431.3899096326
 21
550.7940756748
 31
0.0
  0
ARC
  5
E1
330
CB
100
AcDbEntity
  8
$DDT_AUDIT_GENERATED_(60)
  6
Continuous
 62
     7
100
AcDbCircle
 10
495.1233915806
 20
578.0083923798
 30
0.0
 40
0.3000000000000174
100
AcDbArc
 50
292.8834809681
 51
319.3386317893
  0
LINE
  5
E2
330
CB
100
AcDbEntity
  8
$DDT_AUDIT_GENERATED_(60)
  6
Continuous
 62
     7
100
AcDbLine
 10
431.393338865
 20
550.7837864309
 30
0.0
 11
495.2400490843
 21
577.7320031129
 31
0.0
  0
LINE
  5
E3
330
CB
100
AcDbEntity
  8
$DDT_AUDIT_GENERATED_(60)
  6
Continuous
 62
     7
100
AcDbLine
 10
494.5030110391
 20
577.4209164371
 30
0.0
 11
495.2400490843
 21
577.7320031129
 31
0.0
  0
ARC
  5
E4
330
CB
100
AcDbEntity
  8
$DDT_AUDIT_GENERATED_(73)
  6
Continuous
 62
     7
100
AcDbCircle
 10
3780.199968741
 20
-7383.4127795729
 30
0.0
 40
8610.849027583272
100
AcDbArc
 50
112.4471068586
 51
113.3197433282
  0
LINE
  5
E5
330
CB
100
AcDbEntity
  8
$DDT_AUDIT_GENERATED_(73)
  6
Continuous
 62
     7
100
AcDbLine
 10
368.6563806872
 20
523.83042876
 30
0.0
 11
371.526738438
 21
524.0187247224
 31
0.0
  0
LINE
  5
E6
330
CB
100
AcDbEntity
  8
$DDT_AUDIT_GENERATED_(73)
  6
Continuous
 62
     7
100
AcDbLine
 10
492.3352809707
 20
575.0092105557
 30
0.0
 11
494.4673518777
 21
576.9298609264
 31
0.0
  0
LINE
  5
E7
330
CB
100
AcDbEntity
  8
$DDT_AUDIT_GENERATED_(73)
  6
Continuous
 62
     7
100
AcDbLine
 10
494.5595629329
 20
577.2869316014
 30
0.0
 11
494.5030110356
 21
577.4209164452
 31
0.0
  0
ARC
  5
E8
330
CB
100
AcDbEntity
  8
$DDT_AUDIT_GENERATED_(73)
  6
Continuous
 62
     7
100
AcDbCircle
 10
368.6190909632
 20
524.1278745131
 30
0.0
 40
0.299999985677518
100
AcDbArc
 50
200.4863084186
 51
277.549162268
  0
ARC
  5
E9
330
CB
100
AcDbEntity
  8
$DDT_AUDIT_GENERATED_(73)
  6
Continuous
 62
     7
100
AcDbCircle
 10
494.267536885
 20
577.177740875
 30
0.0
 40
0.2743935908405266
100
AcDbArc
 50
334.9021405037
 51
19.1708071307
  0
LINE
  5
EA
330
CB
100
AcDbEntity
  8
$DDT_AUDIT_GENERATED_(78)
  6
Continuous
 62
     7
100
AcDbLine
 10
250.1916268617
 20
483.4898806181
 30
0.0
 11
263.6416268617
 21
460.1937972563
 31
0.0
  0
LINE
  5
EB
330
CB
100
AcDbEntity
  8
$DDT_AUDIT_GENERATED_(78)
  6
Continuous
 62
     7
100
AcDbLine
 10
259.6579100043
 20
457.8937972563
 30
0.0
 11
246.2079100043
 21
481.1898806181
 31
0.0
  0
LINE
  5
EC
330
CB
100
AcDbEntity
  8
$DDT_AUDIT_GENERATED_(78)
  6
Continuous
 62
     7
100
AcDbLine
 10
249.7818192406
 20
483.5996882392
 30
0.0
 11
246.3177176254
 21
481.5996882392
 31
0.0
  0
LINE
  5
ED
330
CB
100
AcDbEntity
  8
$DDT_AUDIT_GENERATED_(78)
  6
Continuous
 62
     7
100
AcDbLine
 10
260.0677176254
 20
457.7839896352
 30
0.0
 11
263.5318192406
 21
459.7839896352
 31
0.0
  0
ARC
  5
EE
330
CB
100
AcDbEntity
  8
$DDT_AUDIT_GENERATED_(78)
  6
Continuous
 62
     7
100
AcDbCircle
 10
249.9318192406
 20
483.3398806181
 30
0.0
 40
0.300000000000002
100
AcDbArc
 50
30.0
 51
120.0
  0
ARC
  5
EF
330
CB
100
AcDbEntity
  8
$DDT_AUDIT_GENERATED_(78)
  6
Continuous
 62
     7
100
AcDbCircle
 10
263.3818192406
 20
460.0437972563
 30
0.0
 40
0.3000000000000003
100
AcDbArc
 50
300.0
 51
30.0
  0
ARC
  5
F0
330
CB
100
AcDbEntity
  8
$DDT_AUDIT_GENERATED_(78)
  6
Continuous
 62
     7
100
AcDbCircle
 10
259.9177176254
 20
458.0437972563
 30
0.0
 40
0.2999999999999985
100
AcDbArc
 50
210.0
 51
300.0
  0
ARC
  5
F1
330
CB
100
AcDbEntity
  8
$DDT_AUDIT_GENERATED_(78)
  6
Continuous
 62
     7
100
AcDbCircle
 10
246.4677176254
 20
481.3398806181
 30
0.0
 40
0.3000000000000003
100
AcDbArc
 50
120.0
 51
210.0
  0
ARC
  5
F2
330
CB
100
AcDbEntity
  8
$DDT_AUDIT_GENERATED_(7C)
  6
Continuous
 62
     7
100
AcDbCircle
 10
346.9927522251
 20
741.9667702408
 30
0.0
 40
221.3648139445864
100
AcDbArc
 50
305.3309925163
 51
305.4595253683
  0
ARC
  5
F3
330
CB
100
AcDbEntity
  8
$DDT_AUDIT_GENERATED_(7C)
  6
Continuous
 62
     7
100
AcDbCircle
 10
346.9927522251
 20
741.9667702408
 30
0.0
 40
221.3648139445864
100
AcDbArc
 50
306.1444112973
 51
306.3039343083
  0
ARC
  5
F4
330
CB
100
AcDbEntity
  8
$DDT_AUDIT_GENERATED_(7C)
  6
Continuous
 62
     7
100
AcDbCircle
 10
346.9927522251
 20
741.9667702408
 30
0.0
 40
221.3648139445864
100
AcDbArc
 50
310.3154642555
 51
310.8313238235
  0
ARC
  5
F5
330
CB
100
AcDbEntity
  8
$DDT_AUDIT_GENERATED_(7C)
  6
Continuous
 62
     7
100
AcDbCircle
 10
353.2868923165
 20
744.6217073174
 30
0.0
 40
221.3632070229583
100
AcDbArc
 50
274.9356270775
 51
275.4519790949
  0
ARC
  5
F6
330
CB
100
AcDbEntity
  8
$DDT_AUDIT_GENERATED_(7C)
  6
Continuous
 62
     7
100
AcDbCircle
 10
353.2868923165
 20
744.6217073174
 30
0.0
 40
221.3632070229583
100
AcDbArc
 50
277.1351567566
 51
278.0919285782
  0
ARC
  5
F7
330
CB
100
AcDbEntity
  8
$DDT_AUDIT_GENERATED_(7C)
  6
Continuous
 62
     7
100
AcDbCircle
 10
353.2868923165
 20
744.6217073174
 30
0.0
 40
221.3632070229583
100
AcDbArc
 50
279.4630494508
 51
279.6207351176
  0
ARC
  5
F8
330
CB
100
AcDbEntity
  8
$DDT_AUDIT_GENERATED_(7C)
  6
Continuous
 62
     7
100
AcDbCircle
 10
353.2868923165
 20
744.6217073174
 30
0.0
 40
221.3632070229583
100
AcDbArc
 50
280.307087093
 51
280.436043728
  0
ARC
  5
F9
330
CB
100
AcDbEntity
  8
$DDT_AUDIT_GENERATED_(7C)
  6
Continuous
 62
     7
100
AcDbCircle
 10
372.3062766501
 20
524.3781954323
 30
0.0
 40
0.2999999990652109
100
AcDbArc
 50
204.3834809634
 51
274.9563051042
  0
ARC
  5
FA
330
CB
100
AcDbEntity
  8
$DDT_AUDIT_GENERATED_(7C)
  6
Continuous
 62
     7
100
AcDbCircle
 10
491.5326049134
 20
574.7008652935
 30
0.0
 40
0.2999999999999876
100
AcDbArc
 50
310.8106568319
 51
21.3834809728
  0
SPLINE
  5
FB
330
CB
100
AcDbEntity
  8
$DDT_AUDIT_GENERATED_(92)
  6
Continuous
 62
     7
100
AcDbSpline
210
0.0
220
0.0
230
1.0
 70
    12
 71
     5
 72
    13
 73
     7
 74
     0
 42
0.0000000017032171
 43
0.0000000001
 40
0.1208743932063215
 40
0.1208743932063215
 40
0.1208743932063215
 40
0.1208743932063215
 40
0.1208743932063215
 40
0.1208743932063215
 40
0.3668696740258718
 40
0.4327402409455731
 40
0.4327402409455731
 40
0.4327402409455731
 40
0.4327402409455731
 40
0.4327402409455731
 40
0.4327402409455731
 10
343.9792119914034
 20
511.3294720501175
 30
0.0
 41
1.0
 10
344.0928852884469
 20
511.0325050712668
 30
0.0
 41
1.0
 10
344.1445870152842
 20
510.6642616069392
 30
0.0
 41
1.0
 10
344.0567300988723
 20
510.2996759491911
 30
0.0
 41
1.0
 10
343.857195191469
 20
510.0033561361204
 30
0.0
 41
1.0
 10
343.5885703621321
 20
509.798504839708
 30
0.0
 41
1.0
 10
343.5291373590477
 20
509.7594388822366
 30
0.0
 41
1.0
  0
LINE
  5
FC
330
CB
100
AcDbEntity
  8
$DDT_AUDIT_GENERATED_(92)
  6
Continuous
 62
     7
100
AcDbLine
 10
343.5491588189
 20
512.0917475831
 30
0.0
 11
343.3803249463
 21
512.3523492478
 31
0.0
  0
SPLINE
  5
FD
330
CB
100
AcDbEntity
  8
$DDT_AUDIT_GENERATED_(92)
  6
Continuous
 62
     7
100
AcDbSpline
210
0.0
220
0.0
230
1.0
 70
     8
 71
     3
 72
    15
 73
    11
 74
     0
 42
0.0000000017247022
 43
0.0000000001
 40
0.0
 40
0.0
 40
0.0
 40
0.0
 40
0.0774729261455699
 40
0.1698584377435731
 40
0.2779003212022522
 40
0.4015263029389424
 40
0.5393586403675407
 40
0.6883475266667597
 40
0.8438017687205986
 40
0.999288512455103
 40
0.999288512455103
 40
0.999288512455103
 40
0.999288512455103
 10
338.6969213817195
 20
506.5643029692354
 30
0.0
 10
338.9123057027949
 20
506.7066240692209
 30
0.0
 10
339.3119446536568
 20
506.9706994210524
 30
0.0
 10
340.0182677961022
 20
507.4375422141546
 30
0.0
 10
340.7863460026124
 20
507.9453026063962
 30
0.0
 10
341.5970290351985
 20
508.4813403209611
 30
0.0
 10
342.3702738032852
 20
508.9927333754032
 30
0.0
 10
343.0092972395679
 20
509.4154493132012
 30
0.0
 10
343.4458179567627
 20
509.7042852394479
 30
0.0
 10
343.5038746681598
 20
509.7427097937443
 30
0.0
 10
343.529928424506
 20
509.7599580651859
 30
0.0
  0
LINE
  5
FE
330
CB
100
AcDbEntity
  8
$DDT_AUDIT_GENERATED_(92)
  6
Continuous
 62
     7
100
AcDbLine
 10
329.6269808531
 20
500.5576285424
 30
0.0
 11
338.6969213919
 21
506.5643029378
 31
0.0
  0
SPLINE
  5
FF
330
CB
100
AcDbEntity
  8
$DDT_AUDIT_GENERATED_(92)
  6
Continuous
 62
     7
100
AcDbSpline
210
0.0
220
0.0
230
1.0
 70
     8
 71
     3
 72
    14
 73
    10
 74
     0
 42
0.0000000038444993
 43
0.0000000001
 40
0.0
 40
0.0
 40
0.0
 40
0.0
 40
0.2628021868923117
 40
0.3994248611921291
 40
0.526858094224672
 40
0.6488900933968758
 40
0.7677699819023954
 40
0.8845073875125
 40
1.0
 40
1.0
 40
1.0
 40
1.0
 10
322.4893249754974
 20
497.9812742839636
 30
0.0
 10
322.6237445545308
 20
497.7723407810986
 30
0.0
 10
322.8033765747191
 20
497.50858949157
 30
0.0
 10
323.1533104650466
 20
497.2062964443102
 30
0.0
 10
323.4500783929082
 20
497.0530960943819
 30
0.0
 10
323.7630267741843
 20
496.9824495887694
 30
0.0
 10
324.0716122396654
 20
496.9931446703643
 30
0.0
 10
324.370870836798
 20
497.0801439863127
 30
0.0
 10
324.5272200502463
 20
497.1822636495265
 30
0.0
 10
324.6175146206772
 20
497.2436415601737
 30
0.0
  0
ARC
  5
100
330
CB
100
AcDbEntity
  8
$DDT_AUDIT_GENERATED_(92)
  6
Continuous
 62
     7
100
AcDbCircle
 10
-889.8932558932
 20
2338.5574694253
 30
0.0
 40
2205.781726035591
100
AcDbArc
 50
303.4084694693
 51
303.5644328169
  0
ARC
  5
101
330
CB
100
AcDbEntity
  8
$DDT_AUDIT_GENERATED_(92)
  6
Continuous
 62
     7
100
AcDbCircle
 10
323.6464219184
 20
498.7545248239
 30
0.0
 40
1.399999999964262
100
AcDbArc
 50
207.1976573733
 51
213.8056483257
  0
LINE
  5
102
330
CB
100
AcDbEntity
  8
A4240973_WINKEL_
  6
Continuous
 62
     7
100
AcDbLine
 10
245.5856775509
 20
443.0412297571
 30
0.0
 11
222.1530762589
 21
443.0412297571
 31
0.0
  0
LINE
  5
103
330
CB
100
AcDbEntity
  8
A4240973_WINKEL_
  6
Continuous
 62
     7
100
AcDbLine
 10
259.6579892742
 20
457.8936599567
 30
0.0
 11
246.2078064138
 21
481.1900600421
 31
0.0
  0
LINE
  5
104
330
CB
100
AcDbEntity
  8
A4240973_WINKEL_
  6
Continuous
 62
     7
100
AcDbLine
 10
243.1211361099
 20
434.0412297571
 30
0.0
 11
224.6211361099
 21
434.0412297571
 31
0.0
  0
LINE
  5
105
330
CB
100
AcDbEntity
  8
A4240973_WINKEL_
  6
Continuous
 62
     7
100
AcDbLine
 10
243.1211361099
 20
435.5412297571
 30
0.0
 11
224.6211361099
 21
435.5412297571
 31
0.0
  0
SPLINE
  5
106
330
CB
100
AcDbEntity
  8
A4240973_WINKEL_
  6
Continuous
 62
     7
100
AcDbSpline
210
0.0
220
0.0
230
1.0
 70
     8
 71
     3
 72
    26
 73
    22
 74
     0
 42
0.0000000004873746
 43
0.0000000001
 40
0.0
 40
0.0
 40
0.0
 40
0.0
 40
0.0592362221755842
 40
0.114398501992542
 40
0.1573231085604019
 40
0.1899174460101579
 40
0.2137752340049443
 40
0.2312693956561995
 40
0.2551189970575317
 40
0.2735020587126319
 40
0.2902941179546905
 40
0.3125838221887008
 40
0.3366072799204536
 40
0.3708900415492214
 40
0.4190894167235227
 40
0.4848012853638271
 40
0.5524377577800482
 40
0.6372126850239143
 40
0.7414026412885372
 40
0.866656756818589
 40
1.0
 40
1.0
 40
1.0
 40
1.0
 10
245.8967086455954
 20
443.3157369728098
 30
0.0
 10
245.9341012327181
 20
443.7595892427994
 30
0.0
 10
246.0011575966694
 20
444.4821340929569
 30
0.0
 10
246.25967352437
 20
445.5509713082243
 30
0.0
 10
246.5523392818267
 20
446.3917294012876
 30
0.0
 10
246.8300784021916
 20
447.0132827897407
 30
0.0
 10
247.0673577239818
 20
447.4597406717307
 30
0.0
 10
247.2927429082035
 20
447.8443977134209
 30
0.0
 10
247.5156590958351
 20
448.1866779304459
 30
0.0
 10
247.7487759091487
 20
448.5160694493466
 30
0.0
 10
247.9848540628645
 20
448.8301159851144
 30
0.0
 10
248.2565853137789
 20
449.1652748848155
 30
0.0
 10
248.6163856013622
 20
449.5826299019413
 30
0.0
 10
249.1151475120034
 20
450.1133820111936
 30
0.0
 10
249.8433022165551
 20
450.8182522641545
 30
0.0
 10
250.7796254115663
 20
451.6338280973918
 30
0.0
 10
251.9473777926135
 20
452.5610359307801
 30
0.0
 10
253.3697043894487
 20
453.5918658832331
 30
0.0
 10
255.1421968167002
 20
454.7874283375773
 30
0.0
 10
257.2785690672834
 20
456.1406084008785
 30
0.0
 10
258.6874680317472
 20
456.9737471227248
 30
0.0
 10
259.5517677424867
 20
457.4820110619239
 30
0.0
  0
SPLINE
  5
107
330
CB
100
AcDbEntity
  8
A4240973_WINKEL_
  6
Continuous
 62
     7
100
AcDbSpline
210
0.0
220
0.0
230
1.0
 70
     8
 71
     3
 72
    24
 73
    20
 74
     0
 42
0.0000000002088389
 43
0.0000000001
 40
0.0
 40
0.0
 40
0.0
 40
0.0
 40
0.0668702949321215
 40
0.1331423934011527
 40
0.1934808953994623
 40
0.2486176549940247
 40
0.2989884037995112
 40
0.3549926887309391
 40
0.4036943428686013
 40
0.445475432454215
 40
0.4810407605174617
 40
0.5219293081670043
 40
0.5724017418919712
 40
0.6315199484870107
 40
0.698296116260097
 40
0.7713031364710734
 40
0.8482965528639707
 40
0.926376260177239
 40
1.0
 40
1.0
 40
1.0
 40
1.0
 10
245.7992151077924
 20
481.2956926250983
 30
0.0
 10
244.7878317022086
 20
480.7013952945316
 30
0.0
 10
243.0942478253087
 20
479.699465042497
 30
0.0
 10
240.4509263750893
 20
477.9908064864944
 30
0.0
 10
238.089334156634
 20
476.3344778446705
 30
0.0
 10
235.9844812258181
 20
474.7261117583918
 30
0.0
 10
234.0027785065855
 20
473.0809495777975
 30
0.0
 10
232.1771308243841
 20
471.4103318661085
 30
0.0
 10
230.5438254208626
 20
469.7384957769955
 30
0.0
 10
229.2178175048598
 20
468.2264350324167
 30
0.0
 10
228.048143587718
 20
466.7466063319078
 30
0.0
 10
226.8793179249108
 20
465.0925098352492
 30
0.0
 10
225.6338675971547
 20
463.0382791137315
 30
0.0
 10
224.3906760547853
 20
460.5102627328054
 30
0.0
 10
223.2855617446248
 20
457.53151972472
 30
0.0
 10
222.445944667265
 20
454.1658911637782
 30
0.0
 10
221.9277680718542
 20
450.5801365096615
 30
0.0
 10
221.7248856813367
 20
446.8596325504369
 30
0.0
 10
221.805185153125
 20
444.61535450104
 30
0.0
 10
221.8596965331723
 20
443.3249668188221
 30
0.0
  0
ARC
  5
108
330
CB
100
AcDbEntity
  8
A4240973_WINKEL_
  6
Continuous
 62
     7
100
AcDbCircle
 10
222.1530788384
 20
443.3412297415
 30
0.0
 40
0.2999999844024555
100
AcDbArc
 50
184.2991635491
 51
270.2480767643
  0
ARC
  5
109
330
CB
100
AcDbEntity
  8
A4240973_WINKEL_
  6
Continuous
 62
     7
100
AcDbCircle
 10
245.5861900491
 20
443.3412297563
 30
0.0
 40
0.2999999992337819
100
AcDbArc
 50
269.9980995206
 51
355.1647080413
  0
ARC
  5
10A
330
CB
100
AcDbEntity
  8
A4240973_WINKEL_
  6
Continuous
 62
     7
100
AcDbCircle
 10
245.9480473795
 20
481.039975818
 30
0.0
 40
0.2999977584749235
100
AcDbArc
 50
29.9628723602
 51
120.4475951191
  0
ARC
  5
10B
330
CB
100
AcDbEntity
  8
A4240973_WINKEL_
  6
Continuous
 62
     7
100
AcDbCircle
 10
259.3981835549
 20
457.7436565709
 30
0.0
 40
0.2999989429152398
100
AcDbArc
 50
298.7450760199
 51
30.017594046
  0
LINE
  5
10C
330
CB
100
AcDbEntity
  8
A4240973_WINKEL_
  6
Continuous
 62
     7
100
AcDbLine
 10
223.3936361099
 20
442.5412297571
 30
0.0
 11
223.3936361099
 21
442.0412297571
 31
0.0
  0
LINE
  5
10D
330
CB
100
AcDbEntity
  8
A4240973_WINKEL_
  6
Continuous
 62
     7
100
AcDbLine
 10
244.3486361099
 20
442.0412297571
 30
0.0
 11
244.3486361099
 21
442.5412297571
 31
0.0
  0
LINE
  5
10E
330
CB
100
AcDbEntity
  8
A4240973_WINKEL_
  6
Continuous
 62
     7
100
AcDbLine
 10
223.3936361099
 20
442.0412297571
 30
0.0
 11
223.3936361099
 21
436.7687297571
 31
0.0
  0
LINE
  5
10F
330
CB
100
AcDbEntity
  8
A4240973_WINKEL_
  6
Continuous
 62
     7
100
AcDbLine
 10
244.3486361099
 20
436.7687297571
 30
0.0
 11
244.3486361099
 21
442.0412297571
 31
0.0
  0
LINE
  5
110
330
CB
100
AcDbEntity
  8
A4240973_WINKEL_
  6
Continuous
 62
     7
100
AcDbLine
 10
243.1211361099
 20
434.0412297571
 30
0.0
 11
243.1211361099
 21
435.5412297571
 31
0.0
  0
LINE
  5
111
330
CB
100
AcDbEntity
  8
A4240973_WINKEL_
  6
Continuous
 62
     7
100
AcDbLine
 10
224.6211361099
 20
435.5412297571
 30
0.0
 11
224.6211361099
 21
434.0412297571
 31
0.0
  0
LINE
  5
112
330
CB
100
AcDbEntity
  8
A4240973_WINKEL_
  6
Continuous
 62
     7
100
AcDbLine
 10
223.3936361099
 20
436.7687297571
 30
0.0
 11
224.6211361099
 21
435.5412297571
 31
0.0
  0
LINE
  5
113
330
CB
100
AcDbEntity
  8
A4240973_WINKEL_
  6
Continuous
 62
     7
100
AcDbLine
 10
243.1211361099
 20
435.5412297571
 30
0.0
 11
244.3486361099
 21
436.7687297571
 31
0.0
  0
ARC
  5
114
330
CB
100
AcDbEntity
  8
A4240973_WINKEL_
  6
Continuous
 62
     7
100
AcDbCircle
 10
244.8486361099
 20
442.5412297571
 30
0.0
 40
0.5000000000000004
100
AcDbArc
 50
90.0
 51
180.0
  0
ARC
  5
115
330
CB
100
AcDbEntity
  8
A4240973_WINKEL_
  6
Continuous
 62
     7
100
AcDbCircle
 10
222.8936361099
 20
442.5412297571
 30
0.0
 40
0.5000000000000004
100
AcDbArc
 50
0.0
 51
90.0
  0
LINE
  5
117
330
CB
100
AcDbEntity
  8
DV2_Standard
  6
Continuous
 62
     7
100
AcDbLine
 10
343.5491588189
 20
512.0917475831
 30
0.0
 11
343.9630777057
 21
511.3702473125
 31
0.0
  0
ARC
  5
118
330
CB
100
AcDbEntity
  8
DV2_Standard
  6
Continuous
 62
     7
100
AcDbCircle
 10
353.4443552769
 20
736.0061311931
 30
0.0
 40
212.7722436050148
100
AcDbArc
 50
275.5927193892
 51
310.2223002313
  0
LINE
  5
119
330
CB
100
AcDbEntity
  8
DV2_Standard
  6
CENTER2
 62
     7
100
AcDbLine
 10
253.8711356628
 20
434.0412297571
 30
0.0
 11
213.8711365569
 21
434.0412297571
 31
0.0
  0
LINE
  5
11A
330
CB
100
AcDbEntity
  8
DV2_Standard
  6
CENTER2
 62
     7
100
AcDbLine
 10
233.8711361099
 20
454.04122931
 30
0.0
 11
233.8711361099
 21
414.0412302041
 31
0.0
  0
ENDBLK
  5
11C
330
CB
100
AcDbEntity
  8
0
100
AcDbBlockEnd
  0
BLOCK
  5
139
330
11D
100
AcDbEntity
  8
0
100
AcDbBlockBegin
  2
SE2
 70
     0
 10
0.0
 20
0.0
 30
0.0
  3
SE2
  1

  0
SPLINE
  5
11F
330
11D
100
AcDbEntity
  8
$DDT_AUDIT_GENERATED_(60)
  6
Continuous
 62
     7
100
AcDbSpline
210
0.0
220
0.0
230
1.0
 70
     8
 71
     3
 72
     8
 73
     4
 74
     0
 42
0.0000000004435077
 43
0.0000000001
 40
0.5005714316924427
 40
0.5005714316924427
 40
0.5005714316924427
 40
0.5005714316924427
 40
0.5846088898434507
 40
0.5846088898434507
 40
0.5846088898434507
 40
0.5846088898434507
 10
99.00046089613895
 20
348.3149389047304
 30
0.0
 10
99.00180071024081
 20
348.9241294433554
 30
0.0
 10
98.83924854987544
 20
349.5261579796198
 30
0.0
 10
98.52578909954305
 20
350.1093067702385
 30
0.0
  0
SPLINE
  5
120
330
11D
100
AcDbEntity
  8
$DDT_AUDIT_GENERATED_(60)
  6
Continuous
 62
     7
100
AcDbSpline
210
0.0
220
0.0
230
1.0
 70
     8
 71
     3
 72
     8
 73
     4
 74
     0
 42
0.0000000004440543
 43
0.0000000001
 40
0.4166410505618819
 40
0.4166410505618819
 40
0.4166410505618819
 40
0.4166410505618819
 40
0.4996002729596981
 40
0.4996002729596981
 40
0.4996002729596981
 40
0.4996002729596981
 10
72.11469443360001
 20
350.0853974889991
 30
0.0
 10
71.80966063579693
 20
349.5093618894337
 30
0.0
 10
71.65088601430972
 20
348.9141347141179
 30
0.0
 10
71.65239425784337
 20
348.3137684662823
 30
0.0
  0
SPLINE
  5
121
330
11D
100
AcDbEntity
  8
$DDT_AUDIT_GENERATED_(60)
  6
Continuous
 62
     7
100
AcDbSpline
210
0.0
220
0.0
230
1.0
 70
     8
 71
     3
 72
    83
 73
    79
 74
     0
 42
0.0000000000522425
 43
0.0000000001
 40
0.0
 40
0.0
 40
0.0
 40
0.0
 40
0.017959164483782
 40
0.0343086783837908
 40
0.0490087264818603
 40
0.0620985926344026
 40
0.073643731062669
 40
0.0860029057601404
 40
0.0961606044013639
 40
0.1041992014080201
 40
0.1101774774284535
 40
0.1159338549634267
 40
0.1223984617060255
 40
0.1318198480181031
 40
0.1419398879386291
 40
0.1523417735132441
 40
0.1628979749498522
 40
0.1728849169717618
 40
0.182209066685367
 40
0.1900265731990981
 40
0.1973243569697546
 40
0.204847432459148
 40
0.2142557179294155
 40
0.2256173687648898
 40
0.2389435716888606
 40
0.2542496701838324
 40
0.2647462213639449
 40
0.2747481561558847
 40
0.2834012790401516
 40
0.2906999847944328
 40
0.2966390484971205
 40
0.3012142314336448
 40
0.3037183818619839
 40
0.3054776803357589
 40
0.3064155691560336
 40
0.3066534418820664
 40
0.3067730050382989
 40
0.3069506670890674
 40
0.307143715758637
 40
0.3076205548235099
 40
0.3089174474634016
 40
0.3120554898125512
 40
0.3165966441375193
 40
0.3225512284539551
 40
0.3299305847804104
 40
0.3387505899880167
 40
0.3489468347126725
 40
0.3765744060853345
 40
0.4033217361686401
 40
0.4292385742204217
 40
0.4542604950157458
 40
0.4720460079061135
 40
0.4885364321079537
 40
0.5037141675507865
 40
0.5175595956276462
 40
0.5300292116331308
 40
0.5413708909876895
 40
0.559009335543199
 40
0.577923158687838
 40
0.5983664956843991
 40
0.6205755645726229
 40
0.6327825068083345
 40
0.6463659479391766
 40
0.6614480535802537
 40
0.6781496012158642
 40
0.6965871510236448
 40
0.7164862276489796
 40
0.738238067222528
 40
0.7618870661291611
 40
0.7874292989568901
 40
0.8147935253715818
 40
0.8438176722974152
 40
0.8742200294056994
 40
0.9055643357478627
 40
0.9304487909528302
 40
0.955118120329572
 40
0.9790507684354008
 40
1.0
 40
1.0
 40
1.0
 40
1.0
 10
161.5009148897865
 20
176.8818150015932
 30
0.0
 10
161.4882486306324
 20
178.1738794410025
 30
0.0
 10
161.4603509306068
 20
180.2512121641763
 30
0.0
 10
161.2434394029858
 20
183.5139762444323
 30
0.0
 10
160.9270178884127
 20
186.3741800322385
 30
0.0
 10
160.5363975727466
 20
188.9267832662173
 30
0.0
 10
160.0785106972579
 20
191.3105629946502
 30
0.0
 10
159.5749934171166
 20
193.491927548886
 30
0.0
 10
159.0537807916785
 20
195.4338513979293
 30
0.0
 10
158.5966134881546
 20
196.9595135279274
 30
0.0
 10
158.1942696879093
 20
198.1999537192004
 30
0.0
 10
157.8020384117877
 20
199.3353576072659
 30
0.0
 10
157.3076750282973
 20
200.679170099371
 30
0.0
 10
156.6707249676155
 20
202.2805647230215
 30
0.0
 10
155.8773075723011
 20
204.1023170150889
 30
0.0
 10
154.9891224365168
 20
205.9671471050175
 30
0.0
 10
154.0404251629055
 20
207.7957231338011
 30
0.0
 10
153.0657425531479
 20
209.5328725486682
 30
0.0
 10
152.1320888557197
 20
211.0862890490297
 30
0.0
 10
151.2542253500461
 20
212.4657440065129
 30
0.0
 10
150.4120768316063
 20
213.7276368496461
 30
0.0
 10
149.4830155753306
 20
215.0598324325109
 30
0.0
 10
148.3660785318569
 20
216.5875797360262
 30
0.0
 10
146.9723356578832
 20
218.3941501283549
 30
0.0
 10
145.2764533308876
 20
220.4683047025045
 30
0.0
 10
143.554934063515
 20
222.4520381942886
 30
0.0
 10
141.9358727574167
 20
224.23324024164
 30
0.0
 10
140.5910198860898
 20
225.6656712903162
 30
0.0
 10
139.3737096929419
 20
226.9297033851622
 30
0.0
 10
138.3336943196406
 20
227.9893744449717
 30
0.0
 10
137.4787827786945
 20
228.8489682541366
 30
0.0
 10
136.8485019318312
 20
229.477491387305
 30
0.0
 10
136.4177373041824
 20
229.9059720280555
 30
0.0
 10
136.1620335203662
 20
230.1606801578192
 30
0.0
 10
136.0175483832989
 20
230.3058174855538
 30
0.0
 10
135.9528973632364
 20
230.371874724822
 30
0.0
 10
135.9292054454009
 20
230.397273563017
 30
0.0
 10
135.9094395473748
 20
230.4188498646011
 30
0.0
 10
135.8679559384696
 20
230.4614834083156
 30
0.0
 10
135.7711654465135
 20
230.5593352042754
 30
0.0
 10
135.5254502686521
 20
230.8028215940282
 30
0.0
 10
135.0798513418252
 20
231.2390466182105
 30
0.0
 10
134.403472159963
 20
231.8945730717304
 30
0.0
 10
133.5172069487583
 20
232.7454967588095
 30
0.0
 10
132.4172809820551
 20
233.7916605991166
 30
0.0
 10
131.1044798635739
 20
235.029069702866
 30
0.0
 10
128.7817571086409
 20
237.2018513200439
 30
0.0
 10
125.5613693988074
 20
240.1893194826743
 30
0.0
 10
121.6167278931065
 20
243.9192344632156
 30
0.0
 10
117.9262622633817
 20
247.5952304235339
 30
0.0
 10
114.835080414058
 20
250.9503172463824
 30
0.0
 10
112.3505621450857
 20
253.9482369720275
 30
0.0
 10
110.4316705811871
 20
256.5270897410519
 30
0.0
 10
108.8218393934378
 20
258.970353230094
 30
0.0
 10
107.5034934223034
 20
261.2529835337525
 30
0.0
 10
106.4400872151765
 20
263.363299593256
 30
0.0
 10
105.4071336200287
 20
265.7107796827445
 30
0.0
 10
104.3923228142158
 20
268.4792510904821
 30
0.0
 10
103.4354386346342
 20
271.8301699592665
 30
0.0
 10
102.6473656543079
 20
275.4926966880651
 30
0.0
 10
102.1280796058341
 20
278.7790211900468
 30
0.0
 10
101.7655820685702
 20
281.6640528986826
 30
0.0
 10
101.5047201224656
 20
284.1272017526684
 30
0.0
 10
101.2618725066921
 20
286.8660473246925
 30
0.0
 10
101.0366293407921
 20
289.9021527065509
 30
0.0
 10
100.8282951942703
 20
293.2328276982931
 30
0.0
 10
100.6329071034966
 20
296.871808182057
 30
0.0
 10
100.4461799922801
 20
300.8284713626895
 30
0.0
 10
100.2629577958336
 20
305.1286061257979
 30
0.0
 10
100.0795283518193
 20
309.769917165412
 30
0.0
 10
99.893346937335
 20
314.7376176468356
 30
0.0
 10
99.7039669180604
 20
319.9997254550659
 30
0.0
 10
99.51402504274282
 20
325.5034509226502
 30
0.0
 10
99.34405881598782
 20
330.7523352974893
 30
0.0
 10
99.20068172803968
 20
335.6625995108091
 30
0.0
 10
99.0923641001842
 20
340.0907981442161
 30
0.0
 10
99.01278356523896
 20
344.3926815042377
 30
0.0
 10
99.0059083349568
 20
346.917958932573
 30
0.0
 10
99.00264513859884
 20
348.3143835411988
 30
0.0
  0
SPLINE
  5
122
330
11D
100
AcDbEntity
  8
$DDT_AUDIT_GENERATED_(60)
  6
Continuous
 62
     7
100
AcDbSpline
210
0.0
220
0.0
230
1.0
 70
     8
 71
     3
 72
    81
 73
    77
 74
     0
 42
0.0000000000522431
 43
0.0000000001
 40
0.0
 40
0.0
 40
0.0
 40
0.0
 40
0.0120418218609184
 40
0.0245360676351313
 40
0.0361456040077629
 40
0.0490760864492393
 40
0.0635760103510336
 40
0.0796552007429153
 40
0.0972925814385578
 40
0.116432953012776
 40
0.1379967793320117
 40
0.1609610962682842
 40
0.1847138582275801
 40
0.2085156039956162
 40
0.2321850010136707
 40
0.2555550451523187
 40
0.2778852099060679
 40
0.2996625877691366
 40
0.32078147332169
 40
0.341157822476451
 40
0.3607320934822775
 40
0.3794585803540245
 40
0.3967266255289807
 40
0.4123492409780073
 40
0.4265153211645996
 40
0.4394001458717198
 40
0.4511592647822963
 40
0.4619255349858005
 40
0.4719750989401119
 40
0.4831479849313046
 40
0.4974873959994177
 40
0.5136756798355064
 40
0.531663175843727
 40
0.5514053645992502
 40
0.5719682553078903
 40
0.5924710782892672
 40
0.6129281044224164
 40
0.6255241751465405
 40
0.6381324527295826
 40
0.6507115049818988
 40
0.6620304518678937
 40
0.6716154472273219
 40
0.6769664672535928
 40
0.6815924734731608
 40
0.6854979527213602
 40
0.688686975773168
 40
0.6913848532576495
 40
0.6950836531543392
 40
0.7014548982506376
 40
0.7098037105771933
 40
0.7201238189179484
 40
0.7323519028538156
 40
0.7448265785396095
 40
0.756775204625354
 40
0.7682031226410284
 40
0.7878154378069813
 40
0.8061451278935895
 40
0.8242843241189596
 40
0.8329077722060285
 40
0.8415180176629663
 40
0.8496604519091324
 40
0.8560301299530505
 40
0.8597266533837739
 40
0.8622643923926856
 40
0.864933317151021
 40
0.8693778549884656
 40
0.8749793676996581
 40
0.8820901433859464
 40
0.8907424380009602
 40
0.9009814744534159
 40
0.912868229837424
 40
0.9264817406579451
 40
0.9419195367718722
 40
0.9592877147468131
 40
0.9786628500819594
 40
1.0
 40
1.0
 40
1.0
 40
1.0
 10
71.65105405462249
 20
348.3147084789071
 30
0.0
 10
71.65090497433043
 20
347.5198969526639
 30
0.0
 10
71.6501596068735
 20
346.15437292344
 30
0.0
 10
71.62516127522254
 20
343.9321778172971
 30
0.0
 10
71.58937359006798
 20
341.7025972520298
 30
0.0
 10
71.54082610404134
 20
339.3355556401406
 30
0.0
 10
71.47707702592892
 20
336.6999421189493
 30
0.0
 10
71.39717631083863
 20
333.7757160964267
 30
0.0
 10
71.3013191889044
 20
330.5684666798768
 30
0.0
 10
71.18818695760052
 20
327.0261632113358
 30
0.0
 10
71.05827605524388
 20
323.1584314753992
 30
0.0
 10
70.91329585385769
 20
319.0075540940404
 30
0.0
 10
70.75849855707847
 20
314.7210079016423
 30
0.0
 10
70.5967859308009
 20
310.396774783886
 30
0.0
 10
70.42863349861594
 20
306.099474953169
 30
0.0
 10
70.25307948698094
 20
301.8954390347278
 30
0.0
 10
70.06591977583356
 20
297.8099786709749
 30
0.0
 10
69.86109982962662
 20
293.8648812634798
 30
0.0
 10
69.62776754913251
 20
290.0423850721497
 30
0.0
 10
69.35371670922278
 20
286.3581445766928
 30
0.0
 10
69.02383072944038
 20
282.8243851359553
 30
0.0
 10
68.625535971786
 20
279.4866635836016
 30
0.0
 10
68.15211308984557
 20
276.3954597348231
 30
0.0
 10
67.60758588003343
 20
273.5894337493392
 30
0.0
 10
66.9988960216528
 20
271.0610325509424
 30
0.0
 10
66.33379464497038
 20
268.7813285298085
 30
0.0
 10
65.62357086703167
 20
266.7240960934646
 30
0.0
 10
64.8769621557622
 20
264.8552925084765
 30
0.0
 10
64.05782254298762
 20
263.0484619838354
 30
0.0
 10
63.04145596755252
 20
261.0583558926207
 30
0.0
 10
61.70665146232161
 20
258.765774654826
 30
0.0
 10
59.97171285366176
 20
256.1675522833409
 30
0.0
 10
57.84851554382303
 20
253.3701611736998
 30
0.0
 10
55.36341333769245
 20
250.4467334258982
 30
0.0
 10
52.60871234907899
 20
247.4922237325457
 30
0.0
 10
49.69857316003016
 20
244.5760394490905
 30
0.0
 10
47.09110864212752
 20
242.0781166602445
 30
0.0
 10
44.83725778946585
 20
239.9612559796693
 30
0.0
 10
42.95992433631739
 20
238.2118902634548
 30
0.0
 10
41.14147962445816
 20
236.5192397331446
 30
0.0
 10
39.47271849553459
 20
234.9583708530425
 30
0.0
 10
38.16516804601032
 20
233.7248887087829
 30
0.0
 10
37.19187597419212
 20
232.7984947046498
 30
0.0
 10
36.50149196580187
 20
232.1365792853751
 30
0.0
 10
35.91863503577715
 20
231.5732555729888
 30
0.0
 10
35.43150138260326
 20
231.0986285952763
 30
0.0
 10
34.95418667310816
 20
230.6273530835641
 30
0.0
 10
34.32658386479508
 20
230.0080896539634
 30
0.0
 10
33.43070463294999
 20
229.1192348691809
 30
0.0
 10
32.22773205802479
 20
227.9115020166404
 30
0.0
 10
30.76512139587176
 20
226.4141062108652
 30
0.0
 10
29.14011815429316
 20
224.7024838597032
 30
0.0
 10
27.47657352165134
 20
222.8818117430125
 30
0.0
 10
25.88899199799847
 20
221.06763709176
 30
0.0
 10
24.03699099813369
 20
218.8508268501392
 30
0.0
 10
21.99688256253693
 20
216.2353773080823
 30
0.0
 10
19.82371350105702
 20
213.1571862514386
 30
0.0
 10
18.21230331643014
 20
210.6048995463896
 30
0.0
 10
17.03434942326332
 20
208.557910274463
 30
0.0
 10
16.23066972498158
 20
207.0692250769368
 30
0.0
 10
15.53621114613749
 20
205.6954567483347
 30
0.0
 10
15.01588785304478
 20
204.6026293402857
 30
0.0
 10
14.66867198496494
 20
203.8412190321698
 30
0.0
 10
14.42918530005982
 20
203.3014622953969
 30
0.0
 10
14.1749447326818
 20
202.7149651214729
 30
0.0
 10
13.84919841693647
 20
201.9387665798451
 30
0.0
 10
13.42738699344581
 20
200.8852527918725
 30
0.0
 10
12.93006569766156
 20
199.5640160670303
 30
0.0
 10
12.36699143862499
 20
197.9429094284932
 30
0.0
 10
11.76018375326179
 20
196.0072794143164
 30
0.0
 10
11.1361954612218
 20
193.7392931861617
 30
0.0
 10
10.52713053091389
 20
191.1198200035557
 30
0.0
 10
9.971395612120542
 20
188.1211277860029
 30
0.0
 10
9.519390330386319
 20
184.7479228160649
 30
0.0
 10
9.209409716350924
 20
180.8843922739537
 30
0.0
 10
9.169826583250828
 20
178.4195089093761
 30
0.0
 10
9.151958236546271
 20
176.8846444680705
 30
0.0
  0
SPLINE
  5
123
330
11D
100
AcDbEntity
  8
$DDT_AUDIT_GENERATED_(60)
  6
Continuous
 62
     7
100
AcDbSpline
210
0.0
220
0.0
230
1.0
 70
     8
 71
     3
 72
    48
 73
    44
 74
     0
 42
0.0000000000867303
 43
0.0000000001
 40
0.0
 40
0.0
 40
0.0
 40
0.0
 40
0.0342865302554242
 40
0.0730408538229927
 40
0.1102762167382928
 40
0.145992052345158
 40
0.180187806232404
 40
0.2128629363393718
 40
0.2500635083855883
 40
0.2850729997160747
 40
0.31789051390466
 40
0.3485151836404924
 40
0.3769461714428941
 40
0.4061830280224011
 40
0.4326661676809979
 40
0.4566384195955356
 40
0.4796244340289721
 40
0.5018887629070575
 40
0.5435146335848493
 40
0.5823538263254557
 40
0.6099225222991903
 40
0.6363585953270132
 40
0.664400827494802
 40
0.6944942038225262
 40
0.7266395313470133
 40
0.7608374425267618
 40
0.7787080307710877
 40
0.7961881809936646
 40
0.8115820426682915
 40
0.8248499105410908
 40
0.835991346856415
 40
0.8450060137269513
 40
0.8487157420292747
 40
0.8525721213511946
 40
0.858430470919679
 40
0.8663966003582877
 40
0.8764706477797769
 40
0.8886527626706902
 40
0.906053981741587
 40
0.92649110661745
 40
0.9499641670090578
 40
0.9764729906390032
 40
1.0
 40
1.0
 40
1.0
 40
1.0
 10
85.32638987858388
 20
106.3677949180145
 30
0.0
 10
86.82720376762806
 20
106.3784396373665
 30
0.0
 10
89.52671895504444
 20
106.4074343824393
 30
0.0
 10
93.99410471981396
 20
106.7682604437953
 30
0.0
 10
98.37287729773918
 20
107.353120771491
 30
0.0
 10
102.5605847724689
 20
108.1427857858672
 30
0.0
 10
106.5120771355571
 20
109.099181931192
 30
0.0
 10
110.4622019214063
 20
110.2629645178466
 30
0.0
 10
114.3681594517159
 20
111.636002308118
 30
0.0
 10
118.1890923102327
 20
113.213545738237
 30
0.0
 10
121.680773204255
 20
114.8664620698688
 30
0.0
 10
124.8523062255201
 20
116.5570595198931
 30
0.0
 10
127.8158158934461
 20
118.3107337185691
 30
0.0
 10
130.5562785475375
 20
120.099010663197
 30
0.0
 10
133.0694527552036
 20
121.896168602825
 30
0.0
 10
135.3135152430479
 20
123.6364585668274
 30
0.0
 10
137.3621508331478
 20
125.348007854739
 30
0.0
 10
139.8494327536578
 20
127.5794001046076
 30
0.0
 10
142.646296963994
 20
130.3534659774808
 30
0.0
 10
145.3832864159012
 20
133.4376840074119
 30
0.0
 10
147.583127793219
 20
136.1984570279117
 30
0.0
 10
149.4144073997947
 20
138.713494860031
 30
0.0
 10
151.1809262682966
 20
141.3791903341382
 30
0.0
 10
152.924755241007
 20
144.3025284224979
 30
0.0
 10
154.620613653001
 20
147.5066520622906
 30
0.0
 10
155.9422235326084
 20
150.3732822289549
 30
0.0
 10
156.9277360476684
 20
152.7794138634087
 30
0.0
 10
157.5938413258384
 20
154.5529989508939
 30
0.0
 10
158.1542711305812
 20
156.1796906888476
 30
0.0
 10
158.6034303075538
 20
157.5927257854777
 30
0.0
 10
158.9559423837231
 20
158.7858749626259
 30
0.0
 10
159.193050590633
 20
159.6415273785268
 30
0.0
 10
159.3513651053876
 20
160.2375776439391
 30
0.0
 10
159.4764634242985
 20
160.7209691004076
 30
0.0
 10
159.6359831417608
 20
161.3588655687307
 30
0.0
 10
159.8414604779911
 20
162.2232630432698
 30
0.0
 10
160.0845160827615
 20
163.3197299504906
 30
0.0
 10
160.3761994658944
 20
164.7636437318857
 30
0.0
 10
160.6980599607298
 20
166.5917201823741
 30
0.0
 10
161.0210103654836
 20
168.8462341327585
 30
0.0
 10
161.2917948015316
 20
171.4288220548794
 30
0.0
 10
161.4729838542182
 20
174.204889814374
 30
0.0
 10
161.4840771109936
 20
175.925431743598
 30
0.0
 10
161.4875192580727
 20
176.8839426981537
 30
0.0
  0
SPLINE
  5
124
330
11D
100
AcDbEntity
  8
$DDT_AUDIT_GENERATED_(60)
  6
Continuous
 62
     7
100
AcDbSpline
210
0.0
220
0.0
230
1.0
 70
     8
 71
     3
 72
    49
 73
    45
 74
     0
 42
0.0000000000867297
 43
0.0000000001
 40
0.0
 40
0.0
 40
0.0
 40
0.0
 40
0.0238998959717556
 40
0.0449591245015726
 40
0.063177459636604
 40
0.0785548406000364
 40
0.0910913139276032
 40
0.100786984107104
 40
0.1076419730010316
 40
0.1116563882978004
 40
0.1143902049545396
 40
0.1236631394401381
 40
0.1364299135801076
 40
0.1525967956458124
 40
0.1703983867811861
 40
0.1891628523495136
 40
0.208889852768522
 40
0.2375073937633161
 40
0.2679332554972466
 40
0.3001661828371689
 40
0.3340060855008855
 40
0.3660544077991132
 40
0.3950868245763755
 40
0.4211047328630433
 40
0.4413989356512549
 40
0.4593870701505977
 40
0.4750700088842496
 40
0.488571503798417
 40
0.5009668294393844
 40
0.5164671261579672
 40
0.5350716491423915
 40
0.5567795194282146
 40
0.5815897202666419
 40
0.6095010905091405
 40
0.6405123162824266
 40
0.6746219214083429
 40
0.7118282567497397
 40
0.7521294885577673
 40
0.788078654024403
 40
0.8261747622270345
 40
0.866416467195505
 40
0.9088023120398656
 40
0.9533307224733082
 40
1.0
 40
1.0
 40
1.0
 40
1.0
 10
9.151950970619938
 20
176.8840152189979
 30
0.0
 10
9.161755502574614
 20
175.9102443063006
 30
0.0
 10
9.18151871378109
 20
174.3694239654963
 30
0.0
 10
9.32325826242958
 20
171.9881661764981
 30
0.0
 10
9.508033897412949
 20
169.9802083146328
 30
0.0
 10
9.713714138179258
 20
168.2798771180001
 30
0.0
 10
9.914002391354371
 20
166.8994694792934
 30
0.0
 10
10.08911322499689
 20
165.834210278712
 30
0.0
 10
10.22350243128131
 20
165.0826946002532
 30
0.0
 10
10.31698326032757
 20
164.5863465732808
 30
0.0
 10
10.43043057777485
 20
164.0023423554071
 30
0.0
 10
10.61513389176727
 20
163.1005620842186
 30
0.0
 10
10.9260668561188
 20
161.7144373877514
 30
0.0
 10
11.34816650009748
 20
160.0269861465602
 30
0.0
 10
11.87909755513861
 20
158.1362313363418
 30
0.0
 10
12.50815694979532
 20
156.1345847312398
 30
0.0
 10
13.33552218172626
 20
153.7713495083912
 30
0.0
 10
14.41972236482814
 20
151.0341962922985
 30
0.0
 10
15.833267541005
 20
147.9210579583166
 30
0.0
 10
17.50054082228617
 20
144.7028529271669
 30
0.0
 10
19.37662461220066
 20
141.5172949851526
 30
0.0
 10
21.36111426517867
 20
138.5272578298356
 30
0.0
 10
23.32182321305282
 20
135.8682372622647
 30
0.0
 10
25.12342818617871
 20
133.6386168187589
 30
0.0
 10
26.73422646005866
 20
131.7894360700477
 30
0.0
 10
28.13559437573141
 20
130.2761722314223
 30
0.0
 10
29.39754222183882
 20
128.9842344570692
 30
0.0
 10
30.5373858333069
 20
127.8697461694741
 30
0.0
 10
31.69558545215288
 20
126.7824620447749
 30
0.0
 10
33.02477752803049
 20
125.5881182827245
 30
0.0
 10
34.66080214116135
 20
124.1948171873546
 30
0.0
 10
36.62420391910207
 20
122.6258864887582
 30
0.0
 10
38.9373923289558
 20
120.9097137083182
 30
0.0
 10
41.62384782644942
 20
119.0801851653827
 30
0.0
 10
44.70715512266362
 20
117.1771303475508
 30
0.0
 10
48.20986039750508
 20
115.2467217489946
 30
0.0
 10
52.15215454608617
 20
113.3418048045954
 30
0.0
 10
56.27947709257898
 20
111.6341358779549
 30
0.0
 10
60.54253390777953
 20
110.1463582893661
 30
0.0
 10
64.88768801529672
 20
108.8909179554362
 30
0.0
 10
69.56484627563422
 20
107.8266243209427
 30
0.0
 10
74.52699557000847
 20
107.0088022275142
 30
0.0
 10
79.92022136555869
 20
106.45783017008
 30
0.0
 10
83.28370152633725
 20
106.3846448059554
 30
0.0
 10
85.32642465459737
 20
106.3500024657786
 30
0.0
  0
SPLINE
  5
125
330
11D
100
AcDbEntity
  8
$DDT_AUDIT_GENERATED_(60)
  6
Continuous
 62
     7
100
AcDbSpline
210
0.0
220
0.0
230
1.0
 70
     8
 71
     3
 72
    22
 73
    18
 74
     0
 42
0.0000000006748114
 43
0.0000000001
 40
0.0
 40
0.0
 40
0.0
 40
0.0
 40
0.0196988868630714
 40
0.0990042051131382
 40
0.1722078088383315
 40
0.2406069787511914
 40
0.3053413175234474
 40
0.3741638210540574
 40
0.4405463591674477
 40
0.508090309105573
 40
0.5769858207065088
 40
0.647183194016695
 40
0.7185191387930556
 40
0.7907192043511273
 40
0.863407737457905
 40
0.9360264857037549
 40
0.9673550561591233
 40
0.9673550561591233
 40
0.9673550561591233
 40
0.9673550561591233
 10
85.29251082539677
 20
355.3656472164838
 30
0.0
 10
85.1643185149922
 20
355.3631887620567
 30
0.0
 10
84.61302557555892
 20
355.3521972306137
 30
0.0
 10
83.56868989776038
 20
355.2869411214454
 30
0.0
 10
82.29128740368927
 20
355.1702472898015
 30
0.0
 10
81.10756032204749
 20
355.0101139034459
 30
0.0
 10
79.98189809024714
 20
354.8053948145664
 30
0.0
 10
78.90967948433668
 20
354.5489657527349
 30
0.0
 10
77.87843082746517
 20
354.23633505485
 30
0.0
 10
76.90761838766701
 20
353.8767134417423
 30
0.0
 10
75.9879292985594
 20
353.4659699863951
 30
0.0
 10
75.12819319126318
 20
353.0061108761705
 30
0.0
 10
74.33945785575219
 20
352.500671087529
 30
0.0
 10
73.63097548614307
 20
351.9525731902244
 30
0.0
 10
73.0206119159705
 20
351.3724337189592
 30
0.0
 10
72.59260396843764
 20
350.8650860831907
 30
0.0
 10
72.40311783297454
 20
350.576283492537
 30
0.0
 10
72.3469187277869
 20
350.4858533029976
 30
0.0
  0
SPLINE
  5
126
330
11D
100
AcDbEntity
  8
$DDT_AUDIT_GENERATED_(60)
  6
Continuous
 62
     7
100
AcDbSpline
210
0.0
220
0.0
230
1.0
 70
     8
 71
     3
 72
     8
 73
     4
 74
     0
 42
0.0000000009300554
 43
0.0000000001
 40
0.974042496478003
 40
0.974042496478003
 40
0.974042496478003
 40
0.974042496478003
 40
1.0
 40
1.0
 40
1.0
 40
1.0
 10
72.31100782140544
 20
350.4274384880657
 30
0.0
 10
72.26458592466065
 20
350.3511519886188
 30
0.0
 10
72.21809155105097
 20
350.2719129182061
 30
0.0
 10
72.16881872673021
 20
350.1872895397192
 30
0.0
  0
SPLINE
  5
127
330
11D
100
AcDbEntity
  8
$DDT_AUDIT_GENERATED_(60)
  6
Continuous
 62
     7
100
AcDbSpline
210
0.0
220
0.0
230
1.0
 70
     8
 71
     3
 72
    23
 73
    19
 74
     0
 42
0.0000000006800674
 43
0.0000000001
 40
0.0
 40
0.0
 40
0.0
 40
0.0
 40
0.0032147423226305
 40
0.0725928736125443
 40
0.1433477147463857
 40
0.2150645683168795
 40
0.2872526405057255
 40
0.3593569985544998
 40
0.4309706851480632
 40
0.5018489678319736
 40
0.5718670752332717
 40
0.6410228615638239
 40
0.7088163288446871
 40
0.77489251976145
 40
0.8442941807279076
 40
0.9179656855068505
 40
0.9972577759173531
 40
1.0
 40
1.0
 40
1.0
 40
1.0
 10
98.48008659371774
 20
350.2125570748487
 30
0.0
 10
98.47511412240713
 20
350.223256001844
 30
0.0
 10
98.37821590417906
 20
350.4314806595007
 30
0.0
 10
98.07047574999089
 20
350.8611896493453
 30
0.0
 10
97.57229124253472
 20
351.4506535752539
 30
0.0
 10
96.95139553735258
 20
352.024014928799
 30
0.0
 10
96.23469468230506
 20
352.5664032954232
 30
0.0
 10
95.42553364967233
 20
353.0721696476827
 30
0.0
 10
94.535801762431
 20
353.5343706544542
 30
0.0
 10
93.57572729969812
 20
353.9482148036017
 30
0.0
 10
92.55547639472998
 20
354.309843370383
 30
0.0
 10
91.48836718947317
 20
354.616212604293
 30
0.0
 10
90.38772686434193
 20
354.8628997389222
 30
0.0
 10
89.24664330619578
 20
355.0564848513071
 30
0.0
 10
88.04012172582826
 20
355.2061775518526
 30
0.0
 10
86.7520990313109
 20
355.3101586664894
 30
0.0
 10
85.80139574660929
 20
355.3628422306317
 30
0.0
 10
85.34107516236112
 20
355.3706928932241
 30
0.0
 10
85.32323085531341
 20
355.3709953530072
 30
0.0
  0
ELLIPSE
  5
128
330
11D
100
AcDbEntity
  8
$DDT_AUDIT_GENERATED_(78)
  6
Continuous
 62
     7
100
AcDbEllipse
 10
85.3264795182
 20
352.2771459722
 30
0.0
 11
13.75
 21
0.0
 31
0.0
210
0.0
220
0.0
230
1.0
 40
0.5
 41
0.0
 42
0.2673488967570374
  0
ELLIPSE
  5
129
330
11D
100
AcDbEntity
  8
$DDT_AUDIT_GENERATED_(78)
  6
Continuous
 62
     7
100
AcDbEllipse
 10
85.3264795182
 20
352.2771459722
 30
0.0
 11
13.75
 21
0.0
 31
0.0
210
0.0
220
0.0
230
1.0
 40
0.5
 41
2.867933992946851
 42
3.141592653589793
  0
LINE
  5
12A
330
11D
100
AcDbEntity
  8
$DDT_AUDIT_GENERATED_(78)
  6
Continuous
 62
     7
100
AcDbLine
 10
99.0764795182
 20
348.813044357
 30
0.0
 11
99.0764795182
 21
352.2771459722
 31
0.0
  0
LINE
  5
12B
330
11D
100
AcDbEntity
  8
$DDT_AUDIT_GENERATED_(78)
  6
Continuous
 62
     7
100
AcDbLine
 10
71.5764795182
 20
352.2771459722
 30
0.0
 11
71.5764795182
 21
348.813044357
 31
0.0
  0
SPLINE
  5
12C
330
11D
100
AcDbEntity
  8
$DDT_AUDIT_GENERATED_(78)
  6
Continuous
 62
     7
100
AcDbSpline
210
0.0
220
0.0
230
1.0
 70
     8
 71
     3
 72
    22
 73
    18
 74
     0
 42
0.0000000006775989
 43
0.0000000001
 40
0.0
 40
0.0
 40
0.0
 40
0.0
 40
0.0668131465853586
 40
0.1366109887532597
 40
0.2068829501164701
 40
0.2774416612118474
 40
0.3481282720256912
 40
0.4188300787644335
 40
0.4894912068987361
 40
0.5600958557219785
 40
0.6306427065786376
 40
0.7011374825104589
 40
0.7715889006871114
 40
0.8420066582850118
 40
0.9124005396003644
 40
0.9790872192814223
 40
1.0
 40
1.0
 40
1.0
 40
1.0
 10
98.55934562980836
 20
354.1986904614688
 30
0.0
 10
98.43062906231292
 20
354.4164266401017
 30
0.0
 10
98.20396304236623
 20
354.7913348182865
 30
0.0
 10
97.69862441968662
 20
355.3853092164018
 30
0.0
 10
97.09998744574943
 20
355.9462574910602
 30
0.0
 10
96.39763139916573
 20
356.4801431010254
 30
0.0
 10
95.60377166594326
 20
356.9772514305153
 30
0.0
 10
94.72418773070378
 20
357.4346425914568
 30
0.0
 10
93.76716080716344
 20
357.8483270971889
 30
0.0
 10
92.74076803234122
 20
358.2152816371082
 30
0.0
 10
91.65369354532741
 20
358.532774327203
 30
0.0
 10
90.51459736608558
 20
358.7984866747354
 30
0.0
 10
89.33398038157355
 20
359.0104091189523
 30
0.0
 10
88.11723694542397
 20
359.1671255004118
 30
0.0
 10
86.91172879679522
 20
359.2651228196135
 30
0.0
 10
85.95017023246693
 20
359.2993195415739
 30
0.0
 10
85.4627408102747
 20
359.3016805353883
 30
0.0
 10
85.3264795182438
 20
359.302145972165
 30
0.0
  0
SPLINE
  5
12D
330
11D
100
AcDbEntity
  8
$DDT_AUDIT_GENERATED_(78)
  6
Continuous
 62
     7
100
AcDbSpline
210
0.0
220
0.0
230
1.0
 70
     8
 71
     3
 72
    22
 73
    18
 74
     0
 42
0.0000000006799583
 43
0.0000000001
 40
0.0
 40
0.0
 40
0.0
 40
0.0
 40
0.0372177687445268
 40
0.1079075067520848
 40
0.1786235344520546
 40
0.2493575592988545
 40
0.3201195186492711
 40
0.3909198723976255
 40
0.4617695341140099
 40
0.5326794440912762
 40
0.6036594067673502
 40
0.6747155261022159
 40
0.7458451114349327
 40
0.8170274208504313
 40
0.8881854582826064
 40
0.9591887278270861
 40
1.0
 40
1.0
 40
1.0
 40
1.0
 10
85.3264795182438
 20
359.302145972165
 30
0.0
 10
85.08512559198985
 20
359.3006855431018
 30
0.0
 10
84.49061161394121
 20
359.2957680390298
 30
0.0
 10
83.41407955025466
 20
359.2443060389655
 30
0.0
 10
82.19139284461751
 20
359.1288015752255
 30
0.0
 10
80.98364685843579
 20
358.9564071634411
 30
0.0
 10
79.81438485613954
 20
358.7293395802079
 30
0.0
 10
78.68950556889077
 20
358.4490559271802
 30
0.0
 10
77.61915791789168
 20
358.1176890172135
 30
0.0
 10
76.6117956217956
 20
357.7376127095715
 30
0.0
 10
75.67578300957906
 20
357.3115533133852
 30
0.0
 10
74.81864747166202
 20
356.8423606776474
 30
0.0
 10
74.04833357635401
 20
356.3336228656955
 30
0.0
 10
73.36905661568213
 20
355.7874255076306
 30
0.0
 10
72.79710763032526
 20
355.2131899807417
 30
0.0
 10
72.37135037086979
 20
354.6821599457555
 30
0.0
 10
72.20082493117964
 20
354.371762916409
 30
0.0
 10
72.12858102230099
 20
354.238175262727
 30
0.0
  0
SPLINE
  5
12E
330
11D
100
AcDbEntity
  8
A4240973_WINKEL_
  6
Continuous
 62
     7
100
AcDbSpline
210
0.0
220
0.0
230
1.0
 70
     8
 71
     3
 72
     8
 73
     4
 74
     0
 42
0.0000000002291314
 43
0.0000000001
 40
0.0
 40
0.0
 40
0.0
 40
0.0
 40
0.0071022765820384
 40
0.0071022765820384
 40
0.0071022765820384
 40
0.0071022765820384
 10
71.57637690265562
 20
352.7971813261956
 30
0.0
 10
71.57639082767908
 20
352.9003984122825
 30
0.0
 10
71.58113863929081
 20
353.0035777066466
 30
0.0
 10
71.59055343050862
 20
353.1066080749454
 30
0.0
  0
SPLINE
  5
12F
330
11D
100
AcDbEntity
  8
A4240973_WINKEL_
  6
Continuous
 62
     7
100
AcDbSpline
210
0.0
220
0.0
230
1.0
 70
     8
 71
     3
 72
     8
 73
     4
 74
     0
 42
0.0000000002294959
 43
0.0000000001
 40
0.9956881414180825
 40
0.9956881414180825
 40
0.9956881414180825
 40
0.9956881414180825
 40
1.0
 40
1.0
 40
1.0
 40
1.0
 10
71.5814674337213
 20
352.609412825737
 30
0.0
 10
71.57806836147472
 20
352.6719225964373
 30
0.0
 10
71.57636844864356
 20
352.7345172672416
 30
0.0
 10
71.57637690265562
 20
352.7971813261956
 30
0.0
  0
SPLINE
  5
130
330
11D
100
AcDbEntity
  8
A4240973_WINKEL_
  6
Continuous
 62
     7
100
AcDbSpline
210
0.0
220
0.0
230
1.0
 70
     8
 71
     3
 72
    65
 73
    61
 74
     0
 42
0.000000000131336
 43
0.0000000001
 40
0.0
 40
0.0
 40
0.0
 40
0.0
 40
0.020709714349289
 40
0.0397859245948114
 40
0.0543432742581734
 40
0.0653087530299044
 40
0.076760716758342
 40
0.0893670140450418
 40
0.1112142443137694
 40
0.1342266472417762
 40
0.1551656745659566
 40
0.1753360877122059
 40
0.1942867313224365
 40
0.2158382829117283
 40
0.2403784029473977
 40
0.2634752279521538
 40
0.2778089861942399
 40
0.2899801144610858
 40
0.2995968290673888
 40
0.3072680014636895
 40
0.3163569812763812
 40
0.3276175130452134
 40
0.3412120108928356
 40
0.3572198514803357
 40
0.3746358923194805
 40
0.3916838001170801
 40
0.4083410639040492
 40
0.4246431370402666
 40
0.4406463125713656
 40
0.456425317052413
 40
0.4720698078388892
 40
0.4878173353363667
 40
0.5037845187540482
 40
0.5199909140457445
 40
0.5364556486840678
 40
0.553195036647989
 40
0.570225057762322
 40
0.5875591430107266
 40
0.6048390031697161
 40
0.6215032534348147
 40
0.6377473124727663
 40
0.6537528445742058
 40
0.6696581940944946
 40
0.6854763493967099
 40
0.7055415789881939
 40
0.7247428695499185
 40
0.7410609830663532
 40
0.7566885746656454
 40
0.774582004862773
 40
0.7956021913393838
 40
0.819832184836172
 40
0.8480688848872386
 40
0.8683464367001269
 40
0.8872176356733853
 40
0.9043838603828606
 40
0.9202139316717036
 40
0.9353599307609304
 40
0.9540035425461801
 40
0.9765219907915319
 40
1.0
 40
1.0
 40
1.0
 40
1.0
 10
99.07616027329921
 20
352.7953582962215
 30
0.0
 10
99.07598847423039
 20
353.3841424385716
 30
0.0
 10
99.0754595603539
 20
354.3352350013744
 30
0.0
 10
99.06800301994737
 20
355.7501097549123
 30
0.0
 10
99.05857506761254
 20
356.8743518495753
 30
0.0
 10
99.0482283492393
 20
357.8047691391143
 30
0.0
 10
99.03626509935252
 20
358.6809896822642
 30
0.0
 10
99.01735598046957
 20
359.8215481539863
 30
0.0
 10
98.98760636397807
 20
361.2310855390732
 30
0.0
 10
98.94341071887665
 20
362.8070945922956
 30
0.0
 10
98.88984028552251
 20
364.3109106463086
 30
0.0
 10
98.82721422595033
 20
365.6841623281877
 30
0.0
 10
98.74802722610721
 20
367.0329137257622
 30
0.0
 10
98.63387019898305
 20
368.4844315692949
 30
0.0
 10
98.4736413268594
 20
369.9414286085228
 30
0.0
 10
98.28462953875254
 20
371.1840926248277
 30
0.0
 10
98.08466939140258
 20
372.2009605832058
 30
0.0
 10
97.91197741264422
 20
372.9359847533094
 30
0.0
 10
97.7526678900895
 20
373.5271166847954
 30
0.0
 10
97.58288053676165
 20
374.0944375666448
 30
0.0
 10
97.34462634448927
 20
374.8006122751626
 30
0.0
 10
96.99919009011094
 20
375.6701565330022
 30
0.0
 10
96.49970827641037
 20
376.7106028180874
 30
0.0
 10
95.81628581621965
 20
377.8636739578184
 30
0.0
 10
94.95768778515897
 20
379.0256672982646
 30
0.0
 10
93.95942776824874
 20
380.1060763913057
 30
0.0
 10
92.86225488531453
 20
381.0537046809146
 30
0.0
 10
91.68115817304935
 20
381.8620152255825
 30
0.0
 10
90.4289549262039
 20
382.5247786898095
 30
0.0
 10
89.11833658099951
 20
383.0345816851959
 30
0.0
 10
87.75982421016867
 20
383.3884386048266
 30
0.0
 10
86.36450909832557
 20
383.5869347606533
 30
0.0
 10
84.93875069289001
 20
383.6246355126228
 30
0.0
 10
83.4975159524171
 20
383.4927117109768
 30
0.0
 10
82.05971367680283
 20
383.1885827042821
 30
0.0
 10
80.64532328976978
 20
382.7086395239049
 30
0.0
 10
79.27711791978099
 20
382.0492323381362
 30
0.0
 10
77.98527593626375
 20
381.2213816409203
 30
0.0
 10
76.81208491573611
 20
380.2498345691266
 30
0.0
 10
75.80341728448103
 20
379.1833434819882
 30
0.0
 10
74.96097451532695
 20
378.0706133366704
 30
0.0
 10
74.26744037090526
 20
376.9374115014458
 30
0.0
 10
73.70643133890106
 20
375.8038340478401
 30
0.0
 10
73.21938917163193
 20
374.582770667607
 30
0.0
 10
72.8262765754151
 20
373.3064878802426
 30
0.0
 10
72.5514371126791
 20
372.1407586721323
 30
0.0
 10
72.35042552613119
 20
371.0654117006677
 30
0.0
 10
72.19651572084781
 20
370.0364408877463
 30
0.0
 10
72.06329539158915
 20
368.9151201118358
 30
0.0
 10
71.94241197055672
 20
367.5701459539156
 30
0.0
 10
71.83738272511533
 20
365.9534257038366
 30
0.0
 10
71.76199088281784
 20
364.2989593991554
 30
0.0
 10
71.70702787019566
 20
362.711877382211
 30
0.0
 10
71.66905029076324
 20
361.3535182103822
 30
0.0
 10
71.64081178339437
 20
360.0832026595305
 30
0.0
 10
71.61976169627386
 20
358.8959282758054
 30
0.0
 10
71.60251416677328
 20
357.6570104995176
 30
0.0
 10
71.5882388164257
 20
356.2438423563066
 30
0.0
 10
71.57794797318101
 20
354.5632356948228
 30
0.0
 10
71.57716060018063
 20
353.4629104832155
 30
0.0
 10
71.57689446960973
 20
352.7952801782449
 30
0.0
  0
ARC
  5
132
330
11D
100
AcDbEntity
  8
DV3_Standard
  6
Continuous
 62
     7
100
AcDbCircle
 10
85.2972106362
 20
371.2102831957
 30
0.0
 40
12.38746937978342
100
AcDbArc
 50
50.5185836054
 51
147.7570835606
  0
LINE
  5
133
330
11D
100
AcDbEntity
  8
DV3_Standard
  6
CENTER2
 62
     7
100
AcDbLine
 10
105.2972101892
 20
371.2102831957
 30
0.0
 11
65.2972110833
 21
371.2102831957
 31
0.0
  0
LINE
  5
134
330
11D
100
AcDbEntity
  8
DV3_Standard
  6
CENTER2
 62
     7
100
AcDbLine
 10
85.2972106362
 20
391.2102827487
 30
0.0
 11
85.2972106362
 21
351.2102836428
 31
0.0
  0
LINE
  5
135
330
11D
100
AcDbEntity
  8
DV3_Standard
  6
CENTER2
 62
     7
100
AcDbLine
 10
110.2972100774
 20
371.2102831957
 30
0.0
 11
101.184680016
 21
371.2102831957
 31
0.0
  0
LINE
  5
136
330
11D
100
AcDbEntity
  8
DV3_Standard
  6
CENTER2
 62
     7
100
AcDbLine
 10
85.2972106362
 20
396.210282637
 30
0.0
 11
85.2972106362
 21
387.0977525755
 31
0.0
  0
LINE
  5
137
330
11D
100
AcDbEntity
  8
DV3_Standard
  6
CENTER2
 62
     7
100
AcDbLine
 10
60.297211195
 20
371.2102831957
 30
0.0
 11
69.4097412565
 21
371.2102831957
 31
0.0
  0
LINE
  5
138
330
11D
100
AcDbEntity
  8
DV3_Standard
  6
CENTER2
 62
     7
100
AcDbLine
 10
85.2972106362
 20
346.2102837545
 30
0.0
 11
85.2972106362
 21
355.322813816
 31
0.0
  0
ENDBLK
  5
13A
330
11D
100
AcDbEntity
  8
0
100
AcDbBlockEnd
  0
ENDSEC
  0
SECTION
  2
ENTITIES
  0
INSERT
  5
5F
330
1F
100
AcDbEntity
  8
Default
100
AcDbBlockReference
  2
SE
 10
0.0
 20
0.0
 30
0.0
  0
INSERT
  5
CC
330
1F
100
AcDbEntity
  8
Default
100
AcDbBlockReference
  2
SE1
 10
0.0
 20
0.0
 30
0.0
  0
INSERT
  5
11E
330
1F
100
AcDbEntity
  8
Default
100
AcDbBlockReference
  2
SE2
 10
0.0
 20
0.0
 30
0.0
  0
TEXT
  5
13C
330
1F
100
AcDbEntity
  8
Default
  6
Continuous
 62
     7
100
AcDbText
 10
5.9362635081
 20
53.4225120485
 30
0.0
 40
10.0
  1
Grohe AG^J
  7
SEACAD_seiso_ttf
 11
5.9362635081
 21
63.4225120485
 31
0.0
100
AcDbText
 73
     3
  0
TEXT
  5
13D
330
1F
100
AcDbEntity
  8
Default
  6
Continuous
 62
     7
100
AcDbText
 10
5.9362635081
 20
37.0588756849
 30
0.0
 40
10.0
  1
 
  7
SEACAD_seiso_ttf
 11
5.9362635081
 21
47.0588756849
 31
0.0
100
AcDbText
 73
     3
  0
TEXT
  5
13E
330
1F
100
AcDbEntity
  8
Default
  6
Continuous
 62
     7
100
AcDbText
 10
5.9362635081
 20
20.6952393213
 30
0.0
 40
10.0
  1
ecn: 
  7
SEACAD_seiso_ttf
 11
5.9362635081
 21
30.6952393213
 31
0.0
100
AcDbText
 73
     3
  0
TEXT
  5
13F
330
1F
100
AcDbEntity
  8
Default
  6
Continuous
 62
     7
100
AcDbText
 10
5.9362635081
 20
4.3316029576
 30
0.0
 40
10.0
  1
unit: mm
  7
SEACAD_seiso_ttf
 11
5.9362635081
 21
14.3316029576
 31
0.0
100
AcDbText
 73
     3
  0
LINE
  5
140
330
1F
100
AcDbEntity
  8
Default
  6
Continuous
 62
     7
100
AcDbLine
 10
0.0
 20
0.0
 30
0.0
 11
100.0
 21
0.0
 31
0.0
  0
LINE
  5
141
330
1F
100
AcDbEntity
  8
Default
  6
Continuous
 62
     7
100
AcDbLine
 10
0.0
 20
0.0
 30
0.0
 11
0.0
 21
100.0
 31
0.0
  0
TEXT
  5
142
330
1F
100
AcDbEntity
  8
Default
  6
Continuous
 62
     7
100
AcDbText
 10
24.3923665681
 20
-18.2375342018
 30
0.0
 40
10.0
  1
100 mm
  7
SEACAD_seiso_ttf
 11
24.3923665681
 21
-8.2375342018
 31
0.0
100
AcDbText
 73
     3
  0
TEXT
  5
143
330
1F
100
AcDbEntity
  8
Default
  6
Continuous
 62
     7
100
AcDbText
 10
-7.6150308803
 20
24.6231930421
 30
0.0
 40
10.0
  1
100 mm
 50
90.0
  7
SEACAD_seiso_ttf
 11
-17.6150308803
 21
24.6231930421
 31
0.0
100
AcDbText
 73
     3
  0
TEXT
  5
144
330
1F
100
AcDbEntity
  8
Default
  6
Continuous
 62
     7
100
AcDbText
 10
28.4878128572
 20
20.0907663715
 30
0.0
 40
10.0
  1
215852
  7
SEACAD_seiso_ttf
 11
28.4878128572
 21
30.0907663715
 31
0.0
100
AcDbText
 73
     3
  0
TEXT
  5
145
330
1F
100
AcDbEntity
  8
Default
  6
Continuous
 62
     7
100
AcDbText
 10
5.9012241913
 20
36.7242780188
 30
0.0
 40
10.0
  1
27272000
  7
SEACAD_seiso_ttf
 11
5.9012241913
 21
46.7242780188
 31
0.0
100
AcDbText
 73
     3
  0
ENDSEC
  0
SECTION
  2
OBJECTS
  0
DICTIONARY
  5
C
330
0
100
AcDbDictionary
281
     1
  3
ACAD_GROUP
350
D
  3
ACAD_LAYOUT
350
1A
  3
ACAD_MLEADERSTYLE
350
149
  3
ACAD_MLINESTYLE
350
17
  3
ACAD_PLOTSETTINGS
350
19
  3
ACAD_PLOTSTYLENAME
350
E
  3
ACAD_SCALELIST
350
3B
  3
ACAD_TABLESTYLE
350
148
  3
ACAD_VISUALSTYLE
350
2A
  3
AcDbVariableDictionary
350
146
  0
DICTIONARY
  5
D
102
{ACAD_REACTORS
330
C
102
}
330
C
100
AcDbDictionary
281
     1
  0
DICTIONARY
  5
1A
102
{ACAD_REACTORS
330
C
102
}
330
C
100
AcDbDictionary
281
     1
  3
Layout1
350
1E
  3
Model
350
22
  0
DICTIONARY
  5
149
102
{ACAD_REACTORS
330
C
102
}
330
C
100
AcDbDictionary
281
     1
  0
DICTIONARY
  5
17
102
{ACAD_REACTORS
330
C
102
}
330
C
100
AcDbDictionary
281
     1
  3
Standard
350
18
  0
DICTIONARY
  5
19
102
{ACAD_REACTORS
330
C
102
}
330
C
100
AcDbDictionary
281
     1
  0
ACDBDICTIONARYWDFLT
  5
E
102
{ACAD_REACTORS
330
C
102
}
330
C
100
AcDbDictionary
281
     1
  3
Normal
350
F
100
AcDbDictionaryWithDefault
340
F
  0
DICTIONARY
  5
3B
102
{ACAD_REACTORS
330
C
102
}
330
C
100
AcDbDictionary
281
     1
  3
A0
350
3C
  3
A1
350
3D
  3
A2
350
3E
  3
A3
350
3F
  3
A4
350
40
  3
A5
350
41
  3
A6
350
42
  3
A7
350
43
  3
A8
350
44
  3
A9
350
45
  3
B0
350
46
  3
B1
350
47
  3
B2
350
48
  3
B3
350
49
  3
B4
350
4A
  3
B5
350
4B
  3
B6
350
4C
  3
B7
350
4D
  3
B8
350
4E
  3
B9
350
4F
  3
C0
350
50
  3
C1
350
51
  3
C2
350
52
  3
C3
350
53
  3
C4
350
54
  3
C5
350
55
  3
C6
350
56
  3
C7
350
57
  3
C8
350
58
  3
C9
350
59
  3
D0
350
5A
  3
D1
350
5B
  3
D2
350
5C
  0
DICTIONARY
  5
148
102
{ACAD_REACTORS
330
C
102
}
330
C
100
AcDbDictionary
281
     1
  0
DICTIONARY
  5
2A
102
{ACAD_REACTORS
330
C
102
}
330
C
100
AcDbDictionary
281
     1
  3
2dWireframe
350
2F
  3
3D Hidden
350
31
  3
3dWireframe
350
30
  3
Basic
350
32
  3
Brighten
350
36
  3
ColorChange
350
3A
  3
Conceptual
350
34
  3
Dim
350
35
  3
Facepattern
350
39
  3
Flat
350
2B
  3
FlatWithEdges
350
2C
  3
Gouraud
350
2D
  3
GouraudWithEdges
350
2E
  3
Linepattern
350
38
  3
Realistic
350
33
  3
Thicken
350
37
  0
DICTIONARY
  5
146
102
{ACAD_REACTORS
330
C
102
}
330
C
100
AcDbDictionary
281
     1
  3
CANNOSCALE
350
147
  3
PSOLHEIGHT
350
14B
  3
PSOLWIDTH
350
14A
  0
LAYOUT
  5
1E
102
{ACAD_REACTORS
330
1A
102
}
330
1A
100
AcDbPlotSettings
  1

  2
none_device
  4

  6

 40
0.0
 41
0.0
 42
0.0
 43
0.0
 44
0.0
 45
0.0
 46
0.0
 47
0.0
 48
0.0
 49
0.0
140
0.0
141
0.0
142
1.0
143
1.0
 70
   688
 72
     0
 73
     0
 74
     5
  7

 75
    16
147
1.0
148
0.0
149
0.0
100
AcDbLayout
  1
Layout1
 70
     1
 71
     1
 10
0.0
 20
0.0
 11
1682.0
 21
2378.0
 12
0.0
 22
0.0
 32
0.0
 14
0.0
 24
0.0
 34
0.0
 15
1682.0
 25
2378.0
 35
0.0
146
0.0
 13
0.0
 23
0.0
 33
0.0
 16
1.0
 26
0.0
 36
0.0
 17
0.0
 27
1.0
 37
0.0
 76
     0
330
1B
  0
LAYOUT
  5
22
102
{ACAD_REACTORS
330
1A
102
}
330
1A
100
AcDbPlotSettings
  1

  2
none_device
  4

  6

 40
0.0
 41
0.0
 42
0.0
 43
0.0
 44
0.0
 45
0.0
 46
0.0
 47
0.0
 48
0.0
 49
0.0
140
0.0
141
0.0
142
1.0
143
1.0
 70
  1712
 72
     0
 73
     0
 74
     0
  7

 75
     0
147
1.0
148
0.0
149
0.0
100
AcDbLayout
  1
Model
 70
     1
 71
     0
 10
0.0
 20
0.0
 11
1682.0
 21
2378.0
 12
0.0
 22
0.0
 32
0.0
 14
0.0
 24
0.0
 34
0.0
 15
1682.0
 25
2378.0
 35
0.0
146
0.0
 13
0.0
 23
0.0
 33
0.0
 16
1.0
 26
0.0
 36
0.0
 17
0.0
 27
1.0
 37
0.0
 76
     0
330
1F
331
29
  0
MLINESTYLE
  5
18
102
{ACAD_REACTORS
330
17
102
}
330
17
100
AcDbMlineStyle
  2
Standard
 70
     0
  3

 62
   256
 51
90.0
 52
90.0
 71
     2
 49
0.5
 62
   256
  6
BYLAYER
 49
-0.5
 62
   256
  6
BYLAYER
  0
ACDBPLACEHOLDER
  5
F
102
{ACAD_REACTORS
330
E
102
}
330
E
  0
SCALE
  5
3C
102
{ACAD_REACTORS
330
3B
102
}
330
3B
100
AcDbScale
 70
     0
300
1:1
140
1.0
141
1.0
290
     1
  0
SCALE
  5
3D
102
{ACAD_REACTORS
330
3B
102
}
330
3B
100
AcDbScale
 70
     0
300
1:2
140
1.0
141
2.0
290
     0
  0
SCALE
  5
3E
102
{ACAD_REACTORS
330
3B
102
}
330
3B
100
AcDbScale
 70
     0
300
1:4
140
1.0
141
4.0
290
     0
  0
SCALE
  5
3F
102
{ACAD_REACTORS
330
3B
102
}
330
3B
100
AcDbScale
 70
     0
300
1:5
140
1.0
141
5.0
290
     0
  0
SCALE
  5
40
102
{ACAD_REACTORS
330
3B
102
}
330
3B
100
AcDbScale
 70
     0
300
1:8
140
1.0
141
8.0
290
     0
  0
SCALE
  5
41
102
{ACAD_REACTORS
330
3B
102
}
330
3B
100
AcDbScale
 70
     0
300
1:10
140
1.0
141
10.0
290
     0
  0
SCALE
  5
42
102
{ACAD_REACTORS
330
3B
102
}
330
3B
100
AcDbScale
 70
     0
300
1:16
140
1.0
141
16.0
290
     0
  0
SCALE
  5
43
102
{ACAD_REACTORS
330
3B
102
}
330
3B
100
AcDbScale
 70
     0
300
1:20
140
1.0
141
20.0
290
     0
  0
SCALE
  5
44
102
{ACAD_REACTORS
330
3B
102
}
330
3B
100
AcDbScale
 70
     0
300
1:30
140
1.0
141
30.0
290
     0
  0
SCALE
  5
45
102
{ACAD_REACTORS
330
3B
102
}
330
3B
100
AcDbScale
 70
     0
300
1:40
140
1.0
141
40.0
290
     0
  0
SCALE
  5
46
102
{ACAD_REACTORS
330
3B
102
}
330
3B
100
AcDbScale
 70
     0
300
1:50
140
1.0
141
50.0
290
     0
  0
SCALE
  5
47
102
{ACAD_REACTORS
330
3B
102
}
330
3B
100
AcDbScale
 70
     0
300
1:100
140
1.0
141
100.0
290
     0
  0
SCALE
  5
48
102
{ACAD_REACTORS
330
3B
102
}
330
3B
100
AcDbScale
 70
     0
300
2:1
140
2.0
141
1.0
290
     0
  0
SCALE
  5
49
102
{ACAD_REACTORS
330
3B
102
}
330
3B
100
AcDbScale
 70
     0
300
4:1
140
4.0
141
1.0
290
     0
  0
SCALE
  5
4A
102
{ACAD_REACTORS
330
3B
102
}
330
3B
100
AcDbScale
 70
     0
300
8:1
140
8.0
141
1.0
290
     0
  0
SCALE
  5
4B
102
{ACAD_REACTORS
330
3B
102
}
330
3B
100
AcDbScale
 70
     0
300
10:1
140
10.0
141
1.0
290
     0
  0
SCALE
  5
4C
102
{ACAD_REACTORS
330
3B
102
}
330
3B
100
AcDbScale
 70
     0
300
100:1
140
100.0
141
1.0
290
     0
  0
SCALE
  5
4D
102
{ACAD_REACTORS
330
3B
102
}
330
3B
100
AcDbScale
 70
     0
300
1/128" = 1'-0"
140
0.0078125
141
12.0
290
     0
  0
SCALE
  5
4E
102
{ACAD_REACTORS
330
3B
102
}
330
3B
100
AcDbScale
 70
     0
300
1/64" = 1'-0"
140
0.015625
141
12.0
290
     0
  0
SCALE
  5
4F
102
{ACAD_REACTORS
330
3B
102
}
330
3B
100
AcDbScale
 70
     0
300
1/32" = 1'-0"
140
0.03125
141
12.0
290
     0
  0
SCALE
  5
50
102
{ACAD_REACTORS
330
3B
102
}
330
3B
100
AcDbScale
 70
     0
300
1/16" = 1'-0"
140
0.0625
141
12.0
290
     0
  0
SCALE
  5
51
102
{ACAD_REACTORS
330
3B
102
}
330
3B
100
AcDbScale
 70
     0
300
3/32" = 1'-0"
140
0.09375
141
12.0
290
     0
  0
SCALE
  5
52
102
{ACAD_REACTORS
330
3B
102
}
330
3B
100
AcDbScale
 70
     0
300
1/8" = 1'-0"
140
0.125
141
12.0
290
     0
  0
SCALE
  5
53
102
{ACAD_REACTORS
330
3B
102
}
330
3B
100
AcDbScale
 70
     0
300
3/16" = 1'-0"
140
0.1875
141
12.0
290
     0
  0
SCALE
  5
54
102
{ACAD_REACTORS
330
3B
102
}
330
3B
100
AcDbScale
 70
     0
300
1/4" = 1'-0"
140
0.25
141
12.0
290
     0
  0
SCALE
  5
55
102
{ACAD_REACTORS
330
3B
102
}
330
3B
100
AcDbScale
 70
     0
300
3/8" = 1'-0"
140
0.375
141
12.0
290
     0
  0
SCALE
  5
56
102
{ACAD_REACTORS
330
3B
102
}
330
3B
100
AcDbScale
 70
     0
300
1/2" = 1'-0"
140
0.5
141
12.0
290
     0
  0
SCALE
  5
57
102
{ACAD_REACTORS
330
3B
102
}
330
3B
100
AcDbScale
 70
     0
300
3/4" = 1'-0"
140
0.75
141
12.0
290
     0
  0
SCALE
  5
58
102
{ACAD_REACTORS
330
3B
102
}
330
3B
100
AcDbScale
 70
     0
300
1" = 1'-0"
140
1.0
141
12.0
290
     0
  0
SCALE
  5
59
102
{ACAD_REACTORS
330
3B
102
}
330
3B
100
AcDbScale
 70
     0
300
1-1/2" = 1'-0"
140
1.5
141
12.0
290
     0
  0
SCALE
  5
5A
102
{ACAD_REACTORS
330
3B
102
}
330
3B
100
AcDbScale
 70
     0
300
3" = 1'-0"
140
3.0
141
12.0
290
     0
  0
SCALE
  5
5B
102
{ACAD_REACTORS
330
3B
102
}
330
3B
100
AcDbScale
 70
     0
300
6" = 1'-0"
140
6.0
141
12.0
290
     0
  0
SCALE
  5
5C
102
{ACAD_REACTORS
330
3B
102
}
330
3B
100
AcDbScale
 70
     0
300
1'-0" = 1'-0"
140
12.0
141
12.0
290
     0
  0
VISUALSTYLE
  5
2F
102
{ACAD_REACTORS
330
2A
102
}
330
2A
100
AcDbVisualStyle
  2
2dWireframe
 70
     4
 71
     0
 72
     2
 73
     0
 90
        0
 40
-0.6
 41
-30.0
 62
     5
 63
     7
 74
     1
 91
        4
 64
     7
 65
   257
 75
     1
175
     1
 42
1.0
 92
        0
 66
   257
 43
1.0
 76
     1
 77
     6
 78
     2
 67
     7
 79
     5
170
     0
171
     0
290
     0
174
     0
 93
        1
 44
0.0
173
     0
291
     0
 45
0.0
1001
ACAD
1000
AcDbSavedByObjectVersion
1070
     0
  0
VISUALSTYLE
  5
31
102
{ACAD_REACTORS
330
2A
102
}
330
2A
100
AcDbVisualStyle
  2
3D Hidden
 70
     6
 71
     1
 72
     2
 73
     2
 90
        0
 40
-0.6
 41
-30.0
 62
     5
 63
     7
 74
     2
 91
        2
 64
     7
 65
   257
 75
     2
175
     1
 42
40.0
 92
        0
 66
   257
 43
1.0
 76
     1
 77
     6
 78
     2
 67
     7
 79
     3
170
     0
171
     0
290
     0
174
     0
 93
        1
 44
0.0
173
     0
291
     0
 45
0.0
1001
ACAD
1000
AcDbSavedByObjectVersion
1070
     0
  0
VISUALSTYLE
  5
30
102
{ACAD_REACTORS
330
2A
102
}
330
2A
100
AcDbVisualStyle
  2
3dWireframe
 70
     5
 71
     0
 72
     2
 73
     0
 90
        0
 40
-0.6
 41
-30.0
 62
     5
 63
     7
 74
     1
 91
        4
 64
     7
 65
   257
 75
     1
175
     1
 42
1.0
 92
        0
 66
   257
 43
1.0
 76
     1
 77
     6
 78
     2
 67
     7
 79
     5
170
     0
171
     0
290
     0
174
     0
 93
        1
 44
0.0
173
     0
291
     0
 45
0.0
1001
ACAD
1000
AcDbSavedByObjectVersion
1070
     0
  0
VISUALSTYLE
  5
32
102
{ACAD_REACTORS
330
2A
102
}
330
2A
100
AcDbVisualStyle
  2
Basic
 70
     7
 71
     1
 72
     0
 73
     1
 90
        0
 40
-0.6
 41
-30.0
 62
     5
 63
     7
 74
     0
 91
        4
 64
     7
 65
   257
 75
     1
175
     1
 42
1.0
 92
        8
 66
     7
 43
1.0
 76
     1
 77
     6
 78
     2
 67
     7
 79
     5
170
     0
171
     0
290
     0
174
     0
 93
        1
 44
0.0
173
     0
291
     1
 45
0.0
1001
ACAD
1000
AcDbSavedByObjectVersion
1070
     0
  0
VISUALSTYLE
  5
36
102
{ACAD_REACTORS
330
2A
102
}
330
2A
100
AcDbVisualStyle
  2
Brighten
 70
    12
 71
     2
 72
     2
 73
     0
 90
        0
 40
-0.6
 41
-30.0
 62
     5
 63
     7
 74
     1
 91
        4
 64
     7
 65
   257
 75
     1
175
     1
 42
1.0
 92
        8
 66
     7
 43
1.0
 76
     1
 77
     6
 78
     2
 67
     7
 79
     5
170
     0
171
     0
290
     0
174
     0
 93
        1
 44
50.0
173
     0
291
     1
 45
0.0
1001
ACAD
1000
AcDbSavedByObjectVersion
1070
     0
  0
VISUALSTYLE
  5
3A
102
{ACAD_REACTORS
330
2A
102
}
330
2A
100
AcDbVisualStyle
  2
ColorChange
 70
    16
 71
     2
 72
     2
 73
     3
 90
        0
 40
-0.6
 41
-30.0
 62
     5
 63
     8
 74
     1
 91
        4
 64
     7
 65
   257
 75
     1
175
     1
 42
1.0
 92
        8
 66
     8
 43
1.0
 76
     1
 77
     6
 78
     2
 67
     7
 79
     5
170
     0
171
     0
290
     0
174
     0
 93
        1
 44
0.0
173
     0
291
     1
 45
0.0
1001
ACAD
1000
AcDbSavedByObjectVersion
1070
     0
  0
VISUALSTYLE
  5
34
102
{ACAD_REACTORS
330
2A
102
}
330
2A
100
AcDbVisualStyle
  2
Conceptual
 70
     9
 71
     3
 72
     2
 73
     0
 90
        0
 40
-0.6
 41
-30.0
 62
     5
 63
     7
 74
     2
 91
        2
 64
     7
 65
   257
 75
     1
175
     1
 42
40.0
 92
        8
 66
     7
 43
1.0
 76
     1
 77
     6
 78
     2
 67
     7
 79
     3
170
     0
171
     0
290
     0
174
     0
 93
        1
 44
0.0
173
     0
291
     0
 45
0.0
1001
ACAD
1000
AcDbSavedByObjectVersion
1070
     0
  0
VISUALSTYLE
  5
35
102
{ACAD_REACTORS
330
2A
102
}
330
2A
100
AcDbVisualStyle
  2
Dim
 70
    11
 71
     2
 72
     2
 73
     0
 90
        0
 40
-0.6
 41
-30.0
 62
     5
 63
     7
 74
     1
 91
        4
 64
     7
 65
   257
 75
     1
175
     1
 42
1.0
 92
        8
 66
     7
 43
1.0
 76
     1
 77
     6
 78
     2
 67
     7
 79
     5
170
     0
171
     0
290
     0
174
     0
 93
        1
 44
-50.0
173
     0
291
     1
 45
0.0
1001
ACAD
1000
AcDbSavedByObjectVersion
1070
     0
  0
VISUALSTYLE
  5
39
102
{ACAD_REACTORS
330
2A
102
}
330
2A
100
AcDbVisualStyle
  2
Facepattern
 70
    15
 71
     2
 72
     2
 73
     0
 90
        0
 40
-0.6
 41
-30.0
 62
     5
 63
     7
 74
     1
 91
        4
 64
     7
 65
   257
 75
     1
175
     1
 42
1.0
 92
        8
 66
     7
 43
1.0
 76
     1
 77
     6
 78
     2
 67
     7
 79
     5
170
     0
171
     0
290
     0
174
     0
 93
        1
 44
0.0
173
     0
291
     1
 45
0.0
1001
ACAD
1000
AcDbSavedByObjectVersion
1070
     0
  0
VISUALSTYLE
  5
2B
102
{ACAD_REACTORS
330
2A
102
}
330
2A
100
AcDbVisualStyle
  2
Flat
 70
     0
 71
     2
 72
     1
 73
     1
 90
        2
 40
-0.6
 41
30.0
 62
     5
 63
     7
 74
     0
 91
        4
 64
     7
 65
   257
 75
     1
175
     1
 42
1.0
 92
        8
 66
     7
 43
1.0
 76
     1
 77
     6
 78
     2
 67
     7
 79
     5
170
     0
171
     0
290
     0
174
     0
 93
       13
 44
0.0
173
     0
291
     1
 45
0.0
1001
ACAD
1000
AcDbSavedByObjectVersion
1070
     0
  0
VISUALSTYLE
  5
2C
102
{ACAD_REACTORS
330
2A
102
}
330
2A
100
AcDbVisualStyle
  2
FlatWithEdges
 70
     1
 71
     2
 72
     1
 73
     1
 90
        2
 40
-0.6
 41
30.0
 62
     5
 63
     7
 74
     1
 91
        4
 64
     7
 65
   257
 75
     1
175
     1
 42
1.0
 92
        0
 66
   257
 43
1.0
 76
     1
 77
     6
 78
     2
 67
     7
 79
     5
170
     0
171
     0
290
     0
174
     0
 93
       13
 44
0.0
173
     0
291
     1
 45
0.0
1001
ACAD
1000
AcDbSavedByObjectVersion
1070
     0
  0
VISUALSTYLE
  5
2D
102
{ACAD_REACTORS
330
2A
102
}
330
2A
100
AcDbVisualStyle
  2
Gouraud
 70
     2
 71
     2
 72
     2
 73
     1
 90
        2
 40
-0.6
 41
30.0
 62
     5
 63
     7
 74
     0
 91
        4
 64
     7
 65
   257
 75
     1
175
     1
 42
1.0
 92
        0
 66
     7
 43
1.0
 76
     1
 77
     6
 78
     2
 67
     7
 79
     5
170
     0
171
     0
290
     0
174
     0
 93
       13
 44
0.0
173
     0
291
     1
 45
0.0
1001
ACAD
1000
AcDbSavedByObjectVersion
1070
     0
  0
VISUALSTYLE
  5
2E
102
{ACAD_REACTORS
330
2A
102
}
330
2A
100
AcDbVisualStyle
  2
GouraudWithEdges
 70
     3
 71
     2
 72
     2
 73
     1
 90
        2
 40
-0.6
 41
30.0
 62
     5
 63
     7
 74
     1
 91
        4
 64
     7
 65
   257
 75
     1
175
     1
 42
1.0
 92
        0
 66
   257
 43
1.0
 76
     1
 77
     6
 78
     2
 67
     7
 79
     5
170
     0
171
     0
290
     0
174
     0
 93
       13
 44
0.0
173
     0
291
     1
 45
0.0
1001
ACAD
1000
AcDbSavedByObjectVersion
1070
     0
  0
VISUALSTYLE
  5
38
102
{ACAD_REACTORS
330
2A
102
}
330
2A
100
AcDbVisualStyle
  2
Linepattern
 70
    14
 71
     2
 72
     2
 73
     0
 90
        0
 40
-0.6
 41
-30.0
 62
     5
 63
     7
 74
     1
 91
        4
 64
     7
 65
   257
 75
     7
175
     7
 42
1.0
 92
        8
 66
     7
 43
1.0
 76
     1
 77
     6
 78
     2
 67
     7
 79
     5
170
     0
171
     0
290
     0
174
     0
 93
        1
 44
0.0
173
     0
291
     1
 45
0.0
1001
ACAD
1000
AcDbSavedByObjectVersion
1070
     0
  0
VISUALSTYLE
  5
33
102
{ACAD_REACTORS
330
2A
102
}
330
2A
100
AcDbVisualStyle
  2
Realistic
 70
     8
 71
     2
 72
     2
 73
     0
 90
        0
 40
-0.6
 41
-30.0
 62
     5
 63
     7
 74
     1
 91
        0
 64
     7
 65
   257
 75
     1
175
     1
 42
1.0
 92
        8
 66
     8
 43
1.0
 76
     1
 77
     6
 78
     2
 67
     7
 79
     5
170
     0
171
     0
290
     0
174
     0
 93
       13
 44
0.0
173
     0
291
     0
 45
0.0
1001
ACAD
1000
AcDbSavedByObjectVersion
1070
     0
  0
VISUALSTYLE
  5
37
102
{ACAD_REACTORS
330
2A
102
}
330
2A
100
AcDbVisualStyle
  2
Thicken
 70
    13
 71
     2
 72
     2
 73
     0
 90
        0
 40
-0.6
 41
-30.0
 62
     5
 63
     7
 74
     1
 91
        4
 64
     7
 65
   257
 75
     1
175
     1
 42
1.0
 92
       12
 66
     7
 43
1.0
 76
     1
 77
     6
 78
     2
 67
     7
 79
     5
170
     0
171
     0
290
     0
174
     0
 93
        1
 44
0.0
173
     0
291
     1
 45
0.0
1001
ACAD
1000
AcDbSavedByObjectVersion
1070
     0
  0
DICTIONARYVAR
  5
147
102
{ACAD_REACTORS
330
146
102
}
330
146
100
DictionaryVariables
280
     0
  1
1:1
  0
DICTIONARYVAR
  5
14B
102
{ACAD_REACTORS
330
146
102
}
330
146
100
DictionaryVariables
280
     0
  1
80.000000
  0
DICTIONARYVAR
  5
14A
102
{ACAD_REACTORS
330
146
102
}
330
146
100
DictionaryVariables
280
     0
  1
5.000000
  0
ENDSEC
  0
EOF
