  0
SECTION
  2
HEADER
  9
$ACADVER
  1
AC1015
  9
$ACADMAINTVER
 70
     6
  9
$DWGCODEPAGE
  3
ANSI_1252
  9
$INSBASE
 10
0.0
 20
0.0
 30
0.0
  9
$EXTMIN
 10
0.0
 20
0.0
 30
0.0
  9
$EXTMAX
 10
1682.0
 20
2378.0
 30
0.0
  9
$LIMMIN
 10
0.0
 20
0.0
  9
$LIMMAX
 10
1682.0
 20
2378.0
  9
$ORTHOMODE
 70
     0
  9
$REGENMODE
 70
     1
  9
$FILLMODE
 70
     1
  9
$QTEXTMODE
 70
     0
  9
$MIRRTEXT
 70
     1
  9
$LTSCALE
 40
1.0
  9
$ATTMODE
 70
     1
  9
$TEXTSIZE
 40
2.5
  9
$TRACEWID
 40
1.0
  9
$TEXTSTYLE
  7
Standard
  9
$CLAYER
  8
0
  9
$CELTYPE
  6
ByLayer
  9
$CECOLOR
 62
   256
  9
$CELTSCALE
 40
1.0
  9
$DISPSILH
 70
     0
  9
$DIMSCALE
 40
1.0
  9
$DIMASZ
 40
2.5
  9
$DIMEXO
 40
0.625
  9
$DIMDLI
 40
3.75
  9
$DIMRND
 40
0.0
  9
$DIMDLE
 40
0.0
  9
$DIMEXE
 40
1.25
  9
$DIMTP
 40
0.0
  9
$DIMTM
 40
0.0
  9
$DIMTXT
 40
2.5
  9
$DIMCEN
 40
2.5
  9
$DIMTSZ
 40
0.0
  9
$DIMTOL
 70
     0
  9
$DIMLIM
 70
     0
  9
$DIMTIH
 70
     0
  9
$DIMTOH
 70
     0
  9
$DIMSE1
 70
     0
  9
$DIMSE2
 70
     0
  9
$DIMTAD
 70
     1
  9
$DIMZIN
 70
     8
  9
$DIMBLK
  1

  9
$DIMASO
 70
     1
  9
$DIMSHO
 70
     1
  9
$DIMPOST
  1

  9
$DIMAPOST
  1

  9
$DIMALT
 70
     0
  9
$DIMALTD
 70
     3
  9
$DIMALTF
 40
0.0393700787
  9
$DIMLFAC
 40
1.0
  9
$DIMTOFL
 70
     1
  9
$DIMTVP
 40
0.0
  9
$DIMTIX
 70
     0
  9
$DIMSOXD
 70
     0
  9
$DIMSAH
 70
     0
  9
$DIMBLK1
  1

  9
$DIMBLK2
  1

  9
$DIMSTYLE
  2
ISO-25
  9
$DIMCLRD
 70
     0
  9
$DIMCLRE
 70
     0
  9
$DIMCLRT
 70
     0
  9
$DIMTFAC
 40
1.0
  9
$DIMGAP
 40
0.625
  9
$DIMJUST
 70
     0
  9
$DIMSD1
 70
     0
  9
$DIMSD2
 70
     0
  9
$DIMTOLJ
 70
     0
  9
$DIMTZIN
 70
     8
  9
$DIMALTZ
 70
     0
  9
$DIMALTTZ
 70
     0
  9
$DIMUPT
 70
     0
  9
$DIMDEC
 70
     2
  9
$DIMTDEC
 70
     2
  9
$DIMALTU
 70
     2
  9
$DIMALTTD
 70
     3
  9
$DIMTXSTY
  7
Standard
  9
$DIMAUNIT
 70
     0
  9
$DIMADEC
 70
     0
  9
$DIMALTRND
 40
0.0
  9
$DIMAZIN
 70
     0
  9
$DIMDSEP
 70
    44
  9
$DIMATFIT
 70
     3
  9
$DIMFRAC
 70
     0
  9
$DIMLDRBLK
  1

  9
$DIMLUNIT
 70
     2
  9
$DIMLWD
 70
    -2
  9
$DIMLWE
 70
    -2
  9
$DIMTMOVE
 70
     0
  9
$LUNITS
 70
     2
  9
$LUPREC
 70
     4
  9
$SKETCHINC
 40
1.0
  9
$FILLETRAD
 40
10.0
  9
$AUNITS
 70
     0
  9
$AUPREC
 70
     0
  9
$MENU
  1
.
  9
$ELEVATION
 40
0.0
  9
$PELEVATION
 40
0.0
  9
$THICKNESS
 40
0.0
  9
$LIMCHECK
 70
     0
  9
$CHAMFERA
 40
10.0
  9
$CHAMFERB
 40
10.0
  9
$CHAMFERC
 40
20.0
  9
$CHAMFERD
 40
0.0
  9
$SKPOLY
 70
     0
  9
$TDCREATE
 40
2455210.580501852
  9
$TDUCREATE
 40
2455210.538835185
  9
$TDUPDATE
 40
2455210.580501863
  9
$TDUUPDATE
 40
2455210.538835197
  9
$TDINDWG
 40
0.0000000116
  9
$TDUSRTIMER
 40
0.0000000116
  9
$USRTIMER
 70
     1
  9
$ANGBASE
 50
0.0
  9
$ANGDIR
 70
     0
  9
$PDMODE
 70
     0
  9
$PDSIZE
 40
0.0
  9
$PLINEWID
 40
0.0
  9
$SPLFRAME
 70
     0
  9
$SPLINETYPE
 70
     6
  9
$SPLINESEGS
 70
     8
  9
$HANDSEED
  5
180
  9
$SURFTAB1
 70
     6
  9
$SURFTAB2
 70
     6
  9
$SURFTYPE
 70
     6
  9
$SURFU
 70
     6
  9
$SURFV
 70
     6
  9
$UCSBASE
  2

  9
$UCSNAME
  2

  9
$UCSORG
 10
0.0
 20
0.0
 30
0.0
  9
$UCSXDIR
 10
1.0
 20
0.0
 30
0.0
  9
$UCSYDIR
 10
0.0
 20
1.0
 30
0.0
  9
$UCSORTHOREF
  2

  9
$UCSORTHOVIEW
 70
     0
  9
$UCSORGTOP
 10
0.0
 20
0.0
 30
0.0
  9
$UCSORGBOTTOM
 10
0.0
 20
0.0
 30
0.0
  9
$UCSORGLEFT
 10
0.0
 20
0.0
 30
0.0
  9
$UCSORGRIGHT
 10
0.0
 20
0.0
 30
0.0
  9
$UCSORGFRONT
 10
0.0
 20
0.0
 30
0.0
  9
$UCSORGBACK
 10
0.0
 20
0.0
 30
0.0
  9
$PUCSBASE
  2

  9
$PUCSNAME
  2

  9
$PUCSORG
 10
0.0
 20
0.0
 30
0.0
  9
$PUCSXDIR
 10
1.0
 20
0.0
 30
0.0
  9
$PUCSYDIR
 10
0.0
 20
1.0
 30
0.0
  9
$PUCSORTHOREF
  2

  9
$PUCSORTHOVIEW
 70
     0
  9
$PUCSORGTOP
 10
0.0
 20
0.0
 30
0.0
  9
$PUCSORGBOTTOM
 10
0.0
 20
0.0
 30
0.0
  9
$PUCSORGLEFT
 10
0.0
 20
0.0
 30
0.0
  9
$PUCSORGRIGHT
 10
0.0
 20
0.0
 30
0.0
  9
$PUCSORGFRONT
 10
0.0
 20
0.0
 30
0.0
  9
$PUCSORGBACK
 10
0.0
 20
0.0
 30
0.0
  9
$USERI1
 70
     0
  9
$USERI2
 70
     0
  9
$USERI3
 70
     0
  9
$USERI4
 70
     0
  9
$USERI5
 70
     0
  9
$USERR1
 40
0.0
  9
$USERR2
 40
0.0
  9
$USERR3
 40
0.0
  9
$USERR4
 40
0.0
  9
$USERR5
 40
0.0
  9
$WORLDVIEW
 70
     1
  9
$SHADEDGE
 70
     3
  9
$SHADEDIF
 70
    70
  9
$TILEMODE
 70
     1
  9
$MAXACTVP
 70
    64
  9
$PINSBASE
 10
0.0
 20
0.0
 30
0.0
  9
$PLIMCHECK
 70
     0
  9
$PEXTMIN
 10
0.0
 20
0.0
 30
0.0
  9
$PEXTMAX
 10
1682.0
 20
2378.0
 30
0.0
  9
$PLIMMIN
 10
0.0
 20
0.0
  9
$PLIMMAX
 10
1682.0
 20
2378.0
  9
$UNITMODE
 70
     0
  9
$VISRETAIN
 70
     1
  9
$PLINEGEN
 70
     0
  9
$PSLTSCALE
 70
     1
  9
$TREEDEPTH
 70
  3020
  9
$CMLSTYLE
  2
Standard
  9
$CMLJUST
 70
     0
  9
$CMLSCALE
 40
20.0
  9
$PROXYGRAPHICS
 70
     1
  9
$MEASUREMENT
 70
     1
  9
$CELWEIGHT
370
    -1
  9
$ENDCAPS
280
     0
  9
$JOINSTYLE
280
     0
  9
$LWDISPLAY
290
     0
  9
$INSUNITS
 70
     4
  9
$HYPERLINKBASE
  1

  9
$STYLESHEET
  1

  9
$XEDIT
290
     1
  9
$CEPSNTYPE
380
     0
  9
$PSTYLEMODE
290
     1
  9
$FINGERPRINTGUID
  2
{FB0CAE24-4EBA-45FE-BC99-48A80A6763F1}
  9
$VERSIONGUID
  2
{FAEB1C32-E019-11D5-929B-00C0DF256EC4}
  9
$EXTNAMES
290
     1
  9
$PSVPSCALE
 40
0.0
  9
$OLESTARTUP
290
     0
  0
ENDSEC
  0
SECTION
  2
CLASSES
  0
CLASS
  1
ACDBDICTIONARYWDFLT
  2
AcDbDictionaryWithDefault
  3
ObjectDBX Classes
 90
        0
280
     0
281
     0
  0
CLASS
  1
VISUALSTYLE
  2
AcDbVisualStyle
  3
ObjectDBX Classes
 90
     4095
280
     0
281
     0
  0
CLASS
  1
SCALE
  2
AcDbScale
  3
ObjectDBX Classes
 90
     1153
280
     0
281
     0
  0
CLASS
  1
DICTIONARYVAR
  2
AcDbDictionaryVar
  3
ObjectDBX Classes
 90
        0
280
     0
281
     0
  0
CLASS
  1
ACDBPLACEHOLDER
  2
AcDbPlaceHolder
  3
ObjectDBX Classes
 90
        0
280
     0
281
     0
  0
CLASS
  1
LAYOUT
  2
AcDbLayout
  3
ObjectDBX Classes
 90
        0
280
     0
281
     0
  0
ENDSEC
  0
SECTION
  2
TABLES
  0
TABLE
  2
VPORT
  5
8
330
0
100
AcDbSymbolTable
 70
     1
  0
VPORT
  5
29
330
8
100
AcDbSymbolTableRecord
100
AcDbViewportTableRecord
  2
*Active
 70
     0
 10
0.0
 20
0.0
 11
1.0
 21
1.0
 12
344.1869158879
 22
148.5
 13
0.0
 23
0.0
 14
10.0
 24
10.0
 15
10.0
 25
10.0
 16
0.0
 26
0.0
 36
1.0
 17
0.0
 27
0.0
 37
0.0
 40
297.0
 41
1.9729729729
 42
50.0
 43
0.0
 44
0.0
 50
0.0
 51
0.0
 71
     0
 72
   100
 73
     1
 74
     3
 75
     0
 76
     0
 77
     0
 78
     0
281
     0
 65
     1
110
0.0
120
0.0
130
0.0
111
1.0
121
0.0
131
0.0
112
0.0
122
1.0
132
0.0
 79
     0
146
0.0
  0
ENDTAB
  0
TABLE
  2
LTYPE
  5
5
330
0
100
AcDbSymbolTable
 70
     2
  0
LTYPE
  5
14
330
5
100
AcDbSymbolTableRecord
100
AcDbLinetypeTableRecord
  2
ByBlock
 70
     0
  3

 72
    65
 73
     0
 40
0.0
  0
LTYPE
  5
15
330
5
100
AcDbSymbolTableRecord
100
AcDbLinetypeTableRecord
  2
ByLayer
 70
     0
  3

 72
    65
 73
     0
 40
0.0
  0
LTYPE
  5
16
330
5
100
AcDbSymbolTableRecord
100
AcDbLinetypeTableRecord
  2
Continuous
 70
     0
  3
Solid line
 72
    65
 73
     0
 40
0.0
  0
LTYPE
  5
CF
330
5
100
AcDbSymbolTableRecord
100
AcDbLinetypeTableRecord
  2
CENTER2
 70
     0
  3
Center (.5x) ___ _ ___ _ ___ _ ___ _ ___ _ ___
 72
    65
 73
     4
 40
28.575
 49
19.05
 74
     4
 75
     0
340
0
 46
0.0
 50
0.0
 44
0.0
 45
0.0
 49
-3.175
 74
     4
 75
     0
340
0
 46
0.0
 50
0.0
 44
0.0
 45
0.0
 49
3.175
 74
     4
 75
     0
340
0
 46
0.0
 50
0.0
 44
0.0
 45
0.0
 49
-3.175
 74
     4
 75
     0
340
0
 46
0.0
 50
0.0
 44
0.0
 45
0.0
  0
ENDTAB
  0
TABLE
  2
LAYER
  5
2
330
0
100
AcDbSymbolTable
 70
    14
  0
LAYER
  5
10
330
2
100
AcDbSymbolTableRecord
100
AcDbLayerTableRecord
  2
0
 70
     0
 62
     7
  6
Continuous
370
    -3
390
F
  0
LAYER
  5
5D
330
2
100
AcDbSymbolTableRecord
100
AcDbLayerTableRecord
  2
Default
 70
     0
 62
     7
  6
Continuous
370
    -3
390
F
  0
LAYER
  5
60
330
2
100
AcDbSymbolTableRecord
100
AcDbLayerTableRecord
  2
$DDT_AUDIT_GENERATED_(60)
 70
     0
 62
     7
  6
Continuous
370
    -3
390
F
  0
LAYER
  5
84
330
2
100
AcDbSymbolTableRecord
100
AcDbLayerTableRecord
  2
$DDT_AUDIT_GENERATED_(84)
 70
     0
 62
     7
  6
Continuous
370
    -3
390
F
  0
LAYER
  5
92
330
2
100
AcDbSymbolTableRecord
100
AcDbLayerTableRecord
  2
02636038_GEHÄUSE
 70
     0
 62
     7
  6
Continuous
370
    -3
390
F
  0
LAYER
  5
A8
330
2
100
AcDbSymbolTableRecord
100
AcDbLayerTableRecord
  2
$DDT_AUDIT_GENERATED_(A8)
 70
     0
 62
     7
  6
Continuous
370
    -3
390
F
  0
LAYER
  5
AD
330
2
100
AcDbSymbolTableRecord
100
AcDbLayerTableRecord
  2
$DDT_AUDIT_GENERATED_(AD)
 70
     0
 62
     7
  6
Continuous
370
    -3
390
F
  0
LAYER
  5
CE
330
2
100
AcDbSymbolTableRecord
100
AcDbLayerTableRecord
  2
DV1_Standard
 70
     0
 62
     7
  6
Continuous
370
    -3
390
F
  0
LAYER
  5
D8
330
2
100
AcDbSymbolTableRecord
100
AcDbLayerTableRecord
  2
$DDT_AUDIT_GENERATED_(D8)
 70
     0
 62
     7
  6
Continuous
370
    -3
390
F
  0
LAYER
  5
DA
330
2
100
AcDbSymbolTableRecord
100
AcDbLayerTableRecord
  2
$DDT_AUDIT_GENERATED_(DA)
 70
     0
 62
     7
  6
Continuous
370
    -3
390
F
  0
LAYER
  5
105
330
2
100
AcDbSymbolTableRecord
100
AcDbLayerTableRecord
  2
$DDT_AUDIT_GENERATED_(105)
 70
     0
 62
     7
  6
Continuous
370
    -3
390
F
  0
LAYER
  5
139
330
2
100
AcDbSymbolTableRecord
100
AcDbLayerTableRecord
  2
DV2_Standard
 70
     0
 62
     7
  6
Continuous
370
    -3
390
F
  0
LAYER
  5
154
330
2
100
AcDbSymbolTableRecord
100
AcDbLayerTableRecord
  2
$DDT_AUDIT_GENERATED_(154)
 70
     0
 62
     7
  6
Continuous
370
    -3
390
F
  0
LAYER
  5
166
330
2
100
AcDbSymbolTableRecord
100
AcDbLayerTableRecord
  2
DV3_Standard
 70
     0
 62
     7
  6
Continuous
370
    -3
390
F
  0
ENDTAB
  0
TABLE
  2
STYLE
  5
3
330
0
100
AcDbSymbolTable
 70
     2
  0
STYLE
  5
11
330
3
100
AcDbSymbolTableRecord
100
AcDbTextStyleTableRecord
  2
Standard
 70
     0
 40
0.0
 41
1.0
 50
0.0
 71
     0
 42
2.5
  3
txt
  4

  0
STYLE
  5
16F
330
3
100
AcDbSymbolTableRecord
100
AcDbTextStyleTableRecord
  2
SEACAD_seiso_ttf
 70
     0
 40
0.0
 41
1.0
 50
0.0
 71
     0
 42
0.2
  3
seiso.ttf
  4

  0
ENDTAB
  0
TABLE
  2
VIEW
  5
6
330
0
100
AcDbSymbolTable
 70
     0
  0
ENDTAB
  0
TABLE
  2
UCS
  5
7
330
0
100
AcDbSymbolTable
 70
     0
  0
ENDTAB
  0
TABLE
  2
APPID
  5
9
330
0
100
AcDbSymbolTable
 70
     1
  0
APPID
  5
12
330
9
100
AcDbSymbolTableRecord
100
AcDbRegAppTableRecord
  2
ACAD
 70
     0
  0
ENDTAB
  0
TABLE
  2
DIMSTYLE
  5
A
330
0
100
AcDbSymbolTable
 70
     1
100
AcDbDimStyleTable
  0
DIMSTYLE
105
27
330
A
100
AcDbSymbolTableRecord
100
AcDbDimStyleTableRecord
  2
ISO-25
 70
     0
 41
2.5
 42
0.625
 43
3.75
 44
1.25
 73
     0
 74
     0
 77
     1
 78
     8
140
2.5
141
2.5
143
0.0393700787
147
0.625
171
     3
172
     1
271
     2
272
     2
274
     3
278
    44
283
     0
284
     8
340
11
  0
ENDTAB
  0
TABLE
  2
BLOCK_RECORD
  5
1
330
0
100
AcDbSymbolTable
 70
     4
  0
BLOCK_RECORD
  5
1F
330
1
100
AcDbSymbolTableRecord
100
AcDbBlockTableRecord
  2
*Model_Space
340
22
  0
BLOCK_RECORD
  5
1B
330
1
100
AcDbSymbolTableRecord
100
AcDbBlockTableRecord
  2
*Paper_Space
340
1E
  0
BLOCK_RECORD
  5
5E
330
1
100
AcDbSymbolTableRecord
100
AcDbBlockTableRecord
  2
SE
340
0
102
{BLKREFS
331
5F
102
}
  0
BLOCK_RECORD
  5
D6
330
1
100
AcDbSymbolTableRecord
100
AcDbBlockTableRecord
  2
SE1
340
0
102
{BLKREFS
331
D7
102
}
  0
BLOCK_RECORD
  5
141
330
1
100
AcDbSymbolTableRecord
100
AcDbBlockTableRecord
  2
SE2
340
0
102
{BLKREFS
331
142
102
}
  0
ENDTAB
  0
ENDSEC
  0
SECTION
  2
BLOCKS
  0
BLOCK
  5
20
330
1F
100
AcDbEntity
  8
0
100
AcDbBlockBegin
  2
*Model_Space
 70
     0
 10
0.0
 20
0.0
 30
0.0
  3
*Model_Space
  1

  0
ENDBLK
  5
21
330
1F
100
AcDbEntity
  8
0
100
AcDbBlockEnd
  0
BLOCK
  5
1C
330
1B
100
AcDbEntity
 67
     1
  8
0
100
AcDbBlockBegin
  2
*Paper_Space
 70
     0
 10
0.0
 20
0.0
 30
0.0
  3
*Paper_Space
  1

  0
ENDBLK
  5
1D
330
1B
100
AcDbEntity
 67
     1
  8
0
100
AcDbBlockEnd
  0
BLOCK
  5
D4
330
5E
100
AcDbEntity
  8
0
100
AcDbBlockBegin
  2
SE
 70
     0
 10
0.0
 20
0.0
 30
0.0
  3
SE
  1

  0
ARC
  5
61
330
5E
100
AcDbEntity
  8
$DDT_AUDIT_GENERATED_(60)
  6
Continuous
 62
     7
100
AcDbCircle
 10
19.5200549427
 20
337.089676491
 30
0.0
 40
27.47018304863294
100
AcDbArc
 50
333.7343121273
 51
354.3755908048
  0
SPLINE
  5
62
330
5E
100
AcDbEntity
  8
$DDT_AUDIT_GENERATED_(60)
  6
Continuous
 62
     7
100
AcDbSpline
210
0.0
220
0.0
230
1.0
 70
    12
 71
     3
 72
    80
 73
    76
 74
     0
 42
0.0000000001669774
 43
0.0000000001
 40
0.0
 40
0.0
 40
0.0
 40
0.0
 40
0.0270618679539378
 40
0.0270618679539378
 40
0.0664509540502187
 40
0.0664509540502187
 40
0.1058400401465012
 40
0.1058400401465012
 40
0.1452291262427834
 40
0.1452291262427834
 40
0.1846182123390659
 40
0.1846182123390659
 40
0.2043127553872057
 40
0.2043127553872057
 40
0.2240072984353467
 40
0.2240072984353467
 40
0.2633963845316292
 40
0.2633963845316292
 40
0.2830909275797704
 40
0.2830909275797704
 40
0.3027854706279116
 40
0.3027854706279116
 40
0.3421745567241939
 40
0.3421745567241939
 40
0.3618690997723351
 40
0.3618690997723351
 40
0.3815636428204748
 40
0.3815636428204748
 40
0.4012581858686161
 40
0.4012581858686161
 40
0.4209527289167572
 40
0.4209527289167572
 40
0.4406472719648983
 40
0.4406472719648983
 40
0.4603418150130396
 40
0.4603418150130396
 40
0.4800363580611808
 40
0.4800363580611808
 40
0.4997309011093212
 40
0.4997309011093212
 40
0.5194254441574625
 40
0.5194254441574625
 40
0.5391199872056036
 40
0.5391199872056036
 40
0.5588145302537448
 40
0.5588145302537448
 40
0.5785090733018853
 40
0.5785090733018853
 40
0.5982036163500265
 40
0.5982036163500265
 40
0.6178981593981677
 40
0.6178981593981677
 40
0.6375927024463088
 40
0.6375927024463088
 40
0.6572872454944493
 40
0.6572872454944493
 40
0.6966763315907316
 40
0.6966763315907316
 40
0.7163708746388728
 40
0.7163708746388728
 40
0.7360654176870133
 40
0.7360654176870133
 40
0.7754545037832957
 40
0.7754545037832957
 40
0.8148435898795774
 40
0.8148435898795774
 40
0.8542326759758598
 40
0.8542326759758598
 40
0.8936217620721417
 40
0.8936217620721417
 40
0.9330108481684238
 40
0.9330108481684238
 40
0.9723999342647056
 40
0.9723999342647056
 40
1.0
 40
1.0
 40
1.0
 40
1.0
 10
47.46467060001388
 20
324.7205066588473
 30
0.0
 41
1.0
 10
47.44925946987493
 20
324.1765193813361
 30
0.0
 41
1.0
 10
47.42957985523268
 20
323.6392225626668
 30
0.0
 41
1.0
 10
47.36924936627128
 20
322.3348735849792
 30
0.0
 41
1.0
 10
47.32315080219228
 20
321.5746140381204
 30
0.0
 41
1.0
 10
47.20508054035778
 20
320.0764615544396
 30
0.0
 41
1.0
 10
47.13351144715093
 20
319.3434693198307
 30
0.0
 41
1.0
 10
46.95947874788173
 20
317.907960073151
 30
0.0
 41
1.0
 10
46.85706753939837
 20
317.2053747423338
 30
0.0
 41
1.0
 10
46.61271061655173
 20
315.8291671000466
 30
0.0
 41
1.0
 10
46.47085514425968
 20
315.155532103112
 30
0.0
 41
1.0
 10
46.21842223374376
 20
314.1679611723246
 30
0.0
 41
1.0
 10
46.12762503707379
 20
313.8426030484244
 30
0.0
 41
1.0
 10
45.93025570964896
 20
313.199973842496
 30
0.0
 41
1.0
 10
45.82340342075998
 20
312.8821598956047
 30
0.0
 41
1.0
 10
45.47858960113294
 20
311.951100676712
 30
0.0
 41
1.0
 10
45.21640284353002
 20
311.3586648217154
 30
0.0
 41
1.0
 10
44.75746246078224
 20
310.5146278531262
 30
0.0
 41
1.0
 10
44.59343039501388
 20
310.2406393297529
 30
0.0
 41
1.0
 10
44.23866921543322
 20
309.7070396019867
 30
0.0
 41
1.0
 10
44.0469340970932
 20
309.4464936717442
 30
0.0
 41
1.0
 10
43.43062086833952
 20
308.6933211713267
 30
0.0
 41
1.0
 10
42.9677760224267
 20
308.229655318209
 30
0.0
 41
1.0
 10
42.15601554018048
 20
307.5776219089437
 30
0.0
 41
1.0
 10
41.86452098147872
 20
307.3670240974062
 30
0.0
 41
1.0
 10
41.23612730925453
 20
306.9602652228265
 30
0.0
 41
1.0
 10
40.90406209403664
 20
306.7660376548951
 30
0.0
 41
1.0
 10
40.19661410753515
 20
306.3936818261124
 30
0.0
 41
1.0
 10
39.82122527744548
 20
306.2155922100021
 30
0.0
 41
1.0
 10
39.0183287119939
 20
305.8774989378131
 30
0.0
 41
1.0
 10
38.59035990405837
 20
305.7173713387098
 30
0.0
 41
1.0
 10
37.66930099128851
 20
305.4195150325066
 30
0.0
 41
1.0
 10
37.17361758698742
 20
305.2815636053886
 30
0.0
 41
1.0
 10
36.13156376627229
 20
305.0383394347322
 30
0.0
 41
1.0
 10
35.58228753720231
 20
304.9325768768741
 30
0.0
 41
1.0
 10
34.44255013834543
 20
304.7596367885669
 30
0.0
 41
1.0
 10
33.85185488702511
 20
304.6924132319274
 30
0.0
 41
1.0
 10
32.64282088824104
 20
304.6012587677739
 30
0.0
 41
1.0
 10
32.02460660613084
 20
304.5773153153222
 30
0.0
 41
1.0
 10
30.77870215597746
 20
304.575967377205
 30
0.0
 41
1.0
 10
30.15717145786635
 20
304.5986303716957
 30
0.0
 41
1.0
 10
28.94222397477579
 20
304.6875326781476
 30
0.0
 41
1.0
 10
28.34781397642327
 20
304.753782807511
 30
0.0
 41
1.0
 10
27.19977267828333
 20
304.9252028431461
 30
0.0
 41
1.0
 10
26.6460289960928
 20
305.030407191702
 30
0.0
 41
1.0
 10
25.59537834668408
 20
305.2729235372916
 30
0.0
 41
1.0
 10
25.09778167492075
 20
305.4103311605685
 30
0.0
 41
1.0
 10
24.17182162760124
 20
305.7075393037846
 30
0.0
 41
1.0
 10
23.74105393950093
 20
305.8675744516987
 30
0.0
 41
1.0
 10
22.93017841768035
 20
306.2060300383403
 30
0.0
 41
1.0
 10
22.54923846999874
 20
306.38464168567
 30
0.0
 41
1.0
 10
21.8288901616023
 20
306.7598368333872
 30
0.0
 41
1.0
 10
21.48954941691473
 20
306.9567345672362
 30
0.0
 41
1.0
 10
20.86379250591134
 20
307.3616643746181
 30
0.0
 41
1.0
 10
20.57529033388593
 20
307.5702546328897
 30
0.0
 41
1.0
 10
19.76599115960972
 20
308.2180688555173
 30
0.0
 41
1.0
 10
19.30111290009714
 20
308.6791126796368
 30
0.0
 41
1.0
 10
18.68014710865578
 20
309.4310646418871
 30
0.0
 41
1.0
 10
18.48612882674174
 20
309.6921658769774
 30
0.0
 41
1.0
 10
18.12784848441288
 20
310.2267136259695
 30
0.0
 41
1.0
 10
17.96235161428048
 20
310.5012218416151
 30
0.0
 41
1.0
 10
17.49959477626084
 20
311.3468006528919
 30
0.0
 41
1.0
 10
17.23567206383164
 20
311.9400779685893
 30
0.0
 41
1.0
 10
16.77281357929492
 20
313.1835079371692
 30
0.0
 41
1.0
 10
16.57721276559518
 20
313.8260330733481
 30
0.0
 41
1.0
 10
16.23923122234323
 20
315.1408042193345
 30
0.0
 41
1.0
 10
16.09650282898303
 20
315.8143449973513
 30
0.0
 41
1.0
 10
15.85048665060678
 20
317.1919750165995
 30
0.0
 41
1.0
 10
15.74729448609443
 20
317.8960463265573
 30
0.0
 41
1.0
 10
15.57201340296078
 20
319.33483066952
 30
0.0
 41
1.0
 10
15.49981971246938
 20
320.0717870645682
 30
0.0
 41
1.0
 10
15.38162042164813
 20
321.5651556456581
 30
0.0
 41
1.0
 10
15.33547469289993
 20
322.3217855845652
 30
0.0
 41
1.0
 10
15.27449952857268
 20
323.627480209308
 30
0.0
 41
1.0
 10
15.25443926552022
 20
324.170883229599
 30
0.0
 41
1.0
 10
15.23877598683223
 20
324.7208019388289
 30
0.0
 41
1.0
  0
SPLINE
  5
63
330
5E
100
AcDbEntity
  8
$DDT_AUDIT_GENERATED_(60)
  6
Continuous
 62
     7
100
AcDbSpline
210
0.0
220
0.0
230
1.0
 70
     8
 71
     3
 72
     8
 73
     4
 74
     0
 42
0.0000000016176254
 43
0.0000000001
 40
0.6983605664922384
 40
0.6983605664922384
 40
0.6983605664922384
 40
0.6983605664922384
 40
0.709929742191787
 40
0.709929742191787
 40
0.709929742191787
 40
0.709929742191787
 10
16.92463306214371
 20
336.249237723917
 30
0.0
 10
16.9021138901129
 20
336.2390428112442
 30
0.0
 10
16.88057179476514
 20
336.228871858763
 30
0.0
 10
16.85995828627081
 20
336.2187203079266
 30
0.0
  0
SPLINE
  5
64
330
5E
100
AcDbEntity
  8
$DDT_AUDIT_GENERATED_(60)
  6
Continuous
 62
     7
100
AcDbSpline
210
0.0
220
0.0
230
1.0
 70
     8
 71
     3
 72
    18
 73
    14
 74
     0
 42
0.0000000006182319
 43
0.0000000001
 40
0.0
 40
0.0
 40
0.0
 40
0.0
 40
0.250000000000001
 40
0.250000000000001
 40
0.3750000000000008
 40
0.3750000000000008
 40
0.5000000000000006
 40
0.5000000000000006
 40
0.75
 40
0.75
 40
0.875
 40
0.875
 40
1.0
 40
1.0
 40
1.0
 40
1.0
 10
15.84537108709133
 20
334.3972857483067
 30
0.0
 10
15.89810121680881
 20
334.6829704482731
 30
0.0
 10
15.85529689940528
 20
334.8856019953572
 30
0.0
 10
16.35964873499563
 20
335.1785317083011
 30
0.0
 10
16.62135988016345
 20
335.2753221913068
 30
0.0
 10
17.46030936061882
 20
335.4792312766359
 30
0.0
 10
18.02146272111156
 20
335.5805497913069
 30
0.0
 10
20.20206980593683
 20
335.8955844938464
 30
0.0
 10
22.24136235305483
 20
336.1296501021445
 30
0.0
 10
25.50799882667346
 20
336.3958902514186
 30
0.0
 10
26.65012342042013
 20
336.4647836809751
 30
0.0
 10
28.98253844975666
 20
336.5619425409704
 30
0.0
 10
30.16764370263861
 20
336.5963158796594
 30
0.0
 10
31.35166723494585
 20
336.5962610259463
 30
0.0
  0
SPLINE
  5
65
330
5E
100
AcDbEntity
  8
$DDT_AUDIT_GENERATED_(60)
  6
Continuous
 62
     7
100
AcDbSpline
210
0.0
220
0.0
230
1.0
 70
     8
 71
     3
 72
    22
 73
    18
 74
     0
 42
0.0000000006208923
 43
0.0000000001
 40
0.0
 40
0.0
 40
0.0
 40
0.0
 40
0.125
 40
0.125
 40
0.25
 40
0.25
 40
0.375
 40
0.375
 40
0.5
 40
0.5
 40
0.625
 40
0.625
 40
0.75
 40
0.75
 40
0.875
 40
0.875
 40
1.0
 40
1.0
 40
1.0
 40
1.0
 10
31.35166723494585
 20
336.5962610259463
 30
0.0
 10
32.52229586637254
 20
336.5963221090885
 30
0.0
 10
33.70976683261337
 20
336.5621199083351
 30
0.0
 10
36.01259389970556
 20
336.4667691156399
 30
0.0
 10
37.1551044200209
 20
336.3986725202367
 30
0.0
 10
39.34764106203868
 20
336.2207929128742
 30
0.0
 10
40.38927754454487
 20
336.114180178348
 30
0.0
 10
42.32408136700398
 20
335.9010817676449
 30
0.0
 10
43.1958071983678
 20
335.7947978032819
 30
0.0
 10
44.65115114469027
 20
335.5856936838825
 30
0.0
 10
45.22838693859799
 20
335.482107135397
 30
0.0
 10
46.0659059621638
 20
335.2802025723824
 30
0.0
 10
46.33783219647935
 20
335.1813188147469
 30
0.0
 10
46.67878717526675
 20
334.9847654916033
 30
0.0
 10
46.75184942658998
 20
334.8853774953622
 30
0.0
 10
46.82287388015435
 20
334.6664828270703
 30
0.0
 10
46.83193763209783
 20
334.5386159677739
 30
0.0
 10
46.85798931427653
 20
334.3974095989279
 30
0.0
  0
SPLINE
  5
66
330
5E
100
AcDbEntity
  8
$DDT_AUDIT_GENERATED_(60)
  6
Continuous
 62
     7
100
AcDbSpline
210
0.0
220
0.0
230
1.0
 70
     8
 71
     3
 72
     8
 73
     4
 74
     0
 42
0.0000000015740514
 43
0.0000000001
 40
0.2938205082571071
 40
0.2938205082571071
 40
0.2938205082571071
 40
0.2938205082571071
 40
0.3001668585824548
 40
0.3001668585824548
 40
0.3001668585824548
 40
0.3001668585824548
 10
45.81568766896997
 20
336.2319999939451
 30
0.0
 10
45.8037823542148
 20
336.2376401934525
 30
0.0
 10
45.7915888697312
 20
336.2432865972299
 30
0.0
 10
45.77910127455698
 20
336.2489393322171
 30
0.0
  0
ARC
  5
67
330
5E
100
AcDbEntity
  8
$DDT_AUDIT_GENERATED_(60)
  6
Continuous
 62
     7
100
AcDbCircle
 10
71.7680860779
 20
326.0766385792
 30
0.0
 40
56.54054820384281
100
AcDbArc
 50
176.981984981
 51
180.3125566133
  0
ARC
  5
68
330
5E
100
AcDbEntity
  8
$DDT_AUDIT_GENERATED_(60)
  6
Continuous
 62
     7
100
AcDbCircle
 10
-9.0693238157
 20
326.0765687197
 30
0.0
 40
56.54512914084862
100
AcDbArc
 50
359.6875187597
 51
3.1724218805
  0
ARC
  5
69
330
5E
100
AcDbEntity
  8
$DDT_AUDIT_GENERATED_(60)
  6
Continuous
 62
     7
100
AcDbCircle
 10
-8.0869689099
 20
325.0130156833
 30
0.0
 40
23.32757518174199
100
AcDbArc
 50
359.2822635001
 51
1.855170517
  0
ARC
  5
6A
330
5E
100
AcDbEntity
  8
$DDT_AUDIT_GENERATED_(60)
  6
Continuous
 62
     7
100
AcDbCircle
 10
70.3176363822
 20
325.0198570672
 30
0.0
 40
22.85492628974848
100
AcDbArc
 50
178.1236615035
 51
179.3331428705
  0
ELLIPSE
  5
6B
330
5E
100
AcDbEntity
  8
$DDT_AUDIT_GENERATED_(60)
  6
Continuous
 62
     7
100
AcDbEllipse
 10
46.4655333301
 20
324.7453625969
 30
0.0
 11
-2.306835278353958E-10
 21
-1.000000000000396
 31
0.0
210
0.0
220
0.0
230
1.0
 40
0.9999719719
 41
1.546033929170572
 42
1.630721296039569
  0
LINE
  5
6C
330
5E
100
AcDbEntity
  8
$DDT_AUDIT_GENERATED_(60)
  6
Continuous
 62
     7
100
AcDbLine
 10
48.7968005107
 20
285.4342487299
 30
0.0
 11
13.9069518939
 21
285.4342487299
 31
0.0
  0
SPLINE
  5
6D
330
5E
100
AcDbEntity
  8
$DDT_AUDIT_GENERATED_(60)
  6
Continuous
 62
     7
100
AcDbSpline
210
0.0
220
0.0
230
1.0
 70
     8
 71
     3
 72
    10
 73
     6
 74
     0
 42
0.0000000004676471
 43
0.0000000001
 40
0.906554066946317
 40
0.906554066946317
 40
0.906554066946317
 40
0.906554066946317
 40
0.9375000000000003
 40
0.9375000000000003
 40
0.9876192422360661
 40
0.9876192422360661
 40
0.9876192422360661
 40
0.9876192422360661
 10
43.15569269245899
 20
323.2723662555128
 30
0.0
 10
43.26380978874002
 20
323.5484449813103
 30
0.0
 10
43.354628878148
 20
323.8099650292523
 30
0.0
 10
43.53993522985859
 20
324.4266838037228
 30
0.0
 10
43.60082022913439
 20
324.7354630962164
 30
0.0
 10
43.60137715598272
 20
324.9369148988198
 30
0.0
  0
ARC
  5
6E
330
5E
100
AcDbEntity
  8
$DDT_AUDIT_GENERATED_(60)
  6
Continuous
 62
     7
100
AcDbCircle
 10
43.3110630935
 20
337.1262066799
 30
0.0
 40
27.60092836917232
100
AcDbArc
 50
185.6741395394
 51
206.2162782582
  0
SPLINE
  5
6F
330
5E
100
AcDbEntity
  8
$DDT_AUDIT_GENERATED_(60)
  6
Continuous
 62
     7
100
AcDbSpline
210
0.0
220
0.0
230
1.0
 70
     8
 71
     3
 72
    20
 73
    16
 74
     0
 42
0.0000000007695515
 43
0.0000000001
 40
0.0
 40
0.0
 40
0.0
 40
0.0
 40
0.1250000000000001
 40
0.1250000000000001
 40
0.2500000000000002
 40
0.2500000000000002
 40
0.3750000000000003
 40
0.3750000000000003
 40
0.5000000000000004
 40
0.5000000000000004
 40
0.6250000000000006
 40
0.6250000000000006
 40
0.7500000000000007
 40
0.7500000000000007
 40
1.0
 40
1.0
 40
1.0
 40
1.0
 10
18.54936224951179
 20
324.9331997433625
 30
0.0
 10
18.58513273393898
 20
325.1076459607511
 30
0.0
 10
18.7041261752814
 20
325.137046715917
 30
0.0
 10
19.07327546031573
 20
325.0979093820016
 30
0.0
 10
19.32794769752783
 20
325.0282592981571
 30
0.0
 10
19.95922437255857
 20
324.8938426030565
 30
0.0
 10
20.33717631334618
 20
324.8282064901039
 30
0.0
 10
21.23496549658772
 20
324.7513675983221
 30
0.0
 10
21.75967765694716
 20
324.741443612987
 30
0.0
 10
22.91149674022579
 20
324.7731286135071
 30
0.0
 10
23.54350740915275
 20
324.8116140190271
 30
0.0
 10
24.92268107918282
 20
324.8947271176164
 30
0.0
 10
25.66825246894865
 20
324.9385697417762
 30
0.0
 10
27.97433126319536
 20
325.070170700692
 30
0.0
 10
29.68151536668756
 20
325.1650393963529
 30
0.0
 10
31.35167195312086
 20
325.163879014523
 30
0.0
  0
SPLINE
  5
70
330
5E
100
AcDbEntity
  8
$DDT_AUDIT_GENERATED_(60)
  6
Continuous
 62
     7
100
AcDbSpline
210
0.0
220
0.0
230
1.0
 70
     8
 71
     3
 72
    18
 73
    14
 74
     0
 42
0.0000000007691782
 43
0.0000000001
 40
0.0
 40
0.0
 40
0.0
 40
0.0
 40
0.2500000000000012
 40
0.2500000000000012
 40
0.3750000000000019
 40
0.3750000000000019
 40
0.5000000000000026
 40
0.5000000000000026
 40
0.7500000000000022
 40
0.7500000000000022
 40
0.8750000000000012
 40
0.8750000000000012
 40
1.0
 40
1.0
 40
1.0
 40
1.0
 10
31.35167195312086
 20
325.163879014523
 30
0.0
 10
33.02165933108883
 20
325.1650359909663
 30
0.0
 10
34.70970881684486
 20
325.0712604187985
 30
0.0
 10
37.02543226441153
 20
324.9391268339275
 30
0.0
 10
37.75615242444596
 20
324.896215695879
 30
0.0
 10
39.13617756152401
 20
324.8130286811296
 30
0.0
 10
39.78462570335611
 20
324.7734727224744
 30
0.0
 10
41.51634983471525
 20
324.7254011587063
 30
0.0
 10
42.42572222960221
 20
324.8261017788532
 30
0.0
 10
43.37529464442585
 20
325.0282102437322
 30
0.0
 10
43.62971812674769
 20
325.097852761926
 30
0.0
 10
43.9993291696551
 20
325.137077997214
 30
0.0
 10
44.1174025990451
 20
325.1116495131426
 30
0.0
 10
44.15398573738299
 20
324.9331798605669
 30
0.0
  0
SPLINE
  5
71
330
5E
100
AcDbEntity
  8
$DDT_AUDIT_GENERATED_(60)
  6
Continuous
 62
     7
100
AcDbSpline
210
0.0
220
0.0
230
1.0
 70
     8
 71
     3
 72
    12
 73
     8
 74
     0
 42
0.0000000003766736
 43
0.0000000001
 40
0.0241259239463396
 40
0.0241259239463396
 40
0.0241259239463396
 40
0.0241259239463396
 40
0.0625
 40
0.0625
 40
0.1249999999999999
 40
0.1249999999999999
 40
0.1330034139302901
 40
0.1330034139302901
 40
0.1330034139302901
 40
0.1330034139302901
 10
44.15430566444892
 20
324.6341717962617
 30
0.0
 10
44.13110517732135
 20
324.4359054630781
 30
0.0
 10
44.07136813524608
 20
324.1776637594865
 30
0.0
 10
43.82626275663242
 20
323.3816280593734
 30
0.0
 10
43.58992273455394
 20
322.784485327654
 30
0.0
 10
43.24910014462698
 20
322.0904575074312
 30
0.0
 10
43.20937999368484
 20
322.0114419356729
 30
0.0
 10
43.16862195427063
 20
321.932260006569
 30
0.0
  0
SPLINE
  5
72
330
5E
100
AcDbEntity
  8
$DDT_AUDIT_GENERATED_(60)
  6
Continuous
 62
     7
100
AcDbSpline
210
0.0
220
0.0
230
1.0
 70
     8
 71
     3
 72
    12
 73
     8
 74
     0
 42
0.0000000003792152
 43
0.0000000001
 40
0.8674370533945684
 40
0.8674370533945684
 40
0.8674370533945684
 40
0.8674370533945684
 40
0.8750000000000001
 40
0.8750000000000001
 40
0.9375000000000001
 40
0.9375000000000001
 40
0.9783847648775463
 40
0.9783847648775463
 40
0.9783847648775463
 40
0.9783847648775463
 10
19.53420919504702
 20
321.9334478177565
 30
0.0
 10
19.49588038664476
 20
322.007807265522
 30
0.0
 10
19.45853996942622
 20
322.0819286319156
 30
0.0
 10
19.12179345431259
 20
322.7657919429455
 30
0.0
 10
18.88323044116282
 20
323.3642984081321
 30
0.0
 10
18.62757982900825
 20
324.190261178566
 30
0.0
 10
18.56523143537635
 20
324.4653895519759
 30
0.0
 10
18.54517829743067
 20
324.6701723269517
 30
0.0
  0
ARC
  5
73
330
5E
100
AcDbEntity
  8
$DDT_AUDIT_GENERATED_(60)
  6
Continuous
 62
     7
100
AcDbCircle
 10
31.3498423117
 20
307.7169446313
 30
0.0
 40
31.95611351571274
100
AcDbArc
 50
63.6241030048
 51
116.5245932544
  0
ARC
  5
74
330
5E
100
AcDbEntity
  8
$DDT_AUDIT_GENERATED_(60)
  6
Continuous
 62
     7
100
AcDbCircle
 10
17.5153160288
 20
334.6834169979
 30
0.0
 40
1.663965410930099
100
AcDbArc
 50
112.4363376834
 51
179.7091462454
  0
LINE
  5
75
330
5E
100
AcDbEntity
  8
$DDT_AUDIT_GENERATED_(60)
  6
Continuous
 62
     7
100
AcDbLine
 10
15.8510866298
 20
334.6881884244
 30
0.0
 11
15.8394344905
 21
334.622874291
 31
0.0
  0
ARC
  5
76
330
5E
100
AcDbEntity
  8
$DDT_AUDIT_GENERATED_(60)
  6
Continuous
 62
     7
100
AcDbCircle
 10
45.1840351187
 20
334.6840255069
 30
0.0
 40
1.668313712515343
100
AcDbArc
 50
0.2115631811
 51
68.9560608704
  0
ARC
  5
77
330
5E
100
AcDbEntity
  8
$DDT_AUDIT_GENERATED_(60)
  6
Continuous
 62
     7
100
AcDbCircle
 10
56.571117297
 20
327.9509309426
 30
0.0
 40
41.26698533564618
100
AcDbArc
 50
170.7669457166
 51
178.3513394672
  0
LINE
  5
78
330
5E
100
AcDbEntity
  8
$DDT_AUDIT_GENERATED_(60)
  6
Continuous
 62
     7
100
AcDbLine
 10
46.8635659953
 20
334.6242333894
 30
0.0
 11
46.8510941776
 21
334.6970783592
 31
0.0
  0
ARC
  5
79
330
5E
100
AcDbEntity
  8
$DDT_AUDIT_GENERATED_(60)
  6
Continuous
 62
     7
100
AcDbCircle
 10
7.916595711
 20
328.1655968689
 30
0.0
 40
39.47150943497027
100
AcDbArc
 50
1.631419017
 51
9.4162967544
  0
SPLINE
  5
7A
330
5E
100
AcDbEntity
  8
$DDT_AUDIT_GENERATED_(60)
  6
Continuous
 62
     7
100
AcDbSpline
210
0.0
220
0.0
230
1.0
 70
     8
 71
     3
 72
    11
 73
     7
 74
     0
 42
0.00000002092211
 43
0.0000000001
 40
0.0
 40
0.0
 40
0.0
 40
0.0
 40
0.13071977474023
 40
0.388833708330965
 40
0.6255160016144807
 40
0.7140130343019855
 40
0.7140130343019855
 40
0.7140130343019855
 40
0.7140130343019855
 10
15.23865967892884
 20
325.1454754436231
 30
0.0
 10
15.23925731395651
 20
325.1029791274105
 30
0.0
 10
15.24073701848979
 20
324.9964308430564
 30
0.0
 10
15.24150466884
 20
324.8794394568174
 30
0.0
 10
15.2410255910703
 20
324.81498882818
 30
0.0
 10
15.24088548386989
 20
324.8042662023835
 30
0.0
 10
15.24087970135592
 20
324.8043088816253
 30
0.0
  0
SPLINE
  5
7B
330
5E
100
AcDbEntity
  8
$DDT_AUDIT_GENERATED_(60)
  6
Continuous
 62
     7
100
AcDbSpline
210
0.0
220
0.0
230
1.0
 70
     8
 71
     3
 72
    11
 73
     7
 74
     0
 42
0.0000000141658668
 43
0.0000000001
 40
0.3071302802060243
 40
0.3071302802060243
 40
0.3071302802060243
 40
0.3071302802060243
 40
0.3954671728773222
 40
0.5802906365624343
 40
0.8097095570457303
 40
1.0
 40
1.0
 40
1.0
 40
1.0
 10
47.46246055249114
 20
324.8069441037592
 30
0.0
 10
47.46238839091456
 20
324.8104941226729
 30
0.0
 10
47.46206020868078
 20
324.8315459983195
 30
0.0
 10
47.46195601374309
 20
324.9084198554993
 30
0.0
 10
47.46333924545547
 20
325.0638606799732
 30
0.0
 10
47.46559533670575
 20
325.2142577817629
 30
0.0
 10
47.46683742151499
 20
325.2960203571005
 30
0.0
  0
ELLIPSE
  5
7C
330
5E
100
AcDbEntity
  8
$DDT_AUDIT_GENERATED_(60)
  6
Continuous
 62
     7
100
AcDbEllipse
 10
46.9165690337
 20
324.7453625969
 30
0.0
 11
-4.870184117100607E-10
 21
-0.9999999999963163
 31
0.0
210
0.0
220
0.0
230
1.0
 40
0.9999649099
 41
1.596301222170617
 42
2.539981451735779
  0
LINE
  5
7D
330
5E
100
AcDbEntity
  8
$DDT_AUDIT_GENERATED_(60)
  6
Continuous
 62
     7
100
AcDbLine
 10
48.7968047637
 20
285.4342613868
 30
0.0
 11
47.9170125007
 21
324.7679534245
 31
0.0
  0
LINE
  5
7E
330
5E
100
AcDbEntity
  8
$DDT_AUDIT_GENERATED_(60)
  6
Continuous
 62
     7
100
AcDbLine
 10
14.7863686459
 20
324.7679178884
 30
0.0
 11
13.906960912
 21
285.4348116691
 31
0.0
  0
SPLINE
  5
7F
330
5E
100
AcDbEntity
  8
$DDT_AUDIT_GENERATED_(60)
  6
Continuous
 62
     7
100
AcDbSpline
210
0.0
220
0.0
230
1.0
 70
     8
 71
     3
 72
     8
 73
     4
 74
     0
 42
0.0000000019737907
 43
0.0000000001
 40
0.8756881728903877
 40
0.8756881728903877
 40
0.8756881728903877
 40
0.8756881728903877
 40
0.9271155659123045
 40
0.9271155659123045
 40
0.9271155659123045
 40
0.9271155659123045
 10
19.32844168852097
 20
322.3736410068041
 30
0.0
 10
19.39936314836437
 20
322.4248047411402
 30
0.0
 10
19.47378386021366
 20
322.4716633255353
 30
0.0
 10
19.54923061579653
 20
322.5111534604508
 30
0.0
  0
SPLINE
  5
80
330
5E
100
AcDbEntity
  8
$DDT_AUDIT_GENERATED_(60)
  6
Continuous
 62
     7
100
AcDbSpline
210
0.0
220
0.0
230
1.0
 70
     8
 71
     3
 72
     9
 73
     5
 74
     0
 42
0.0000000019067072
 43
0.0000000001
 40
0.0529466524930441
 40
0.0529466524930441
 40
0.0529466524930441
 40
0.0529466524930441
 40
0.0623231263851766
 40
0.1032519682151623
 40
0.1032519682151623
 40
0.1032519682151623
 40
0.1032519682151623
 10
43.15311156611677
 20
322.5099956177389
 30
0.0
 10
43.16734060047757
 20
322.5027705206036
 30
0.0
 10
43.24323717327339
 20
322.4628201618542
 30
0.0
 10
43.31837575917583
 20
322.4147163349186
 30
0.0
 10
43.37746261760946
 20
322.3720375336898
 30
0.0
  0
SPLINE
  5
81
330
5E
100
AcDbEntity
  8
$DDT_AUDIT_GENERATED_(60)
  6
Continuous
 62
     7
100
AcDbSpline
210
0.0
220
0.0
230
1.0
 70
     8
 71
     3
 72
    29
 73
    25
 74
     0
 42
0.0000000008020732
 43
0.0000000001
 40
0.0
 40
0.0
 40
0.0
 40
0.0
 40
0.0307255049115861
 40
0.0823062230808218
 40
0.1343976552969205
 40
0.1861804420887859
 40
0.2372364107158825
 40
0.2887675837756485
 40
0.3405742214251075
 40
0.3924457673184348
 40
0.4441766007748445
 40
0.4956965436457704
 40
0.5461391002682902
 40
0.596439704095625
 40
0.6480451875661751
 40
0.7010553563257516
 40
0.7555054550318467
 40
0.7999445276274
 40
0.8463683480924517
 40
0.8824902194154975
 40
0.9159681540558029
 40
0.9510998829230515
 40
0.989451486334315
 40
1.0
 40
1.0
 40
1.0
 40
1.0
 10
31.35194780144598
 20
325.015287333834
 30
0.0
 10
31.57437922021065
 20
325.0227073088562
 30
0.0
 10
32.08011949703871
 20
325.0390411848754
 30
0.0
 10
32.98378320060532
 20
325.0237555939062
 30
0.0
 10
33.98680960850331
 20
324.9852404114474
 30
0.0
 10
34.976174737075
 20
324.9346742368843
 30
0.0
 10
35.93428768192472
 20
324.8805258502231
 30
0.0
 10
36.86171322569286
 20
324.8242666827538
 30
0.0
 10
37.75576451155256
 20
324.7689013884512
 30
0.0
 10
38.60692846473974
 20
324.7178195803335
 30
0.0
 10
39.40496491003472
 20
324.6731841436953
 30
0.0
 10
40.14373339597741
 20
324.6416452173229
 30
0.0
 10
40.81645505606247
 20
324.6416940761615
 30
0.0
 10
41.42787156435116
 20
324.6639586380787
 30
0.0
 10
41.98486483401573
 20
324.7063756825917
 30
0.0
 10
42.48790834187748
 20
324.7659722218166
 30
0.0
 10
42.90140871262715
 20
324.8327478523441
 30
0.0
 10
43.23736700700959
 20
324.9050253526437
 30
0.0
 10
43.45808811879457
 20
324.9475523830442
 30
0.0
 10
43.59570113424351
 20
324.958714467232
 30
0.0
 10
43.64786352183555
 20
324.9482555753499
 30
0.0
 10
43.60546998348934
 20
324.9569844550648
 30
0.0
 10
43.58807558767202
 20
325.0089110664177
 30
0.0
 10
43.59279260405358
 20
324.9782463057699
 30
0.0
 10
43.59405018955837
 20
324.9707217599558
 30
0.0
  0
ARC
  5
82
330
5E
100
AcDbEntity
  8
$DDT_AUDIT_GENERATED_(60)
  6
Continuous
 62
     7
100
AcDbCircle
 10
19.4101062363
 20
324.9556211383
 30
0.0
 40
0.3078818157854432
100
AcDbArc
 50
178.2348564589
 51
185.5831400759
  0
SPLINE
  5
83
330
5E
100
AcDbEntity
  8
$DDT_AUDIT_GENERATED_(60)
  6
Continuous
 62
     7
100
AcDbSpline
210
0.0
220
0.0
230
1.0
 70
     8
 71
     3
 72
    30
 73
    26
 74
     0
 42
0.000000000802759
 43
0.0000000001
 40
0.0
 40
0.0
 40
0.0
 40
0.0
 40
0.0081822591606886
 40
0.0392643539729611
 40
0.0738742433054827
 40
0.1074283297237357
 40
0.1427643183533655
 40
0.1802874630467131
 40
0.2230721240208869
 40
0.2674339656195447
 40
0.3238579374478315
 40
0.3791368974284047
 40
0.432992757150139
 40
0.4853213708793888
 40
0.536140583109636
 40
0.5853047528422317
 40
0.6369445024498145
 40
0.6884945969004348
 40
0.7402475729273827
 40
0.7920078889597101
 40
0.8435915195072953
 40
0.8947194009443499
 40
0.945634768918583
 40
0.9972746471188181
 40
1.0
 40
1.0
 40
1.0
 40
1.0
 10
19.10881272108239
 20
324.9731804573333
 30
0.0
 10
19.10968083092197
 20
324.9799465124932
 30
0.0
 10
19.11280107495278
 20
325.0080234509982
 30
0.0
 10
19.10787873184508
 20
324.9716039113563
 30
0.0
 10
19.05761379855626
 20
324.9468921940494
 30
0.0
 10
19.08107016202876
 20
324.9581856205801
 30
0.0
 10
19.18902470603559
 20
324.9547257809944
 30
0.0
 10
19.36949572758533
 20
324.9254810526978
 30
0.0
 10
19.62455525397854
 20
324.8690568048747
 30
0.0
 10
19.98884379077573
 20
324.8008079942732
 30
0.0
 10
20.44359780454677
 20
324.7364913402948
 30
0.0
 10
21.00352261411979
 20
324.6821219082806
 30
0.0
 10
21.62113816143583
 20
324.6485330208202
 30
0.0
 10
22.28861335908322
 20
324.6384912713584
 30
0.0
 10
22.99954704725654
 20
324.6570301050333
 30
0.0
 10
23.7581240608216
 20
324.6989264303022
 30
0.0
 10
24.57169295129879
 20
324.7459150565077
 30
0.0
 10
25.44557691855296
 20
324.799988671696
 30
0.0
 10
26.36086232810323
 20
324.8561940509483
 30
0.0
 10
27.31127156611253
 20
324.9120230470649
 30
0.0
 10
28.28521285424
 20
324.9634303501434
 30
0.0
 10
29.27844813100494
 20
325.0104424290164
 30
0.0
 10
30.2735574437385
 20
325.0327960836612
 30
0.0
 10
30.99167043147304
 20
325.0387185206823
 30
0.0
 10
31.33043239530774
 20
325.0206346063455
 30
0.0
 10
31.3501396928861
 20
325.0195811458296
 30
0.0
  0
LINE
  5
85
330
5E
100
AcDbEntity
  8
$DDT_AUDIT_GENERATED_(84)
  6
Continuous
 62
     7
100
AcDbLine
 10
6.3516719531
 20
277.4342487299
 30
0.0
 11
56.3516719531
 21
277.4342487299
 31
0.0
  0
SPLINE
  5
86
330
5E
100
AcDbEntity
  8
$DDT_AUDIT_GENERATED_(84)
  6
Continuous
 62
     7
100
AcDbSpline
210
0.0
220
0.0
230
1.0
 70
     8
 71
     3
 72
    10
 73
     6
 74
     0
 42
0.0000000042452702
 43
0.0000000001
 40
0.2496623886439802
 40
0.2496623886439802
 40
0.2496623886439802
 40
0.2496623886439802
 40
0.2500000000000005
 40
0.2500000000000005
 40
0.2500869156672704
 40
0.2500869156672704
 40
0.2500869156672704
 40
0.2500869156672704
 10
56.351585167544
 20
277.9992158202093
 30
0.0
 10
56.35163136679887
 20
277.9992855801367
 30
0.0
 10
56.35165912586392
 20
277.9993553723086
 30
0.0
 10
56.35167085068426
 20
277.9994431727478
 30
0.0
 10
56.35167198967346
 20
277.9994611503332
 30
0.0
 10
56.35167186730636
 20
277.9994791296507
 30
0.0
  0
SPLINE
  5
87
330
5E
100
AcDbEntity
  8
$DDT_AUDIT_GENERATED_(84)
  6
Continuous
 62
     7
100
AcDbSpline
210
0.0
220
0.0
230
1.0
 70
     8
 71
     3
 72
    10
 73
     6
 74
     0
 42
0.0000000060004428
 43
0.0000000001
 40
0.7495654890477961
 40
0.7495654890477961
 40
0.7495654890477961
 40
0.7495654890477961
 40
0.7500000000000002
 40
0.7500000000000002
 40
0.750165533331677
 40
0.750165533331677
 40
0.750165533331677
 40
0.750165533331677
 10
6.351848910658018
 20
277.9998513671604
 30
0.0
 10
6.351763080379748
 20
277.9997605447613
 30
0.0
 10
6.351708443309321
 20
277.9996697295387
 30
0.0
 10
6.351676088647333
 20
277.9995443264787
 30
0.0
 10
6.351671727102527
 20
277.9995097401167
 30
0.0
 10
6.351671928514803
 20
277.9994751621424
 30
0.0
  0
SPLINE
  5
88
330
5E
100
AcDbEntity
  8
$DDT_AUDIT_GENERATED_(84)
  6
Continuous
 62
     7
100
AcDbSpline
210
0.0
220
0.0
230
1.0
 70
     8
 71
     3
 72
     8
 73
     4
 74
     0
 42
0.0000000060207966
 43
0.0000000001
 40
0.2500132395834196
 40
0.2500132395834196
 40
0.2500132395834196
 40
0.2500132395834196
 40
0.2506153192384232
 40
0.2506153192384232
 40
0.2506153192384232
 40
0.2506153192384232
 10
6.669585487487723
 20
278.7309677514674
 30
0.0
 10
6.669570215061333
 20
278.7309489638373
 30
0.0
 10
6.669614706297948
 20
278.7309301188984
 30
0.0
 10
6.669718914403281
 20
278.7309112157379
 30
0.0
  0
SPLINE
  5
89
330
5E
100
AcDbEntity
  8
$DDT_AUDIT_GENERATED_(84)
  6
Continuous
 62
     7
100
AcDbSpline
210
0.0
220
0.0
230
1.0
 70
     8
 71
     3
 72
     8
 73
     4
 74
     0
 42
0.0000000042229268
 43
0.0000000001
 40
0.7502438302185748
 40
0.7502438302185748
 40
0.7502438302185748
 40
0.7502438302185748
 40
0.750666122898306
 40
0.750666122898306
 40
0.750666122898306
 40
0.750666122898306
 10
56.03375725533041
 20
278.730969228691
 30
0.0
 10
56.03374441683
 20
278.7309826145537
 30
0.0
 10
56.03370229640007
 20
278.7309959430182
 30
0.0
 10
56.03363091210914
 20
278.7310092146196
 30
0.0
  0
LINE
  5
8A
330
5E
100
AcDbEntity
  8
$DDT_AUDIT_GENERATED_(84)
  6
Continuous
 62
     7
100
AcDbLine
 10
56.3516719531
 20
277.4342487299
 30
0.0
 11
56.3516719531
 21
277.9994266771
 31
0.0
  0
LINE
  5
8B
330
5E
100
AcDbEntity
  8
$DDT_AUDIT_GENERATED_(84)
  6
Continuous
 62
     7
100
AcDbLine
 10
6.3516719531
 20
277.9994844924
 30
0.0
 11
6.3516719531
 21
277.4342487299
 31
0.0
  0
LINE
  5
8C
330
5E
100
AcDbEntity
  8
$DDT_AUDIT_GENERATED_(84)
  6
Continuous
 62
     7
100
AcDbLine
 10
13.5716159533
 20
285.1728631301
 30
0.0
 11
6.6806997971
 21
278.7413413843
 31
0.0
  0
LINE
  5
8D
330
5E
100
AcDbEntity
  8
$DDT_AUDIT_GENERATED_(84)
  6
Continuous
 62
     7
100
AcDbLine
 10
56.028913787
 20
278.7354896849
 30
0.0
 11
49.1341363572
 21
285.1706152861
 31
0.0
  0
ARC
  5
8E
330
5E
100
AcDbEntity
  8
$DDT_AUDIT_GENERATED_(84)
  6
Continuous
 62
     7
100
AcDbCircle
 10
7.3154291437
 20
278.0162859975
 30
0.0
 40
0.9550249997080105
100
AcDbArc
 50
131.2236351994
 51
180.9230143873
  0
ARC
  5
8F
330
5E
100
AcDbEntity
  8
$DDT_AUDIT_GENERATED_(84)
  6
Continuous
 62
     7
100
AcDbCircle
 10
55.4144327324
 20
278.031167603
 30
0.0
 40
0.9266918537094776
100
AcDbArc
 50
358.0177278708
 51
48.8209674521
  0
ARC
  5
90
330
5E
100
AcDbEntity
  8
$DDT_AUDIT_GENERATED_(84)
  6
Continuous
 62
     7
100
AcDbCircle
 10
48.4574479709
 20
284.4342540018
 30
0.0
 40
0.9999947281118426
100
AcDbArc
 50
47.4820420205
 51
90.0069684099
  0
ARC
  5
91
330
5E
100
AcDbEntity
  8
$DDT_AUDIT_GENERATED_(84)
  6
Continuous
 62
     7
100
AcDbCircle
 10
14.2458663215
 20
284.434251442
 30
0.0
 40
0.9999972879111534
100
AcDbArc
 50
89.9964257396
 51
132.3280513251
  0
ELLIPSE
  5
93
330
5E
100
AcDbEntity
  8
02636038_GEHÄUSE
  6
Continuous
 62
     7
100
AcDbEllipse
 10
31.3516719531
 20
317.8589229291
 30
0.0
 11
10.05000000000001
 21
0.0
 31
0.0
210
0.0
220
0.0
230
1.0
 40
0.3420201433
 41
0.0
 42
6.283185307179586
  0
ELLIPSE
  5
94
330
5E
100
AcDbEntity
  8
02636038_GEHÄUSE
  6
Continuous
 62
     7
100
AcDbEllipse
 10
31.3516719531
 20
317.8589229291
 30
0.0
 11
10.75000000000001
 21
0.0
 31
0.0
210
0.0
220
0.0
230
1.0
 40
0.3420201433
 41
0.0
 42
6.283185307179586
  0
ELLIPSE
  5
95
330
5E
100
AcDbEntity
  8
02636038_GEHÄUSE
  6
Continuous
 62
     7
100
AcDbEllipse
 10
31.3516719531
 20
318.1573154122
 30
0.0
 11
-11.3
 21
-6.938893903907228E-15
 31
0.0
210
0.0
220
0.0
230
1.0
 40
0.3420201433
 41
3.37253413272994
 42
6.052243828039432
  0
LINE
  5
96
330
5E
100
AcDbEntity
  8
02636038_GEHÄUSE
  6
Continuous
 62
     7
100
AcDbLine
 10
20.3516719531
 20
319.0419516865
 30
0.0
 11
20.3516719531
 21
317.2726791379
 31
0.0
  0
ELLIPSE
  5
97
330
5E
100
AcDbEntity
  8
02636038_GEHÄUSE
  6
Continuous
 62
     7
100
AcDbEllipse
 10
31.3516719531
 20
320.6780007914
 30
0.0
 11
11.79999999999988
 21
-3.469446951953614E-14
 31
0.0
210
0.0
220
0.0
230
1.0
 40
0.3420201433
 41
2.771250021498076
 42
3.511935285681514
  0
LINE
  5
98
330
5E
100
AcDbEntity
  8
02636038_GEHÄUSE
  6
Continuous
 62
     7
100
AcDbLine
 10
20.3516719531
 20
322.138711125
 30
0.0
 11
20.3516719531
 21
320.4318234272
 31
0.0
  0
LINE
  5
99
330
5E
100
AcDbEntity
  8
02636038_GEHÄUSE
  6
Continuous
 62
     7
100
AcDbLine
 10
20.3516719531
 20
320.4318234272
 30
0.0
 11
20.3516719531
 21
319.0419516865
 31
0.0
  0
LINE
  5
9A
330
5E
100
AcDbEntity
  8
02636038_GEHÄUSE
  6
Continuous
 62
     7
100
AcDbLine
 10
20.3516719531
 20
317.1448665969
 30
0.0
 11
20.3516719531
 21
317.2726791379
 31
0.0
  0
ELLIPSE
  5
9B
330
5E
100
AcDbEntity
  8
02636038_GEHÄUSE
  6
Continuous
 62
     7
100
AcDbEllipse
 10
31.3516719531
 20
318.1573154122
 30
0.0
 11
11.30000000000001
 21
0.0
 31
0.0
210
0.0
220
0.0
230
1.0
 40
0.3420201433
 41
-0.6820876318288587
 42
-0.5669323934265655
  0
ELLIPSE
  5
9C
330
5E
100
AcDbEntity
  8
02636038_GEHÄUSE
  6
Continuous
 62
     7
100
AcDbEllipse
 10
31.3516719531
 20
318.1573154122
 30
0.0
 11
11.30000000000001
 21
0.0
 31
0.0
210
0.0
220
0.0
230
1.0
 40
0.3420201433
 41
3.674372467996347
 42
3.823680285418648
  0
LINE
  5
9D
330
5E
100
AcDbEntity
  8
02636038_GEHÄUSE
  6
Continuous
 62
     7
100
AcDbLine
 10
42.3516719531
 20
317.2726791379
 30
0.0
 11
42.3516719531
 21
319.0419516865
 31
0.0
  0
ELLIPSE
  5
9E
330
5E
100
AcDbEntity
  8
02636038_GEHÄUSE
  6
Continuous
 62
     7
100
AcDbEllipse
 10
31.3516719531
 20
320.6780007914
 30
0.0
 11
-11.8000000000002
 21
2.775557561562891E-14
 31
0.0
210
0.0
220
0.0
230
1.0
 40
0.3420201433
 41
2.77125002149808
 42
3.511935285681508
  0
LINE
  5
9F
330
5E
100
AcDbEntity
  8
02636038_GEHÄUSE
  6
Continuous
 62
     7
100
AcDbLine
 10
42.3516719531
 20
317.2726791379
 30
0.0
 11
42.3516719531
 21
317.1447222168
 31
0.0
  0
LINE
  5
A0
330
5E
100
AcDbEntity
  8
02636038_GEHÄUSE
  6
Continuous
 62
     7
100
AcDbLine
 10
42.3516719531
 20
319.0419516865
 30
0.0
 11
42.3516719531
 21
320.4318234272
 31
0.0
  0
LINE
  5
A1
330
5E
100
AcDbEntity
  8
02636038_GEHÄUSE
  6
Continuous
 62
     7
100
AcDbLine
 10
42.3516719531
 20
320.4318234272
 30
0.0
 11
42.3516719531
 21
322.138711125
 31
0.0
  0
LINE
  5
A2
330
5E
100
AcDbEntity
  8
02636038_GEHÄUSE
  6
Continuous
 62
     7
100
AcDbLine
 10
22.5799527454
 20
315.7208703473
 30
0.0
 11
23.0068948308
 21
315.5410658983
 31
0.0
  0
LINE
  5
A3
330
5E
100
AcDbEntity
  8
02636038_GEHÄUSE
  6
Continuous
 62
     7
100
AcDbLine
 10
39.6964490755
 20
315.5410658983
 30
0.0
 11
40.1233911608
 21
315.7208703473
 31
0.0
  0
ARC
  5
A4
330
5E
100
AcDbEntity
  8
02636038_GEHÄUSE
  6
Continuous
 62
     7
100
AcDbCircle
 10
38.5945612167
 20
320.7542873587
 30
0.0
 40
5.203289378557684
100
AcDbArc
 50
296.7554671615
 51
316.212704964
  0
ARC
  5
A5
330
5E
100
AcDbEntity
  8
02636038_GEHÄUSE
  6
Continuous
 62
     7
100
AcDbCircle
 10
23.7008893537
 20
320.2665019378
 30
0.0
 40
4.570248216800248
100
AcDbArc
 50
222.7606522685
 51
241.3070640761
  0
LINE
  5
A6
330
5E
100
AcDbEntity
  8
02636038_GEHÄUSE
  6
Continuous
 62
     7
100
AcDbLine
 10
19.5516719531
 20
324.8857910304
 30
0.0
 11
19.5516719531
 21
320.6780007914
 31
0.0
  0
LINE
  5
A7
330
5E
100
AcDbEntity
  8
02636038_GEHÄUSE
  6
Continuous
 62
     7
100
AcDbLine
 10
43.1516719531
 20
320.6780007914
 30
0.0
 11
43.1516719531
 21
324.886590623
 31
0.0
  0
ARC
  5
A9
330
5E
100
AcDbEntity
  8
$DDT_AUDIT_GENERATED_(A8)
  6
Continuous
 62
     7
100
AcDbCircle
 10
31.3516719531
 20
310.7453625969
 30
0.0
 40
59.00000000000001
100
AcDbArc
 50
74.9544983456
 51
84.4605952265
  0
ARC
  5
AA
330
5E
100
AcDbEntity
  8
$DDT_AUDIT_GENERATED_(A8)
  6
Continuous
 62
     7
100
AcDbCircle
 10
31.3516719531
 20
310.7453625969
 30
0.0
 40
59.0
100
AcDbArc
 50
95.330886453
 51
105.0455016544
  0
ARC
  5
AB
330
5E
100
AcDbEntity
  8
$DDT_AUDIT_GENERATED_(A8)
  6
Continuous
 62
     7
100
AcDbCircle
 10
46.6153321024
 20
367.5296973984
 30
0.0
 40
0.1999999999999988
100
AcDbArc
 50
59.3321927038
 51
74.9544983453
  0
ARC
  5
AC
330
5E
100
AcDbEntity
  8
$DDT_AUDIT_GENERATED_(A8)
  6
Continuous
 62
     7
100
AcDbCircle
 10
16.0880118038
 20
367.5296973984
 30
0.0
 40
0.1999999999997841
100
AcDbArc
 50
105.0455016547
 51
120.9055061405
  0
SPLINE
  5
AE
330
5E
100
AcDbEntity
  8
$DDT_AUDIT_GENERATED_(AD)
  6
Continuous
 62
     7
100
AcDbSpline
210
0.0
220
0.0
230
1.0
 70
     8
 71
     3
 72
    18
 73
    14
 74
     0
 42
0.0000000001714493
 43
0.0000000001
 40
0.0033606175309689
 40
0.0033606175309689
 40
0.0033606175309689
 40
0.0033606175309689
 40
0.0312500000000001
 40
0.0312500000000001
 40
0.0625000000000002
 40
0.0625000000000002
 40
0.0937500000000002
 40
0.0937500000000002
 40
0.1250000000000003
 40
0.1250000000000003
 40
0.1875000000000006
 40
0.1875000000000006
 40
0.2227922331328005
 40
0.2227922331328005
 40
0.2227922331328005
 40
0.2227922331328005
 10
28.27930675062424
 20
367.6982024036736
 30
0.0
 10
27.36562526943183
 20
367.698252566797
 30
0.0
 10
26.47963368195514
 20
367.6981703274308
 30
0.0
 10
24.65745404825929
 20
367.6981628334106
 30
0.0
 10
23.71862859811058
 20
367.6982718865818
 30
0.0
 10
21.9647636393766
 20
367.6981754688568
 30
0.0
 10
21.1517306872797
 20
367.6982905347143
 30
0.0
 10
19.65225996273639
 20
367.6982372542062
 30
0.0
 10
18.96354372272779
 20
367.6982761500328
 30
0.0
 10
17.17899931657241
 20
367.6982731977664
 30
0.0
 10
16.31842124814856
 20
367.6982713277817
 30
0.0
 10
15.60973463579047
 20
367.6983038700347
 30
0.0
 10
15.48106805729908
 20
367.6982853071747
 30
0.0
 10
15.48067606546984
 20
367.6982753235218
 30
0.0
  0
SPLINE
  5
AF
330
5E
100
AcDbEntity
  8
$DDT_AUDIT_GENERATED_(AD)
  6
Continuous
 62
     7
100
AcDbSpline
210
0.0
220
0.0
230
1.0
 70
     8
 71
     3
 72
    18
 73
    14
 74
     0
 42
0.0000000001494846
 43
0.0000000001
 40
0.7227024134285034
 40
0.7227024134285034
 40
0.7227024134285034
 40
0.7227024134285034
 40
0.750000000000001
 40
0.750000000000001
 40
0.8125000000000009
 40
0.8125000000000009
 40
0.8437500000000008
 40
0.8437500000000008
 40
0.8750000000000007
 40
0.8750000000000007
 40
0.9375000000000003
 40
0.9375000000000003
 40
0.9980783114220037
 40
0.9980783114220037
 40
0.9980783114220037
 40
0.9980783114220037
 10
47.22200415083289
 20
367.6982761543825
 30
0.0
 10
47.22245318921422
 20
367.6982683575552
 30
0.0
 10
47.14572074985527
 20
367.6982654842501
 30
0.0
 10
46.63968588211547
 20
367.6983318809332
 30
0.0
 10
45.87674070187414
 20
367.6982670397889
 30
0.0
 10
44.22077979860516
 20
367.6982764005591
 30
0.0
 10
43.57276648440661
 20
367.6982352475372
 30
0.0
 10
42.14598297305263
 20
367.6982585395286
 30
0.0
 10
41.36559077675667
 20
367.6982193208601
 30
0.0
 10
38.82174240289077
 20
367.6981847879609
 30
0.0
 10
36.86486907525639
 20
367.6984330587194
 30
0.0
 10
32.85298649601659
 20
367.6980791618294
 30
0.0
 10
30.80345691689191
 20
367.6979927367877
 30
0.0
 10
28.80120711081035
 20
367.6981613149823
 30
0.0
  0
ARC
  5
B0
330
5E
100
AcDbEntity
  8
$DDT_AUDIT_GENERATED_(AD)
  6
Continuous
 62
     7
100
AcDbCircle
 10
-779.0969042303
 20
335.7428467271
 30
0.0
 40
802.0508544936215
100
AcDbArc
 50
0.197580331
 51
2.1771073611
  0
SPLINE
  5
B1
330
5E
100
AcDbEntity
  8
$DDT_AUDIT_GENERATED_(AD)
  6
Continuous
 62
     7
100
AcDbSpline
210
0.0
220
0.0
230
1.0
 70
     8
 71
     3
 72
    14
 73
    10
 74
     0
 42
0.0000000005952881
 43
0.0000000001
 40
0.7968662502254741
 40
0.7968662502254741
 40
0.7968662502254741
 40
0.7968662502254741
 40
0.8124999999999998
 40
0.8124999999999998
 40
0.8749999999999999
 40
0.8749999999999999
 40
0.9375
 40
0.9375
 40
1.0
 40
1.0
 40
1.0
 40
1.0
 10
8.809066875599722
 20
365.0907463170771
 30
0.0
 10
8.850402138284846
 20
365.1197708747513
 30
0.0
 10
8.899408132423792
 20
365.1513423279952
 30
0.0
 10
9.177746755863543
 20
365.3191857925109
 30
0.0
 10
9.478735035318628
 20
365.4740490303498
 30
0.0
 10
10.1373845809642
 20
365.7884056060491
 30
0.0
 10
10.50560649720471
 20
365.9514773138015
 30
0.0
 10
11.21745287600458
 20
366.2539934444446
 30
0.0
 10
11.5680812329616
 20
366.3959520063601
 30
0.0
 10
11.89998409219222
 20
366.5240473891718
 30
0.0
  0
SPLINE
  5
B2
330
5E
100
AcDbEntity
  8
$DDT_AUDIT_GENERATED_(AD)
  6
Continuous
 62
     7
100
AcDbSpline
210
0.0
220
0.0
230
1.0
 70
     8
 71
     3
 72
    14
 73
    10
 74
     0
 42
0.000000000619442
 43
0.0000000001
 40
0.0
 40
0.0
 40
0.0
 40
0.0
 40
0.0624999999999997
 40
0.0624999999999997
 40
0.1249999999999993
 40
0.1249999999999993
 40
0.1874999999999989
 40
0.1874999999999989
 40
0.2202640980589942
 40
0.2202640980589942
 40
0.2202640980589942
 40
0.2202640980589942
 10
50.80335981405285
 20
366.5240473891727
 30
0.0
 10
51.13647664397387
 20
366.3954834836112
 30
0.0
 10
51.48853388893787
 20
366.2529238074223
 30
0.0
 10
52.20329355214415
 20
365.9490619717269
 30
0.0
 10
52.57199964524037
 20
365.7857124607927
 30
0.0
 10
53.23452646269781
 20
365.4691212519417
 30
0.0
 10
53.53800773883396
 20
365.3125257471163
 30
0.0
 10
53.87340218710097
 20
365.1089925321369
 30
0.0
 10
53.95866674650149
 20
365.0481199884595
 30
0.0
 10
54.00522241957595
 20
365.0011283172966
 30
0.0
  0
ARC
  5
B3
330
5E
100
AcDbEntity
  8
$DDT_AUDIT_GENERATED_(AD)
  6
Continuous
 62
     7
100
AcDbCircle
 10
14.8523447605
 20
359.6789391674
 30
0.0
 40
7.454658951546498
100
AcDbArc
 50
104.612832331
 51
113.3309987867
  0
ARC
  5
B4
330
5E
100
AcDbEntity
  8
$DDT_AUDIT_GENERATED_(AD)
  6
Continuous
 62
     7
100
AcDbCircle
 10
47.8504769687
 20
359.677420237
 30
0.0
 40
7.456260487636887
100
AcDbArc
 50
66.6699393143
 51
75.3862295679
  0
ARC
  5
B5
330
5E
100
AcDbEntity
  8
$DDT_AUDIT_GENERATED_(AD)
  6
Continuous
 62
     7
100
AcDbCircle
 10
16.8960171268
 20
-3079.0117214756
 30
0.0
 40
3445.906416084114
100
AcDbArc
 50
89.9331223561
 51
90.0652514552
  0
SPLINE
  5
B6
330
5E
100
AcDbEntity
  8
$DDT_AUDIT_GENERATED_(AD)
  6
Continuous
 62
     7
100
AcDbSpline
210
0.0
220
0.0
230
1.0
 70
     8
 71
     3
 72
    12
 73
     8
 74
     0
 42
0.000000001258406
 43
0.0000000001
 40
0.0
 40
0.0
 40
0.0
 40
0.0
 40
0.2499999999999997
 40
0.2499999999999997
 40
0.4999999999999993
 40
0.4999999999999993
 40
1.0
 40
1.0
 40
1.0
 40
1.0
 10
41.7851454247726
 20
366.8923471922729
 30
0.0
 10
42.92373972105393
 20
366.8922061454803
 30
0.0
 10
43.95251541227581
 20
366.8929460913172
 30
0.0
 10
45.8043543304257
 20
366.8930696257395
 30
0.0
 10
46.63249722101932
 20
366.8925653840727
 30
0.0
 10
48.67850867823056
 20
366.8925598411835
 30
0.0
 10
49.51744051210796
 20
366.892163257884
 30
0.0
 10
49.73170587717674
 20
366.8924599633764
 30
0.0
  0
SPLINE
  5
B7
330
5E
100
AcDbEntity
  8
$DDT_AUDIT_GENERATED_(AD)
  6
Continuous
 62
     7
100
AcDbSpline
210
0.0
220
0.0
230
1.0
 70
     8
 71
     3
 72
    10
 73
     6
 74
     0
 42
0.0000000056518291
 43
0.0000000001
 40
0.0
 40
0.0
 40
0.0
 40
0.0
 40
0.5
 40
0.5
 40
1.0
 40
1.0
 40
1.0
 40
1.0
 10
20.91819907389826
 20
366.8923471923458
 30
0.0
 10
21.31644640669206
 20
366.8923965265822
 30
0.0
 10
21.66060256050579
 20
366.8604039340598
 30
0.0
 10
22.24069642009907
 20
366.7336277645919
 30
0.0
 10
22.46086544887344
 20
366.6423606499629
 30
0.0
 10
22.61372735211453
 20
366.523998034953
 30
0.0
  0
SPLINE
  5
B8
330
5E
100
AcDbEntity
  8
$DDT_AUDIT_GENERATED_(AD)
  6
Continuous
 62
     7
100
AcDbSpline
210
0.0
220
0.0
230
1.0
 70
     8
 71
     3
 72
    10
 73
     6
 74
     0
 42
0.0000000056518203
 43
0.0000000001
 40
0.0
 40
0.0
 40
0.0
 40
0.0
 40
0.5
 40
0.5
 40
1.0
 40
1.0
 40
1.0
 40
1.0
 10
40.08961756582553
 20
366.5239982950292
 30
0.0
 10
40.24248033666815
 20
366.6423614746192
 30
0.0
 10
40.46268271522028
 20
366.7336556144949
 30
0.0
 10
41.04310558180915
 20
366.8604630947962
 30
0.0
 10
41.38689719882492
 20
366.8923965264696
 30
0.0
 10
41.7851454247726
 20
366.8923471922729
 30
0.0
  0
SPLINE
  5
B9
330
5E
100
AcDbEntity
  8
$DDT_AUDIT_GENERATED_(AD)
  6
Continuous
 62
     7
100
AcDbSpline
210
0.0
220
0.0
230
1.0
 70
     8
 71
     3
 72
    38
 73
    34
 74
     0
 42
0.0000000005355772
 43
0.0000000001
 40
0.0
 40
0.0
 40
0.0
 40
0.0
 40
0.0624999999999986
 40
0.0624999999999986
 40
0.1249999999999972
 40
0.1249999999999972
 40
0.1874999999999958
 40
0.1874999999999958
 40
0.2499999999999944
 40
0.2499999999999944
 40
0.2812499999999939
 40
0.2812499999999939
 40
0.3124999999999936
 40
0.3124999999999936
 40
0.3749999999999935
 40
0.3749999999999935
 40
0.4999999999999943
 40
0.4999999999999943
 40
0.6249999999999951
 40
0.6249999999999951
 40
0.6874999999999959
 40
0.6874999999999959
 40
0.7187499999999963
 40
0.7187499999999963
 40
0.7499999999999967
 40
0.7499999999999967
 40
0.8124999999999976
 40
0.8124999999999976
 40
0.8749999999999983
 40
0.8749999999999983
 40
0.9374999999999992
 40
0.9374999999999992
 40
1.0
 40
1.0
 40
1.0
 40
1.0
 10
22.61372735211453
 20
366.523998034953
 30
0.0
 10
22.77980747767612
 20
366.3954004082987
 30
0.0
 10
22.91545199934536
 20
366.2528042054209
 30
0.0
 10
23.16572434723507
 20
365.9488944841987
 30
0.0
 10
23.27157300286934
 20
365.7855254506949
 30
0.0
 10
23.58724617124519
 20
365.4689013185841
 30
0.0
 10
23.78313452267348
 20
365.3122990409146
 30
0.0
 10
24.35321986727245
 20
365.0452941609907
 30
0.0
 10
24.74788441580761
 20
364.9450678395766
 30
0.0
 10
25.46292334062982
 20
364.8939807322272
 30
0.0
 10
25.71822153608472
 20
364.8917660636071
 30
0.0
 10
26.22179034625813
 20
364.8826860080801
 30
0.0
 10
26.47466341867423
 20
364.8784515663694
 30
0.0
 10
27.23653383467034
 20
364.8667092229344
 30
0.0
 10
27.74877724529189
 20
364.8601665812994
 30
0.0
 10
29.29856167553275
 20
364.8445791669474
 30
0.0
 10
30.33926534795287
 20
364.8397786129755
 30
0.0
 10
32.40537260539524
 20
364.8399053425159
 30
0.0
 10
33.43544892768405
 20
364.8448014784207
 30
0.0
 10
34.97602336312543
 20
364.8604270132844
 30
0.0
 10
35.49023191336063
 20
364.8670276952471
 30
0.0
 10
36.25387050348025
 20
364.87886264542
 30
0.0
 10
36.50713850454164
 20
364.8831262897027
 30
0.0
 10
37.01111747535032
 20
364.8922581133029
 30
0.0
 10
37.26607730295595
 20
364.8948958052791
 30
0.0
 10
37.97567538739743
 20
364.9484936539172
 30
0.0
 10
38.36555958866608
 20
365.0505145096643
 30
0.0
 10
38.9299364678068
 20
365.3189568397402
 30
0.0
 10
39.12175074437405
 20
365.4738473509021
 30
0.0
 10
39.43371609677547
 20
365.7882216042646
 30
0.0
 10
39.53945983852753
 20
365.951314111667
 30
0.0
 10
39.78892773145903
 20
366.2538759213221
 30
0.0
 10
39.92414335500617
 20
366.3958699507322
 30
0.0
 10
40.08961756582553
 20
366.5239982950292
 30
0.0
  0
ARC
  5
BA
330
5E
100
AcDbEntity
  8
$DDT_AUDIT_GENERATED_(AD)
  6
Continuous
 62
     7
100
AcDbCircle
 10
629.0449804551
 20
315.774577631
 30
0.0
 40
589.3394277524903
100
AcDbArc
 50
175.0550513444
 51
177.7952365162
  0
ARC
  5
BB
330
5E
100
AcDbEntity
  8
$DDT_AUDIT_GENERATED_(AD)
  6
Continuous
 62
     7
100
AcDbCircle
 10
-1019.4074398058
 20
252.5963948005
 30
0.0
 40
1038.452199093191
100
AcDbArc
 50
4.5323230153
 51
6.3013683704
  0
ARC
  5
BC
330
5E
100
AcDbEntity
  8
$DDT_AUDIT_GENERATED_(AD)
  6
Continuous
 62
     7
100
AcDbCircle
 10
349.4036223229
 20
311.3795508835
 30
0.0
 40
303.4764879034096
100
AcDbArc
 50
169.5906371572
 51
175.6067020248
  0
SPLINE
  5
BD
330
5E
100
AcDbEntity
  8
$DDT_AUDIT_GENERATED_(AD)
  6
Continuous
 62
     7
100
AcDbSpline
210
0.0
220
0.0
230
1.0
 70
     8
 71
     3
 72
     8
 73
     4
 74
     0
 42
0.0000000036811329
 43
0.0000000001
 40
0.7524890889247793
 40
0.7524890889247793
 40
0.7524890889247793
 40
0.7524890889247793
 40
0.7548574474536368
 40
0.7548574474536368
 40
0.7548574474536368
 40
0.7548574474536368
 10
54.20296489603224
 20
364.5411307438658
 30
0.0
 10
54.20425112032208
 20
364.5428967019487
 30
0.0
 10
54.20531099458745
 20
364.5447508892775
 30
0.0
 10
54.20614742723406
 20
364.5466916485815
 30
0.0
  0
SPLINE
  5
BE
330
5E
100
AcDbEntity
  8
$DDT_AUDIT_GENERATED_(AD)
  6
Continuous
 62
     7
100
AcDbSpline
210
0.0
220
0.0
230
1.0
 70
     8
 71
     3
 72
     8
 73
     4
 74
     0
 42
0.0000000036799257
 43
0.0000000001
 40
0.2443634280505238
 40
0.2443634280505238
 40
0.2443634280505238
 40
0.2443634280505238
 40
0.2472968675991811
 40
0.2472968675991811
 40
0.2472968675991811
 40
0.2472968675991811
 10
8.49716491247567
 20
364.5470804922421
 30
0.0
 10
8.498146817123242
 20
364.5446620668964
 30
0.0
 10
8.499468226459715
 20
364.5423758774408
 30
0.0
 10
8.501134372227066
 20
364.5402250195826
 30
0.0
  0
ARC
  5
BF
330
5E
100
AcDbEntity
  8
$DDT_AUDIT_GENERATED_(AD)
  6
Continuous
 62
     7
100
AcDbCircle
 10
-282.2039627778
 20
311.9063298634
 30
0.0
 40
298.9591392969661
100
AcDbArc
 50
4.3586053523
 51
10.4657627324
  0
ARC
  5
C0
330
5E
100
AcDbEntity
  8
$DDT_AUDIT_GENERATED_(AD)
  6
Continuous
 62
     7
100
AcDbCircle
 10
1082.1108941656
 20
252.5963847373
 30
0.0
 40
1038.452309984007
100
AcDbArc
 50
173.6986317466
 51
175.4696203524
  0
ARC
  5
C1
330
5E
100
AcDbEntity
  8
$DDT_AUDIT_GENERATED_(AD)
  6
Continuous
 62
     7
100
AcDbCircle
 10
-566.3410847271
 20
315.7746158278
 30
0.0
 40
589.338875288984
100
AcDbArc
 50
2.2052122297
 51
4.9449495753
  0
SPLINE
  5
C2
330
5E
100
AcDbEntity
  8
$DDT_AUDIT_GENERATED_(AD)
  6
Continuous
 62
     7
100
AcDbSpline
210
0.0
220
0.0
230
1.0
 70
     8
 71
     3
 72
    20
 73
    16
 74
     0
 42
0.0000000002557124
 43
0.0000000001
 40
0.2913413494132537
 40
0.2913413494132537
 40
0.2913413494132537
 40
0.2913413494132537
 40
0.5000000000000003
 40
0.5000000000000003
 40
0.6250000000000004
 40
0.6250000000000004
 40
0.6875000000000003
 40
0.6875000000000003
 40
0.7500000000000002
 40
0.7500000000000002
 40
0.8125000000000002
 40
0.8125000000000002
 40
0.8750000000000001
 40
0.8750000000000001
 40
1.0
 40
1.0
 40
1.0
 40
1.0
 10
39.95567396014046
 20
338.5052183202355
 30
0.0
 10
39.98408167578779
 20
341.2436008264806
 30
0.0
 10
40.00599379529288
 20
343.9797599371559
 30
0.0
 10
40.02400389864106
 20
348.3469174299057
 30
0.0
 10
40.02607249998827
 20
349.9811930964761
 30
0.0
 10
40.0204228555735
 20
352.424877904587
 30
0.0
 10
40.01706243602059
 20
353.2381819860618
 30
0.0
 10
40.01149346953743
 20
354.8622745931125
 30
0.0
 10
40.00946850886859
 20
355.673059037002
 30
0.0
 10
40.01551876423184
 20
357.2936197472283
 30
0.0
 10
40.02388798918243
 20
358.1034786197778
 30
0.0
 10
40.05472518865034
 20
359.7238588929962
 30
0.0
 10
40.07699692341127
 20
360.534148507322
 30
0.0
 10
40.16095184528015
 20
362.9658775457681
 30
0.0
 10
40.23902631257621
 20
364.588244673724
 30
0.0
 10
40.3283353322606
 20
366.2115948544862
 30
0.0
  0
ARC
  5
C3
330
5E
100
AcDbEntity
  8
$DDT_AUDIT_GENERATED_(AD)
  6
Continuous
 62
     7
100
AcDbCircle
 10
172.3492721943
 20
320.0095803878
 30
0.0
 40
126.2518334125434
100
AcDbArc
 50
159.3476462858
 51
173.4977967369
  0
ARC
  5
C4
330
5E
100
AcDbEntity
  8
$DDT_AUDIT_GENERATED_(AD)
  6
Continuous
 62
     7
100
AcDbCircle
 10
-110.2407052157
 20
319.8883107931
 30
0.0
 40
126.8510944857425
100
AcDbArc
 50
6.4792036225
 51
20.6083073249
  0
LINE
  5
C5
330
5E
100
AcDbEntity
  8
$DDT_AUDIT_GENERATED_(AD)
  6
Continuous
 62
     7
100
AcDbLine
 10
50.0836408732
 20
366.7585223203
 30
0.0
 11
47.1763531167
 21
367.7121998265
 31
0.0
  0
LINE
  5
C6
330
5E
100
AcDbEntity
  8
$DDT_AUDIT_GENERATED_(AD)
  6
Continuous
 62
     7
100
AcDbLine
 10
15.5269907895
 20
367.7121998265
 30
0.0
 11
12.620415478
 21
366.7587560236
 31
0.0
  0
ARC
  5
C7
330
5E
100
AcDbEntity
  8
$DDT_AUDIT_GENERATED_(AD)
  6
Continuous
 62
     7
100
AcDbCircle
 10
47.1413160636
 20
367.4100609643
 30
0.0
 40
0.2999999516479933
100
AcDbArc
 50
90.2472555694
 51
101.3921512126
  0
ARC
  5
C8
330
5E
100
AcDbEntity
  8
$DDT_AUDIT_GENERATED_(AD)
  6
Continuous
 62
     7
100
AcDbCircle
 10
47.1413160549
 20
367.410062964
 30
0.0
 40
0.2999979518793405
100
AcDbArc
 50
89.9116274984
 51
90.2472555694
  0
ARC
  5
C9
330
5E
100
AcDbEntity
  8
$DDT_AUDIT_GENERATED_(AD)
  6
Continuous
 62
     7
100
AcDbCircle
 10
15.5620294539
 20
367.4100609679
 30
0.0
 40
0.2999999513700319
100
AcDbArc
 50
78.6063135448
 51
89.7505094855
  0
ARC
  5
CA
330
5E
100
AcDbEntity
  8
$DDT_AUDIT_GENERATED_(AD)
  6
Continuous
 62
     7
100
AcDbCircle
 10
15.5620294629
 20
367.4100630479
 30
0.0
 40
0.299997871319331
100
AcDbArc
 50
89.7505094855
 51
90.0875407829
  0
LINE
  5
CB
330
5E
100
AcDbEntity
  8
$DDT_AUDIT_GENERATED_(AD)
  6
Continuous
 62
     7
100
AcDbLine
 10
28.8131615399
 20
367.710194802
 30
0.0
 11
28.3013308665
 21
367.7102020584
 31
0.0
  0
SPLINE
  5
CC
330
5E
100
AcDbEntity
  8
$DDT_AUDIT_GENERATED_(AD)
  6
Continuous
 62
     7
100
AcDbSpline
210
0.0
220
0.0
230
1.0
 70
     8
 71
     3
 72
    12
 73
     8
 74
     0
 42
0.00000002134785
 43
0.0000000001
 40
0.0
 40
0.0
 40
0.0
 40
0.0
 40
0.0945097582104099
 40
0.3932291274011266
 40
0.653555293586951
 40
0.9157983979977535
 40
1.0
 40
1.0
 40
1.0
 40
1.0
 10
54.19933349188166
 20
364.5492979470251
 30
0.0
 10
54.20861477197127
 20
364.5663418064837
 30
0.0
 10
54.24134423855496
 20
364.6267839503085
 30
0.0
 10
54.22239158632512
 20
364.7657245307793
 30
0.0
 10
54.16089809707893
 20
364.8749000591581
 30
0.0
 10
54.11475279068561
 20
364.9279944561923
 30
0.0
 10
54.08811025222861
 20
364.9501609217888
 30
0.0
 10
54.08053744211651
 20
364.9563126265823
 30
0.0
  0
SPLINE
  5
CD
330
5E
100
AcDbEntity
  8
$DDT_AUDIT_GENERATED_(AD)
  6
Continuous
 62
     7
100
AcDbSpline
210
0.0
220
0.0
230
1.0
 70
     8
 71
     3
 72
    13
 73
     9
 74
     0
 42
0.00000001553746
 43
0.0000000001
 40
0.0
 40
0.0
 40
0.0
 40
0.0
 40
0.100970420850962
 40
0.3711051997704306
 40
0.5876907042673394
 40
0.7689511203287339
 40
0.951026643212438
 40
1.0
 40
1.0
 40
1.0
 40
1.0
 10
8.760653311920128
 20
365.062902293318
 30
0.0
 10
8.742736393114157
 20
365.0516173235702
 30
0.0
 10
8.686413492158671
 20
365.015815554734
 30
0.0
 10
8.618440481137135
 20
364.9572346492482
 30
0.0
 10
8.538874371999212
 20
364.874789474247
 30
0.0
 10
8.477382272965375
 20
364.7514892848008
 30
0.0
 10
8.463360206959157
 20
364.6166862516648
 30
0.0
 10
8.495252113515543
 20
364.5628754655721
 30
0.0
 10
8.50318880757692
 20
364.5495419178786
 30
0.0
  0
LINE
  5
D0
330
5E
100
AcDbEntity
  8
DV1_Standard
  6
CENTER2
 62
     7
100
AcDbLine
 10
51.3516715061
 20
277.4342487299
 30
0.0
 11
11.3516724002
 21
277.4342487299
 31
0.0
  0
LINE
  5
D1
330
5E
100
AcDbEntity
  8
DV1_Standard
  6
CENTER2
 62
     7
100
AcDbLine
 10
31.3516719531
 20
297.4342482829
 30
0.0
 11
31.3516719531
 21
257.4342491769
 31
0.0
  0
ARC
  5
D2
330
5E
100
AcDbEntity
  8
DV1_Standard
  6
Continuous
 62
     7
100
AcDbCircle
 10
15.8253256073
 20
324.7263389779
 30
0.0
 40
1.039788619606204
100
AcDbArc
 50
124.680850576
 51
177.7082539696
  0
ARC
  5
D3
330
5E
100
AcDbEntity
  8
DV1_Standard
  6
Continuous
 62
     7
100
AcDbCircle
 10
31.3516719531
 20
310.7453625969
 30
0.0
 40
59.00000000000009
100
AcDbArc
 50
84.0540494663
 51
95.3115342763
  0
ENDBLK
  5
D5
330
5E
100
AcDbEntity
  8
0
100
AcDbBlockEnd
  0
BLOCK
  5
13F
330
D6
100
AcDbEntity
  8
0
100
AcDbBlockBegin
  2
SE1
 70
     0
 10
0.0
 20
0.0
 30
0.0
  3
SE1
  1

  0
ARC
  5
D9
330
D6
100
AcDbEntity
  8
$DDT_AUDIT_GENERATED_(D8)
  6
Continuous
 62
     7
100
AcDbCircle
 10
151.5046592613
 20
324.7453625969
 30
0.0
 40
1.000000000000001
100
AcDbArc
 50
64.1580672368
 51
90.0
  0
LINE
  5
DB
330
D6
100
AcDbEntity
  8
$DDT_AUDIT_GENERATED_(DA)
  6
Continuous
 62
     7
100
AcDbLine
 10
170.4142506334
 20
325.7453625969
 30
0.0
 11
170.2364561245
 21
325.7453625969
 31
0.0
  0
LINE
  5
DC
330
D6
100
AcDbEntity
  8
$DDT_AUDIT_GENERATED_(DA)
  6
Continuous
 62
     7
100
AcDbLine
 10
148.2904394193
 20
326.7453625969
 30
0.0
 11
148.2983012158
 21
325.8444899433
 31
0.0
  0
ARC
  5
DD
330
D6
100
AcDbEntity
  8
$DDT_AUDIT_GENERATED_(DA)
  6
Continuous
 62
     7
100
AcDbCircle
 10
148.3982974081
 20
325.8453625969
 30
0.0
 40
0.0999999999999994
100
AcDbArc
 50
180.5000000001
 51
270.0
  0
ARC
  5
DE
330
D6
100
AcDbEntity
  8
$DDT_AUDIT_GENERATED_(60)
  6
Continuous
 62
     7
100
AcDbCircle
 10
198.6432363672
 20
348.5546003277
 30
0.0
 40
59.49191920845637
100
AcDbArc
 50
346.2999603318
 51
348.4041018738
  0
ARC
  5
DF
330
D6
100
AcDbEntity
  8
$DDT_AUDIT_GENERATED_(60)
  6
Continuous
 62
     7
100
AcDbCircle
 10
225.0765229105
 20
341.5441931437
 30
0.0
 40
32.15506381292315
100
AcDbArc
 50
333.6052588039
 51
347.2809667622
  0
LINE
  5
E0
330
D6
100
AcDbEntity
  8
$DDT_AUDIT_GENERATED_(60)
  6
Continuous
 62
     7
100
AcDbLine
 10
253.8795038506
 20
327.24956416
 30
0.0
 11
252.6074746059
 21
325.1638789995
 31
0.0
  0
SPLINE
  5
E1
330
D6
100
AcDbEntity
  8
$DDT_AUDIT_GENERATED_(60)
  6
Continuous
 62
     7
100
AcDbSpline
210
0.0
220
0.0
230
1.0
 70
    12
 71
     3
 72
    42
 73
    38
 74
     0
 42
0.0000000001702144
 43
0.0000000001
 40
0.5002430271815904
 40
0.5002430271815904
 40
0.5002430271815904
 40
0.5002430271815904
 40
0.5194254441574625
 40
0.5194254441574625
 40
0.5391199872056036
 40
0.5391199872056036
 40
0.5588145302537448
 40
0.5588145302537448
 40
0.5785090733018853
 40
0.5785090733018853
 40
0.5982036163500265
 40
0.5982036163500265
 40
0.6178981593981677
 40
0.6178981593981677
 40
0.6375927024463088
 40
0.6375927024463088
 40
0.6572872454944493
 40
0.6572872454944493
 40
0.6966763315907316
 40
0.6966763315907316
 40
0.7163708746388728
 40
0.7163708746388728
 40
0.7360654176870133
 40
0.7360654176870133
 40
0.7754545037832957
 40
0.7754545037832957
 40
0.8148435898795774
 40
0.8148435898795774
 40
0.8542326759758598
 40
0.8542326759758598
 40
0.8936217620721417
 40
0.8936217620721417
 40
0.9330108481684238
 40
0.9330108481684238
 40
0.9723999342647056
 40
0.9723999342647056
 40
1.0
 40
1.0
 40
1.0
 40
1.0
 10
190.9341246724529
 20
304.5766360823922
 30
0.0
 41
1.0
 10
190.9363051943642
 20
304.5771607420136
 30
0.0
 41
1.0
 10
190.9285074962582
 20
304.5997862550515
 30
0.0
 41
1.0
 10
190.8869208970597
 20
304.6875326781476
 30
0.0
 41
1.0
 10
190.8524081662358
 20
304.753782807511
 30
0.0
 41
1.0
 10
190.7436669650744
 20
304.9252028431461
 30
0.0
 41
1.0
 10
190.6688637293182
 20
305.030407191702
 30
0.0
 41
1.0
 10
190.4697294113554
 20
305.2729235372916
 30
0.0
 41
1.0
 10
190.3445993892543
 20
305.4103311605685
 30
0.0
 41
1.0
 10
190.0467279494526
 20
305.7075393037846
 30
0.0
 41
1.0
 10
189.8733898739397
 20
305.8675744516987
 30
0.0
 41
1.0
 10
189.4627740785797
 20
306.2060300383403
 30
0.0
 41
1.0
 10
189.2240542130943
 20
306.38464168567
 30
0.0
 41
1.0
 10
188.6755537440359
 20
306.7598368333872
 30
0.0
 41
1.0
 10
188.3647236642669
 20
306.9567345672362
 30
0.0
 41
1.0
 10
187.7110740147424
 20
307.3616643746181
 30
0.0
 41
1.0
 10
187.3660900391323
 20
307.5702546328897
 30
0.0
 41
1.0
 10
186.2853381771528
 20
308.2180688555173
 30
0.0
 41
1.0
 10
185.5052935296906
 20
308.6791126796368
 30
0.0
 41
1.0
 10
184.2926576454571
 20
309.4310646418871
 30
0.0
 41
1.0
 10
183.8806771799179
 20
309.6921658769774
 30
0.0
 41
1.0
 10
183.0744479310215
 20
310.2267136259695
 30
0.0
 41
1.0
 10
182.6765202396122
 20
310.5012218416151
 30
0.0
 41
1.0
 10
181.4991410543985
 20
311.3468006528919
 30
0.0
 41
1.0
 10
180.7359881713204
 20
311.9400779685893
 30
0.0
 41
1.0
 10
179.2506516321343
 20
313.1835079371692
 30
0.0
 41
1.0
 10
178.5423252711603
 20
313.8260330733481
 30
0.0
 41
1.0
 10
177.1872953918118
 20
315.1408042193345
 30
0.0
 41
1.0
 10
176.5382307059191
 20
315.8143449973513
 30
0.0
 41
1.0
 10
175.2886841230137
 20
317.1919750165995
 30
0.0
 41
1.0
 10
174.6882950699906
 20
317.8960463265573
 30
0.0
 41
1.0
 10
173.5395744497792
 20
319.33483066952
 30
0.0
 41
1.0
 10
172.9898860472053
 20
320.0717870645682
 30
0.0
 41
1.0
 10
171.9648699357911
 20
321.5651556456581
 30
0.0
 41
1.0
 10
171.4880285764474
 20
322.3217855845652
 30
0.0
 41
1.0
 10
170.7473101657584
 20
323.627480209308
 30
0.0
 41
1.0
 10
170.4622993074144
 20
324.170883229599
 30
0.0
 41
1.0
 10
170.201753103332
 20
324.7208019388289
 30
0.0
 41
1.0
  0
ARC
  5
E2
330
D6
100
AcDbEntity
  8
$DDT_AUDIT_GENERATED_(60)
  6
Continuous
 62
     7
100
AcDbCircle
 10
255.9414580671
 20
336.7979666442
 30
0.0
 40
0.9999999772755006
100
AcDbArc
 50
348.3632830382
 51
70.3836156722
  0
ARC
  5
E3
330
D6
100
AcDbEntity
  8
$DDT_AUDIT_GENERATED_(60)
  6
Continuous
 62
     7
100
AcDbCircle
 10
229.2489123122
 20
492.1168498653
 30
0.0
 40
157.9632637355412
100
AcDbArc
 50
273.1830455682
 51
280.0891285139
  0
ARC
  5
E4
330
D6
100
AcDbEntity
  8
$DDT_AUDIT_GENERATED_(60)
  6
Continuous
 62
     7
100
AcDbCircle
 10
592.5914544091
 20
-2601.7102511319
 30
0.0
 40
2957.43883096757
100
AcDbArc
 50
96.8965888428
 51
98.1624530481
  0
LINE
  5
E5
330
D6
100
AcDbEntity
  8
$DDT_AUDIT_GENERATED_(60)
  6
Continuous
 62
     7
100
AcDbLine
 10
170.1750413798
 20
325.7458468163
 30
0.0
 11
170.1001163121
 21
325.7453625969
 31
0.0
  0
LINE
  5
E6
330
D6
100
AcDbEntity
  8
$DDT_AUDIT_GENERATED_(60)
  6
Continuous
 62
     7
100
AcDbLine
 10
170.1001163121
 20
325.7453625969
 30
0.0
 11
164.528938014
 21
325.7453625969
 31
0.0
  0
LINE
  5
E7
330
D6
100
AcDbEntity
  8
$DDT_AUDIT_GENERATED_(60)
  6
Continuous
 62
     7
100
AcDbLine
 10
164.528938014
 20
325.7453625969
 30
0.0
 11
146.1890454681
 21
325.7453625969
 31
0.0
  0
LINE
  5
E8
330
D6
100
AcDbEntity
  8
$DDT_AUDIT_GENERATED_(60)
  6
Continuous
 62
     7
100
AcDbLine
 10
179.3900739122
 20
285.4342487299
 30
0.0
 11
144.3094183856
 21
285.4342487299
 31
0.0
  0
ARC
  5
E9
330
D6
100
AcDbEntity
  8
$DDT_AUDIT_GENERATED_(60)
  6
Continuous
 62
     7
100
AcDbCircle
 10
252.3633932504
 20
325.338304605
 30
0.0
 40
0.2999999999305535
100
AcDbArc
 50
266.8443352424
 51
324.4496161515
  0
SPLINE
  5
EA
330
D6
100
AcDbEntity
  8
$DDT_AUDIT_GENERATED_(60)
  6
Continuous
 62
     7
100
AcDbSpline
210
0.0
220
0.0
230
1.0
 70
     8
 71
     3
 72
    12
 73
     8
 74
     0
 42
0.0000000196896795
 43
0.0000000001
 40
0.4101382297700251
 40
0.4101382297700251
 40
0.4101382297700251
 40
0.4101382297700251
 40
0.5
 40
0.5
 40
0.75
 40
0.75
 40
1.0
 40
1.0
 40
1.0
 40
1.0
 10
239.7351671213465
 20
324.7772933649266
 30
0.0
 10
239.73416111891
 20
324.777229334323
 30
0.0
 10
239.7325716537756
 20
324.7798782605983
 30
0.0
 10
239.724411156453
 20
324.8003863026908
 30
0.0
 10
239.7140475729814
 20
324.8368450984426
 30
0.0
 10
239.68883617583
 20
324.9376023413978
 30
0.0
 10
239.6740664429036
 20
325.0015887391975
 30
0.0
 10
239.6601567471834
 20
325.0660800745515
 30
0.0
  0
LINE
  5
EB
330
D6
100
AcDbEntity
  8
$DDT_AUDIT_GENERATED_(60)
  6
Continuous
 62
     7
100
AcDbLine
 10
256.4715030076
 20
334.5854572905
 30
0.0
 11
256.4764934165
 21
334.6042209542
 31
0.0
  0
SPLINE
  5
EC
330
D6
100
AcDbEntity
  8
$DDT_AUDIT_GENERATED_(60)
  6
Continuous
 62
     7
100
AcDbSpline
210
0.0
220
0.0
230
1.0
 70
     8
 71
     3
 72
    10
 73
     6
 74
     0
 42
0.0000000002507994
 43
0.0000000001
 40
0.0
 40
0.0
 40
0.0
 40
0.0
 40
0.1613196124013129
 40
0.7489338279396431
 40
1.0
 40
1.0
 40
1.0
 40
1.0
 10
190.9240107988909
 20
304.6157651503169
 30
0.0
 10
193.2118063779576
 20
305.1883203218522
 30
0.0
 10
202.2485474413228
 20
307.4555831807301
 30
0.0
 10
215.9180600046152
 20
311.1695031866828
 30
0.0
 10
225.8672865816492
 20
314.0646606918047
 30
0.0
 10
229.3903732622329
 20
315.0939681738957
 30
0.0
  0
ARC
  5
ED
330
D6
100
AcDbEntity
  8
$DDT_AUDIT_GENERATED_(60)
  6
Continuous
 62
     7
100
AcDbCircle
 10
243.6748572341
 20
298.9184901728
 30
0.0
 40
40.812230024496
100
AcDbArc
 50
71.8480660732
 51
99.9163435579
  0
ARC
  5
EE
330
D6
100
AcDbEntity
  8
$DDT_AUDIT_GENERATED_(60)
  6
Continuous
 62
     7
100
AcDbCircle
 10
535.251230383
 20
-2120.354233932
 30
0.0
 40
2477.535709285239
100
AcDbArc
 50
96.9223948813
 51
98.2176034251
  0
ARC
  5
EF
330
D6
100
AcDbEntity
  8
$DDT_AUDIT_GENERATED_(60)
  6
Continuous
 62
     7
100
AcDbCircle
 10
139.1065114795
 20
395.2604847402
 30
0.0
 40
76.15256198320952
100
AcDbArc
 50
296.4558577266
 51
303.4903531814
  0
ARC
  5
F0
330
D6
100
AcDbEntity
  8
$DDT_AUDIT_GENERATED_(60)
  6
Continuous
 62
     7
100
AcDbCircle
 10
167.1083033274
 20
338.0144645495
 30
0.0
 40
12.43444528868638
100
AcDbArc
 50
294.4902953046
 51
298.4737799078
  0
ARC
  5
F1
330
D6
100
AcDbEntity
  8
$DDT_AUDIT_GENERATED_(60)
  6
Continuous
 62
     7
100
AcDbCircle
 10
172.687979158
 20
325.7903875661
 30
0.0
 40
1.0
100
AcDbArc
 50
114.8904594012
 51
142.6732603878
  0
SPLINE
  5
F2
330
D6
100
AcDbEntity
  8
$DDT_AUDIT_GENERATED_(60)
  6
Continuous
 62
     7
100
AcDbSpline
210
0.0
220
0.0
230
1.0
 70
     8
 71
     3
 72
    12
 73
     8
 74
     0
 42
0.0000000052573999
 43
0.0000000001
 40
0.0
 40
0.0
 40
0.0
 40
0.0
 40
0.071170696330455
 40
0.2718548591221433
 40
0.5090453099982561
 40
0.7871567444242463
 40
1.0
 40
1.0
 40
1.0
 40
1.0
 10
171.8844474164101
 20
326.4029732046909
 30
0.0
 10
171.8562726362609
 20
326.362581889084
 30
0.0
 10
171.7631635040727
 20
326.2305680661767
 30
0.0
 10
171.4802200885049
 20
326.0459885716673
 30
0.0
 10
171.0721556671237
 20
325.8707941911207
 30
0.0
 10
170.6096617396867
 20
325.7661603376591
 30
0.0
 10
170.3219211703814
 20
325.7585644199903
 30
0.0
 10
170.1745805873825
 20
325.7564338742811
 30
0.0
  0
ARC
  5
F3
330
D6
100
AcDbEntity
  8
$DDT_AUDIT_GENERATED_(60)
  6
Continuous
 62
     7
100
AcDbCircle
 10
146.1890415637
 20
324.745362597
 30
0.0
 40
0.9999999968910904
100
AcDbArc
 50
89.9999501052
 51
179.1339136108
  0
ARC
  5
F4
330
D6
100
AcDbEntity
  8
$DDT_AUDIT_GENERATED_(60)
  6
Continuous
 62
     7
100
AcDbCircle
 10
194.6597875749
 20
290.0464830623
 30
0.0
 40
15.00019702483573
100
AcDbArc
 50
104.3813297787
 51
176.9235474176
  0
LINE
  5
F5
330
D6
100
AcDbEntity
  8
$DDT_AUDIT_GENERATED_(60)
  6
Continuous
 62
     7
100
AcDbLine
 10
179.3900055273
 20
285.4329070622
 30
0.0
 11
179.6812163629
 21
290.8512886398
 31
0.0
  0
LINE
  5
F6
330
D6
100
AcDbEntity
  8
$DDT_AUDIT_GENERATED_(60)
  6
Continuous
 62
     7
100
AcDbLine
 10
145.1893144877
 20
324.7687496961
 30
0.0
 11
144.3094269058
 21
285.4348500554
 31
0.0
  0
SPLINE
  5
F7
330
D6
100
AcDbEntity
  8
$DDT_AUDIT_GENERATED_(60)
  6
Continuous
 62
     7
100
AcDbSpline
210
0.0
220
0.0
230
1.0
 70
     8
 71
     3
 72
    37
 73
    33
 74
     0
 42
0.0000000006929655
 43
0.0000000001
 40
0.0
 40
0.0
 40
0.0
 40
0.0
 40
0.0016510093426644
 40
0.0035167423765878
 40
0.0047685848551271
 40
0.0051943973923576
 40
0.0054607427734878
 40
0.0057276510010942
 40
0.0061435130574148
 40
0.0070367810844703
 40
0.0100080839204478
 40
0.0250373837232048
 40
0.0750723893651416
 40
0.1279735216365107
 40
0.181376241377813
 40
0.2352754229411454
 40
0.2892719880834332
 40
0.3428693792867386
 40
0.3944060798724973
 40
0.449374477991672
 40
0.5061003659930627
 40
0.5647148785483073
 40
0.6250236105307748
 40
0.6865143310171608
 40
0.7413760683510189
 40
0.7923656620877981
 40
0.8388424016478272
 40
0.8811751463451183
 40
0.9200697128667376
 40
0.9563733766176012
 40
0.9948278105821552
 40
1.0
 40
1.0
 40
1.0
 40
1.0
 10
229.4049418095517
 20
315.0490070367768
 30
0.0
 10
229.4169046708327
 20
315.0536168764917
 30
0.0
 10
229.4384382652406
 20
315.0621173328635
 30
0.0
 10
229.467482444036
 20
315.0806090994618
 30
0.0
 10
229.4872774804299
 20
315.0960840843846
 30
0.0
 10
229.4969189849893
 20
315.1046170022684
 30
0.0
 10
229.5002756671524
 20
315.1077046048928
 30
0.0
 10
229.5023403473691
 20
315.1096419625175
 30
0.0
 10
229.5041840793668
 20
315.1114012186288
 30
0.0
 10
229.5061157773234
 20
315.1132756286289
 30
0.0
 10
229.5081565528956
 20
315.1152879318957
 30
0.0
 10
229.5178434982767
 20
315.1248718490548
 30
0.0
 10
229.5718381423881
 20
315.1790357812808
 30
0.0
 10
229.7158251861069
 20
315.3274115150111
 30
0.0
 10
229.9349086828727
 20
315.55934395029
 30
0.0
 10
230.2230043229378
 20
315.8726767060986
 30
0.0
 10
230.5742492697321
 20
316.2663297011243
 30
0.0
 10
230.9785012850649
 20
316.7309934919957
 30
0.0
 10
231.4339191281989
 20
317.2783262261189
 30
0.0
 10
231.9354281809757
 20
317.9029030136739
 30
0.0
 10
232.5006147483505
 20
318.614988436219
 30
0.0
 10
233.1254282554691
 20
319.3999428553323
 30
0.0
 10
233.8121432401444
 20
320.2452392641233
 30
0.0
 10
234.5262264877915
 20
321.1027223964302
 30
0.0
 10
235.2545793281263
 20
321.9180689257821
 30
0.0
 10
235.9787378626709
 20
322.6371782798324
 30
0.0
 10
236.7023386603803
 20
323.2601552943022
 30
0.0
 10
237.4186394581202
 20
323.7785990386958
 30
0.0
 10
238.1300940275789
 20
324.1986641662189
 30
0.0
 10
238.8549446299272
 20
324.5223140942459
 30
0.0
 10
239.4103268849465
 20
324.7153554863343
 30
0.0
 10
239.6966391103047
 20
324.7641305816074
 30
0.0
 10
239.7361441666754
 20
324.7708095651314
 30
0.0
  0
SPLINE
  5
F8
330
D6
100
AcDbEntity
  8
$DDT_AUDIT_GENERATED_(60)
  6
Continuous
 62
     7
100
AcDbSpline
210
0.0
220
0.0
230
1.0
 70
     8
 71
     3
 72
     8
 73
     4
 74
     0
 42
0.0000000017747826
 43
0.0000000001
 40
0.0
 40
0.0
 40
0.0
 40
0.0
 40
0.0215086788918304
 40
0.0215086788918304
 40
0.0215086788918304
 40
0.0215086788918304
 10
229.8087570190413
 20
315.4258316321328
 30
0.0
 10
229.8374206769313
 20
315.4562729750284
 30
0.0
 10
229.8646740763995
 20
315.485257854397
 30
0.0
 10
229.8917436684151
 20
315.5141511484777
 30
0.0
  0
SPLINE
  5
F9
330
D6
100
AcDbEntity
  8
$DDT_AUDIT_GENERATED_(60)
  6
Continuous
 62
     7
100
AcDbSpline
210
0.0
220
0.0
230
1.0
 70
     8
 71
     3
 72
     9
 73
     5
 74
     0
 42
0.0000000106812328
 43
0.0000000001
 40
0.8807546723833863
 40
0.8807546723833863
 40
0.8807546723833863
 40
0.8807546723833863
 40
0.989192141444735
 40
1.0
 40
1.0
 40
1.0
 40
1.0
 10
229.7322176619614
 20
315.3445606395075
 30
0.0
 10
229.7528407731902
 20
315.3661996815729
 30
0.0
 10
229.7777704720599
 20
315.3925988596916
 30
0.0
 10
229.805808379208
 20
315.4226693583084
 30
0.0
 10
229.8087570190413
 20
315.4258316321328
 30
0.0
  0
SPLINE
  5
FA
330
D6
100
AcDbEntity
  8
$DDT_AUDIT_GENERATED_(60)
  6
Continuous
 62
     7
100
AcDbSpline
210
0.0
220
0.0
230
1.0
 70
     8
 71
     3
 72
    25
 73
    21
 74
     0
 42
0.0000000007452409
 43
0.0000000001
 40
0.0
 40
0.0
 40
0.0
 40
0.0
 40
0.0372541538332637
 40
0.0826815258316132
 40
0.132649194347626
 40
0.1878190590123738
 40
0.2483781164064401
 40
0.3136243341132524
 40
0.37696719709771
 40
0.4387854605381273
 40
0.4988785948260949
 40
0.557198793149942
 40
0.6127513066575462
 40
0.6714061391360292
 40
0.7305593455155269
 40
0.7900131450451683
 40
0.8496464191217069
 40
0.8980517906186061
 40
0.9327826580504208
 40
0.9436884227978258
 40
0.9436884227978258
 40
0.9436884227978258
 40
0.9436884227978258
 10
239.7402996792779
 20
324.7453985750627
 30
0.0
 10
240.0058235255761
 20
324.7961453677158
 30
0.0
 10
240.5048534004449
 20
324.8894677362488
 30
0.0
 10
241.3908971385342
 20
324.9545891885362
 30
0.0
 10
242.3605921915166
 20
324.9616770838628
 30
0.0
 10
243.4171367379274
 20
324.9104356488102
 30
0.0
 10
244.5395038126962
 20
324.8213470016416
 30
0.0
 10
245.6738661536615
 20
324.7426607983448
 30
0.0
 10
246.7639111904763
 20
324.6794450288831
 30
0.0
 10
247.7648632661675
 20
324.6436971885433
 30
0.0
 10
248.6711309760851
 20
324.6390200480506
 30
0.0
 10
249.4691646268047
 20
324.676656193407
 30
0.0
 10
250.1731671856713
 20
324.7279286187881
 30
0.0
 10
250.7951998355481
 20
324.7873569603715
 30
0.0
 10
251.3345827363265
 20
324.8526111811602
 30
0.0
 10
251.774211753445
 20
324.9179551918508
 30
0.0
 10
252.0907075568685
 20
324.9760457533405
 30
0.0
 10
252.2749654526881
 20
325.0182873287867
 30
0.0
 10
252.3421699214837
 20
325.031667363235
 30
0.0
 10
252.3515434934674
 20
325.0323617118117
 30
0.0
 10
252.3515507014756
 20
325.0323679614304
 30
0.0
  0
LINE
  5
FB
330
D6
100
AcDbEntity
  8
$DDT_AUDIT_GENERATED_(84)
  6
Continuous
 62
     7
100
AcDbLine
 10
134.2546592613
 20
277.4342487299
 30
0.0
 11
184.2546592613
 21
277.4342487299
 31
0.0
  0
LINE
  5
FC
330
D6
100
AcDbEntity
  8
$DDT_AUDIT_GENERATED_(84)
  6
Continuous
 62
     7
100
AcDbLine
 10
178.7400403126
 20
285.4342487299
 30
0.0
 11
144.5698814922
 21
285.4342487299
 31
0.0
  0
LINE
  5
FD
330
D6
100
AcDbEntity
  8
$DDT_AUDIT_GENERATED_(84)
  6
Continuous
 62
     7
100
AcDbLine
 10
184.2546592613
 20
277.4342487299
 30
0.0
 11
184.2546592613
 21
278.1136392286
 31
0.0
  0
LINE
  5
FE
330
D6
100
AcDbEntity
  8
$DDT_AUDIT_GENERATED_(84)
  6
Continuous
 62
     7
100
AcDbLine
 10
134.2546592613
 20
277.9135931683
 30
0.0
 11
134.2546592613
 21
277.4342487299
 31
0.0
  0
LINE
  5
FF
330
D6
100
AcDbEntity
  8
$DDT_AUDIT_GENERATED_(84)
  6
Continuous
 62
     7
100
AcDbLine
 10
143.9964188811
 20
285.2534804637
 30
0.0
 11
134.681196917
 21
278.7328250888
 31
0.0
  0
LINE
  5
100
330
D6
100
AcDbEntity
  8
$DDT_AUDIT_GENERATED_(84)
  6
Continuous
 62
     7
100
AcDbLine
 10
184.0969030149
 20
278.6551074749
 30
0.0
 11
179.5520927843
 21
285.0178417977
 31
0.0
  0
ARC
  5
101
330
D6
100
AcDbEntity
  8
$DDT_AUDIT_GENERATED_(84)
  6
Continuous
 62
     7
100
AcDbCircle
 10
135.2547363036
 20
277.913593235
 30
0.0
 40
1.000001013339542
100
AcDbArc
 50
125.1511596244
 51
180.0609817781
  0
ARC
  5
102
330
D6
100
AcDbEntity
  8
$DDT_AUDIT_GENERATED_(84)
  6
Continuous
 62
     7
100
AcDbCircle
 10
183.3931612698
 20
278.1673877808
 30
0.0
 40
0.8506304653815103
100
AcDbArc
 50
356.3719560503
 51
38.6699629675
  0
ARC
  5
103
330
D6
100
AcDbEntity
  8
$DDT_AUDIT_GENERATED_(84)
  6
Continuous
 62
     7
100
AcDbCircle
 10
178.7400367443
 20
284.4342490458
 30
0.0
 40
0.9999996841206998
100
AcDbArc
 50
35.6966766069
 51
90.000529639
  0
ARC
  5
104
330
D6
100
AcDbEntity
  8
$DDT_AUDIT_GENERATED_(84)
  6
Continuous
 62
     7
100
AcDbCircle
 10
144.5699043181
 20
284.4342509202
 30
0.0
 40
0.9999978097294192
100
AcDbArc
 50
89.9973841246
 51
125.0629358907
  0
LINE
  5
106
330
D6
100
AcDbEntity
  8
$DDT_AUDIT_GENERATED_(105)
  6
Continuous
 62
     7
100
AcDbLine
 10
233.4098089785
 20
314.4048645908
 30
0.0
 11
250.3242761527
 21
320.5612271707
 31
0.0
  0
LINE
  5
107
330
D6
100
AcDbEntity
  8
$DDT_AUDIT_GENERATED_(105)
  6
Continuous
 62
     7
100
AcDbLine
 10
233.2730009212
 20
314.7807416391
 30
0.0
 11
233.4098089785
 21
314.4048645908
 31
0.0
  0
LINE
  5
108
330
D6
100
AcDbEntity
  8
$DDT_AUDIT_GENERATED_(105)
  6
Continuous
 62
     7
100
AcDbLine
 10
250.3242761527
 20
320.5612271707
 30
0.0
 11
250.1874680953
 21
320.937104219
 31
0.0
  0
LINE
  5
109
330
D6
100
AcDbEntity
  8
02636038_GEHÄUSE
  6
Continuous
 62
     7
100
AcDbLine
 10
231.6285388348
 20
314.1822063883
 30
0.0
 11
251.8319301817
 21
321.5356394698
 31
0.0
  0
LINE
  5
10A
330
D6
100
AcDbEntity
  8
02636038_GEHÄUSE
  6
Continuous
 62
     7
100
AcDbLine
 10
252.2401551412
 20
322.0221430318
 30
0.0
 11
244.0521467143
 21
319.0419516865
 31
0.0
  0
SPLINE
  5
10B
330
D6
100
AcDbEntity
  8
02636038_GEHÄUSE
  6
Continuous
 62
     7
100
AcDbSpline
210
0.0
220
0.0
230
1.0
 70
     8
 71
     3
 72
    10
 73
     6
 74
     0
 42
0.0000000019260148
 43
0.0000000001
 40
0.0
 40
0.0
 40
0.0
 40
0.0
 40
0.5
 40
0.5
 40
1.0
 40
1.0
 40
1.0
 40
1.0
 10
244.0521467142766
 20
319.0419516864918
 30
0.0
 10
243.2810743052227
 20
318.6400754472072
 30
0.0
 10
242.4912474196973
 20
318.289520571253
 30
0.0
 10
240.8709089034245
 20
317.6997440572913
 30
0.0
 10
240.0403967246366
 20
317.4605239189888
 30
0.0
 10
239.1911103382624
 20
317.2726791379374
 30
0.0
  0
LINE
  5
10C
330
D6
100
AcDbEntity
  8
02636038_GEHÄUSE
  6
Continuous
 62
     7
100
AcDbLine
 10
244.7174427363
 20
322.138711125
 30
0.0
 11
236.6909054203
 21
319.2172904578
 31
0.0
  0
LINE
  5
10D
330
D6
100
AcDbEntity
  8
02636038_GEHÄUSE
  6
Continuous
 62
     7
100
AcDbLine
 10
244.7174427363
 20
322.138711125
 30
0.0
 11
245.3386990515
 21
320.4318234272
 31
0.0
  0
SPLINE
  5
10E
330
D6
100
AcDbEntity
  8
02636038_GEHÄUSE
  6
Continuous
 62
     7
100
AcDbSpline
210
0.0
220
0.0
230
1.0
 70
     8
 71
     3
 72
    14
 73
    10
 74
     0
 42
0.0000000049321089
 43
0.0000000001
 40
0.0
 40
0.0
 40
0.0
 40
0.0
 40
0.1250000000000004
 40
0.1250000000000004
 40
0.2500000000000009
 40
0.2500000000000009
 40
0.5000000000000008
 40
0.5000000000000008
 40
1.0
 40
1.0
 40
1.0
 40
1.0
 10
245.3386990515385
 20
320.4318234271876
 30
0.0
 10
245.3675112726709
 20
320.3526625002219
 30
0.0
 10
245.3660941831949
 20
320.2626097259709
 30
0.0
 10
245.3236823722453
 20
320.0990417767162
 30
0.0
 10
245.2845469802688
 20
320.021994778885
 30
0.0
 10
245.1461242072802
 20
319.8107934977201
 30
0.0
 10
245.0239637744918
 20
319.6903434195229
 30
0.0
 10
244.6402010743883
 20
319.3682948233694
 30
0.0
 10
244.3489335372539
 20
319.1966343996675
 30
0.0
 10
244.0521467142766
 20
319.0419516864918
 30
0.0
  0
SPLINE
  5
10F
330
D6
100
AcDbEntity
  8
02636038_GEHÄUSE
  6
Continuous
 62
     7
100
AcDbSpline
210
0.0
220
0.0
230
1.0
 70
     8
 71
     3
 72
    18
 73
    14
 74
     0
 42
0.0000000049401632
 43
0.0000000001
 40
0.0
 40
0.0
 40
0.0
 40
0.0
 40
0.2499999999999998
 40
0.2499999999999998
 40
0.4999999999999997
 40
0.4999999999999997
 40
0.6249999999999992
 40
0.6249999999999992
 40
0.7499999999999989
 40
0.7499999999999989
 40
0.8749999999999994
 40
0.8749999999999994
 40
1.0
 40
1.0
 40
1.0
 40
1.0
 10
239.1911103382624
 20
317.2726791379374
 30
0.0
 10
239.0272315379339
 20
317.2364324985695
 30
0.0
 10
238.8624030810392
 20
317.2052516696465
 30
0.0
 10
238.5296522807913
 20
317.1593939174144
 30
0.0
 10
238.3618367734539
 20
317.1445555990904
 30
0.0
 10
238.111175839727
 20
317.1447669082042
 30
0.0
 10
238.0276584298578
 20
317.1486022139334
 30
0.0
 10
237.8607335989757
 20
317.1677009205768
 30
0.0
 10
237.7768464822222
 20
317.1830728562542
 30
0.0
 10
237.6166063578579
 20
317.231486027057
 30
0.0
 10
237.5381153453856
 20
317.2647561182065
 30
0.0
 10
237.3995133027192
 20
317.3634627131269
 30
0.0
 10
237.3414902991213
 20
317.4298231937786
 30
0.0
 10
237.3121617355484
 20
317.5104027599403
 30
0.0
  0
LINE
  5
110
330
D6
100
AcDbEntity
  8
02636038_GEHÄUSE
  6
Continuous
 62
     7
100
AcDbLine
 10
237.3121617355
 20
317.5104027599
 30
0.0
 11
236.6909054203
 21
319.2172904578
 31
0.0
  0
LINE
  5
111
330
D6
100
AcDbEntity
  8
02636038_GEHÄUSE
  6
Continuous
 62
     7
100
AcDbLine
 10
239.1911103383
 20
317.2726791379
 30
0.0
 11
231.0031019114
 21
314.2924877926
 31
0.0
  0
LINE
  5
112
330
D6
100
AcDbEntity
  8
02636038_GEHÄUSE
  6
Continuous
 62
     7
100
AcDbLine
 10
231.0031019114
 20
314.2924877926
 30
0.0
 11
231.6285388348
 21
314.1822063883
 31
0.0
  0
LINE
  5
113
330
D6
100
AcDbEntity
  8
02636038_GEHÄUSE
  6
Continuous
 62
     7
100
AcDbLine
 10
251.8319301817
 20
321.5356394698
 30
0.0
 11
252.2401551412
 21
322.0221430318
 31
0.0
  0
ARC
  5
114
330
D6
100
AcDbEntity
  8
02636038_GEHÄUSE
  6
Continuous
 62
     7
100
AcDbCircle
 10
231.1767500891
 20
315.2772955456
 30
0.0
 40
1.000000000000006
100
AcDbArc
 50
200.0
 51
260.0
  0
ARC
  5
115
330
D6
100
AcDbEntity
  8
02636038_GEHÄUSE
  6
Continuous
 62
     7
100
AcDbCircle
 10
251.474110698
 20
322.6649306415
 30
0.0
 40
1.000000000000004
100
AcDbArc
 50
320.0
 51
20.0
  0
LINE
  5
116
330
D6
100
AcDbEntity
  8
02636038_GEHÄUSE
  6
Continuous
 62
     7
100
AcDbLine
 10
229.988330516
 20
315.6186470872
 30
0.0
 11
230.2370574683
 21
314.9352754023
 31
0.0
  0
LINE
  5
117
330
D6
100
AcDbEntity
  8
02636038_GEHÄUSE
  6
Continuous
 62
     7
100
AcDbLine
 10
252.4138033188
 20
323.0069507848
 30
0.0
 11
251.7204347494
 21
324.9119652726
 31
0.0
  0
ARC
  5
118
330
D6
100
AcDbEntity
  8
$DDT_AUDIT_GENERATED_(A8)
  6
Continuous
 62
     7
100
AcDbCircle
 10
161.7546592613
 20
310.7453625969
 30
0.0
 40
59.00000000000001
100
AcDbArc
 50
92.2170511974
 51
105.0455016544
  0
ARC
  5
119
330
D6
100
AcDbEntity
  8
$DDT_AUDIT_GENERATED_(A8)
  6
Continuous
 62
     7
100
AcDbCircle
 10
161.7546592613
 20
310.7453625969
 30
0.0
 40
59.00000000000001
100
AcDbArc
 50
75.2542101807
 51
87.2713934744
  0
ARC
  5
11A
330
D6
100
AcDbEntity
  8
$DDT_AUDIT_GENERATED_(A8)
  6
Continuous
 62
     7
100
AcDbCircle
 10
176.7210100606
 20
367.6087809232
 30
0.0
 40
0.2000000000000005
100
AcDbArc
 50
26.8023751489
 51
75.2742108968
  0
SPLINE
  5
11B
330
D6
100
AcDbEntity
  8
$DDT_AUDIT_GENERATED_(AD)
  6
Continuous
 62
     7
100
AcDbSpline
210
0.0
220
0.0
230
1.0
 70
     8
 71
     3
 72
    30
 73
    26
 74
     0
 42
0.0000000001471024
 43
0.0000000001
 40
0.0
 40
0.0
 40
0.0
 40
0.0
 40
0.0312500000000001
 40
0.0312500000000001
 40
0.0625000000000002
 40
0.0625000000000002
 40
0.0937500000000002
 40
0.0937500000000002
 40
0.1250000000000003
 40
0.1250000000000003
 40
0.1875000000000006
 40
0.1875000000000006
 40
0.2500000000000009
 40
0.2500000000000009
 40
0.2812500000000011
 40
0.2812500000000011
 40
0.3125000000000012
 40
0.3125000000000012
 40
0.3437500000000013
 40
0.3437500000000013
 40
0.3750000000000013
 40
0.3750000000000013
 40
0.4375000000000013
 40
0.4375000000000013
 40
0.4630173843741449
 40
0.4630173843741449
 40
0.4630173843741449
 40
0.4630173843741449
 10
177.3891907292429
 20
367.6981781332655
 30
0.0
 10
177.2083990901893
 20
367.6982735289557
 30
0.0
 10
176.9295894699915
 20
367.6981707532813
 30
0.0
 10
176.1839514766154
 20
367.6981628334106
 30
0.0
 10
175.7105455648995
 20
367.6982718865818
 30
0.0
 10
174.596625322578
 20
367.6981754688568
 30
0.0
 10
173.9605814670846
 20
367.6982905347143
 30
0.0
 10
172.5318162384061
 20
367.6982372542062
 30
0.0
 10
171.7323455849777
 20
367.6982761500328
 30
0.0
 10
169.1952534365573
 20
367.6982731977664
 30
0.0
 10
167.2513501020077
 20
367.6982713277817
 30
0.0
 10
163.2233510342038
 20
367.6983129239444
 30
0.0
 10
161.0973422938385
 20
367.6982386735489
 30
0.0
 10
158.042089564777
 20
367.6983086840807
 30
0.0
 10
157.0253289446665
 20
367.698285870507
 30
0.0
 10
155.0905378794965
 20
367.6982890415449
 30
0.0
 10
154.1678108785686
 20
367.6982701296677
 30
0.0
 10
152.4120363857884
 20
367.6982763580965
 30
0.0
 10
151.5809126860883
 20
367.6982356582894
 30
0.0
 10
150.0821475303669
 20
367.6982578390312
 30
0.0
 10
149.4041208313951
 20
367.6982201518679
 30
0.0
 10
147.5919769193338
 20
367.6981833878723
 30
0.0
 10
146.7265193805218
 20
367.6984281404166
 30
0.0
 10
146.0855822710367
 20
367.6981843993697
 30
0.0
 10
145.9657681345138
 20
367.6981272650257
 30
0.0
 10
145.9133278223831
 20
367.698096974112
 30
0.0
  0
SPLINE
  5
11C
330
D6
100
AcDbEntity
  8
$DDT_AUDIT_GENERATED_(AD)
  6
Continuous
 62
     7
100
AcDbSpline
210
0.0
220
0.0
230
1.0
 70
     8
 71
     3
 72
     8
 73
     4
 74
     0
 42
0.0000000011046793
 43
0.0000000001
 40
0.9515786589418284
 40
0.9515786589418284
 40
0.9515786589418284
 40
0.9515786589418284
 40
0.9646549467314464
 40
0.9646549467314464
 40
0.9646549467314464
 40
0.9646549467314464
 10
177.4894544903507
 20
367.6981482226437
 30
0.0
 10
177.5467723627189
 20
367.6981213784433
 30
0.0
 10
177.5862501793893
 20
367.6981004344345
 30
0.0
 10
177.607826278982
 20
367.6980870727061
 30
0.0
  0
SPLINE
  5
11D
330
D6
100
AcDbEntity
  8
$DDT_AUDIT_GENERATED_(AD)
  6
Continuous
 62
     7
100
AcDbSpline
210
0.0
220
0.0
230
1.0
 70
     8
 71
     3
 72
     8
 73
     4
 74
     0
 42
0.0000000011536039
 43
0.0000000001
 40
0.9725185274675874
 40
0.9725185274675874
 40
0.9725185274675874
 40
0.9725185274675874
 40
1.0
 40
1.0
 40
1.0
 40
1.0
 10
177.6273162786477
 20
367.6980715588941
 30
0.0
 10
177.6273645758822
 20
367.698063921508
 30
0.0
 10
177.5481801840505
 20
367.6980942416162
 30
0.0
 10
177.3891907292429
 20
367.6981781332655
 30
0.0
  0
ARC
  5
11E
330
D6
100
AcDbEntity
  8
$DDT_AUDIT_GENERATED_(AD)
  6
Continuous
 62
     7
100
AcDbCircle
 10
460.10530263
 20
310.4942203083
 30
0.0
 40
286.4076002936798
100
AcDbArc
 50
168.7822205429
 51
176.5478448163
  0
ARC
  5
11F
330
D6
100
AcDbEntity
  8
$DDT_AUDIT_GENERATED_(AD)
  6
Continuous
 62
     7
100
AcDbCircle
 10
187.9072365749
 20
385.4467767938
 30
0.0
 40
21.12673946452369
100
AcDbArc
 50
245.5698549142
 51
263.5372742112
  0
ARC
  5
120
330
D6
100
AcDbEntity
  8
$DDT_AUDIT_GENERATED_(AD)
  6
Continuous
 62
     7
100
AcDbCircle
 10
176.7172186633
 20
358.3373078335
 30
0.0
 40
8.24732703133595
100
AcDbArc
 50
72.7014536251
 51
87.1974808263
  0
ARC
  5
121
330
D6
100
AcDbEntity
  8
$DDT_AUDIT_GENERATED_(AD)
  6
Continuous
 62
     7
100
AcDbCircle
 10
873.0325687301
 20
340.9026071701
 30
0.0
 40
710.2905712637552
100
AcDbArc
 50
177.9286878763
 51
181.1195670389
  0
SPLINE
  5
122
330
D6
100
AcDbEntity
  8
$DDT_AUDIT_GENERATED_(AD)
  6
Continuous
 62
     7
100
AcDbSpline
210
0.0
220
0.0
230
1.0
 70
     8
 71
     3
 72
    14
 73
    10
 74
     0
 42
0.0000000007186814
 43
0.0000000001
 40
0.0
 40
0.0
 40
0.0
 40
0.0
 40
0.25
 40
0.25
 40
0.5
 40
0.5
 40
0.75
 40
0.75
 40
1.0
 40
1.0
 40
1.0
 40
1.0
 10
177.1204608743174
 20
366.5747709672829
 30
0.0
 10
176.329836128557
 20
366.5746192680449
 30
0.0
 10
175.4266443540804
 20
366.5753371957475
 30
0.0
 10
173.4125482473462
 20
366.5754482552048
 30
0.0
 10
172.2848981643631
 20
366.5749524484167
 30
0.0
 10
169.8867186266051
 20
366.5749424892392
 30
0.0
 10
168.6247787470782
 20
366.5755048322632
 30
0.0
 10
165.977581933227
 20
366.5753668124745
 30
0.0
 10
164.5989846324445
 20
366.5747236452255
 30
0.0
 10
163.2060900029905
 20
366.5748825684648
 30
0.0
  0
ARC
  5
123
330
D6
100
AcDbEntity
  8
$DDT_AUDIT_GENERATED_(AD)
  6
Continuous
 62
     7
100
AcDbCircle
 10
163.1083539434
 20
359.2059649767
 30
0.0
 40
7.36956571385706
100
AcDbArc
 50
89.2401142614
 51
108.0802113736
  0
ARC
  5
124
330
D6
100
AcDbEntity
  8
$DDT_AUDIT_GENERATED_(AD)
  6
Continuous
 62
     7
100
AcDbCircle
 10
-283.1853542591
 20
314.1695124825
 30
0.0
 40
431.6075776117129
100
AcDbArc
 50
5.8575002868
 51
6.4789784864
  0
ARC
  5
125
330
D6
100
AcDbEntity
  8
$DDT_AUDIT_GENERATED_(AD)
  6
Continuous
 62
     7
100
AcDbCircle
 10
-283.1853542591
 20
314.1695124825
 30
0.0
 40
431.6075776117129
100
AcDbArc
 50
1.7067307651
 51
5.8575002868
  0
SPLINE
  5
126
330
D6
100
AcDbEntity
  8
$DDT_AUDIT_GENERATED_(AD)
  6
Continuous
 62
     7
100
AcDbSpline
210
0.0
220
0.0
230
1.0
 70
     8
 71
     3
 72
    32
 73
    28
 74
     0
 42
0.0000000004835586
 43
0.0000000001
 40
0.0
 40
0.0
 40
0.0
 40
0.0
 40
0.0625000000000001
 40
0.0625000000000001
 40
0.1250000000000002
 40
0.1250000000000002
 40
0.1875000000000004
 40
0.1875000000000004
 40
0.2500000000000005
 40
0.2500000000000005
 40
0.2812500000000006
 40
0.2812500000000006
 40
0.3125000000000008
 40
0.3125000000000008
 40
0.3750000000000009
 40
0.3750000000000009
 40
0.5000000000000011
 40
0.5000000000000011
 40
0.6250000000000012
 40
0.6250000000000012
 40
0.6875000000000011
 40
0.6875000000000011
 40
0.7500000000000009
 40
0.7500000000000009
 40
0.8125000000000007
 40
0.8125000000000007
 40
0.8157220976013686
 40
0.8157220976013686
 40
0.8157220976013686
 40
0.8157220976013686
 10
160.8212230410893
 20
366.2116434625441
 30
0.0
 10
160.4286547074244
 20
366.0753735124284
 30
0.0
 10
160.0617970733899
 20
365.9250552568212
 30
0.0
 10
159.3460491749666
 20
365.6058372056793
 30
0.0
 10
159.0013998348156
 20
365.4368049871255
 30
0.0
 10
158.229115291865
 20
365.11067176889
 30
0.0
 10
157.8127065389395
 20
364.9502110397349
 30
0.0
 10
156.8713618071529
 20
364.6782671533887
 30
0.0
 10
156.3394922407895
 20
364.5750824755616
 30
0.0
 10
155.5472412460119
 20
364.5143980821746
 30
0.0
 10
155.2836646829558
 20
364.5097939961396
 30
0.0
 10
154.7650789939191
 20
364.5001441476082
 30
0.0
 10
154.5074346863051
 20
364.495666890218
 30
0.0
 10
153.7394216971452
 20
364.4832623245249
 30
0.0
 10
153.2339658591049
 20
364.4763585147808
 30
0.0
 10
151.7373077641171
 20
364.4597306263596
 30
0.0
 10
150.768254410499
 20
364.4542220080284
 30
0.0
 10
148.9343199203229
 20
364.4543501244328
 30
0.0
 10
148.0624287752551
 20
364.4599055844777
 30
0.0
 10
146.8229012098045
 20
364.476447191428
 30
0.0
 10
146.4205658483287
 20
364.4833454142367
 30
0.0
 10
145.6421188156771
 20
364.4999922645823
 30
0.0
 10
145.238182327834
 20
364.4941453775288
 30
0.0
 10
144.6273865119595
 20
364.5774668910929
 30
0.0
 10
144.4607227693331
 20
364.6817894704268
 30
0.0
 10
144.4136998823766
 20
364.8253506089076
 30
0.0
 10
144.411662036149
 20
364.8324493847072
 30
0.0
 10
144.4098834603953
 20
364.8396059321669
 30
0.0
  0
SPLINE
  5
127
330
D6
100
AcDbEntity
  8
$DDT_AUDIT_GENERATED_(AD)
  6
Continuous
 62
     7
100
AcDbSpline
210
0.0
220
0.0
230
1.0
 70
     8
 71
     3
 72
     8
 73
     4
 74
     0
 42
0.0000000014330864
 43
0.0000000001
 40
0.8157220976013686
 40
0.8157220976013686
 40
0.8157220976013686
 40
0.8157220976013686
 40
0.8310064758016611
 40
0.8310064758016611
 40
0.8310064758016611
 40
0.8310064758016611
 10
144.4098834603953
 20
364.8396059321669
 30
0.0
 10
144.4014465885679
 20
364.8735538106964
 30
0.0
 10
144.3988437812784
 20
364.9088016582818
 30
0.0
 10
144.4011963889918
 20
364.9450545990933
 30
0.0
  0
SPLINE
  5
128
330
D6
100
AcDbEntity
  8
$DDT_AUDIT_GENERATED_(AD)
  6
Continuous
 62
     7
100
AcDbSpline
210
0.0
220
0.0
230
1.0
 70
     8
 71
     3
 72
    10
 73
     6
 74
     0
 42
0.0000000137231838
 43
0.0000000001
 40
0.3263431963059377
 40
0.3263431963059377
 40
0.3263431963059377
 40
0.3263431963059377
 40
0.5
 40
0.5
 40
1.0
 40
1.0
 40
1.0
 40
1.0
 10
145.3452083832416
 20
366.4047308360623
 30
0.0
 10
145.3423732297136
 20
366.4329824310667
 30
0.0
 10
145.331151415382
 20
366.4579995979893
 30
0.0
 10
145.2545838809307
 20
366.5423015126382
 30
0.0
 10
145.1304878721349
 20
366.5742071525659
 30
0.0
 10
144.9374266566587
 20
366.57480646384
 30
0.0
  0
ARC
  5
129
330
D6
100
AcDbEntity
  8
$DDT_AUDIT_GENERATED_(AD)
  6
Continuous
 62
     7
100
AcDbCircle
 10
143.9767757392
 20
-269.633311367
 30
0.0
 40
636.2088431042197
100
AcDbArc
 50
89.9134855407
 51
90.077380188
  0
LINE
  5
12A
330
D6
100
AcDbEntity
  8
$DDT_AUDIT_GENERATED_(AD)
  6
Continuous
 62
     7
100
AcDbLine
 10
172.3614205391
 20
326.7453625969
 30
0.0
 11
162.8562247224
 21
326.7453625969
 31
0.0
  0
LINE
  5
12B
330
D6
100
AcDbEntity
  8
$DDT_AUDIT_GENERATED_(AD)
  6
Continuous
 62
     7
100
AcDbLine
 10
162.8562247224
 20
326.7453625969
 30
0.0
 11
162.8352775614
 21
326.7453625969
 31
0.0
  0
LINE
  5
12C
330
D6
100
AcDbEntity
  8
$DDT_AUDIT_GENERATED_(AD)
  6
Continuous
 62
     7
100
AcDbLine
 10
162.8352775614
 20
326.7453625969
 30
0.0
 11
148.5005784424
 21
326.7453625969
 31
0.0
  0
LINE
  5
12D
330
D6
100
AcDbEntity
  8
$DDT_AUDIT_GENERATED_(AD)
  6
Continuous
 62
     7
100
AcDbLine
 10
148.5005784424
 20
326.7453625969
 30
0.0
 11
148.4914481121
 21
326.7453625969
 31
0.0
  0
LINE
  5
12E
330
D6
100
AcDbEntity
  8
$DDT_AUDIT_GENERATED_(AD)
  6
Continuous
 62
     7
100
AcDbLine
 10
148.4914481121
 20
326.7453625969
 30
0.0
 11
147.0330878123
 21
326.7453625969
 31
0.0
  0
ARC
  5
12F
330
D6
100
AcDbEntity
  8
$DDT_AUDIT_GENERATED_(AD)
  6
Continuous
 62
     7
100
AcDbCircle
 10
-285.1992975972
 20
323.3817324837
 30
0.0
 40
448.0722108153275
100
AcDbArc
 50
0.4657953871
 51
5.485110373
  0
ARC
  5
130
330
D6
100
AcDbEntity
  8
$DDT_AUDIT_GENERATED_(AD)
  6
Continuous
 62
     7
100
AcDbCircle
 10
6075.7973557131
 20
-94.2277934583
 30
0.0
 40
5916.648385115137
100
AcDbArc
 50
175.5331457087
 51
175.9103417583
  0
SPLINE
  5
131
330
D6
100
AcDbEntity
  8
$DDT_AUDIT_GENERATED_(AD)
  6
Continuous
 62
     7
100
AcDbSpline
210
0.0
220
0.0
230
1.0
 70
     8
 71
     3
 72
    13
 73
     9
 74
     0
 42
0.0000000002597755
 43
0.0000000001
 40
0.0570100194767226
 40
0.0570100194767226
 40
0.0570100194767226
 40
0.0570100194767226
 40
0.170212074861717
 40
0.3462845541960809
 40
0.5225678387854471
 40
0.6996109747115077
 40
0.8779559904470321
 40
1.0
 40
1.0
 40
1.0
 40
1.0
 10
176.9779921932936
 20
329.3207387843705
 30
0.0
 10
177.1102474837235
 20
330.7841042714421
 30
0.0
 10
177.4614045170372
 20
334.2746897752285
 30
0.0
 10
178.407843872036
 20
340.3108043087826
 30
0.0
 10
179.8212111653477
 20
346.9509234933123
 30
0.0
 10
181.6139836396607
 20
353.5212328495106
 30
0.0
 10
183.5717021944226
 20
359.4939806284359
 30
0.0
 10
184.9158158745957
 20
362.8346442888501
 30
0.0
 10
185.5651865483481
 20
364.4349925755699
 30
0.0
  0
SPLINE
  5
132
330
D6
100
AcDbEntity
  8
$DDT_AUDIT_GENERATED_(AD)
  6
Continuous
 62
     7
100
AcDbSpline
210
0.0
220
0.0
230
1.0
 70
     8
 71
     3
 72
     8
 73
     4
 74
     0
 42
0.000000000251734
 43
0.0000000001
 40
0.0
 40
0.0
 40
0.0
 40
0.0
 40
1.0
 40
1.0
 40
1.0
 40
1.0
 10
143.1151685320505
 20
366.5734525440092
 30
0.0
 10
144.6020200082048
 20
353.4162478082945
 30
0.0
 10
145.8075148601216
 20
340.2317634466401
 30
0.0
 10
146.7316530878011
 20
327.0199994590459
 30
0.0
  0
SPLINE
  5
133
330
D6
100
AcDbEntity
  8
$DDT_AUDIT_GENERATED_(AD)
  6
Continuous
 62
     7
100
AcDbSpline
210
0.0
220
0.0
230
1.0
 70
     8
 71
     3
 72
    14
 73
    10
 74
     0
 42
0.0000000040173388
 43
0.0000000001
 40
0.0
 40
0.0
 40
0.0
 40
0.0
 40
0.015865906302518
 40
0.1992698190784364
 40
0.4101939000935975
 40
0.5816821750055039
 40
0.7583256153941191
 40
0.9147892194082962
 40
1.0
 40
1.0
 40
1.0
 40
1.0
 10
144.4022016479154
 20
364.9452263432413
 30
0.0
 10
144.409029402737
 20
364.9203340370119
 30
0.0
 10
144.4830308022488
 20
364.6513525757493
 30
0.0
 10
144.6459842818166
 20
364.1731001568851
 30
0.0
 10
144.8869469363368
 20
363.6949716680837
 30
0.0
 10
145.1778912712831
 20
363.3840195113389
 30
0.0
 10
145.4257139978321
 20
363.1554033904139
 30
0.0
 10
145.6098675493969
 20
362.9684083879337
 30
0.0
 10
145.6605233527734
 20
362.9016462033369
 30
0.0
 10
145.6812363567916
 20
362.8740623115751
 30
0.0
  0
SPLINE
  5
134
330
D6
100
AcDbEntity
  8
$DDT_AUDIT_GENERATED_(AD)
  6
Continuous
 62
     7
100
AcDbSpline
210
0.0
220
0.0
230
1.0
 70
     8
 71
     3
 72
     8
 73
     4
 74
     0
 42
0.000000001193177
 43
0.0000000001
 40
0.0
 40
0.0
 40
0.0
 40
0.0
 40
1.0
 40
1.0
 40
1.0
 40
1.0
 10
185.4279392809727
 20
364.8158529873461
 30
0.0
 10
182.8936685415646
 20
365.9693923914037
 30
0.0
 10
180.2774689228838
 20
366.9348413377917
 30
0.0
 10
177.5793404249302
 20
367.7121998265101
 30
0.0
  0
ARC
  5
135
330
D6
100
AcDbEntity
  8
$DDT_AUDIT_GENERATED_(AD)
  6
Continuous
 62
     7
100
AcDbCircle
 10
143.4156624152
 20
366.6085626076
 30
0.0
 40
0.2999999999974649
100
AcDbArc
 50
106.1667965333
 51
186.8080038176
  0
SPLINE
  5
136
330
D6
100
AcDbEntity
  8
$DDT_AUDIT_GENERATED_(AD)
  6
Continuous
 62
     7
100
AcDbSpline
210
0.0
220
0.0
230
1.0
 70
     8
 71
     3
 72
    14
 73
    10
 74
     0
 42
0.000000005279806
 43
0.0000000001
 40
0.0
 40
0.0
 40
0.0
 40
0.0
 40
0.0944093107851689
 40
0.2717289972837842
 40
0.5235456569912394
 40
0.7131185594534865
 40
0.8382459128252793
 40
0.9437305867449394
 40
1.0
 40
1.0
 40
1.0
 40
1.0
 10
145.3132425587207
 20
366.4187426767612
 30
0.0
 10
145.2863354249331
 20
366.3839900574364
 30
0.0
 10
145.2203698645574
 20
366.2985422430642
 30
0.0
 10
144.9986550493975
 20
366.0583514101036
 30
0.0
 10
144.7379185422651
 20
365.7613137373538
 30
0.0
 10
144.5287306362419
 20
365.4571713714925
 30
0.0
 10
144.4224588735626
 20
365.2121571040655
 30
0.0
 10
144.3762524277115
 20
365.0050017055217
 30
0.0
 10
144.4087101257955
 20
364.8878013635676
 30
0.0
 10
144.4222091679798
 20
364.8397331828296
 30
0.0
  0
ARC
  5
137
330
D6
100
AcDbEntity
  8
$DDT_AUDIT_GENERATED_(AD)
  6
Continuous
 62
     7
100
AcDbCircle
 10
185.2511327686
 20
364.5666977198
 30
0.0
 40
0.3000000000425017
100
AcDbArc
 50
337.2701376366
 51
68.7745441573
  0
ARC
  5
138
330
D6
100
AcDbEntity
  8
$DDT_AUDIT_GENERATED_(AD)
  6
Continuous
 62
     7
100
AcDbCircle
 10
147.0330872748
 20
327.0453625969
 30
0.0
 40
0.299999999999967
100
AcDbArc
 50
185.6558191937
 51
269.9999998039
  0
LINE
  5
13A
330
D6
100
AcDbEntity
  8
DV2_Standard
  6
Continuous
 62
     7
100
AcDbLine
 10
161.8497461489
 20
278.7010082594
 30
0.0
 11
161.8497461489
 21
276.1674892004
 31
0.0
  0
LINE
  5
13B
330
D6
100
AcDbEntity
  8
DV2_Standard
  6
CENTER2
 62
     7
100
AcDbLine
 10
181.8497457019
 20
277.4342487299
 30
0.0
 11
141.8497465959
 21
277.4342487299
 31
0.0
  0
LINE
  5
13C
330
D6
100
AcDbEntity
  8
DV2_Standard
  6
CENTER2
 62
     7
100
AcDbLine
 10
161.8497461489
 20
297.4342482829
 30
0.0
 11
161.8497461489
 21
257.4342491769
 31
0.0
  0
LINE
  5
13D
330
D6
100
AcDbEntity
  8
DV2_Standard
  6
Continuous
 62
     7
100
AcDbLine
 10
143.3321320473
 20
366.8966991683
 30
0.0
 11
145.8854539019
 21
367.6980733343
 31
0.0
  0
ARC
  5
13E
330
D6
100
AcDbEntity
  8
DV2_Standard
  6
Continuous
 62
     7
100
AcDbCircle
 10
161.7546591678
 20
310.7453416508
 30
0.0
 40
59.00002092683604
100
AcDbArc
 50
87.2713943521
 51
92.2170503197
  0
ENDBLK
  5
140
330
D6
100
AcDbEntity
  8
0
100
AcDbBlockEnd
  0
BLOCK
  5
16D
330
141
100
AcDbEntity
  8
0
100
AcDbBlockBegin
  2
SE2
 70
     0
 10
0.0
 20
0.0
 30
0.0
  3
SE2
  1

  0
ARC
  5
143
330
141
100
AcDbEntity
  8
$DDT_AUDIT_GENERATED_(60)
  6
Continuous
 62
     7
100
AcDbCircle
 10
3502.9001633478
 20
190.7784011383
 30
0.0
 40
3487.671788463283
100
AcDbArc
 50
180.002835375
 51
180.799958261
  0
ARC
  5
144
330
141
100
AcDbEntity
  8
$DDT_AUDIT_GENERATED_(60)
  6
Continuous
 62
     7
100
AcDbCircle
 10
-3440.3319926779
 20
190.7786897119
 30
0.0
 40
3487.806961343555
100
AcDbArc
 50
359.189428919
 51
359.9971602486
  0
ARC
  5
145
330
141
100
AcDbEntity
  8
$DDT_AUDIT_GENERATED_(60)
  6
Continuous
 62
     7
100
AcDbCircle
 10
-81.0623247902
 20
192.2534586137
 30
0.0
 40
96.3047995623551
100
AcDbArc
 50
359.0196954692
 51
359.9676270049
  0
ARC
  5
146
330
141
100
AcDbEntity
  8
$DDT_AUDIT_GENERATED_(60)
  6
Continuous
 62
     7
100
AcDbCircle
 10
144.1939131863
 20
192.257356364
 30
0.0
 40
96.7330482238353
100
AcDbArc
 50
180.0365305549
 51
180.9782640214
  0
SPLINE
  5
147
330
141
100
AcDbEntity
  8
$DDT_AUDIT_GENERATED_(60)
  6
Continuous
 62
     7
100
AcDbSpline
210
0.0
220
0.0
230
1.0
 70
     8
 71
     3
 72
    31
 73
    27
 74
     0
 42
0.0000000003527128
 43
0.0000000001
 40
0.0
 40
0.0
 40
0.0
 40
0.0
 40
0.0827686731323714
 40
0.143813722548413
 40
0.1964316645724218
 40
0.2431260975923211
 40
0.285346667304779
 40
0.3243755396581185
 40
0.3611026567508629
 40
0.3953662827075783
 40
0.4286609924156755
 40
0.463710789553598
 40
0.4989370322090732
 40
0.5342552407068977
 40
0.569529314017532
 40
0.6044159445160779
 40
0.6396474711045361
 40
0.6773075877794189
 40
0.7158129618785452
 40
0.7552947153020523
 40
0.7958162059357087
 40
0.8373914176328946
 40
0.879976166866108
 40
0.9234609270473424
 40
0.9676665072410925
 40
1.0
 40
1.0
 40
1.0
 40
1.0
 10
15.83714945235323
 20
125.2947921040938
 30
0.0
 10
15.84965320001115
 20
124.4382787792673
 30
0.0
 10
15.87238022840624
 20
123.1896484451425
 30
0.0
 10
15.9091228049097
 20
121.3053943983632
 30
0.0
 10
15.99420195147408
 20
119.8004057967757
 30
0.0
 10
16.13247727081771
 20
118.4694149392341
 30
0.0
 10
16.32575537847958
 20
117.2766184123263
 30
0.0
 10
16.573540041128
 20
116.1897630294682
 30
0.0
 10
16.87453825894984
 20
115.1948494966911
 30
0.0
 10
17.22653417769952
 20
114.2745523046099
 30
0.0
 10
17.64498231329224
 20
113.4000351879925
 30
0.0
 10
18.13918244067946
 20
112.5555929426108
 30
0.0
 10
18.71384990622439
 20
111.7403516556908
 30
0.0
 10
19.3570568181471
 20
110.9753237778466
 30
0.0
 10
20.06092935673209
 20
110.2699924314048
 30
0.0
 10
20.82276339053613
 20
109.6291998319874
 30
0.0
 10
21.64814655304023
 20
109.0331766606541
 30
0.0
 10
22.54541325972262
 20
108.4823494992513
 30
0.0
 10
23.51718005092461
 20
107.9809835943274
 30
0.0
 10
24.54794929382155
 20
107.5401750016749
 30
0.0
 10
25.63525132184682
 20
107.1630013913006
 30
0.0
 10
26.77406539087965
 20
106.8529165744273
 30
0.0
 10
27.96151505688631
 20
106.6137970163806
 30
0.0
 10
29.17793362709073
 20
106.448257706754
 30
0.0
 10
30.33898940368393
 20
106.3708025004074
 30
0.0
 10
31.01400223329608
 20
106.3559675405796
 30
0.0
 10
31.35103993795289
 20
106.35
 30
0.0
  0
ARC
  5
148
330
141
100
AcDbEntity
  8
$DDT_AUDIT_GENERATED_(60)
  6
Continuous
 62
     7
100
AcDbCircle
 10
269.1674794777
 20
131.1398962749
 30
0.0
 40
253.3977331814116
100
AcDbArc
 50
181.1971379619
 51
181.3217812407
  0
SPLINE
  5
149
330
141
100
AcDbEntity
  8
$DDT_AUDIT_GENERATED_(60)
  6
Continuous
 62
     7
100
AcDbSpline
210
0.0
220
0.0
230
1.0
 70
     8
 71
     3
 72
    31
 73
    27
 74
     0
 42
0.0000000003526962
 43
0.0000000001
 40
0.0
 40
0.0
 40
0.0
 40
0.0
 40
0.0386102763686584
 40
0.0811465857403096
 40
0.1263719117465072
 40
0.1707508276751465
 40
0.2141141994479023
 40
0.2563984406159389
 40
0.2976135086207087
 40
0.337831526797342
 40
0.3771749868582049
 40
0.4158554279388502
 40
0.4491015125949284
 40
0.4841047832233669
 40
0.5193095096029344
 40
0.5546271428995383
 40
0.5899198921347515
 40
0.6249052288064693
 40
0.6599199778068975
 40
0.6977599231051983
 40
0.7380303915370564
 40
0.781404285453576
 40
0.8287571355465158
 40
0.8823023144483179
 40
0.9478688288584215
 40
1.0
 40
1.0
 40
1.0
 40
1.0
 10
31.35231510259173
 20
106.3510832533678
 30
0.0
 10
31.75480078318433
 20
106.3578352121247
 30
0.0
 10
32.46864417715572
 20
106.3730479419538
 30
0.0
 10
33.68772215039544
 20
106.4654186663204
 30
0.0
 10
34.92079664030488
 20
106.641551930281
 30
0.0
 10
36.155067506711
 20
106.9034549234863
 30
0.0
 10
37.33803074155566
 20
107.2436061916733
 30
0.0
 10
38.46503051032933
 20
107.658270454115
 30
0.0
 10
39.52992713798193
 20
108.1436285902604
 30
0.0
 10
40.52953365491101
 20
108.6957666783159
 30
0.0
 10
41.46154474052432
 20
109.3121467750891
 30
0.0
 10
42.29005024502704
 20
109.959186904058
 30
0.0
 10
43.03091242402408
 20
110.6456994386088
 30
0.0
 10
43.68955570446629
 20
111.3676144998536
 30
0.0
 10
44.29694797310661
 20
112.1579412347808
 30
0.0
 10
44.83649665847508
 20
112.999398417621
 30
0.0
 10
45.30179220420012
 20
113.8820399962421
 30
0.0
 10
45.68716200490886
 20
114.7993922497949
 30
0.0
 10
46.00976426225279
 20
115.7658192550854
 30
0.0
 10
46.27673179065676
 20
116.8007676134374
 30
0.0
 10
46.49078819296154
 20
117.9284343795909
 30
0.0
 10
46.65034015929516
 20
119.1550740987595
 30
0.0
 10
46.756148362019
 20
120.5151175884749
 30
0.0
 10
46.81608461144118
 20
122.0764778825044
 30
0.0
 10
46.83434615887931
 20
123.7267672262056
 30
0.0
 10
46.8571973829085
 20
124.7552975533004
 30
0.0
 10
46.86808174350927
 20
125.2944222151526
 30
0.0
  0
ARC
  5
14A
330
141
100
AcDbEntity
  8
$DDT_AUDIT_GENERATED_(60)
  6
Continuous
 62
     7
100
AcDbCircle
 10
1398.9691670514
 20
157.8363076099
 30
0.0
 40
1383.506091005919
100
AcDbArc
 50
180.6518980593
 51
181.3249428527
  0
ARC
  5
14B
330
141
100
AcDbEntity
  8
$DDT_AUDIT_GENERATED_(60)
  6
Continuous
 62
     7
100
AcDbCircle
 10
-297.7753217003
 20
133.0540426262
 30
0.0
 40
344.7289490454584
100
AcDbArc
 50
358.7102539583
 51
358.8018681818
  0
ARC
  5
14C
330
141
100
AcDbEntity
  8
$DDT_AUDIT_GENERATED_(60)
  6
Continuous
 62
     7
100
AcDbCircle
 10
-1316.0266333013
 20
157.2024447587
 30
0.0
 40
1363.258850851601
100
AcDbArc
 50
358.6820195106
 51
359.3378479574
  0
ARC
  5
14D
330
141
100
AcDbEntity
  8
$DDT_AUDIT_GENERATED_(84)
  6
Continuous
 62
     7
100
AcDbCircle
 10
31.3516719531
 20
204.0445950405
 30
0.0
 40
25.0
100
AcDbArc
 50
310.1641574938
 51
360.0
  0
ARC
  5
14E
330
141
100
AcDbEntity
  8
$DDT_AUDIT_GENERATED_(84)
  6
Continuous
 62
     7
100
AcDbCircle
 10
31.3516719531
 20
204.0445950405
 30
0.0
 40
25.0
100
AcDbArc
 50
0.0
 51
229.8547274452
  0
ARC
  5
14F
330
141
100
AcDbEntity
  8
$DDT_AUDIT_GENERATED_(A8)
  6
Continuous
 62
     7
100
AcDbCircle
 10
31.3516719531
 20
286.3559453751
 30
0.0
 40
99.97771297237387
100
AcDbArc
 50
268.1327057012
 51
271.8672942988
  0
ARC
  5
150
330
141
100
AcDbEntity
  8
$DDT_AUDIT_GENERATED_(A8)
  6
Continuous
 62
     7
100
AcDbCircle
 10
31.3516719531
 20
201.5445950405
 30
0.0
 40
15.46366014927599
100
AcDbArc
 50
282.2984684365
 51
90.0
  0
ARC
  5
151
330
141
100
AcDbEntity
  8
$DDT_AUDIT_GENERATED_(A8)
  6
Continuous
 62
     7
100
AcDbCircle
 10
31.3516719531
 20
201.5445950405
 30
0.0
 40
15.463660149276
100
AcDbArc
 50
90.0
 51
257.7015315635
  0
ARC
  5
152
330
141
100
AcDbEntity
  8
$DDT_AUDIT_GENERATED_(A8)
  6
Continuous
 62
     7
100
AcDbCircle
 10
28.1004471813
 20
186.6312165287
 30
0.0
 40
0.1999999999999998
100
AcDbArc
 50
257.7015315635
 51
268.133122013
  0
ARC
  5
153
330
141
100
AcDbEntity
  8
$DDT_AUDIT_GENERATED_(A8)
  6
Continuous
 62
     7
100
AcDbCircle
 10
34.6028967249
 20
186.6312165287
 30
0.0
 40
0.1999999999999878
100
AcDbArc
 50
271.866877987
 51
282.2984684365
  0
ARC
  5
155
330
141
100
AcDbEntity
  8
$DDT_AUDIT_GENERATED_(154)
  6
Continuous
 62
     7
100
AcDbCircle
 10
31.3516719531
 20
201.5445950405
 30
0.0
 40
23.99999999999999
100
AcDbArc
 50
312.2140071815
 51
339.0876823564
  0
ARC
  5
156
330
141
100
AcDbEntity
  8
$DDT_AUDIT_GENERATED_(154)
  6
Continuous
 62
     7
100
AcDbCircle
 10
31.3516719531
 20
201.5445950405
 30
0.0
 40
23.99999999999999
100
AcDbArc
 50
200.9183772077
 51
227.7723739201
  0
SPLINE
  5
157
330
141
100
AcDbEntity
  8
$DDT_AUDIT_GENERATED_(AD)
  6
Continuous
 62
     7
100
AcDbSpline
210
0.0
220
0.0
230
1.0
 70
     8
 71
     3
 72
    36
 73
    32
 74
     0
 42
0.0000000003965184
 43
0.0000000001
 40
0.0
 40
0.0
 40
0.0
 40
0.0
 40
0.0625000000000013
 40
0.0625000000000013
 40
0.1250000000000026
 40
0.1250000000000026
 40
0.1875000000000039
 40
0.1875000000000039
 40
0.2500000000000052
 40
0.2500000000000052
 40
0.2812500000000054
 40
0.2812500000000054
 40
0.3125000000000057
 40
0.3125000000000057
 40
0.3750000000000053
 40
0.3750000000000053
 40
0.5000000000000038
 40
0.5000000000000038
 40
0.6250000000000022
 40
0.6250000000000022
 40
0.6875000000000019
 40
0.6875000000000019
 40
0.7500000000000014
 40
0.7500000000000014
 40
0.8125000000000011
 40
0.8125000000000011
 40
0.8750000000000008
 40
0.8750000000000008
 40
0.9375000000000003
 40
0.9375000000000003
 40
1.0
 40
1.0
 40
1.0
 40
1.0
 10
40.3283353322606
 20
184.1296888218809
 30
0.0
 10
40.15826046837095
 20
183.6391350237677
 30
0.0
 10
40.02067224751642
 20
183.1437324353691
 30
0.0
 10
39.7662714040191
 20
182.1528707540008
 30
0.0
 10
39.65529772299708
 20
181.6557825612497
 30
0.0
 10
39.32113698544592
 20
180.6899873810893
 30
0.0
 10
39.11249489108042
 20
180.2185445883858
 30
0.0
 10
38.51488330196703
 20
179.3708973548028
 30
0.0
 10
38.10904143202073
 20
179.0100687343126
 30
0.0
 10
37.38607766944788
 20
178.6777490183702
 30
0.0
 10
37.12593455482599
 20
178.601172758644
 30
0.0
 10
36.61056979980244
 20
178.4566438866007
 30
0.0
 10
36.35181236806314
 20
178.3895447724753
 30
0.0
 10
35.57233594432682
 20
178.2036387537394
 30
0.0
 10
35.04841802496794
 20
178.1001977676857
 30
0.0
 10
33.46384431596925
 20
177.851442954242
 30
0.0
 10
32.39240229059214
 20
177.7690156933441
 30
0.0
 10
30.27363766129571
 20
177.7709536174985
 30
0.0
 10
29.21903487480025
 20
177.8539217556488
 30
0.0
 10
27.64435368172763
 20
178.1022316972362
 30
0.0
 10
27.11985775124978
 20
178.2059428699371
 30
0.0
 10
26.07693190390053
 20
178.4554012626607
 30
0.0
 10
25.54401203818854
 20
178.5705487954317
 30
0.0
 10
24.57933741128869
 20
179.0200122145005
 30
0.0
 10
24.17751884703524
 20
179.382732070876
 30
0.0
 10
23.5836790518075
 20
180.2325098021736
 30
0.0
 10
23.37811274814359
 20
180.7004251071851
 30
0.0
 10
23.04725142278058
 20
181.659487460636
 30
0.0
 10
22.93604535291604
 20
182.1570633046819
 30
0.0
 10
22.68211736147877
 20
183.1456949055727
 30
0.0
 10
22.5447775351736
 20
183.6400186391061
 30
0.0
 10
22.37500956135526
 20
184.1296875753301
 30
0.0
  0
ARC
  5
158
330
141
100
AcDbEntity
  8
$DDT_AUDIT_GENERATED_(AD)
  6
Continuous
 62
     7
100
AcDbCircle
 10
44.2359734482
 20
182.7608568328
 30
0.0
 40
4.140451262784515
100
AcDbArc
 50
124.3609186987
 51
160.6948204863
  0
ARC
  5
159
330
141
100
AcDbEntity
  8
$DDT_AUDIT_GENERATED_(AD)
  6
Continuous
 62
     7
100
AcDbCircle
 10
18.4673677864
 20
182.7608537323
 30
0.0
 40
4.14045532899925
100
AcDbArc
 50
19.3051869866
 51
55.6390649439
  0
ARC
  5
15A
330
141
100
AcDbEntity
  8
$DDT_AUDIT_GENERATED_(AD)
  6
Continuous
 62
     7
100
AcDbCircle
 10
31.3407058978
 20
201.5509431416
 30
0.0
 40
18.64892391127749
100
AcDbArc
 50
304.4832749703
 51
355.5166382294
  0
ARC
  5
15B
330
141
100
AcDbEntity
  8
$DDT_AUDIT_GENERATED_(AD)
  6
Continuous
 62
     7
100
AcDbCircle
 10
31.3626376643
 20
201.5509429435
 30
0.0
 40
18.64892355268936
100
AcDbArc
 50
184.4833612464
 51
235.5167277888
  0
ARC
  5
15C
330
141
100
AcDbEntity
  8
$DDT_AUDIT_GENERATED_(AD)
  6
Continuous
 62
     7
100
AcDbCircle
 10
54.0609140969
 20
199.7783873846
 30
0.0
 40
4.140331695512072
100
AcDbArc
 50
139.3047422906
 51
175.6397675971
  0
ARC
  5
15D
330
141
100
AcDbEntity
  8
$DDT_AUDIT_GENERATED_(AD)
  6
Continuous
 62
     7
100
AcDbCircle
 10
8.6424338397
 20
199.7783890564
 30
0.0
 40
4.140327549718523
100
AcDbArc
 50
4.3602135762
 51
40.6952765361
  0
SPLINE
  5
15E
330
141
100
AcDbEntity
  8
$DDT_AUDIT_GENERATED_(AD)
  6
Continuous
 62
     7
100
AcDbSpline
210
0.0
220
0.0
230
1.0
 70
     8
 71
     3
 72
    36
 73
    32
 74
     0
 42
0.000000000396517
 43
0.0000000001
 40
0.0
 40
0.0
 40
0.0
 40
0.0
 40
0.0624999999999985
 40
0.0624999999999985
 40
0.124999999999997
 40
0.124999999999997
 40
0.1874999999999955
 40
0.1874999999999955
 40
0.249999999999994
 40
0.249999999999994
 40
0.2812499999999938
 40
0.2812499999999938
 40
0.3124999999999937
 40
0.3124999999999937
 40
0.3749999999999944
 40
0.3749999999999944
 40
0.4999999999999958
 40
0.4999999999999958
 40
0.624999999999997
 40
0.624999999999997
 40
0.6874999999999974
 40
0.6874999999999974
 40
0.749999999999998
 40
0.749999999999998
 40
0.8124999999999984
 40
0.8124999999999984
 40
0.874999999999999
 40
0.874999999999999
 40
0.9374999999999994
 40
0.9374999999999994
 40
1.0
 40
1.0
 40
1.0
 40
1.0
 10
41.94508549606328
 20
218.0260578791852
 30
0.0
 10
42.45495430661328
 20
218.1240464463752
 30
0.0
 10
42.95278749361631
 20
218.2525999731225
 30
0.0
 10
43.93811332824487
 20
218.5277301370234
 30
0.0
 10
44.42409828840744
 20
218.6801774246473
 30
0.0
 10
45.42758903636545
 20
218.8736980056223
 30
0.0
 10
45.94019069156813
 20
218.9287342563044
 30
0.0
 10
46.97304964145572
 20
218.8350008516907
 30
0.0
 10
47.4884334860958
 20
218.6639339174288
 30
0.0
 10
48.13769254391083
 20
218.2039820289687
 30
0.0
 10
48.33407769948417
 20
218.0169794012552
 30
0.0
 10
48.7169332050076
 20
217.6429356057048
 30
0.0
 10
48.90443188657846
 20
217.4524053962519
 30
0.0
 10
49.45520603334909
 20
216.8703481045845
 30
0.0
 10
49.80677858988142
 20
216.4683712290838
 30
0.0
 10
50.81451801310337
 20
215.2204948956416
 30
0.0
 10
51.42151746478051
 20
214.3337446038858
 30
0.0
 10
52.47922867241719
 20
212.4978837244638
 30
0.0
 10
52.93478551193665
 20
211.5431528648707
 30
0.0
 10
53.50707371458004
 20
210.0553041293845
 30
0.0
 10
53.67947376607653
 20
209.5492271299778
 30
0.0
 10
53.98484834041445
 20
208.5212600707542
 30
0.0
 10
54.151572838265
 20
208.002168485402
 30
0.0
 10
54.24473936164008
 20
206.9419635799211
 30
0.0
 10
54.13156145850857
 20
206.4126194560658
 30
0.0
 10
53.692584550307
 20
205.4734392098783
 30
0.0
 10
53.39013214762499
 20
205.0614384307397
 30
0.0
 10
52.72497493636069
 20
204.2953575937988
 30
0.0
 10
52.34965085403586
 20
203.9502532098831
 30
0.0
 10
51.62040550884987
 20
203.2360125702975
 30
0.0
 10
51.26096064821316
 20
202.8699008777349
 30
0.0
 10
50.9217630188665
 20
202.4780312607731
 30
0.0
  0
SPLINE
  5
15F
330
141
100
AcDbEntity
  8
$DDT_AUDIT_GENERATED_(AD)
  6
Continuous
 62
     7
100
AcDbSpline
210
0.0
220
0.0
230
1.0
 70
     8
 71
     3
 72
    36
 73
    32
 74
     0
 42
0.000000000396517
 43
0.0000000001
 40
0.0
 40
0.0
 40
0.0
 40
0.0
 40
0.0625000000000001
 40
0.0625000000000001
 40
0.1250000000000002
 40
0.1250000000000002
 40
0.1875000000000004
 40
0.1875000000000004
 40
0.2500000000000005
 40
0.2500000000000005
 40
0.2812500000000006
 40
0.2812500000000006
 40
0.3125000000000008
 40
0.3125000000000008
 40
0.3750000000000009
 40
0.3750000000000009
 40
0.5000000000000011
 40
0.5000000000000011
 40
0.6250000000000012
 40
0.6250000000000012
 40
0.6875000000000011
 40
0.6875000000000011
 40
0.7500000000000009
 40
0.7500000000000009
 40
0.8125000000000007
 40
0.8125000000000007
 40
0.8750000000000004
 40
0.8750000000000004
 40
0.9375000000000003
 40
0.9375000000000003
 40
1.0
 40
1.0
 40
1.0
 40
1.0
 10
11.78158088737851
 20
202.4780312607732
 30
0.0
 10
11.44177845725363
 20
202.8705995944382
 30
0.0
 10
11.08153232765027
 20
203.2374572284726
 30
0.0
 10
10.35060975899568
 20
203.9532051268959
 30
0.0
 10
9.97559983524593
 20
204.2978544670469
 30
0.0
 10
9.306267374029874
 20
205.0701390099975
 30
0.0
 10
9.002304439460755
 20
205.486547762923
 30
0.0
 10
8.567042922096874
 20
206.4278924947096
 30
0.0
 10
8.457492410624074
 20
206.9597620610731
 30
0.0
 10
8.531187787301876
 20
207.7520130558507
 30
0.0
 10
8.594942948093289
 20
208.0155896189067
 30
0.0
 10
8.727442463400944
 20
208.5341753079434
 30
0.0
 10
8.798695088065793
 20
208.7918196155574
 30
0.0
 10
9.027383176935723
 20
209.5598326047174
 30
0.0
 10
9.199727240474603
 20
210.0652884427576
 30
0.0
 10
9.77656896678736
 20
211.5619465377455
 30
0.0
 10
10.24101218261576
 20
212.5309998913635
 30
0.0
 10
11.30205651548669
 20
214.3649343815396
 30
0.0
 10
11.90109395148085
 20
215.2368255266074
 30
0.0
 10
12.90348020435525
 20
216.476353092058
 30
0.0
 10
13.25556180807598
 20
216.8786884535338
 30
0.0
 10
13.99311847424961
 20
217.6571354861854
 30
0.0
 10
14.35929734679516
 20
218.0610719740285
 30
0.0
 10
15.23087499461076
 20
218.6718677899031
 30
0.0
 10
15.74588575608477
 20
218.8385315325294
 30
0.0
 10
16.77872314130406
 20
218.9279666096813
 30
0.0
 10
17.28675633158535
 20
218.8720350395854
 30
0.0
 10
18.28278832361606
 20
218.6790288361777
 30
0.0
 10
18.76932526612838
 20
218.5265368516979
 30
0.0
 10
19.75250866199086
 20
218.2521050945894
 30
0.0
 10
20.24929602998749
 20
218.1238722450708
 30
0.0
 10
20.7582584101816
 20
218.0260578791852
 30
0.0
  0
ARC
  5
160
330
141
100
AcDbEntity
  8
$DDT_AUDIT_GENERATED_(AD)
  6
Continuous
 62
     7
100
AcDbCircle
 10
41.1767397705
 20
222.0946380108
 30
0.0
 40
4.140495071986166
100
AcDbArc
 50
244.3608677978
 51
280.6942827258
  0
ARC
  5
161
330
141
100
AcDbEntity
  8
$DDT_AUDIT_GENERATED_(AD)
  6
Continuous
 62
     7
100
AcDbCircle
 10
21.5266035651
 20
222.0946423614
 30
0.0
 40
4.140499241139377
100
AcDbArc
 50
259.3057362053
 51
295.6391132711
  0
ARC
  5
162
330
141
100
AcDbEntity
  8
$DDT_AUDIT_GENERATED_(AD)
  6
Continuous
 62
     7
100
AcDbCircle
 10
31.3516719531
 20
201.5319490954
 30
0.0
 40
18.64889907347008
100
AcDbArc
 50
64.483281994
 51
115.516718006
  0
ELLIPSE
  5
163
330
141
100
AcDbEntity
  8
$DDT_AUDIT_GENERATED_(AD)
  6
Continuous
 62
     7
100
AcDbEllipse
 10
29.6516719531
 20
186.4258603488
 30
0.0
 11
0.2000000000000105
 21
1.313185671314443E-12
 31
0.0
210
0.0
220
0.0
230
1.0
 40
0.9996483528
 41
5.584702245360036
 42
6.283185307179586
  0
ELLIPSE
  5
164
330
141
100
AcDbEntity
  8
$DDT_AUDIT_GENERATED_(AD)
  6
Continuous
 62
     7
100
AcDbEllipse
 10
33.0516719531
 20
186.4258603488
 30
0.0
 11
-0.1999999999999927
 21
3.105155021998485E-13
 31
0.0
210
0.0
220
0.0
230
1.0
 40
0.9996483528
 41
0.0
 42
0.8160691005740132
  0
ARC
  5
165
330
141
100
AcDbEntity
  8
$DDT_AUDIT_GENERATED_(AD)
  6
Continuous
 62
     7
100
AcDbCircle
 10
29.6564722556
 20
186.415788665
 30
0.0
 40
0.1887606831690232
100
AcDbArc
 50
275.6735465581
 51
321.4267232661
  0
LINE
  5
167
330
141
100
AcDbEntity
  8
DV3_Standard
  6
CENTER2
 62
     7
100
AcDbLine
 10
51.3516715061
 20
201.5445950405
 30
0.0
 11
11.3516724002
 21
201.5445950405
 31
0.0
  0
LINE
  5
168
330
141
100
AcDbEntity
  8
DV3_Standard
  6
CENTER2
 62
     7
100
AcDbLine
 10
31.3516719531
 20
221.5445945935
 30
0.0
 11
31.3516719531
 21
181.5445954876
 31
0.0
  0
LINE
  5
169
330
141
100
AcDbEntity
  8
DV3_Standard
  6
CENTER2
 62
     7
100
AcDbLine
 10
56.3516713943
 20
201.5445950405
 30
0.0
 11
50.3153321024
 21
201.5445950405
 31
0.0
  0
LINE
  5
16A
330
141
100
AcDbEntity
  8
DV3_Standard
  6
CENTER2
 62
     7
100
AcDbLine
 10
31.3516719531
 20
226.5445944817
 30
0.0
 11
31.3516719531
 21
220.5082551898
 31
0.0
  0
LINE
  5
16B
330
141
100
AcDbEntity
  8
DV3_Standard
  6
CENTER2
 62
     7
100
AcDbLine
 10
6.3516725119
 20
201.5445950405
 30
0.0
 11
12.3880118038
 21
201.5445950405
 31
0.0
  0
LINE
  5
16C
330
141
100
AcDbEntity
  8
DV3_Standard
  6
CENTER2
 62
     7
100
AcDbLine
 10
31.3516719531
 20
176.5445955993
 30
0.0
 11
31.3516719531
 21
182.5809348913
 31
0.0
  0
ENDBLK
  5
16E
330
141
100
AcDbEntity
  8
0
100
AcDbBlockEnd
  0
ENDSEC
  0
SECTION
  2
ENTITIES
  0
INSERT
  5
5F
330
1F
100
AcDbEntity
  8
Default
100
AcDbBlockReference
  2
SE
 10
0.0
 20
0.0
 30
0.0
  0
INSERT
  5
D7
330
1F
100
AcDbEntity
  8
Default
100
AcDbBlockReference
  2
SE1
 10
0.0
 20
0.0
 30
0.0
  0
INSERT
  5
142
330
1F
100
AcDbEntity
  8
Default
100
AcDbBlockReference
  2
SE2
 10
0.0
 20
0.0
 30
0.0
  0
TEXT
  5
170
330
1F
100
AcDbEntity
  8
Default
  6
Continuous
 62
     7
100
AcDbText
 10
5.9362635081
 20
53.4225120485
 30
0.0
 40
10.0
  1
Grohe AG^J
  7
SEACAD_seiso_ttf
 11
5.9362635081
 21
63.4225120485
 31
0.0
100
AcDbText
 73
     3
  0
TEXT
  5
171
330
1F
100
AcDbEntity
  8
Default
  6
Continuous
 62
     7
100
AcDbText
 10
5.9362635081
 20
37.0588756849
 30
0.0
 40
10.0
  1
 
  7
SEACAD_seiso_ttf
 11
5.9362635081
 21
47.0588756849
 31
0.0
100
AcDbText
 73
     3
  0
TEXT
  5
172
330
1F
100
AcDbEntity
  8
Default
  6
Continuous
 62
     7
100
AcDbText
 10
5.9362635081
 20
20.6952393213
 30
0.0
 40
10.0
  1
ecn: 
  7
SEACAD_seiso_ttf
 11
5.9362635081
 21
30.6952393213
 31
0.0
100
AcDbText
 73
     3
  0
TEXT
  5
173
330
1F
100
AcDbEntity
  8
Default
  6
Continuous
 62
     7
100
AcDbText
 10
5.9362635081
 20
4.3316029576
 30
0.0
 40
10.0
  1
unit: mm
  7
SEACAD_seiso_ttf
 11
5.9362635081
 21
14.3316029576
 31
0.0
100
AcDbText
 73
     3
  0
LINE
  5
174
330
1F
100
AcDbEntity
  8
Default
  6
Continuous
 62
     7
100
AcDbLine
 10
0.0
 20
0.0
 30
0.0
 11
100.0
 21
0.0
 31
0.0
  0
LINE
  5
175
330
1F
100
AcDbEntity
  8
Default
  6
Continuous
 62
     7
100
AcDbLine
 10
0.0
 20
0.0
 30
0.0
 11
0.0
 21
100.0
 31
0.0
  0
TEXT
  5
176
330
1F
100
AcDbEntity
  8
Default
  6
Continuous
 62
     7
100
AcDbText
 10
24.3923665681
 20
-18.2375342018
 30
0.0
 40
10.0
  1
100 mm
  7
SEACAD_seiso_ttf
 11
24.3923665681
 21
-8.2375342018
 31
0.0
100
AcDbText
 73
     3
  0
TEXT
  5
177
330
1F
100
AcDbEntity
  8
Default
  6
Continuous
 62
     7
100
AcDbText
 10
-7.6150308803
 20
24.6231930421
 30
0.0
 40
10.0
  1
100 mm
 50
90.0
  7
SEACAD_seiso_ttf
 11
-17.6150308803
 21
24.6231930421
 31
0.0
100
AcDbText
 73
     3
  0
TEXT
  5
178
330
1F
100
AcDbEntity
  8
Default
  6
Continuous
 62
     7
100
AcDbText
 10
28.4878128572
 20
20.0907663715
 30
0.0
 40
10.0
  1
217425
  7
SEACAD_seiso_ttf
 11
28.4878128572
 21
30.0907663715
 31
0.0
100
AcDbText
 73
     3
  0
TEXT
  5
179
330
1F
100
AcDbEntity
  8
Default
  6
Continuous
 62
     7
100
AcDbText
 10
5.9012241913
 20
36.7242780188
 30
0.0
 40
10.0
  1
20404001
  7
SEACAD_seiso_ttf
 11
5.9012241913
 21
46.7242780188
 31
0.0
100
AcDbText
 73
     3
  0
ENDSEC
  0
SECTION
  2
OBJECTS
  0
DICTIONARY
  5
C
330
0
100
AcDbDictionary
281
     1
  3
ACAD_GROUP
350
D
  3
ACAD_LAYOUT
350
1A
  3
ACAD_MLEADERSTYLE
350
17D
  3
ACAD_MLINESTYLE
350
17
  3
ACAD_PLOTSETTINGS
350
19
  3
ACAD_PLOTSTYLENAME
350
E
  3
ACAD_SCALELIST
350
3B
  3
ACAD_TABLESTYLE
350
17C
  3
ACAD_VISUALSTYLE
350
2A
  3
AcDbVariableDictionary
350
17A
  0
DICTIONARY
  5
D
102
{ACAD_REACTORS
330
C
102
}
330
C
100
AcDbDictionary
281
     1
  0
DICTIONARY
  5
1A
102
{ACAD_REACTORS
330
C
102
}
330
C
100
AcDbDictionary
281
     1
  3
Layout1
350
1E
  3
Model
350
22
  0
DICTIONARY
  5
17D
102
{ACAD_REACTORS
330
C
102
}
330
C
100
AcDbDictionary
281
     1
  0
DICTIONARY
  5
17
102
{ACAD_REACTORS
330
C
102
}
330
C
100
AcDbDictionary
281
     1
  3
Standard
350
18
  0
DICTIONARY
  5
19
102
{ACAD_REACTORS
330
C
102
}
330
C
100
AcDbDictionary
281
     1
  0
ACDBDICTIONARYWDFLT
  5
E
102
{ACAD_REACTORS
330
C
102
}
330
C
100
AcDbDictionary
281
     1
  3
Normal
350
F
100
AcDbDictionaryWithDefault
340
F
  0
DICTIONARY
  5
3B
102
{ACAD_REACTORS
330
C
102
}
330
C
100
AcDbDictionary
281
     1
  3
A0
350
3C
  3
A1
350
3D
  3
A2
350
3E
  3
A3
350
3F
  3
A4
350
40
  3
A5
350
41
  3
A6
350
42
  3
A7
350
43
  3
A8
350
44
  3
A9
350
45
  3
B0
350
46
  3
B1
350
47
  3
B2
350
48
  3
B3
350
49
  3
B4
350
4A
  3
B5
350
4B
  3
B6
350
4C
  3
B7
350
4D
  3
B8
350
4E
  3
B9
350
4F
  3
C0
350
50
  3
C1
350
51
  3
C2
350
52
  3
C3
350
53
  3
C4
350
54
  3
C5
350
55
  3
C6
350
56
  3
C7
350
57
  3
C8
350
58
  3
C9
350
59
  3
D0
350
5A
  3
D1
350
5B
  3
D2
350
5C
  0
DICTIONARY
  5
17C
102
{ACAD_REACTORS
330
C
102
}
330
C
100
AcDbDictionary
281
     1
  0
DICTIONARY
  5
2A
102
{ACAD_REACTORS
330
C
102
}
330
C
100
AcDbDictionary
281
     1
  3
2dWireframe
350
2F
  3
3D Hidden
350
31
  3
3dWireframe
350
30
  3
Basic
350
32
  3
Brighten
350
36
  3
ColorChange
350
3A
  3
Conceptual
350
34
  3
Dim
350
35
  3
Facepattern
350
39
  3
Flat
350
2B
  3
FlatWithEdges
350
2C
  3
Gouraud
350
2D
  3
GouraudWithEdges
350
2E
  3
Linepattern
350
38
  3
Realistic
350
33
  3
Thicken
350
37
  0
DICTIONARY
  5
17A
102
{ACAD_REACTORS
330
C
102
}
330
C
100
AcDbDictionary
281
     1
  3
CANNOSCALE
350
17B
  3
PSOLHEIGHT
350
17F
  3
PSOLWIDTH
350
17E
  0
LAYOUT
  5
1E
102
{ACAD_REACTORS
330
1A
102
}
330
1A
100
AcDbPlotSettings
  1

  2
none_device
  4

  6

 40
0.0
 41
0.0
 42
0.0
 43
0.0
 44
0.0
 45
0.0
 46
0.0
 47
0.0
 48
0.0
 49
0.0
140
0.0
141
0.0
142
1.0
143
1.0
 70
   688
 72
     0
 73
     0
 74
     5
  7

 75
    16
147
1.0
148
0.0
149
0.0
100
AcDbLayout
  1
Layout1
 70
     1
 71
     1
 10
0.0
 20
0.0
 11
1682.0
 21
2378.0
 12
0.0
 22
0.0
 32
0.0
 14
0.0
 24
0.0
 34
0.0
 15
1682.0
 25
2378.0
 35
0.0
146
0.0
 13
0.0
 23
0.0
 33
0.0
 16
1.0
 26
0.0
 36
0.0
 17
0.0
 27
1.0
 37
0.0
 76
     0
330
1B
  0
LAYOUT
  5
22
102
{ACAD_REACTORS
330
1A
102
}
330
1A
100
AcDbPlotSettings
  1

  2
none_device
  4

  6

 40
0.0
 41
0.0
 42
0.0
 43
0.0
 44
0.0
 45
0.0
 46
0.0
 47
0.0
 48
0.0
 49
0.0
140
0.0
141
0.0
142
1.0
143
1.0
 70
  1712
 72
     0
 73
     0
 74
     0
  7

 75
     0
147
1.0
148
0.0
149
0.0
100
AcDbLayout
  1
Model
 70
     1
 71
     0
 10
0.0
 20
0.0
 11
1682.0
 21
2378.0
 12
0.0
 22
0.0
 32
0.0
 14
0.0
 24
0.0
 34
0.0
 15
1682.0
 25
2378.0
 35
0.0
146
0.0
 13
0.0
 23
0.0
 33
0.0
 16
1.0
 26
0.0
 36
0.0
 17
0.0
 27
1.0
 37
0.0
 76
     0
330
1F
331
29
  0
MLINESTYLE
  5
18
102
{ACAD_REACTORS
330
17
102
}
330
17
100
AcDbMlineStyle
  2
Standard
 70
     0
  3

 62
   256
 51
90.0
 52
90.0
 71
     2
 49
0.5
 62
   256
  6
BYLAYER
 49
-0.5
 62
   256
  6
BYLAYER
  0
ACDBPLACEHOLDER
  5
F
102
{ACAD_REACTORS
330
E
102
}
330
E
  0
SCALE
  5
3C
102
{ACAD_REACTORS
330
3B
102
}
330
3B
100
AcDbScale
 70
     0
300
1:1
140
1.0
141
1.0
290
     1
  0
SCALE
  5
3D
102
{ACAD_REACTORS
330
3B
102
}
330
3B
100
AcDbScale
 70
     0
300
1:2
140
1.0
141
2.0
290
     0
  0
SCALE
  5
3E
102
{ACAD_REACTORS
330
3B
102
}
330
3B
100
AcDbScale
 70
     0
300
1:4
140
1.0
141
4.0
290
     0
  0
SCALE
  5
3F
102
{ACAD_REACTORS
330
3B
102
}
330
3B
100
AcDbScale
 70
     0
300
1:5
140
1.0
141
5.0
290
     0
  0
SCALE
  5
40
102
{ACAD_REACTORS
330
3B
102
}
330
3B
100
AcDbScale
 70
     0
300
1:8
140
1.0
141
8.0
290
     0
  0
SCALE
  5
41
102
{ACAD_REACTORS
330
3B
102
}
330
3B
100
AcDbScale
 70
     0
300
1:10
140
1.0
141
10.0
290
     0
  0
SCALE
  5
42
102
{ACAD_REACTORS
330
3B
102
}
330
3B
100
AcDbScale
 70
     0
300
1:16
140
1.0
141
16.0
290
     0
  0
SCALE
  5
43
102
{ACAD_REACTORS
330
3B
102
}
330
3B
100
AcDbScale
 70
     0
300
1:20
140
1.0
141
20.0
290
     0
  0
SCALE
  5
44
102
{ACAD_REACTORS
330
3B
102
}
330
3B
100
AcDbScale
 70
     0
300
1:30
140
1.0
141
30.0
290
     0
  0
SCALE
  5
45
102
{ACAD_REACTORS
330
3B
102
}
330
3B
100
AcDbScale
 70
     0
300
1:40
140
1.0
141
40.0
290
     0
  0
SCALE
  5
46
102
{ACAD_REACTORS
330
3B
102
}
330
3B
100
AcDbScale
 70
     0
300
1:50
140
1.0
141
50.0
290
     0
  0
SCALE
  5
47
102
{ACAD_REACTORS
330
3B
102
}
330
3B
100
AcDbScale
 70
     0
300
1:100
140
1.0
141
100.0
290
     0
  0
SCALE
  5
48
102
{ACAD_REACTORS
330
3B
102
}
330
3B
100
AcDbScale
 70
     0
300
2:1
140
2.0
141
1.0
290
     0
  0
SCALE
  5
49
102
{ACAD_REACTORS
330
3B
102
}
330
3B
100
AcDbScale
 70
     0
300
4:1
140
4.0
141
1.0
290
     0
  0
SCALE
  5
4A
102
{ACAD_REACTORS
330
3B
102
}
330
3B
100
AcDbScale
 70
     0
300
8:1
140
8.0
141
1.0
290
     0
  0
SCALE
  5
4B
102
{ACAD_REACTORS
330
3B
102
}
330
3B
100
AcDbScale
 70
     0
300
10:1
140
10.0
141
1.0
290
     0
  0
SCALE
  5
4C
102
{ACAD_REACTORS
330
3B
102
}
330
3B
100
AcDbScale
 70
     0
300
100:1
140
100.0
141
1.0
290
     0
  0
SCALE
  5
4D
102
{ACAD_REACTORS
330
3B
102
}
330
3B
100
AcDbScale
 70
     0
300
1/128" = 1'-0"
140
0.0078125
141
12.0
290
     0
  0
SCALE
  5
4E
102
{ACAD_REACTORS
330
3B
102
}
330
3B
100
AcDbScale
 70
     0
300
1/64" = 1'-0"
140
0.015625
141
12.0
290
     0
  0
SCALE
  5
4F
102
{ACAD_REACTORS
330
3B
102
}
330
3B
100
AcDbScale
 70
     0
300
1/32" = 1'-0"
140
0.03125
141
12.0
290
     0
  0
SCALE
  5
50
102
{ACAD_REACTORS
330
3B
102
}
330
3B
100
AcDbScale
 70
     0
300
1/16" = 1'-0"
140
0.0625
141
12.0
290
     0
  0
SCALE
  5
51
102
{ACAD_REACTORS
330
3B
102
}
330
3B
100
AcDbScale
 70
     0
300
3/32" = 1'-0"
140
0.09375
141
12.0
290
     0
  0
SCALE
  5
52
102
{ACAD_REACTORS
330
3B
102
}
330
3B
100
AcDbScale
 70
     0
300
1/8" = 1'-0"
140
0.125
141
12.0
290
     0
  0
SCALE
  5
53
102
{ACAD_REACTORS
330
3B
102
}
330
3B
100
AcDbScale
 70
     0
300
3/16" = 1'-0"
140
0.1875
141
12.0
290
     0
  0
SCALE
  5
54
102
{ACAD_REACTORS
330
3B
102
}
330
3B
100
AcDbScale
 70
     0
300
1/4" = 1'-0"
140
0.25
141
12.0
290
     0
  0
SCALE
  5
55
102
{ACAD_REACTORS
330
3B
102
}
330
3B
100
AcDbScale
 70
     0
300
3/8" = 1'-0"
140
0.375
141
12.0
290
     0
  0
SCALE
  5
56
102
{ACAD_REACTORS
330
3B
102
}
330
3B
100
AcDbScale
 70
     0
300
1/2" = 1'-0"
140
0.5
141
12.0
290
     0
  0
SCALE
  5
57
102
{ACAD_REACTORS
330
3B
102
}
330
3B
100
AcDbScale
 70
     0
300
3/4" = 1'-0"
140
0.75
141
12.0
290
     0
  0
SCALE
  5
58
102
{ACAD_REACTORS
330
3B
102
}
330
3B
100
AcDbScale
 70
     0
300
1" = 1'-0"
140
1.0
141
12.0
290
     0
  0
SCALE
  5
59
102
{ACAD_REACTORS
330
3B
102
}
330
3B
100
AcDbScale
 70
     0
300
1-1/2" = 1'-0"
140
1.5
141
12.0
290
     0
  0
SCALE
  5
5A
102
{ACAD_REACTORS
330
3B
102
}
330
3B
100
AcDbScale
 70
     0
300
3" = 1'-0"
140
3.0
141
12.0
290
     0
  0
SCALE
  5
5B
102
{ACAD_REACTORS
330
3B
102
}
330
3B
100
AcDbScale
 70
     0
300
6" = 1'-0"
140
6.0
141
12.0
290
     0
  0
SCALE
  5
5C
102
{ACAD_REACTORS
330
3B
102
}
330
3B
100
AcDbScale
 70
     0
300
1'-0" = 1'-0"
140
12.0
141
12.0
290
     0
  0
VISUALSTYLE
  5
2F
102
{ACAD_REACTORS
330
2A
102
}
330
2A
100
AcDbVisualStyle
  2
2dWireframe
 70
     4
 71
     0
 72
     2
 73
     0
 90
        0
 40
-0.6
 41
-30.0
 62
     5
 63
     7
 74
     1
 91
        4
 64
     7
 65
   257
 75
     1
175
     1
 42
1.0
 92
        0
 66
   257
 43
1.0
 76
     1
 77
     6
 78
     2
 67
     7
 79
     5
170
     0
171
     0
290
     0
174
     0
 93
        1
 44
0.0
173
     0
291
     0
 45
0.0
1001
ACAD
1000
AcDbSavedByObjectVersion
1070
     0
  0
VISUALSTYLE
  5
31
102
{ACAD_REACTORS
330
2A
102
}
330
2A
100
AcDbVisualStyle
  2
3D Hidden
 70
     6
 71
     1
 72
     2
 73
     2
 90
        0
 40
-0.6
 41
-30.0
 62
     5
 63
     7
 74
     2
 91
        2
 64
     7
 65
   257
 75
     2
175
     1
 42
40.0
 92
        0
 66
   257
 43
1.0
 76
     1
 77
     6
 78
     2
 67
     7
 79
     3
170
     0
171
     0
290
     0
174
     0
 93
        1
 44
0.0
173
     0
291
     0
 45
0.0
1001
ACAD
1000
AcDbSavedByObjectVersion
1070
     0
  0
VISUALSTYLE
  5
30
102
{ACAD_REACTORS
330
2A
102
}
330
2A
100
AcDbVisualStyle
  2
3dWireframe
 70
     5
 71
     0
 72
     2
 73
     0
 90
        0
 40
-0.6
 41
-30.0
 62
     5
 63
     7
 74
     1
 91
        4
 64
     7
 65
   257
 75
     1
175
     1
 42
1.0
 92
        0
 66
   257
 43
1.0
 76
     1
 77
     6
 78
     2
 67
     7
 79
     5
170
     0
171
     0
290
     0
174
     0
 93
        1
 44
0.0
173
     0
291
     0
 45
0.0
1001
ACAD
1000
AcDbSavedByObjectVersion
1070
     0
  0
VISUALSTYLE
  5
32
102
{ACAD_REACTORS
330
2A
102
}
330
2A
100
AcDbVisualStyle
  2
Basic
 70
     7
 71
     1
 72
     0
 73
     1
 90
        0
 40
-0.6
 41
-30.0
 62
     5
 63
     7
 74
     0
 91
        4
 64
     7
 65
   257
 75
     1
175
     1
 42
1.0
 92
        8
 66
     7
 43
1.0
 76
     1
 77
     6
 78
     2
 67
     7
 79
     5
170
     0
171
     0
290
     0
174
     0
 93
        1
 44
0.0
173
     0
291
     1
 45
0.0
1001
ACAD
1000
AcDbSavedByObjectVersion
1070
     0
  0
VISUALSTYLE
  5
36
102
{ACAD_REACTORS
330
2A
102
}
330
2A
100
AcDbVisualStyle
  2
Brighten
 70
    12
 71
     2
 72
     2
 73
     0
 90
        0
 40
-0.6
 41
-30.0
 62
     5
 63
     7
 74
     1
 91
        4
 64
     7
 65
   257
 75
     1
175
     1
 42
1.0
 92
        8
 66
     7
 43
1.0
 76
     1
 77
     6
 78
     2
 67
     7
 79
     5
170
     0
171
     0
290
     0
174
     0
 93
        1
 44
50.0
173
     0
291
     1
 45
0.0
1001
ACAD
1000
AcDbSavedByObjectVersion
1070
     0
  0
VISUALSTYLE
  5
3A
102
{ACAD_REACTORS
330
2A
102
}
330
2A
100
AcDbVisualStyle
  2
ColorChange
 70
    16
 71
     2
 72
     2
 73
     3
 90
        0
 40
-0.6
 41
-30.0
 62
     5
 63
     8
 74
     1
 91
        4
 64
     7
 65
   257
 75
     1
175
     1
 42
1.0
 92
        8
 66
     8
 43
1.0
 76
     1
 77
     6
 78
     2
 67
     7
 79
     5
170
     0
171
     0
290
     0
174
     0
 93
        1
 44
0.0
173
     0
291
     1
 45
0.0
1001
ACAD
1000
AcDbSavedByObjectVersion
1070
     0
  0
VISUALSTYLE
  5
34
102
{ACAD_REACTORS
330
2A
102
}
330
2A
100
AcDbVisualStyle
  2
Conceptual
 70
     9
 71
     3
 72
     2
 73
     0
 90
        0
 40
-0.6
 41
-30.0
 62
     5
 63
     7
 74
     2
 91
        2
 64
     7
 65
   257
 75
     1
175
     1
 42
40.0
 92
        8
 66
     7
 43
1.0
 76
     1
 77
     6
 78
     2
 67
     7
 79
     3
170
     0
171
     0
290
     0
174
     0
 93
        1
 44
0.0
173
     0
291
     0
 45
0.0
1001
ACAD
1000
AcDbSavedByObjectVersion
1070
     0
  0
VISUALSTYLE
  5
35
102
{ACAD_REACTORS
330
2A
102
}
330
2A
100
AcDbVisualStyle
  2
Dim
 70
    11
 71
     2
 72
     2
 73
     0
 90
        0
 40
-0.6
 41
-30.0
 62
     5
 63
     7
 74
     1
 91
        4
 64
     7
 65
   257
 75
     1
175
     1
 42
1.0
 92
        8
 66
     7
 43
1.0
 76
     1
 77
     6
 78
     2
 67
     7
 79
     5
170
     0
171
     0
290
     0
174
     0
 93
        1
 44
-50.0
173
     0
291
     1
 45
0.0
1001
ACAD
1000
AcDbSavedByObjectVersion
1070
     0
  0
VISUALSTYLE
  5
39
102
{ACAD_REACTORS
330
2A
102
}
330
2A
100
AcDbVisualStyle
  2
Facepattern
 70
    15
 71
     2
 72
     2
 73
     0
 90
        0
 40
-0.6
 41
-30.0
 62
     5
 63
     7
 74
     1
 91
        4
 64
     7
 65
   257
 75
     1
175
     1
 42
1.0
 92
        8
 66
     7
 43
1.0
 76
     1
 77
     6
 78
     2
 67
     7
 79
     5
170
     0
171
     0
290
     0
174
     0
 93
        1
 44
0.0
173
     0
291
     1
 45
0.0
1001
ACAD
1000
AcDbSavedByObjectVersion
1070
     0
  0
VISUALSTYLE
  5
2B
102
{ACAD_REACTORS
330
2A
102
}
330
2A
100
AcDbVisualStyle
  2
Flat
 70
     0
 71
     2
 72
     1
 73
     1
 90
        2
 40
-0.6
 41
30.0
 62
     5
 63
     7
 74
     0
 91
        4
 64
     7
 65
   257
 75
     1
175
     1
 42
1.0
 92
        8
 66
     7
 43
1.0
 76
     1
 77
     6
 78
     2
 67
     7
 79
     5
170
     0
171
     0
290
     0
174
     0
 93
       13
 44
0.0
173
     0
291
     1
 45
0.0
1001
ACAD
1000
AcDbSavedByObjectVersion
1070
     0
  0
VISUALSTYLE
  5
2C
102
{ACAD_REACTORS
330
2A
102
}
330
2A
100
AcDbVisualStyle
  2
FlatWithEdges
 70
     1
 71
     2
 72
     1
 73
     1
 90
        2
 40
-0.6
 41
30.0
 62
     5
 63
     7
 74
     1
 91
        4
 64
     7
 65
   257
 75
     1
175
     1
 42
1.0
 92
        0
 66
   257
 43
1.0
 76
     1
 77
     6
 78
     2
 67
     7
 79
     5
170
     0
171
     0
290
     0
174
     0
 93
       13
 44
0.0
173
     0
291
     1
 45
0.0
1001
ACAD
1000
AcDbSavedByObjectVersion
1070
     0
  0
VISUALSTYLE
  5
2D
102
{ACAD_REACTORS
330
2A
102
}
330
2A
100
AcDbVisualStyle
  2
Gouraud
 70
     2
 71
     2
 72
     2
 73
     1
 90
        2
 40
-0.6
 41
30.0
 62
     5
 63
     7
 74
     0
 91
        4
 64
     7
 65
   257
 75
     1
175
     1
 42
1.0
 92
        0
 66
     7
 43
1.0
 76
     1
 77
     6
 78
     2
 67
     7
 79
     5
170
     0
171
     0
290
     0
174
     0
 93
       13
 44
0.0
173
     0
291
     1
 45
0.0
1001
ACAD
1000
AcDbSavedByObjectVersion
1070
     0
  0
VISUALSTYLE
  5
2E
102
{ACAD_REACTORS
330
2A
102
}
330
2A
100
AcDbVisualStyle
  2
GouraudWithEdges
 70
     3
 71
     2
 72
     2
 73
     1
 90
        2
 40
-0.6
 41
30.0
 62
     5
 63
     7
 74
     1
 91
        4
 64
     7
 65
   257
 75
     1
175
     1
 42
1.0
 92
        0
 66
   257
 43
1.0
 76
     1
 77
     6
 78
     2
 67
     7
 79
     5
170
     0
171
     0
290
     0
174
     0
 93
       13
 44
0.0
173
     0
291
     1
 45
0.0
1001
ACAD
1000
AcDbSavedByObjectVersion
1070
     0
  0
VISUALSTYLE
  5
38
102
{ACAD_REACTORS
330
2A
102
}
330
2A
100
AcDbVisualStyle
  2
Linepattern
 70
    14
 71
     2
 72
     2
 73
     0
 90
        0
 40
-0.6
 41
-30.0
 62
     5
 63
     7
 74
     1
 91
        4
 64
     7
 65
   257
 75
     7
175
     7
 42
1.0
 92
        8
 66
     7
 43
1.0
 76
     1
 77
     6
 78
     2
 67
     7
 79
     5
170
     0
171
     0
290
     0
174
     0
 93
        1
 44
0.0
173
     0
291
     1
 45
0.0
1001
ACAD
1000
AcDbSavedByObjectVersion
1070
     0
  0
VISUALSTYLE
  5
33
102
{ACAD_REACTORS
330
2A
102
}
330
2A
100
AcDbVisualStyle
  2
Realistic
 70
     8
 71
     2
 72
     2
 73
     0
 90
        0
 40
-0.6
 41
-30.0
 62
     5
 63
     7
 74
     1
 91
        0
 64
     7
 65
   257
 75
     1
175
     1
 42
1.0
 92
        8
 66
     8
 43
1.0
 76
     1
 77
     6
 78
     2
 67
     7
 79
     5
170
     0
171
     0
290
     0
174
     0
 93
       13
 44
0.0
173
     0
291
     0
 45
0.0
1001
ACAD
1000
AcDbSavedByObjectVersion
1070
     0
  0
VISUALSTYLE
  5
37
102
{ACAD_REACTORS
330
2A
102
}
330
2A
100
AcDbVisualStyle
  2
Thicken
 70
    13
 71
     2
 72
     2
 73
     0
 90
        0
 40
-0.6
 41
-30.0
 62
     5
 63
     7
 74
     1
 91
        4
 64
     7
 65
   257
 75
     1
175
     1
 42
1.0
 92
       12
 66
     7
 43
1.0
 76
     1
 77
     6
 78
     2
 67
     7
 79
     5
170
     0
171
     0
290
     0
174
     0
 93
        1
 44
0.0
173
     0
291
     1
 45
0.0
1001
ACAD
1000
AcDbSavedByObjectVersion
1070
     0
  0
DICTIONARYVAR
  5
17B
102
{ACAD_REACTORS
330
17A
102
}
330
17A
100
DictionaryVariables
280
     0
  1
1:1
  0
DICTIONARYVAR
  5
17F
102
{ACAD_REACTORS
330
17A
102
}
330
17A
100
DictionaryVariables
280
     0
  1
80.000000
  0
DICTIONARYVAR
  5
17E
102
{ACAD_REACTORS
330
17A
102
}
330
17A
100
DictionaryVariables
280
     0
  1
5.000000
  0
ENDSEC
  0
EOF
