  0
SECTION
  2
HEADER
  9
$ACADVER
  1
AC1015
  9
$ACADMAINTVER
 70
     6
  9
$DWGCODEPAGE
  3
ANSI_1252
  9
$INSBASE
 10
0.0
 20
0.0
 30
0.0
  9
$EXTMIN
 10
0.0
 20
0.0
 30
0.0
  9
$EXTMAX
 10
1682.0
 20
2378.0
 30
0.0
  9
$LIMMIN
 10
0.0
 20
0.0
  9
$LIMMAX
 10
1682.0
 20
2378.0
  9
$ORTHOMODE
 70
     0
  9
$REGENMODE
 70
     1
  9
$FILLMODE
 70
     1
  9
$QTEXTMODE
 70
     0
  9
$MIRRTEXT
 70
     1
  9
$LTSCALE
 40
1.0
  9
$ATTMODE
 70
     1
  9
$TEXTSIZE
 40
2.5
  9
$TRACEWID
 40
1.0
  9
$TEXTSTYLE
  7
Standard
  9
$CLAYER
  8
0
  9
$CELTYPE
  6
ByLayer
  9
$CECOLOR
 62
   256
  9
$CELTSCALE
 40
1.0
  9
$DISPSILH
 70
     0
  9
$DIMSCALE
 40
1.0
  9
$DIMASZ
 40
2.5
  9
$DIMEXO
 40
0.625
  9
$DIMDLI
 40
3.75
  9
$DIMRND
 40
0.0
  9
$DIMDLE
 40
0.0
  9
$DIMEXE
 40
1.25
  9
$DIMTP
 40
0.0
  9
$DIMTM
 40
0.0
  9
$DIMTXT
 40
2.5
  9
$DIMCEN
 40
2.5
  9
$DIMTSZ
 40
0.0
  9
$DIMTOL
 70
     0
  9
$DIMLIM
 70
     0
  9
$DIMTIH
 70
     0
  9
$DIMTOH
 70
     0
  9
$DIMSE1
 70
     0
  9
$DIMSE2
 70
     0
  9
$DIMTAD
 70
     1
  9
$DIMZIN
 70
     8
  9
$DIMBLK
  1

  9
$DIMASO
 70
     1
  9
$DIMSHO
 70
     1
  9
$DIMPOST
  1

  9
$DIMAPOST
  1

  9
$DIMALT
 70
     0
  9
$DIMALTD
 70
     3
  9
$DIMALTF
 40
0.0393700787
  9
$DIMLFAC
 40
1.0
  9
$DIMTOFL
 70
     1
  9
$DIMTVP
 40
0.0
  9
$DIMTIX
 70
     0
  9
$DIMSOXD
 70
     0
  9
$DIMSAH
 70
     0
  9
$DIMBLK1
  1

  9
$DIMBLK2
  1

  9
$DIMSTYLE
  2
ISO-25
  9
$DIMCLRD
 70
     0
  9
$DIMCLRE
 70
     0
  9
$DIMCLRT
 70
     0
  9
$DIMTFAC
 40
1.0
  9
$DIMGAP
 40
0.625
  9
$DIMJUST
 70
     0
  9
$DIMSD1
 70
     0
  9
$DIMSD2
 70
     0
  9
$DIMTOLJ
 70
     0
  9
$DIMTZIN
 70
     8
  9
$DIMALTZ
 70
     0
  9
$DIMALTTZ
 70
     0
  9
$DIMUPT
 70
     0
  9
$DIMDEC
 70
     2
  9
$DIMTDEC
 70
     2
  9
$DIMALTU
 70
     2
  9
$DIMALTTD
 70
     3
  9
$DIMTXSTY
  7
Standard
  9
$DIMAUNIT
 70
     0
  9
$DIMADEC
 70
     0
  9
$DIMALTRND
 40
0.0
  9
$DIMAZIN
 70
     0
  9
$DIMDSEP
 70
    44
  9
$DIMATFIT
 70
     3
  9
$DIMFRAC
 70
     0
  9
$DIMLDRBLK
  1

  9
$DIMLUNIT
 70
     2
  9
$DIMLWD
 70
    -2
  9
$DIMLWE
 70
    -2
  9
$DIMTMOVE
 70
     0
  9
$LUNITS
 70
     2
  9
$LUPREC
 70
     4
  9
$SKETCHINC
 40
1.0
  9
$FILLETRAD
 40
10.0
  9
$AUNITS
 70
     0
  9
$AUPREC
 70
     0
  9
$MENU
  1
.
  9
$ELEVATION
 40
0.0
  9
$PELEVATION
 40
0.0
  9
$THICKNESS
 40
0.0
  9
$LIMCHECK
 70
     0
  9
$CHAMFERA
 40
10.0
  9
$CHAMFERB
 40
10.0
  9
$CHAMFERC
 40
20.0
  9
$CHAMFERD
 40
0.0
  9
$SKPOLY
 70
     0
  9
$TDCREATE
 40
2455188.4217361
  9
$TDUCREATE
 40
2455188.380069433
  9
$TDUPDATE
 40
2455188.421736111
  9
$TDUUPDATE
 40
2455188.380069444
  9
$TDINDWG
 40
0.0000000116
  9
$TDUSRTIMER
 40
0.0000000116
  9
$USRTIMER
 70
     1
  9
$ANGBASE
 50
0.0
  9
$ANGDIR
 70
     0
  9
$PDMODE
 70
     0
  9
$PDSIZE
 40
0.0
  9
$PLINEWID
 40
0.0
  9
$SPLFRAME
 70
     0
  9
$SPLINETYPE
 70
     6
  9
$SPLINESEGS
 70
     8
  9
$HANDSEED
  5
168
  9
$SURFTAB1
 70
     6
  9
$SURFTAB2
 70
     6
  9
$SURFTYPE
 70
     6
  9
$SURFU
 70
     6
  9
$SURFV
 70
     6
  9
$UCSBASE
  2

  9
$UCSNAME
  2

  9
$UCSORG
 10
0.0
 20
0.0
 30
0.0
  9
$UCSXDIR
 10
1.0
 20
0.0
 30
0.0
  9
$UCSYDIR
 10
0.0
 20
1.0
 30
0.0
  9
$UCSORTHOREF
  2

  9
$UCSORTHOVIEW
 70
     0
  9
$UCSORGTOP
 10
0.0
 20
0.0
 30
0.0
  9
$UCSORGBOTTOM
 10
0.0
 20
0.0
 30
0.0
  9
$UCSORGLEFT
 10
0.0
 20
0.0
 30
0.0
  9
$UCSORGRIGHT
 10
0.0
 20
0.0
 30
0.0
  9
$UCSORGFRONT
 10
0.0
 20
0.0
 30
0.0
  9
$UCSORGBACK
 10
0.0
 20
0.0
 30
0.0
  9
$PUCSBASE
  2

  9
$PUCSNAME
  2

  9
$PUCSORG
 10
0.0
 20
0.0
 30
0.0
  9
$PUCSXDIR
 10
1.0
 20
0.0
 30
0.0
  9
$PUCSYDIR
 10
0.0
 20
1.0
 30
0.0
  9
$PUCSORTHOREF
  2

  9
$PUCSORTHOVIEW
 70
     0
  9
$PUCSORGTOP
 10
0.0
 20
0.0
 30
0.0
  9
$PUCSORGBOTTOM
 10
0.0
 20
0.0
 30
0.0
  9
$PUCSORGLEFT
 10
0.0
 20
0.0
 30
0.0
  9
$PUCSORGRIGHT
 10
0.0
 20
0.0
 30
0.0
  9
$PUCSORGFRONT
 10
0.0
 20
0.0
 30
0.0
  9
$PUCSORGBACK
 10
0.0
 20
0.0
 30
0.0
  9
$USERI1
 70
     0
  9
$USERI2
 70
     0
  9
$USERI3
 70
     0
  9
$USERI4
 70
     0
  9
$USERI5
 70
     0
  9
$USERR1
 40
0.0
  9
$USERR2
 40
0.0
  9
$USERR3
 40
0.0
  9
$USERR4
 40
0.0
  9
$USERR5
 40
0.0
  9
$WORLDVIEW
 70
     1
  9
$SHADEDGE
 70
     3
  9
$SHADEDIF
 70
    70
  9
$TILEMODE
 70
     1
  9
$MAXACTVP
 70
    64
  9
$PINSBASE
 10
0.0
 20
0.0
 30
0.0
  9
$PLIMCHECK
 70
     0
  9
$PEXTMIN
 10
0.0
 20
0.0
 30
0.0
  9
$PEXTMAX
 10
1682.0
 20
2378.0
 30
0.0
  9
$PLIMMIN
 10
0.0
 20
0.0
  9
$PLIMMAX
 10
1682.0
 20
2378.0
  9
$UNITMODE
 70
     0
  9
$VISRETAIN
 70
     1
  9
$PLINEGEN
 70
     0
  9
$PSLTSCALE
 70
     1
  9
$TREEDEPTH
 70
  3020
  9
$CMLSTYLE
  2
Standard
  9
$CMLJUST
 70
     0
  9
$CMLSCALE
 40
20.0
  9
$PROXYGRAPHICS
 70
     1
  9
$MEASUREMENT
 70
     1
  9
$CELWEIGHT
370
    -1
  9
$ENDCAPS
280
     0
  9
$JOINSTYLE
280
     0
  9
$LWDISPLAY
290
     0
  9
$INSUNITS
 70
     4
  9
$HYPERLINKBASE
  1

  9
$STYLESHEET
  1

  9
$XEDIT
290
     1
  9
$CEPSNTYPE
380
     0
  9
$PSTYLEMODE
290
     1
  9
$FINGERPRINTGUID
  2
{A80946E9-6DF9-4F26-A8E0-25EB96E5CAA7}
  9
$VERSIONGUID
  2
{FAEB1C32-E019-11D5-929B-00C0DF256EC4}
  9
$EXTNAMES
290
     1
  9
$PSVPSCALE
 40
0.0
  9
$OLESTARTUP
290
     0
  0
ENDSEC
  0
SECTION
  2
CLASSES
  0
CLASS
  1
ACDBDICTIONARYWDFLT
  2
AcDbDictionaryWithDefault
  3
ObjectDBX Classes
 90
        0
280
     0
281
     0
  0
CLASS
  1
VISUALSTYLE
  2
AcDbVisualStyle
  3
ObjectDBX Classes
 90
     4095
280
     0
281
     0
  0
CLASS
  1
SCALE
  2
AcDbScale
  3
ObjectDBX Classes
 90
     1153
280
     0
281
     0
  0
CLASS
  1
DICTIONARYVAR
  2
AcDbDictionaryVar
  3
ObjectDBX Classes
 90
        0
280
     0
281
     0
  0
CLASS
  1
ACDBPLACEHOLDER
  2
AcDbPlaceHolder
  3
ObjectDBX Classes
 90
        0
280
     0
281
     0
  0
CLASS
  1
LAYOUT
  2
AcDbLayout
  3
ObjectDBX Classes
 90
        0
280
     0
281
     0
  0
ENDSEC
  0
SECTION
  2
TABLES
  0
TABLE
  2
VPORT
  5
8
330
0
100
AcDbSymbolTable
 70
     1
  0
VPORT
  5
29
330
8
100
AcDbSymbolTableRecord
100
AcDbViewportTableRecord
  2
*Active
 70
     0
 10
0.0
 20
0.0
 11
1.0
 21
1.0
 12
344.1869158879
 22
148.5
 13
0.0
 23
0.0
 14
10.0
 24
10.0
 15
10.0
 25
10.0
 16
0.0
 26
0.0
 36
1.0
 17
0.0
 27
0.0
 37
0.0
 40
297.0
 41
1.9729729729
 42
50.0
 43
0.0
 44
0.0
 50
0.0
 51
0.0
 71
     0
 72
   100
 73
     1
 74
     3
 75
     0
 76
     0
 77
     0
 78
     0
281
     0
 65
     1
110
0.0
120
0.0
130
0.0
111
1.0
121
0.0
131
0.0
112
0.0
122
1.0
132
0.0
 79
     0
146
0.0
  0
ENDTAB
  0
TABLE
  2
LTYPE
  5
5
330
0
100
AcDbSymbolTable
 70
     2
  0
LTYPE
  5
14
330
5
100
AcDbSymbolTableRecord
100
AcDbLinetypeTableRecord
  2
ByBlock
 70
     0
  3

 72
    65
 73
     0
 40
0.0
  0
LTYPE
  5
15
330
5
100
AcDbSymbolTableRecord
100
AcDbLinetypeTableRecord
  2
ByLayer
 70
     0
  3

 72
    65
 73
     0
 40
0.0
  0
LTYPE
  5
16
330
5
100
AcDbSymbolTableRecord
100
AcDbLinetypeTableRecord
  2
Continuous
 70
     0
  3
Solid line
 72
    65
 73
     0
 40
0.0
  0
LTYPE
  5
C1
330
5
100
AcDbSymbolTableRecord
100
AcDbLinetypeTableRecord
  2
CENTER2
 70
     0
  3
Center (.5x) ___ _ ___ _ ___ _ ___ _ ___ _ ___
 72
    65
 73
     4
 40
28.575
 49
19.05
 74
     4
 75
     0
340
0
 46
0.0
 50
0.0
 44
0.0
 45
0.0
 49
-3.175
 74
     4
 75
     0
340
0
 46
0.0
 50
0.0
 44
0.0
 45
0.0
 49
3.175
 74
     4
 75
     0
340
0
 46
0.0
 50
0.0
 44
0.0
 45
0.0
 49
-3.175
 74
     4
 75
     0
340
0
 46
0.0
 50
0.0
 44
0.0
 45
0.0
  0
ENDTAB
  0
TABLE
  2
LAYER
  5
2
330
0
100
AcDbSymbolTable
 70
    13
  0
LAYER
  5
10
330
2
100
AcDbSymbolTableRecord
100
AcDbLayerTableRecord
  2
0
 70
     0
 62
     7
  6
Continuous
370
    -3
390
F
  0
LAYER
  5
5D
330
2
100
AcDbSymbolTableRecord
100
AcDbLayerTableRecord
  2
Default
 70
     0
 62
     7
  6
Continuous
370
    -3
390
F
  0
LAYER
  5
60
330
2
100
AcDbSymbolTableRecord
100
AcDbLayerTableRecord
  2
$DDT_AUDIT_GENERATED_(60)
 70
     0
 62
     7
  6
Continuous
370
    -3
390
F
  0
LAYER
  5
75
330
2
100
AcDbSymbolTableRecord
100
AcDbLayerTableRecord
  2
$DDT_AUDIT_GENERATED_(75)
 70
     0
 62
     7
  6
Continuous
370
    -3
390
F
  0
LAYER
  5
78
330
2
100
AcDbSymbolTableRecord
100
AcDbLayerTableRecord
  2
$DDT_AUDIT_GENERATED_(78)
 70
     0
 62
     7
  6
Continuous
370
    -3
390
F
  0
LAYER
  5
A3
330
2
100
AcDbSymbolTableRecord
100
AcDbLayerTableRecord
  2
$DDT_AUDIT_GENERATED_(A3)
 70
     0
 62
     7
  6
Continuous
370
    -3
390
F
  0
LAYER
  5
B9
330
2
100
AcDbSymbolTableRecord
100
AcDbLayerTableRecord
  2
$DDT_AUDIT_GENERATED_(B9)
 70
     0
 62
     7
  6
Continuous
370
    -3
390
F
  0
LAYER
  5
BE
330
2
100
AcDbSymbolTableRecord
100
AcDbLayerTableRecord
  2
$DDT_AUDIT_GENERATED_(BE)
 70
     0
 62
     7
  6
Continuous
370
    -3
390
F
  0
LAYER
  5
C0
330
2
100
AcDbSymbolTableRecord
100
AcDbLayerTableRecord
  2
DV1_Standard
 70
     0
 62
     7
  6
Continuous
370
    -3
390
F
  0
LAYER
  5
F5
330
2
100
AcDbSymbolTableRecord
100
AcDbLayerTableRecord
  2
$DDT_AUDIT_GENERATED_(F5)
 70
     0
 62
     7
  6
Continuous
370
    -3
390
F
  0
LAYER
  5
111
330
2
100
AcDbSymbolTableRecord
100
AcDbLayerTableRecord
  2
$DDT_AUDIT_GENERATED_(111)
 70
     0
 62
     7
  6
Continuous
370
    -3
390
F
  0
LAYER
  5
119
330
2
100
AcDbSymbolTableRecord
100
AcDbLayerTableRecord
  2
DV2_Standard
 70
     0
 62
     7
  6
Continuous
370
    -3
390
F
  0
LAYER
  5
152
330
2
100
AcDbSymbolTableRecord
100
AcDbLayerTableRecord
  2
DV3_Standard
 70
     0
 62
     7
  6
Continuous
370
    -3
390
F
  0
ENDTAB
  0
TABLE
  2
STYLE
  5
3
330
0
100
AcDbSymbolTable
 70
     2
  0
STYLE
  5
11
330
3
100
AcDbSymbolTableRecord
100
AcDbTextStyleTableRecord
  2
Standard
 70
     0
 40
0.0
 41
1.0
 50
0.0
 71
     0
 42
2.5
  3
txt
  4

  0
STYLE
  5
157
330
3
100
AcDbSymbolTableRecord
100
AcDbTextStyleTableRecord
  2
SEACAD_seiso_ttf
 70
     0
 40
0.0
 41
1.0
 50
0.0
 71
     0
 42
0.2
  3
seiso.ttf
  4

  0
ENDTAB
  0
TABLE
  2
VIEW
  5
6
330
0
100
AcDbSymbolTable
 70
     0
  0
ENDTAB
  0
TABLE
  2
UCS
  5
7
330
0
100
AcDbSymbolTable
 70
     0
  0
ENDTAB
  0
TABLE
  2
APPID
  5
9
330
0
100
AcDbSymbolTable
 70
     1
  0
APPID
  5
12
330
9
100
AcDbSymbolTableRecord
100
AcDbRegAppTableRecord
  2
ACAD
 70
     0
  0
ENDTAB
  0
TABLE
  2
DIMSTYLE
  5
A
330
0
100
AcDbSymbolTable
 70
     1
100
AcDbDimStyleTable
  0
DIMSTYLE
105
27
330
A
100
AcDbSymbolTableRecord
100
AcDbDimStyleTableRecord
  2
ISO-25
 70
     0
 41
2.5
 42
0.625
 43
3.75
 44
1.25
 73
     0
 74
     0
 77
     1
 78
     8
140
2.5
141
2.5
143
0.0393700787
147
0.625
171
     3
172
     1
271
     2
272
     2
274
     3
278
    44
283
     0
284
     8
340
11
  0
ENDTAB
  0
TABLE
  2
BLOCK_RECORD
  5
1
330
0
100
AcDbSymbolTable
 70
     4
  0
BLOCK_RECORD
  5
1F
330
1
100
AcDbSymbolTableRecord
100
AcDbBlockTableRecord
  2
*Model_Space
340
22
  0
BLOCK_RECORD
  5
1B
330
1
100
AcDbSymbolTableRecord
100
AcDbBlockTableRecord
  2
*Paper_Space
340
1E
  0
BLOCK_RECORD
  5
5E
330
1
100
AcDbSymbolTableRecord
100
AcDbBlockTableRecord
  2
SE
340
0
102
{BLKREFS
331
5F
102
}
  0
BLOCK_RECORD
  5
C6
330
1
100
AcDbSymbolTableRecord
100
AcDbBlockTableRecord
  2
SE1
340
0
102
{BLKREFS
331
C7
102
}
  0
BLOCK_RECORD
  5
120
330
1
100
AcDbSymbolTableRecord
100
AcDbBlockTableRecord
  2
SE2
340
0
102
{BLKREFS
331
121
102
}
  0
ENDTAB
  0
ENDSEC
  0
SECTION
  2
BLOCKS
  0
BLOCK
  5
20
330
1F
100
AcDbEntity
  8
0
100
AcDbBlockBegin
  2
*Model_Space
 70
     0
 10
0.0
 20
0.0
 30
0.0
  3
*Model_Space
  1

  0
ENDBLK
  5
21
330
1F
100
AcDbEntity
  8
0
100
AcDbBlockEnd
  0
BLOCK
  5
1C
330
1B
100
AcDbEntity
 67
     1
  8
0
100
AcDbBlockBegin
  2
*Paper_Space
 70
     0
 10
0.0
 20
0.0
 30
0.0
  3
*Paper_Space
  1

  0
ENDBLK
  5
1D
330
1B
100
AcDbEntity
 67
     1
  8
0
100
AcDbBlockEnd
  0
BLOCK
  5
C4
330
5E
100
AcDbEntity
  8
0
100
AcDbBlockBegin
  2
SE
 70
     0
 10
0.0
 20
0.0
 30
0.0
  3
SE
  1

  0
LINE
  5
61
330
5E
100
AcDbEntity
  8
$DDT_AUDIT_GENERATED_(60)
  6
Continuous
 62
     7
100
AcDbLine
 10
13.275
 20
538.1069982684
 30
0.0
 11
13.7724841142
 21
644.5686062991
 31
0.0
  0
SPLINE
  5
62
330
5E
100
AcDbEntity
  8
$DDT_AUDIT_GENERATED_(60)
  6
Continuous
 62
     7
100
AcDbSpline
210
0.0
220
0.0
230
1.0
 70
     8
 71
     5
 72
    71
 73
    65
 74
     0
 42
0.0000000001181137
 43
0.0000000001
 40
0.0
 40
0.0
 40
0.0
 40
0.0
 40
0.0
 40
0.0
 40
0.0077736318407955
 40
0.0155472636815629
 40
0.0233208955223775
 40
0.0310945273631921
 40
0.0388681592040069
 40
0.0466417910448215
 40
0.0544154228855286
 40
0.0621890547263434
 40
0.069962686567158
 40
0.0777363184079726
 40
0.0855099502487874
 40
0.093283582089602
 40
0.1088308457711238
 40
0.1243781094527531
 40
0.140080845771119
 40
0.1557835820895926
 40
0.1714863184079586
 40
0.1871890547263246
 40
0.2028917910447982
 40
0.2185945273631643
 40
0.2500000000000039
 40
0.2814054726368435
 40
0.3128109452735754
 40
0.3285136815920491
 40
0.3442164179104151
 40
0.3599191542288887
 40
0.3756218905472548
 40
0.4067164179104059
 40
0.4378109452736645
 40
0.4689054726368156
 40
0.4999999999999666
 40
0.5314054726368064
 40
0.562810945273646
 40
0.594216417910378
 40
0.6256218905472176
 40
0.6567164179103688
 40
0.6878109452736274
 40
0.7189054726367785
 40
0.7499999999999295
 40
0.7814054726367693
 40
0.7971082089552428
 40
0.8128109452736089
 40
0.8285136815919748
 40
0.8442164179104484
 40
0.8599191542288144
 40
0.8756218905471806
 40
0.8911691542288098
 40
0.9067164179104392
 40
0.9144900497512539
 40
0.9222636815919609
 40
0.9300373134327757
 40
0.9378109452735903
 40
0.9455845771144049
 40
0.9533582089552195
 40
0.9611318407960343
 40
0.9689054726367414
 40
0.9766791044775561
 40
0.9844527363183708
 40
0.9922263681591854
 40
1.0
 40
1.0
 40
1.0
 40
1.0
 40
1.0
 40
1.0
 10
13.77266174968465
 20
644.6066202946912
 30
0.0
 10
13.7722370490379
 20
644.5157343497656
 30
0.0
 10
13.7731963852589
 20
644.3580852001655
 30
0.0
 10
13.7807151485039
 20
644.1226658316535
 30
0.0
 10
13.8019213852549
 20
643.7806364700106
 30
0.0
 10
13.8334398844879
 20
643.1961289670456
 30
0.0
 10
13.8717606443539
 20
642.6060704499777
 30
0.0
 10
13.9163009941529
 20
641.9813407829515
 30
0.0
 10
13.9659467492789
 20
641.3515889029475
 30
0.0
 10
14.0207340349449
 20
640.7055704550567
 30
0.0
 10
14.0804772074189
 20
640.0697642771895
 30
0.0
 10
14.1453122937699
 20
639.4292701269317
 30
0.0
 10
14.2192949742839
 20
638.7667105985616
 30
0.0
 10
14.3072355142279
 20
638.0266495066006
 30
0.0
 10
14.4352456591019
 20
637.0547358876496
 30
0.0
 10
14.5792246830189
 20
636.0764461556186
 30
0.0
 10
14.7754044582379
 20
634.8852518258706
 30
0.0
 10
15.0185737524939
 20
633.6057900768776
 30
0.0
 10
15.2996320505219
 20
632.3036701999166
 30
0.0
 10
15.6103493232169
 20
631.0387109995046
 30
0.0
 10
15.9573255456699
 20
629.7847530125085
 30
0.0
 10
16.4234601217759
 20
628.2867793018416
 30
0.0
 10
17.0502955102299
 20
626.5571119035006
 30
0.0
 10
17.8575306748199
 20
624.6689697163737
 30
0.0
 10
18.8376344722389
 20
622.7978595912575
 30
0.0
 10
19.9527697283319
 20
621.0626299747266
 30
0.0
 10
21.0808433640289
 20
619.5971627437826
 30
0.0
 10
22.1512780017029
 20
618.4083520399035
 30
0.0
 10
23.3030224433719
 20
617.2950626594126
 30
0.0
 10
24.7424930639209
 20
616.1087736212706
 30
0.0
 10
26.6490944380189
 20
614.8800678503926
 30
0.0
 10
28.9293044181599
 20
613.8133046170126
 30
0.0
 10
31.7976741583539
 20
613.0231200457646
 30
0.0
 10
34.78947810466485
 20
612.7580109305916
 30
0.0
 10
37.80285792881389
 20
613.0311054321176
 30
0.0
 10
40.6564969053639
 20
613.8246281487056
 30
0.0
 10
43.2540344276349
 20
615.0496402921046
 30
0.0
 10
45.5333909293489
 20
616.6126731541716
 30
0.0
 10
47.5072486492979
 20
618.4300683582866
 30
0.0
 10
49.1890408752939
 20
620.4430960335186
 30
0.0
 10
50.6156816078439
 20
622.6091178624827
 30
0.0
 10
51.6904148458209
 20
624.6686597424456
 30
0.0
 10
52.5073170283579
 20
626.5732445461306
 30
0.0
 10
53.1242775537369
 20
628.2837068715016
 30
0.0
 10
53.5914749065419
 20
629.7792426554506
 30
0.0
 10
53.9404273387059
 20
631.0404516154946
 30
0.0
 10
54.2527916348749
 20
632.3139897902397
 30
0.0
 10
54.53035233397789
 20
633.6005233401755
 30
0.0
 10
54.7744031328919
 20
634.8870763600236
 30
0.0
 10
54.9682399662719
 20
636.0581425640146
 30
0.0
 10
55.1193804998469
 20
637.0862849410985
 30
0.0
 10
55.2393109513679
 20
638.0014358393587
 30
0.0
 10
55.3323963999529
 20
638.7789115834086
 30
0.0
 10
55.40506088254691
 20
639.4358814013425
 30
0.0
 10
55.4691213422679
 20
640.0645576331425
 30
0.0
 10
55.5295565269149
 20
640.7083572125706
 30
0.0
 10
55.58373916727589
 20
641.3484472635056
 30
0.0
 10
55.6339015159689
 20
641.9835853393276
 30
0.0
 10
55.6781088342769
 20
642.6041661261356
 30
0.0
 10
55.7165492948989
 20
643.1966131772666
 30
0.0
 10
55.7479396577849
 20
643.7767178071337
 30
0.0
 10
55.7693136817979
 20
644.1265079345856
 30
0.0
 10
55.7767570677599
 20
644.3511955260146
 30
0.0
 10
55.7777459363989
 20
644.5193754664416
 30
0.0
 10
55.77733825570735
 20
644.6066191407682
 30
0.0
  0
LINE
  5
63
330
5E
100
AcDbEntity
  8
$DDT_AUDIT_GENERATED_(60)
  6
Continuous
 62
     7
100
AcDbLine
 10
55.7775158858
 20
644.5686062991
 30
0.0
 11
56.275
 21
538.1069982684
 31
0.0
  0
LINE
  5
64
330
5E
100
AcDbEntity
  8
$DDT_AUDIT_GENERATED_(60)
  6
Continuous
 62
     7
100
AcDbLine
 10
56.275
 20
538.1069982684
 30
0.0
 11
13.275
 21
538.1069982684
 31
0.0
  0
LINE
  5
65
330
5E
100
AcDbEntity
  8
$DDT_AUDIT_GENERATED_(60)
  6
Continuous
 62
     7
100
AcDbLine
 10
55.7770929788
 20
644.6591084105
 30
0.0
 11
55.7773364484
 21
644.6070058978
 31
0.0
  0
LINE
  5
66
330
5E
100
AcDbEntity
  8
$DDT_AUDIT_GENERATED_(60)
  6
Continuous
 62
     7
100
AcDbLine
 10
13.7729070225
 20
644.6591086784
 30
0.0
 11
13.7726635516
 21
644.6070058978
 31
0.0
  0
SPLINE
  5
67
330
5E
100
AcDbEntity
  8
$DDT_AUDIT_GENERATED_(60)
  6
Continuous
 62
     7
100
AcDbSpline
210
0.0
220
0.0
230
1.0
 70
     8
 71
     3
 72
    10
 73
     6
 74
     0
 42
0.000000013839787
 43
0.0000000001
 40
0.0
 40
0.0
 40
0.0
 40
0.0
 40
0.5
 40
0.5
 40
1.0
 40
1.0
 40
1.0
 40
1.0
 10
55.32709796792081
 20
645.1069280510093
 30
0.0
 10
55.44457025616934
 20
645.1069669990288
 30
0.0
 10
55.56137285395472
 20
645.0588310657431
 30
0.0
 10
55.72793400968916
 20
644.8931315870082
 30
0.0
 10
55.77667511769771
 20
644.7765802278877
 30
0.0
 10
55.77713029961436
 20
644.6591085849208
 30
0.0
  0
ARC
  5
68
330
5E
100
AcDbEntity
  8
$DDT_AUDIT_GENERATED_(60)
  6
Continuous
 62
     7
100
AcDbCircle
 10
14.2225617036
 20
644.6572323025
 30
0.0
 40
0.4496958776790653
100
AcDbArc
 50
89.9566387443
 51
112.7854250041
  0
LINE
  5
69
330
5E
100
AcDbEntity
  8
$DDT_AUDIT_GENERATED_(60)
  6
Continuous
 62
     7
100
AcDbLine
 10
55.7773364484
 20
644.6070058978
 30
0.0
 11
34.775
 21
644.6070058978
 31
0.0
  0
ARC
  5
6A
330
5E
100
AcDbEntity
  8
$DDT_AUDIT_GENERATED_(60)
  6
Continuous
 62
     7
100
AcDbCircle
 10
17.3494542551
 20
-3365.1966175577
 30
0.0
 40
4009.857321456643
100
AcDbArc
 50
90.0496790932
 51
90.0511048669
  0
LINE
  5
6B
330
5E
100
AcDbEntity
  8
$DDT_AUDIT_GENERATED_(60)
  6
Continuous
 62
     7
100
AcDbLine
 10
34.775
 20
644.6070058978
 30
0.0
 11
13.7726635516
 21
644.6070058978
 31
0.0
  0
SPLINE
  5
6C
330
5E
100
AcDbEntity
  8
$DDT_AUDIT_GENERATED_(60)
  6
Continuous
 62
     7
100
AcDbSpline
210
0.0
220
0.0
230
1.0
 70
     8
 71
     6
 72
    14
 73
     7
 74
     0
 42
0.000000000571637
 43
0.0000000001
 40
0.0
 40
0.0
 40
0.0
 40
0.0
 40
0.0
 40
0.0
 40
0.0
 40
1.0
 40
1.0
 40
1.0
 40
1.0
 40
1.0
 40
1.0
 40
1.0
 10
22.98183478345359
 20
630.4269653289094
 30
0.0
 10
20.77248343339854
 20
631.9047587403463
 30
0.0
 10
18.77233704852175
 20
633.7483349264116
 30
0.0
 10
17.03819022984396
 20
635.9497457709648
 30
0.0
 10
15.61476404953941
 20
638.4989290236737
 30
0.0
 10
14.52705160144474
 20
641.3860766107435
 30
0.0
 10
13.772663551568
 20
644.6070058978196
 30
0.0
  0
SPLINE
  5
6D
330
5E
100
AcDbEntity
  8
$DDT_AUDIT_GENERATED_(60)
  6
Continuous
 62
     7
100
AcDbSpline
210
0.0
220
0.0
230
1.0
 70
     8
 71
     6
 72
    14
 73
     7
 74
     0
 42
0.000000000571637
 43
0.0000000001
 40
0.0
 40
0.0
 40
0.0
 40
0.0
 40
0.0
 40
0.0
 40
0.0
 40
1.0
 40
1.0
 40
1.0
 40
1.0
 40
1.0
 40
1.0
 40
1.0
 10
55.7773364484318
 20
644.607005897819
 30
0.0
 10
55.02294839855506
 20
641.3860766107427
 30
0.0
 10
53.93523595046037
 20
638.498929023673
 30
0.0
 10
52.51180977015582
 20
635.9497457709642
 30
0.0
 10
50.77766295147803
 20
633.7483349264113
 30
0.0
 10
48.77751656660122
 20
631.9047587403459
 30
0.0
 10
46.56816521654616
 20
630.426965328909
 30
0.0
  0
LINE
  5
6E
330
5E
100
AcDbEntity
  8
$DDT_AUDIT_GENERATED_(60)
  6
Continuous
 62
     7
100
AcDbLine
 10
34.7749975269
 20
645.1070058978
 30
0.0
 11
55.3270979679
 21
645.106928051
 31
0.0
  0
LINE
  5
6F
330
5E
100
AcDbEntity
  8
$DDT_AUDIT_GENERATED_(60)
  6
Continuous
 62
     7
100
AcDbLine
 10
14.222902032
 20
645.1069280514
 30
0.0
 11
34.7749975269
 21
645.1070058978
 31
0.0
  0
SPLINE
  5
70
330
5E
100
AcDbEntity
  8
$DDT_AUDIT_GENERATED_(60)
  6
Continuous
 62
     7
100
AcDbSpline
210
0.0
220
0.0
230
1.0
 70
     8
 71
     3
 72
    16
 73
    12
 74
     0
 42
0.000000000705693
 43
0.0000000001
 40
0.0
 40
0.0
 40
0.0
 40
0.0
 40
0.1249999999999993
 40
0.1249999999999993
 40
0.2499999999999987
 40
0.2499999999999987
 40
0.4999999999999991
 40
0.4999999999999991
 40
0.7499999999999996
 40
0.7499999999999996
 40
1.0
 40
1.0
 40
1.0
 40
1.0
 10
46.56816521654616
 20
630.426965328909
 30
0.0
 10
46.82623096296901
 20
630.697272071411
 30
0.0
 10
46.97374481788842
 20
630.9573299402118
 30
0.0
 10
47.0540915854088
 20
631.4685860770841
 30
0.0
 10
46.98335643024982
 20
631.7184833317522
 30
0.0
 10
46.45514444351942
 20
632.4112506842466
 30
0.0
 10
45.67013278687737
 20
632.8083048829334
 30
0.0
 10
43.39613010559549
 20
633.35586148493
 30
0.0
 10
41.91308373054703
 20
633.5025874894174
 30
0.0
 10
38.55656709104529
 20
633.5919863036253
 30
0.0
 10
36.68483138531775
 20
633.5282878382847
 30
0.0
 10
34.77500000993457
 20
633.5281847574824
 30
0.0
  0
SPLINE
  5
71
330
5E
100
AcDbEntity
  8
$DDT_AUDIT_GENERATED_(60)
  6
Continuous
 62
     7
100
AcDbSpline
210
0.0
220
0.0
230
1.0
 70
     8
 71
     3
 72
    18
 73
    14
 74
     0
 42
0.0000000006982375
 43
0.0000000001
 40
0.0
 40
0.0
 40
0.0
 40
0.0
 40
0.125
 40
0.125
 40
0.25
 40
0.25
 40
0.375
 40
0.375
 40
0.5
 40
0.5
 40
0.75
 40
0.75
 40
1.0
 40
1.0
 40
1.0
 40
1.0
 10
34.77500000993457
 20
633.5281847574824
 30
0.0
 10
33.81802191579579
 20
633.5281843281482
 30
0.0
 10
32.88706245678218
 20
633.5827119832787
 30
0.0
 10
31.06092795610974
 20
633.6491200241793
 30
0.0
 10
30.16468659816347
 20
633.6668325614726
 30
0.0
 10
28.49129139295673
 20
633.6349631821175
 30
0.0
 10
27.69422245713991
 20
633.5861932853563
 30
0.0
 10
26.2467798531359
 20
633.4190950734247
 30
0.0
 10
25.59935749487727
 20
633.3025769595417
 30
0.0
 10
23.88818853183775
 20
632.8572379153692
 30
0.0
 10
23.09813771807112
 20
632.4375487295506
 30
0.0
 10
22.38891012278767
 20
631.4875538056483
 30
0.0
 10
22.46574864422703
 20
630.9675313079888
 30
0.0
 10
22.98183478345359
 20
630.4269653289094
 30
0.0
  0
SPLINE
  5
72
330
5E
100
AcDbEntity
  8
$DDT_AUDIT_GENERATED_(60)
  6
Continuous
 62
     7
100
AcDbSpline
210
0.0
220
0.0
230
1.0
 70
     8
 71
     3
 72
     8
 73
     4
 74
     0
 42
0.0000000867140575
 43
0.0000000001
 40
0.2509158552486738
 40
0.2509158552486738
 40
0.2509158552486738
 40
0.2509158552486738
 40
1.0
 40
1.0
 40
1.0
 40
1.0
 10
55.7242560328979
 20
644.6857196719724
 30
0.0
 10
55.75675936514629
 20
644.7062976392695
 30
0.0
 10
55.77120220808244
 20
644.7275489816149
 30
0.0
 10
55.76758456170637
 20
644.7494736990084
 30
0.0
  0
LINE
  5
73
330
5E
100
AcDbEntity
  8
$DDT_AUDIT_GENERATED_(60)
  6
Continuous
 62
     7
100
AcDbLine
 10
55.675808985
 20
644.6592157913
 30
0.0
 11
55.6855145513
 21
644.6652677266
 31
0.0
  0
SPLINE
  5
74
330
5E
100
AcDbEntity
  8
$DDT_AUDIT_GENERATED_(60)
  6
Continuous
 62
     7
100
AcDbSpline
210
0.0
220
0.0
230
1.0
 70
     8
 71
     3
 72
    10
 73
     6
 74
     0
 42
0.0000000194999956
 43
0.0000000001
 40
0.0
 40
0.0
 40
0.0
 40
0.0
 40
0.3314556673778674
 40
0.6648262807432359
 40
1.0
 40
1.0
 40
1.0
 40
1.0
 10
14.04825313809496
 20
645.0718560645118
 30
0.0
 10
13.99376780443791
 20
645.0409450312184
 30
0.0
 10
13.90608663159001
 20
644.9878306376905
 30
0.0
 10
13.83655460673437
 20
644.8351278857933
 30
0.0
 10
13.85897050519938
 20
644.7258926537314
 30
0.0
 10
13.87406453368005
 20
644.6592156894429
 30
0.0
  0
ARC
  5
76
330
5E
100
AcDbEntity
  8
$DDT_AUDIT_GENERATED_(75)
  6
Continuous
 62
     7
100
AcDbCircle
 10
34.775
 20
636.7070058978
 30
0.0
 40
20.50000000000001
100
AcDbArc
 50
152.725758993
 51
155.810485846
  0
ARC
  5
77
330
5E
100
AcDbEntity
  8
$DDT_AUDIT_GENERATED_(75)
  6
Continuous
 62
     7
100
AcDbCircle
 10
34.775
 20
636.7070058978
 30
0.0
 40
20.5
100
AcDbArc
 50
24.189514154
 51
27.2921951646
  0
SPLINE
  5
79
330
5E
100
AcDbEntity
  8
$DDT_AUDIT_GENERATED_(78)
  6
Continuous
 62
     7
100
AcDbSpline
210
0.0
220
0.0
230
1.0
 70
     8
 71
     3
 72
    15
 73
    11
 74
     0
 42
0.0000000013526412
 43
0.0000000001
 40
0.0
 40
0.0
 40
0.0
 40
0.0
 40
0.0413033636125479
 40
0.2050143247616741
 40
0.3585109020835934
 40
0.5018199034559594
 40
0.6514622029692848
 40
0.8038909493544005
 40
0.949229284624333
 40
1.0
 40
1.0
 40
1.0
 40
1.0
 10
41.19626146568195
 20
685.5428536842483
 30
0.0
 10
41.37203964661254
 20
685.531466917939
 30
0.0
 10
42.2341555203927
 20
685.4721881026211
 30
0.0
 10
43.64318418483692
 20
685.348614133831
 30
0.0
 10
45.20246523571592
 20
685.1552476965281
 30
0.0
 10
46.44731134911591
 20
684.9413348468548
 30
0.0
 10
47.39908558438992
 20
684.707079177594
 30
0.0
 10
48.02638714117992
 20
684.4561394683159
 30
0.0
 10
48.24956136461292
 20
684.2536997230541
 30
0.0
 10
48.27499998443792
 20
684.1393395124899
 30
0.0
 10
48.27499998443792
 20
684.1097247163659
 30
0.0
  0
SPLINE
  5
7A
330
5E
100
AcDbEntity
  8
$DDT_AUDIT_GENERATED_(78)
  6
Continuous
 62
     7
100
AcDbSpline
210
0.0
220
0.0
230
1.0
 70
     8
 71
     3
 72
    20
 73
    16
 74
     0
 42
0.000000000682192
 43
0.0000000001
 40
0.0
 40
0.0
 40
0.0
 40
0.0
 40
0.0227585765537649
 40
0.062526522436752
 40
0.1250470541089729
 40
0.1609068244338861
 40
0.2359167599865826
 40
0.3616886067443624
 40
0.5001348359105601
 40
0.6864385695799862
 40
0.7500854100101907
 40
0.8076399102049381
 40
0.8994247252955893
 40
0.9520285600867803
 40
1.0
 40
1.0
 40
1.0
 40
1.0
 10
35.27500006478992
 20
679.1129259083843
 30
0.0
 10
35.38592037311565
 20
679.1146367611002
 30
0.0
 10
35.6906611016023
 20
679.1193233385699
 30
0.0
 10
36.29994837253965
 20
679.1371222304367
 30
0.0
 10
36.97262379346579
 20
679.1694298042798
 30
0.0
 10
37.81587373511603
 20
679.2267053967909
 30
0.0
 10
38.96471549888254
 20
679.3312624865645
 30
0.0
 10
40.60438170266584
 20
679.5560089692801
 30
0.0
 10
42.75243819127658
 20
680.0170314660588
 30
0.0
 10
44.55277607835684
 20
680.6516892414801
 30
0.0
 10
45.86029963642569
 20
681.3897322525598
 30
0.0
 10
46.70713327716453
 20
681.9933914867164
 30
0.0
 10
47.4138816583396
 20
682.6893487611515
 30
0.0
 10
47.96030232144515
 20
683.4564499378533
 30
0.0
 10
48.17337202134262
 20
683.8987571977314
 30
0.0
 10
48.27499998443792
 20
684.1097247163659
 30
0.0
  0
ARC
  5
7B
330
5E
100
AcDbEntity
  8
$DDT_AUDIT_GENERATED_(78)
  6
Continuous
 62
     7
100
AcDbCircle
 10
34.9026921531
 20
584.7102980177
 30
0.0
 40
101.0287745988551
100
AcDbArc
 50
86.4284572112
 51
90.072417208
  0
ARC
  5
7C
330
5E
100
AcDbEntity
  8
$DDT_AUDIT_GENERATED_(78)
  6
Continuous
 62
     7
100
AcDbCircle
 10
34.6206082907
 20
585.4248337533
 30
0.0
 40
100.3142769777013
100
AcDbArc
 50
89.9118171541
 51
93.5823154544
  0
ARC
  5
7D
330
5E
100
AcDbEntity
  8
$DDT_AUDIT_GENERATED_(78)
  6
Continuous
 62
     7
100
AcDbCircle
 10
21.7235964989
 20
684.1547011937
 30
0.0
 40
0.4483878186380041
100
AcDbArc
 50
168.7170013864
 51
179.5212876078
  0
LINE
  5
7E
330
5E
100
AcDbEntity
  8
$DDT_AUDIT_GENERATED_(78)
  6
Continuous
 62
     7
100
AcDbLine
 10
48.2749999844
 20
684.1097247164
 30
0.0
 11
48.2749999835
 21
678.7271919915
 31
0.0
  0
ARC
  5
7F
330
5E
100
AcDbEntity
  8
$DDT_AUDIT_GENERATED_(78)
  6
Continuous
 62
     7
100
AcDbCircle
 10
-4019.8222331945
 20
681.4672007291
 30
0.0
 40
4068.09789903357
100
AcDbArc
 50
359.973702564
 51
0.0256786134
  0
SPLINE
  5
80
330
5E
100
AcDbEntity
  8
$DDT_AUDIT_GENERATED_(78)
  6
Continuous
 62
     7
100
AcDbSpline
210
0.0
220
0.0
230
1.0
 70
     8
 71
     3
 72
    16
 73
    12
 74
     0
 42
0.0000000006818912
 43
0.0000000001
 40
0.0
 40
0.0
 40
0.0
 40
0.0
 40
0.1378111343870419
 40
0.2666139814636214
 40
0.3868122407534619
 40
0.4980428258204226
 40
0.5995713880712853
 40
0.7136182678074678
 40
0.8186724794546323
 40
0.9071878815419193
 40
1.0
 40
1.0
 40
1.0
 40
1.0
 10
34.2749196036473
 20
679.112906966559
 30
0.0
 10
33.60335393828888
 20
679.1312818908116
 30
0.0
 10
32.30412095511338
 20
679.1668447643983
 30
0.0
 10
30.4258851853351
 20
679.3447833390336
 30
0.0
 10
28.68896312613414
 20
679.6071080594974
 30
0.0
 10
27.10359014145947
 20
679.9620229547954
 30
0.0
 10
25.58312210491859
 20
680.442092159646
 30
0.0
 10
24.14955615164952
 20
681.0810354925137
 30
0.0
 10
22.90247763486217
 20
681.9244823866306
 30
0.0
 10
21.90111861469767
 20
682.9213547713325
 30
0.0
 10
21.48697734273504
 20
683.7073927788491
 30
0.0
 10
21.27499998620513
 20
684.109724708521
 30
0.0
  0
SPLINE
  5
81
330
5E
100
AcDbEntity
  8
$DDT_AUDIT_GENERATED_(78)
  6
Continuous
 62
     7
100
AcDbSpline
210
0.0
220
0.0
230
1.0
 70
     8
 71
     3
 72
    39
 73
    35
 74
     0
 42
0.0000000003395579
 43
0.0000000001
 40
0.0
 40
0.0
 40
0.0
 40
0.0
 40
0.0156286371314871
 40
0.0312735566709719
 40
0.0459335750264038
 40
0.0752922699629717
 40
0.1054038820867274
 40
0.1348654889299821
 40
0.1930081403949172
 40
0.2513857216994679
 40
0.2807827191400364
 40
0.3106920674964175
 40
0.340811005613829
 40
0.3712708870628492
 40
0.4017245012363024
 40
0.4319482635986528
 40
0.4915100415872811
 40
0.5208637240830858
 40
0.5509281968539499
 40
0.5815026002420408
 40
0.6123867682316471
 40
0.6433745083005293
 40
0.6742121179597463
 40
0.7345801929350987
 40
0.7644922967094887
 40
0.7981259872384383
 40
0.8331008182401991
 40
0.8660851356800475
 40
0.8957650143904541
 40
0.9256839874910139
 40
0.9549507584364926
 40
0.9697058643244268
 40
0.9854407364028549
 40
1.0
 40
1.0
 40
1.0
 40
1.0
 10
21.27499998534622
 20
678.7271927805156
 30
0.0
 10
21.32084477441636
 20
678.6450719596369
 30
0.0
 10
21.41258211692407
 20
678.4807447740797
 30
0.0
 10
21.56271682887188
 20
678.2642647831601
 30
0.0
 10
21.77454737158458
 20
677.9951098195804
 30
0.0
 10
22.07908399493412
 20
677.671193814346
 30
0.0
 10
22.53428631509469
 20
677.2781809123619
 30
0.0
 10
23.28876785937875
 20
676.7396971783808
 30
0.0
 10
24.58268310095662
 20
676.0458854189168
 30
0.0
 10
26.13484930430856
 20
675.491790595214
 30
0.0
 10
27.41752842348609
 20
675.1449078098168
 30
0.0
 10
28.40613914648051
 20
674.9245637166113
 30
0.0
 10
29.41286606059267
 20
674.7414429310891
 30
0.0
 10
30.43021085917422
 20
674.5928100265962
 30
0.0
 10
31.45225751280009
 20
674.4770395675404
 30
0.0
 10
32.80482946893167
 20
674.3654375618155
 30
0.0
 10
34.15199851405078
 20
674.3136279954157
 30
0.0
 10
35.49855659015209
 20
674.32240969323
 30
0.0
 10
36.51544502923531
 20
674.3594843674488
 30
0.0
 10
37.54684177249959
 20
674.427592913359
 30
0.0
 10
38.58528518165619
 20
674.5280881597777
 30
0.0
 10
39.62336636829829
 20
674.661667223885
 30
0.0
 10
40.98566889354771
 20
674.8847852082154
 30
0.0
 10
42.32834795139884
 20
675.1825267208347
 30
0.0
 10
43.66648265867221
 20
675.5842392766771
 30
0.0
 10
44.69334014658478
 20
675.9627724715498
 30
0.0
 10
45.66373479220215
 20
676.4131057965641
 30
0.0
 10
46.44391098683917
 20
676.8691032060892
 30
0.0
 10
47.03390790631584
 20
677.2920766898001
 30
0.0
 10
47.48403806212617
 20
677.6841265261222
 30
0.0
 10
47.78642815303139
 20
678.0080172188382
 30
0.0
 10
47.99752073333568
 20
678.2784444571156
 30
0.0
 10
48.14397145222046
 20
678.4918566335534
 30
0.0
 10
48.23246856050499
 20
678.6508029161812
 30
0.0
 10
48.27499998353189
 20
678.72719199152
 30
0.0
  0
LINE
  5
82
330
5E
100
AcDbEntity
  8
$DDT_AUDIT_GENERATED_(78)
  6
Continuous
 62
     7
100
AcDbLine
 10
21.2749999862
 20
684.1097247085
 30
0.0
 11
21.2749999853
 21
678.7271927805
 31
0.0
  0
SPLINE
  5
83
330
5E
100
AcDbEntity
  8
$DDT_AUDIT_GENERATED_(78)
  6
Continuous
 62
     7
100
AcDbSpline
210
0.0
220
0.0
230
1.0
 70
     8
 71
     3
 72
    15
 73
    11
 74
     0
 42
0.000000001353169
 43
0.0000000001
 40
0.0
 40
0.0
 40
0.0
 40
0.0
 40
0.0756395247198308
 40
0.1936618214626191
 40
0.3399043021778034
 40
0.5003126791098453
 40
0.6607818884059194
 40
0.8069326238116181
 40
0.9246358309810335
 40
1.0
 40
1.0
 40
1.0
 40
1.0
 10
28.35272428294441
 20
685.5431027935878
 30
0.0
 10
28.03540576655002
 20
685.5212170704874
 30
0.0
 10
27.22288688094652
 20
685.4645954093803
 30
0.0
 10
25.90663400884275
 20
685.344665127866
 30
0.0
 10
24.44227549965813
 20
685.1696686452198
 30
0.0
 10
23.11743533953272
 20
684.9473001226324
 30
0.0
 10
22.12916014193299
 20
684.700888076592
 30
0.0
 10
21.55064832503383
 20
684.4625714065702
 30
0.0
 10
21.30570839732959
 20
684.2663016759203
 30
0.0
 10
21.28362160160919
 20
684.1536848717765
 30
0.0
 10
21.27499998620513
 20
684.109724708521
 30
0.0
  0
ARC
  5
84
330
5E
100
AcDbEntity
  8
$DDT_AUDIT_GENERATED_(78)
  6
Continuous
 62
     7
100
AcDbCircle
 10
4273.2611861931
 20
681.4672017705
 30
0.0
 40
4251.986813558904
100
AcDbArc
 50
179.9754380347
 51
180.0316179583
  0
SPLINE
  5
85
330
5E
100
AcDbEntity
  8
$DDT_AUDIT_GENERATED_(78)
  6
Continuous
 62
     7
100
AcDbSpline
210
0.0
220
0.0
230
1.0
 70
     8
 71
     6
 72
    14
 73
     7
 74
     0
 42
0.0000000054527116
 43
0.0000000001
 40
0.0
 40
0.0
 40
0.0
 40
0.0
 40
0.0
 40
0.0
 40
0.0
 40
0.0183098098198894
 40
0.0183098098198894
 40
0.0183098098198894
 40
0.0183098098198894
 40
0.0183098098198894
 40
0.0183098098198894
 40
0.0183098098198894
 10
48.27499998353189
 20
678.72719199152
 30
0.0
 10
48.27499998354848
 20
678.7215852947955
 30
0.0
 10
48.27499998356477
 20
678.7159816342813
 30
0.0
 10
48.27500304860076
 20
678.7103818048907
 30
0.0
 10
48.27501218149953
 20
678.7047865735187
 30
0.0
 10
48.27503032382187
 20
678.6991966796691
 30
0.0
 10
48.27506035670851
 20
678.6936128360761
 30
0.0
  0
SPLINE
  5
86
330
5E
100
AcDbEntity
  8
$DDT_AUDIT_GENERATED_(78)
  6
Continuous
 62
     7
100
AcDbSpline
210
0.0
220
0.0
230
1.0
 70
     8
 71
     6
 72
    14
 73
     7
 74
     0
 42
0.0000000024156712
 43
0.0000000001
 40
0.0393598290810406
 40
0.0393598290810406
 40
0.0393598290810406
 40
0.0393598290810406
 40
0.0393598290810406
 40
0.0393598290810406
 40
0.0393598290810406
 40
1.0
 40
1.0
 40
1.0
 40
1.0
 40
1.0
 40
1.0
 40
1.0
 10
48.27558924679728
 20
678.6552366903037
 30
0.0
 10
48.28270115847759
 20
678.3645733347537
 30
0.0
 10
48.35771011959075
 20
678.0990124536249
 30
0.0
 10
48.88710487836453
 20
677.9485074857521
 30
0.0
 10
49.81425891615066
 20
677.8109099253658
 30
0.0
 10
50.96742238848248
 20
677.6352908896959
 30
0.0
 10
51.71268187412077
 20
677.5091573947734
 30
0.0
  0
SPLINE
  5
87
330
5E
100
AcDbEntity
  8
$DDT_AUDIT_GENERATED_(78)
  6
Continuous
 62
     7
100
AcDbSpline
210
0.0
220
0.0
230
1.0
 70
     8
 71
     3
 72
     8
 73
     4
 74
     0
 42
0.0000000075635841
 43
0.0000000001
 40
0.9173110516501065
 40
0.9173110516501065
 40
0.9173110516501065
 40
0.9173110516501065
 40
0.9729594655461602
 40
0.9729594655461602
 40
0.9729594655461602
 40
0.9729594655461602
 10
48.27677986497328
 20
678.6667281993494
 30
0.0
 10
48.27544076516434
 20
678.6912956117854
 30
0.0
 10
48.27499958685496
 20
678.7157904028813
 30
0.0
 10
48.27485204243195
 20
678.7402614457611
 30
0.0
  0
SPLINE
  5
88
330
5E
100
AcDbEntity
  8
$DDT_AUDIT_GENERATED_(78)
  6
Continuous
 62
     7
100
AcDbSpline
210
0.0
220
0.0
230
1.0
 70
     8
 71
     6
 72
    14
 73
     7
 74
     0
 42
0.0000000054578646
 43
0.0000000001
 40
0.0
 40
0.0
 40
0.0
 40
0.0
 40
0.0
 40
0.0
 40
0.0
 40
0.0183042195625143
 40
0.0183042195625143
 40
0.0183042195625143
 40
0.0183042195625143
 40
0.0183042195625143
 40
0.0183042195625143
 40
0.0183042195625143
 10
21.27499998534622
 20
678.7271927805156
 30
0.0
 10
21.27499998532959
 20
678.7215930482812
 30
0.0
 10
21.27499998531327
 20
678.7159963686623
 30
0.0
 10
21.27499692526681
 20
678.7104035320885
 30
0.0
 10
21.27498780715609
 20
678.7048153011364
 30
0.0
 10
21.27496969404821
 20
678.6992324111513
 30
0.0
 10
21.27493970924906
 20
678.6936555708647
 30
0.0
  0
SPLINE
  5
89
330
5E
100
AcDbEntity
  8
$DDT_AUDIT_GENERATED_(78)
  6
Continuous
 62
     7
100
AcDbSpline
210
0.0
220
0.0
230
1.0
 70
     8
 71
     6
 72
    14
 73
     7
 74
     0
 42
0.0000000024158561
 43
0.0000000001
 40
0.0393743681187978
 40
0.0393743681187978
 40
0.0393743681187978
 40
0.0393743681187978
 40
0.0393743681187978
 40
0.0393743681187978
 40
0.0393743681187978
 40
1.0
 40
1.0
 40
1.0
 40
1.0
 40
1.0
 40
1.0
 40
1.0
 10
21.27441047651341
 20
678.6552794398442
 30
0.0
 10
21.26729827863482
 20
678.3648998969501
 30
0.0
 10
21.19231124045375
 20
678.09959836787
 30
0.0
 10
20.66321305112412
 20
677.9488866906051
 30
0.0
 10
19.73600633220703
 20
677.8110572535933
 30
0.0
 10
18.58062029833503
 20
677.6349604946532
 30
0.0
 10
17.83728547764451
 20
677.5091518682352
 30
0.0
  0
SPLINE
  5
8A
330
5E
100
AcDbEntity
  8
$DDT_AUDIT_GENERATED_(78)
  6
Continuous
 62
     7
100
AcDbSpline
210
0.0
220
0.0
230
1.0
 70
    12
 71
     3
 72
    10
 73
     6
 74
     0
 42
0.0000000074159963
 43
0.0000000001
 40
0.9179114771666694
 40
0.9179114771666694
 40
0.9179114771666694
 40
0.9179114771666694
 40
0.9375000000000022
 40
0.9375000000000022
 40
0.9735624558287822
 40
0.9735624558287822
 40
0.9735624558287822
 40
0.9735624558287822
 10
21.27315901470227
 20
678.6653642593145
 30
0.0
 41
1.0
 10
21.27366396253348
 20
678.6741663915869
 30
0.0
 41
1.0
 10
21.27404819285356
 20
678.6829699509824
 30
0.0
 41
1.0
 10
21.2748771164964
 20
678.707978748123
 30
0.0
 41
1.0
 10
21.27509947426397
 20
678.724183121291
 30
0.0
 41
1.0
 10
21.27518533691792
 20
678.7403677297415
 30
0.0
 41
1.0
  0
ARC
  5
8B
330
5E
100
AcDbEntity
  8
$DDT_AUDIT_GENERATED_(78)
  6
Continuous
 62
     7
100
AcDbCircle
 10
14.3680287515
 20
676.0763376462
 30
0.0
 40
0.4483278757077197
100
AcDbArc
 50
169.0532358073
 51
179.5239919119
  0
SPLINE
  5
8C
330
5E
100
AcDbEntity
  8
$DDT_AUDIT_GENERATED_(78)
  6
Continuous
 62
     7
100
AcDbSpline
210
0.0
220
0.0
230
1.0
 70
     8
 71
     6
 72
    14
 73
     7
 74
     0
 42
0.0000000022595552
 43
0.0000000001
 40
0.0
 40
0.0
 40
0.0
 40
0.0
 40
0.0
 40
0.0
 40
0.0
 40
1.0
 40
1.0
 40
1.0
 40
1.0
 40
1.0
 40
1.0
 40
1.0
 10
51.71268187412077
 20
677.5091573947734
 30
0.0
 10
52.97680996648292
 20
677.2952249261197
 30
0.0
 10
54.02060244888892
 20
677.0622435364728
 30
0.0
 10
54.82029306858992
 20
676.8147604493893
 30
0.0
 10
55.35935009270091
 20
676.5565814776209
 30
0.0
 10
55.62927135013392
 20
676.2941200928292
 30
0.0
 10
55.63051128942462
 20
676.0313465245338
 30
0.0
  0
SPLINE
  5
8D
330
5E
100
AcDbEntity
  8
$DDT_AUDIT_GENERATED_(78)
  6
Continuous
 62
     7
100
AcDbSpline
210
0.0
220
0.0
230
1.0
 70
     8
 71
     3
 72
    36
 73
    32
 74
     0
 42
0.0000000023086983
 43
0.0000000001
 40
0.0
 40
0.0
 40
0.0
 40
0.0
 40
0.0336298841981915
 40
0.0673007658164479
 40
0.1010146465689058
 40
0.1347735492183841
 40
0.1685795195211259
 40
0.2024346282511889
 40
0.2363409733076994
 40
0.2703006819083054
 40
0.3043159128722577
 40
0.338388858996619
 40
0.372521749529218
 40
0.4067168527420552
 40
0.4409764786089273
 40
0.4753029815911496
 40
0.5096987635353243
 40
0.5441662766871705
 40
0.5787080268255138
 40
0.6133265765205776
 40
0.6480245485207939
 40
0.6828046292723858
 40
0.7176695725759992
 40
0.7526222033847217
 40
0.7876654217478003
 40
0.8228022069044065
 40
0.8580356215317629
 40
0.8933688161519305
 40
0.928805033701508
 40
0.9643476142684327
 40
1.0
 40
1.0
 40
1.0
 40
1.0
 10
17.83728547764451
 20
677.5091518682352
 30
0.0
 10
17.75298114300984
 20
677.494698435893
 30
0.0
 10
17.58426970026233
 20
677.465773944087
 30
0.0
 10
17.34064670927224
 20
677.4215436941174
 30
0.0
 10
17.10389446610584
 20
677.376686560716
 30
0.0
 10
16.87481219446891
 20
677.3311599488192
 30
0.0
 10
16.6533326990367
 20
677.2849977161688
 30
0.0
 10
16.43962033121126
 20
677.238213192064
 30
0.0
 10
16.23377621640858
 20
677.1908252148787
 30
0.0
 10
16.03591741031837
 20
677.1428511408529
 30
0.0
 10
15.84615565109967
 20
677.0943087213893
 30
0.0
 10
15.66460307253667
 20
677.0452155988644
 30
0.0
 10
15.49137067579964
 20
676.9955894420032
 30
0.0
 10
15.32656874524121
 20
676.9454479094762
 30
0.0
 10
15.17030674112861
 20
676.8948086596375
 30
0.0
 10
15.02269333195922
 20
676.843689347866
 30
0.0
 10
14.88383638840222
 20
676.7921076272344
 30
0.0
 10
14.75384298636289
 20
676.7400811482855
 30
0.0
 10
14.63281940747112
 20
676.6876275590446
 30
0.0
 10
14.52087113604403
 20
676.634764504972
 30
0.0
 10
14.41810286798833
 20
676.581509628911
 30
0.0
 10
14.3246184704092
 20
676.5278805711166
 30
0.0
 10
14.24052112203188
 20
676.4738949689494
 30
0.0
 10
14.16591277220519
 20
676.4195704578348
 30
0.0
 10
14.10089614843722
 20
676.3649246674709
 30
0.0
 10
14.04556721131516
 20
676.3099752358365
 30
0.0
 10
14.00004339903995
 20
676.2547397564967
 30
0.0
 10
13.96435774636266
 20
676.1992359758716
 30
0.0
 10
13.93885569450326
 20
676.143481053652
 30
0.0
 10
13.92270760071607
 20
676.0874943349291
 30
0.0
 10
13.92056277662145
 20
676.0500816953669
 30
0.0
 10
13.91948871057522
 20
676.0313465245338
 30
0.0
  0
LINE
  5
8E
330
5E
100
AcDbEntity
  8
$DDT_AUDIT_GENERATED_(78)
  6
Continuous
 62
     7
100
AcDbLine
 10
55.7637797446
 20
647.5119153102
 30
0.0
 11
55.6305112894
 21
676.0313465245
 31
0.0
  0
ARC
  5
8F
330
5E
100
AcDbEntity
  8
$DDT_AUDIT_GENERATED_(78)
  6
Continuous
 62
     7
100
AcDbCircle
 10
18.7673703668
 20
647.4908956945
 30
0.0
 40
4.981194460770885
100
AcDbArc
 50
179.7582228816
 51
190.4365051058
  0
LINE
  5
90
330
5E
100
AcDbEntity
  8
$DDT_AUDIT_GENERATED_(78)
  6
Continuous
 62
     7
100
AcDbLine
 10
13.9194887106
 20
676.0313465245
 30
0.0
 11
13.7862202554
 21
647.5119153102
 31
0.0
  0
LINE
  5
91
330
5E
100
AcDbEntity
  8
$DDT_AUDIT_GENERATED_(78)
  6
Continuous
 62
     7
100
AcDbLine
 10
13.9197163351
 20
676.0800581417
 30
0.0
 11
13.9194887106
 21
676.0313465245
 31
0.0
  0
ELLIPSE
  5
92
330
5E
100
AcDbEntity
  8
$DDT_AUDIT_GENERATED_(78)
  6
Continuous
 62
     7
100
AcDbEllipse
 10
55.3194047729
 20
646.3573544635
 30
0.0
 11
0.0
 21
0.2499998827182427
 31
0.0
210
0.0
220
0.0
230
1.0
 40
1.0
 41
3.141559703432515
 42
3.327449150598425
  0
ARC
  5
93
330
5E
100
AcDbEntity
  8
$DDT_AUDIT_GENERATED_(78)
  6
Continuous
 62
     7
100
AcDbCircle
 10
34.775
 20
11528.6676253111
 30
0.0
 40
10882.57966285126
100
AcDbArc
 50
269.8918355804
 51
270.1081644196
  0
ARC
  5
94
330
5E
100
AcDbEntity
  8
$DDT_AUDIT_GENERATED_(78)
  6
Continuous
 62
     7
100
AcDbCircle
 10
14.2317774374
 20
646.3561337557
 30
0.0
 40
0.2487819446413959
100
AcDbArc
 50
259.0207890784
 51
269.7296269315
  0
LINE
  5
95
330
5E
100
AcDbEntity
  8
$DDT_AUDIT_GENERATED_(78)
  6
Continuous
 62
     7
100
AcDbLine
 10
48.2749978652
 20
684.1106448196
 30
0.0
 11
48.2747721956
 21
684.159633215
 31
0.0
  0
SPLINE
  5
96
330
5E
100
AcDbEntity
  8
$DDT_AUDIT_GENERATED_(78)
  6
Continuous
 62
     7
100
AcDbSpline
210
0.0
220
0.0
230
1.0
 70
     8
 71
     3
 72
    52
 73
    48
 74
     0
 42
0.000000000358155
 43
0.0000000001
 40
0.0
 40
0.0
 40
0.0
 40
0.0
 40
0.0168412052487471
 40
0.0312928530008238
 40
0.0433914875869632
 40
0.0531671290171682
 40
0.0606388855602907
 40
0.0663129598754906
 40
0.0722345217068471
 40
0.0786241378649751
 40
0.0928051077070031
 40
0.1088480489073847
 40
0.1253107747620053
 40
0.1412864723045115
 40
0.171923566519247
 40
0.2015432647772438
 40
0.2311667342088627
 40
0.2605801740846547
 40
0.289877664962697
 40
0.3193065459089214
 40
0.3489213208903603
 40
0.378295828082738
 40
0.4076225261215741
 40
0.4371542822072598
 40
0.4666794011129741
 40
0.4960016242777491
 40
0.5253686652776736
 40
0.5549727178457303
 40
0.5843934294869155
 40
0.6137059115334568
 40
0.6431611677237318
 40
0.672765342342637
 40
0.7021322924655924
 40
0.731484969350719
 40
0.76107250772965
 40
0.7905966695515033
 40
0.8202748341689401
 40
0.8509626309674713
 40
0.871914700430607
 40
0.8921135031109325
 40
0.9114824518641561
 40
0.9212886153127064
 40
0.9329008674632968
 40
0.9465274849517157
 40
0.9622345648183637
 40
0.9800847385002602
 40
1.0
 40
1.0
 40
1.0
 40
1.0
 10
48.26634348951833
 20
684.2424724359546
 30
0.0
 10
48.25333846576974
 20
684.310381881932
 30
0.0
 10
48.23104096089825
 20
684.4159166729617
 30
0.0
 10
48.14011357141074
 20
684.5658304217324
 30
0.0
 10
48.0382962135787
 20
684.6781838989605
 30
0.0
 10
47.93960690263308
 20
684.7609219420174
 30
0.0
 10
47.85528791814757
 20
684.8194382778514
 30
0.0
 10
47.78673830420895
 20
684.8615683082952
 30
0.0
 10
47.72012906223079
 20
684.8989482960156
 30
0.0
 10
47.61841683159277
 20
684.9510836182524
 30
0.0
 10
47.46805232453232
 20
685.0182592619683
 30
0.0
 10
47.25619510535898
 20
685.0978867532057
 30
0.0
 10
47.00687093439825
 20
685.177582876282
 30
0.0
 10
46.64297400081219
 20
685.2781475005232
 30
0.0
 10
46.13857801322178
 20
685.3935178654763
 30
0.0
 10
45.44839326901069
 20
685.5205049383413
 30
0.0
 10
44.67591851112464
 20
685.6373430247747
 30
0.0
 10
43.82229519311462
 20
685.7441849967859
 30
0.0
 10
42.89339658656256
 20
685.8407279602663
 30
0.0
 10
41.89316701647616
 20
685.9265291908445
 30
0.0
 10
40.83048386823654
 20
686.0007084054038
 30
0.0
 10
39.71693076243996
 20
686.0624896067354
 30
0.0
 10
38.56204087093247
 20
686.1114657569499
 30
0.0
 10
37.37276745936416
 20
686.1473841498251
 30
0.0
 10
36.16120380600448
 20
686.1698448209823
 30
0.0
 10
34.93992824428546
 20
686.1785747185465
 30
0.0
 10
33.71613946142941
 20
686.1735383403113
 30
0.0
 10
32.50012572680676
 20
686.1547558352468
 30
0.0
 10
31.30449743027247
 20
686.1224210494947
 30
0.0
 10
30.14061051690015
 20
686.0769369189586
 30
0.0
 10
29.01388922676238
 20
686.0185217760353
 30
0.0
 10
27.93604650307778
 20
685.947631773287
 30
0.0
 10
26.9187333609156
 20
685.8648730482905
 30
0.0
 10
25.96899619164794
 20
685.7710126798448
 30
0.0
 10
25.09199021727863
 20
685.6666912157157
 30
0.0
 10
24.29445563902033
 20
685.5523160319203
 30
0.0
 10
23.57863136640001
 20
685.4274088709082
 30
0.0
 10
23.01867666705792
 20
685.3062673063981
 30
0.0
 10
22.59528798241842
 20
685.1943042005965
 30
0.0
 10
22.27783255369435
 20
685.0934507575316
 30
0.0
 10
22.05128326717542
 20
685.0052848493127
 30
0.0
 10
21.88275282924325
 20
684.9271708571398
 30
0.0
 10
21.73982814963167
 20
684.8495216195554
 30
0.0
 10
21.58935679437827
 20
684.7470230734671
 30
0.0
 10
21.44658665286634
 20
684.6141250273674
 30
0.0
 10
21.32685115344108
 20
684.4418786677583
 30
0.0
 10
21.29931765364456
 20
684.3195876331466
 30
0.0
 10
21.28365647945841
 20
684.2424723768916
 30
0.0
  0
LINE
  5
97
330
5E
100
AcDbEntity
  8
$DDT_AUDIT_GENERATED_(78)
  6
Continuous
 62
     7
100
AcDbLine
 10
48.2749999844
 20
678.9508735298
 30
0.0
 11
48.2750437792
 21
679.0480068689
 31
0.0
  0
LINE
  5
98
330
5E
100
AcDbEntity
  8
$DDT_AUDIT_GENERATED_(78)
  6
Continuous
 62
     7
100
AcDbLine
 10
21.2752277733
 20
684.1596296006
 30
0.0
 11
21.2749993894
 21
684.1100530058
 31
0.0
  0
LINE
  5
99
330
5E
100
AcDbEntity
  8
$DDT_AUDIT_GENERATED_(78)
  6
Continuous
 62
     7
100
AcDbLine
 10
21.2749562827
 20
679.0484440051
 30
0.0
 11
21.2749999844
 21
678.9513087227
 31
0.0
  0
ARC
  5
9A
330
5E
100
AcDbEntity
  8
$DDT_AUDIT_GENERATED_(78)
  6
Continuous
 62
     7
100
AcDbCircle
 10
17.8751603041
 20
686.2635223474
 30
0.0
 40
8.304247381714584
100
AcDbArc
 50
271.6029071628
 51
294.1614361917
  0
SPLINE
  5
9B
330
5E
100
AcDbEntity
  8
$DDT_AUDIT_GENERATED_(78)
  6
Continuous
 62
     7
100
AcDbSpline
210
0.0
220
0.0
230
1.0
 70
     8
 71
     3
 72
    30
 73
    26
 74
     0
 42
0.0000000021018288
 43
0.0000000001
 40
0.0
 40
0.0
 40
0.0
 40
0.0
 40
0.0621576046831589
 40
0.1206922738836631
 40
0.1696188253112938
 40
0.2090304597634624
 40
0.2389890630891337
 40
0.2629036986425577
 40
0.2888687532279958
 40
0.3285147451047076
 40
0.3727700268332769
 40
0.4215609385048382
 40
0.469468488654864
 40
0.501553926432872
 40
0.5313368222702591
 40
0.5588281912449878
 40
0.5839979544381552
 40
0.6072313449831411
 40
0.6354027697624125
 40
0.6709821463239276
 40
0.718664779329051
 40
0.7753200736927482
 40
0.8410238185168626
 40
0.9159350944335124
 40
1.0
 40
1.0
 40
1.0
 40
1.0
 10
55.61891692051817
 20
676.1686652005071
 30
0.0
 10
55.60971465395514
 20
676.2319319604381
 30
0.0
 10
55.5929603410561
 20
676.335022405042
 30
0.0
 10
55.51620634113057
 20
676.4904475900406
 30
0.0
 10
55.42470285256253
 20
676.6156221795018
 30
0.0
 10
55.33366761876037
 20
676.7112009560647
 30
0.0
 10
55.25346449768032
 20
676.7817914366253
 30
0.0
 10
55.18272122938944
 20
676.8370915634911
 30
0.0
 10
55.09968854566343
 20
676.8960078693171
 30
0.0
 10
54.99136352869165
 20
676.9643996245012
 30
0.0
 10
54.84947020796282
 20
677.0429366429748
 30
0.0
 10
54.68523266714978
 20
677.1227747523075
 30
0.0
 10
54.52064744788174
 20
677.1936703491339
 30
0.0
 10
54.37019857221538
 20
677.2527749657692
 30
0.0
 10
54.24163978539743
 20
677.3000055346175
 30
0.0
 10
54.11808702689859
 20
677.3427968316088
 30
0.0
 10
54.00035655351716
 20
677.3815093707418
 30
0.0
 10
53.87847221007143
 20
677.4197812292119
 30
0.0
 10
53.73531964080638
 20
677.4626725991943
 30
0.0
 10
53.54352726781018
 20
677.5170225331728
 30
0.0
 10
53.2889669484269
 20
677.5842915482524
 30
0.0
 10
52.95798830829991
 20
677.664760977451
 30
0.0
 10
52.54796288875477
 20
677.755596864255
 30
0.0
 10
52.03375531116089
 20
677.858855257985
 30
0.0
 10
51.67139025496569
 20
677.9225852471267
 30
0.0
 10
51.44251907387505
 20
677.9625296369809
 30
0.0
  0
SPLINE
  5
9C
330
5E
100
AcDbEntity
  8
$DDT_AUDIT_GENERATED_(78)
  6
Continuous
 62
     7
100
AcDbSpline
210
0.0
220
0.0
230
1.0
 70
     8
 71
     3
 72
    23
 73
    19
 74
     0
 42
0.0000000030337995
 43
0.0000000001
 40
0.0
 40
0.0
 40
0.0
 40
0.0
 40
0.1033858867473432
 40
0.1975799674203177
 40
0.2826348466683101
 40
0.3583399571443208
 40
0.424923688836779
 40
0.4828733199671358
 40
0.5334194164324146
 40
0.586683838529995
 40
0.6344593737339252
 40
0.6770594360233954
 40
0.7025006613389861
 40
0.7390957351602689
 40
0.7869440129892916
 40
0.8462285027652445
 40
0.9171819904488161
 40
1.0
 40
1.0
 40
1.0
 40
1.0
 10
51.44251791154046
 20
677.9625299381435
 30
0.0
 10
51.20880011913417
 20
678.0008004488002
 30
0.0
 10
50.83429621834367
 20
678.0624121624944
 30
0.0
 10
50.23207025066394
 20
678.1576427007979
 30
0.0
 10
49.72276197235387
 20
678.2426875926544
 30
0.0
 10
49.30050212156322
 20
678.3209249758033
 30
0.0
 10
48.97350133995727
 20
678.3917554078533
 30
0.0
 10
48.73183615682424
 20
678.4549054780653
 30
0.0
 10
48.5496393252665
 20
678.5133160588589
 30
0.0
 10
48.42150014886534
 20
678.5649888295901
 30
0.0
 10
48.33898208622209
 20
678.6082154347124
 30
0.0
 10
48.30091761313443
 20
678.6345584374546
 30
0.0
 10
48.28297309422044
 20
678.6498565223201
 30
0.0
 10
48.27165033693512
 20
678.6621837218236
 30
0.0
 10
48.26697652268194
 20
678.6721280678971
 30
0.0
 10
48.26928053953537
 20
678.6780632834156
 30
0.0
 10
48.27591777477208
 20
678.6804794276451
 30
0.0
 10
48.27577427758847
 20
678.6844140614545
 30
0.0
 10
48.2758343219576
 20
678.6867463161947
 30
0.0
  0
SPLINE
  5
9D
330
5E
100
AcDbEntity
  8
$DDT_AUDIT_GENERATED_(78)
  6
Continuous
 62
     7
100
AcDbSpline
210
0.0
220
0.0
230
1.0
 70
     8
 71
     3
 72
    29
 73
    25
 74
     0
 42
0.0000000020985659
 43
0.0000000001
 40
0.0
 40
0.0
 40
0.0
 40
0.0
 40
0.0762255956348394
 40
0.1448221423243853
 40
0.2059606200473456
 40
0.2597346368156635
 40
0.3061818401555528
 40
0.3453014668121022
 40
0.3770681638228169
 40
0.4103409937090594
 40
0.4449603766610927
 40
0.4839041635971395
 40
0.5272061740870099
 40
0.5757995744273364
 40
0.624941349983512
 40
0.6693661294613547
 40
0.7090935659819985
 40
0.7441536434362793
 40
0.767221421622534
 40
0.7978038437008379
 40
0.8363119368158962
 40
0.8828255693738739
 40
0.937422134210008
 40
1.0
 40
1.0
 40
1.0
 40
1.0
 10
18.10744938948416
 20
677.9625243648965
 30
0.0
 10
17.89954552660084
 20
677.9263348313631
 30
0.0
 10
17.56866825066291
 20
677.8683361837993
 30
0.0
 10
17.09194008317929
 20
677.7740905315616
 30
0.0
 10
16.70354196604113
 20
677.6900979437113
 30
0.0
 10
16.38177094895502
 20
677.6142590091318
 30
0.0
 10
16.12087698517713
 20
677.5477535942308
 30
0.0
 10
15.91307746234631
 20
677.4909355401035
 30
0.0
 10
15.73735497686381
 20
677.4398817560499
 30
0.0
 10
15.57668696105924
 20
677.390421463063
 30
0.0
 10
15.41068885012951
 20
677.3359379476531
 30
0.0
 10
15.23791383042765
 20
677.2749388696279
 30
0.0
 10
15.05619245236182
 20
677.2049581286159
 30
0.0
 10
14.87542015314947
 20
677.1276711049907
 30
0.0
 10
14.70927215209221
 20
677.0474743903438
 30
0.0
 10
14.5662397314736
 20
676.9688987636011
 30
0.0
 10
14.44803436002277
 20
676.8948311640606
 30
0.0
 10
14.35773876026376
 20
676.8303247486235
 30
0.0
 10
14.27873545287974
 20
676.7668353542206
 30
0.0
 10
14.20010253439099
 20
676.6953227690735
 30
0.0
 10
14.11276697354687
 20
676.6000037901048
 30
0.0
 10
14.02745121230955
 20
676.4789430536593
 30
0.0
 10
13.95489389727509
 20
676.327013696735
 30
0.0
 10
13.93757397282227
 20
676.2259224887173
 30
0.0
 10
13.92764883642742
 20
676.1615279648315
 30
0.0
  0
ARC
  5
9E
330
5E
100
AcDbEntity
  8
$DDT_AUDIT_GENERATED_(78)
  6
Continuous
 62
     7
100
AcDbCircle
 10
14.5722325388
 20
676.0964825542
 30
0.0
 40
0.6496895983561
100
AcDbArc
 50
177.0256934341
 51
187.5875848332
  0
ARC
  5
9F
330
5E
100
AcDbEntity
  8
$DDT_AUDIT_GENERATED_(78)
  6
Continuous
 62
     7
100
AcDbCircle
 10
50.564066568
 20
647.4625559708
 30
0.0
 40
5.19571853911705
100
AcDbArc
 50
349.6210247523
 51
0.0927189864
  0
SPLINE
  5
A0
330
5E
100
AcDbEntity
  8
$DDT_AUDIT_GENERATED_(78)
  6
Continuous
 62
     7
100
AcDbSpline
210
0.0
220
0.0
230
1.0
 70
     8
 71
     3
 72
    11
 73
     7
 74
     0
 42
0.0000000178678124
 43
0.0000000001
 40
0.0
 40
0.0
 40
0.0
 40
0.0
 40
0.2164739187394985
 40
0.4567246854900879
 40
0.7169599320641492
 40
1.0
 40
1.0
 40
1.0
 40
1.0
 10
55.36542085860484
 20
646.1117041932672
 30
0.0
 10
55.40823104644659
 20
646.123447533995
 30
0.0
 10
55.48397299878739
 20
646.1457185651891
 30
0.0
 10
55.57331819861704
 20
646.2381764725304
 30
0.0
 10
55.63718907714496
 20
646.3659310062222
 30
0.0
 10
55.66116294524935
 20
646.4647785406862
 30
0.0
 10
55.67477092189378
 20
646.5265046141949
 30
0.0
  0
SPLINE
  5
A1
330
5E
100
AcDbEntity
  8
$DDT_AUDIT_GENERATED_(78)
  6
Continuous
 62
     7
100
AcDbSpline
210
0.0
220
0.0
230
1.0
 70
     8
 71
     3
 72
    11
 73
     7
 74
     0
 42
0.0000000178630609
 43
0.0000000001
 40
0.0
 40
0.0
 40
0.0
 40
0.0
 40
0.2763607581252004
 40
0.5344995896871466
 40
0.7755990356113458
 40
1.0
 40
1.0
 40
1.0
 40
1.0
 10
13.87522907735999
 20
646.5265046169675
 30
0.0
 10
13.88828153642329
 20
646.4666897119264
 30
0.0
 10
13.91154478589197
 20
646.370078845129
 30
0.0
 10
13.97333839208249
 20
646.2426608307265
 30
0.0
 10
14.06383549128771
 20
646.1467260905722
 30
0.0
 10
14.14046512227858
 20
646.1239435990032
 30
0.0
 10
14.18457914160765
 20
646.1117041932267
 30
0.0
  0
ARC
  5
A2
330
5E
100
AcDbEntity
  8
$DDT_AUDIT_GENERATED_(78)
  6
Continuous
 62
     7
100
AcDbCircle
 10
18.9859334322
 20
647.4625559709
 30
0.0
 40
5.195718539356471
100
AcDbArc
 50
179.9072810137
 51
190.3789752475
  0
ELLIPSE
  5
A4
330
5E
100
AcDbEntity
  8
$DDT_AUDIT_GENERATED_(A3)
  6
Continuous
 62
     7
100
AcDbEllipse
 10
34.775
 20
625.5447000816
 30
0.0
 11
10.05000000000001
 21
0.0
 31
0.0
210
0.0
220
0.0
230
1.0
 40
0.3255681545
 41
0.0
 42
6.283185307179586
  0
ELLIPSE
  5
A5
330
5E
100
AcDbEntity
  8
$DDT_AUDIT_GENERATED_(A3)
  6
Continuous
 62
     7
100
AcDbEllipse
 10
34.775
 20
625.5447000816
 30
0.0
 11
10.75000000000001
 21
-1.387778780781446E-14
 31
0.0
210
0.0
220
0.0
230
1.0
 40
0.3255681545
 41
0.0
 42
6.283185307179586
  0
ELLIPSE
  5
A6
330
5E
100
AcDbEntity
  8
$DDT_AUDIT_GENERATED_(A3)
  6
Continuous
 62
     7
100
AcDbEllipse
 10
34.775
 20
625.8449425539
 30
0.0
 11
-11.3
 21
1.387778780781446E-14
 31
0.0
210
0.0
220
0.0
230
1.0
 40
0.3255681545
 41
3.372534132729955
 42
6.052243828039437
  0
LINE
  5
A7
330
5E
100
AcDbEntity
  8
$DDT_AUDIT_GENERATED_(A3)
  6
Continuous
 62
     7
100
AcDbLine
 10
23.775
 20
626.6870257025
 30
0.0
 11
23.775
 21
625.0028594053
 31
0.0
  0
ELLIPSE
  5
A8
330
5E
100
AcDbEntity
  8
$DDT_AUDIT_GENERATED_(A3)
  6
Continuous
 62
     7
100
AcDbEllipse
 10
34.775
 20
628.3812558084
 30
0.0
 11
11.79999999999978
 21
0.0
 31
0.0
210
0.0
220
0.0
230
1.0
 40
0.3255681545
 41
2.771250021498066
 42
3.511935285681519
  0
LINE
  5
A9
330
5E
100
AcDbEntity
  8
$DDT_AUDIT_GENERATED_(A3)
  6
Continuous
 62
     7
100
AcDbLine
 10
23.775
 20
629.771702473
 30
0.0
 11
23.775
 21
628.0542323247
 31
0.0
  0
LINE
  5
AA
330
5E
100
AcDbEntity
  8
$DDT_AUDIT_GENERATED_(A3)
  6
Continuous
 62
     7
100
AcDbLine
 10
23.775
 20
628.0542323247
 30
0.0
 11
23.775
 21
626.6870257025
 31
0.0
  0
LINE
  5
AB
330
5E
100
AcDbEntity
  8
$DDT_AUDIT_GENERATED_(A3)
  6
Continuous
 62
     7
100
AcDbLine
 10
23.775
 20
624.891809451
 30
0.0
 11
23.775
 21
625.0028594053
 31
0.0
  0
ELLIPSE
  5
AC
330
5E
100
AcDbEntity
  8
$DDT_AUDIT_GENERATED_(A3)
  6
Continuous
 62
     7
100
AcDbEllipse
 10
34.775
 20
625.8449425539
 30
0.0
 11
11.30000000000001
 21
0.0
 31
0.0
210
0.0
220
0.0
230
1.0
 40
0.3255681545
 41
-0.6389998424379781
 42
-0.5778556072308438
  0
ELLIPSE
  5
AD
330
5E
100
AcDbEntity
  8
$DDT_AUDIT_GENERATED_(A3)
  6
Continuous
 62
     7
100
AcDbEllipse
 10
34.775
 20
625.8449425539
 30
0.0
 11
11.30000000000001
 21
0.0
 31
0.0
210
0.0
220
0.0
230
1.0
 40
0.3255681545
 41
3.719936636589136
 42
3.780592496027768
  0
LINE
  5
AE
330
5E
100
AcDbEntity
  8
$DDT_AUDIT_GENERATED_(A3)
  6
Continuous
 62
     7
100
AcDbLine
 10
45.775
 20
625.0028594053
 30
0.0
 11
45.775
 21
626.6870257025
 31
0.0
  0
ELLIPSE
  5
AF
330
5E
100
AcDbEntity
  8
$DDT_AUDIT_GENERATED_(A3)
  6
Continuous
 62
     7
100
AcDbEllipse
 10
34.775
 20
628.3812558084
 30
0.0
 11
-11.80000000000022
 21
5.551115123125783E-14
 31
0.0
210
0.0
220
0.0
230
1.0
 40
0.3255681545
 41
2.771250021498072
 42
3.511935285681511
  0
LINE
  5
B0
330
5E
100
AcDbEntity
  8
$DDT_AUDIT_GENERATED_(A3)
  6
Continuous
 62
     7
100
AcDbLine
 10
45.775
 20
625.0028594053
 30
0.0
 11
45.775
 21
624.8917824698
 31
0.0
  0
LINE
  5
B1
330
5E
100
AcDbEntity
  8
$DDT_AUDIT_GENERATED_(A3)
  6
Continuous
 62
     7
100
AcDbLine
 10
45.775
 20
626.6870257025
 30
0.0
 11
45.775
 21
628.0542323247
 31
0.0
  0
LINE
  5
B2
330
5E
100
AcDbEntity
  8
$DDT_AUDIT_GENERATED_(A3)
  6
Continuous
 62
     7
100
AcDbLine
 10
45.775
 20
628.0542323247
 30
0.0
 11
45.775
 21
629.771702473
 31
0.0
  0
LINE
  5
B3
330
5E
100
AcDbEntity
  8
$DDT_AUDIT_GENERATED_(A3)
  6
Continuous
 62
     7
100
AcDbLine
 10
25.7045730985
 20
623.6508606235
 30
0.0
 11
26.1460540539
 21
623.4574097496
 31
0.0
  0
LINE
  5
B4
330
5E
100
AcDbEntity
  8
$DDT_AUDIT_GENERATED_(A3)
  6
Continuous
 62
     7
100
AcDbLine
 10
43.4039459461
 20
623.4574097496
 30
0.0
 11
43.8454269015
 21
623.6508606235
 31
0.0
  0
ARC
  5
B5
330
5E
100
AcDbEntity
  8
$DDT_AUDIT_GENERATED_(A3)
  6
Continuous
 62
     7
100
AcDbCircle
 10
41.9875510032
 20
628.7387023557
 30
0.0
 40
5.394068283999197
100
AcDbArc
 50
295.0105915609
 51
314.5980834589
  0
ARC
  5
B6
330
5E
100
AcDbEntity
  8
$DDT_AUDIT_GENERATED_(A3)
  6
Continuous
 62
     7
100
AcDbCircle
 10
27.6073415358
 20
628.8023840924
 30
0.0
 40
5.47233013873642
100
AcDbArc
 50
225.5657502978
 51
244.7845304191
  0
LINE
  5
B7
330
5E
100
AcDbEntity
  8
$DDT_AUDIT_GENERATED_(A3)
  6
Continuous
 62
     7
100
AcDbLine
 10
22.975
 20
632.2064958178
 30
0.0
 11
22.975
 21
628.3812558084
 31
0.0
  0
LINE
  5
B8
330
5E
100
AcDbEntity
  8
$DDT_AUDIT_GENERATED_(A3)
  6
Continuous
 62
     7
100
AcDbLine
 10
46.575
 20
628.3812558084
 30
0.0
 11
46.575
 21
632.1876040247
 31
0.0
  0
LINE
  5
BA
330
5E
100
AcDbEntity
  8
$DDT_AUDIT_GENERATED_(B9)
  6
Continuous
 62
     7
100
AcDbLine
 10
13.275
 20
378.1069982684
 30
0.0
 11
56.275
 21
378.1069982684
 31
0.0
  0
LINE
  5
BB
330
5E
100
AcDbEntity
  8
$DDT_AUDIT_GENERATED_(B9)
  6
Continuous
 62
     7
100
AcDbLine
 10
13.275
 20
378.1069982684
 30
0.0
 11
13.275
 21
538.1069982684
 31
0.0
  0
LINE
  5
BC
330
5E
100
AcDbEntity
  8
$DDT_AUDIT_GENERATED_(B9)
  6
Continuous
 62
     7
100
AcDbLine
 10
56.275
 20
538.1069982684
 30
0.0
 11
56.275
 21
378.1069982684
 31
0.0
  0
LINE
  5
BD
330
5E
100
AcDbEntity
  8
$DDT_AUDIT_GENERATED_(B9)
  6
Continuous
 62
     7
100
AcDbLine
 10
13.275
 20
538.1069982684
 30
0.0
 11
56.275
 21
538.1069982684
 31
0.0
  0
ELLIPSE
  5
BF
330
5E
100
AcDbEntity
  8
$DDT_AUDIT_GENERATED_(BE)
  6
Continuous
 62
     7
100
AcDbEllipse
 10
34.775
 20
661.446580272
 30
0.0
 11
-8.086376126726667E-15
 21
3.833452685379366
 31
0.0
210
0.0
220
0.0
230
1.0
 40
0.8999719791
 41
0.0
 42
6.283185307179586
  0
LINE
  5
C2
330
5E
100
AcDbEntity
  8
DV1_Standard
  6
CENTER2
 62
     7
100
AcDbLine
 10
54.774999553
 20
378.1069982684
 30
0.0
 11
14.775000447
 21
378.1069982684
 31
0.0
  0
LINE
  5
C3
330
5E
100
AcDbEntity
  8
DV1_Standard
  6
CENTER2
 62
     7
100
AcDbLine
 10
34.775
 20
398.1069978214
 30
0.0
 11
34.775
 21
358.1069987155
 31
0.0
  0
ENDBLK
  5
C5
330
5E
100
AcDbEntity
  8
0
100
AcDbBlockEnd
  0
BLOCK
  5
11E
330
C6
100
AcDbEntity
  8
0
100
AcDbBlockBegin
  2
SE1
 70
     0
 10
0.0
 20
0.0
 30
0.0
  3
SE1
  1

  0
LINE
  5
C9
330
C6
100
AcDbEntity
  8
$DDT_AUDIT_GENERATED_(60)
  6
Continuous
 62
     7
100
AcDbLine
 10
205.5002790666
 20
538.1069982684
 30
0.0
 11
184.0000015056
 21
538.1069982684
 31
0.0
  0
LINE
  5
CA
330
C6
100
AcDbEntity
  8
$DDT_AUDIT_GENERATED_(60)
  6
Continuous
 62
     7
100
AcDbLine
 10
184.0000015056
 20
538.1069982684
 30
0.0
 11
162.4997239447
 21
538.1069982684
 31
0.0
  0
LINE
  5
CB
330
C6
100
AcDbEntity
  8
$DDT_AUDIT_GENERATED_(60)
  6
Continuous
 62
     7
100
AcDbLine
 10
163.4468405694
 20
645.1070058978
 30
0.0
 11
183.9999969525
 21
645.1069280533
 31
0.0
  0
LINE
  5
CC
330
C6
100
AcDbEntity
  8
$DDT_AUDIT_GENERATED_(60)
  6
Continuous
 62
     7
100
AcDbLine
 10
183.9999969525
 20
645.1070058978
 30
0.0
 11
268.8269357467
 21
645.1070058978
 31
0.0
  0
LINE
  5
CD
330
C6
100
AcDbEntity
  8
$DDT_AUDIT_GENERATED_(60)
  6
Continuous
 62
     7
100
AcDbLine
 10
289.8300491141
 20
644.6070058978
 30
0.0
 11
289.8300491141
 21
644.657005898
 31
0.0
  0
SPLINE
  5
CE
330
C6
100
AcDbEntity
  8
$DDT_AUDIT_GENERATED_(60)
  6
Continuous
 62
     7
100
AcDbSpline
210
0.0
220
0.0
230
1.0
 70
     8
 71
     6
 72
    14
 73
     7
 74
     0
 42
0.0000000007924676
 43
0.0000000001
 40
0.0
 40
0.0
 40
0.0
 40
0.0
 40
0.0
 40
0.0
 40
0.0
 40
1.0
 40
1.0
 40
1.0
 40
1.0
 40
1.0
 40
1.0
 40
1.0
 10
284.2205991308361
 20
633.5281847574824
 30
0.0
 10
285.5328808826988
 20
634.931808391045
 30
0.0
 10
286.7085296568024
 20
636.5209327000847
 30
0.0
 10
287.7343688435544
 20
638.2892193755106
 30
0.0
 10
288.5993939010086
 20
640.2280036443891
 30
0.0
 10
289.2976683877841
 20
642.3344222016557
 30
0.0
 10
289.8300491141038
 20
644.6070058978177
 30
0.0
  0
ARC
  5
CF
330
C6
100
AcDbEntity
  8
$DDT_AUDIT_GENERATED_(60)
  6
Continuous
 62
     7
100
AcDbCircle
 10
289.380317753
 20
644.6572745367
 30
0.0
 40
0.449731441329373
100
AcDbArc
 50
359.9657754314
 51
90.0342233259
  0
LINE
  5
D0
330
C6
100
AcDbEntity
  8
$DDT_AUDIT_GENERATED_(60)
  6
Continuous
 62
     7
100
AcDbLine
 10
268.8269357467
 20
645.1069280514
 30
0.0
 11
289.380049124
 21
645.1070058978
 31
0.0
  0
ARC
  5
D1
330
C6
100
AcDbEntity
  8
$DDT_AUDIT_GENERATED_(60)
  6
Continuous
 62
     7
100
AcDbCircle
 10
276.4810492007
 20
607.7237667243
 30
0.0
 40
23.95856709541915
100
AcDbArc
 50
108.6297760449
 51
130.5004368134
  0
SPLINE
  5
D2
330
C6
100
AcDbEntity
  8
$DDT_AUDIT_GENERATED_(60)
  6
Continuous
 62
     7
100
AcDbSpline
210
0.0
220
0.0
230
1.0
 70
     8
 71
     3
 72
    18
 73
    14
 74
     0
 42
0.0000000006327599
 43
0.0000000001
 40
0.0
 40
0.0
 40
0.0
 40
0.0
 40
0.125
 40
0.125
 40
0.25
 40
0.25
 40
0.375
 40
0.375
 40
0.5
 40
0.5
 40
0.75
 40
0.75
 40
1.0
 40
1.0
 40
1.0
 40
1.0
 10
284.2205991308361
 20
633.5281847574824
 30
0.0
 10
284.2205992794886
 20
633.5281843281482
 30
0.0
 10
284.0854105131991
 20
633.5827119832787
 30
0.0
 10
283.6089152070006
 20
633.6491200241793
 30
0.0
 10
283.2608905513696
 20
633.6668325614726
 30
0.0
 10
282.3932728307757
 20
633.6349631821175
 30
0.0
 10
281.8635526950952
 20
633.5861932853563
 30
0.0
 10
280.6557410683124
 20
633.4190950734247
 30
0.0
 10
279.9836823199314
 20
633.3025769595417
 30
0.0
 10
277.7603809067911
 20
632.8572379153692
 30
0.0
 10
276.0354278377344
 20
632.4375487295506
 30
0.0
 10
272.4446906282423
 20
631.4875538056483
 30
0.0
 10
270.5835685921428
 20
630.9675313079888
 30
0.0
 10
268.8274415294448
 20
630.4269653289094
 30
0.0
  0
ARC
  5
D3
330
C6
100
AcDbEntity
  8
$DDT_AUDIT_GENERATED_(60)
  6
Continuous
 62
     7
100
AcDbCircle
 10
-54.9687210101
 20
572.8773310011
 30
0.0
 40
217.792694076075
100
AcDbArc
 50
357.5077232789
 51
1.9568873363
  0
LINE
  5
D4
330
C6
100
AcDbEntity
  8
$DDT_AUDIT_GENERATED_(60)
  6
Continuous
 62
     7
100
AcDbLine
 10
205.5002790666
 20
538.1069982684
 30
0.0
 11
205.1508105683
 21
612.8922967794
 31
0.0
  0
LINE
  5
D5
330
C6
100
AcDbEntity
  8
$DDT_AUDIT_GENERATED_(60)
  6
Continuous
 62
     7
100
AcDbLine
 10
162.6179965559
 20
563.4170121274
 30
0.0
 11
162.4997239447
 21
538.1069982684
 31
0.0
  0
LINE
  5
D6
330
C6
100
AcDbEntity
  8
$DDT_AUDIT_GENERATED_(60)
  6
Continuous
 62
     7
100
AcDbLine
 10
162.9976373776
 20
644.6591049398
 30
0.0
 11
162.6969573459
 21
580.3144042646
 31
0.0
  0
SPLINE
  5
D7
330
C6
100
AcDbEntity
  8
$DDT_AUDIT_GENERATED_(60)
  6
Continuous
 62
     7
100
AcDbSpline
210
0.0
220
0.0
230
1.0
 70
     8
 71
     3
 72
    18
 73
    14
 74
     0
 42
0.0000000009431826
 43
0.0000000001
 40
0.0
 40
0.0
 40
0.0
 40
0.0
 40
0.1571709004907364
 40
0.2838894709896999
 40
0.3518064822460973
 40
0.4062155377125329
 40
0.4516799562773179
 40
0.542346231959676
 40
0.5994666525364738
 40
0.6643387274590951
 40
0.762656063077218
 40
0.8743058894764913
 40
1.0
 40
1.0
 40
1.0
 40
1.0
 10
205.1507350500041
 20
612.8922897068289
 30
0.0
 10
205.1430607702746
 20
613.5012479559923
 30
0.0
 10
205.1496991459659
 20
614.4273610656772
 30
0.0
 10
205.3752343100927
 20
615.6787545352003
 30
0.0
 10
205.6835103981353
 20
616.4996290086848
 30
0.0
 10
205.9548248040663
 20
617.0265402339878
 30
0.0
 10
206.3209221342141
 20
617.5898303880078
 30
0.0
 10
206.7708683593075
 20
618.1069310766377
 30
0.0
 10
207.3434668793404
 20
618.5919122368881
 30
0.0
 10
207.9949041471818
 20
619.0187476902005
 30
0.0
 10
208.877183445922
 20
619.4196399540946
 30
0.0
 10
210.0492722083068
 20
619.7169891535859
 30
0.0
 10
210.8171236052882
 20
619.8173541610721
 30
0.0
 10
211.3009602996364
 20
619.8731238436105
 30
0.0
  0
SPLINE
  5
D8
330
C6
100
AcDbEntity
  8
$DDT_AUDIT_GENERATED_(60)
  6
Continuous
 62
     7
100
AcDbSpline
210
0.0
220
0.0
230
1.0
 70
     8
 71
     3
 72
    11
 73
     7
 74
     0
 42
0.0000000139627372
 43
0.0000000001
 40
0.0
 40
0.0
 40
0.0
 40
0.0
 40
0.2543820202326081
 40
0.5000064040472837
 40
0.7456271786268336
 40
1.0
 40
1.0
 40
1.0
 40
1.0
 10
163.4468405693655
 20
645.1070058978167
 30
0.0
 10
163.381833142668
 20
645.100571503221
 30
0.0
 10
163.271606897539
 20
645.0861682911842
 30
0.0
 10
163.1216769939351
 20
644.9836816756388
 30
0.0
 10
163.0184853466909
 20
644.8342380759184
 30
0.0
 10
163.0035663742435
 20
644.7240829318632
 30
0.0
 10
162.9968278003367
 20
644.6591087065324
 30
0.0
  0
LINE
  5
D9
330
C6
100
AcDbEntity
  8
$DDT_AUDIT_GENERATED_(60)
  6
Continuous
 62
     7
100
AcDbLine
 10
211.3009487848
 20
619.8731227849
 30
0.0
 11
260.929508355
 21
625.942917545
 31
0.0
  0
LINE
  5
DA
330
C6
100
AcDbEntity
  8
$DDT_AUDIT_GENERATED_(75)
  6
Continuous
 62
     7
100
AcDbLine
 10
171.5000015056
 20
652.9550827071
 30
0.0
 11
172.3492794049
 21
652.9550827071
 31
0.0
  0
ARC
  5
DB
330
C6
100
AcDbEntity
  8
$DDT_AUDIT_GENERATED_(75)
  6
Continuous
 62
     7
100
AcDbCircle
 10
184.0000015056
 20
636.7070058978
 30
0.0
 40
20.5
100
AcDbArc
 50
24.189514154
 51
27.2693252032
  0
ARC
  5
DC
330
C6
100
AcDbEntity
  8
$DDT_AUDIT_GENERATED_(75)
  6
Continuous
 62
     7
100
AcDbCircle
 10
184.0000015056
 20
636.7070058978
 30
0.0
 40
20.50000000000001
100
AcDbArc
 50
127.5718693197
 51
155.810485846
  0
SPLINE
  5
DD
330
C6
100
AcDbEntity
  8
$DDT_AUDIT_GENERATED_(78)
  6
Continuous
 62
     7
100
AcDbSpline
210
0.0
220
0.0
230
1.0
 70
     8
 71
     5
 72
    13
 73
     7
 74
     0
 42
0.0000000006594338
 43
0.0000000001
 40
0.0
 40
0.0
 40
0.0
 40
0.0
 40
0.0
 40
0.0
 40
0.683308176123
 40
0.9502034009631066
 40
0.9502034009631066
 40
0.9502034009631066
 40
0.9502034009631066
 40
0.9502034009631066
 40
0.9502034009631066
 10
263.8998180895171
 20
685.7389919202811
 30
0.0
 10
263.4345044595349
 20
684.3777094727094
 30
0.0
 10
262.1464482877763
 20
682.6651981738514
 30
0.0
 10
260.0052098014929
 20
681.2807246872231
 30
0.0
 10
256.7424039003075
 20
680.1927773196987
 30
0.0
 10
253.0415407295225
 20
679.4848055950888
 30
0.0
 10
251.9839180325525
 20
679.3179272400338
 30
0.0
  0
LINE
  5
DE
330
C6
100
AcDbEntity
  8
$DDT_AUDIT_GENERATED_(78)
  6
Continuous
 62
     7
100
AcDbLine
 10
263.3955566063
 20
686.1776770556
 30
0.0
 11
250.444066782
 21
684.6030860751
 31
0.0
  0
LINE
  5
DF
330
C6
100
AcDbEntity
  8
$DDT_AUDIT_GENERATED_(78)
  6
Continuous
 62
     7
100
AcDbLine
 10
250.7687032718
 20
679.1450226667
 30
0.0
 11
250.4921196866
 21
679.1097425467
 31
0.0
  0
LINE
  5
E0
330
C6
100
AcDbEntity
  8
$DDT_AUDIT_GENERATED_(78)
  6
Continuous
 62
     7
100
AcDbLine
 10
250.4440665341
 20
684.603086045
 30
0.0
 11
206.1711711154
 21
679.2205622772
 31
0.0
  0
LINE
  5
E1
330
C6
100
AcDbEntity
  8
$DDT_AUDIT_GENERATED_(78)
  6
Continuous
 62
     7
100
AcDbLine
 10
195.8916607344
 20
677.9708200043
 30
0.0
 11
206.171170867
 21
679.220562247
 31
0.0
  0
LINE
  5
E2
330
C6
100
AcDbEntity
  8
$DDT_AUDIT_GENERATED_(78)
  6
Continuous
 62
     7
100
AcDbLine
 10
183.9965742067
 20
676.5246623643
 30
0.0
 11
195.8916607344
 21
677.9708200043
 31
0.0
  0
LINE
  5
E3
330
C6
100
AcDbEntity
  8
$DDT_AUDIT_GENERATED_(78)
  6
Continuous
 62
     7
100
AcDbLine
 10
183.9965742067
 20
676.5246623643
 30
0.0
 11
163.5773485133
 21
674.0421735509
 31
0.0
  0
LINE
  5
E4
330
C6
100
AcDbEntity
  8
$DDT_AUDIT_GENERATED_(78)
  6
Continuous
 62
     7
100
AcDbLine
 10
204.7597392742
 20
646.0860727307
 30
0.0
 11
186.8868786617
 21
646.107354581
 31
0.0
  0
ARC
  5
E5
330
C6
100
AcDbEntity
  8
$DDT_AUDIT_GENERATED_(78)
  6
Continuous
 62
     7
100
AcDbCircle
 10
186.8898555019
 20
648.6073528086
 30
0.0
 40
2.5000000000045
100
AcDbArc
 50
243.8635519135
 51
269.9317758316
  0
LINE
  5
E6
330
C6
100
AcDbEntity
  8
$DDT_AUDIT_GENERATED_(78)
  6
Continuous
 62
     7
100
AcDbLine
 10
183.90686732
 20
647.2863101066
 30
0.0
 11
185.7885793963
 21
646.3629840914
 31
0.0
  0
LINE
  5
E7
330
C6
100
AcDbEntity
  8
$DDT_AUDIT_GENERATED_(78)
  6
Continuous
 62
     7
100
AcDbLine
 10
163.5277871017
 20
657.2859987784
 30
0.0
 11
183.9068668644
 21
647.2863103302
 31
0.0
  0
SPLINE
  5
E8
330
C6
100
AcDbEntity
  8
$DDT_AUDIT_GENERATED_(78)
  6
Continuous
 62
     7
100
AcDbSpline
210
0.0
220
0.0
230
1.0
 70
     8
 71
     3
 72
     8
 73
     4
 74
     0
 42
0.0000000006468314
 43
0.0000000001
 40
0.994953937864711
 40
0.994953937864711
 40
0.994953937864711
 40
0.994953937864711
 40
1.0
 40
1.0
 40
1.0
 40
1.0
 10
263.5367923771817
 20
685.6829196393027
 30
0.0
 10
263.546023872239
 20
685.7069832200526
 30
0.0
 10
263.5553105444929
 20
685.7312663235882
 30
0.0
 10
263.5646679020865
 20
685.7557813394828
 30
0.0
  0
ARC
  5
E9
330
C6
100
AcDbEntity
  8
$DDT_AUDIT_GENERATED_(78)
  6
Continuous
 62
     7
100
AcDbCircle
 10
263.4498640301
 20
685.7309641542
 30
0.0
 40
0.4500019028041565
100
AcDbArc
 50
359.585532085
 51
96.9321417354
  0
LINE
  5
EA
330
C6
100
AcDbEntity
  8
$DDT_AUDIT_GENERATED_(78)
  6
Continuous
 62
     7
100
AcDbLine
 10
211.0989088092
 20
674.3204715463
 30
0.0
 11
250.4921201615
 21
679.1097425977
 31
0.0
  0
ARC
  5
EB
330
C6
100
AcDbEntity
  8
$DDT_AUDIT_GENERATED_(78)
  6
Continuous
 62
     7
100
AcDbCircle
 10
252.025818337
 20
670.9000609287
 30
0.0
 40
8.338414433989287
100
AcDbArc
 50
97.3807722688
 51
98.6694685528
  0
ARC
  5
EC
330
C6
100
AcDbEntity
  8
$DDT_AUDIT_GENERATED_(78)
  6
Continuous
 62
     7
100
AcDbCircle
 10
246.2852389713
 20
715.0889251483
 30
0.0
 40
36.22208571925827
100
AcDbArc
 50
277.4165608471
 51
279.0555279572
  0
LINE
  5
ED
330
C6
100
AcDbEntity
  8
$DDT_AUDIT_GENERATED_(78)
  6
Continuous
 62
     7
100
AcDbLine
 10
250.4921399892
 20
679.1099927496
 30
0.0
 11
250.5353841658
 21
679.1150622285
 31
0.0
  0
SPLINE
  5
EE
330
C6
100
AcDbEntity
  8
$DDT_AUDIT_GENERATED_(78)
  6
Continuous
 62
     7
100
AcDbSpline
210
0.0
220
0.0
230
1.0
 70
     8
 71
     3
 72
    18
 73
    14
 74
     0
 42
0.0000000009377975
 43
0.0000000001
 40
0.0
 40
0.0
 40
0.0
 40
0.0
 40
0.1571873270009657
 40
0.2839189163556464
 40
0.3518383324413542
 40
0.4062424839075349
 40
0.4517085243489985
 40
0.5423776860059702
 40
0.5994922976879201
 40
0.66435128969567
 40
0.7626371348997408
 40
0.8742483730937937
 40
1.0
 40
1.0
 40
1.0
 40
1.0
 10
204.9369410550973
 20
667.3461659592932
 30
0.0
 10
204.9299055058042
 20
667.9586880826056
 30
0.0
 10
204.9377788063527
 20
668.8902593885354
 30
0.0
 10
205.1685698910195
 20
670.1483932977195
 30
0.0
 10
205.4824929398133
 20
670.9725915266126
 30
0.0
 10
205.7583160018593
 20
671.5010078643202
 30
0.0
 10
206.1300706145303
 20
672.0652113441099
 30
0.0
 10
206.5863675283007
 20
672.5820381282765
 30
0.0
 10
207.1660883605176
 20
673.065161792542
 30
0.0
 10
207.8247102061019
 20
673.4888162091905
 30
0.0
 10
208.7152035892072
 20
673.8843054477401
 30
0.0
 10
209.8961732140518
 20
674.1737709230512
 30
0.0
 10
210.6686297195066
 20
674.2725989139651
 30
0.0
 10
211.1556130350814
 20
674.3273987385996
 30
0.0
  0
ARC
  5
EF
330
C6
100
AcDbEntity
  8
$DDT_AUDIT_GENERATED_(78)
  6
Continuous
 62
     7
100
AcDbCircle
 10
163.6312294369
 20
673.5949431662
 30
0.0
 40
0.4504644227919065
100
AcDbArc
 50
96.8665025223
 51
179.6120553927
  0
LINE
  5
F0
330
C6
100
AcDbEntity
  8
$DDT_AUDIT_GENERATED_(78)
  6
Continuous
 62
     7
100
AcDbLine
 10
163.1807928999
 20
673.6009953236
 30
0.0
 11
163.0873153101
 21
657.6593227348
 31
0.0
  0
ARC
  5
F1
330
C6
100
AcDbEntity
  8
$DDT_AUDIT_GENERATED_(78)
  6
Continuous
 62
     7
100
AcDbCircle
 10
204.7600374787
 20
646.336072952
 30
0.0
 40
0.2500003991578272
100
AcDbArc
 50
269.9316566563
 51
0.1994265089
  0
SPLINE
  5
F2
330
C6
100
AcDbEntity
  8
$DDT_AUDIT_GENERATED_(78)
  6
Continuous
 62
     7
100
AcDbSpline
210
0.0
220
0.0
230
1.0
 70
     8
 71
     3
 72
     8
 73
     4
 74
     0
 42
0.0000000195596445
 43
0.0000000001
 40
0.0
 40
0.0
 40
0.0
 40
0.0
 40
1.0
 40
1.0
 40
1.0
 40
1.0
 10
163.087315732739
 20
657.65940284005
 30
0.0
 10
163.1093777806136
 20
657.566366748042
 30
0.0
 10
163.232664641563
 20
657.4610188013095
 30
0.0
 10
163.4571763155872
 20
657.3433589998524
 30
0.0
  0
LINE
  5
F3
330
C6
100
AcDbEntity
  8
$DDT_AUDIT_GENERATED_(78)
  6
Continuous
 62
     7
100
AcDbLine
 10
204.943955352
 20
665.3137301394
 30
0.0
 11
204.9368783843
 21
667.3460554355
 31
0.0
  0
LINE
  5
F4
330
C6
100
AcDbEntity
  8
$DDT_AUDIT_GENERATED_(78)
  6
Continuous
 62
     7
100
AcDbLine
 10
205.0100363632
 20
646.3369430631
 30
0.0
 11
204.9701095504
 21
657.8029090313
 31
0.0
  0
LINE
  5
F6
330
C6
100
AcDbEntity
  8
$DDT_AUDIT_GENERATED_(F5)
  6
Continuous
 62
     7
100
AcDbLine
 10
282.7008503814
 20
628.1128844492
 30
0.0
 11
265.5869641631
 21
622.2201008535
 31
0.0
  0
LINE
  5
F7
330
C6
100
AcDbEntity
  8
$DDT_AUDIT_GENERATED_(F5)
  6
Continuous
 62
     7
100
AcDbLine
 10
282.8248404657
 20
628.3671017952
 30
0.0
 11
282.7597268348
 21
628.5562055104
 31
0.0
  0
LINE
  5
F8
330
C6
100
AcDbEntity
  8
$DDT_AUDIT_GENERATED_(F5)
  6
Continuous
 62
     7
100
AcDbLine
 10
265.2676331862
 20
622.5331946529
 30
0.0
 11
265.3327468171
 21
622.3440909378
 31
0.0
  0
ARC
  5
F9
330
C6
100
AcDbEntity
  8
$DDT_AUDIT_GENERATED_(F5)
  6
Continuous
 62
     7
100
AcDbCircle
 10
265.5218505322
 20
622.4092045687
 30
0.0
 40
0.1999999999999977
100
AcDbArc
 50
199.0
 51
289.0
  0
ARC
  5
FA
330
C6
100
AcDbEntity
  8
$DDT_AUDIT_GENERATED_(F5)
  6
Continuous
 62
     7
100
AcDbCircle
 10
282.6357367505
 20
628.3019881643
 30
0.0
 40
0.1999999999999977
100
AcDbArc
 50
289.0
 51
19.0
  0
LINE
  5
FB
330
C6
100
AcDbEntity
  8
$DDT_AUDIT_GENERATED_(A3)
  6
Continuous
 62
     7
100
AcDbLine
 10
263.8493553228
 20
622.0448424212
 30
0.0
 11
284.1780046982
 21
629.044557742
 31
0.0
  0
SPLINE
  5
FC
330
C6
100
AcDbEntity
  8
$DDT_AUDIT_GENERATED_(A3)
  6
Continuous
 62
     7
100
AcDbSpline
210
0.0
220
0.0
230
1.0
 70
     8
 71
     3
 72
    10
 73
     6
 74
     0
 42
0.0000000019260148
 43
0.0000000001
 40
0.0
 40
0.0
 40
0.0
 40
0.0
 40
0.5
 40
0.5
 40
1.0
 40
1.0
 40
1.0
 40
1.0
 10
276.3558852767054
 20
626.6870257025244
 30
0.0
 10
275.5779165982487
 20
626.2986677400129
 30
0.0
 10
274.7820919810099
 20
625.9619506350855
 30
0.0
 10
273.1517072307126
 20
625.4005427532956
 30
0.0
 10
272.3171465758705
 20
625.1758534854742
 30
0.0
 10
271.4647111964605
 20
625.0028594052894
 30
0.0
  0
LINE
  5
FD
330
C6
100
AcDbEntity
  8
$DDT_AUDIT_GENERATED_(A3)
  6
Continuous
 62
     7
100
AcDbLine
 10
284.7854671362
 20
630.5054898827
 30
0.0
 11
277.6664982723
 21
628.0542323247
 31
0.0
  0
LINE
  5
FE
330
C6
100
AcDbEntity
  8
$DDT_AUDIT_GENERATED_(A3)
  6
Continuous
 62
     7
100
AcDbLine
 10
277.0751258753
 20
629.771702473
 30
0.0
 11
268.9988252189
 21
626.9908091438
 31
0.0
  0
LINE
  5
FF
330
C6
100
AcDbEntity
  8
$DDT_AUDIT_GENERATED_(A3)
  6
Continuous
 62
     7
100
AcDbLine
 10
277.0751258753
 20
629.771702473
 30
0.0
 11
277.6664982723
 21
628.0542323247
 31
0.0
  0
SPLINE
  5
100
330
C6
100
AcDbEntity
  8
$DDT_AUDIT_GENERATED_(A3)
  6
Continuous
 62
     7
100
AcDbSpline
210
0.0
220
0.0
230
1.0
 70
     8
 71
     3
 72
    14
 73
    10
 74
     0
 42
0.0000000049321089
 43
0.0000000001
 40
0.0
 40
0.0
 40
0.0
 40
0.0
 40
0.1250000000000002
 40
0.1250000000000002
 40
0.2500000000000006
 40
0.2500000000000006
 40
0.5000000000000002
 40
0.5000000000000002
 40
1.0
 40
1.0
 40
1.0
 40
1.0
 10
277.6664982723291
 20
628.0542323247294
 30
0.0
 10
277.6939245566338
 20
627.9745806115175
 30
0.0
 10
277.6909360453799
 20
627.8845662848441
 30
0.0
 10
277.6456760393392
 20
627.72176343512
 30
0.0
 10
277.6052019523629
 20
627.6454111789344
 30
0.0
 10
277.4631142908624
 20
627.436657874918
 30
0.0
 10
277.3388703192818
 20
627.3183581348422
 30
0.0
 10
276.949545543474
 20
627.0030561700959
 30
0.0
 10
276.6553264857153
 20
626.8365052137738
 30
0.0
 10
276.3558852767054
 20
626.6870257025244
 30
0.0
  0
SPLINE
  5
101
330
C6
100
AcDbEntity
  8
$DDT_AUDIT_GENERATED_(A3)
  6
Continuous
 62
     7
100
AcDbSpline
210
0.0
220
0.0
230
1.0
 70
     8
 71
     3
 72
    18
 73
    14
 74
     0
 42
0.0000000049401632
 43
0.0000000001
 40
0.0
 40
0.0
 40
0.0
 40
0.0
 40
0.25
 40
0.25
 40
0.5
 40
0.5
 40
0.625
 40
0.625
 40
0.75
 40
0.75
 40
0.875
 40
0.875
 40
1.0
 40
1.0
 40
1.0
 40
1.0
 10
271.4647111964605
 20
625.0028594052894
 30
0.0
 10
271.3002247645851
 20
624.9694783658902
 30
0.0
 10
271.134877231363
 20
624.9411789391803
 30
0.0
 10
270.8013767825415
 20
624.9011354735144
 30
0.0
 10
270.6333278699623
 20
624.8892281995793
 30
0.0
 10
270.3827088009704
 20
624.8938141130019
 30
0.0
 10
270.2992710465246
 20
624.8991064143765
 30
0.0
 10
270.1327049574996
 20
624.9211154521848
 30
0.0
 10
270.0490988944201
 20
624.9379490786995
 30
0.0
 10
269.8897281017403
 20
624.9891514517166
 30
0.0
 10
269.8118296870229
 20
625.0237863326928
 30
0.0
 10
269.6749714216782
 20
625.1248968333283
 30
0.0
 10
269.6181154053603
 20
625.1922598479545
 30
0.0
 10
269.5901976159906
 20
625.2733389955225
 30
0.0
  0
LINE
  5
102
330
C6
100
AcDbEntity
  8
$DDT_AUDIT_GENERATED_(A3)
  6
Continuous
 62
     7
100
AcDbLine
 10
269.590197616
 20
625.2733389955
 30
0.0
 11
268.9988252189
 21
626.9908091438
 31
0.0
  0
LINE
  5
103
330
C6
100
AcDbEntity
  8
$DDT_AUDIT_GENERATED_(A3)
  6
Continuous
 62
     7
100
AcDbLine
 10
269.590197616
 20
625.2733389955
 30
0.0
 11
262.4712287521
 21
622.8220814375
 31
0.0
  0
LINE
  5
104
330
C6
100
AcDbEntity
  8
$DDT_AUDIT_GENERATED_(A3)
  6
Continuous
 62
     7
100
AcDbLine
 10
263.2259383323
 20
622.1660224085
 30
0.0
 11
263.8493553228
 21
622.0448424212
 31
0.0
  0
LINE
  5
105
330
C6
100
AcDbEntity
  8
$DDT_AUDIT_GENERATED_(A3)
  6
Continuous
 62
     7
100
AcDbLine
 10
284.1780046982
 20
629.044557742
 30
0.0
 11
284.5946581409
 21
629.5238626993
 31
0.0
  0
ARC
  5
106
330
C6
100
AcDbEntity
  8
$DDT_AUDIT_GENERATED_(A3)
  6
Continuous
 62
     7
100
AcDbCircle
 10
263.4167473277
 20
623.147649592
 30
0.0
 40
1.000000000000006
100
AcDbArc
 50
199.0
 51
259.0
  0
ARC
  5
107
330
C6
100
AcDbEntity
  8
$DDT_AUDIT_GENERATED_(A3)
  6
Continuous
 62
     7
100
AcDbCircle
 10
283.8399485606
 20
630.1799217283
 30
0.0
 40
1.000000000000004
100
AcDbArc
 50
319.0
 51
19.0
  0
LINE
  5
108
330
C6
100
AcDbEntity
  8
$DDT_AUDIT_GENERATED_(A3)
  6
Continuous
 62
     7
100
AcDbLine
 10
261.2945448068
 20
626.239419751
 30
0.0
 11
262.4712287521
 21
622.8220814375
 31
0.0
  0
LINE
  5
109
330
C6
100
AcDbEntity
  8
$DDT_AUDIT_GENERATED_(A3)
  6
Continuous
 62
     7
100
AcDbLine
 10
284.7854671362
 20
630.5054898827
 30
0.0
 11
283.7118845424
 21
633.6234001298
 31
0.0
  0
LINE
  5
10A
330
C6
100
AcDbEntity
  8
$DDT_AUDIT_GENERATED_(B9)
  6
Continuous
 62
     7
100
AcDbLine
 10
184.0000015056
 20
538.1069982684
 30
0.0
 11
205.5002790666
 21
538.1069982684
 31
0.0
  0
LINE
  5
10B
330
C6
100
AcDbEntity
  8
$DDT_AUDIT_GENERATED_(B9)
  6
Continuous
 62
     7
100
AcDbLine
 10
162.4997239447
 20
538.1069982684
 30
0.0
 11
184.0000015056
 21
538.1069982684
 31
0.0
  0
LINE
  5
10C
330
C6
100
AcDbEntity
  8
$DDT_AUDIT_GENERATED_(B9)
  6
Continuous
 62
     7
100
AcDbLine
 10
205.5002790666
 20
378.1069982684
 30
0.0
 11
205.5002790666
 21
538.1069982684
 31
0.0
  0
LINE
  5
10D
330
C6
100
AcDbEntity
  8
$DDT_AUDIT_GENERATED_(B9)
  6
Continuous
 62
     7
100
AcDbLine
 10
162.4997239447
 20
538.1069982684
 30
0.0
 11
162.4997239447
 21
378.1069982684
 31
0.0
  0
LINE
  5
10E
330
C6
100
AcDbEntity
  8
$DDT_AUDIT_GENERATED_(BE)
  6
Continuous
 62
     7
100
AcDbLine
 10
205.0230788567
 20
665.2800329574
 30
0.0
 11
205.4157305815
 21
657.6131275866
 31
0.0
  0
LINE
  5
10F
330
C6
100
AcDbEntity
  8
$DDT_AUDIT_GENERATED_(BE)
  6
Continuous
 62
     7
100
AcDbLine
 10
204.9701095504
 20
657.8029090313
 30
0.0
 11
205.4157305815
 21
657.6131275866
 31
0.0
  0
LINE
  5
110
330
C6
100
AcDbEntity
  8
$DDT_AUDIT_GENERATED_(BE)
  6
Continuous
 62
     7
100
AcDbLine
 10
205.0230788567
 20
665.2800329574
 30
0.0
 11
204.943955352
 21
665.3137301394
 31
0.0
  0
LINE
  5
112
330
C6
100
AcDbEntity
  8
$DDT_AUDIT_GENERATED_(111)
  6
Continuous
 62
     7
100
AcDbLine
 10
141.5926589293
 20
586.8331969217
 30
0.0
 11
141.5926589293
 21
590.8331969217
 31
0.0
  0
LINE
  5
113
330
C6
100
AcDbEntity
  8
$DDT_AUDIT_GENERATED_(111)
  6
Continuous
 62
     7
100
AcDbLine
 10
154.9630313453
 20
590.8331969217
 30
0.0
 11
141.5926589293
 21
590.8331969217
 31
0.0
  0
LINE
  5
114
330
C6
100
AcDbEntity
  8
$DDT_AUDIT_GENERATED_(111)
  6
Continuous
 62
     7
100
AcDbLine
 10
141.5926589293
 20
586.8331969217
 30
0.0
 11
154.9630313453
 21
586.8331969217
 31
0.0
  0
ARC
  5
115
330
C6
100
AcDbEntity
  8
$DDT_AUDIT_GENERATED_(111)
  6
Continuous
 62
     7
100
AcDbCircle
 10
154.9630313453
 20
585.8331969217
 30
0.0
 40
1.000000000000001
100
AcDbArc
 50
18.0
 51
90.0
  0
ARC
  5
116
330
C6
100
AcDbEntity
  8
$DDT_AUDIT_GENERATED_(111)
  6
Continuous
 62
     7
100
AcDbCircle
 10
154.9630313453
 20
585.8331969217
 30
0.0
 40
5.000000000000004
100
AcDbArc
 50
18.0
 51
90.0
  0
LINE
  5
117
330
C6
100
AcDbEntity
  8
$DDT_AUDIT_GENERATED_(111)
  6
Continuous
 62
     7
100
AcDbLine
 10
162.7569175694
 20
578.0264214868
 30
0.0
 11
159.7183139268
 21
587.3782818936
 31
0.0
  0
LINE
  5
118
330
C6
100
AcDbEntity
  8
$DDT_AUDIT_GENERATED_(111)
  6
Continuous
 62
     7
100
AcDbLine
 10
155.9140878616
 20
586.1422139161
 30
0.0
 11
162.6973198704
 21
565.2655724337
 31
0.0
  0
LINE
  5
11A
330
C6
100
AcDbEntity
  8
DV2_Standard
  6
Continuous
 62
     7
100
AcDbLine
 10
205.5104052246
 20
673.1360233108
 30
0.0
 11
199.066391203
 21
677.0638032858
 31
0.0
  0
LINE
  5
11B
330
C6
100
AcDbEntity
  8
DV2_Standard
  6
Continuous
 62
     7
100
AcDbLine
 10
162.4997239447
 20
378.1069982684
 30
0.0
 11
205.5002790666
 21
378.1069982684
 31
0.0
  0
LINE
  5
11C
330
C6
100
AcDbEntity
  8
DV2_Standard
  6
CENTER2
 62
     7
100
AcDbLine
 10
204.0000010586
 20
378.1069982684
 30
0.0
 11
164.0000019527
 21
378.1069982684
 31
0.0
  0
LINE
  5
11D
330
C6
100
AcDbEntity
  8
DV2_Standard
  6
CENTER2
 62
     7
100
AcDbLine
 10
184.0000015056
 20
398.1069978214
 30
0.0
 11
184.0000015056
 21
358.1069987155
 31
0.0
  0
ENDBLK
  5
11F
330
C6
100
AcDbEntity
  8
0
100
AcDbBlockEnd
  0
BLOCK
  5
155
330
120
100
AcDbEntity
  8
0
100
AcDbBlockBegin
  2
SE2
 70
     0
 10
0.0
 20
0.0
 30
0.0
  3
SE2
  1

  0
SPLINE
  5
122
330
120
100
AcDbEntity
  8
$DDT_AUDIT_GENERATED_(60)
  6
Continuous
 62
     7
100
AcDbSpline
210
0.0
220
0.0
230
1.0
 70
     8
 71
     2
 72
     8
 73
     5
 74
     0
 42
0.0000000001406558
 43
0.0000000001
 40
0.0
 40
0.0
 40
0.0
 40
0.0625
 40
0.0625
 40
0.0650652301937716
 40
0.0650652301937716
 40
0.0650652301937716
 10
56.2750000000137
 20
255.0749996068423
 30
0.0
 10
56.27488622212119
 20
252.8507664949521
 30
0.0
 10
55.81974956693779
 20
250.6748089562012
 30
0.0
 10
55.80146302101846
 20
250.5873830215995
 30
0.0
 10
55.78247110914443
 20
250.5001781360561
 30
0.0
  0
SPLINE
  5
123
330
120
100
AcDbEntity
  8
$DDT_AUDIT_GENERATED_(60)
  6
Continuous
 62
     7
100
AcDbSpline
210
0.0
220
0.0
230
1.0
 70
     8
 71
     2
 72
     8
 73
     5
 74
     0
 42
0.0000000001406528
 43
0.0000000001
 40
0.9349362083661238
 40
0.9349362083661238
 40
0.9349362083661238
 40
0.9375
 40
0.9375
 40
1.0
 40
1.0
 40
1.0
 10
13.76753311621565
 20
250.5001957437317
 30
0.0
 10
13.7485400330589
 20
250.5873902340749
 30
0.0
 10
13.73025043306203
 20
250.6748089562012
 30
0.0
 10
13.27511380565335
 20
252.8502235288396
 30
0.0
 10
13.2749999999861
 20
255.0749996068423
 30
0.0
  0
SPLINE
  5
124
330
120
100
AcDbEntity
  8
$DDT_AUDIT_GENERATED_(60)
  6
Continuous
 62
     7
100
AcDbSpline
210
0.0
220
0.0
230
1.0
 70
     8
 71
     6
 72
    14
 73
     7
 74
     0
 42
0.000000000142524
 43
0.0000000001
 40
0.0
 40
0.0
 40
0.0
 40
0.0
 40
0.0
 40
0.0
 40
0.0
 40
0.4694796169761873
 40
0.4694796169761873
 40
0.4694796169761873
 40
0.4694796169761873
 40
0.4694796169761873
 40
0.4694796169761873
 40
0.4694796169761873
 10
56.2750000000137
 20
255.0749996068423
 30
0.0
 10
56.27500000000722
 20
260.6913269961639
 30
0.0
 10
54.51475872043086
 20
266.084263927412
 30
0.0
 10
51.2486801035578
 20
270.6750261265984
 30
0.0
 10
46.88026989653876
 20
274.0555891563039
 30
0.0
 10
41.89213539315747
 20
276.0033245971125
 30
0.0
 10
36.77598517558649
 20
276.4818934513372
 30
0.0
  0
SPLINE
  5
125
330
120
100
AcDbEntity
  8
$DDT_AUDIT_GENERATED_(60)
  6
Continuous
 62
     7
100
AcDbSpline
210
0.0
220
0.0
230
1.0
 70
     8
 71
     6
 72
    14
 73
     7
 74
     0
 42
0.000000000142524
 43
0.0000000001
 40
0.5305203706791276
 40
0.5305203706791276
 40
0.5305203706791276
 40
0.5305203706791276
 40
0.5305203706791276
 40
0.5305203706791276
 40
0.5305203706791276
 40
1.0
 40
1.0
 40
1.0
 40
1.0
 40
1.0
 40
1.0
 40
1.0
 10
32.77401563157027
 20
276.4818935268392
 30
0.0
 10
27.65786526264271
 20
276.0033248531851
 30
0.0
 10
22.66973056292029
 20
274.0555895118635
 30
0.0
 10
18.30132015408105
 20
270.6750264887324
 30
0.0
 10
15.03524137213814
 20
266.0842642110202
 30
0.0
 10
13.27499999999258
 20
260.6913271438419
 30
0.0
 10
13.2749999999861
 20
255.0749996068423
 30
0.0
  0
LINE
  5
126
330
120
100
AcDbEntity
  8
$DDT_AUDIT_GENERATED_(60)
  6
Continuous
 62
     7
100
AcDbLine
 10
13.7726635516
 20
255.0749996013
 30
0.0
 11
13.7726635516
 21
254.0259735859
 31
0.0
  0
LINE
  5
127
330
120
100
AcDbEntity
  8
$DDT_AUDIT_GENERATED_(60)
  6
Continuous
 62
     7
100
AcDbLine
 10
55.7773364484
 20
254.0263554052
 30
0.0
 11
55.7773364484
 21
255.0749996013
 31
0.0
  0
LINE
  5
128
330
120
100
AcDbEntity
  8
$DDT_AUDIT_GENERATED_(60)
  6
Continuous
 62
     7
100
AcDbLine
 10
55.7773364484
 20
170.247559583
 30
0.0
 11
55.7773364484
 21
254.0263552659
 31
0.0
  0
LINE
  5
129
330
120
100
AcDbEntity
  8
$DDT_AUDIT_GENERATED_(60)
  6
Continuous
 62
     7
100
AcDbLine
 10
13.7726635516
 20
170.247559583
 30
0.0
 11
13.7726635516
 21
254.0259734479
 31
0.0
  0
ARC
  5
12A
330
120
100
AcDbEntity
  8
$DDT_AUDIT_GENERATED_(60)
  6
Continuous
 62
     7
100
AcDbCircle
 10
34.7700979421
 20
170.2519842505
 30
0.0
 40
21.00703282345123
100
AcDbArc
 50
270.0133631257
 51
359.9879325914
  0
ARC
  5
12B
330
120
100
AcDbEntity
  8
$DDT_AUDIT_GENERATED_(60)
  6
Continuous
 62
     7
100
AcDbCircle
 10
34.7764561813
 20
170.2427767614
 30
0.0
 40
20.99782481374497
100
AcDbArc
 50
236.6313803783
 51
269.9960195567
  0
ARC
  5
12C
330
120
100
AcDbEntity
  8
$DDT_AUDIT_GENERATED_(60)
  6
Continuous
 62
     7
100
AcDbCircle
 10
34.7801284495
 20
170.2516546723
 30
0.0
 40
21.007259106274
100
AcDbArc
 50
180.0111530724
 51
236.636333842
  0
ARC
  5
12D
330
120
100
AcDbEntity
  8
$DDT_AUDIT_GENERATED_(60)
  6
Continuous
 62
     7
100
AcDbCircle
 10
34.7750680493
 20
259.2126814008
 30
0.0
 40
17.24684465405303
100
AcDbArc
 50
81.1604402944
 51
98.8397864743
  0
ARC
  5
12E
330
120
100
AcDbEntity
  8
$DDT_AUDIT_GENERATED_(78)
  6
Continuous
 62
     7
100
AcDbCircle
 10
34.8843181193
 20
188.5977605228
 30
0.0
 40
13.39047382050111
100
AcDbArc
 50
298.1236302811
 51
359.9106092437
  0
ARC
  5
12F
330
120
100
AcDbEntity
  8
$DDT_AUDIT_GENERATED_(78)
  6
Continuous
 62
     7
100
AcDbCircle
 10
34.8820379955
 20
188.5993843916
 30
0.0
 40
13.39298081597074
100
AcDbArc
 50
298.1289584292
 51
359.9039295068
  0
ARC
  5
130
330
120
100
AcDbEntity
  8
$DDT_AUDIT_GENERATED_(78)
  6
Continuous
 62
     7
100
AcDbCircle
 10
34.7711216768
 20
188.7778442057
 30
0.0
 40
13.60266173568367
100
AcDbArc
 50
270.0163360057
 51
298.1865782905
  0
ARC
  5
131
330
120
100
AcDbEntity
  8
$DDT_AUDIT_GENERATED_(78)
  6
Continuous
 62
     7
100
AcDbCircle
 10
34.7776080788
 20
188.7722441181
 30
0.0
 40
13.59706134526245
100
AcDbArc
 50
241.8019983196
 51
269.9890101033
  0
ARC
  5
132
330
120
100
AcDbEntity
  8
$DDT_AUDIT_GENERATED_(78)
  6
Continuous
 62
     7
100
AcDbCircle
 10
34.6680852881
 20
188.5992784394
 30
0.0
 40
13.39287970475885
100
AcDbArc
 50
180.0958671447
 51
241.8652919409
  0
LINE
  5
133
330
120
100
AcDbEntity
  8
$DDT_AUDIT_GENERATED_(78)
  6
Continuous
 62
     7
100
AcDbLine
 10
48.2749999844
 20
188.5769277695
 30
0.0
 11
48.2749999843
 21
196.0671360793
 31
0.0
  0
LINE
  5
134
330
120
100
AcDbEntity
  8
$DDT_AUDIT_GENERATED_(78)
  6
Continuous
 62
     7
100
AcDbLine
 10
48.2749999836
 20
231.0100481645
 30
0.0
 11
48.2749999835
 21
232.8498968473
 31
0.0
  0
SPLINE
  5
135
330
120
100
AcDbEntity
  8
$DDT_AUDIT_GENERATED_(78)
  6
Continuous
 62
     7
100
AcDbSpline
210
0.0
220
0.0
230
1.0
 70
     8
 71
     3
 72
    11
 73
     7
 74
     0
 42
0.0000000002258709
 43
0.0000000001
 40
0.0411674164390375
 40
0.0411674164390375
 40
0.0411674164390375
 40
0.0411674164390375
 40
0.1773792093092525
 40
0.3548259785055744
 40
0.6775137143531474
 40
0.8311409792393907
 40
0.8311409792393907
 40
0.8311409792393907
 40
0.8311409792393907
 10
48.27495277500339
 20
231.0270188691626
 30
0.0
 10
48.27514490827416
 20
229.0166176803566
 30
0.0
 10
48.27555019537058
 20
224.3872534383488
 30
0.0
 10
48.27562476790149
 20
214.9960803158187
 30
0.0
 10
48.27535389972684
 20
205.3485478557787
 30
0.0
 10
48.27511753891495
 20
198.319547426397
 30
0.0
 10
48.27503917786139
 20
196.0524611621702
 30
0.0
  0
LINE
  5
136
330
120
100
AcDbEntity
  8
$DDT_AUDIT_GENERATED_(78)
  6
Continuous
 62
     7
100
AcDbLine
 10
21.2749999862
 20
188.5769278006
 30
0.0
 11
21.2749999861
 21
196.0771491208
 31
0.0
  0
LINE
  5
137
330
120
100
AcDbEntity
  8
$DDT_AUDIT_GENERATED_(78)
  6
Continuous
 62
     7
100
AcDbLine
 10
21.2749999854
 20
231.0064685694
 30
0.0
 11
21.2749999853
 21
232.8498903575
 31
0.0
  0
ARC
  5
138
330
120
100
AcDbEntity
  8
$DDT_AUDIT_GENERATED_(78)
  6
Continuous
 62
     7
100
AcDbCircle
 10
34.659021515
 20
188.594091188
 30
0.0
 40
13.38403253374432
100
AcDbArc
 50
180.0734748609
 51
241.8890371904
  0
SPLINE
  5
139
330
120
100
AcDbEntity
  8
$DDT_AUDIT_GENERATED_(78)
  6
Continuous
 62
     7
100
AcDbSpline
210
0.0
220
0.0
230
1.0
 70
    12
 71
     3
 72
    14
 73
    10
 74
     0
 42
0.0000000002258714
 43
0.0000000001
 40
0.0411828903274084
 40
0.0411828903274084
 40
0.0411828903274084
 40
0.0411828903274084
 40
0.2499999999999221
 40
0.2499999999999221
 40
0.5000000000000976
 40
0.5000000000000976
 40
0.7500000000000488
 40
0.7500000000000488
 40
0.8307881039590076
 40
0.8307881039590076
 40
0.8307881039590076
 40
0.8307881039590076
 10
21.27500033178204
 20
231.0262859209494
 30
0.0
 41
1.0
 10
21.27466494082273
 20
227.9442348666081
 30
0.0
 41
1.0
 10
21.27453898016208
 20
224.8623584182188
 30
0.0
 41
1.0
 10
21.27439464526191
 20
218.0910585478335
 30
0.0
 41
1.0
 10
21.27442064079192
 20
214.4016864179262
 30
0.0
 41
1.0
 10
21.27457542113691
 20
207.0230994480419
 30
0.0
 41
1.0
 10
21.27471260166692
 20
203.3338848368235
 30
0.0
 41
1.0
 10
21.27490676105506
 20
198.4524787011493
 30
0.0
 41
1.0
 10
21.27495503258117
 20
197.2602959273982
 30
0.0
 41
1.0
 10
21.27500079138818
 20
196.068109146156
 30
0.0
 41
1.0
  0
ARC
  5
13A
330
120
100
AcDbEntity
  8
$DDT_AUDIT_GENERATED_(78)
  6
Continuous
 62
     7
100
AcDbCircle
 10
60.7386622621
 20
234.1724103717
 30
0.0
 40
12.53363153342399
100
AcDbArc
 50
136.0661126191
 51
186.0569646428
  0
ARC
  5
13B
330
120
100
AcDbEntity
  8
$DDT_AUDIT_GENERATED_(78)
  6
Continuous
 62
     7
100
AcDbCircle
 10
8.8040166166
 20
234.1699075085
 30
0.0
 40
12.54064876556853
100
AcDbArc
 50
353.9579065355
 51
43.9191675997
  0
ARC
  5
13C
330
120
100
AcDbEntity
  8
$DDT_AUDIT_GENERATED_(78)
  6
Continuous
 62
     7
100
AcDbCircle
 10
34.8043313147
 20
255.0105107697
 30
0.0
 40
20.95950224097487
100
AcDbArc
 50
354.9170135996
 51
0.1298324475
  0
ARC
  5
13D
330
120
100
AcDbEntity
  8
$DDT_AUDIT_GENERATED_(78)
  6
Continuous
 62
     7
100
AcDbCircle
 10
35.6907062228
 20
254.9334823953
 30
0.0
 40
20.06978855574703
100
AcDbArc
 50
352.0373469524
 51
354.9118576228
  0
ARC
  5
13E
330
120
100
AcDbEntity
  8
$DDT_AUDIT_GENERATED_(78)
  6
Continuous
 62
     7
100
AcDbCircle
 10
34.775
 20
255.0612092855
 30
0.0
 40
20.99435976680698
100
AcDbArc
 50
187.9616836298
 51
222.6312329679
  0
ARC
  5
13F
330
120
100
AcDbEntity
  8
$DDT_AUDIT_GENERATED_(78)
  6
Continuous
 62
     7
100
AcDbCircle
 10
34.775
 20
255.0612092855
 30
0.0
 40
20.99435976680698
100
AcDbArc
 50
317.3583200877
 51
352.0383162019
  0
ARC
  5
140
330
120
100
AcDbEntity
  8
$DDT_AUDIT_GENERATED_(78)
  6
Continuous
 62
     7
100
AcDbCircle
 10
33.8588725661
 20
254.9334340601
 30
0.0
 40
20.06936470994613
100
AcDbArc
 50
185.087857231
 51
187.9626827913
  0
ARC
  5
141
330
120
100
AcDbEntity
  8
$DDT_AUDIT_GENERATED_(78)
  6
Continuous
 62
     7
100
AcDbCircle
 10
34.7456688071
 20
255.0105107725
 30
0.0
 40
20.95950236281767
100
AcDbArc
 50
179.8701675608
 51
185.0827428336
  0
ARC
  5
142
330
120
100
AcDbEntity
  8
$DDT_AUDIT_GENERATED_(78)
  6
Continuous
 62
     7
100
AcDbCircle
 10
34.775
 20
254.9976978288
 30
0.0
 40
20.9888663849471
100
AcDbArc
 50
0.1646279161
 51
179.8353720839
  0
LINE
  5
143
330
120
100
AcDbEntity
  8
$DDT_AUDIT_GENERATED_(78)
  6
Continuous
 62
     7
100
AcDbLine
 10
48.2749999844
 20
196.0671360792
 30
0.0
 11
48.2750001707
 21
196.0742383766
 31
0.0
  0
LINE
  5
144
330
120
100
AcDbEntity
  8
$DDT_AUDIT_GENERATED_(78)
  6
Continuous
 62
     7
100
AcDbLine
 10
48.2750000234
 20
231.0097406119
 30
0.0
 11
48.2749999844
 21
231.010048164
 31
0.0
  0
LINE
  5
145
330
120
100
AcDbEntity
  8
$DDT_AUDIT_GENERATED_(78)
  6
Continuous
 62
     7
100
AcDbLine
 10
21.2749999844
 20
231.0064685696
 30
0.0
 11
21.2749999478
 21
231.0061604858
 31
0.0
  0
LINE
  5
146
330
120
100
AcDbEntity
  8
$DDT_AUDIT_GENERATED_(78)
  6
Continuous
 62
     7
100
AcDbLine
 10
21.2749997995
 20
196.084253215
 30
0.0
 11
21.2749999844
 21
196.0771491213
 31
0.0
  0
SPLINE
  5
147
330
120
100
AcDbEntity
  8
$DDT_AUDIT_GENERATED_(B9)
  6
Continuous
 62
     7
100
AcDbSpline
210
0.0
220
0.0
230
1.0
 70
     8
 71
     2
 72
     8
 73
     5
 74
     0
 42
0.0000000001406558
 43
0.0000000001
 40
0.0
 40
0.0
 40
0.0
 40
0.0625
 40
0.0625
 40
0.0650652301938219
 40
0.0650652301938219
 40
0.0650652301938219
 10
13.27499999998611
 20
255.0749996068423
 30
0.0
 10
13.2751137778786
 20
252.8507664948964
 30
0.0
 10
13.73025043306204
 20
250.6748089562012
 30
0.0
 10
13.74853697898146
 20
250.5873830216014
 30
0.0
 10
13.76752889085563
 20
250.5001781360596
 30
0.0
  0
SPLINE
  5
148
330
120
100
AcDbEntity
  8
$DDT_AUDIT_GENERATED_(B9)
  6
Continuous
 62
     7
100
AcDbSpline
210
0.0
220
0.0
230
1.0
 70
     8
 71
     2
 72
     8
 73
     5
 74
     0
 42
0.0000000001406528
 43
0.0000000001
 40
0.9349362083661891
 40
0.9349362083661891
 40
0.9349362083661891
 40
0.9375
 40
0.9375
 40
1.0
 40
1.0
 40
1.0
 10
55.78246688378409
 20
250.5001957437311
 30
0.0
 10
55.80145996694085
 20
250.5873902340745
 30
0.0
 10
55.8197495669378
 20
250.6748089562012
 30
0.0
 10
56.27488619434646
 20
252.8502235288395
 30
0.0
 10
56.2750000000137
 20
255.0749996068423
 30
0.0
  0
SPLINE
  5
149
330
120
100
AcDbEntity
  8
$DDT_AUDIT_GENERATED_(B9)
  6
Continuous
 62
     7
100
AcDbSpline
210
0.0
220
0.0
230
1.0
 70
     8
 71
     6
 72
    14
 73
     7
 74
     0
 42
0.000000000142524
 43
0.0000000001
 40
0.0
 40
0.0
 40
0.0
 40
0.0
 40
0.0
 40
0.0
 40
0.0
 40
0.4694796169761795
 40
0.4694796169761795
 40
0.4694796169761795
 40
0.4694796169761795
 40
0.4694796169761795
 40
0.4694796169761795
 40
0.4694796169761795
 10
13.27499999998611
 20
255.0749996068423
 30
0.0
 10
13.27499999999259
 20
260.6913269961638
 30
0.0
 10
15.0352412795691
 20
266.0842639274119
 30
0.0
 10
18.30131989644214
 20
270.6750261265981
 30
0.0
 10
22.66973010346109
 20
274.0555891563037
 30
0.0
 10
27.65786460684226
 20
276.0033245971123
 30
0.0
 10
32.77401482441315
 20
276.4818934513371
 30
0.0
  0
SPLINE
  5
14A
330
120
100
AcDbEntity
  8
$DDT_AUDIT_GENERATED_(B9)
  6
Continuous
 62
     7
100
AcDbSpline
210
0.0
220
0.0
230
1.0
 70
     8
 71
     6
 72
    14
 73
     7
 74
     0
 42
0.000000000142524
 43
0.0000000001
 40
0.530520370679122
 40
0.530520370679122
 40
0.530520370679122
 40
0.530520370679122
 40
0.530520370679122
 40
0.530520370679122
 40
0.530520370679122
 40
1.0
 40
1.0
 40
1.0
 40
1.0
 40
1.0
 40
1.0
 40
1.0
 10
36.77598436842951
 20
276.4818935268393
 30
0.0
 10
41.89213473735715
 20
276.0033248531852
 30
0.0
 10
46.88026943707964
 20
274.0555895118637
 30
0.0
 10
51.24867984591895
 20
270.6750264887326
 30
0.0
 10
54.51475862786184
 20
266.0842642110203
 30
0.0
 10
56.27500000000722
 20
260.691327143842
 30
0.0
 10
56.2750000000137
 20
255.0749996068423
 30
0.0
  0
LINE
  5
14B
330
120
100
AcDbEntity
  8
$DDT_AUDIT_GENERATED_(111)
  6
Continuous
 62
     7
100
AcDbLine
 10
36.775
 20
297.4823421832
 30
0.0
 11
32.775
 21
297.4823421832
 31
0.0
  0
LINE
  5
14C
330
120
100
AcDbEntity
  8
$DDT_AUDIT_GENERATED_(111)
  6
Continuous
 62
     7
100
AcDbLine
 10
36.775
 20
284.1119697672
 30
0.0
 11
36.775
 21
297.4823421832
 31
0.0
  0
LINE
  5
14D
330
120
100
AcDbEntity
  8
$DDT_AUDIT_GENERATED_(111)
  6
Continuous
 62
     7
100
AcDbLine
 10
32.775
 20
297.4823421832
 30
0.0
 11
32.775
 21
284.1119697672
 31
0.0
  0
LINE
  5
14E
330
120
100
AcDbEntity
  8
$DDT_AUDIT_GENERATED_(111)
  6
Continuous
 62
     7
100
AcDbLine
 10
32.775
 20
284.1119697672
 30
0.0
 11
32.775
 21
281.2588002183
 31
0.0
  0
LINE
  5
14F
330
120
100
AcDbEntity
  8
$DDT_AUDIT_GENERATED_(111)
  6
Continuous
 62
     7
100
AcDbLine
 10
36.775
 20
281.2588002183
 30
0.0
 11
36.775
 21
284.1119697672
 31
0.0
  0
LINE
  5
150
330
120
100
AcDbEntity
  8
$DDT_AUDIT_GENERATED_(111)
  6
Continuous
 62
     7
100
AcDbLine
 10
36.775
 20
276.2990451932
 30
0.0
 11
36.775
 21
281.2588002183
 31
0.0
  0
LINE
  5
151
330
120
100
AcDbEntity
  8
$DDT_AUDIT_GENERATED_(111)
  6
Continuous
 62
     7
100
AcDbLine
 10
32.775
 20
281.2588002183
 30
0.0
 11
32.775
 21
276.2988605867
 31
0.0
  0
LINE
  5
153
330
120
100
AcDbEntity
  8
DV3_Standard
  6
CENTER2
 62
     7
100
AcDbLine
 10
54.774999553
 20
254.9976978288
 30
0.0
 11
14.775000447
 21
254.9976978288
 31
0.0
  0
LINE
  5
154
330
120
100
AcDbEntity
  8
DV3_Standard
  6
CENTER2
 62
     7
100
AcDbLine
 10
34.775
 20
274.9976973818
 30
0.0
 11
34.775
 21
234.9976982759
 31
0.0
  0
ENDBLK
  5
156
330
120
100
AcDbEntity
  8
0
100
AcDbBlockEnd
  0
ENDSEC
  0
SECTION
  2
ENTITIES
  0
INSERT
  5
5F
330
1F
100
AcDbEntity
  8
Default
100
AcDbBlockReference
  2
SE
 10
0.0
 20
0.0
 30
0.0
  0
INSERT
  5
C7
330
1F
100
AcDbEntity
  8
Default
100
AcDbBlockReference
  2
SE1
 10
0.0
 20
0.0
 30
0.0
  0
INSERT
  5
121
330
1F
100
AcDbEntity
  8
Default
100
AcDbBlockReference
  2
SE2
 10
0.0
 20
0.0
 30
0.0
  0
TEXT
  5
158
330
1F
100
AcDbEntity
  8
Default
  6
Continuous
 62
     7
100
AcDbText
 10
5.9362635081
 20
53.4225120485
 30
0.0
 40
10.0
  1
Grohe AG^J
  7
SEACAD_seiso_ttf
 11
5.9362635081
 21
63.4225120485
 31
0.0
100
AcDbText
 73
     3
  0
TEXT
  5
159
330
1F
100
AcDbEntity
  8
Default
  6
Continuous
 62
     7
100
AcDbText
 10
5.9362635081
 20
37.0588756849
 30
0.0
 40
10.0
  1
 
  7
SEACAD_seiso_ttf
 11
5.9362635081
 21
47.0588756849
 31
0.0
100
AcDbText
 73
     3
  0
TEXT
  5
15A
330
1F
100
AcDbEntity
  8
Default
  6
Continuous
 62
     7
100
AcDbText
 10
5.9362635081
 20
20.6952393213
 30
0.0
 40
10.0
  1
ecn: 
  7
SEACAD_seiso_ttf
 11
5.9362635081
 21
30.6952393213
 31
0.0
100
AcDbText
 73
     3
  0
TEXT
  5
15B
330
1F
100
AcDbEntity
  8
Default
  6
Continuous
 62
     7
100
AcDbText
 10
5.9362635081
 20
4.3316029576
 30
0.0
 40
10.0
  1
unit: mm
  7
SEACAD_seiso_ttf
 11
5.9362635081
 21
14.3316029576
 31
0.0
100
AcDbText
 73
     3
  0
LINE
  5
15C
330
1F
100
AcDbEntity
  8
Default
  6
Continuous
 62
     7
100
AcDbLine
 10
0.0
 20
0.0
 30
0.0
 11
100.0
 21
0.0
 31
0.0
  0
LINE
  5
15D
330
1F
100
AcDbEntity
  8
Default
  6
Continuous
 62
     7
100
AcDbLine
 10
0.0
 20
0.0
 30
0.0
 11
0.0
 21
100.0
 31
0.0
  0
TEXT
  5
15E
330
1F
100
AcDbEntity
  8
Default
  6
Continuous
 62
     7
100
AcDbText
 10
24.3923665681
 20
-18.2375342018
 30
0.0
 40
10.0
  1
100 mm
  7
SEACAD_seiso_ttf
 11
24.3923665681
 21
-8.2375342018
 31
0.0
100
AcDbText
 73
     3
  0
TEXT
  5
15F
330
1F
100
AcDbEntity
  8
Default
  6
Continuous
 62
     7
100
AcDbText
 10
-7.6150308803
 20
24.6231930421
 30
0.0
 40
10.0
  1
100 mm
 50
90.0
  7
SEACAD_seiso_ttf
 11
-17.6150308803
 21
24.6231930421
 31
0.0
100
AcDbText
 73
     3
  0
TEXT
  5
160
330
1F
100
AcDbEntity
  8
Default
  6
Continuous
 62
     7
100
AcDbText
 10
28.4878128572
 20
20.0907663715
 30
0.0
 40
10.0
  1
216700
  7
SEACAD_seiso_ttf
 11
28.4878128572
 21
30.0907663715
 31
0.0
100
AcDbText
 73
     3
  0
TEXT
  5
161
330
1F
100
AcDbEntity
  8
Default
  6
Continuous
 62
     7
100
AcDbText
 10
5.9012241913
 20
36.7242780188
 30
0.0
 40
10.0
  1
32860000
  7
SEACAD_seiso_ttf
 11
5.9012241913
 21
46.7242780188
 31
0.0
100
AcDbText
 73
     3
  0
ENDSEC
  0
SECTION
  2
OBJECTS
  0
DICTIONARY
  5
C
330
0
100
AcDbDictionary
281
     1
  3
ACAD_GROUP
350
D
  3
ACAD_LAYOUT
350
1A
  3
ACAD_MLEADERSTYLE
350
165
  3
ACAD_MLINESTYLE
350
17
  3
ACAD_PLOTSETTINGS
350
19
  3
ACAD_PLOTSTYLENAME
350
E
  3
ACAD_SCALELIST
350
3B
  3
ACAD_TABLESTYLE
350
164
  3
ACAD_VISUALSTYLE
350
2A
  3
AcDbVariableDictionary
350
162
  0
DICTIONARY
  5
D
102
{ACAD_REACTORS
330
C
102
}
330
C
100
AcDbDictionary
281
     1
  0
DICTIONARY
  5
1A
102
{ACAD_REACTORS
330
C
102
}
330
C
100
AcDbDictionary
281
     1
  3
Layout1
350
1E
  3
Model
350
22
  0
DICTIONARY
  5
165
102
{ACAD_REACTORS
330
C
102
}
330
C
100
AcDbDictionary
281
     1
  0
DICTIONARY
  5
17
102
{ACAD_REACTORS
330
C
102
}
330
C
100
AcDbDictionary
281
     1
  3
Standard
350
18
  0
DICTIONARY
  5
19
102
{ACAD_REACTORS
330
C
102
}
330
C
100
AcDbDictionary
281
     1
  0
ACDBDICTIONARYWDFLT
  5
E
102
{ACAD_REACTORS
330
C
102
}
330
C
100
AcDbDictionary
281
     1
  3
Normal
350
F
100
AcDbDictionaryWithDefault
340
F
  0
DICTIONARY
  5
3B
102
{ACAD_REACTORS
330
C
102
}
330
C
100
AcDbDictionary
281
     1
  3
A0
350
3C
  3
A1
350
3D
  3
A2
350
3E
  3
A3
350
3F
  3
A4
350
40
  3
A5
350
41
  3
A6
350
42
  3
A7
350
43
  3
A8
350
44
  3
A9
350
45
  3
B0
350
46
  3
B1
350
47
  3
B2
350
48
  3
B3
350
49
  3
B4
350
4A
  3
B5
350
4B
  3
B6
350
4C
  3
B7
350
4D
  3
B8
350
4E
  3
B9
350
4F
  3
C0
350
50
  3
C1
350
51
  3
C2
350
52
  3
C3
350
53
  3
C4
350
54
  3
C5
350
55
  3
C6
350
56
  3
C7
350
57
  3
C8
350
58
  3
C9
350
59
  3
D0
350
5A
  3
D1
350
5B
  3
D2
350
5C
  0
DICTIONARY
  5
164
102
{ACAD_REACTORS
330
C
102
}
330
C
100
AcDbDictionary
281
     1
  0
DICTIONARY
  5
2A
102
{ACAD_REACTORS
330
C
102
}
330
C
100
AcDbDictionary
281
     1
  3
2dWireframe
350
2F
  3
3D Hidden
350
31
  3
3dWireframe
350
30
  3
Basic
350
32
  3
Brighten
350
36
  3
ColorChange
350
3A
  3
Conceptual
350
34
  3
Dim
350
35
  3
Facepattern
350
39
  3
Flat
350
2B
  3
FlatWithEdges
350
2C
  3
Gouraud
350
2D
  3
GouraudWithEdges
350
2E
  3
Linepattern
350
38
  3
Realistic
350
33
  3
Thicken
350
37
  0
DICTIONARY
  5
162
102
{ACAD_REACTORS
330
C
102
}
330
C
100
AcDbDictionary
281
     1
  3
CANNOSCALE
350
163
  3
PSOLHEIGHT
350
167
  3
PSOLWIDTH
350
166
  0
LAYOUT
  5
1E
102
{ACAD_REACTORS
330
1A
102
}
330
1A
100
AcDbPlotSettings
  1

  2
none_device
  4

  6

 40
0.0
 41
0.0
 42
0.0
 43
0.0
 44
0.0
 45
0.0
 46
0.0
 47
0.0
 48
0.0
 49
0.0
140
0.0
141
0.0
142
1.0
143
1.0
 70
   688
 72
     0
 73
     0
 74
     5
  7

 75
    16
147
1.0
148
0.0
149
0.0
100
AcDbLayout
  1
Layout1
 70
     1
 71
     1
 10
0.0
 20
0.0
 11
1682.0
 21
2378.0
 12
0.0
 22
0.0
 32
0.0
 14
0.0
 24
0.0
 34
0.0
 15
1682.0
 25
2378.0
 35
0.0
146
0.0
 13
0.0
 23
0.0
 33
0.0
 16
1.0
 26
0.0
 36
0.0
 17
0.0
 27
1.0
 37
0.0
 76
     0
330
1B
  0
LAYOUT
  5
22
102
{ACAD_REACTORS
330
1A
102
}
330
1A
100
AcDbPlotSettings
  1

  2
none_device
  4

  6

 40
0.0
 41
0.0
 42
0.0
 43
0.0
 44
0.0
 45
0.0
 46
0.0
 47
0.0
 48
0.0
 49
0.0
140
0.0
141
0.0
142
1.0
143
1.0
 70
  1712
 72
     0
 73
     0
 74
     0
  7

 75
     0
147
1.0
148
0.0
149
0.0
100
AcDbLayout
  1
Model
 70
     1
 71
     0
 10
0.0
 20
0.0
 11
1682.0
 21
2378.0
 12
0.0
 22
0.0
 32
0.0
 14
0.0
 24
0.0
 34
0.0
 15
1682.0
 25
2378.0
 35
0.0
146
0.0
 13
0.0
 23
0.0
 33
0.0
 16
1.0
 26
0.0
 36
0.0
 17
0.0
 27
1.0
 37
0.0
 76
     0
330
1F
331
29
  0
MLINESTYLE
  5
18
102
{ACAD_REACTORS
330
17
102
}
330
17
100
AcDbMlineStyle
  2
Standard
 70
     0
  3

 62
   256
 51
90.0
 52
90.0
 71
     2
 49
0.5
 62
   256
  6
BYLAYER
 49
-0.5
 62
   256
  6
BYLAYER
  0
ACDBPLACEHOLDER
  5
F
102
{ACAD_REACTORS
330
E
102
}
330
E
  0
SCALE
  5
3C
102
{ACAD_REACTORS
330
3B
102
}
330
3B
100
AcDbScale
 70
     0
300
1:1
140
1.0
141
1.0
290
     1
  0
SCALE
  5
3D
102
{ACAD_REACTORS
330
3B
102
}
330
3B
100
AcDbScale
 70
     0
300
1:2
140
1.0
141
2.0
290
     0
  0
SCALE
  5
3E
102
{ACAD_REACTORS
330
3B
102
}
330
3B
100
AcDbScale
 70
     0
300
1:4
140
1.0
141
4.0
290
     0
  0
SCALE
  5
3F
102
{ACAD_REACTORS
330
3B
102
}
330
3B
100
AcDbScale
 70
     0
300
1:5
140
1.0
141
5.0
290
     0
  0
SCALE
  5
40
102
{ACAD_REACTORS
330
3B
102
}
330
3B
100
AcDbScale
 70
     0
300
1:8
140
1.0
141
8.0
290
     0
  0
SCALE
  5
41
102
{ACAD_REACTORS
330
3B
102
}
330
3B
100
AcDbScale
 70
     0
300
1:10
140
1.0
141
10.0
290
     0
  0
SCALE
  5
42
102
{ACAD_REACTORS
330
3B
102
}
330
3B
100
AcDbScale
 70
     0
300
1:16
140
1.0
141
16.0
290
     0
  0
SCALE
  5
43
102
{ACAD_REACTORS
330
3B
102
}
330
3B
100
AcDbScale
 70
     0
300
1:20
140
1.0
141
20.0
290
     0
  0
SCALE
  5
44
102
{ACAD_REACTORS
330
3B
102
}
330
3B
100
AcDbScale
 70
     0
300
1:30
140
1.0
141
30.0
290
     0
  0
SCALE
  5
45
102
{ACAD_REACTORS
330
3B
102
}
330
3B
100
AcDbScale
 70
     0
300
1:40
140
1.0
141
40.0
290
     0
  0
SCALE
  5
46
102
{ACAD_REACTORS
330
3B
102
}
330
3B
100
AcDbScale
 70
     0
300
1:50
140
1.0
141
50.0
290
     0
  0
SCALE
  5
47
102
{ACAD_REACTORS
330
3B
102
}
330
3B
100
AcDbScale
 70
     0
300
1:100
140
1.0
141
100.0
290
     0
  0
SCALE
  5
48
102
{ACAD_REACTORS
330
3B
102
}
330
3B
100
AcDbScale
 70
     0
300
2:1
140
2.0
141
1.0
290
     0
  0
SCALE
  5
49
102
{ACAD_REACTORS
330
3B
102
}
330
3B
100
AcDbScale
 70
     0
300
4:1
140
4.0
141
1.0
290
     0
  0
SCALE
  5
4A
102
{ACAD_REACTORS
330
3B
102
}
330
3B
100
AcDbScale
 70
     0
300
8:1
140
8.0
141
1.0
290
     0
  0
SCALE
  5
4B
102
{ACAD_REACTORS
330
3B
102
}
330
3B
100
AcDbScale
 70
     0
300
10:1
140
10.0
141
1.0
290
     0
  0
SCALE
  5
4C
102
{ACAD_REACTORS
330
3B
102
}
330
3B
100
AcDbScale
 70
     0
300
100:1
140
100.0
141
1.0
290
     0
  0
SCALE
  5
4D
102
{ACAD_REACTORS
330
3B
102
}
330
3B
100
AcDbScale
 70
     0
300
1/128" = 1'-0"
140
0.0078125
141
12.0
290
     0
  0
SCALE
  5
4E
102
{ACAD_REACTORS
330
3B
102
}
330
3B
100
AcDbScale
 70
     0
300
1/64" = 1'-0"
140
0.015625
141
12.0
290
     0
  0
SCALE
  5
4F
102
{ACAD_REACTORS
330
3B
102
}
330
3B
100
AcDbScale
 70
     0
300
1/32" = 1'-0"
140
0.03125
141
12.0
290
     0
  0
SCALE
  5
50
102
{ACAD_REACTORS
330
3B
102
}
330
3B
100
AcDbScale
 70
     0
300
1/16" = 1'-0"
140
0.0625
141
12.0
290
     0
  0
SCALE
  5
51
102
{ACAD_REACTORS
330
3B
102
}
330
3B
100
AcDbScale
 70
     0
300
3/32" = 1'-0"
140
0.09375
141
12.0
290
     0
  0
SCALE
  5
52
102
{ACAD_REACTORS
330
3B
102
}
330
3B
100
AcDbScale
 70
     0
300
1/8" = 1'-0"
140
0.125
141
12.0
290
     0
  0
SCALE
  5
53
102
{ACAD_REACTORS
330
3B
102
}
330
3B
100
AcDbScale
 70
     0
300
3/16" = 1'-0"
140
0.1875
141
12.0
290
     0
  0
SCALE
  5
54
102
{ACAD_REACTORS
330
3B
102
}
330
3B
100
AcDbScale
 70
     0
300
1/4" = 1'-0"
140
0.25
141
12.0
290
     0
  0
SCALE
  5
55
102
{ACAD_REACTORS
330
3B
102
}
330
3B
100
AcDbScale
 70
     0
300
3/8" = 1'-0"
140
0.375
141
12.0
290
     0
  0
SCALE
  5
56
102
{ACAD_REACTORS
330
3B
102
}
330
3B
100
AcDbScale
 70
     0
300
1/2" = 1'-0"
140
0.5
141
12.0
290
     0
  0
SCALE
  5
57
102
{ACAD_REACTORS
330
3B
102
}
330
3B
100
AcDbScale
 70
     0
300
3/4" = 1'-0"
140
0.75
141
12.0
290
     0
  0
SCALE
  5
58
102
{ACAD_REACTORS
330
3B
102
}
330
3B
100
AcDbScale
 70
     0
300
1" = 1'-0"
140
1.0
141
12.0
290
     0
  0
SCALE
  5
59
102
{ACAD_REACTORS
330
3B
102
}
330
3B
100
AcDbScale
 70
     0
300
1-1/2" = 1'-0"
140
1.5
141
12.0
290
     0
  0
SCALE
  5
5A
102
{ACAD_REACTORS
330
3B
102
}
330
3B
100
AcDbScale
 70
     0
300
3" = 1'-0"
140
3.0
141
12.0
290
     0
  0
SCALE
  5
5B
102
{ACAD_REACTORS
330
3B
102
}
330
3B
100
AcDbScale
 70
     0
300
6" = 1'-0"
140
6.0
141
12.0
290
     0
  0
SCALE
  5
5C
102
{ACAD_REACTORS
330
3B
102
}
330
3B
100
AcDbScale
 70
     0
300
1'-0" = 1'-0"
140
12.0
141
12.0
290
     0
  0
VISUALSTYLE
  5
2F
102
{ACAD_REACTORS
330
2A
102
}
330
2A
100
AcDbVisualStyle
  2
2dWireframe
 70
     4
 71
     0
 72
     2
 73
     0
 90
        0
 40
-0.6
 41
-30.0
 62
     5
 63
     7
 74
     1
 91
        4
 64
     7
 65
   257
 75
     1
175
     1
 42
1.0
 92
        0
 66
   257
 43
1.0
 76
     1
 77
     6
 78
     2
 67
     7
 79
     5
170
     0
171
     0
290
     0
174
     0
 93
        1
 44
0.0
173
     0
291
     0
 45
0.0
1001
ACAD
1000
AcDbSavedByObjectVersion
1070
     0
  0
VISUALSTYLE
  5
31
102
{ACAD_REACTORS
330
2A
102
}
330
2A
100
AcDbVisualStyle
  2
3D Hidden
 70
     6
 71
     1
 72
     2
 73
     2
 90
        0
 40
-0.6
 41
-30.0
 62
     5
 63
     7
 74
     2
 91
        2
 64
     7
 65
   257
 75
     2
175
     1
 42
40.0
 92
        0
 66
   257
 43
1.0
 76
     1
 77
     6
 78
     2
 67
     7
 79
     3
170
     0
171
     0
290
     0
174
     0
 93
        1
 44
0.0
173
     0
291
     0
 45
0.0
1001
ACAD
1000
AcDbSavedByObjectVersion
1070
     0
  0
VISUALSTYLE
  5
30
102
{ACAD_REACTORS
330
2A
102
}
330
2A
100
AcDbVisualStyle
  2
3dWireframe
 70
     5
 71
     0
 72
     2
 73
     0
 90
        0
 40
-0.6
 41
-30.0
 62
     5
 63
     7
 74
     1
 91
        4
 64
     7
 65
   257
 75
     1
175
     1
 42
1.0
 92
        0
 66
   257
 43
1.0
 76
     1
 77
     6
 78
     2
 67
     7
 79
     5
170
     0
171
     0
290
     0
174
     0
 93
        1
 44
0.0
173
     0
291
     0
 45
0.0
1001
ACAD
1000
AcDbSavedByObjectVersion
1070
     0
  0
VISUALSTYLE
  5
32
102
{ACAD_REACTORS
330
2A
102
}
330
2A
100
AcDbVisualStyle
  2
Basic
 70
     7
 71
     1
 72
     0
 73
     1
 90
        0
 40
-0.6
 41
-30.0
 62
     5
 63
     7
 74
     0
 91
        4
 64
     7
 65
   257
 75
     1
175
     1
 42
1.0
 92
        8
 66
     7
 43
1.0
 76
     1
 77
     6
 78
     2
 67
     7
 79
     5
170
     0
171
     0
290
     0
174
     0
 93
        1
 44
0.0
173
     0
291
     1
 45
0.0
1001
ACAD
1000
AcDbSavedByObjectVersion
1070
     0
  0
VISUALSTYLE
  5
36
102
{ACAD_REACTORS
330
2A
102
}
330
2A
100
AcDbVisualStyle
  2
Brighten
 70
    12
 71
     2
 72
     2
 73
     0
 90
        0
 40
-0.6
 41
-30.0
 62
     5
 63
     7
 74
     1
 91
        4
 64
     7
 65
   257
 75
     1
175
     1
 42
1.0
 92
        8
 66
     7
 43
1.0
 76
     1
 77
     6
 78
     2
 67
     7
 79
     5
170
     0
171
     0
290
     0
174
     0
 93
        1
 44
50.0
173
     0
291
     1
 45
0.0
1001
ACAD
1000
AcDbSavedByObjectVersion
1070
     0
  0
VISUALSTYLE
  5
3A
102
{ACAD_REACTORS
330
2A
102
}
330
2A
100
AcDbVisualStyle
  2
ColorChange
 70
    16
 71
     2
 72
     2
 73
     3
 90
        0
 40
-0.6
 41
-30.0
 62
     5
 63
     8
 74
     1
 91
        4
 64
     7
 65
   257
 75
     1
175
     1
 42
1.0
 92
        8
 66
     8
 43
1.0
 76
     1
 77
     6
 78
     2
 67
     7
 79
     5
170
     0
171
     0
290
     0
174
     0
 93
        1
 44
0.0
173
     0
291
     1
 45
0.0
1001
ACAD
1000
AcDbSavedByObjectVersion
1070
     0
  0
VISUALSTYLE
  5
34
102
{ACAD_REACTORS
330
2A
102
}
330
2A
100
AcDbVisualStyle
  2
Conceptual
 70
     9
 71
     3
 72
     2
 73
     0
 90
        0
 40
-0.6
 41
-30.0
 62
     5
 63
     7
 74
     2
 91
        2
 64
     7
 65
   257
 75
     1
175
     1
 42
40.0
 92
        8
 66
     7
 43
1.0
 76
     1
 77
     6
 78
     2
 67
     7
 79
     3
170
     0
171
     0
290
     0
174
     0
 93
        1
 44
0.0
173
     0
291
     0
 45
0.0
1001
ACAD
1000
AcDbSavedByObjectVersion
1070
     0
  0
VISUALSTYLE
  5
35
102
{ACAD_REACTORS
330
2A
102
}
330
2A
100
AcDbVisualStyle
  2
Dim
 70
    11
 71
     2
 72
     2
 73
     0
 90
        0
 40
-0.6
 41
-30.0
 62
     5
 63
     7
 74
     1
 91
        4
 64
     7
 65
   257
 75
     1
175
     1
 42
1.0
 92
        8
 66
     7
 43
1.0
 76
     1
 77
     6
 78
     2
 67
     7
 79
     5
170
     0
171
     0
290
     0
174
     0
 93
        1
 44
-50.0
173
     0
291
     1
 45
0.0
1001
ACAD
1000
AcDbSavedByObjectVersion
1070
     0
  0
VISUALSTYLE
  5
39
102
{ACAD_REACTORS
330
2A
102
}
330
2A
100
AcDbVisualStyle
  2
Facepattern
 70
    15
 71
     2
 72
     2
 73
     0
 90
        0
 40
-0.6
 41
-30.0
 62
     5
 63
     7
 74
     1
 91
        4
 64
     7
 65
   257
 75
     1
175
     1
 42
1.0
 92
        8
 66
     7
 43
1.0
 76
     1
 77
     6
 78
     2
 67
     7
 79
     5
170
     0
171
     0
290
     0
174
     0
 93
        1
 44
0.0
173
     0
291
     1
 45
0.0
1001
ACAD
1000
AcDbSavedByObjectVersion
1070
     0
  0
VISUALSTYLE
  5
2B
102
{ACAD_REACTORS
330
2A
102
}
330
2A
100
AcDbVisualStyle
  2
Flat
 70
     0
 71
     2
 72
     1
 73
     1
 90
        2
 40
-0.6
 41
30.0
 62
     5
 63
     7
 74
     0
 91
        4
 64
     7
 65
   257
 75
     1
175
     1
 42
1.0
 92
        8
 66
     7
 43
1.0
 76
     1
 77
     6
 78
     2
 67
     7
 79
     5
170
     0
171
     0
290
     0
174
     0
 93
       13
 44
0.0
173
     0
291
     1
 45
0.0
1001
ACAD
1000
AcDbSavedByObjectVersion
1070
     0
  0
VISUALSTYLE
  5
2C
102
{ACAD_REACTORS
330
2A
102
}
330
2A
100
AcDbVisualStyle
  2
FlatWithEdges
 70
     1
 71
     2
 72
     1
 73
     1
 90
        2
 40
-0.6
 41
30.0
 62
     5
 63
     7
 74
     1
 91
        4
 64
     7
 65
   257
 75
     1
175
     1
 42
1.0
 92
        0
 66
   257
 43
1.0
 76
     1
 77
     6
 78
     2
 67
     7
 79
     5
170
     0
171
     0
290
     0
174
     0
 93
       13
 44
0.0
173
     0
291
     1
 45
0.0
1001
ACAD
1000
AcDbSavedByObjectVersion
1070
     0
  0
VISUALSTYLE
  5
2D
102
{ACAD_REACTORS
330
2A
102
}
330
2A
100
AcDbVisualStyle
  2
Gouraud
 70
     2
 71
     2
 72
     2
 73
     1
 90
        2
 40
-0.6
 41
30.0
 62
     5
 63
     7
 74
     0
 91
        4
 64
     7
 65
   257
 75
     1
175
     1
 42
1.0
 92
        0
 66
     7
 43
1.0
 76
     1
 77
     6
 78
     2
 67
     7
 79
     5
170
     0
171
     0
290
     0
174
     0
 93
       13
 44
0.0
173
     0
291
     1
 45
0.0
1001
ACAD
1000
AcDbSavedByObjectVersion
1070
     0
  0
VISUALSTYLE
  5
2E
102
{ACAD_REACTORS
330
2A
102
}
330
2A
100
AcDbVisualStyle
  2
GouraudWithEdges
 70
     3
 71
     2
 72
     2
 73
     1
 90
        2
 40
-0.6
 41
30.0
 62
     5
 63
     7
 74
     1
 91
        4
 64
     7
 65
   257
 75
     1
175
     1
 42
1.0
 92
        0
 66
   257
 43
1.0
 76
     1
 77
     6
 78
     2
 67
     7
 79
     5
170
     0
171
     0
290
     0
174
     0
 93
       13
 44
0.0
173
     0
291
     1
 45
0.0
1001
ACAD
1000
AcDbSavedByObjectVersion
1070
     0
  0
VISUALSTYLE
  5
38
102
{ACAD_REACTORS
330
2A
102
}
330
2A
100
AcDbVisualStyle
  2
Linepattern
 70
    14
 71
     2
 72
     2
 73
     0
 90
        0
 40
-0.6
 41
-30.0
 62
     5
 63
     7
 74
     1
 91
        4
 64
     7
 65
   257
 75
     7
175
     7
 42
1.0
 92
        8
 66
     7
 43
1.0
 76
     1
 77
     6
 78
     2
 67
     7
 79
     5
170
     0
171
     0
290
     0
174
     0
 93
        1
 44
0.0
173
     0
291
     1
 45
0.0
1001
ACAD
1000
AcDbSavedByObjectVersion
1070
     0
  0
VISUALSTYLE
  5
33
102
{ACAD_REACTORS
330
2A
102
}
330
2A
100
AcDbVisualStyle
  2
Realistic
 70
     8
 71
     2
 72
     2
 73
     0
 90
        0
 40
-0.6
 41
-30.0
 62
     5
 63
     7
 74
     1
 91
        0
 64
     7
 65
   257
 75
     1
175
     1
 42
1.0
 92
        8
 66
     8
 43
1.0
 76
     1
 77
     6
 78
     2
 67
     7
 79
     5
170
     0
171
     0
290
     0
174
     0
 93
       13
 44
0.0
173
     0
291
     0
 45
0.0
1001
ACAD
1000
AcDbSavedByObjectVersion
1070
     0
  0
VISUALSTYLE
  5
37
102
{ACAD_REACTORS
330
2A
102
}
330
2A
100
AcDbVisualStyle
  2
Thicken
 70
    13
 71
     2
 72
     2
 73
     0
 90
        0
 40
-0.6
 41
-30.0
 62
     5
 63
     7
 74
     1
 91
        4
 64
     7
 65
   257
 75
     1
175
     1
 42
1.0
 92
       12
 66
     7
 43
1.0
 76
     1
 77
     6
 78
     2
 67
     7
 79
     5
170
     0
171
     0
290
     0
174
     0
 93
        1
 44
0.0
173
     0
291
     1
 45
0.0
1001
ACAD
1000
AcDbSavedByObjectVersion
1070
     0
  0
DICTIONARYVAR
  5
163
102
{ACAD_REACTORS
330
162
102
}
330
162
100
DictionaryVariables
280
     0
  1
1:1
  0
DICTIONARYVAR
  5
167
102
{ACAD_REACTORS
330
162
102
}
330
162
100
DictionaryVariables
280
     0
  1
80.000000
  0
DICTIONARYVAR
  5
166
102
{ACAD_REACTORS
330
162
102
}
330
162
100
DictionaryVariables
280
     0
  1
5.000000
  0
ENDSEC
  0
EOF
