  0
SECTION
  2
HEADER
  9
$ACADVER
  1
AC1015
  9
$ACADMAINTVER
 70
     6
  9
$DWGCODEPAGE
  3
ANSI_1252
  9
$INSBASE
 10
0.0
 20
0.0
 30
0.0
  9
$EXTMIN
 10
0.0
 20
0.0
 30
0.0
  9
$EXTMAX
 10
1682.0
 20
2378.0
 30
0.0
  9
$LIMMIN
 10
0.0
 20
0.0
  9
$LIMMAX
 10
1682.0
 20
2378.0
  9
$ORTHOMODE
 70
     0
  9
$REGENMODE
 70
     1
  9
$FILLMODE
 70
     1
  9
$QTEXTMODE
 70
     0
  9
$MIRRTEXT
 70
     1
  9
$LTSCALE
 40
1.0
  9
$ATTMODE
 70
     1
  9
$TEXTSIZE
 40
2.5
  9
$TRACEWID
 40
1.0
  9
$TEXTSTYLE
  7
Standard
  9
$CLAYER
  8
0
  9
$CELTYPE
  6
ByLayer
  9
$CECOLOR
 62
   256
  9
$CELTSCALE
 40
1.0
  9
$DISPSILH
 70
     0
  9
$DIMSCALE
 40
1.0
  9
$DIMASZ
 40
2.5
  9
$DIMEXO
 40
0.625
  9
$DIMDLI
 40
3.75
  9
$DIMRND
 40
0.0
  9
$DIMDLE
 40
0.0
  9
$DIMEXE
 40
1.25
  9
$DIMTP
 40
0.0
  9
$DIMTM
 40
0.0
  9
$DIMTXT
 40
2.5
  9
$DIMCEN
 40
2.5
  9
$DIMTSZ
 40
0.0
  9
$DIMTOL
 70
     0
  9
$DIMLIM
 70
     0
  9
$DIMTIH
 70
     0
  9
$DIMTOH
 70
     0
  9
$DIMSE1
 70
     0
  9
$DIMSE2
 70
     0
  9
$DIMTAD
 70
     1
  9
$DIMZIN
 70
     8
  9
$DIMBLK
  1

  9
$DIMASO
 70
     1
  9
$DIMSHO
 70
     1
  9
$DIMPOST
  1

  9
$DIMAPOST
  1

  9
$DIMALT
 70
     0
  9
$DIMALTD
 70
     3
  9
$DIMALTF
 40
0.0393700787
  9
$DIMLFAC
 40
1.0
  9
$DIMTOFL
 70
     1
  9
$DIMTVP
 40
0.0
  9
$DIMTIX
 70
     0
  9
$DIMSOXD
 70
     0
  9
$DIMSAH
 70
     0
  9
$DIMBLK1
  1

  9
$DIMBLK2
  1

  9
$DIMSTYLE
  2
ISO-25
  9
$DIMCLRD
 70
     0
  9
$DIMCLRE
 70
     0
  9
$DIMCLRT
 70
     0
  9
$DIMTFAC
 40
1.0
  9
$DIMGAP
 40
0.625
  9
$DIMJUST
 70
     0
  9
$DIMSD1
 70
     0
  9
$DIMSD2
 70
     0
  9
$DIMTOLJ
 70
     0
  9
$DIMTZIN
 70
     8
  9
$DIMALTZ
 70
     0
  9
$DIMALTTZ
 70
     0
  9
$DIMUPT
 70
     0
  9
$DIMDEC
 70
     2
  9
$DIMTDEC
 70
     2
  9
$DIMALTU
 70
     2
  9
$DIMALTTD
 70
     3
  9
$DIMTXSTY
  7
Standard
  9
$DIMAUNIT
 70
     0
  9
$DIMADEC
 70
     0
  9
$DIMALTRND
 40
0.0
  9
$DIMAZIN
 70
     0
  9
$DIMDSEP
 70
    44
  9
$DIMATFIT
 70
     3
  9
$DIMFRAC
 70
     0
  9
$DIMLDRBLK
  1

  9
$DIMLUNIT
 70
     2
  9
$DIMLWD
 70
    -2
  9
$DIMLWE
 70
    -2
  9
$DIMTMOVE
 70
     0
  9
$LUNITS
 70
     2
  9
$LUPREC
 70
     4
  9
$SKETCHINC
 40
1.0
  9
$FILLETRAD
 40
10.0
  9
$AUNITS
 70
     0
  9
$AUPREC
 70
     0
  9
$MENU
  1
.
  9
$ELEVATION
 40
0.0
  9
$PELEVATION
 40
0.0
  9
$THICKNESS
 40
0.0
  9
$LIMCHECK
 70
     0
  9
$CHAMFERA
 40
10.0
  9
$CHAMFERB
 40
10.0
  9
$CHAMFERC
 40
20.0
  9
$CHAMFERD
 40
0.0
  9
$SKPOLY
 70
     0
  9
$TDCREATE
 40
2455153.452443553
  9
$TDUCREATE
 40
2455153.410776887
  9
$TDUPDATE
 40
2455153.452443565
  9
$TDUUPDATE
 40
2455153.410776898
  9
$TDINDWG
 40
0.0000000116
  9
$TDUSRTIMER
 40
0.0000000116
  9
$USRTIMER
 70
     1
  9
$ANGBASE
 50
0.0
  9
$ANGDIR
 70
     0
  9
$PDMODE
 70
     0
  9
$PDSIZE
 40
0.0
  9
$PLINEWID
 40
0.0
  9
$SPLFRAME
 70
     0
  9
$SPLINETYPE
 70
     6
  9
$SPLINESEGS
 70
     8
  9
$HANDSEED
  5
13A
  9
$SURFTAB1
 70
     6
  9
$SURFTAB2
 70
     6
  9
$SURFTYPE
 70
     6
  9
$SURFU
 70
     6
  9
$SURFV
 70
     6
  9
$UCSBASE
  2

  9
$UCSNAME
  2

  9
$UCSORG
 10
0.0
 20
0.0
 30
0.0
  9
$UCSXDIR
 10
1.0
 20
0.0
 30
0.0
  9
$UCSYDIR
 10
0.0
 20
1.0
 30
0.0
  9
$UCSORTHOREF
  2

  9
$UCSORTHOVIEW
 70
     0
  9
$UCSORGTOP
 10
0.0
 20
0.0
 30
0.0
  9
$UCSORGBOTTOM
 10
0.0
 20
0.0
 30
0.0
  9
$UCSORGLEFT
 10
0.0
 20
0.0
 30
0.0
  9
$UCSORGRIGHT
 10
0.0
 20
0.0
 30
0.0
  9
$UCSORGFRONT
 10
0.0
 20
0.0
 30
0.0
  9
$UCSORGBACK
 10
0.0
 20
0.0
 30
0.0
  9
$PUCSBASE
  2

  9
$PUCSNAME
  2

  9
$PUCSORG
 10
0.0
 20
0.0
 30
0.0
  9
$PUCSXDIR
 10
1.0
 20
0.0
 30
0.0
  9
$PUCSYDIR
 10
0.0
 20
1.0
 30
0.0
  9
$PUCSORTHOREF
  2

  9
$PUCSORTHOVIEW
 70
     0
  9
$PUCSORGTOP
 10
0.0
 20
0.0
 30
0.0
  9
$PUCSORGBOTTOM
 10
0.0
 20
0.0
 30
0.0
  9
$PUCSORGLEFT
 10
0.0
 20
0.0
 30
0.0
  9
$PUCSORGRIGHT
 10
0.0
 20
0.0
 30
0.0
  9
$PUCSORGFRONT
 10
0.0
 20
0.0
 30
0.0
  9
$PUCSORGBACK
 10
0.0
 20
0.0
 30
0.0
  9
$USERI1
 70
     0
  9
$USERI2
 70
     0
  9
$USERI3
 70
     0
  9
$USERI4
 70
     0
  9
$USERI5
 70
     0
  9
$USERR1
 40
0.0
  9
$USERR2
 40
0.0
  9
$USERR3
 40
0.0
  9
$USERR4
 40
0.0
  9
$USERR5
 40
0.0
  9
$WORLDVIEW
 70
     1
  9
$SHADEDGE
 70
     3
  9
$SHADEDIF
 70
    70
  9
$TILEMODE
 70
     1
  9
$MAXACTVP
 70
    64
  9
$PINSBASE
 10
0.0
 20
0.0
 30
0.0
  9
$PLIMCHECK
 70
     0
  9
$PEXTMIN
 10
0.0
 20
0.0
 30
0.0
  9
$PEXTMAX
 10
1682.0
 20
2378.0
 30
0.0
  9
$PLIMMIN
 10
0.0
 20
0.0
  9
$PLIMMAX
 10
1682.0
 20
2378.0
  9
$UNITMODE
 70
     0
  9
$VISRETAIN
 70
     1
  9
$PLINEGEN
 70
     0
  9
$PSLTSCALE
 70
     1
  9
$TREEDEPTH
 70
  3020
  9
$CMLSTYLE
  2
Standard
  9
$CMLJUST
 70
     0
  9
$CMLSCALE
 40
20.0
  9
$PROXYGRAPHICS
 70
     1
  9
$MEASUREMENT
 70
     1
  9
$CELWEIGHT
370
    -1
  9
$ENDCAPS
280
     0
  9
$JOINSTYLE
280
     0
  9
$LWDISPLAY
290
     0
  9
$INSUNITS
 70
     4
  9
$HYPERLINKBASE
  1

  9
$STYLESHEET
  1

  9
$XEDIT
290
     1
  9
$CEPSNTYPE
380
     0
  9
$PSTYLEMODE
290
     1
  9
$FINGERPRINTGUID
  2
{41C5EB89-D35B-4623-BC73-3993E2ECEDB3}
  9
$VERSIONGUID
  2
{FAEB1C32-E019-11D5-929B-00C0DF256EC4}
  9
$EXTNAMES
290
     1
  9
$PSVPSCALE
 40
0.0
  9
$OLESTARTUP
290
     0
  0
ENDSEC
  0
SECTION
  2
CLASSES
  0
CLASS
  1
ACDBDICTIONARYWDFLT
  2
AcDbDictionaryWithDefault
  3
ObjectDBX Classes
 90
        0
280
     0
281
     0
  0
CLASS
  1
VISUALSTYLE
  2
AcDbVisualStyle
  3
ObjectDBX Classes
 90
     4095
280
     0
281
     0
  0
CLASS
  1
SCALE
  2
AcDbScale
  3
ObjectDBX Classes
 90
     1153
280
     0
281
     0
  0
CLASS
  1
DICTIONARYVAR
  2
AcDbDictionaryVar
  3
ObjectDBX Classes
 90
        0
280
     0
281
     0
  0
CLASS
  1
ACDBPLACEHOLDER
  2
AcDbPlaceHolder
  3
ObjectDBX Classes
 90
        0
280
     0
281
     0
  0
CLASS
  1
LAYOUT
  2
AcDbLayout
  3
ObjectDBX Classes
 90
        0
280
     0
281
     0
  0
ENDSEC
  0
SECTION
  2
TABLES
  0
TABLE
  2
VPORT
  5
8
330
0
100
AcDbSymbolTable
 70
     1
  0
VPORT
  5
29
330
8
100
AcDbSymbolTableRecord
100
AcDbViewportTableRecord
  2
*Active
 70
     0
 10
0.0
 20
0.0
 11
1.0
 21
1.0
 12
344.1869158879
 22
148.5
 13
0.0
 23
0.0
 14
10.0
 24
10.0
 15
10.0
 25
10.0
 16
0.0
 26
0.0
 36
1.0
 17
0.0
 27
0.0
 37
0.0
 40
297.0
 41
1.9729729729
 42
50.0
 43
0.0
 44
0.0
 50
0.0
 51
0.0
 71
     0
 72
   100
 73
     1
 74
     3
 75
     0
 76
     0
 77
     0
 78
     0
281
     0
 65
     1
110
0.0
120
0.0
130
0.0
111
1.0
121
0.0
131
0.0
112
0.0
122
1.0
132
0.0
 79
     0
146
0.0
  0
ENDTAB
  0
TABLE
  2
LTYPE
  5
5
330
0
100
AcDbSymbolTable
 70
     1
  0
LTYPE
  5
14
330
5
100
AcDbSymbolTableRecord
100
AcDbLinetypeTableRecord
  2
ByBlock
 70
     0
  3

 72
    65
 73
     0
 40
0.0
  0
LTYPE
  5
15
330
5
100
AcDbSymbolTableRecord
100
AcDbLinetypeTableRecord
  2
ByLayer
 70
     0
  3

 72
    65
 73
     0
 40
0.0
  0
LTYPE
  5
16
330
5
100
AcDbSymbolTableRecord
100
AcDbLinetypeTableRecord
  2
Continuous
 70
     0
  3
Solid line
 72
    65
 73
     0
 40
0.0
  0
ENDTAB
  0
TABLE
  2
LAYER
  5
2
330
0
100
AcDbSymbolTable
 70
     8
  0
LAYER
  5
10
330
2
100
AcDbSymbolTableRecord
100
AcDbLayerTableRecord
  2
0
 70
     0
 62
     7
  6
Continuous
370
    -3
390
F
  0
LAYER
  5
5D
330
2
100
AcDbSymbolTableRecord
100
AcDbLayerTableRecord
  2
Default
 70
     0
 62
     7
  6
Continuous
370
    -3
390
F
  0
LAYER
  5
60
330
2
100
AcDbSymbolTableRecord
100
AcDbLayerTableRecord
  2
$DDT_AUDIT_GENERATED_(60)
 70
     0
 62
     7
  6
Continuous
370
    -3
390
F
  0
LAYER
  5
64
330
2
100
AcDbSymbolTableRecord
100
AcDbLayerTableRecord
  2
$DDT_AUDIT_GENERATED_(64)
 70
     0
 62
     7
  6
Continuous
370
    -3
390
F
  0
LAYER
  5
69
330
2
100
AcDbSymbolTableRecord
100
AcDbLayerTableRecord
  2
$DDT_AUDIT_GENERATED_(69)
 70
     0
 62
     7
  6
Continuous
370
    -3
390
F
  0
LAYER
  5
74
330
2
100
AcDbSymbolTableRecord
100
AcDbLayerTableRecord
  2
$DDT_AUDIT_GENERATED_(74)
 70
     0
 62
     7
  6
Continuous
370
    -3
390
F
  0
LAYER
  5
97
330
2
100
AcDbSymbolTableRecord
100
AcDbLayerTableRecord
  2
$DDT_AUDIT_GENERATED_(97)
 70
     0
 62
     7
  6
Continuous
370
    -3
390
F
  0
LAYER
  5
B5
330
2
100
AcDbSymbolTableRecord
100
AcDbLayerTableRecord
  2
$DDT_AUDIT_GENERATED_(B5)
 70
     0
 62
     7
  6
Continuous
370
    -3
390
F
  0
ENDTAB
  0
TABLE
  2
STYLE
  5
3
330
0
100
AcDbSymbolTable
 70
     2
  0
STYLE
  5
11
330
3
100
AcDbSymbolTableRecord
100
AcDbTextStyleTableRecord
  2
Standard
 70
     0
 40
0.0
 41
1.0
 50
0.0
 71
     0
 42
2.5
  3
txt
  4

  0
STYLE
  5
129
330
3
100
AcDbSymbolTableRecord
100
AcDbTextStyleTableRecord
  2
SEACAD_seiso_ttf
 70
     0
 40
0.0
 41
1.0
 50
0.0
 71
     0
 42
0.2
  3
seiso.ttf
  4

  0
ENDTAB
  0
TABLE
  2
VIEW
  5
6
330
0
100
AcDbSymbolTable
 70
     0
  0
ENDTAB
  0
TABLE
  2
UCS
  5
7
330
0
100
AcDbSymbolTable
 70
     0
  0
ENDTAB
  0
TABLE
  2
APPID
  5
9
330
0
100
AcDbSymbolTable
 70
     1
  0
APPID
  5
12
330
9
100
AcDbSymbolTableRecord
100
AcDbRegAppTableRecord
  2
ACAD
 70
     0
  0
ENDTAB
  0
TABLE
  2
DIMSTYLE
  5
A
330
0
100
AcDbSymbolTable
 70
     1
100
AcDbDimStyleTable
  0
DIMSTYLE
105
27
330
A
100
AcDbSymbolTableRecord
100
AcDbDimStyleTableRecord
  2
ISO-25
 70
     0
 41
2.5
 42
0.625
 43
3.75
 44
1.25
 73
     0
 74
     0
 77
     1
 78
     8
140
2.5
141
2.5
143
0.0393700787
147
0.625
171
     3
172
     1
271
     2
272
     2
274
     3
278
    44
283
     0
284
     8
340
11
  0
ENDTAB
  0
TABLE
  2
BLOCK_RECORD
  5
1
330
0
100
AcDbSymbolTable
 70
     4
  0
BLOCK_RECORD
  5
1F
330
1
100
AcDbSymbolTableRecord
100
AcDbBlockTableRecord
  2
*Model_Space
340
22
  0
BLOCK_RECORD
  5
1B
330
1
100
AcDbSymbolTableRecord
100
AcDbBlockTableRecord
  2
*Paper_Space
340
1E
  0
BLOCK_RECORD
  5
5E
330
1
100
AcDbSymbolTableRecord
100
AcDbBlockTableRecord
  2
SE
340
0
102
{BLKREFS
331
5F
102
}
  0
BLOCK_RECORD
  5
7B
330
1
100
AcDbSymbolTableRecord
100
AcDbBlockTableRecord
  2
SE1
340
0
102
{BLKREFS
331
7C
102
}
  0
BLOCK_RECORD
  5
CB
330
1
100
AcDbSymbolTableRecord
100
AcDbBlockTableRecord
  2
SE2
340
0
102
{BLKREFS
331
CC
102
}
  0
ENDTAB
  0
ENDSEC
  0
SECTION
  2
BLOCKS
  0
BLOCK
  5
20
330
1F
100
AcDbEntity
  8
0
100
AcDbBlockBegin
  2
*Model_Space
 70
     0
 10
0.0
 20
0.0
 30
0.0
  3
*Model_Space
  1

  0
ENDBLK
  5
21
330
1F
100
AcDbEntity
  8
0
100
AcDbBlockEnd
  0
BLOCK
  5
1C
330
1B
100
AcDbEntity
 67
     1
  8
0
100
AcDbBlockBegin
  2
*Paper_Space
 70
     0
 10
0.0
 20
0.0
 30
0.0
  3
*Paper_Space
  1

  0
ENDBLK
  5
1D
330
1B
100
AcDbEntity
 67
     1
  8
0
100
AcDbBlockEnd
  0
BLOCK
  5
79
330
5E
100
AcDbEntity
  8
0
100
AcDbBlockBegin
  2
SE
 70
     0
 10
0.0
 20
0.0
 30
0.0
  3
SE
  1

  0
CIRCLE
  5
61
330
5E
100
AcDbEntity
  8
$DDT_AUDIT_GENERATED_(60)
  6
Continuous
 62
     7
100
AcDbCircle
 10
108.1092374978
 20
300.0522047807
 30
0.0
 40
94.25000000000003
  0
ARC
  5
62
330
5E
100
AcDbEntity
  8
$DDT_AUDIT_GENERATED_(60)
  6
Continuous
 62
     7
100
AcDbCircle
 10
108.1092374978
 20
300.0522047807
 30
0.0
 40
26.55
100
AcDbArc
 50
0.0
 51
228.8485254164
  0
ARC
  5
63
330
5E
100
AcDbEntity
  8
$DDT_AUDIT_GENERATED_(60)
  6
Continuous
 62
     7
100
AcDbCircle
 10
108.1092374978
 20
300.0522047807
 30
0.0
 40
26.55
100
AcDbArc
 50
311.1614334367
 51
0.0
  0
ARC
  5
65
330
5E
100
AcDbEntity
  8
$DDT_AUDIT_GENERATED_(64)
  6
Continuous
 62
     7
100
AcDbCircle
 10
108.1092374977
 20
300.0522136939
 30
0.0
 40
21.16234957082072
100
AcDbArc
 50
325.9724304299
 51
360.0
  0
ARC
  5
66
330
5E
100
AcDbEntity
  8
$DDT_AUDIT_GENERATED_(64)
  6
Continuous
 62
     7
100
AcDbCircle
 10
108.1092374977
 20
300.0522136939
 30
0.0
 40
21.16234957082072
100
AcDbArc
 50
0.0
 51
214.2143075697
  0
ARC
  5
67
330
5E
100
AcDbEntity
  8
$DDT_AUDIT_GENERATED_(64)
  6
Continuous
 62
     7
100
AcDbCircle
 10
108.1092056388
 20
300.0522146199
 30
0.0
 40
24.44978065664821
100
AcDbArc
 50
0.0
 51
224.3487668298
  0
ARC
  5
68
330
5E
100
AcDbEntity
  8
$DDT_AUDIT_GENERATED_(64)
  6
Continuous
 62
     7
100
AcDbCircle
 10
108.1092056388
 20
300.0522146199
 30
0.0
 40
24.44978065664821
100
AcDbArc
 50
315.6444353714
 51
0.0
  0
LINE
  5
6A
330
5E
100
AcDbEntity
  8
$DDT_AUDIT_GENERATED_(69)
  6
Continuous
 62
     7
100
AcDbLine
 10
125.583992174
 20
229.1467221661
 30
0.0
 11
125.5839921731
 21
294.2167221661
 31
0.0
  0
LINE
  5
6B
330
5E
100
AcDbEntity
  8
$DDT_AUDIT_GENERATED_(69)
  6
Continuous
 62
     7
100
AcDbLine
 10
120.0609747679
 20
229.1467221661
 30
0.0
 11
120.0609747679
 21
294.2167221661
 31
0.0
  0
ARC
  5
6C
330
5E
100
AcDbEntity
  8
$DDT_AUDIT_GENERATED_(69)
  6
Continuous
 62
     7
100
AcDbCircle
 10
108.1109747679
 20
229.1467221661
 30
0.0
 40
11.95
100
AcDbArc
 50
180.0
 51
0.0
  0
LINE
  5
6D
330
5E
100
AcDbEntity
  8
$DDT_AUDIT_GENERATED_(69)
  6
Continuous
 62
     7
100
AcDbLine
 10
96.1609747679
 20
229.1467221661
 30
0.0
 11
96.1609747679
 21
294.2167221661
 31
0.0
  0
ARC
  5
6E
330
5E
100
AcDbEntity
  8
$DDT_AUDIT_GENERATED_(69)
  6
Continuous
 62
     7
100
AcDbCircle
 10
108.1109747679
 20
294.2167221661
 30
0.0
 40
11.95
100
AcDbArc
 50
0.0
 51
180.0
  0
LINE
  5
6F
330
5E
100
AcDbEntity
  8
$DDT_AUDIT_GENERATED_(69)
  6
Continuous
 62
     7
100
AcDbLine
 10
90.637957362
 20
294.2167221661
 30
0.0
 11
90.6379573618
 21
229.1467221661
 31
0.0
  0
ARC
  5
70
330
5E
100
AcDbEntity
  8
$DDT_AUDIT_GENERATED_(69)
  6
Continuous
 62
     7
100
AcDbCircle
 10
108.1109747679
 20
294.2167221661
 30
0.0
 40
17.47301740523021
100
AcDbArc
 50
0.0
 51
180.0
  0
CIRCLE
  5
71
330
5E
100
AcDbEntity
  8
$DDT_AUDIT_GENERATED_(69)
  6
Continuous
 62
     7
100
AcDbCircle
 10
108.1109747679
 20
294.2167221661
 30
0.0
 40
10.45
  0
ARC
  5
72
330
5E
100
AcDbEntity
  8
$DDT_AUDIT_GENERATED_(69)
  6
Continuous
 62
     7
100
AcDbCircle
 10
108.1109747679
 20
229.1467221661
 30
0.0
 40
17.47332201491
100
AcDbArc
 50
180.0
 51
270.0
  0
ARC
  5
73
330
5E
100
AcDbEntity
  8
$DDT_AUDIT_GENERATED_(69)
  6
Continuous
 62
     7
100
AcDbCircle
 10
108.1109747679
 20
229.1467221661
 30
0.0
 40
17.47332201491
100
AcDbArc
 50
270.0
 51
0.0
  0
ARC
  5
75
330
5E
100
AcDbEntity
  8
$DDT_AUDIT_GENERATED_(74)
  6
Continuous
 62
     7
100
AcDbCircle
 10
108.1092374978
 20
300.0520871511
 30
0.0
 40
18.04002812867707
100
AcDbArc
 50
179.9996241613
 51
195.1128855365
  0
ARC
  5
76
330
5E
100
AcDbEntity
  8
$DDT_AUDIT_GENERATED_(74)
  6
Continuous
 62
     7
100
AcDbCircle
 10
108.1092374978
 20
300.0520871511
 30
0.0
 40
18.04002812867707
100
AcDbArc
 50
344.5169751852
 51
0.0003758387
  0
ARC
  5
77
330
5E
100
AcDbEntity
  8
$DDT_AUDIT_GENERATED_(74)
  6
Continuous
 62
     7
100
AcDbCircle
 10
108.1092374978
 20
300.0523238226
 30
0.0
 40
18.04002812867707
100
AcDbArc
 50
359.9996241613
 51
180.0003758387
  0
ARC
  5
78
330
5E
100
AcDbEntity
  8
$DDT_AUDIT_GENERATED_(74)
  6
Continuous
 62
     7
100
AcDbCircle
 10
108.1092374978
 20
300.052205676
 30
0.0
 40
15.29598109307345
100
AcDbArc
 50
11.7375957652
 51
168.5956851695
  0
ENDBLK
  5
7A
330
5E
100
AcDbEntity
  8
0
100
AcDbBlockEnd
  0
BLOCK
  5
C9
330
7B
100
AcDbEntity
  8
0
100
AcDbBlockBegin
  2
SE1
 70
     0
 10
0.0
 20
0.0
 30
0.0
  3
SE1
  1

  0
LINE
  5
7D
330
7B
100
AcDbEntity
  8
$DDT_AUDIT_GENERATED_(60)
  6
Continuous
 62
     7
100
AcDbLine
 10
258.4112277949
 20
205.8022047807
 30
0.0
 11
258.4112277949
 21
394.3022047807
 31
0.0
  0
LINE
  5
7E
330
7B
100
AcDbEntity
  8
$DDT_AUDIT_GENERATED_(60)
  6
Continuous
 62
     7
100
AcDbLine
 10
260.6680543289
 20
326.6022047807
 30
0.0
 11
260.6680543289
 21
273.5022047807
 31
0.0
  0
LINE
  5
7F
330
7B
100
AcDbEntity
  8
$DDT_AUDIT_GENERATED_(60)
  6
Continuous
 62
     7
100
AcDbLine
 10
246.9330363338
 20
207.5363594505
 30
0.0
 11
246.9275663032
 21
207.6874276053
 31
0.0
  0
LINE
  5
80
330
7B
100
AcDbEntity
  8
$DDT_AUDIT_GENERATED_(60)
  6
Continuous
 62
     7
100
AcDbLine
 10
248.9267964915
 20
205.8604546397
 30
0.0
 11
248.9267964915
 21
205.8022047807
 31
0.0
  0
ARC
  5
81
330
7B
100
AcDbEntity
  8
$DDT_AUDIT_GENERATED_(60)
  6
Continuous
 62
     7
100
AcDbCircle
 10
248.7556795134
 20
207.7427164602
 30
0.0
 40
1.834287702529749
100
AcDbArc
 50
186.4594385617
 51
239.1483289009
  0
ARC
  5
82
330
7B
100
AcDbEntity
  8
$DDT_AUDIT_GENERATED_(60)
  6
Continuous
 62
     7
100
AcDbCircle
 10
248.8457128403
 20
207.9130378409
 30
0.0
 40
2.026703795073964
100
AcDbArc
 50
239.4324574257
 51
266.4948758574
  0
SPLINE
  5
83
330
7B
100
AcDbEntity
  8
$DDT_AUDIT_GENERATED_(60)
  6
Continuous
 62
     7
100
AcDbSpline
210
0.0
220
0.0
230
1.0
 70
     8
 71
     3
 72
    10
 73
     6
 74
     0
 42
0.0000000472797916
 43
0.0000000001
 40
0.0
 40
0.0
 40
0.0
 40
0.0
 40
0.5
 40
0.5
 40
1.0
 40
1.0
 40
1.0
 40
1.0
 10
248.7218046175929
 20
205.8901253303756
 30
0.0
 10
248.789017238199
 20
205.8851549801656
 30
0.0
 10
248.8396800726675
 20
205.8801260105965
 30
0.0
 10
248.9088703317024
 20
205.8701077945485
 30
0.0
 10
248.9267964914529
 20
205.8651399601897
 30
0.0
 10
248.9267964914529
 20
205.8604546397455
 30
0.0
  0
LINE
  5
84
330
7B
100
AcDbEntity
  8
$DDT_AUDIT_GENERATED_(60)
  6
Continuous
 62
     7
100
AcDbLine
 10
246.9275663032
 20
207.6874276053
 30
0.0
 11
246.9275663032
 21
208.5114510764
 31
0.0
  0
ARC
  5
85
330
7B
100
AcDbEntity
  8
$DDT_AUDIT_GENERATED_(60)
  6
Continuous
 62
     7
100
AcDbCircle
 10
247.9267964915
 20
392.5914352653
 30
0.0
 40
1.000000000000007
100
AcDbArc
 50
173.5960117817
 51
180.0
  0
LINE
  5
86
330
7B
100
AcDbEntity
  8
$DDT_AUDIT_GENERATED_(60)
  6
Continuous
 62
     7
100
AcDbLine
 10
246.9267964915
 20
392.5914352653
 30
0.0
 11
246.9267964915
 21
208.4775552687
 31
0.0
  0
LINE
  5
87
330
7B
100
AcDbEntity
  8
$DDT_AUDIT_GENERATED_(60)
  6
Continuous
 62
     7
100
AcDbLine
 10
246.9267964915
 20
208.4832394624
 30
0.0
 11
246.9267964915
 21
208.4726915682
 31
0.0
  0
ARC
  5
88
330
7B
100
AcDbEntity
  8
$DDT_AUDIT_GENERATED_(60)
  6
Continuous
 62
     7
100
AcDbCircle
 10
248.7218046176
 20
392.5022047807
 30
0.0
 40
1.799999999999996
100
AcDbArc
 50
90.0
 51
173.5960117817
  0
LINE
  5
89
330
7B
100
AcDbEntity
  8
$DDT_AUDIT_GENERATED_(60)
  6
Continuous
 62
     7
100
AcDbLine
 10
248.9267964915
 20
205.8022047807
 30
0.0
 11
258.4112277949
 21
205.8022047807
 31
0.0
  0
LINE
  5
8A
330
7B
100
AcDbEntity
  8
$DDT_AUDIT_GENERATED_(60)
  6
Continuous
 62
     7
100
AcDbLine
 10
258.4112277949
 20
394.3022047807
 30
0.0
 11
248.7218046176
 21
394.3022047807
 31
0.0
  0
ARC
  5
8B
330
7B
100
AcDbEntity
  8
$DDT_AUDIT_GENERATED_(60)
  6
Continuous
 62
     7
100
AcDbCircle
 10
258.4112277949
 20
207.4022047807
 30
0.0
 40
1.600000000000004
100
AcDbArc
 50
270.0
 51
359.1149864848
  0
ARC
  5
8C
330
7B
100
AcDbEntity
  8
$DDT_AUDIT_GENERATED_(60)
  6
Continuous
 62
     7
100
AcDbCircle
 10
258.4112277949
 20
392.7022047807
 30
0.0
 40
1.600000000000008
100
AcDbArc
 50
0.8850135152
 51
90.0
  0
ARC
  5
8D
330
7B
100
AcDbEntity
  8
$DDT_AUDIT_GENERATED_(60)
  6
Continuous
 62
     7
100
AcDbCircle
 10
-5739.2732035085
 20
300.0522047807
 30
0.0
 40
6000.000000000001
100
AcDbArc
 50
0.2535346517
 51
0.8850135152
  0
ARC
  5
8E
330
7B
100
AcDbEntity
  8
$DDT_AUDIT_GENERATED_(60)
  6
Continuous
 62
     7
100
AcDbCircle
 10
-5739.2732035085
 20
300.0522047807
 30
0.0
 40
6000.0
100
AcDbArc
 50
359.1149864848
 51
359.7464653483
  0
SPLINE
  5
8F
330
7B
100
AcDbEntity
  8
$DDT_AUDIT_GENERATED_(64)
  6
Continuous
 62
     7
100
AcDbSpline
210
0.0
220
0.0
230
1.0
 70
     8
 71
     3
 72
    40
 73
    36
 74
     0
 42
0.000000000117845
 43
0.0000000001
 40
0.0012389712700614
 40
0.0012389712700614
 40
0.0012389712700614
 40
0.0012389712700614
 40
0.0312499999999999
 40
0.0312499999999999
 40
0.0624999999999998
 40
0.0624999999999998
 40
0.0937499999999997
 40
0.0937499999999997
 40
0.1249999999999996
 40
0.1249999999999996
 40
0.1562499999999996
 40
0.1562499999999996
 40
0.1874999999999996
 40
0.1874999999999996
 40
0.2187499999999997
 40
0.2187499999999997
 40
0.2499999999999997
 40
0.2499999999999997
 40
0.2812499999999997
 40
0.2812499999999997
 40
0.3124999999999997
 40
0.3124999999999997
 40
0.3437499999999997
 40
0.3437499999999997
 40
0.3749999999999997
 40
0.3749999999999997
 40
0.4062499999999998
 40
0.4062499999999998
 40
0.4374999999999998
 40
0.4374999999999998
 40
0.4687499999999998
 40
0.4687499999999998
 40
0.4999999999999999
 40
0.4999999999999999
 40
0.5000036731042068
 40
0.5000036731042068
 40
0.5000036731042068
 40
0.5000036731042068
 10
288.6574238302894
 20
278.8906515943248
 30
0.0
 10
288.6573050794125
 20
278.9010622339093
 30
0.0
 10
288.6557825070387
 20
279.0374584935724
 30
0.0
 10
288.6532109571209
 20
279.563122196268
 30
0.0
 10
288.652189213544
 20
279.9690821698122
 30
0.0
 10
288.6521859516704
 20
281.0292400573114
 30
0.0
 10
288.6531821472522
 20
281.6780502237036
 30
0.0
 10
288.6558079952132
 20
283.2108777986514
 30
0.0
 10
288.6574310661854
 20
284.1005350218815
 30
0.0
 10
288.6574314191193
 20
286.0756987911967
 30
0.0
 10
288.655834728494
 20
287.1435612449851
 30
0.0
 10
288.65321112409
 20
289.433388102091
 30
0.0
 10
288.6521892935791
 20
290.6698142720984
 30
0.0
 10
288.6521858720824
 20
293.2301817321423
 30
0.0
 10
288.6531819988491
 20
294.5477949375704
 30
0.0
 10
288.65580782162
 20
297.2571695752454
 30
0.0
 10
288.6574309401167
 20
298.6551604132396
 30
0.0
 10
288.6574315451344
 20
301.4485017981863
 30
0.0
 10
288.6558348776239
 20
302.8218885361118
 30
0.0
 10
288.6532112381898
 20
305.5239344601044
 30
0.0
 10
288.6521893469447
 20
306.8665627802293
 30
0.0
 10
288.6521858190265
 20
309.4273461355995
 30
0.0
 10
288.6531819026395
 20
310.6419380192462
 30
0.0
 10
288.6558077129236
 20
312.9407739078699
 30
0.0
 10
288.6574308644704
 20
314.0281877037818
 30
0.0
 10
288.6574316207354
 20
316.0034287629811
 30
0.0
 10
288.6558349626405
 20
316.877836961598
 30
0.0
 10
288.6532112994146
 20
318.409295843982
 30
0.0
 10
288.6521893736332
 20
319.0716399254376
 30
0.0
 10
288.6521857924965
 20
320.1327737717836
 30
0.0
 10
288.6531818586191
 20
320.5328548182701
 30
0.0
 10
288.655807669126
 20
321.0745267299563
 30
0.0
 10
288.6574308392524
 20
321.2143699593234
 30
0.0
 10
288.6574312426416
 20
321.2144028234561
 30
0.0
 10
288.6574312426669
 20
321.2144028254281
 30
0.0
 10
288.6574312426702
 20
321.2144028255099
 30
0.0
  0
ARC
  5
90
330
7B
100
AcDbEntity
  8
$DDT_AUDIT_GENERATED_(64)
  6
Continuous
 62
     7
100
AcDbCircle
 10
-4112.9004480756
 20
300.0534959464
 30
0.0
 40
4398.876110631497
100
AcDbArc
 50
359.6632961537
 51
0.3366801767
  0
LINE
  5
91
330
7B
100
AcDbEntity
  8
$DDT_AUDIT_GENERATED_(64)
  6
Continuous
 62
     7
100
AcDbLine
 10
260.6680543289
 20
273.9823763868
 30
0.0
 11
285.8998750133
 21
274.2025598539
 31
0.0
  0
LINE
  5
92
330
7B
100
AcDbEntity
  8
$DDT_AUDIT_GENERATED_(64)
  6
Continuous
 62
     7
100
AcDbLine
 10
285.8997599535
 20
325.9018507116
 30
0.0
 11
260.6680543289
 21
326.1220331746
 31
0.0
  0
SPLINE
  5
93
330
7B
100
AcDbEntity
  8
$DDT_AUDIT_GENERATED_(64)
  6
Continuous
 62
     7
100
AcDbSpline
210
0.0
220
0.0
230
1.0
 70
     8
 71
     3
 72
     8
 73
     4
 74
     0
 42
0.0000000028747049
 43
0.0000000001
 40
0.0
 40
0.0
 40
0.0
 40
0.0
 40
1.0
 40
1.0
 40
1.0
 40
1.0
 10
287.7735526225786
 20
275.5490600166651
 30
0.0
 10
288.1285259661693
 20
276.6717740092262
 30
0.0
 10
288.424533299706
 20
277.7919496009286
 30
0.0
 10
288.6615746231885
 20
278.9095867917726
 30
0.0
  0
SPLINE
  5
94
330
7B
100
AcDbEntity
  8
$DDT_AUDIT_GENERATED_(64)
  6
Continuous
 62
     7
100
AcDbSpline
210
0.0
220
0.0
230
1.0
 70
     8
 71
     3
 72
     8
 73
     4
 74
     0
 42
0.0000000028747049
 43
0.0000000001
 40
0.0
 40
0.0
 40
0.0
 40
0.0
 40
1.0
 40
1.0
 40
1.0
 40
1.0
 10
288.6615746231885
 20
321.1948227696623
 30
0.0
 10
288.4245332997059
 20
322.3124599605061
 30
0.0
 10
288.1285259661693
 20
323.4326355522087
 30
0.0
 10
287.7735526225786
 20
324.5553495447698
 30
0.0
  0
ARC
  5
95
330
7B
100
AcDbEntity
  8
$DDT_AUDIT_GENERATED_(64)
  6
Continuous
 62
     7
100
AcDbCircle
 10
285.9053042029
 20
323.9051476966
 30
0.0
 40
1.957818443439365
100
AcDbArc
 50
16.9506155485
 51
90.1769534723
  0
ARC
  5
96
330
7B
100
AcDbEntity
  8
$DDT_AUDIT_GENERATED_(64)
  6
Continuous
 62
     7
100
AcDbCircle
 10
285.8808499665
 20
276.2133901804
 30
0.0
 40
1.990207391784885
100
AcDbArc
 50
270.5677409579
 51
342.8320147413
  0
ARC
  5
98
330
7B
100
AcDbEntity
  8
$DDT_AUDIT_GENERATED_(97)
  6
Continuous
 62
     7
100
AcDbCircle
 10
271.0329670287
 20
300.4518789467
 30
0.0
 40
20.5
100
AcDbArc
 50
7.4790970211
 51
28.06754367
  0
LINE
  5
99
330
7B
100
AcDbEntity
  8
$DDT_AUDIT_GENERATED_(69)
  6
Continuous
 62
     7
100
AcDbLine
 10
305.4029407497
 20
229.1467221661
 30
0.0
 11
305.4029407758
 21
211.6939274344
 31
0.0
  0
LINE
  5
9A
330
7B
100
AcDbEntity
  8
$DDT_AUDIT_GENERATED_(69)
  6
Continuous
 62
     7
100
AcDbLine
 10
306.9130508215
 20
229.1467221661
 30
0.0
 11
306.9130508215
 21
217.1967221661
 31
0.0
  0
LINE
  5
9B
330
7B
100
AcDbEntity
  8
$DDT_AUDIT_GENERATED_(69)
  6
Continuous
 62
     7
100
AcDbLine
 10
305.4029407497
 20
294.2167221661
 30
0.0
 11
305.4029407497
 21
229.1467221661
 31
0.0
  0
LINE
  5
9C
330
7B
100
AcDbEntity
  8
$DDT_AUDIT_GENERATED_(69)
  6
Continuous
 62
     7
100
AcDbLine
 10
306.9130508215
 20
229.1467221661
 30
0.0
 11
306.9130508215
 21
294.2167221661
 31
0.0
  0
LINE
  5
9D
330
7B
100
AcDbEntity
  8
$DDT_AUDIT_GENERATED_(69)
  6
Continuous
 62
     7
100
AcDbLine
 10
306.9130508215
 20
294.2167221661
 30
0.0
 11
306.9130508215
 21
306.1667221661
 31
0.0
  0
SPLINE
  5
9E
330
7B
100
AcDbEntity
  8
$DDT_AUDIT_GENERATED_(69)
  6
Continuous
 62
     7
100
AcDbSpline
210
0.0
220
0.0
230
1.0
 70
     8
 71
     3
 72
    26
 73
    22
 74
     0
 42
0.0000000003438772
 43
0.0000000001
 40
0.0982091511573089
 40
0.0982091511573089
 40
0.0982091511573089
 40
0.0982091511573089
 40
0.1100929324875326
 40
0.1751476748159103
 40
0.2402024171443908
 40
0.3052571594728713
 40
0.3377845306370088
 40
0.3703119018012491
 40
0.4353666441297295
 40
0.4678940152939698
 40
0.5004213864581072
 40
0.5329487576223475
 40
0.5654761287865878
 40
0.6305308711150683
 40
0.695585613443446
 40
0.7606403557719266
 40
0.7931677269361668
 40
0.825695098100407
 40
0.8907498404287848
 40
0.9558045827572652
 40
1.0
 40
1.0
 40
1.0
 40
1.0
 10
289.0761302998018
 20
286.032996307211
 30
0.0
 10
289.1669756938038
 20
286.0222501000794
 30
0.0
 10
289.7546413010604
 20
285.9480526436628
 30
0.0
 10
290.8359432784196
 20
285.7505871238038
 30
0.0
 10
292.3063881799138
 20
285.2838677312579
 30
0.0
 10
293.4722958464291
 20
284.6987328476147
 30
0.0
 10
294.3486809019016
 20
284.0907585837687
 30
0.0
 10
295.179421812916
 20
283.3821980586239
 30
0.0
 10
295.9308874831133
 20
282.5128829817487
 30
0.0
 10
296.5796480103202
 20
281.4592769378552
 30
0.0
 10
297.0099308889411
 20
280.5731049397425
 30
0.0
 10
297.3859307659087
 20
279.6021232704314
 30
0.0
 10
297.8205841085584
 20
278.2159131715541
 30
0.0
 10
298.2479846754939
 20
276.348077017503
 30
0.0
 10
298.6038404684504
 20
274.007377886933
 30
0.0
 10
298.7938269458534
 20
272.0717601212937
 30
0.0
 10
298.8962918976247
 20
270.5897960144502
 30
0.0
 10
298.9706733401172
 20
269.1777572036712
 30
0.0
 10
299.0196921962395
 20
267.5594767750506
 30
0.0
 10
299.0330566584287
 20
266.0046991577375
 30
0.0
 10
299.0330519075744
 20
265.0959760366316
 30
0.0
 10
299.0330508214936
 20
264.7367221904934
 30
0.0
  0
ARC
  5
9F
330
7B
100
AcDbEntity
  8
$DDT_AUDIT_GENERATED_(69)
  6
Continuous
 62
     7
100
AcDbCircle
 10
18.0308105148
 20
291.9529180052
 30
0.0
 40
282.3171627301175
100
AcDbArc
 50
354.46792876
 51
359.6598283782
  0
LINE
  5
A0
330
7B
100
AcDbEntity
  8
$DDT_AUDIT_GENERATED_(69)
  6
Continuous
 62
     7
100
AcDbLine
 10
300.3511734745
 20
294.2167389397
 30
0.0
 11
300.3452385813
 21
290.4107551546
 31
0.0
  0
LINE
  5
A1
330
7B
100
AcDbEntity
  8
$DDT_AUDIT_GENERATED_(69)
  6
Continuous
 62
     7
100
AcDbLine
 10
300.3508110536
 20
295.0387905245
 30
0.0
 11
300.3511734745
 21
294.216738939
 31
0.0
  0
SPLINE
  5
A2
330
7B
100
AcDbEntity
  8
$DDT_AUDIT_GENERATED_(69)
  6
Continuous
 62
     7
100
AcDbSpline
210
0.0
220
0.0
230
1.0
 70
    12
 71
     3
 72
     8
 73
     4
 74
     0
 42
0.0000000190892877
 43
0.0000000001
 40
0.5970279074187438
 40
0.5970279074187438
 40
0.5970279074187438
 40
0.5970279074187438
 40
0.7234592503164605
 40
0.7234592503164605
 40
0.7234592503164605
 40
0.7234592503164605
 10
291.5008124936178
 20
303.9303619299824
 30
0.0
 41
1.027951306162124
 10
291.4907252731102
 20
303.9105036183738
 30
0.0
 41
1.041076651159558
 10
291.4830644402048
 20
303.8897998594885
 30
0.0
 41
1.058824535448253
 10
291.4778087704277
 20
303.8685578590394
 30
0.0
 41
1.081194959028209
  0
ARC
  5
A3
330
7B
100
AcDbEntity
  8
$DDT_AUDIT_GENERATED_(69)
  6
Continuous
 62
     7
100
AcDbCircle
 10
291.8022335099
 20
303.9293675732
 30
0.0
 40
0.2999999754012542
100
AcDbArc
 50
92.0193515781
 51
166.1903114165
  0
ARC
  5
A4
330
7B
100
AcDbEntity
  8
$DDT_AUDIT_GENERATED_(69)
  6
Continuous
 62
     7
100
AcDbCircle
 10
-11618.8129134245
 20
301.3515198841
 30
0.0
 40
11919.16493577437
100
AcDbArc
 50
359.9707500598
 51
0.0292499402
  0
SPLINE
  5
A5
330
7B
100
AcDbEntity
  8
$DDT_AUDIT_GENERATED_(69)
  6
Continuous
 62
     7
100
AcDbSpline
210
0.0
220
0.0
230
1.0
 70
     8
 71
     3
 72
    24
 73
    20
 74
     0
 42
0.000000000991724
 43
0.0000000001
 40
0.0
 40
0.0
 40
0.0
 40
0.0
 40
0.045002030733029
 40
0.1100048037032743
 40
0.1750075766733951
 40
0.2400103496436196
 40
0.3050131226138442
 40
0.3700158955840687
 40
0.4350186685542933
 40
0.4675200550394056
 40
0.5000214415245178
 40
0.5650242144947424
 40
0.630026987464967
 40
0.6950297604350876
 40
0.7600325334053121
 40
0.8250353063755368
 40
0.8900380793457613
 40
0.9550408523159859
 40
1.0
 40
1.0
 40
1.0
 40
1.0
 10
291.7916623018605
 20
304.2291840106334
 30
0.0
 10
291.9334161137807
 20
304.2341813859005
 30
0.0
 10
292.2869660837416
 20
304.2467819094468
 30
0.0
 10
292.8767431446478
 20
304.2689747102686
 30
0.0
 10
293.5701262555968
 20
304.2976359240732
 30
0.0
 10
294.2989938552607
 20
304.3316875529504
 30
0.0
 10
295.064849389711
 20
304.3717679202038
 30
0.0
 10
295.8656771140359
 20
304.4198139782216
 30
0.0
 10
296.5369786151485
 20
304.4767818083958
 30
0.0
 10
297.0583082788783
 20
304.5397812731573
 30
0.0
 10
297.5636620114285
 20
304.6166249248444
 30
0.0
 10
298.1551510473552
 20
304.742796658788
 30
0.0
 10
298.7655830523645
 20
304.9564996063963
 30
0.0
 10
299.2401566910252
 20
305.2471414243504
 30
0.0
 10
299.5837934805728
 20
305.6144226853525
 30
0.0
 10
299.8399894864659
 20
306.0441310708175
 30
0.0
 10
300.0392651799858
 20
306.5267342214814
 30
0.0
 10
300.19857710953
 20
306.9971226354888
 30
0.0
 10
300.3043785024223
 20
307.3075490802079
 30
0.0
 10
300.3504691743735
 20
307.4363458492234
 30
0.0
  0
LINE
  5
A6
330
7B
100
AcDbEntity
  8
$DDT_AUDIT_GENERATED_(69)
  6
Continuous
 62
     7
100
AcDbLine
 10
299.0330508215
 20
229.1467221661
 30
0.0
 11
299.0330508215
 21
264.7367221905
 31
0.0
  0
LINE
  5
A7
330
7B
100
AcDbEntity
  8
$DDT_AUDIT_GENERATED_(69)
  6
Continuous
 62
     7
100
AcDbLine
 10
305.4029407497
 20
294.2167221661
 30
0.0
 11
305.4029407787
 21
311.6695168978
 31
0.0
  0
LINE
  5
A8
330
7B
100
AcDbEntity
  8
$DDT_AUDIT_GENERATED_(69)
  6
Continuous
 62
     7
100
AcDbLine
 10
304.2443845115
 20
211.67370476
 30
0.0
 11
305.4029407758
 21
211.6939274348
 31
0.0
  0
ARC
  5
A9
330
7B
100
AcDbEntity
  8
$DDT_AUDIT_GENERATED_(69)
  6
Continuous
 62
     7
100
AcDbCircle
 10
304.2094797464
 20
213.6734001512
 30
0.0
 40
2.000000000003675
100
AcDbArc
 50
238.900781184
 51
270.9999986303
  0
SPLINE
  5
AA
330
7B
100
AcDbEntity
  8
$DDT_AUDIT_GENERATED_(69)
  6
Continuous
 62
     7
100
AcDbSpline
210
0.0
220
0.0
230
1.0
 70
     8
 71
     3
 72
    11
 73
     7
 74
     0
 42
0.000000001775666
 43
0.0000000001
 40
0.0
 40
0.0
 40
0.0
 40
0.0
 40
0.2861791977710548
 40
0.5582074734334889
 40
0.7720852717573841
 40
1.0
 40
1.0
 40
1.0
 40
1.0
 10
305.65095160033
 20
211.8330521017557
 30
0.0
 10
305.9530513567434
 20
212.3377998866502
 30
0.0
 10
306.4374969193524
 20
213.1828623265852
 30
0.0
 10
306.8305542288879
 20
214.6094810642745
 30
0.0
 10
306.9097569296128
 20
215.9625427215338
 30
0.0
 10
306.9161642088742
 20
216.7282492426953
 30
0.0
 10
306.913050821496
 20
217.1967221660734
 30
0.0
  0
ARC
  5
AB
330
7B
100
AcDbEntity
  8
$DDT_AUDIT_GENERATED_(69)
  6
Continuous
 62
     7
100
AcDbCircle
 10
305.3977050278
 20
211.9938817429
 30
0.0
 40
0.2999999999996607
100
AcDbArc
 50
271.0000049929
 51
327.5815396891
  0
SPLINE
  5
AC
330
7B
100
AcDbEntity
  8
$DDT_AUDIT_GENERATED_(69)
  6
Continuous
 62
     7
100
AcDbSpline
210
0.0
220
0.0
230
1.0
 70
     8
 71
     3
 72
    11
 73
     7
 74
     0
 42
0.000000001776466
 43
0.0000000001
 40
0.0
 40
0.0
 40
0.0
 40
0.0
 40
0.287092341640477
 40
0.5568137609860815
 40
0.7738607839282406
 40
1.0
 40
1.0
 40
1.0
 40
1.0
 10
306.913050821496
 20
306.1667221660734
 30
0.0
 10
306.9203944798053
 20
306.7569492950136
 30
0.0
 10
306.9110128451853
 20
307.7217686001929
 30
0.0
 10
306.753984231538
 20
309.190299568186
 30
0.0
 10
306.2784346850629
 20
310.4663936986782
 30
0.0
 10
305.8915160312319
 20
311.1325135641098
 30
0.0
 10
305.6509512408139
 20
311.5303927964937
 30
0.0
  0
ARC
  5
AD
330
7B
100
AcDbEntity
  8
$DDT_AUDIT_GENERATED_(69)
  6
Continuous
 62
     7
100
AcDbCircle
 10
18.1752566406
 20
371.989372624
 30
0.0
 40
281.6716158048236
100
AcDbArc
 50
344.1946549058
 51
346.0175248322
  0
LINE
  5
AE
330
7B
100
AcDbEntity
  8
$DDT_AUDIT_GENERATED_(69)
  6
Continuous
 62
     7
100
AcDbLine
 10
291.5107563701
 20
304.0003867244
 30
0.0
 11
291.5109627473
 21
304.0012097189
 31
0.0
  0
LINE
  5
AF
330
7B
100
AcDbEntity
  8
$DDT_AUDIT_GENERATED_(69)
  6
Continuous
 62
     7
100
AcDbLine
 10
291.5028659255
 20
303.9689210807
 30
0.0
 11
291.4775418248
 21
303.8674178418
 31
0.0
  0
SPLINE
  5
B0
330
7B
100
AcDbEntity
  8
$DDT_AUDIT_GENERATED_(69)
  6
Continuous
 62
     7
100
AcDbSpline
210
0.0
220
0.0
230
1.0
 70
     8
 71
     3
 72
    15
 73
    11
 74
     0
 42
0.0000000005450989
 43
0.0000000001
 40
0.0
 40
0.0
 40
0.0
 40
0.0
 40
0.1869587378133609
 40
0.3568654737656295
 40
0.5108492777793425
 40
0.6506909910621442
 40
0.7509048358380673
 40
0.8419439596402956
 40
0.9242403806916962
 40
1.0
 40
1.0
 40
1.0
 40
1.0
 10
299.0330508214936
 20
229.1467221660734
 30
0.0
 10
299.0323011459359
 20
227.8923017250241
 30
0.0
 10
299.0408554724616
 20
225.8775883481119
 30
0.0
 10
299.1407729260312
 20
222.7032795554701
 30
0.0
 10
299.3917659570431
 20
219.896682574267
 30
0.0
 10
299.8287977865546
 20
217.5261712408949
 30
0.0
 10
300.433068070919
 20
215.590547092662
 30
0.0
 10
301.1410801326242
 20
214.085651825965
 30
0.0
 10
302.0403959036437
 20
212.8010289312087
 30
0.0
 10
302.765450639667
 20
212.2599798603803
 30
0.0
 10
303.1764364378556
 20
211.9608518970469
 30
0.0
  0
ARC
  5
B1
330
7B
100
AcDbEntity
  8
$DDT_AUDIT_GENERATED_(69)
  6
Continuous
 62
     7
100
AcDbCircle
 10
304.2094797464
 20
309.690044181
 30
0.0
 40
2.000000000003751
100
AcDbArc
 50
89.0000010829
 51
121.0992160405
  0
LINE
  5
B2
330
7B
100
AcDbEntity
  8
$DDT_AUDIT_GENERATED_(69)
  6
Continuous
 62
     7
100
AcDbLine
 10
305.4029407787
 20
311.6695168973
 30
0.0
 11
304.2443845215
 21
311.689739572
 31
0.0
  0
ARC
  5
B3
330
7B
100
AcDbEntity
  8
$DDT_AUDIT_GENERATED_(69)
  6
Continuous
 62
     7
100
AcDbCircle
 10
305.3977050278
 20
311.3695625892
 30
0.0
 40
0.2999999999998304
100
AcDbArc
 50
32.4184459319
 51
88.9999944493
  0
SPLINE
  5
B4
330
7B
100
AcDbEntity
  8
$DDT_AUDIT_GENERATED_(69)
  6
Continuous
 62
     7
100
AcDbSpline
210
0.0
220
0.0
230
1.0
 70
     8
 71
     3
 72
    11
 73
     7
 74
     0
 42
0.000000001950284
 43
0.0000000001
 40
0.0
 40
0.0
 40
0.0
 40
0.0
 40
0.2512357582228971
 40
0.5213141117725234
 40
0.7518796518047574
 40
1.0
 40
1.0
 40
1.0
 40
1.0
 10
303.2519147367535
 20
311.4471052923534
 30
0.0
 10
302.8648984244321
 20
311.1805969829694
 30
0.0
 10
302.1855085725582
 20
310.7001176335033
 30
0.0
 10
301.3903552796162
 20
309.6561406565916
 30
0.0
 10
300.7689852181438
 20
308.5233072917334
 30
0.0
 10
300.4947741585295
 20
307.8177289181046
 30
0.0
 10
300.3316016121436
 20
307.3832858490834
 30
0.0
  0
LINE
  5
B6
330
7B
100
AcDbEntity
  8
$DDT_AUDIT_GENERATED_(B5)
  6
Continuous
 62
     7
100
AcDbLine
 10
308.3910520681
 20
295.338151888
 30
0.0
 11
308.4079973528
 21
294.3050809469
 31
0.0
  0
LINE
  5
B7
330
7B
100
AcDbEntity
  8
$DDT_AUDIT_GENERATED_(B5)
  6
Continuous
 62
     7
100
AcDbLine
 10
308.3530836567
 20
296.230213404
 30
0.0
 11
308.3825348635
 21
295.5897375925
 31
0.0
  0
LINE
  5
B8
330
7B
100
AcDbEntity
  8
$DDT_AUDIT_GENERATED_(B5)
  6
Continuous
 62
     7
100
AcDbLine
 10
308.2933400655
 20
297.1234919161
 30
0.0
 11
308.3384356814
 21
296.4821913718
 31
0.0
  0
LINE
  5
B9
330
7B
100
AcDbEntity
  8
$DDT_AUDIT_GENERATED_(B5)
  6
Continuous
 62
     7
100
AcDbLine
 10
308.4079973528
 20
294.3050809469
 30
0.0
 11
308.4081006034
 21
294.2167221661
 31
0.0
  0
LINE
  5
BA
330
7B
100
AcDbEntity
  8
$DDT_AUDIT_GENERATED_(B5)
  6
Continuous
 62
     7
100
AcDbLine
 10
308.3825348635
 20
295.5897375925
 30
0.0
 11
308.3910520681
 21
295.338151888
 31
0.0
  0
LINE
  5
BB
330
7B
100
AcDbEntity
  8
$DDT_AUDIT_GENERATED_(B5)
  6
Continuous
 62
     7
100
AcDbLine
 10
308.3384356814
 20
296.4821913718
 30
0.0
 11
308.3530836567
 21
296.230213404
 31
0.0
  0
LINE
  5
BC
330
7B
100
AcDbEntity
  8
$DDT_AUDIT_GENERATED_(B5)
  6
Continuous
 62
     7
100
AcDbLine
 10
308.2725769234
 20
297.3750832148
 30
0.0
 11
308.2933400655
 21
297.1234919161
 31
0.0
  0
SPLINE
  5
BD
330
7B
100
AcDbEntity
  8
$DDT_AUDIT_GENERATED_(B5)
  6
Continuous
 62
     7
100
AcDbSpline
210
0.0
220
0.0
230
1.0
 70
     8
 71
     3
 72
     8
 73
     4
 74
     0
 42
0.0000000014055845
 43
0.0000000001
 40
0.0
 40
0.0
 40
0.0
 40
0.0
 40
1.0
 40
1.0
 40
1.0
 40
1.0
 10
306.9857798348655
 20
304.3495737544374
 30
0.0
 10
307.6397742033593
 20
302.073602752956
 30
0.0
 10
308.069761096306
 20
299.734122305266
 30
0.0
 10
308.2725769233566
 20
297.3750832147995
 30
0.0
  0
SPLINE
  5
BE
330
7B
100
AcDbEntity
  8
$DDT_AUDIT_GENERATED_(B5)
  6
Continuous
 62
     7
100
AcDbSpline
210
0.0
220
0.0
230
1.0
 70
     8
 71
     3
 72
     8
 73
     4
 74
     0
 42
0.0000000013027423
 43
0.0000000001
 40
0.0
 40
0.0
 40
0.0
 40
0.0
 40
1.0
 40
1.0
 40
1.0
 40
1.0
 10
307.0490038279345
 20
284.306581811634
 30
0.0
 10
307.7386996229306
 20
286.766032233681
 30
0.0
 10
308.1676332745577
 20
289.2977120633447
 30
0.0
 10
308.3318342065718
 20
291.8464592863436
 30
0.0
  0
ARC
  5
BF
330
7B
100
AcDbEntity
  8
$DDT_AUDIT_GENERATED_(B5)
  6
Continuous
 62
     7
100
AcDbCircle
 10
306.8564323786
 20
284.360584006
 30
0.0
 40
0.2000000001982498
100
AcDbArc
 50
286.5295045978
 51
344.3350802883
  0
SPLINE
  5
C0
330
7B
100
AcDbEntity
  8
$DDT_AUDIT_GENERATED_(B5)
  6
Continuous
 62
     7
100
AcDbSpline
210
0.0
220
0.0
230
1.0
 70
     8
 71
     3
 72
     8
 73
     4
 74
     0
 42
0.000000004216321
 43
0.0000000001
 40
0.0
 40
0.0
 40
0.0
 40
0.0
 40
1.0
 40
1.0
 40
1.0
 40
1.0
 10
308.3318342065718
 20
291.8464592863436
 30
0.0
 10
308.3826524585838
 20
292.6352664940996
 30
0.0
 10
308.4081138297025
 20
293.425708467141
 30
0.0
 10
308.4081006129334
 20
294.2161499996239
 30
0.0
  0
ARC
  5
C1
330
7B
100
AcDbEntity
  8
$DDT_AUDIT_GENERATED_(B5)
  6
Continuous
 62
     7
100
AcDbCircle
 10
306.7262583441
 20
284.4730286806
 30
0.0
 40
0.3032562924099572
100
AcDbArc
 50
308.1853731268
 51
316.2760305981
  0
LINE
  5
C2
330
7B
100
AcDbEntity
  8
$DDT_AUDIT_GENERATED_(74)
  6
Continuous
 62
     7
100
AcDbLine
 10
289.0926564722
 20
300.0522054868
 30
0.0
 11
289.0926467637
 21
282.011967397
 31
0.0
  0
LINE
  5
C3
330
7B
100
AcDbEntity
  8
$DDT_AUDIT_GENERATED_(74)
  6
Continuous
 62
     7
100
AcDbLine
 10
289.0926564722
 20
300.0522054868
 30
0.0
 11
289.0926467637
 21
318.0924435766
 31
0.0
  0
SPLINE
  5
C4
330
7B
100
AcDbEntity
  8
$DDT_AUDIT_GENERATED_(74)
  6
Continuous
 62
     7
100
AcDbSpline
210
0.0
220
0.0
230
1.0
 70
     8
 71
     3
 72
    10
 73
     6
 74
     0
 42
0.0000000236155575
 43
0.0000000001
 40
0.4963400475948776
 40
0.4963400475948776
 40
0.4963400475948776
 40
0.4963400475948776
 40
0.4999949032786756
 40
0.7464497625145304
 40
1.0
 40
1.0
 40
1.0
 40
1.0
 10
288.6544664342371
 20
279.3720605914544
 30
0.0
 10
288.6548662190648
 20
279.3723928326332
 30
0.0
 10
288.6821688131834
 20
279.3951963596466
 30
0.0
 10
288.7294044636582
 20
279.4503439668346
 30
0.0
 10
288.7482035303343
 20
279.5134154814279
 30
0.0
 10
288.7582497499261
 20
279.5508474160932
 30
0.0
  0
SPLINE
  5
C5
330
7B
100
AcDbEntity
  8
$DDT_AUDIT_GENERATED_(74)
  6
Continuous
 62
     7
100
AcDbSpline
210
0.0
220
0.0
230
1.0
 70
     8
 71
     3
 72
    10
 73
     6
 74
     0
 42
0.00000002361551
 43
0.0000000001
 40
0.0
 40
0.0
 40
0.0
 40
0.0
 40
0.2535500789731564
 40
0.500004886746656
 40
0.5037630588578978
 40
0.5037630588578978
 40
0.5037630588578978
 40
0.5037630588578978
 10
288.7582502513948
 20
320.5535387478938
 30
0.0
 10
288.748204031568
 20
320.5909706354116
 30
0.0
 10
288.729404962965
 20
320.654042085905
 30
0.0
 10
288.6821596256665
 20
320.7092009196236
 30
0.0
 10
288.654844169514
 20
320.732011937796
 30
0.0
 10
288.6544330362822
 20
320.7323535130145
 30
0.0
  0
LINE
  5
C6
330
7B
100
AcDbEntity
  8
$DDT_AUDIT_GENERATED_(74)
  6
Continuous
 62
     7
100
AcDbLine
 10
288.7582488448
 20
279.5502038864
 30
0.0
 11
289.0926564722
 21
282.0121766524
 31
0.0
  0
LINE
  5
C7
330
7B
100
AcDbEntity
  8
$DDT_AUDIT_GENERATED_(74)
  6
Continuous
 62
     7
100
AcDbLine
 10
289.0926564722
 20
318.0922343212
 30
0.0
 11
288.7582488448
 21
320.5542070873
 31
0.0
  0
ARC
  5
C8
330
7B
100
AcDbEntity
  8
$DDT_AUDIT_GENERATED_(74)
  6
Continuous
 62
     7
100
AcDbCircle
 10
-1889.8724745995
 20
296.5121780614
 30
0.0
 40
2178.970159212492
100
AcDbArc
 50
359.6400059404
 51
0.0930846704
  0
ENDBLK
  5
CA
330
7B
100
AcDbEntity
  8
0
100
AcDbBlockEnd
  0
BLOCK
  5
127
330
CB
100
AcDbEntity
  8
0
100
AcDbBlockBegin
  2
SE2
 70
     0
 10
0.0
 20
0.0
 30
0.0
  3
SE2
  1

  0
LINE
  5
CD
330
CB
100
AcDbEntity
  8
$DDT_AUDIT_GENERATED_(60)
  6
Continuous
 62
     7
100
AcDbLine
 10
13.8592374978
 20
156.346872818
 30
0.0
 11
202.3592374978
 21
156.346872818
 31
0.0
  0
LINE
  5
CE
330
CB
100
AcDbEntity
  8
$DDT_AUDIT_GENERATED_(60)
  6
Continuous
 62
     7
100
AcDbLine
 10
134.6592374978
 20
154.090046284
 30
0.0
 11
81.5592374978
 21
154.090046284
 31
0.0
  0
ARC
  5
CF
330
CB
100
AcDbEntity
  8
$DDT_AUDIT_GENERATED_(60)
  6
Continuous
 62
     7
100
AcDbCircle
 10
15.5700070133
 20
166.8313041215
 30
0.0
 40
1.000000000000008
100
AcDbArc
 50
90.0
 51
96.4039882183
  0
ARC
  5
D0
330
CB
100
AcDbEntity
  8
$DDT_AUDIT_GENERATED_(60)
  6
Continuous
 62
     7
100
AcDbCircle
 10
200.6484679823
 20
166.8313041215
 30
0.0
 40
1.000000000000007
100
AcDbArc
 50
83.5960117817
 51
90.0
  0
LINE
  5
D1
330
CB
100
AcDbEntity
  8
$DDT_AUDIT_GENERATED_(60)
  6
Continuous
 62
     7
100
AcDbLine
 10
200.6484679823
 20
167.8313041215
 30
0.0
 11
15.5700070133
 21
167.8313041215
 31
0.0
  0
ARC
  5
D2
330
CB
100
AcDbEntity
  8
$DDT_AUDIT_GENERATED_(60)
  6
Continuous
 62
     7
100
AcDbCircle
 10
15.6592374978
 20
166.0362959953
 30
0.0
 40
1.8
100
AcDbArc
 50
96.4039882183
 51
180.0
  0
ARC
  5
D3
330
CB
100
AcDbEntity
  8
$DDT_AUDIT_GENERATED_(60)
  6
Continuous
 62
     7
100
AcDbCircle
 10
200.5592374978
 20
166.0362959953
 30
0.0
 40
1.799999999999996
100
AcDbArc
 50
0.0
 51
83.5960117817
  0
LINE
  5
D4
330
CB
100
AcDbEntity
  8
$DDT_AUDIT_GENERATED_(60)
  6
Continuous
 62
     7
100
AcDbLine
 10
13.8592374978
 20
166.0362959953
 30
0.0
 11
13.8592374978
 21
156.346872818
 31
0.0
  0
LINE
  5
D5
330
CB
100
AcDbEntity
  8
$DDT_AUDIT_GENERATED_(60)
  6
Continuous
 62
     7
100
AcDbLine
 10
202.3592374978
 20
156.346872818
 30
0.0
 11
202.3592374978
 21
166.0362959953
 31
0.0
  0
ARC
  5
D6
330
CB
100
AcDbEntity
  8
$DDT_AUDIT_GENERATED_(60)
  6
Continuous
 62
     7
100
AcDbCircle
 10
15.4592374978
 20
156.346872818
 30
0.0
 40
1.600000000000004
100
AcDbArc
 50
180.0
 51
269.1149864848
  0
ARC
  5
D7
330
CB
100
AcDbEntity
  8
$DDT_AUDIT_GENERATED_(60)
  6
Continuous
 62
     7
100
AcDbCircle
 10
200.7592374978
 20
156.346872818
 30
0.0
 40
1.600000000000008
100
AcDbArc
 50
270.8850135152
 51
0.0
  0
ARC
  5
D8
330
CB
100
AcDbEntity
  8
$DDT_AUDIT_GENERATED_(60)
  6
Continuous
 62
     7
100
AcDbCircle
 10
108.1092374978
 20
6154.0313041215
 30
0.0
 40
6000.000000000001
100
AcDbArc
 50
270.2535346517
 51
270.8850135152
  0
ARC
  5
D9
330
CB
100
AcDbEntity
  8
$DDT_AUDIT_GENERATED_(60)
  6
Continuous
 62
     7
100
AcDbCircle
 10
108.1092374978
 20
6154.0313041215
 30
0.0
 40
6000.0
100
AcDbArc
 50
269.1149864848
 51
269.7464653483
  0
SPLINE
  5
DA
330
CB
100
AcDbEntity
  8
$DDT_AUDIT_GENERATED_(64)
  6
Continuous
 62
     7
100
AcDbSpline
210
0.0
220
0.0
230
1.0
 70
     8
 71
     3
 72
    40
 73
    36
 74
     0
 42
0.000000000118135
 43
0.0000000001
 40
0.2500027423333197
 40
0.2500027423333197
 40
0.2500027423333197
 40
0.2500027423333197
 40
0.2812499999999997
 40
0.2812499999999997
 40
0.3124999999999997
 40
0.3124999999999997
 40
0.3437499999999997
 40
0.3437499999999997
 40
0.3749999999999997
 40
0.3749999999999997
 40
0.4062499999999998
 40
0.4062499999999998
 40
0.4374999999999998
 40
0.4374999999999998
 40
0.4687499999999998
 40
0.4687499999999998
 40
0.4999999999999999
 40
0.4999999999999999
 40
0.5312499999999999
 40
0.5312499999999999
 40
0.5624999999999999
 40
0.5624999999999999
 40
0.5937499999999999
 40
0.5937499999999999
 40
0.6249999999999999
 40
0.6249999999999999
 40
0.6562499999999999
 40
0.6562499999999999
 40
0.6874999999999999
 40
0.6874999999999999
 40
0.7187499999999999
 40
0.7187499999999999
 40
0.7499999999999999
 40
0.7499999999999999
 40
0.7500027423203003
 40
0.7500027423203003
 40
0.7500027423203003
 40
0.7500027423203003
 10
86.94703945302837
 20
126.100669370265
 30
0.0
 10
86.94703882197022
 20
126.1006693480268
 30
0.0
 10
87.08383740517891
 20
126.1022658504278
 30
0.0
 10
87.62006946061676
 20
126.1048893747436
 30
0.0
 10
88.02601058170069
 20
126.1059112659886
 30
0.0
 10
89.08614071326458
 20
126.1059147939068
 30
0.0
 10
89.7349393397081
 20
126.1049187102939
 30
0.0
 10
91.26774653969687
 20
126.1022929000098
 30
0.0
 10
92.15739651036274
 20
126.100669748463
 30
0.0
 10
94.13255043614167
 20
126.100668992198
 30
0.0
 10
95.20041486256709
 20
126.1022656502929
 30
0.0
 10
97.49024254473623
 20
126.1048893135188
 30
0.0
 10
98.72666958850206
 20
126.1059112393002
 30
0.0
 10
101.2870493365761
 20
126.1059148204368
 30
0.0
 10
102.6046693486784
 20
126.1049187543143
 30
0.0
 10
105.3140585584886
 20
126.1022929438074
 30
0.0
 10
106.7120586447673
 20
126.100669773681
 30
0.0
 10
109.5054198793713
 20
126.1006689669975
 30
0.0
 10
110.8788198378566
 20
126.1022656293888
 30
0.0
 10
113.5808878567902
 20
126.1048893051725
 30
0.0
 10
114.9235269103423
 20
126.1059112392929
 30
0.0
 10
117.4843332469244
 20
126.105914820444
 30
0.0
 10
118.6989355870325
 20
126.1049187461471
 30
0.0
 10
120.997790516491
 20
126.1022929227049
 30
0.0
 10
122.0852130792589
 20
126.1006697484677
 30
0.0
 10
124.0604688183883
 20
126.1006689921933
 30
0.0
 10
124.9348826901105
 20
126.1022656725976
 30
0.0
 10
126.466349691843
 20
126.1048893497058
 30
0.0
 10
127.1286962731554
 20
126.1059112659676
 30
0.0
 10
128.1898301735156
 20
126.1059147939279
 30
0.0
 10
128.5899094556041
 20
126.1049186857913
 30
0.0
 10
129.1315737561889
 20
126.102292836702
 30
0.0
 10
129.2714108937168
 20
126.1006696728241
 30
0.0
 10
129.2714355413991
 20
126.1006693702813
 30
0.0
 10
129.2714355425082
 20
126.100669370267
 30
0.0
 10
129.2714355425636
 20
126.100669370265
 30
0.0
  0
ARC
  5
DB
330
CB
100
AcDbEntity
  8
$DDT_AUDIT_GENERATED_(64)
  6
Continuous
 62
     7
100
AcDbCircle
 10
108.1094423933
 20
-4147.7920496702
 30
0.0
 40
4276.728553060773
100
AcDbArc
 50
89.6536861456
 51
90.3463192302
  0
LINE
  5
DC
330
CB
100
AcDbEntity
  8
$DDT_AUDIT_GENERATED_(64)
  6
Continuous
 62
     7
100
AcDbLine
 10
82.0394091039
 20
154.090046284
 30
0.0
 11
82.2595858267
 21
128.8589984554
 31
0.0
  0
LINE
  5
DD
330
CB
100
AcDbEntity
  8
$DDT_AUDIT_GENERATED_(64)
  6
Continuous
 62
     7
100
AcDbLine
 10
133.958887672
 20
128.8588269226
 30
0.0
 11
134.1790658917
 21
154.090046284
 31
0.0
  0
SPLINE
  5
DE
330
CB
100
AcDbEntity
  8
$DDT_AUDIT_GENERATED_(64)
  6
Continuous
 62
     7
100
AcDbSpline
210
0.0
220
0.0
230
1.0
 70
     8
 71
     3
 72
     8
 73
     4
 74
     0
 42
0.0000000028747049
 43
0.0000000001
 40
0.0
 40
0.0
 40
0.0
 40
0.0
 40
1.0
 40
1.0
 40
1.0
 40
1.0
 10
83.60609273374362
 20
126.9845479903548
 30
0.0
 10
84.7288067263047
 20
126.6295746467641
 30
0.0
 10
85.84898231800722
 20
126.3335673132275
 30
0.0
 10
86.96661950885115
 20
126.0965259897448
 30
0.0
  0
SPLINE
  5
DF
330
CB
100
AcDbEntity
  8
$DDT_AUDIT_GENERATED_(64)
  6
Continuous
 62
     7
100
AcDbSpline
210
0.0
220
0.0
230
1.0
 70
     8
 71
     3
 72
     8
 73
     4
 74
     0
 42
0.0000000028747049
 43
0.0000000001
 40
0.0
 40
0.0
 40
0.0
 40
0.0
 40
1.0
 40
1.0
 40
1.0
 40
1.0
 10
129.2518554867409
 20
126.0965259897448
 30
0.0
 10
130.3694926775847
 20
126.3335673132274
 30
0.0
 10
131.4896682692873
 20
126.6295746467641
 30
0.0
 10
132.6123822618484
 20
126.9845479903548
 30
0.0
  0
ARC
  5
E0
330
CB
100
AcDbEntity
  8
$DDT_AUDIT_GENERATED_(64)
  6
Continuous
 62
     7
100
AcDbCircle
 10
131.9876487436
 20
128.8477013941
 30
0.0
 40
1.941761869601975
100
AcDbArc
 50
286.8961988945
 51
0.3325849088
  0
ARC
  5
E1
330
CB
100
AcDbEntity
  8
$DDT_AUDIT_GENERATED_(64)
  6
Continuous
 62
     7
100
AcDbCircle
 10
84.2486818387
 20
128.8565476334
 30
0.0
 40
1.963930136957103
100
AcDbArc
 50
179.9241839646
 51
252.7977462351
  0
SPLINE
  5
E2
330
CB
100
AcDbEntity
  8
$DDT_AUDIT_GENERATED_(97)
  6
Continuous
 62
     7
100
AcDbSpline
210
0.0
220
0.0
230
1.0
 70
     8
 71
     3
 72
     8
 73
     4
 74
     0
 42
0.0000000016536701
 43
0.0000000001
 40
0.0
 40
0.0
 40
0.0
 40
0.0
 40
0.0229703276551424
 40
0.0229703276551424
 40
0.0229703276551424
 40
0.0229703276551424
 10
103.0361089346434
 20
123.8140758011266
 30
0.0
 10
103.0365267792676
 20
123.7677827127482
 30
0.0
 10
103.036944741064
 20
123.7214828851785
 30
0.0
 10
103.0373628200327
 20
123.6751763184175
 30
0.0
  0
SPLINE
  5
E3
330
CB
100
AcDbEntity
  8
$DDT_AUDIT_GENERATED_(97)
  6
Continuous
 62
     7
100
AcDbSpline
210
0.0
220
0.0
230
1.0
 70
     8
 71
     3
 72
     8
 73
     4
 74
     0
 42
0.0000000015116416
 43
0.0000000001
 40
0.9784062364680248
 40
0.9784062364680248
 40
0.9784062364680248
 40
0.9784062364680248
 40
1.0
 40
1.0
 40
1.0
 40
1.0
 10
113.1845482221031
 20
123.6708156834516
 30
0.0
 10
113.1849772910437
 20
123.7183459319931
 30
0.0
 10
113.1854070710165
 20
123.7659605772893
 30
0.0
 10
113.1858375620217
 20
123.8136596193402
 30
0.0
  0
SPLINE
  5
E4
330
CB
100
AcDbEntity
  8
$DDT_AUDIT_GENERATED_(97)
  6
Continuous
 62
     7
100
AcDbSpline
210
0.0
220
0.0
230
1.0
 70
     8
 71
     3
 72
    12
 73
     8
 74
     0
 42
0.0000000067297753
 43
0.0000000001
 40
0.6856265624545808
 40
0.6856265624545808
 40
0.6856265624545808
 40
0.6856265624545808
 40
0.7184389429008637
 40
0.7552808495214941
 40
0.7927758122806362
 40
0.846466114300725
 40
0.919622235529485
 40
0.919622235529485
 40
0.919622235529485
 40
0.919622235529485
 10
102.8802690976261
 20
123.9225876939519
 30
0.0
 10
102.8802700514388
 20
123.9225989389139
 30
0.0
 10
102.8845086183453
 20
123.9207174111322
 30
0.0
 10
102.9087152504388
 20
123.9080023627156
 30
0.0
 10
102.9614176084108
 20
123.8717744875409
 30
0.0
 10
103.0382801280182
 20
123.7953531460821
 30
0.0
 10
103.0844965714489
 20
123.7147206412207
 30
0.0
 10
103.1009928325103
 20
123.6670645962579
 30
0.0
  0
SPLINE
  5
E5
330
CB
100
AcDbEntity
  8
$DDT_AUDIT_GENERATED_(97)
  6
Continuous
 62
     7
100
AcDbSpline
210
0.0
220
0.0
230
1.0
 70
     8
 71
     3
 72
    14
 73
    10
 74
     0
 42
0.0000000088270722
 43
0.0000000001
 40
0.0
 40
0.0
 40
0.0
 40
0.0
 40
0.0281183278650384
 40
0.1266375297546521
 40
0.2087926837689625
 40
0.2764332700157918
 40
0.3282908385638209
 40
0.3745810371214958
 40
0.4242558561965788
 40
0.4242558561965788
 40
0.4242558561965788
 40
0.4242558561965788
 10
113.0989768719292
 20
123.5401383863434
 30
0.0
 10
113.0981194980599
 20
123.5554766220659
 30
0.0
 10
113.0950778340818
 20
123.6149146341067
 30
0.0
 10
113.1373543741864
 20
123.7165838180104
 30
0.0
 10
113.2021385087457
 20
123.8158526355661
 30
0.0
 10
113.2684012081354
 20
123.8775667104565
 30
0.0
 10
113.3140483215531
 20
123.9082786214292
 30
0.0
 10
113.3375076990118
 20
123.9207744684916
 30
0.0
 10
113.3420270552326
 20
123.9227205396971
 30
0.0
 10
113.3420631354662
 20
123.9227313401549
 30
0.0
  0
ARC
  5
E6
330
CB
100
AcDbEntity
  8
$DDT_AUDIT_GENERATED_(97)
  6
Continuous
 62
     7
100
AcDbCircle
 10
108.1109747679
 20
143.7251335843
 30
0.0
 40
20.50000000000001
100
AcDbArc
 50
242.0788089169
 51
270.0
  0
ARC
  5
E7
330
CB
100
AcDbEntity
  8
$DDT_AUDIT_GENERATED_(97)
  6
Continuous
 62
     7
100
AcDbCircle
 10
108.1109747679
 20
143.7251335843
 30
0.0
 40
20.5
100
AcDbArc
 50
270.0
 51
298.0799347584
  0
ARC
  5
E8
330
CB
100
AcDbEntity
  8
$DDT_AUDIT_GENERATED_(69)
  6
Continuous
 62
     7
100
AcDbCircle
 10
123.5842967828
 20
110.5486208665
 30
0.0
 40
2.000000000007136
100
AcDbArc
 50
359.0000000001
 51
31.0992071971
  0
LINE
  5
E9
330
CB
100
AcDbEntity
  8
$DDT_AUDIT_GENERATED_(69)
  6
Continuous
 62
     7
100
AcDbLine
 10
125.5839921731
 20
110.5137160537
 30
0.0
 11
125.5637694996
 21
109.3551598632
 31
0.0
  0
ARC
  5
EA
330
CB
100
AcDbEntity
  8
$DDT_AUDIT_GENERATED_(69)
  6
Continuous
 62
     7
100
AcDbCircle
 10
125.2638151911
 20
109.3603955852
 30
0.0
 40
0.2999999999995811
100
AcDbArc
 50
302.4185883894
 51
359.0000000002
  0
SPLINE
  5
EB
330
CB
100
AcDbEntity
  8
$DDT_AUDIT_GENERATED_(69)
  6
Continuous
 62
     7
100
AcDbSpline
210
0.0
220
0.0
230
1.0
 70
     8
 71
     3
 72
    11
 73
     7
 74
     0
 42
0.0000000017769805
 43
0.0000000001
 40
0.0
 40
0.0
 40
0.0
 40
0.0
 40
0.3976674467889
 40
0.4887881534628
 40
0.6777827098620001
 40
1.0
 40
1.0
 40
1.0
 40
1.0
 10
125.424645398329
 20
109.1071493721198
 30
0.0
 10
124.768113391619
 20
108.6902026488299
 30
0.0
 10
123.930294780459
 20
108.2719656509399
 30
0.0
 10
122.739455288309
 20
107.9756349217699
 30
0.0
 10
121.672211368389
 20
107.8468923387899
 30
0.0
 10
120.713100705539
 20
107.8450497914399
 30
0.0
 10
120.060974767909
 20
107.8450497914399
 30
0.0
  0
ARC
  5
EC
330
CB
100
AcDbEntity
  8
$DDT_AUDIT_GENERATED_(69)
  6
Continuous
 62
     7
100
AcDbCircle
 10
90.9581343448
 20
109.3603955852
 30
0.0
 40
0.2999999999995811
100
AcDbArc
 50
180.9999999998
 51
237.5814116106
  0
SPLINE
  5
ED
330
CB
100
AcDbEntity
  8
$DDT_AUDIT_GENERATED_(69)
  6
Continuous
 62
     7
100
AcDbSpline
210
0.0
220
0.0
230
1.0
 70
     8
 71
     3
 72
    11
 73
     7
 74
     0
 42
0.0000000017769805
 43
0.0000000001
 40
0.0
 40
0.0
 40
0.0
 40
0.0
 40
0.397667446789
 40
0.4887881534628
 40
0.6777827098620001
 40
1.0
 40
1.0
 40
1.0
 40
1.0
 10
90.79730413748901
 20
109.1071493721198
 30
0.0
 10
91.453836144199
 20
108.6902026488299
 30
0.0
 10
92.291654755359
 20
108.2719656509399
 30
0.0
 10
93.482494247509
 20
107.9756349217699
 30
0.0
 10
94.54973816742901
 20
107.8468923387899
 30
0.0
 10
95.508848830279
 20
107.8450497914399
 30
0.0
 10
96.160974767909
 20
107.8450497914399
 30
0.0
  0
LINE
  5
EE
330
CB
100
AcDbEntity
  8
$DDT_AUDIT_GENERATED_(69)
  6
Continuous
 62
     7
100
AcDbLine
 10
125.4246453983
 20
109.1071489722
 30
0.0
 11
90.7973041375
 21
109.1071489722
 31
0.0
  0
LINE
  5
EF
330
CB
100
AcDbEntity
  8
$DDT_AUDIT_GENERATED_(69)
  6
Continuous
 62
     7
100
AcDbLine
 10
120.0609747679
 20
107.8450497914
 30
0.0
 11
96.1609747679
 21
107.8450497914
 31
0.0
  0
SPLINE
  5
F0
330
CB
100
AcDbEntity
  8
$DDT_AUDIT_GENERATED_(69)
  6
Continuous
 62
     7
100
AcDbSpline
210
0.0
220
0.0
230
1.0
 70
     8
 71
     3
 72
    20
 73
    16
 74
     0
 42
0.000000001023998
 43
0.0000000001
 40
0.0459702490605989
 40
0.0459702490605989
 40
0.0459702490605989
 40
0.0459702490605989
 40
0.0734959147431508
 40
0.1385969788100373
 40
0.1953023606978474
 40
0.243613259785716
 40
0.2835204884313925
 40
0.3150221331831748
 40
0.3381188357945252
 40
0.3528092051706385
 40
0.359091302097291
 40
0.4494299015244492
 40
0.5397771957266345
 40
0.5670149311272132
 40
0.5866256419050594
 40
0.5866256419050594
 40
0.5866256419050594
 40
0.5866256419050594
 10
106.0718352574504
 20
123.3124039601234
 30
0.0
 10
105.9633525312871
 20
123.3187868367557
 30
0.0
 10
105.5998635809218
 20
123.3417031438757
 30
0.0
 10
105.0274386306233
 20
123.391115736926
 30
0.0
 10
104.3972389697104
 20
123.4600989230366
 30
0.0
 10
103.8804123134791
 20
123.5290918824476
 30
0.0
 10
103.4689621088189
 20
123.5927479848531
 30
0.0
 10
103.1551007393987
 20
123.6471226664891
 30
0.0
 10
102.9315125100649
 20
123.6892247174405
 30
0.0
 10
102.792281590995
 20
123.716973396605
 30
0.0
 10
102.4449038446643
 20
123.7883983215532
 30
0.0
 10
101.8941647695029
 20
123.9188931391594
 30
0.0
 10
101.3585664242654
 20
124.0843252099033
 30
0.0
 10
101.0436636656851
 20
124.2003100689555
 30
0.0
 10
100.9410167213743
 20
124.2409794881912
 30
0.0
 10
100.8989189212505
 20
124.2581844615117
 30
0.0
  0
ARC
  5
F1
330
CB
100
AcDbEntity
  8
$DDT_AUDIT_GENERATED_(69)
  6
Continuous
 62
     7
100
AcDbCircle
 10
108.10724235
 20
157.1698265903
 30
0.0
 40
33.91973021865289
100
AcDbArc
 50
267.4835564952
 51
270.0063046431
  0
ARC
  5
F2
330
CB
100
AcDbEntity
  8
$DDT_AUDIT_GENERATED_(69)
  6
Continuous
 62
     7
100
AcDbCircle
 10
108.1146924512
 20
157.1705296071
 30
0.0
 40
33.92043323383191
100
AcDbArc
 50
269.993720376
 51
272.5164213478
  0
SPLINE
  5
F3
330
CB
100
AcDbEntity
  8
$DDT_AUDIT_GENERATED_(69)
  6
Continuous
 62
     7
100
AcDbSpline
210
0.0
220
0.0
230
1.0
 70
     8
 71
     3
 72
    12
 73
     8
 74
     0
 42
0.0000000010611694
 43
0.0000000001
 40
0.4264999357441191
 40
0.4264999357441191
 40
0.4264999357441191
 40
0.4264999357441191
 40
0.471205276559707
 40
0.5252867557660276
 40
0.6217285147919613
 40
0.7478377812232652
 40
0.8535927687171109
 40
0.8535927687171109
 40
0.8535927687171109
 40
0.8535927687171109
 10
115.2390883184743
 20
124.2245683278757
 30
0.0
 10
115.1404542746461
 20
124.1858699673679
 30
0.0
 10
114.9120822748213
 20
124.1022669972729
 30
0.0
 10
114.4173358840033
 20
123.946177914049
 30
0.0
 10
113.6274218193456
 20
123.7459737541498
 30
0.0
 10
112.5495269953332
 20
123.5508466831023
 30
0.0
 10
111.7089434179
 20
123.4441456611162
 30
0.0
 10
111.3117237216808
 20
123.4047129302368
 30
0.0
  0
SPLINE
  5
F4
330
CB
100
AcDbEntity
  8
$DDT_AUDIT_GENERATED_(69)
  6
Continuous
 62
     7
100
AcDbSpline
210
0.0
220
0.0
230
1.0
 70
     8
 71
     3
 72
     8
 73
     4
 74
     0
 42
0.000000000756761
 43
0.0000000001
 40
0.9569342719354266
 40
0.9569342719354266
 40
0.9569342719354266
 40
0.9569342719354266
 40
1.0
 40
1.0
 40
1.0
 40
1.0
 10
120.7772241265488
 20
114.5962591916939
 30
0.0
 10
120.9570955834878
 20
114.5353679421433
 30
0.0
 10
121.1365234381313
 20
114.4741284674564
 30
0.0
 10
121.315943489559
 20
114.4128671231599
 30
0.0
  0
SPLINE
  5
F5
330
CB
100
AcDbEntity
  8
$DDT_AUDIT_GENERATED_(69)
  6
Continuous
 62
     7
100
AcDbSpline
210
0.0
220
0.0
230
1.0
 70
     8
 71
     3
 72
     8
 73
     4
 74
     0
 42
0.0000000007564257
 43
0.0000000001
 40
0.9568702376749227
 40
0.9568702376749227
 40
0.9568702376749227
 40
0.9568702376749227
 40
1.0
 40
1.0
 40
1.0
 40
1.0
 10
95.44637244272208
 20
114.5947706804711
 30
0.0
 10
95.26642523018886
 20
114.5334647016383
 30
0.0
 10
95.08620878103011
 20
114.4731635260257
 30
0.0
 10
94.90599236850899
 20
114.4128622476799
 30
0.0
  0
LINE
  5
F6
330
CB
100
AcDbEntity
  8
$DDT_AUDIT_GENERATED_(69)
  6
Continuous
 62
     7
100
AcDbLine
 10
94.8893835941
 20
114.4069271384
 30
0.0
 11
94.9059924456
 21
114.4128620316
 31
0.0
  0
LINE
  5
F7
330
CB
100
AcDbEntity
  8
$DDT_AUDIT_GENERATED_(69)
  6
Continuous
 62
     7
100
AcDbLine
 10
94.9159791694
 20
114.4072895594
 30
0.0
 11
94.8893835941
 21
114.4069271384
 31
0.0
  0
SPLINE
  5
F8
330
CB
100
AcDbEntity
  8
$DDT_AUDIT_GENERATED_(69)
  6
Continuous
 62
     7
100
AcDbSpline
210
0.0
220
0.0
230
1.0
 70
     8
 71
     3
 72
    17
 73
    13
 74
     0
 42
0.0000000012221784
 43
0.0000000001
 40
0.0
 40
0.0
 40
0.0
 40
0.0
 40
0.0758438804147517
 40
0.1453285884870768
 40
0.2083102144894773
 40
0.2648947504763144
 40
0.3152958786274767
 40
0.359718164761102
 40
0.5277336077500571
 40
0.7089939276945324
 40
0.8696831982047413
 40
1.0
 40
1.0
 40
1.0
 40
1.0
 10
106.543156834428
 20
122.9995826965009
 30
0.0
 10
106.2277460302975
 20
123.0154790906671
 30
0.0
 10
105.6233733044468
 20
123.0459384108187
 30
0.0
 10
104.7883476910265
 20
123.1170419074432
 30
0.0
 10
104.0587286527264
 20
123.1973062997955
 30
0.0
 10
103.4314598917756
 20
123.2830136212788
 30
0.0
 10
102.898790713847
 20
123.3695445642277
 30
0.0
 10
102.0195211753747
 20
123.5346884636502
 30
0.0
 10
100.8570537547192
 20
123.831727906317
 30
0.0
 10
99.78448573298462
 20
124.3033112998065
 30
0.0
 10
99.1970202640832
 20
124.7969099950194
 30
0.0
 10
99.12593723967034
 20
125.1228021034362
 30
0.0
 10
99.094141396325
 20
125.2687401190249
 30
0.0
  0
SPLINE
  5
F9
330
CB
100
AcDbEntity
  8
$DDT_AUDIT_GENERATED_(69)
  6
Continuous
 62
     7
100
AcDbSpline
210
0.0
220
0.0
230
1.0
 70
    12
 71
     3
 72
     8
 73
     4
 74
     0
 42
0.0000000739377909
 43
0.0000000001
 40
0.6630394984947227
 40
0.6630394984947227
 40
0.6630394984947227
 40
0.6630394984947227
 40
1.0
 40
1.0
 40
1.0
 40
1.0
 10
106.5894134903907
 20
123.2712014104019
 30
0.0
 41
1.052290447136857
 10
106.5995983076282
 20
123.2904437897194
 30
0.0
 41
1.100136387734653
 10
106.6093319349821
 20
123.2933692836755
 30
0.0
 41
1.18081672960031
 10
106.617959089339
 20
123.2828064575439
 30
0.0
 41
1.294331472733829
  0
LINE
  5
FA
330
CB
100
AcDbEntity
  8
$DDT_AUDIT_GENERATED_(69)
  6
Continuous
 62
     7
100
AcDbLine
 10
108.1109747755
 20
122.9664382089
 30
0.0
 11
106.5431632608
 21
122.9995813911
 31
0.0
  0
SPLINE
  5
FB
330
CB
100
AcDbEntity
  8
$DDT_AUDIT_GENERATED_(69)
  6
Continuous
 62
     7
100
AcDbSpline
210
0.0
220
0.0
230
1.0
 70
     8
 71
     3
 72
    26
 73
    22
 74
     0
 42
0.0000000007588485
 43
0.0000000001
 40
0.0
 40
0.0
 40
0.0
 40
0.0
 40
0.011893794100107
 40
0.0357135686039173
 40
0.0714584863524462
 40
0.1085969463947604
 40
0.1429137676608773
 40
0.2420545803942839
 40
0.2857448342683609
 40
0.3928251360359358
 40
0.4999080220712653
 40
0.5713382303759199
 40
0.6427682261371034
 40
0.7141982869906278
 40
0.7522649990442966
 40
0.7856538499772014
 40
0.85145934960441
 40
0.8928163577241147
 40
0.928545788133201
 40
0.9642736697533164
 40
1.0
 40
1.0
 40
1.0
 40
1.0
 10
94.933114181219
 20
114.4076314385599
 30
0.0
 10
94.93972169707348
 20
114.4076500359699
 30
0.0
 10
94.95958822797895
 20
114.4076327525035
 30
0.0
 10
95.01407744177621
 20
114.4075771844772
 30
0.0
 10
95.11472705331444
 20
114.4074984420619
 30
0.0
 10
95.26425350375767
 20
114.4074325160879
 30
0.0
 10
95.55987272252496
 20
114.4074677360723
 30
0.0
 10
95.97826259952998
 20
114.4075673459497
 30
0.0
 10
96.72698625903342
 20
114.407597321521
 30
0.0
 10
97.66702738585707
 20
114.407321607911
 30
0.0
 10
98.9447065139113
 20
114.4077631968074
 30
0.0
 10
100.210669937712
 20
114.4074730819503
 30
0.0
 10
101.3856555288656
 20
114.4073701424102
 30
0.0
 10
102.4422138921314
 20
114.407548817116
 30
0.0
 10
103.307851154992
 20
114.4076407478334
 30
0.0
 10
104.1567496018444
 20
114.4075814916207
 30
0.0
 10
105.0480431870527
 20
114.4074490949779
 30
0.0
 10
105.9700657886513
 20
114.4074081108794
 30
0.0
 10
106.704836119595
 20
114.4074701693245
 30
0.0
 10
107.4069079289286
 20
114.4075324717877
 30
0.0
 10
107.8762892435428
 20
114.407597496959
 30
0.0
 10
108.1109748053799
 20
114.4076314385599
 30
0.0
  0
SPLINE
  5
FC
330
CB
100
AcDbEntity
  8
$DDT_AUDIT_GENERATED_(69)
  6
Continuous
 62
     7
100
AcDbSpline
210
0.0
220
0.0
230
1.0
 70
    12
 71
     3
 72
     8
 73
     4
 74
     0
 42
0.0000000007588358
 43
0.0000000001
 40
0.0
 40
0.0
 40
0.0
 40
0.0
 40
1.0
 40
1.0
 40
1.0
 40
1.0
 10
121.2890564233797
 20
114.4075571400176
 30
0.0
 41
1.0
 10
120.7118725577502
 20
114.4076314385603
 30
0.0
 41
0.823100906440005
 10
115.3751998014676
 20
114.4076314385603
 30
0.0
 41
0.823100906440005
 10
108.1109748053799
 20
114.4076314385599
 30
0.0
 41
1.0
  0
LINE
  5
FD
330
CB
100
AcDbEntity
  8
$DDT_AUDIT_GENERATED_(69)
  6
Continuous
 62
     7
100
AcDbLine
 10
109.6787860896
 20
122.999581316
 30
0.0
 11
108.1109747754
 21
122.9664382268
 31
0.0
  0
SPLINE
  5
FE
330
CB
100
AcDbEntity
  8
$DDT_AUDIT_GENERATED_(69)
  6
Continuous
 62
     7
100
AcDbSpline
210
0.0
220
0.0
230
1.0
 70
    12
 71
     3
 72
     8
 73
     4
 74
     0
 42
0.0000000729566333
 43
0.0000000001
 40
0.6865692917658719
 40
0.6865692917658719
 40
0.6865692917658719
 40
0.6865692917658719
 40
1.0
 40
1.0
 40
1.0
 40
1.0
 10
109.6315240411343
 20
123.2730601151854
 30
0.0
 41
1.029877894949157
 10
109.6217510633333
 20
123.2905096567539
 30
0.0
 41
1.063353293756991
 10
109.6123773496575
 20
123.2930620470835
 30
0.0
 41
1.124958242703453
 10
109.603993473715
 20
123.2828065611749
 30
0.0
 41
1.214692741788544
  0
SPLINE
  5
FF
330
CB
100
AcDbEntity
  8
$DDT_AUDIT_GENERATED_(69)
  6
Continuous
 62
     7
100
AcDbSpline
210
0.0
220
0.0
230
1.0
 70
     8
 71
     3
 72
    16
 73
    12
 74
     0
 42
0.0000000012256141
 43
0.0000000001
 40
0.0
 40
0.0
 40
0.0
 40
0.0
 40
0.0596722479386426
 40
0.123555269999001
 40
0.1915161976082582
 40
0.2633739841834967
 40
0.4547272041289741
 40
0.6211639126219801
 40
0.7238148123427544
 40
0.8496567330382888
 40
1.0
 40
1.0
 40
1.0
 40
1.0
 10
117.127807841598
 20
125.2687407689619
 30
0.0
 10
117.1203062878883
 20
125.2016695317774
 30
0.0
 10
117.1046982665366
 20
125.0627915280329
 30
0.0
 10
116.9973886299562
 20
124.8523205290802
 30
0.0
 10
116.8145476397638
 20
124.6341709675149
 30
0.0
 10
116.3895179003446
 20
124.2929121672844
 30
0.0
 10
115.5292349829799
 20
123.886650574882
 30
0.0
 10
114.2109990645235
 20
123.5302475775999
 30
0.0
 10
112.871516156657
 20
123.2868864314704
 30
0.0
 10
111.4450314040896
 20
123.102221854359
 30
0.0
 10
110.3013598556033
 20
123.0357612893136
 30
0.0
 10
109.678792830493
 20
122.9995826853289
 30
0.0
  0
LINE
  5
100
330
CB
100
AcDbEntity
  8
$DDT_AUDIT_GENERATED_(69)
  6
Continuous
 62
     7
100
AcDbLine
 10
121.3325659417
 20
114.4069271384
 30
0.0
 11
121.3059736049
 21
114.4072894582
 31
0.0
  0
LINE
  5
101
330
CB
100
AcDbEntity
  8
$DDT_AUDIT_GENERATED_(69)
  6
Continuous
 62
     7
100
AcDbLine
 10
121.3159434132
 20
114.4128669091
 30
0.0
 11
121.3325659417
 21
114.4069271384
 31
0.0
  0
SPLINE
  5
102
330
CB
100
AcDbEntity
  8
$DDT_AUDIT_GENERATED_(69)
  6
Continuous
 62
     7
100
AcDbSpline
210
0.0
220
0.0
230
1.0
 70
     8
 71
     3
 72
     8
 73
     4
 74
     0
 42
0.0000000112234262
 43
0.0000000001
 40
0.9288843916984006
 40
0.9288843916984006
 40
0.9288843916984006
 40
0.9288843916984006
 40
1.0
 40
1.0
 40
1.0
 40
1.0
 10
117.1244081761741
 20
125.332010140646
 30
0.0
 10
117.125828383005
 20
125.3109094449382
 30
0.0
 10
117.1268154103219
 20
125.2898250128978
 30
0.0
 10
117.127807841598
 20
125.2687407689619
 30
0.0
  0
ARC
  5
103
330
CB
100
AcDbEntity
  8
$DDT_AUDIT_GENERATED_(69)
  6
Continuous
 62
     7
100
AcDbCircle
 10
119.2962994817
 20
107.3600872156
 30
0.0
 40
7.336774398006199
100
AcDbArc
 50
35.127617014
 51
73.8819369476
  0
ARC
  5
104
330
CB
100
AcDbEntity
  8
$DDT_AUDIT_GENERATED_(69)
  6
Continuous
 62
     7
100
AcDbCircle
 10
96.9256498413
 20
107.3600874578
 30
0.0
 40
7.336774106242133
100
AcDbArc
 50
106.1180619806
 51
144.8723811718
  0
ARC
  5
105
330
CB
100
AcDbEntity
  8
$DDT_AUDIT_GENERATED_(69)
  6
Continuous
 62
     7
100
AcDbCircle
 10
92.637652753
 20
110.5486208665
 30
0.0
 40
2.00000000000751
100
AcDbArc
 50
148.9007839595
 51
180.9999989171
  0
LINE
  5
106
330
CB
100
AcDbEntity
  8
$DDT_AUDIT_GENERATED_(69)
  6
Continuous
 62
     7
100
AcDbLine
 10
125.296845087
 20
111.5816640921
 30
0.0
 11
90.9251044488
 21
111.5816640921
 31
0.0
  0
LINE
  5
107
330
CB
100
AcDbEntity
  8
$DDT_AUDIT_GENERATED_(69)
  6
Continuous
 62
     7
100
AcDbLine
 10
90.637957362
 20
110.5137160914
 30
0.0
 11
90.6581800362
 21
109.3551598632
 31
0.0
  0
ARC
  5
108
330
CB
100
AcDbEntity
  8
$DDT_AUDIT_GENERATED_(69)
  6
Continuous
 62
     7
100
AcDbCircle
 10
93.9707317208
 20
124.533829945
 30
0.0
 40
7.649787709216661
100
AcDbArc
 50
356.2494069536
 51
358.5460906043
  0
ARC
  5
109
330
CB
100
AcDbEntity
  8
$DDT_AUDIT_GENERATED_(69)
  6
Continuous
 62
     7
100
AcDbCircle
 10
122.2512596084
 20
124.5338316056
 30
0.0
 40
7.649829507427451
100
AcDbArc
 50
181.8781124226
 51
183.6578765992
  0
SPLINE
  5
10A
330
CB
100
AcDbEntity
  8
$DDT_AUDIT_GENERATED_(69)
  6
Continuous
 62
     7
100
AcDbSpline
210
0.0
220
0.0
230
1.0
 70
     8
 71
     3
 72
    19
 73
    15
 74
     0
 42
0.0000000007986839
 43
0.0000000001
 40
0.0163842787341728
 40
0.0163842787341728
 40
0.0163842787341728
 40
0.0163842787341728
 40
0.144697926905755
 40
0.2659794043252959
 40
0.3633596921520462
 40
0.4376409326711113
 40
0.5073917323012931
 40
0.5976870352065092
 40
0.6443677250231862
 40
0.6933439152628931
 40
0.7494185002710768
 40
0.8167562613960018
 40
0.8990521363803515
 40
1.0
 40
1.0
 40
1.0
 40
1.0
 10
99.12428019327302
 20
125.343511626519
 30
0.0
 10
99.10076099912477
 20
124.7047814023353
 30
0.0
 10
99.05885214392387
 20
123.6176696294481
 30
0.0
 10
98.98567217273568
 20
121.9620737421358
 30
0.0
 10
98.90078798237363
 20
120.5965898203966
 30
0.0
 10
98.79141634363707
 20
119.4672590455455
 30
0.0
 10
98.64010539831317
 20
118.3784540205121
 30
0.0
 10
98.4209533364905
 20
117.4315312716285
 30
0.0
 10
98.0969060255695
 20
116.6240284059847
 30
0.0
 10
97.73530744276798
 20
116.020585590643
 30
0.0
 10
97.25790128431794
 20
115.4977437552959
 30
0.0
 10
96.67941972969045
 20
115.085642284732
 30
0.0
 10
96.01903321363699
 20
114.7894170251229
 30
0.0
 10
95.64936231370396
 20
114.660264456143
 30
0.0
 10
95.41095924605996
 20
114.5850484235828
 30
0.0
  0
LINE
  5
10B
330
CB
100
AcDbEntity
  8
$DDT_AUDIT_GENERATED_(69)
  6
Continuous
 62
     7
100
AcDbLine
 10
106.5894263772
 20
123.2712226941
 30
0.0
 11
106.0446848046
 21
123.3125492867
 31
0.0
  0
ARC
  5
10C
330
CB
100
AcDbEntity
  8
$DDT_AUDIT_GENERATED_(69)
  6
Continuous
 62
     7
100
AcDbCircle
 10
108.6451540942
 20
147.212993791
 30
0.0
 40
23.96238756074803
100
AcDbArc
 50
272.186283512
 51
276.230531293
  0
SPLINE
  5
10D
330
CB
100
AcDbEntity
  8
$DDT_AUDIT_GENERATED_(69)
  6
Continuous
 62
     7
100
AcDbSpline
210
0.0
220
0.0
230
1.0
 70
     8
 71
     3
 72
    19
 73
    15
 74
     0
 42
0.0000000007987874
 43
0.0000000001
 40
0.0
 40
0.0
 40
0.0
 40
0.0
 40
0.1009452856189403
 40
0.1832394755221091
 40
0.2505761061831328
 40
0.3066501429735634
 40
0.3556266164767922
 40
0.4252154561417595
 40
0.4925999053584195
 40
0.5623518698921508
 40
0.6366342664947647
 40
0.7340161014624768
 40
0.8552995984508205
 40
0.9828864480179473
 40
0.9828864480179473
 40
0.9828864480179473
 40
0.9828864480179473
 10
120.8107657600698
 20
114.5851232645164
 30
0.0
 10
120.5723960322796
 20
114.6603307460364
 30
0.0
 10
120.2027747305256
 20
114.7894710416592
 30
0.0
 10
119.5424660139889
 20
115.0856767568904
 30
0.0
 10
118.964036054384
 20
115.4977725084338
 30
0.0
 10
118.4866472604332
 20
116.0205359992647
 30
0.0
 10
118.0704775616675
 20
116.7152558345494
 30
0.0
 10
117.774873616022
 20
117.5380233821633
 30
0.0
 10
117.5668014160523
 20
118.4843232223335
 30
0.0
 10
117.4306120079476
 20
119.4673663855562
 30
0.0
 10
117.3211380499598
 20
120.5964730567702
 30
0.0
 10
117.2362901044215
 20
121.9620285247895
 30
0.0
 10
117.1632501490006
 20
123.6141071046384
 30
0.0
 10
117.1214351121664
 20
124.6983458834921
 30
0.0
 10
117.0980720296531
 20
125.3325457883079
 30
0.0
  0
LINE
  5
10E
330
CB
100
AcDbEntity
  8
$DDT_AUDIT_GENERATED_(B5)
  6
Continuous
 62
     7
100
AcDbLine
 10
104.0276380975
 20
106.5768048698
 30
0.0
 11
103.3925064202
 21
106.6531653894
 31
0.0
  0
LINE
  5
10F
330
CB
100
AcDbEntity
  8
$DDT_AUDIT_GENERATED_(B5)
  6
Continuous
 62
     7
100
AcDbLine
 10
107.5489287667
 20
106.3542739305
 30
0.0
 11
106.2705198462
 21
106.3959596882
 31
0.0
  0
LINE
  5
110
330
CB
100
AcDbEntity
  8
$DDT_AUDIT_GENERATED_(B5)
  6
Continuous
 62
     7
100
AcDbLine
 10
101.6799187209
 20
106.9153062445
 30
0.0
 11
97.9781231863
 21
107.7723207986
 31
0.0
  0
LINE
  5
111
330
CB
100
AcDbEntity
  8
$DDT_AUDIT_GENERATED_(B5)
  6
Continuous
 62
     7
100
AcDbLine
 10
109.5462230869
 20
106.3779380108
 30
0.0
 11
108.6482223932
 21
106.3539043783
 31
0.0
  0
LINE
  5
112
330
CB
100
AcDbEntity
  8
$DDT_AUDIT_GENERATED_(B5)
  6
Continuous
 62
     7
100
AcDbLine
 10
112.8788706038
 20
106.6595778206
 30
0.0
 11
111.8115852304
 21
106.5361792373
 31
0.0
  0
LINE
  5
113
330
CB
100
AcDbEntity
  8
$DDT_AUDIT_GENERATED_(B5)
  6
Continuous
 62
     7
100
AcDbLine
 10
103.3925064202
 20
106.6531653894
 30
0.0
 11
101.6799187209
 21
106.9153062445
 31
0.0
  0
LINE
  5
114
330
CB
100
AcDbEntity
  8
$DDT_AUDIT_GENERATED_(B5)
  6
Continuous
 62
     7
100
AcDbLine
 10
105.6748618973
 20
106.4305678981
 30
0.0
 11
104.0276380975
 21
106.5768048698
 31
0.0
  0
LINE
  5
115
330
CB
100
AcDbEntity
  8
$DDT_AUDIT_GENERATED_(B5)
  6
Continuous
 62
     7
100
AcDbLine
 10
109.5462230869
 20
106.3779380108
 30
0.0
 11
111.8115852304
 21
106.5361792373
 31
0.0
  0
LINE
  5
116
330
CB
100
AcDbEntity
  8
$DDT_AUDIT_GENERATED_(B5)
  6
Continuous
 62
     7
100
AcDbLine
 10
106.2705198462
 20
106.3959596882
 30
0.0
 11
105.6748618973
 21
106.4305678981
 31
0.0
  0
SPLINE
  5
117
330
CB
100
AcDbEntity
  8
$DDT_AUDIT_GENERATED_(B5)
  6
Continuous
 62
     7
100
AcDbSpline
210
0.0
220
0.0
230
1.0
 70
     8
 71
     3
 72
     8
 73
     4
 74
     0
 42
0.0000000022263157
 43
0.0000000001
 40
0.0
 40
0.0
 40
0.0
 40
0.0
 40
1.0
 40
1.0
 40
1.0
 40
1.0
 10
118.2438263643772
 20
107.7723208028629
 30
0.0
 10
116.8055621531504
 20
107.3590393057718
 30
0.0
 10
115.3419360162581
 20
107.0352131775709
 30
0.0
 10
113.864039259189
 20
106.8016407733358
 30
0.0
  0
ARC
  5
118
330
CB
100
AcDbEntity
  8
$DDT_AUDIT_GENERATED_(B5)
  6
Continuous
 62
     7
100
AcDbCircle
 10
113.1773988822
 20
795.9557919861
 30
0.0
 40
688.2021205265763
100
AcDbArc
 50
269.5781946431
 51
270.4218056374
  0
ARC
  5
119
330
CB
100
AcDbEntity
  8
$DDT_AUDIT_GENERATED_(B5)
  6
Continuous
 62
     7
100
AcDbCircle
 10
103.0445503699
 20
795.2406406418
 30
0.0
 40
687.4869885841191
100
AcDbArc
 50
269.5777556125
 51
270.4222441554
  0
LINE
  5
11A
330
CB
100
AcDbEntity
  8
$DDT_AUDIT_GENERATED_(B5)
  6
Continuous
 62
     7
100
AcDbLine
 10
108.1109747679
 20
106.3500000096
 30
0.0
 11
108.6482223932
 21
106.3539043783
 31
0.0
  0
SPLINE
  5
11B
330
CB
100
AcDbEntity
  8
$DDT_AUDIT_GENERATED_(B5)
  6
Continuous
 62
     7
100
AcDbSpline
210
0.0
220
0.0
230
1.0
 70
     8
 71
     3
 72
     8
 73
     4
 74
     0
 42
0.0000000100460204
 43
0.0000000001
 40
0.0
 40
0.0
 40
0.0
 40
0.0
 40
1.0
 40
1.0
 40
1.0
 40
1.0
 10
112.878871088874
 20
106.6595778838354
 30
0.0
 10
113.2078812743595
 20
106.7024881601347
 30
0.0
 10
113.5363111414841
 20
106.7498453796307
 30
0.0
 10
113.864039259189
 20
106.8016407733358
 30
0.0
  0
LINE
  5
11C
330
CB
100
AcDbEntity
  8
$DDT_AUDIT_GENERATED_(B5)
  6
Continuous
 62
     7
100
AcDbLine
 10
108.1109747679
 20
106.3500000096
 30
0.0
 11
107.5489287667
 21
106.3542739305
 31
0.0
  0
ARC
  5
11D
330
CB
100
AcDbEntity
  8
$DDT_AUDIT_GENERATED_(74)
  6
Continuous
 62
     7
100
AcDbCircle
 10
128.5593572532
 20
126.2952100566
 30
0.0
 40
0.2998802614175265
100
AcDbArc
 50
279.9626510303
 51
320.2965941915
  0
LINE
  5
11E
330
CB
100
AcDbEntity
  8
$DDT_AUDIT_GENERATED_(74)
  6
Continuous
 62
     7
100
AcDbLine
 10
126.1492656261
 20
125.6654441408
 30
0.0
 11
128.6112383922
 21
125.9998517681
 31
0.0
  0
LINE
  5
11F
330
CB
100
AcDbEntity
  8
$DDT_AUDIT_GENERATED_(74)
  6
Continuous
 62
     7
100
AcDbLine
 10
87.6072366035
 20
125.9998517681
 30
0.0
 11
90.0692093695
 21
125.6654441408
 31
0.0
  0
LINE
  5
120
330
CB
100
AcDbEntity
  8
$DDT_AUDIT_GENERATED_(74)
  6
Continuous
 62
     7
100
AcDbLine
 10
126.1492656261
 20
125.6654441408
 30
0.0
 11
125.6367625089
 21
125.6654441408
 31
0.0
  0
LINE
  5
121
330
CB
100
AcDbEntity
  8
$DDT_AUDIT_GENERATED_(74)
  6
Continuous
 62
     7
100
AcDbLine
 10
125.6367625089
 20
125.6654441408
 30
0.0
 11
90.4169293969
 21
125.6654441408
 31
0.0
  0
LINE
  5
122
330
CB
100
AcDbEntity
  8
$DDT_AUDIT_GENERATED_(74)
  6
Continuous
 62
     7
100
AcDbLine
 10
90.4169293969
 20
125.6654441408
 30
0.0
 11
90.0692093695
 21
125.6654441408
 31
0.0
  0
ARC
  5
123
330
CB
100
AcDbEntity
  8
$DDT_AUDIT_GENERATED_(74)
  6
Continuous
 62
     7
100
AcDbCircle
 10
128.534304567
 20
126.2951117737
 30
0.0
 40
0.2998260107494245
100
AcDbArc
 50
280.0119393855
 51
320.333936586
  0
ARC
  5
124
330
CB
100
AcDbEntity
  8
$DDT_AUDIT_GENERATED_(74)
  6
Continuous
 62
     7
100
AcDbCircle
 10
87.6841696714
 20
126.2951117784
 30
0.0
 40
0.2998260137971562
100
AcDbArc
 50
219.6699900965
 51
259.9880625116
  0
SPLINE
  5
125
330
CB
100
AcDbEntity
  8
$DDT_AUDIT_GENERATED_(74)
  6
Continuous
 62
     7
100
AcDbSpline
210
0.0
220
0.0
230
1.0
 70
     8
 71
     3
 72
    25
 73
    21
 74
     0
 42
0.0000000002815397
 43
0.0000000001
 40
0.2133109841566473
 40
0.2133109841566473
 40
0.2133109841566473
 40
0.2133109841566473
 40
0.2134308264232469
 40
0.2607799343941223
 40
0.3057187896457945
 40
0.3482488876082236
 40
0.3883740791950347
 40
0.4260861169860442
 40
0.4780961449568296
 40
0.5246745751168893
 40
0.5658708480066738
 40
0.6086457683204738
 40
0.657888539471172
 40
0.7136918551656072
 40
0.7546052050836461
 40
0.798514538358338
 40
0.8454714775128327
 40
0.8955179138468016
 40
0.9486846734561493
 40
1.0
 40
1.0
 40
1.0
 40
1.0
 10
97.67273744056881
 20
125.6654535774337
 30
0.0
 10
97.67415165363816
 20
125.6654531828297
 30
0.0
 10
98.23437777080045
 20
125.6652968967508
 30
0.0
 10
99.37357855151156
 20
125.6650039670066
 30
0.0
 10
101.1504191684234
 20
125.6646109455223
 30
0.0
 10
102.9153785706463
 20
125.6642716182788
 30
0.0
 10
104.6349265155435
 20
125.663986568515
 30
0.0
 10
106.5264217495642
 20
125.663711409609
 30
0.0
 10
108.5369885829534
 20
125.663508065195
 30
0.0
 10
110.5911679216189
 20
125.6632670909879
 30
0.0
 10
112.4773618203209
 20
125.6635009373247
 30
0.0
 10
114.3548434743701
 20
125.6623903889854
 30
0.0
 10
116.3590181945661
 20
125.6595733907937
 30
0.0
 10
118.2174209216599
 20
125.6564697149936
 30
0.0
 10
119.8717666494936
 20
125.6539458993681
 30
0.0
 10
121.2927814747165
 20
125.6523663630092
 30
0.0
 10
122.6479613545734
 20
125.6519650672454
 30
0.0
 10
123.8763919117311
 20
125.6534241273866
 30
0.0
 10
124.9343557336686
 20
125.6572845002554
 30
0.0
 10
125.3694058355621
 20
125.6619845920686
 30
0.0
 10
125.615067894947
 20
125.6647733884054
 30
0.0
  0
ARC
  5
126
330
CB
100
AcDbEntity
  8
$DDT_AUDIT_GENERATED_(74)
  6
Continuous
 62
     7
100
AcDbCircle
 10
88.7017473385
 20
1213.7922202805
 30
0.0
 40
1088.141235922542
100
AcDbArc
 50
270.0858400303
 51
270.1641119497
  0
ENDBLK
  5
128
330
CB
100
AcDbEntity
  8
0
100
AcDbBlockEnd
  0
ENDSEC
  0
SECTION
  2
ENTITIES
  0
INSERT
  5
5F
330
1F
100
AcDbEntity
  8
Default
100
AcDbBlockReference
  2
SE
 10
0.0
 20
0.0
 30
0.0
  0
INSERT
  5
7C
330
1F
100
AcDbEntity
  8
Default
100
AcDbBlockReference
  2
SE1
 10
0.0
 20
0.0
 30
0.0
  0
INSERT
  5
CC
330
1F
100
AcDbEntity
  8
Default
100
AcDbBlockReference
  2
SE2
 10
0.0
 20
0.0
 30
0.0
  0
TEXT
  5
12A
330
1F
100
AcDbEntity
  8
Default
  6
Continuous
 62
     7
100
AcDbText
 10
5.9362635081
 20
53.4225120485
 30
0.0
 40
10.0
  1
Grohe AG^J
  7
SEACAD_seiso_ttf
 11
5.9362635081
 21
63.4225120485
 31
0.0
100
AcDbText
 73
     3
  0
TEXT
  5
12B
330
1F
100
AcDbEntity
  8
Default
  6
Continuous
 62
     7
100
AcDbText
 10
5.9362635081
 20
37.0588756849
 30
0.0
 40
10.0
  1
 
  7
SEACAD_seiso_ttf
 11
5.9362635081
 21
47.0588756849
 31
0.0
100
AcDbText
 73
     3
  0
TEXT
  5
12C
330
1F
100
AcDbEntity
  8
Default
  6
Continuous
 62
     7
100
AcDbText
 10
5.9362635081
 20
20.6952393213
 30
0.0
 40
10.0
  1
ecn: 
  7
SEACAD_seiso_ttf
 11
5.9362635081
 21
30.6952393213
 31
0.0
100
AcDbText
 73
     3
  0
TEXT
  5
12D
330
1F
100
AcDbEntity
  8
Default
  6
Continuous
 62
     7
100
AcDbText
 10
5.9362635081
 20
4.3316029576
 30
0.0
 40
10.0
  1
unit: mm
  7
SEACAD_seiso_ttf
 11
5.9362635081
 21
14.3316029576
 31
0.0
100
AcDbText
 73
     3
  0
LINE
  5
12E
330
1F
100
AcDbEntity
  8
Default
  6
Continuous
 62
     7
100
AcDbLine
 10
0.0
 20
0.0
 30
0.0
 11
100.0
 21
0.0
 31
0.0
  0
LINE
  5
12F
330
1F
100
AcDbEntity
  8
Default
  6
Continuous
 62
     7
100
AcDbLine
 10
0.0
 20
0.0
 30
0.0
 11
0.0
 21
100.0
 31
0.0
  0
TEXT
  5
130
330
1F
100
AcDbEntity
  8
Default
  6
Continuous
 62
     7
100
AcDbText
 10
24.3923665681
 20
-18.2375342018
 30
0.0
 40
10.0
  1
100 mm
  7
SEACAD_seiso_ttf
 11
24.3923665681
 21
-8.2375342018
 31
0.0
100
AcDbText
 73
     3
  0
TEXT
  5
131
330
1F
100
AcDbEntity
  8
Default
  6
Continuous
 62
     7
100
AcDbText
 10
-7.6150308803
 20
24.6231930421
 30
0.0
 40
10.0
  1
100 mm
 50
90.0
  7
SEACAD_seiso_ttf
 11
-17.6150308803
 21
24.6231930421
 31
0.0
100
AcDbText
 73
     3
  0
TEXT
  5
132
330
1F
100
AcDbEntity
  8
Default
  6
Continuous
 62
     7
100
AcDbText
 10
28.4878128572
 20
20.0907663715
 30
0.0
 40
10.0
  1
216308
  7
SEACAD_seiso_ttf
 11
28.4878128572
 21
30.0907663715
 31
0.0
100
AcDbText
 73
     3
  0
TEXT
  5
133
330
1F
100
AcDbEntity
  8
Default
  6
Continuous
 62
     7
100
AcDbText
 10
5.9012241913
 20
36.7242780188
 30
0.0
 40
10.0
  1
19367000
  7
SEACAD_seiso_ttf
 11
5.9012241913
 21
46.7242780188
 31
0.0
100
AcDbText
 73
     3
  0
ENDSEC
  0
SECTION
  2
OBJECTS
  0
DICTIONARY
  5
C
330
0
100
AcDbDictionary
281
     1
  3
ACAD_GROUP
350
D
  3
ACAD_LAYOUT
350
1A
  3
ACAD_MLEADERSTYLE
350
137
  3
ACAD_MLINESTYLE
350
17
  3
ACAD_PLOTSETTINGS
350
19
  3
ACAD_PLOTSTYLENAME
350
E
  3
ACAD_SCALELIST
350
3B
  3
ACAD_TABLESTYLE
350
136
  3
ACAD_VISUALSTYLE
350
2A
  3
AcDbVariableDictionary
350
134
  0
DICTIONARY
  5
D
102
{ACAD_REACTORS
330
C
102
}
330
C
100
AcDbDictionary
281
     1
  0
DICTIONARY
  5
1A
102
{ACAD_REACTORS
330
C
102
}
330
C
100
AcDbDictionary
281
     1
  3
Layout1
350
1E
  3
Model
350
22
  0
DICTIONARY
  5
137
102
{ACAD_REACTORS
330
C
102
}
330
C
100
AcDbDictionary
281
     1
  0
DICTIONARY
  5
17
102
{ACAD_REACTORS
330
C
102
}
330
C
100
AcDbDictionary
281
     1
  3
Standard
350
18
  0
DICTIONARY
  5
19
102
{ACAD_REACTORS
330
C
102
}
330
C
100
AcDbDictionary
281
     1
  0
ACDBDICTIONARYWDFLT
  5
E
102
{ACAD_REACTORS
330
C
102
}
330
C
100
AcDbDictionary
281
     1
  3
Normal
350
F
100
AcDbDictionaryWithDefault
340
F
  0
DICTIONARY
  5
3B
102
{ACAD_REACTORS
330
C
102
}
330
C
100
AcDbDictionary
281
     1
  3
A0
350
3C
  3
A1
350
3D
  3
A2
350
3E
  3
A3
350
3F
  3
A4
350
40
  3
A5
350
41
  3
A6
350
42
  3
A7
350
43
  3
A8
350
44
  3
A9
350
45
  3
B0
350
46
  3
B1
350
47
  3
B2
350
48
  3
B3
350
49
  3
B4
350
4A
  3
B5
350
4B
  3
B6
350
4C
  3
B7
350
4D
  3
B8
350
4E
  3
B9
350
4F
  3
C0
350
50
  3
C1
350
51
  3
C2
350
52
  3
C3
350
53
  3
C4
350
54
  3
C5
350
55
  3
C6
350
56
  3
C7
350
57
  3
C8
350
58
  3
C9
350
59
  3
D0
350
5A
  3
D1
350
5B
  3
D2
350
5C
  0
DICTIONARY
  5
136
102
{ACAD_REACTORS
330
C
102
}
330
C
100
AcDbDictionary
281
     1
  0
DICTIONARY
  5
2A
102
{ACAD_REACTORS
330
C
102
}
330
C
100
AcDbDictionary
281
     1
  3
2dWireframe
350
2F
  3
3D Hidden
350
31
  3
3dWireframe
350
30
  3
Basic
350
32
  3
Brighten
350
36
  3
ColorChange
350
3A
  3
Conceptual
350
34
  3
Dim
350
35
  3
Facepattern
350
39
  3
Flat
350
2B
  3
FlatWithEdges
350
2C
  3
Gouraud
350
2D
  3
GouraudWithEdges
350
2E
  3
Linepattern
350
38
  3
Realistic
350
33
  3
Thicken
350
37
  0
DICTIONARY
  5
134
102
{ACAD_REACTORS
330
C
102
}
330
C
100
AcDbDictionary
281
     1
  3
CANNOSCALE
350
135
  3
PSOLHEIGHT
350
139
  3
PSOLWIDTH
350
138
  0
LAYOUT
  5
1E
102
{ACAD_REACTORS
330
1A
102
}
330
1A
100
AcDbPlotSettings
  1

  2
none_device
  4

  6

 40
0.0
 41
0.0
 42
0.0
 43
0.0
 44
0.0
 45
0.0
 46
0.0
 47
0.0
 48
0.0
 49
0.0
140
0.0
141
0.0
142
1.0
143
1.0
 70
   688
 72
     0
 73
     0
 74
     5
  7

 75
    16
147
1.0
148
0.0
149
0.0
100
AcDbLayout
  1
Layout1
 70
     1
 71
     1
 10
0.0
 20
0.0
 11
1682.0
 21
2378.0
 12
0.0
 22
0.0
 32
0.0
 14
0.0
 24
0.0
 34
0.0
 15
1682.0
 25
2378.0
 35
0.0
146
0.0
 13
0.0
 23
0.0
 33
0.0
 16
1.0
 26
0.0
 36
0.0
 17
0.0
 27
1.0
 37
0.0
 76
     0
330
1B
  0
LAYOUT
  5
22
102
{ACAD_REACTORS
330
1A
102
}
330
1A
100
AcDbPlotSettings
  1

  2
none_device
  4

  6

 40
0.0
 41
0.0
 42
0.0
 43
0.0
 44
0.0
 45
0.0
 46
0.0
 47
0.0
 48
0.0
 49
0.0
140
0.0
141
0.0
142
1.0
143
1.0
 70
  1712
 72
     0
 73
     0
 74
     0
  7

 75
     0
147
1.0
148
0.0
149
0.0
100
AcDbLayout
  1
Model
 70
     1
 71
     0
 10
0.0
 20
0.0
 11
1682.0
 21
2378.0
 12
0.0
 22
0.0
 32
0.0
 14
0.0
 24
0.0
 34
0.0
 15
1682.0
 25
2378.0
 35
0.0
146
0.0
 13
0.0
 23
0.0
 33
0.0
 16
1.0
 26
0.0
 36
0.0
 17
0.0
 27
1.0
 37
0.0
 76
     0
330
1F
331
29
  0
MLINESTYLE
  5
18
102
{ACAD_REACTORS
330
17
102
}
330
17
100
AcDbMlineStyle
  2
Standard
 70
     0
  3

 62
   256
 51
90.0
 52
90.0
 71
     2
 49
0.5
 62
   256
  6
BYLAYER
 49
-0.5
 62
   256
  6
BYLAYER
  0
ACDBPLACEHOLDER
  5
F
102
{ACAD_REACTORS
330
E
102
}
330
E
  0
SCALE
  5
3C
102
{ACAD_REACTORS
330
3B
102
}
330
3B
100
AcDbScale
 70
     0
300
1:1
140
1.0
141
1.0
290
     1
  0
SCALE
  5
3D
102
{ACAD_REACTORS
330
3B
102
}
330
3B
100
AcDbScale
 70
     0
300
1:2
140
1.0
141
2.0
290
     0
  0
SCALE
  5
3E
102
{ACAD_REACTORS
330
3B
102
}
330
3B
100
AcDbScale
 70
     0
300
1:4
140
1.0
141
4.0
290
     0
  0
SCALE
  5
3F
102
{ACAD_REACTORS
330
3B
102
}
330
3B
100
AcDbScale
 70
     0
300
1:5
140
1.0
141
5.0
290
     0
  0
SCALE
  5
40
102
{ACAD_REACTORS
330
3B
102
}
330
3B
100
AcDbScale
 70
     0
300
1:8
140
1.0
141
8.0
290
     0
  0
SCALE
  5
41
102
{ACAD_REACTORS
330
3B
102
}
330
3B
100
AcDbScale
 70
     0
300
1:10
140
1.0
141
10.0
290
     0
  0
SCALE
  5
42
102
{ACAD_REACTORS
330
3B
102
}
330
3B
100
AcDbScale
 70
     0
300
1:16
140
1.0
141
16.0
290
     0
  0
SCALE
  5
43
102
{ACAD_REACTORS
330
3B
102
}
330
3B
100
AcDbScale
 70
     0
300
1:20
140
1.0
141
20.0
290
     0
  0
SCALE
  5
44
102
{ACAD_REACTORS
330
3B
102
}
330
3B
100
AcDbScale
 70
     0
300
1:30
140
1.0
141
30.0
290
     0
  0
SCALE
  5
45
102
{ACAD_REACTORS
330
3B
102
}
330
3B
100
AcDbScale
 70
     0
300
1:40
140
1.0
141
40.0
290
     0
  0
SCALE
  5
46
102
{ACAD_REACTORS
330
3B
102
}
330
3B
100
AcDbScale
 70
     0
300
1:50
140
1.0
141
50.0
290
     0
  0
SCALE
  5
47
102
{ACAD_REACTORS
330
3B
102
}
330
3B
100
AcDbScale
 70
     0
300
1:100
140
1.0
141
100.0
290
     0
  0
SCALE
  5
48
102
{ACAD_REACTORS
330
3B
102
}
330
3B
100
AcDbScale
 70
     0
300
2:1
140
2.0
141
1.0
290
     0
  0
SCALE
  5
49
102
{ACAD_REACTORS
330
3B
102
}
330
3B
100
AcDbScale
 70
     0
300
4:1
140
4.0
141
1.0
290
     0
  0
SCALE
  5
4A
102
{ACAD_REACTORS
330
3B
102
}
330
3B
100
AcDbScale
 70
     0
300
8:1
140
8.0
141
1.0
290
     0
  0
SCALE
  5
4B
102
{ACAD_REACTORS
330
3B
102
}
330
3B
100
AcDbScale
 70
     0
300
10:1
140
10.0
141
1.0
290
     0
  0
SCALE
  5
4C
102
{ACAD_REACTORS
330
3B
102
}
330
3B
100
AcDbScale
 70
     0
300
100:1
140
100.0
141
1.0
290
     0
  0
SCALE
  5
4D
102
{ACAD_REACTORS
330
3B
102
}
330
3B
100
AcDbScale
 70
     0
300
1/128" = 1'-0"
140
0.0078125
141
12.0
290
     0
  0
SCALE
  5
4E
102
{ACAD_REACTORS
330
3B
102
}
330
3B
100
AcDbScale
 70
     0
300
1/64" = 1'-0"
140
0.015625
141
12.0
290
     0
  0
SCALE
  5
4F
102
{ACAD_REACTORS
330
3B
102
}
330
3B
100
AcDbScale
 70
     0
300
1/32" = 1'-0"
140
0.03125
141
12.0
290
     0
  0
SCALE
  5
50
102
{ACAD_REACTORS
330
3B
102
}
330
3B
100
AcDbScale
 70
     0
300
1/16" = 1'-0"
140
0.0625
141
12.0
290
     0
  0
SCALE
  5
51
102
{ACAD_REACTORS
330
3B
102
}
330
3B
100
AcDbScale
 70
     0
300
3/32" = 1'-0"
140
0.09375
141
12.0
290
     0
  0
SCALE
  5
52
102
{ACAD_REACTORS
330
3B
102
}
330
3B
100
AcDbScale
 70
     0
300
1/8" = 1'-0"
140
0.125
141
12.0
290
     0
  0
SCALE
  5
53
102
{ACAD_REACTORS
330
3B
102
}
330
3B
100
AcDbScale
 70
     0
300
3/16" = 1'-0"
140
0.1875
141
12.0
290
     0
  0
SCALE
  5
54
102
{ACAD_REACTORS
330
3B
102
}
330
3B
100
AcDbScale
 70
     0
300
1/4" = 1'-0"
140
0.25
141
12.0
290
     0
  0
SCALE
  5
55
102
{ACAD_REACTORS
330
3B
102
}
330
3B
100
AcDbScale
 70
     0
300
3/8" = 1'-0"
140
0.375
141
12.0
290
     0
  0
SCALE
  5
56
102
{ACAD_REACTORS
330
3B
102
}
330
3B
100
AcDbScale
 70
     0
300
1/2" = 1'-0"
140
0.5
141
12.0
290
     0
  0
SCALE
  5
57
102
{ACAD_REACTORS
330
3B
102
}
330
3B
100
AcDbScale
 70
     0
300
3/4" = 1'-0"
140
0.75
141
12.0
290
     0
  0
SCALE
  5
58
102
{ACAD_REACTORS
330
3B
102
}
330
3B
100
AcDbScale
 70
     0
300
1" = 1'-0"
140
1.0
141
12.0
290
     0
  0
SCALE
  5
59
102
{ACAD_REACTORS
330
3B
102
}
330
3B
100
AcDbScale
 70
     0
300
1-1/2" = 1'-0"
140
1.5
141
12.0
290
     0
  0
SCALE
  5
5A
102
{ACAD_REACTORS
330
3B
102
}
330
3B
100
AcDbScale
 70
     0
300
3" = 1'-0"
140
3.0
141
12.0
290
     0
  0
SCALE
  5
5B
102
{ACAD_REACTORS
330
3B
102
}
330
3B
100
AcDbScale
 70
     0
300
6" = 1'-0"
140
6.0
141
12.0
290
     0
  0
SCALE
  5
5C
102
{ACAD_REACTORS
330
3B
102
}
330
3B
100
AcDbScale
 70
     0
300
1'-0" = 1'-0"
140
12.0
141
12.0
290
     0
  0
VISUALSTYLE
  5
2F
102
{ACAD_REACTORS
330
2A
102
}
330
2A
100
AcDbVisualStyle
  2
2dWireframe
 70
     4
 71
     0
 72
     2
 73
     0
 90
        0
 40
-0.6
 41
-30.0
 62
     5
 63
     7
 74
     1
 91
        4
 64
     7
 65
   257
 75
     1
175
     1
 42
1.0
 92
        0
 66
   257
 43
1.0
 76
     1
 77
     6
 78
     2
 67
     7
 79
     5
170
     0
171
     0
290
     0
174
     0
 93
        1
 44
0.0
173
     0
291
     0
 45
0.0
1001
ACAD
1000
AcDbSavedByObjectVersion
1070
     0
  0
VISUALSTYLE
  5
31
102
{ACAD_REACTORS
330
2A
102
}
330
2A
100
AcDbVisualStyle
  2
3D Hidden
 70
     6
 71
     1
 72
     2
 73
     2
 90
        0
 40
-0.6
 41
-30.0
 62
     5
 63
     7
 74
     2
 91
        2
 64
     7
 65
   257
 75
     2
175
     1
 42
40.0
 92
        0
 66
   257
 43
1.0
 76
     1
 77
     6
 78
     2
 67
     7
 79
     3
170
     0
171
     0
290
     0
174
     0
 93
        1
 44
0.0
173
     0
291
     0
 45
0.0
1001
ACAD
1000
AcDbSavedByObjectVersion
1070
     0
  0
VISUALSTYLE
  5
30
102
{ACAD_REACTORS
330
2A
102
}
330
2A
100
AcDbVisualStyle
  2
3dWireframe
 70
     5
 71
     0
 72
     2
 73
     0
 90
        0
 40
-0.6
 41
-30.0
 62
     5
 63
     7
 74
     1
 91
        4
 64
     7
 65
   257
 75
     1
175
     1
 42
1.0
 92
        0
 66
   257
 43
1.0
 76
     1
 77
     6
 78
     2
 67
     7
 79
     5
170
     0
171
     0
290
     0
174
     0
 93
        1
 44
0.0
173
     0
291
     0
 45
0.0
1001
ACAD
1000
AcDbSavedByObjectVersion
1070
     0
  0
VISUALSTYLE
  5
32
102
{ACAD_REACTORS
330
2A
102
}
330
2A
100
AcDbVisualStyle
  2
Basic
 70
     7
 71
     1
 72
     0
 73
     1
 90
        0
 40
-0.6
 41
-30.0
 62
     5
 63
     7
 74
     0
 91
        4
 64
     7
 65
   257
 75
     1
175
     1
 42
1.0
 92
        8
 66
     7
 43
1.0
 76
     1
 77
     6
 78
     2
 67
     7
 79
     5
170
     0
171
     0
290
     0
174
     0
 93
        1
 44
0.0
173
     0
291
     1
 45
0.0
1001
ACAD
1000
AcDbSavedByObjectVersion
1070
     0
  0
VISUALSTYLE
  5
36
102
{ACAD_REACTORS
330
2A
102
}
330
2A
100
AcDbVisualStyle
  2
Brighten
 70
    12
 71
     2
 72
     2
 73
     0
 90
        0
 40
-0.6
 41
-30.0
 62
     5
 63
     7
 74
     1
 91
        4
 64
     7
 65
   257
 75
     1
175
     1
 42
1.0
 92
        8
 66
     7
 43
1.0
 76
     1
 77
     6
 78
     2
 67
     7
 79
     5
170
     0
171
     0
290
     0
174
     0
 93
        1
 44
50.0
173
     0
291
     1
 45
0.0
1001
ACAD
1000
AcDbSavedByObjectVersion
1070
     0
  0
VISUALSTYLE
  5
3A
102
{ACAD_REACTORS
330
2A
102
}
330
2A
100
AcDbVisualStyle
  2
ColorChange
 70
    16
 71
     2
 72
     2
 73
     3
 90
        0
 40
-0.6
 41
-30.0
 62
     5
 63
     8
 74
     1
 91
        4
 64
     7
 65
   257
 75
     1
175
     1
 42
1.0
 92
        8
 66
     8
 43
1.0
 76
     1
 77
     6
 78
     2
 67
     7
 79
     5
170
     0
171
     0
290
     0
174
     0
 93
        1
 44
0.0
173
     0
291
     1
 45
0.0
1001
ACAD
1000
AcDbSavedByObjectVersion
1070
     0
  0
VISUALSTYLE
  5
34
102
{ACAD_REACTORS
330
2A
102
}
330
2A
100
AcDbVisualStyle
  2
Conceptual
 70
     9
 71
     3
 72
     2
 73
     0
 90
        0
 40
-0.6
 41
-30.0
 62
     5
 63
     7
 74
     2
 91
        2
 64
     7
 65
   257
 75
     1
175
     1
 42
40.0
 92
        8
 66
     7
 43
1.0
 76
     1
 77
     6
 78
     2
 67
     7
 79
     3
170
     0
171
     0
290
     0
174
     0
 93
        1
 44
0.0
173
     0
291
     0
 45
0.0
1001
ACAD
1000
AcDbSavedByObjectVersion
1070
     0
  0
VISUALSTYLE
  5
35
102
{ACAD_REACTORS
330
2A
102
}
330
2A
100
AcDbVisualStyle
  2
Dim
 70
    11
 71
     2
 72
     2
 73
     0
 90
        0
 40
-0.6
 41
-30.0
 62
     5
 63
     7
 74
     1
 91
        4
 64
     7
 65
   257
 75
     1
175
     1
 42
1.0
 92
        8
 66
     7
 43
1.0
 76
     1
 77
     6
 78
     2
 67
     7
 79
     5
170
     0
171
     0
290
     0
174
     0
 93
        1
 44
-50.0
173
     0
291
     1
 45
0.0
1001
ACAD
1000
AcDbSavedByObjectVersion
1070
     0
  0
VISUALSTYLE
  5
39
102
{ACAD_REACTORS
330
2A
102
}
330
2A
100
AcDbVisualStyle
  2
Facepattern
 70
    15
 71
     2
 72
     2
 73
     0
 90
        0
 40
-0.6
 41
-30.0
 62
     5
 63
     7
 74
     1
 91
        4
 64
     7
 65
   257
 75
     1
175
     1
 42
1.0
 92
        8
 66
     7
 43
1.0
 76
     1
 77
     6
 78
     2
 67
     7
 79
     5
170
     0
171
     0
290
     0
174
     0
 93
        1
 44
0.0
173
     0
291
     1
 45
0.0
1001
ACAD
1000
AcDbSavedByObjectVersion
1070
     0
  0
VISUALSTYLE
  5
2B
102
{ACAD_REACTORS
330
2A
102
}
330
2A
100
AcDbVisualStyle
  2
Flat
 70
     0
 71
     2
 72
     1
 73
     1
 90
        2
 40
-0.6
 41
30.0
 62
     5
 63
     7
 74
     0
 91
        4
 64
     7
 65
   257
 75
     1
175
     1
 42
1.0
 92
        8
 66
     7
 43
1.0
 76
     1
 77
     6
 78
     2
 67
     7
 79
     5
170
     0
171
     0
290
     0
174
     0
 93
       13
 44
0.0
173
     0
291
     1
 45
0.0
1001
ACAD
1000
AcDbSavedByObjectVersion
1070
     0
  0
VISUALSTYLE
  5
2C
102
{ACAD_REACTORS
330
2A
102
}
330
2A
100
AcDbVisualStyle
  2
FlatWithEdges
 70
     1
 71
     2
 72
     1
 73
     1
 90
        2
 40
-0.6
 41
30.0
 62
     5
 63
     7
 74
     1
 91
        4
 64
     7
 65
   257
 75
     1
175
     1
 42
1.0
 92
        0
 66
   257
 43
1.0
 76
     1
 77
     6
 78
     2
 67
     7
 79
     5
170
     0
171
     0
290
     0
174
     0
 93
       13
 44
0.0
173
     0
291
     1
 45
0.0
1001
ACAD
1000
AcDbSavedByObjectVersion
1070
     0
  0
VISUALSTYLE
  5
2D
102
{ACAD_REACTORS
330
2A
102
}
330
2A
100
AcDbVisualStyle
  2
Gouraud
 70
     2
 71
     2
 72
     2
 73
     1
 90
        2
 40
-0.6
 41
30.0
 62
     5
 63
     7
 74
     0
 91
        4
 64
     7
 65
   257
 75
     1
175
     1
 42
1.0
 92
        0
 66
     7
 43
1.0
 76
     1
 77
     6
 78
     2
 67
     7
 79
     5
170
     0
171
     0
290
     0
174
     0
 93
       13
 44
0.0
173
     0
291
     1
 45
0.0
1001
ACAD
1000
AcDbSavedByObjectVersion
1070
     0
  0
VISUALSTYLE
  5
2E
102
{ACAD_REACTORS
330
2A
102
}
330
2A
100
AcDbVisualStyle
  2
GouraudWithEdges
 70
     3
 71
     2
 72
     2
 73
     1
 90
        2
 40
-0.6
 41
30.0
 62
     5
 63
     7
 74
     1
 91
        4
 64
     7
 65
   257
 75
     1
175
     1
 42
1.0
 92
        0
 66
   257
 43
1.0
 76
     1
 77
     6
 78
     2
 67
     7
 79
     5
170
     0
171
     0
290
     0
174
     0
 93
       13
 44
0.0
173
     0
291
     1
 45
0.0
1001
ACAD
1000
AcDbSavedByObjectVersion
1070
     0
  0
VISUALSTYLE
  5
38
102
{ACAD_REACTORS
330
2A
102
}
330
2A
100
AcDbVisualStyle
  2
Linepattern
 70
    14
 71
     2
 72
     2
 73
     0
 90
        0
 40
-0.6
 41
-30.0
 62
     5
 63
     7
 74
     1
 91
        4
 64
     7
 65
   257
 75
     7
175
     7
 42
1.0
 92
        8
 66
     7
 43
1.0
 76
     1
 77
     6
 78
     2
 67
     7
 79
     5
170
     0
171
     0
290
     0
174
     0
 93
        1
 44
0.0
173
     0
291
     1
 45
0.0
1001
ACAD
1000
AcDbSavedByObjectVersion
1070
     0
  0
VISUALSTYLE
  5
33
102
{ACAD_REACTORS
330
2A
102
}
330
2A
100
AcDbVisualStyle
  2
Realistic
 70
     8
 71
     2
 72
     2
 73
     0
 90
        0
 40
-0.6
 41
-30.0
 62
     5
 63
     7
 74
     1
 91
        0
 64
     7
 65
   257
 75
     1
175
     1
 42
1.0
 92
        8
 66
     8
 43
1.0
 76
     1
 77
     6
 78
     2
 67
     7
 79
     5
170
     0
171
     0
290
     0
174
     0
 93
       13
 44
0.0
173
     0
291
     0
 45
0.0
1001
ACAD
1000
AcDbSavedByObjectVersion
1070
     0
  0
VISUALSTYLE
  5
37
102
{ACAD_REACTORS
330
2A
102
}
330
2A
100
AcDbVisualStyle
  2
Thicken
 70
    13
 71
     2
 72
     2
 73
     0
 90
        0
 40
-0.6
 41
-30.0
 62
     5
 63
     7
 74
     1
 91
        4
 64
     7
 65
   257
 75
     1
175
     1
 42
1.0
 92
       12
 66
     7
 43
1.0
 76
     1
 77
     6
 78
     2
 67
     7
 79
     5
170
     0
171
     0
290
     0
174
     0
 93
        1
 44
0.0
173
     0
291
     1
 45
0.0
1001
ACAD
1000
AcDbSavedByObjectVersion
1070
     0
  0
DICTIONARYVAR
  5
135
102
{ACAD_REACTORS
330
134
102
}
330
134
100
DictionaryVariables
280
     0
  1
1:1
  0
DICTIONARYVAR
  5
139
102
{ACAD_REACTORS
330
134
102
}
330
134
100
DictionaryVariables
280
     0
  1
80.000000
  0
DICTIONARYVAR
  5
138
102
{ACAD_REACTORS
330
134
102
}
330
134
100
DictionaryVariables
280
     0
  1
5.000000
  0
ENDSEC
  0
EOF
