  0
SECTION
  2
HEADER
  9
$ACADVER
  1
AC1015
  9
$ACADMAINTVER
 70
     6
  9
$DWGCODEPAGE
  3
ANSI_1252
  9
$INSBASE
 10
0.0
 20
0.0
 30
0.0
  9
$EXTMIN
 10
0.0
 20
0.0
 30
0.0
  9
$EXTMAX
 10
1682.0
 20
2378.0
 30
0.0
  9
$LIMMIN
 10
0.0
 20
0.0
  9
$LIMMAX
 10
1682.0
 20
2378.0
  9
$ORTHOMODE
 70
     0
  9
$REGENMODE
 70
     1
  9
$FILLMODE
 70
     1
  9
$QTEXTMODE
 70
     0
  9
$MIRRTEXT
 70
     1
  9
$LTSCALE
 40
1.0
  9
$ATTMODE
 70
     1
  9
$TEXTSIZE
 40
2.5
  9
$TRACEWID
 40
1.0
  9
$TEXTSTYLE
  7
Standard
  9
$CLAYER
  8
0
  9
$CELTYPE
  6
ByLayer
  9
$CECOLOR
 62
   256
  9
$CELTSCALE
 40
1.0
  9
$DISPSILH
 70
     0
  9
$DIMSCALE
 40
1.0
  9
$DIMASZ
 40
2.5
  9
$DIMEXO
 40
0.625
  9
$DIMDLI
 40
3.75
  9
$DIMRND
 40
0.0
  9
$DIMDLE
 40
0.0
  9
$DIMEXE
 40
1.25
  9
$DIMTP
 40
0.0
  9
$DIMTM
 40
0.0
  9
$DIMTXT
 40
2.5
  9
$DIMCEN
 40
2.5
  9
$DIMTSZ
 40
0.0
  9
$DIMTOL
 70
     0
  9
$DIMLIM
 70
     0
  9
$DIMTIH
 70
     0
  9
$DIMTOH
 70
     0
  9
$DIMSE1
 70
     0
  9
$DIMSE2
 70
     0
  9
$DIMTAD
 70
     1
  9
$DIMZIN
 70
     8
  9
$DIMBLK
  1

  9
$DIMASO
 70
     1
  9
$DIMSHO
 70
     1
  9
$DIMPOST
  1

  9
$DIMAPOST
  1

  9
$DIMALT
 70
     0
  9
$DIMALTD
 70
     3
  9
$DIMALTF
 40
0.0393700787
  9
$DIMLFAC
 40
1.0
  9
$DIMTOFL
 70
     1
  9
$DIMTVP
 40
0.0
  9
$DIMTIX
 70
     0
  9
$DIMSOXD
 70
     0
  9
$DIMSAH
 70
     0
  9
$DIMBLK1
  1

  9
$DIMBLK2
  1

  9
$DIMSTYLE
  2
ISO-25
  9
$DIMCLRD
 70
     0
  9
$DIMCLRE
 70
     0
  9
$DIMCLRT
 70
     0
  9
$DIMTFAC
 40
1.0
  9
$DIMGAP
 40
0.625
  9
$DIMJUST
 70
     0
  9
$DIMSD1
 70
     0
  9
$DIMSD2
 70
     0
  9
$DIMTOLJ
 70
     0
  9
$DIMTZIN
 70
     8
  9
$DIMALTZ
 70
     0
  9
$DIMALTTZ
 70
     0
  9
$DIMUPT
 70
     0
  9
$DIMDEC
 70
     2
  9
$DIMTDEC
 70
     2
  9
$DIMALTU
 70
     2
  9
$DIMALTTD
 70
     3
  9
$DIMTXSTY
  7
Standard
  9
$DIMAUNIT
 70
     0
  9
$DIMADEC
 70
     0
  9
$DIMALTRND
 40
0.0
  9
$DIMAZIN
 70
     0
  9
$DIMDSEP
 70
    44
  9
$DIMATFIT
 70
     3
  9
$DIMFRAC
 70
     0
  9
$DIMLDRBLK
  1

  9
$DIMLUNIT
 70
     2
  9
$DIMLWD
 70
    -2
  9
$DIMLWE
 70
    -2
  9
$DIMTMOVE
 70
     0
  9
$LUNITS
 70
     2
  9
$LUPREC
 70
     4
  9
$SKETCHINC
 40
1.0
  9
$FILLETRAD
 40
10.0
  9
$AUNITS
 70
     0
  9
$AUPREC
 70
     0
  9
$MENU
  1
.
  9
$ELEVATION
 40
0.0
  9
$PELEVATION
 40
0.0
  9
$THICKNESS
 40
0.0
  9
$LIMCHECK
 70
     0
  9
$CHAMFERA
 40
10.0
  9
$CHAMFERB
 40
10.0
  9
$CHAMFERC
 40
20.0
  9
$CHAMFERD
 40
0.0
  9
$SKPOLY
 70
     0
  9
$TDCREATE
 40
2455153.439825382
  9
$TDUCREATE
 40
2455153.398158715
  9
$TDUPDATE
 40
2455153.439825394
  9
$TDUUPDATE
 40
2455153.398158727
  9
$TDINDWG
 40
0.0000000116
  9
$TDUSRTIMER
 40
0.0000000116
  9
$USRTIMER
 70
     1
  9
$ANGBASE
 50
0.0
  9
$ANGDIR
 70
     0
  9
$PDMODE
 70
     0
  9
$PDSIZE
 40
0.0
  9
$PLINEWID
 40
0.0
  9
$SPLFRAME
 70
     0
  9
$SPLINETYPE
 70
     6
  9
$SPLINESEGS
 70
     8
  9
$HANDSEED
  5
175
  9
$SURFTAB1
 70
     6
  9
$SURFTAB2
 70
     6
  9
$SURFTYPE
 70
     6
  9
$SURFU
 70
     6
  9
$SURFV
 70
     6
  9
$UCSBASE
  2

  9
$UCSNAME
  2

  9
$UCSORG
 10
0.0
 20
0.0
 30
0.0
  9
$UCSXDIR
 10
1.0
 20
0.0
 30
0.0
  9
$UCSYDIR
 10
0.0
 20
1.0
 30
0.0
  9
$UCSORTHOREF
  2

  9
$UCSORTHOVIEW
 70
     0
  9
$UCSORGTOP
 10
0.0
 20
0.0
 30
0.0
  9
$UCSORGBOTTOM
 10
0.0
 20
0.0
 30
0.0
  9
$UCSORGLEFT
 10
0.0
 20
0.0
 30
0.0
  9
$UCSORGRIGHT
 10
0.0
 20
0.0
 30
0.0
  9
$UCSORGFRONT
 10
0.0
 20
0.0
 30
0.0
  9
$UCSORGBACK
 10
0.0
 20
0.0
 30
0.0
  9
$PUCSBASE
  2

  9
$PUCSNAME
  2

  9
$PUCSORG
 10
0.0
 20
0.0
 30
0.0
  9
$PUCSXDIR
 10
1.0
 20
0.0
 30
0.0
  9
$PUCSYDIR
 10
0.0
 20
1.0
 30
0.0
  9
$PUCSORTHOREF
  2

  9
$PUCSORTHOVIEW
 70
     0
  9
$PUCSORGTOP
 10
0.0
 20
0.0
 30
0.0
  9
$PUCSORGBOTTOM
 10
0.0
 20
0.0
 30
0.0
  9
$PUCSORGLEFT
 10
0.0
 20
0.0
 30
0.0
  9
$PUCSORGRIGHT
 10
0.0
 20
0.0
 30
0.0
  9
$PUCSORGFRONT
 10
0.0
 20
0.0
 30
0.0
  9
$PUCSORGBACK
 10
0.0
 20
0.0
 30
0.0
  9
$USERI1
 70
     0
  9
$USERI2
 70
     0
  9
$USERI3
 70
     0
  9
$USERI4
 70
     0
  9
$USERI5
 70
     0
  9
$USERR1
 40
0.0
  9
$USERR2
 40
0.0
  9
$USERR3
 40
0.0
  9
$USERR4
 40
0.0
  9
$USERR5
 40
0.0
  9
$WORLDVIEW
 70
     1
  9
$SHADEDGE
 70
     3
  9
$SHADEDIF
 70
    70
  9
$TILEMODE
 70
     1
  9
$MAXACTVP
 70
    64
  9
$PINSBASE
 10
0.0
 20
0.0
 30
0.0
  9
$PLIMCHECK
 70
     0
  9
$PEXTMIN
 10
0.0
 20
0.0
 30
0.0
  9
$PEXTMAX
 10
1682.0
 20
2378.0
 30
0.0
  9
$PLIMMIN
 10
0.0
 20
0.0
  9
$PLIMMAX
 10
1682.0
 20
2378.0
  9
$UNITMODE
 70
     0
  9
$VISRETAIN
 70
     1
  9
$PLINEGEN
 70
     0
  9
$PSLTSCALE
 70
     1
  9
$TREEDEPTH
 70
  3020
  9
$CMLSTYLE
  2
Standard
  9
$CMLJUST
 70
     0
  9
$CMLSCALE
 40
20.0
  9
$PROXYGRAPHICS
 70
     1
  9
$MEASUREMENT
 70
     1
  9
$CELWEIGHT
370
    -1
  9
$ENDCAPS
280
     0
  9
$JOINSTYLE
280
     0
  9
$LWDISPLAY
290
     0
  9
$INSUNITS
 70
     4
  9
$HYPERLINKBASE
  1

  9
$STYLESHEET
  1

  9
$XEDIT
290
     1
  9
$CEPSNTYPE
380
     0
  9
$PSTYLEMODE
290
     1
  9
$FINGERPRINTGUID
  2
{408F1555-9A49-4EA6-8ADB-A9FAF35A5D77}
  9
$VERSIONGUID
  2
{FAEB1C32-E019-11D5-929B-00C0DF256EC4}
  9
$EXTNAMES
290
     1
  9
$PSVPSCALE
 40
0.0
  9
$OLESTARTUP
290
     0
  0
ENDSEC
  0
SECTION
  2
CLASSES
  0
CLASS
  1
ACDBDICTIONARYWDFLT
  2
AcDbDictionaryWithDefault
  3
ObjectDBX Classes
 90
        0
280
     0
281
     0
  0
CLASS
  1
VISUALSTYLE
  2
AcDbVisualStyle
  3
ObjectDBX Classes
 90
     4095
280
     0
281
     0
  0
CLASS
  1
SCALE
  2
AcDbScale
  3
ObjectDBX Classes
 90
     1153
280
     0
281
     0
  0
CLASS
  1
DICTIONARYVAR
  2
AcDbDictionaryVar
  3
ObjectDBX Classes
 90
        0
280
     0
281
     0
  0
CLASS
  1
ACDBPLACEHOLDER
  2
AcDbPlaceHolder
  3
ObjectDBX Classes
 90
        0
280
     0
281
     0
  0
CLASS
  1
LAYOUT
  2
AcDbLayout
  3
ObjectDBX Classes
 90
        0
280
     0
281
     0
  0
ENDSEC
  0
SECTION
  2
TABLES
  0
TABLE
  2
VPORT
  5
8
330
0
100
AcDbSymbolTable
 70
     1
  0
VPORT
  5
29
330
8
100
AcDbSymbolTableRecord
100
AcDbViewportTableRecord
  2
*Active
 70
     0
 10
0.0
 20
0.0
 11
1.0
 21
1.0
 12
344.1869158879
 22
148.5
 13
0.0
 23
0.0
 14
10.0
 24
10.0
 15
10.0
 25
10.0
 16
0.0
 26
0.0
 36
1.0
 17
0.0
 27
0.0
 37
0.0
 40
297.0
 41
1.9729729729
 42
50.0
 43
0.0
 44
0.0
 50
0.0
 51
0.0
 71
     0
 72
   100
 73
     1
 74
     3
 75
     0
 76
     0
 77
     0
 78
     0
281
     0
 65
     1
110
0.0
120
0.0
130
0.0
111
1.0
121
0.0
131
0.0
112
0.0
122
1.0
132
0.0
 79
     0
146
0.0
  0
ENDTAB
  0
TABLE
  2
LTYPE
  5
5
330
0
100
AcDbSymbolTable
 70
     1
  0
LTYPE
  5
14
330
5
100
AcDbSymbolTableRecord
100
AcDbLinetypeTableRecord
  2
ByBlock
 70
     0
  3

 72
    65
 73
     0
 40
0.0
  0
LTYPE
  5
15
330
5
100
AcDbSymbolTableRecord
100
AcDbLinetypeTableRecord
  2
ByLayer
 70
     0
  3

 72
    65
 73
     0
 40
0.0
  0
LTYPE
  5
16
330
5
100
AcDbSymbolTableRecord
100
AcDbLinetypeTableRecord
  2
Continuous
 70
     0
  3
Solid line
 72
    65
 73
     0
 40
0.0
  0
ENDTAB
  0
TABLE
  2
LAYER
  5
2
330
0
100
AcDbSymbolTable
 70
    10
  0
LAYER
  5
10
330
2
100
AcDbSymbolTableRecord
100
AcDbLayerTableRecord
  2
0
 70
     0
 62
     7
  6
Continuous
370
    -3
390
F
  0
LAYER
  5
5D
330
2
100
AcDbSymbolTableRecord
100
AcDbLayerTableRecord
  2
Default
 70
     0
 62
     7
  6
Continuous
370
    -3
390
F
  0
LAYER
  5
60
330
2
100
AcDbSymbolTableRecord
100
AcDbLayerTableRecord
  2
$DDT_AUDIT_GENERATED_(60)
 70
     0
 62
     7
  6
Continuous
370
    -3
390
F
  0
LAYER
  5
63
330
2
100
AcDbSymbolTableRecord
100
AcDbLayerTableRecord
  2
$DDT_AUDIT_GENERATED_(63)
 70
     0
 62
     7
  6
Continuous
370
    -3
390
F
  0
LAYER
  5
65
330
2
100
AcDbSymbolTableRecord
100
AcDbLayerTableRecord
  2
$DDT_AUDIT_GENERATED_(65)
 70
     0
 62
     7
  6
Continuous
370
    -3
390
F
  0
LAYER
  5
6A
330
2
100
AcDbSymbolTableRecord
100
AcDbLayerTableRecord
  2
$DDT_AUDIT_GENERATED_(6A)
 70
     0
 62
     7
  6
Continuous
370
    -3
390
F
  0
LAYER
  5
7E
330
2
100
AcDbSymbolTableRecord
100
AcDbLayerTableRecord
  2
$DDT_AUDIT_GENERATED_(7E)
 70
     0
 62
     7
  6
Continuous
370
    -3
390
F
  0
LAYER
  5
95
330
2
100
AcDbSymbolTableRecord
100
AcDbLayerTableRecord
  2
$DDT_AUDIT_GENERATED_(95)
 70
     0
 62
     7
  6
Continuous
370
    -3
390
F
  0
LAYER
  5
C3
330
2
100
AcDbSymbolTableRecord
100
AcDbLayerTableRecord
  2
$DDT_AUDIT_GENERATED_(C3)
 70
     0
 62
     7
  6
Continuous
370
    -3
390
F
  0
LAYER
  5
E1
330
2
100
AcDbSymbolTableRecord
100
AcDbLayerTableRecord
  2
$DDT_AUDIT_GENERATED_(E1)
 70
     0
 62
     7
  6
Continuous
370
    -3
390
F
  0
ENDTAB
  0
TABLE
  2
STYLE
  5
3
330
0
100
AcDbSymbolTable
 70
     2
  0
STYLE
  5
11
330
3
100
AcDbSymbolTableRecord
100
AcDbTextStyleTableRecord
  2
Standard
 70
     0
 40
0.0
 41
1.0
 50
0.0
 71
     0
 42
2.5
  3
txt
  4

  0
STYLE
  5
164
330
3
100
AcDbSymbolTableRecord
100
AcDbTextStyleTableRecord
  2
SEACAD_seiso_ttf
 70
     0
 40
0.0
 41
1.0
 50
0.0
 71
     0
 42
0.2
  3
seiso.ttf
  4

  0
ENDTAB
  0
TABLE
  2
VIEW
  5
6
330
0
100
AcDbSymbolTable
 70
     0
  0
ENDTAB
  0
TABLE
  2
UCS
  5
7
330
0
100
AcDbSymbolTable
 70
     0
  0
ENDTAB
  0
TABLE
  2
APPID
  5
9
330
0
100
AcDbSymbolTable
 70
     1
  0
APPID
  5
12
330
9
100
AcDbSymbolTableRecord
100
AcDbRegAppTableRecord
  2
ACAD
 70
     0
  0
ENDTAB
  0
TABLE
  2
DIMSTYLE
  5
A
330
0
100
AcDbSymbolTable
 70
     1
100
AcDbDimStyleTable
  0
DIMSTYLE
105
27
330
A
100
AcDbSymbolTableRecord
100
AcDbDimStyleTableRecord
  2
ISO-25
 70
     0
 41
2.5
 42
0.625
 43
3.75
 44
1.25
 73
     0
 74
     0
 77
     1
 78
     8
140
2.5
141
2.5
143
0.0393700787
147
0.625
171
     3
172
     1
271
     2
272
     2
274
     3
278
    44
283
     0
284
     8
340
11
  0
ENDTAB
  0
TABLE
  2
BLOCK_RECORD
  5
1
330
0
100
AcDbSymbolTable
 70
     4
  0
BLOCK_RECORD
  5
1F
330
1
100
AcDbSymbolTableRecord
100
AcDbBlockTableRecord
  2
*Model_Space
340
22
  0
BLOCK_RECORD
  5
1B
330
1
100
AcDbSymbolTableRecord
100
AcDbBlockTableRecord
  2
*Paper_Space
340
1E
  0
BLOCK_RECORD
  5
5E
330
1
100
AcDbSymbolTableRecord
100
AcDbBlockTableRecord
  2
SE
340
0
102
{BLKREFS
331
5F
102
}
  0
BLOCK_RECORD
  5
8B
330
1
100
AcDbSymbolTableRecord
100
AcDbBlockTableRecord
  2
SE1
340
0
102
{BLKREFS
331
8C
102
}
  0
BLOCK_RECORD
  5
F0
330
1
100
AcDbSymbolTableRecord
100
AcDbBlockTableRecord
  2
SE2
340
0
102
{BLKREFS
331
F1
102
}
  0
ENDTAB
  0
ENDSEC
  0
SECTION
  2
BLOCKS
  0
BLOCK
  5
20
330
1F
100
AcDbEntity
  8
0
100
AcDbBlockBegin
  2
*Model_Space
 70
     0
 10
0.0
 20
0.0
 30
0.0
  3
*Model_Space
  1

  0
ENDBLK
  5
21
330
1F
100
AcDbEntity
  8
0
100
AcDbBlockEnd
  0
BLOCK
  5
1C
330
1B
100
AcDbEntity
 67
     1
  8
0
100
AcDbBlockBegin
  2
*Paper_Space
 70
     0
 10
0.0
 20
0.0
 30
0.0
  3
*Paper_Space
  1

  0
ENDBLK
  5
1D
330
1B
100
AcDbEntity
 67
     1
  8
0
100
AcDbBlockEnd
  0
BLOCK
  5
89
330
5E
100
AcDbEntity
  8
0
100
AcDbBlockBegin
  2
SE
 70
     0
 10
0.0
 20
0.0
 30
0.0
  3
SE
  1

  0
ARC
  5
61
330
5E
100
AcDbEntity
  8
$DDT_AUDIT_GENERATED_(60)
  6
Continuous
 62
     7
100
AcDbCircle
 10
108.1092056388
 20
301.3905814194
 30
0.0
 40
24.44978065664821
100
AcDbArc
 50
0.0
 51
224.3487668298
  0
ARC
  5
62
330
5E
100
AcDbEntity
  8
$DDT_AUDIT_GENERATED_(60)
  6
Continuous
 62
     7
100
AcDbCircle
 10
108.1092056388
 20
301.3905814194
 30
0.0
 40
24.44978065664821
100
AcDbArc
 50
315.6444353714
 51
0.0
  0
CIRCLE
  5
64
330
5E
100
AcDbEntity
  8
$DDT_AUDIT_GENERATED_(63)
  6
Continuous
 62
     7
100
AcDbCircle
 10
108.1092374978
 20
356.3905715802
 30
0.0
 40
5.102040816326531
  0
CIRCLE
  5
66
330
5E
100
AcDbEntity
  8
$DDT_AUDIT_GENERATED_(65)
  6
Continuous
 62
     7
100
AcDbCircle
 10
108.1092374978
 20
301.3905715802
 30
0.0
 40
94.24999999999999
  0
CIRCLE
  5
67
330
5E
100
AcDbEntity
  8
$DDT_AUDIT_GENERATED_(65)
  6
Continuous
 62
     7
100
AcDbCircle
 10
108.1092367966
 20
356.3905710385
 30
0.0
 40
6.350000429791384
  0
ARC
  5
68
330
5E
100
AcDbEntity
  8
$DDT_AUDIT_GENERATED_(65)
  6
Continuous
 62
     7
100
AcDbCircle
 10
108.1092374978
 20
301.3905715802
 30
0.0
 40
26.55
100
AcDbArc
 50
0.0
 51
228.8485254164
  0
ARC
  5
69
330
5E
100
AcDbEntity
  8
$DDT_AUDIT_GENERATED_(65)
  6
Continuous
 62
     7
100
AcDbCircle
 10
108.1092374978
 20
301.3905715802
 30
0.0
 40
26.55
100
AcDbArc
 50
311.1614334367
 51
0.0
  0
ARC
  5
6B
330
5E
100
AcDbEntity
  8
$DDT_AUDIT_GENERATED_(6A)
  6
Continuous
 62
     7
100
AcDbCircle
 10
108.116422275
 20
301.3898639323
 30
0.0
 40
20.74281523403575
100
AcDbArc
 50
337.4942396952
 51
0.0018850492
  0
ARC
  5
6C
330
5E
100
AcDbEntity
  8
$DDT_AUDIT_GENERATED_(6A)
  6
Continuous
 62
     7
100
AcDbCircle
 10
108.0947074508
 20
301.3920026481
 30
0.0
 40
20.73547000240975
100
AcDbArc
 50
157.4886292179
 51
180.0039542714
  0
ARC
  5
6D
330
5E
100
AcDbEntity
  8
$DDT_AUDIT_GENERATED_(6A)
  6
Continuous
 62
     7
100
AcDbCircle
 10
108.1179672733
 20
301.384308681
 30
0.0
 40
20.73926197963637
100
AcDbArc
 50
327.5399685422
 51
337.5067843824
  0
ARC
  5
6E
330
5E
100
AcDbEntity
  8
$DDT_AUDIT_GENERATED_(6A)
  6
Continuous
 62
     7
100
AcDbCircle
 10
108.1079823747
 20
301.3886088958
 30
0.0
 40
20.7475764030687
100
AcDbArc
 50
207.7811357195
 51
212.4757312297
  0
LINE
  5
6F
330
5E
100
AcDbEntity
  8
$DDT_AUDIT_GENERATED_(6A)
  6
Continuous
 62
     7
100
AcDbLine
 10
89.7515336843
 20
291.718073935
 30
0.0
 11
88.9387368571
 21
293.449891182
 31
0.0
  0
ARC
  5
70
330
5E
100
AcDbEntity
  8
$DDT_AUDIT_GENERATED_(6A)
  6
Continuous
 62
     7
100
AcDbCircle
 10
108.0948722884
 20
301.3891567318
 30
0.0
 40
20.73563483884816
100
AcDbArc
 50
179.996090531
 51
202.5115609296
  0
ARC
  5
71
330
5E
100
AcDbEntity
  8
$DDT_AUDIT_GENERATED_(6A)
  6
Continuous
 62
     7
100
AcDbCircle
 10
108.1108188553
 20
301.3785851481
 30
0.0
 40
20.76146813377761
100
AcDbArc
 50
90.0043926961
 51
110.13445774
  0
ARC
  5
72
330
5E
100
AcDbEntity
  8
$DDT_AUDIT_GENERATED_(6A)
  6
Continuous
 62
     7
100
AcDbCircle
 10
108.1108188553
 20
301.3785851481
 30
0.0
 40
20.76146813377761
100
AcDbArc
 50
110.13445774
 51
112.4914272287
  0
ARC
  5
73
330
5E
100
AcDbEntity
  8
$DDT_AUDIT_GENERATED_(6A)
  6
Continuous
 62
     7
100
AcDbCircle
 10
108.1272997647
 20
301.3623140272
 30
0.0
 40
20.7828082635176
100
AcDbArc
 50
112.5162471182
 51
132.07857251
  0
LINE
  5
74
330
5E
100
AcDbEntity
  8
$DDT_AUDIT_GENERATED_(6A)
  6
Continuous
 62
     7
100
AcDbLine
 10
94.1995394766
 20
316.7880649138
 30
0.0
 11
93.43671959
 21
316.0629850914
 31
0.0
  0
ARC
  5
75
330
5E
100
AcDbEntity
  8
$DDT_AUDIT_GENERATED_(6A)
  6
Continuous
 62
     7
100
AcDbCircle
 10
108.1197888135
 20
301.3848342014
 30
0.0
 40
20.76138502874888
100
AcDbArc
 50
135.0095978123
 51
157.496854819
  0
ARC
  5
76
330
5E
100
AcDbEntity
  8
$DDT_AUDIT_GENERATED_(6A)
  6
Continuous
 62
     7
100
AcDbCircle
 10
108.096216624
 20
301.3865204236
 30
0.0
 40
20.76302126406364
100
AcDbArc
 50
0.0111096629
 51
22.4962879919
  0
LINE
  5
77
330
5E
100
AcDbEntity
  8
$DDT_AUDIT_GENERATED_(6A)
  6
Continuous
 62
     7
100
AcDbLine
 10
127.2797758977
 20
309.331160819
 30
0.0
 11
126.4669415167
 21
311.0630688355
 31
0.0
  0
ARC
  5
78
330
5E
100
AcDbEntity
  8
$DDT_AUDIT_GENERATED_(6A)
  6
Continuous
 62
     7
100
AcDbCircle
 10
108.0327066228
 20
301.3380085907
 30
0.0
 40
20.84180901109509
100
AcDbArc
 50
27.8140823745
 51
42.2760767361
  0
LINE
  5
79
330
5E
100
AcDbEntity
  8
$DDT_AUDIT_GENERATED_(6A)
  6
Continuous
 62
     7
100
AcDbLine
 10
123.4539396665
 20
315.3584853597
 30
0.0
 11
122.7817500156
 21
316.0629904814
 31
0.0
  0
ARC
  5
7A
330
5E
100
AcDbEntity
  8
$DDT_AUDIT_GENERATED_(6A)
  6
Continuous
 62
     7
100
AcDbCircle
 10
108.0928074626
 20
301.3656216079
 30
0.0
 40
20.77912781286814
100
AcDbArc
 50
45.0164291734
 51
67.4843228975
  0
ARC
  5
7B
330
5E
100
AcDbEntity
  8
$DDT_AUDIT_GENERATED_(6A)
  6
Continuous
 62
     7
100
AcDbCircle
 10
108.1049088766
 20
301.3694136141
 30
0.0
 40
20.77099306102338
100
AcDbArc
 50
67.5111540393
 51
69.8697763722
  0
ARC
  5
7C
330
5E
100
AcDbEntity
  8
$DDT_AUDIT_GENERATED_(6A)
  6
Continuous
 62
     7
100
AcDbCircle
 10
108.1049088766
 20
301.3694136141
 30
0.0
 40
20.77099306102338
100
AcDbArc
 50
69.8697763722
 51
89.9880606816
  0
ARC
  5
7D
330
5E
100
AcDbEntity
  8
$DDT_AUDIT_GENERATED_(6A)
  6
Continuous
 62
     7
100
AcDbCircle
 10
108.1092374978
 20
301.3905724755
 30
0.0
 40
15.29598109307345
100
AcDbArc
 50
11.7375957652
 51
168.5956851695
  0
LINE
  5
7F
330
5E
100
AcDbEntity
  8
$DDT_AUDIT_GENERATED_(7E)
  6
Continuous
 62
     7
100
AcDbLine
 10
125.583992174
 20
230.4850889655
 30
0.0
 11
125.5839921731
 21
295.5550889655
 31
0.0
  0
LINE
  5
80
330
5E
100
AcDbEntity
  8
$DDT_AUDIT_GENERATED_(7E)
  6
Continuous
 62
     7
100
AcDbLine
 10
120.0609747679
 20
230.4850889655
 30
0.0
 11
120.0609747679
 21
295.5550889655
 31
0.0
  0
ARC
  5
81
330
5E
100
AcDbEntity
  8
$DDT_AUDIT_GENERATED_(7E)
  6
Continuous
 62
     7
100
AcDbCircle
 10
108.1109747679
 20
230.4850889655
 30
0.0
 40
11.95
100
AcDbArc
 50
180.0
 51
0.0
  0
LINE
  5
82
330
5E
100
AcDbEntity
  8
$DDT_AUDIT_GENERATED_(7E)
  6
Continuous
 62
     7
100
AcDbLine
 10
96.1609747679
 20
230.4850889655
 30
0.0
 11
96.1609747679
 21
295.5550889655
 31
0.0
  0
ARC
  5
83
330
5E
100
AcDbEntity
  8
$DDT_AUDIT_GENERATED_(7E)
  6
Continuous
 62
     7
100
AcDbCircle
 10
108.1109747679
 20
295.5550889655
 30
0.0
 40
11.95
100
AcDbArc
 50
0.0
 51
180.0
  0
LINE
  5
84
330
5E
100
AcDbEntity
  8
$DDT_AUDIT_GENERATED_(7E)
  6
Continuous
 62
     7
100
AcDbLine
 10
90.637957362
 20
295.5550889655
 30
0.0
 11
90.6379573618
 21
230.4850889655
 31
0.0
  0
ARC
  5
85
330
5E
100
AcDbEntity
  8
$DDT_AUDIT_GENERATED_(7E)
  6
Continuous
 62
     7
100
AcDbCircle
 10
108.1109747679
 20
295.5550889655
 30
0.0
 40
17.47301740523021
100
AcDbArc
 50
0.0
 51
180.0
  0
CIRCLE
  5
86
330
5E
100
AcDbEntity
  8
$DDT_AUDIT_GENERATED_(7E)
  6
Continuous
 62
     7
100
AcDbCircle
 10
108.1109747679
 20
295.5550889655
 30
0.0
 40
10.45
  0
ARC
  5
87
330
5E
100
AcDbEntity
  8
$DDT_AUDIT_GENERATED_(7E)
  6
Continuous
 62
     7
100
AcDbCircle
 10
108.1109747679
 20
230.4850889655
 30
0.0
 40
17.47332201491
100
AcDbArc
 50
180.0
 51
270.0
  0
ARC
  5
88
330
5E
100
AcDbEntity
  8
$DDT_AUDIT_GENERATED_(7E)
  6
Continuous
 62
     7
100
AcDbCircle
 10
108.1109747679
 20
230.4850889655
 30
0.0
 40
17.47332201491
100
AcDbArc
 50
270.0
 51
0.0
  0
ENDBLK
  5
8A
330
5E
100
AcDbEntity
  8
0
100
AcDbBlockEnd
  0
BLOCK
  5
EE
330
8B
100
AcDbEntity
  8
0
100
AcDbBlockBegin
  2
SE1
 70
     0
 10
0.0
 20
0.0
 30
0.0
  3
SE1
  1

  0
SPLINE
  5
8D
330
8B
100
AcDbEntity
  8
$DDT_AUDIT_GENERATED_(60)
  6
Continuous
 62
     7
100
AcDbSpline
210
0.0
220
0.0
230
1.0
 70
     8
 71
     3
 72
    40
 73
    36
 74
     0
 42
0.0000000001177891
 43
0.0000000001
 40
0.0014784729965114
 40
0.0014784729965114
 40
0.0014784729965114
 40
0.0014784729965114
 40
0.0312499999999999
 40
0.0312499999999999
 40
0.0624999999999998
 40
0.0624999999999998
 40
0.0937499999999997
 40
0.0937499999999997
 40
0.1249999999999996
 40
0.1249999999999996
 40
0.1562499999999996
 40
0.1562499999999996
 40
0.1874999999999996
 40
0.1874999999999996
 40
0.2187499999999997
 40
0.2187499999999997
 40
0.2499999999999997
 40
0.2499999999999997
 40
0.2812499999999997
 40
0.2812499999999997
 40
0.3124999999999997
 40
0.3124999999999997
 40
0.3437499999999997
 40
0.3437499999999997
 40
0.3749999999999997
 40
0.3749999999999997
 40
0.4062499999999998
 40
0.4062499999999998
 40
0.4374999999999998
 40
0.4374999999999998
 40
0.4687499999999998
 40
0.4687499999999998
 40
0.4999999999999999
 40
0.4999999999999999
 40
0.5000036731042068
 40
0.5000036731042068
 40
0.5000036731042068
 40
0.5000036731042068
 10
303.455768291064
 20
280.2292917074937
 30
0.0
 10
303.4556283657075
 20
280.2416137562041
 30
0.0
 10
303.4541200246962
 20
280.3778803901563
 30
0.0
 10
303.4515585283257
 20
280.9014889957218
 30
0.0
 10
303.4505367847487
 20
281.307448969266
 30
0.0
 10
303.4505335228752
 20
282.3676068567652
 30
0.0
 10
303.451529718457
 20
283.0164170231574
 30
0.0
 10
303.4541555664179
 20
284.5492445981052
 30
0.0
 10
303.4557786373901
 20
285.4389018213353
 30
0.0
 10
303.4557789903241
 20
287.4140655906505
 30
0.0
 10
303.4541822996987
 20
288.4819280444389
 30
0.0
 10
303.4515586952947
 20
290.7717549015449
 30
0.0
 10
303.4505368647838
 20
292.0081810715522
 30
0.0
 10
303.4505334432872
 20
294.5685485315961
 30
0.0
 10
303.4515295700539
 20
295.8861617370242
 30
0.0
 10
303.4541553928248
 20
298.5955363746992
 30
0.0
 10
303.4557785113216
 20
299.9935272126934
 30
0.0
 10
303.4557791163393
 20
302.7868685976401
 30
0.0
 10
303.4541824488286
 20
304.1602553355656
 30
0.0
 10
303.4515588093946
 20
306.8623012595583
 30
0.0
 10
303.4505369181496
 20
308.2049295796831
 30
0.0
 10
303.4505333902313
 20
310.7657129350533
 30
0.0
 10
303.4515294738442
 20
311.9803048187001
 30
0.0
 10
303.4541552841284
 20
314.2791407073237
 30
0.0
 10
303.4557784356751
 20
315.3665545032356
 30
0.0
 10
303.4557791919401
 20
317.3417955624349
 30
0.0
 10
303.4541825338453
 20
318.2162037610518
 30
0.0
 10
303.4515588706194
 20
319.7476626434358
 30
0.0
 10
303.450536944838
 20
320.4100067248914
 30
0.0
 10
303.4505333637013
 20
321.4711405712374
 30
0.0
 10
303.4515294298238
 20
321.8712216177239
 30
0.0
 10
303.4541552403308
 20
322.4128935294102
 30
0.0
 10
303.4557784104572
 20
322.5527367587772
 30
0.0
 10
303.4557788138463
 20
322.5527696229098
 30
0.0
 10
303.4557788138716
 20
322.5527696248819
 30
0.0
 10
303.4557788138749
 20
322.5527696249636
 30
0.0
  0
ARC
  5
8E
330
8B
100
AcDbEntity
  8
$DDT_AUDIT_GENERATED_(60)
  6
Continuous
 62
     7
100
AcDbCircle
 10
-4098.1021005044
 20
301.3918627459
 30
0.0
 40
4398.876110631514
100
AcDbArc
 50
359.6632961537
 51
0.3366801767
  0
LINE
  5
8F
330
8B
100
AcDbEntity
  8
$DDT_AUDIT_GENERATED_(60)
  6
Continuous
 62
     7
100
AcDbLine
 10
275.4664018964
 20
275.3207431862
 30
0.0
 11
300.6982319867
 21
275.5409267354
 31
0.0
  0
LINE
  5
90
330
8B
100
AcDbEntity
  8
$DDT_AUDIT_GENERATED_(60)
  6
Continuous
 62
     7
100
AcDbLine
 10
300.6976898804
 20
327.2402211556
 30
0.0
 11
275.4664018964
 21
327.4603999741
 31
0.0
  0
SPLINE
  5
91
330
8B
100
AcDbEntity
  8
$DDT_AUDIT_GENERATED_(60)
  6
Continuous
 62
     7
100
AcDbSpline
210
0.0
220
0.0
230
1.0
 70
     8
 71
     3
 72
     8
 73
     4
 74
     0
 42
0.0000000028747049
 43
0.0000000001
 40
0.0
 40
0.0
 40
0.0
 40
0.0
 40
1.0
 40
1.0
 40
1.0
 40
1.0
 10
302.5719001937833
 20
276.8874268161189
 30
0.0
 10
302.9268735373741
 20
278.0101408086799
 30
0.0
 10
303.2228808709108
 20
279.1303164003824
 30
0.0
 10
303.4599221943933
 20
280.2479535912264
 30
0.0
  0
SPLINE
  5
92
330
8B
100
AcDbEntity
  8
$DDT_AUDIT_GENERATED_(60)
  6
Continuous
 62
     7
100
AcDbSpline
210
0.0
220
0.0
230
1.0
 70
     8
 71
     3
 72
     8
 73
     4
 74
     0
 42
0.0000000028747049
 43
0.0000000001
 40
0.0
 40
0.0
 40
0.0
 40
0.0
 40
1.0
 40
1.0
 40
1.0
 40
1.0
 10
303.4599221943933
 20
322.533189569116
 30
0.0
 10
303.2228808709107
 20
323.65082675996
 30
0.0
 10
302.926873537374
 20
324.7710023516625
 30
0.0
 10
302.5719001937834
 20
325.8937163442236
 30
0.0
  0
ARC
  5
93
330
8B
100
AcDbEntity
  8
$DDT_AUDIT_GENERATED_(60)
  6
Continuous
 62
     7
100
AcDbCircle
 10
300.7035198526
 20
325.2435306886
 30
0.0
 40
1.957652939913307
100
AcDbArc
 50
16.9483530564
 51
90.1770660996
  0
ARC
  5
94
330
8B
100
AcDbEntity
  8
$DDT_AUDIT_GENERATED_(60)
  6
Continuous
 62
     7
100
AcDbCircle
 10
300.7063283414
 20
277.5316918852
 30
0.0
 40
1.958602188431675
100
AcDbArc
 50
269.7351234247
 51
343.1387477971
  0
LINE
  5
96
330
8B
100
AcDbEntity
  8
$DDT_AUDIT_GENERATED_(95)
  6
Continuous
 62
     7
100
AcDbLine
 10
280.2223847836
 20
350.6905715802
 30
0.0
 11
280.2223847836
 21
362.0905715802
 31
0.0
  0
LINE
  5
97
330
8B
100
AcDbEntity
  8
$DDT_AUDIT_GENERATED_(95)
  6
Continuous
 62
     7
100
AcDbLine
 10
275.3246971689
 20
350.3905715802
 30
0.0
 11
279.9223847836
 21
350.3905715802
 31
0.0
  0
LINE
  5
98
330
8B
100
AcDbEntity
  8
$DDT_AUDIT_GENERATED_(95)
  6
Continuous
 62
     7
100
AcDbLine
 10
279.9223847836
 20
362.3905715802
 30
0.0
 11
275.2146924855
 21
362.3905715802
 31
0.0
  0
ARC
  5
99
330
8B
100
AcDbEntity
  8
$DDT_AUDIT_GENERATED_(95)
  6
Continuous
 62
     7
100
AcDbCircle
 10
279.9223847836
 20
350.6905715802
 30
0.0
 40
0.3000000000000017
100
AcDbArc
 50
270.0
 51
0.0
  0
ARC
  5
9A
330
8B
100
AcDbEntity
  8
$DDT_AUDIT_GENERATED_(95)
  6
Continuous
 62
     7
100
AcDbCircle
 10
279.9223847836
 20
362.0905715802
 30
0.0
 40
0.3000000000000086
100
AcDbArc
 50
0.0
 51
90.0
  0
LINE
  5
9B
330
8B
100
AcDbEntity
  8
$DDT_AUDIT_GENERATED_(63)
  6
Continuous
 62
     7
100
AcDbLine
 10
297.6379235967
 20
350.3905715802
 30
0.0
 11
297.6379235967
 21
362.3905715802
 31
0.0
  0
LINE
  5
9C
330
8B
100
AcDbEntity
  8
$DDT_AUDIT_GENERATED_(63)
  6
Continuous
 62
     7
100
AcDbLine
 10
295.7014319236
 20
351.8905715802
 30
0.0
 11
295.7014319236
 21
360.8905715802
 31
0.0
  0
LINE
  5
9D
330
8B
100
AcDbEntity
  8
$DDT_AUDIT_GENERATED_(63)
  6
Continuous
 62
     7
100
AcDbLine
 10
300.4139081879
 20
350.3905715802
 30
0.0
 11
300.4139081879
 21
362.3905715802
 31
0.0
  0
ARC
  5
9E
330
8B
100
AcDbEntity
  8
$DDT_AUDIT_GENERATED_(63)
  6
Continuous
 62
     7
100
AcDbCircle
 10
251.6696777601
 20
356.3905715802
 30
0.0
 40
49.99999999999999
100
AcDbArc
 50
354.1432980901
 51
5.8567019099
  0
LINE
  5
9F
330
8B
100
AcDbEntity
  8
$DDT_AUDIT_GENERATED_(63)
  6
Continuous
 62
     7
100
AcDbLine
 10
297.6379235967
 20
350.3905715802
 30
0.0
 11
300.4139081879
 21
350.3905715802
 31
0.0
  0
LINE
  5
A0
330
8B
100
AcDbEntity
  8
$DDT_AUDIT_GENERATED_(63)
  6
Continuous
 62
     7
100
AcDbLine
 10
300.4139081879
 20
362.3905715802
 30
0.0
 11
297.6379235967
 21
362.3905715802
 31
0.0
  0
ARC
  5
A1
330
8B
100
AcDbEntity
  8
$DDT_AUDIT_GENERATED_(63)
  6
Continuous
 62
     7
100
AcDbCircle
 10
297.6379235967
 20
351.3905715802
 30
0.0
 40
1.000000000000009
100
AcDbArc
 50
194.4775121859
 51
270.0
  0
ARC
  5
A2
330
8B
100
AcDbEntity
  8
$DDT_AUDIT_GENERATED_(63)
  6
Continuous
 62
     7
100
AcDbCircle
 10
297.6379235967
 20
361.3905715802
 30
0.0
 40
1.000000000000001
100
AcDbArc
 50
90.0
 51
165.5224878141
  0
ARC
  5
A3
330
8B
100
AcDbEntity
  8
$DDT_AUDIT_GENERATED_(63)
  6
Continuous
 62
     7
100
AcDbCircle
 10
295.7014319236
 20
350.8905715802
 30
0.0
 40
1.000000000000001
100
AcDbArc
 50
14.4775121859
 51
90.0
  0
ARC
  5
A4
330
8B
100
AcDbEntity
  8
$DDT_AUDIT_GENERATED_(63)
  6
Continuous
 62
     7
100
AcDbCircle
 10
295.7014319236
 20
361.8905715802
 30
0.0
 40
0.9999999999999941
100
AcDbArc
 50
270.0
 51
345.5224878141
  0
LINE
  5
A5
330
8B
100
AcDbEntity
  8
$DDT_AUDIT_GENERATED_(63)
  6
Continuous
 62
     7
100
AcDbLine
 10
280.2223847836
 20
351.8905715802
 30
0.0
 11
295.7014319236
 21
351.8905715802
 31
0.0
  0
LINE
  5
A6
330
8B
100
AcDbEntity
  8
$DDT_AUDIT_GENERATED_(63)
  6
Continuous
 62
     7
100
AcDbLine
 10
295.7014319236
 20
360.8905715802
 30
0.0
 11
280.2223847836
 21
360.8905715802
 31
0.0
  0
ARC
  5
A7
330
8B
100
AcDbEntity
  8
$DDT_AUDIT_GENERATED_(63)
  6
Continuous
 62
     7
100
AcDbCircle
 10
300.4139081879
 20
351.3905715802
 30
0.0
 40
1.000000000000001
100
AcDbArc
 50
270.0
 51
354.1432980901
  0
ARC
  5
A8
330
8B
100
AcDbEntity
  8
$DDT_AUDIT_GENERATED_(63)
  6
Continuous
 62
     7
100
AcDbCircle
 10
300.4139081879
 20
361.3905715802
 30
0.0
 40
0.9999999999999852
100
AcDbArc
 50
5.8567019099
 51
90.0
  0
LINE
  5
A9
330
8B
100
AcDbEntity
  8
$DDT_AUDIT_GENERATED_(65)
  6
Continuous
 62
     7
100
AcDbLine
 10
273.2095753625
 20
395.6405715802
 30
0.0
 11
273.2095753625
 21
207.1405715802
 31
0.0
  0
LINE
  5
AA
330
8B
100
AcDbEntity
  8
$DDT_AUDIT_GENERATED_(65)
  6
Continuous
 62
     7
100
AcDbLine
 10
275.3279056087
 20
350.0405715869
 30
0.0
 11
275.2114840211
 21
362.740567693
 31
0.0
  0
LINE
  5
AB
330
8B
100
AcDbEntity
  8
$DDT_AUDIT_GENERATED_(65)
  6
Continuous
 62
     7
100
AcDbLine
 10
275.4664018964
 20
327.9405715802
 30
0.0
 11
275.4664018964
 21
274.8405715802
 31
0.0
  0
LINE
  5
AC
330
8B
100
AcDbEntity
  8
$DDT_AUDIT_GENERATED_(65)
  6
Continuous
 62
     7
100
AcDbLine
 10
261.7313839013
 20
208.8747262499
 30
0.0
 11
261.7259138708
 21
209.0257944048
 31
0.0
  0
LINE
  5
AD
330
8B
100
AcDbEntity
  8
$DDT_AUDIT_GENERATED_(65)
  6
Continuous
 62
     7
100
AcDbLine
 10
263.725144059
 20
207.1988214392
 30
0.0
 11
263.725144059
 21
207.1405715802
 31
0.0
  0
ARC
  5
AE
330
8B
100
AcDbEntity
  8
$DDT_AUDIT_GENERATED_(65)
  6
Continuous
 62
     7
100
AcDbCircle
 10
263.5540270809
 20
209.0810832597
 30
0.0
 40
1.834287702529803
100
AcDbArc
 50
186.4594385617
 51
239.1483289009
  0
ARC
  5
AF
330
8B
100
AcDbEntity
  8
$DDT_AUDIT_GENERATED_(65)
  6
Continuous
 62
     7
100
AcDbCircle
 10
263.6440604078
 20
209.2514046404
 30
0.0
 40
2.026703795074679
100
AcDbArc
 50
239.4324574257
 51
266.4948758574
  0
SPLINE
  5
B0
330
8B
100
AcDbEntity
  8
$DDT_AUDIT_GENERATED_(65)
  6
Continuous
 62
     7
100
AcDbSpline
210
0.0
220
0.0
230
1.0
 70
     8
 71
     3
 72
    10
 73
     6
 74
     0
 42
0.0000000472797916
 43
0.0000000001
 40
0.0
 40
0.0
 40
0.0
 40
0.0
 40
0.5
 40
0.5
 40
1.0
 40
1.0
 40
1.0
 40
1.0
 10
263.5201521851354
 20
207.2284921298294
 30
0.0
 10
263.5873648057415
 20
207.2235217796195
 30
0.0
 10
263.6380276402099
 20
207.2184928100503
 30
0.0
 10
263.7072178992448
 20
207.2084745940023
 30
0.0
 10
263.7251440589954
 20
207.2035067596435
 30
0.0
 10
263.7251440589954
 20
207.1988214391994
 30
0.0
  0
LINE
  5
B1
330
8B
100
AcDbEntity
  8
$DDT_AUDIT_GENERATED_(65)
  6
Continuous
 62
     7
100
AcDbLine
 10
261.7259138708
 20
209.0257944048
 30
0.0
 11
261.7259138708
 21
209.8699261233
 31
0.0
  0
ARC
  5
B2
330
8B
100
AcDbEntity
  8
$DDT_AUDIT_GENERATED_(65)
  6
Continuous
 62
     7
100
AcDbCircle
 10
262.725144059
 20
393.9298020647
 30
0.0
 40
1.000000000000005
100
AcDbArc
 50
173.5960117817
 51
180.0
  0
LINE
  5
B3
330
8B
100
AcDbEntity
  8
$DDT_AUDIT_GENERATED_(65)
  6
Continuous
 62
     7
100
AcDbLine
 10
261.725144059
 20
393.9298020647
 30
0.0
 11
261.725144059
 21
209.8365339294
 31
0.0
  0
LINE
  5
B4
330
8B
100
AcDbEntity
  8
$DDT_AUDIT_GENERATED_(65)
  6
Continuous
 62
     7
100
AcDbLine
 10
261.725144059
 20
209.8404758293
 30
0.0
 11
261.725144059
 21
208.986489078
 31
0.0
  0
ARC
  5
B5
330
8B
100
AcDbEntity
  8
$DDT_AUDIT_GENERATED_(65)
  6
Continuous
 62
     7
100
AcDbCircle
 10
263.5201521851
 20
393.8405715802
 30
0.0
 40
1.799999999999996
100
AcDbArc
 50
90.0
 51
173.5960117817
  0
LINE
  5
B6
330
8B
100
AcDbEntity
  8
$DDT_AUDIT_GENERATED_(65)
  6
Continuous
 62
     7
100
AcDbLine
 10
263.725144059
 20
207.1405715802
 30
0.0
 11
273.2095753625
 21
207.1405715802
 31
0.0
  0
LINE
  5
B7
330
8B
100
AcDbEntity
  8
$DDT_AUDIT_GENERATED_(65)
  6
Continuous
 62
     7
100
AcDbLine
 10
273.2095753625
 20
395.6405715802
 30
0.0
 11
263.5201521851
 21
395.6405715802
 31
0.0
  0
ARC
  5
B8
330
8B
100
AcDbEntity
  8
$DDT_AUDIT_GENERATED_(65)
  6
Continuous
 62
     7
100
AcDbCircle
 10
273.2095753625
 20
208.7405715802
 30
0.0
 40
1.600000000000004
100
AcDbArc
 50
270.0
 51
359.1149864849
  0
ARC
  5
B9
330
8B
100
AcDbEntity
  8
$DDT_AUDIT_GENERATED_(65)
  6
Continuous
 62
     7
100
AcDbCircle
 10
273.2095753625
 20
394.0405715802
 30
0.0
 40
1.600000000000013
100
AcDbArc
 50
0.8850135151
 51
90.0
  0
ARC
  5
BA
330
8B
100
AcDbEntity
  8
$DDT_AUDIT_GENERATED_(65)
  6
Continuous
 62
     7
100
AcDbCircle
 10
-5724.474855941
 20
301.3905715802
 30
0.0
 40
6000.0
100
AcDbArc
 50
0.5856764611
 51
0.8850135152
  0
ARC
  5
BB
330
8B
100
AcDbEntity
  8
$DDT_AUDIT_GENERATED_(65)
  6
Continuous
 62
     7
100
AcDbCircle
 10
-5724.474855941
 20
301.3905715802
 30
0.0
 40
5999.999999999999
100
AcDbArc
 50
0.2535346517
 51
0.4647649829
  0
ARC
  5
BC
330
8B
100
AcDbEntity
  8
$DDT_AUDIT_GENERATED_(65)
  6
Continuous
 62
     7
100
AcDbCircle
 10
-5724.474855941
 20
301.3905715802
 30
0.0
 40
6000.0
100
AcDbArc
 50
359.1149864848
 51
359.7464653483
  0
LINE
  5
BD
330
8B
100
AcDbEntity
  8
$DDT_AUDIT_GENERATED_(6A)
  6
Continuous
 62
     7
100
AcDbLine
 10
303.8910040434
 20
301.3905722863
 30
0.0
 11
303.8909943349
 21
283.3503341965
 31
0.0
  0
LINE
  5
BE
330
8B
100
AcDbEntity
  8
$DDT_AUDIT_GENERATED_(6A)
  6
Continuous
 62
     7
100
AcDbLine
 10
303.8910040434
 20
301.3905722863
 30
0.0
 11
303.8909943349
 21
319.4308103761
 31
0.0
  0
SPLINE
  5
BF
330
8B
100
AcDbEntity
  8
$DDT_AUDIT_GENERATED_(6A)
  6
Continuous
 62
     7
100
AcDbSpline
210
0.0
220
0.0
230
1.0
 70
     8
 71
     3
 72
    10
 73
     6
 74
     0
 42
0.0000000236155575
 43
0.0000000001
 40
0.4963400475949266
 40
0.4963400475949266
 40
0.4963400475949266
 40
0.4963400475949266
 40
0.4999949032786592
 40
0.7464497625145221
 40
1.0
 40
1.0
 40
1.0
 40
1.0
 10
303.4528140054419
 20
280.7104273909082
 30
0.0
 10
303.4532137902695
 20
280.7107596320871
 30
0.0
 10
303.4805163843882
 20
280.7335631591004
 30
0.0
 10
303.5277520348631
 20
280.7887107662884
 30
0.0
 10
303.546551101539
 20
280.8517822808817
 30
0.0
 10
303.5565973211308
 20
280.8892142155469
 30
0.0
  0
SPLINE
  5
C0
330
8B
100
AcDbEntity
  8
$DDT_AUDIT_GENERATED_(6A)
  6
Continuous
 62
     7
100
AcDbSpline
210
0.0
220
0.0
230
1.0
 70
     8
 71
     3
 72
    10
 73
     6
 74
     0
 42
0.00000002361551
 43
0.0000000001
 40
0.0
 40
0.0
 40
0.0
 40
0.0
 40
0.2535500789731424
 40
0.500004886746661
 40
0.5037630588578242
 40
0.5037630588578242
 40
0.5037630588578242
 40
0.5037630588578242
 10
303.5565978225996
 20
321.8919055473476
 30
0.0
 10
303.5465516027728
 20
321.9293374348654
 30
0.0
 10
303.5277525341697
 20
321.9924088853588
 30
0.0
 10
303.4805071968714
 20
322.0475677190774
 30
0.0
 10
303.4531917407188
 20
322.0703787372498
 30
0.0
 10
303.4527806074869
 20
322.0707203124682
 30
0.0
  0
LINE
  5
C1
330
8B
100
AcDbEntity
  8
$DDT_AUDIT_GENERATED_(6A)
  6
Continuous
 62
     7
100
AcDbLine
 10
303.556596416
 20
280.8885706858
 30
0.0
 11
303.8910040434
 21
283.3505434519
 31
0.0
  0
LINE
  5
C2
330
8B
100
AcDbEntity
  8
$DDT_AUDIT_GENERATED_(6A)
  6
Continuous
 62
     7
100
AcDbLine
 10
303.8910040434
 20
319.4306011207
 30
0.0
 11
303.556596416
 21
321.8925738868
 31
0.0
  0
ARC
  5
C4
330
8B
100
AcDbEntity
  8
$DDT_AUDIT_GENERATED_(C3)
  6
Continuous
 62
     7
100
AcDbCircle
 10
285.8313145999
 20
301.7902457461
 30
0.0
 40
20.5
100
AcDbArc
 50
7.6313793143
 51
27.9668946323
  0
LINE
  5
C5
330
8B
100
AcDbEntity
  8
$DDT_AUDIT_GENERATED_(7E)
  6
Continuous
 62
     7
100
AcDbLine
 10
320.2012883209
 20
230.4850889655
 30
0.0
 11
320.201288347
 21
213.0322942338
 31
0.0
  0
LINE
  5
C6
330
8B
100
AcDbEntity
  8
$DDT_AUDIT_GENERATED_(7E)
  6
Continuous
 62
     7
100
AcDbLine
 10
321.7113983927
 20
230.4850889655
 30
0.0
 11
321.7113983927
 21
218.5350889655
 31
0.0
  0
LINE
  5
C7
330
8B
100
AcDbEntity
  8
$DDT_AUDIT_GENERATED_(7E)
  6
Continuous
 62
     7
100
AcDbLine
 10
320.2012883209
 20
295.5550889655
 30
0.0
 11
320.2012883209
 21
230.4850889655
 31
0.0
  0
LINE
  5
C8
330
8B
100
AcDbEntity
  8
$DDT_AUDIT_GENERATED_(7E)
  6
Continuous
 62
     7
100
AcDbLine
 10
321.7113983927
 20
230.4850889655
 30
0.0
 11
321.7113983927
 21
295.5550889655
 31
0.0
  0
LINE
  5
C9
330
8B
100
AcDbEntity
  8
$DDT_AUDIT_GENERATED_(7E)
  6
Continuous
 62
     7
100
AcDbLine
 10
321.7113983927
 20
295.5550889655
 30
0.0
 11
321.7113983927
 21
307.5050889655
 31
0.0
  0
SPLINE
  5
CA
330
8B
100
AcDbEntity
  8
$DDT_AUDIT_GENERATED_(7E)
  6
Continuous
 62
     7
100
AcDbSpline
210
0.0
220
0.0
230
1.0
 70
     8
 71
     3
 72
    26
 73
    22
 74
     0
 42
0.0000000003438772
 43
0.0000000001
 40
0.0982091562669501
 40
0.0982091562669501
 40
0.0982091562669501
 40
0.0982091562669501
 40
0.1100929324875326
 40
0.1751476748159103
 40
0.2402024171443908
 40
0.3052571594728713
 40
0.3377845306370088
 40
0.3703119018012491
 40
0.4353666441297295
 40
0.4678940152939698
 40
0.5004213864581072
 40
0.5329487576223475
 40
0.5654761287865878
 40
0.6305308711150683
 40
0.695585613443446
 40
0.7606403557719266
 40
0.7931677269361668
 40
0.825695098100407
 40
0.8907498404287848
 40
0.9558045827572652
 40
1.0
 40
1.0
 40
1.0
 40
1.0
 10
303.8744779881883
 20
287.3713630928033
 30
0.0
 10
303.9653233430647
 20
287.360616889678
 30
0.0
 10
304.5529889111759
 20
287.2864194360109
 30
0.0
 10
305.6342908496243
 20
287.0889539232576
 30
0.0
 10
307.1047357511185
 20
286.6222345307118
 30
0.0
 10
308.2706434176339
 20
286.0370996470685
 30
0.0
 10
309.1470284731064
 20
285.4291253832225
 30
0.0
 10
309.9777693841208
 20
284.7205648580778
 30
0.0
 10
310.7292350543182
 20
283.8512497812026
 30
0.0
 10
311.377995581525
 20
282.797643737309
 30
0.0
 10
311.8082784601458
 20
281.9114717391963
 30
0.0
 10
312.1842783371135
 20
280.9404900698852
 30
0.0
 10
312.6189316797632
 20
279.5542799710079
 30
0.0
 10
313.0463322466986
 20
277.6864438169569
 30
0.0
 10
313.4021880396551
 20
275.3457446863869
 30
0.0
 10
313.5921745170581
 20
273.4101269207476
 30
0.0
 10
313.6946394688295
 20
271.928162813904
 30
0.0
 10
313.7690209113219
 20
270.516124003125
 30
0.0
 10
313.8180397674442
 20
268.8978435745044
 30
0.0
 10
313.8314042296334
 20
267.3430659571913
 30
0.0
 10
313.8313994787791
 20
266.4343428360854
 30
0.0
 10
313.8313983926983
 20
266.0750889899472
 30
0.0
  0
ARC
  5
CB
330
8B
100
AcDbEntity
  8
$DDT_AUDIT_GENERATED_(7E)
  6
Continuous
 62
     7
100
AcDbCircle
 10
32.829158086
 20
293.2912848046
 30
0.0
 40
282.3171627301175
100
AcDbArc
 50
354.46792876
 51
359.6598283782
  0
LINE
  5
CC
330
8B
100
AcDbEntity
  8
$DDT_AUDIT_GENERATED_(7E)
  6
Continuous
 62
     7
100
AcDbLine
 10
315.1495210457
 20
295.5551057392
 30
0.0
 11
315.1435861525
 21
291.749121954
 31
0.0
  0
LINE
  5
CD
330
8B
100
AcDbEntity
  8
$DDT_AUDIT_GENERATED_(7E)
  6
Continuous
 62
     7
100
AcDbLine
 10
315.1491586248
 20
296.3771573239
 30
0.0
 11
315.1495210457
 21
295.5551057385
 31
0.0
  0
SPLINE
  5
CE
330
8B
100
AcDbEntity
  8
$DDT_AUDIT_GENERATED_(7E)
  6
Continuous
 62
     7
100
AcDbSpline
210
0.0
220
0.0
230
1.0
 70
    12
 71
     3
 72
     8
 73
     4
 74
     0
 42
0.0000000190892877
 43
0.0000000001
 40
0.5970279074187438
 40
0.5970279074187438
 40
0.5970279074187438
 40
0.5970279074187438
 40
0.723459250316453
 40
0.723459250316453
 40
0.723459250316453
 40
0.723459250316453
 10
306.2991600648226
 20
305.2687287294363
 30
0.0
 41
1.027951306162124
 10
306.2890728443149
 20
305.2488704178276
 30
0.0
 41
1.041076651159557
 10
306.2814120114095
 20
305.2281666589424
 30
0.0
 41
1.058824535448251
 10
306.2761563416325
 20
305.2069246584932
 30
0.0
 41
1.081194959028205
  0
ARC
  5
CF
330
8B
100
AcDbEntity
  8
$DDT_AUDIT_GENERATED_(7E)
  6
Continuous
 62
     7
100
AcDbCircle
 10
306.6005810811
 20
305.2677343726
 30
0.0
 40
0.2999999754012542
100
AcDbArc
 50
92.0193515781
 51
166.1903114165
  0
ARC
  5
D0
330
8B
100
AcDbEntity
  8
$DDT_AUDIT_GENERATED_(7E)
  6
Continuous
 62
     7
100
AcDbCircle
 10
-11604.0145658533
 20
302.6898866835
 30
0.0
 40
11919.16493577437
100
AcDbArc
 50
359.9707500598
 51
0.0292499402
  0
SPLINE
  5
D1
330
8B
100
AcDbEntity
  8
$DDT_AUDIT_GENERATED_(7E)
  6
Continuous
 62
     7
100
AcDbSpline
210
0.0
220
0.0
230
1.0
 70
     8
 71
     3
 72
    24
 73
    20
 74
     0
 42
0.000000000991724
 43
0.0000000001
 40
0.0
 40
0.0
 40
0.0
 40
0.0
 40
0.045002030733029
 40
0.1100048037032743
 40
0.1750075766733951
 40
0.2400103496436196
 40
0.3050131226138442
 40
0.3700158955840687
 40
0.4350186685542933
 40
0.4675200550394056
 40
0.5000214415245178
 40
0.5650242144947424
 40
0.630026987464967
 40
0.6950297604350876
 40
0.7600325334053121
 40
0.8250353063755368
 40
0.8900380793457613
 40
0.9550408523159859
 40
1.0
 40
1.0
 40
1.0
 40
1.0
 10
306.5900098730653
 20
305.5675508100873
 30
0.0
 10
306.7317636849854
 20
305.5725481853543
 30
0.0
 10
307.0853136549464
 20
305.5851487089006
 30
0.0
 10
307.6750907158527
 20
305.6073415097224
 30
0.0
 10
308.3684738268016
 20
305.636002723527
 30
0.0
 10
309.0973414264655
 20
305.6700543524042
 30
0.0
 10
309.8631969609157
 20
305.7101347196576
 30
0.0
 10
310.6640246852406
 20
305.7581807776754
 30
0.0
 10
311.3353261863533
 20
305.8151486078497
 30
0.0
 10
311.856655850083
 20
305.8781480726112
 30
0.0
 10
312.3620095826333
 20
305.9549917242982
 30
0.0
 10
312.95349861856
 20
306.0811634582418
 30
0.0
 10
313.5639306235693
 20
306.2948664058501
 30
0.0
 10
314.0385042622299
 20
306.5855082238043
 30
0.0
 10
314.3821410517775
 20
306.9527894848063
 30
0.0
 10
314.6383370576706
 20
307.3824978702713
 30
0.0
 10
314.8376127511906
 20
307.8651010209352
 30
0.0
 10
314.9969246807348
 20
308.3354894349427
 30
0.0
 10
315.1027260736271
 20
308.6459158796618
 30
0.0
 10
315.1488167455782
 20
308.7747126486772
 30
0.0
  0
LINE
  5
D2
330
8B
100
AcDbEntity
  8
$DDT_AUDIT_GENERATED_(7E)
  6
Continuous
 62
     7
100
AcDbLine
 10
313.8313983927
 20
230.4850889655
 30
0.0
 11
313.8313983927
 21
266.0750889899
 31
0.0
  0
LINE
  5
D3
330
8B
100
AcDbEntity
  8
$DDT_AUDIT_GENERATED_(7E)
  6
Continuous
 62
     7
100
AcDbLine
 10
320.2012883209
 20
295.5550889655
 30
0.0
 11
320.2012883499
 21
313.0078836972
 31
0.0
  0
LINE
  5
D4
330
8B
100
AcDbEntity
  8
$DDT_AUDIT_GENERATED_(7E)
  6
Continuous
 62
     7
100
AcDbLine
 10
319.0427320827
 20
213.0120715595
 30
0.0
 11
320.201288347
 21
213.0322942343
 31
0.0
  0
ARC
  5
D5
330
8B
100
AcDbEntity
  8
$DDT_AUDIT_GENERATED_(7E)
  6
Continuous
 62
     7
100
AcDbCircle
 10
319.0078273176
 20
215.0117669506
 30
0.0
 40
2.000000000003675
100
AcDbArc
 50
238.900781184
 51
270.9999986303
  0
SPLINE
  5
D6
330
8B
100
AcDbEntity
  8
$DDT_AUDIT_GENERATED_(7E)
  6
Continuous
 62
     7
100
AcDbSpline
210
0.0
220
0.0
230
1.0
 70
     8
 71
     3
 72
    11
 73
     7
 74
     0
 42
0.000000001775666
 43
0.0000000001
 40
0.0
 40
0.0
 40
0.0
 40
0.0
 40
0.2861791977710548
 40
0.5582074734334889
 40
0.7720852717573841
 40
1.0
 40
1.0
 40
1.0
 40
1.0
 10
320.4492991715347
 20
213.1714189012096
 30
0.0
 10
320.7513989279481
 20
213.676166686104
 30
0.0
 10
321.2358444905572
 20
214.5212291260391
 30
0.0
 10
321.6289018000927
 20
215.9478478637283
 30
0.0
 10
321.7081045008176
 20
217.3009095209876
 30
0.0
 10
321.7145117800789
 20
218.0666160421491
 30
0.0
 10
321.7113983927007
 20
218.5350889655273
 30
0.0
  0
ARC
  5
D7
330
8B
100
AcDbEntity
  8
$DDT_AUDIT_GENERATED_(7E)
  6
Continuous
 62
     7
100
AcDbCircle
 10
320.196052599
 20
213.3322485424
 30
0.0
 40
0.2999999999996607
100
AcDbArc
 50
271.0000049929
 51
327.5815396891
  0
SPLINE
  5
D8
330
8B
100
AcDbEntity
  8
$DDT_AUDIT_GENERATED_(7E)
  6
Continuous
 62
     7
100
AcDbSpline
210
0.0
220
0.0
230
1.0
 70
     8
 71
     3
 72
    11
 73
     7
 74
     0
 42
0.000000001776466
 43
0.0000000001
 40
0.0
 40
0.0
 40
0.0
 40
0.0
 40
0.287092341640477
 40
0.5568137609860815
 40
0.7738607839282406
 40
1.0
 40
1.0
 40
1.0
 40
1.0
 10
321.7113983927007
 20
307.5050889655272
 30
0.0
 10
321.7187420510101
 20
308.0953160944674
 30
0.0
 10
321.7093604163901
 20
309.0601353996468
 30
0.0
 10
321.5523318027428
 20
310.5286663676398
 30
0.0
 10
321.0767822562677
 20
311.8047604981321
 30
0.0
 10
320.6898636024367
 20
312.4708803635637
 30
0.0
 10
320.4492988120187
 20
312.8687595959475
 30
0.0
  0
ARC
  5
D9
330
8B
100
AcDbEntity
  8
$DDT_AUDIT_GENERATED_(7E)
  6
Continuous
 62
     7
100
AcDbCircle
 10
32.9736042119
 20
373.3277394234
 30
0.0
 40
281.6716158047666
100
AcDbArc
 50
344.1946549058
 51
346.0175248322
  0
LINE
  5
DA
330
8B
100
AcDbEntity
  8
$DDT_AUDIT_GENERATED_(7E)
  6
Continuous
 62
     7
100
AcDbLine
 10
306.3091039413
 20
305.3387535239
 30
0.0
 11
306.3093103185
 21
305.3395765184
 31
0.0
  0
LINE
  5
DB
330
8B
100
AcDbEntity
  8
$DDT_AUDIT_GENERATED_(7E)
  6
Continuous
 62
     7
100
AcDbLine
 10
306.3012134967
 20
305.3072878802
 30
0.0
 11
306.275889396
 21
305.2057846413
 31
0.0
  0
SPLINE
  5
DC
330
8B
100
AcDbEntity
  8
$DDT_AUDIT_GENERATED_(7E)
  6
Continuous
 62
     7
100
AcDbSpline
210
0.0
220
0.0
230
1.0
 70
     8
 71
     3
 72
    15
 73
    11
 74
     0
 42
0.0000000005450989
 43
0.0000000001
 40
0.0
 40
0.0
 40
0.0
 40
0.0
 40
0.1869587378133609
 40
0.3568654737656295
 40
0.5108492777793425
 40
0.6506909910621442
 40
0.7509048358380673
 40
0.8419439596402956
 40
0.9242403806916962
 40
1.0
 40
1.0
 40
1.0
 40
1.0
 10
313.8313983926983
 20
230.4850889655272
 30
0.0
 10
313.8306487171407
 20
229.2306685244779
 30
0.0
 10
313.8392030436664
 20
227.2159551475658
 30
0.0
 10
313.9391204972359
 20
224.041646354924
 30
0.0
 10
314.1901135282479
 20
221.2350493737208
 30
0.0
 10
314.6271453577594
 20
218.8645380403488
 30
0.0
 10
315.2314156421237
 20
216.9289138921158
 30
0.0
 10
315.9394277038289
 20
215.4240186254188
 30
0.0
 10
316.8387434748484
 20
214.1393957306626
 30
0.0
 10
317.5637982108717
 20
213.5983466598341
 30
0.0
 10
317.9747840090604
 20
213.2992186965007
 30
0.0
  0
ARC
  5
DD
330
8B
100
AcDbEntity
  8
$DDT_AUDIT_GENERATED_(7E)
  6
Continuous
 62
     7
100
AcDbCircle
 10
319.0078273176
 20
311.0284109804
 30
0.0
 40
2.000000000003751
100
AcDbArc
 50
89.0000010829
 51
121.0992160405
  0
LINE
  5
DE
330
8B
100
AcDbEntity
  8
$DDT_AUDIT_GENERATED_(7E)
  6
Continuous
 62
     7
100
AcDbLine
 10
320.2012883499
 20
313.0078836967
 30
0.0
 11
319.0427320927
 21
313.0281063714
 31
0.0
  0
ARC
  5
DF
330
8B
100
AcDbEntity
  8
$DDT_AUDIT_GENERATED_(7E)
  6
Continuous
 62
     7
100
AcDbCircle
 10
320.196052599
 20
312.7079293887
 30
0.0
 40
0.2999999999998304
100
AcDbArc
 50
32.418445932
 51
88.9999944493
  0
SPLINE
  5
E0
330
8B
100
AcDbEntity
  8
$DDT_AUDIT_GENERATED_(7E)
  6
Continuous
 62
     7
100
AcDbSpline
210
0.0
220
0.0
230
1.0
 70
     8
 71
     3
 72
    11
 73
     7
 74
     0
 42
0.000000001950284
 43
0.0000000001
 40
0.0
 40
0.0
 40
0.0
 40
0.0
 40
0.2512357582228971
 40
0.5213141117725234
 40
0.7518796518047574
 40
1.0
 40
1.0
 40
1.0
 40
1.0
 10
318.0502623079583
 20
312.7854720918073
 30
0.0
 10
317.6632459956368
 20
312.5189637824232
 30
0.0
 10
316.983856143763
 20
312.0384844329572
 30
0.0
 10
316.188702850821
 20
310.9945074560455
 30
0.0
 10
315.5673327893485
 20
309.8616740911872
 30
0.0
 10
315.2931217297344
 20
309.1560957175585
 30
0.0
 10
315.1299491833483
 20
308.7216526485373
 30
0.0
  0
LINE
  5
E2
330
8B
100
AcDbEntity
  8
$DDT_AUDIT_GENERATED_(E1)
  6
Continuous
 62
     7
100
AcDbLine
 10
323.1893996393
 20
296.6765186875
 30
0.0
 11
323.2063449241
 21
295.6434477464
 31
0.0
  0
LINE
  5
E3
330
8B
100
AcDbEntity
  8
$DDT_AUDIT_GENERATED_(E1)
  6
Continuous
 62
     7
100
AcDbLine
 10
323.1514312279
 20
297.5685802035
 30
0.0
 11
323.1808824347
 21
296.9281043919
 31
0.0
  0
LINE
  5
E4
330
8B
100
AcDbEntity
  8
$DDT_AUDIT_GENERATED_(E1)
  6
Continuous
 62
     7
100
AcDbLine
 10
323.0916876368
 20
298.4618587155
 30
0.0
 11
323.1367832526
 21
297.8205581713
 31
0.0
  0
LINE
  5
E5
330
8B
100
AcDbEntity
  8
$DDT_AUDIT_GENERATED_(E1)
  6
Continuous
 62
     7
100
AcDbLine
 10
323.2063449241
 20
295.6434477464
 30
0.0
 11
323.2064481746
 21
295.5550889655
 31
0.0
  0
LINE
  5
E6
330
8B
100
AcDbEntity
  8
$DDT_AUDIT_GENERATED_(E1)
  6
Continuous
 62
     7
100
AcDbLine
 10
323.1808824347
 20
296.9281043919
 30
0.0
 11
323.1893996393
 21
296.6765186875
 31
0.0
  0
LINE
  5
E7
330
8B
100
AcDbEntity
  8
$DDT_AUDIT_GENERATED_(E1)
  6
Continuous
 62
     7
100
AcDbLine
 10
323.1367832526
 20
297.8205581713
 30
0.0
 11
323.1514312279
 21
297.5685802035
 31
0.0
  0
LINE
  5
E8
330
8B
100
AcDbEntity
  8
$DDT_AUDIT_GENERATED_(E1)
  6
Continuous
 62
     7
100
AcDbLine
 10
323.0709244946
 20
298.7134500143
 30
0.0
 11
323.0916876368
 21
298.4618587155
 31
0.0
  0
SPLINE
  5
E9
330
8B
100
AcDbEntity
  8
$DDT_AUDIT_GENERATED_(E1)
  6
Continuous
 62
     7
100
AcDbSpline
210
0.0
220
0.0
230
1.0
 70
     8
 71
     3
 72
     8
 73
     4
 74
     0
 42
0.0000000014055845
 43
0.0000000001
 40
0.0
 40
0.0
 40
0.0
 40
0.0
 40
1.0
 40
1.0
 40
1.0
 40
1.0
 10
321.7841274060702
 20
305.6879405538912
 30
0.0
 10
322.438121774564
 20
303.4119695524098
 30
0.0
 10
322.8681086675107
 20
301.0724891047198
 30
0.0
 10
323.0709244945613
 20
298.7134500142533
 30
0.0
  0
SPLINE
  5
EA
330
8B
100
AcDbEntity
  8
$DDT_AUDIT_GENERATED_(E1)
  6
Continuous
 62
     7
100
AcDbSpline
210
0.0
220
0.0
230
1.0
 70
     8
 71
     3
 72
     8
 73
     4
 74
     0
 42
0.0000000013027423
 43
0.0000000001
 40
0.0
 40
0.0
 40
0.0
 40
0.0
 40
1.0
 40
1.0
 40
1.0
 40
1.0
 10
321.8473513991393
 20
285.6449486110878
 30
0.0
 10
322.5370471941353
 20
288.1043990331348
 30
0.0
 10
322.9659808457624
 20
290.6360788627985
 30
0.0
 10
323.1301817777765
 20
293.1848260857975
 30
0.0
  0
ARC
  5
EB
330
8B
100
AcDbEntity
  8
$DDT_AUDIT_GENERATED_(E1)
  6
Continuous
 62
     7
100
AcDbCircle
 10
321.6547799498
 20
285.6989508054
 30
0.0
 40
0.2000000001982508
100
AcDbArc
 50
286.5295045978
 51
344.3350802883
  0
SPLINE
  5
EC
330
8B
100
AcDbEntity
  8
$DDT_AUDIT_GENERATED_(E1)
  6
Continuous
 62
     7
100
AcDbSpline
210
0.0
220
0.0
230
1.0
 70
     8
 71
     3
 72
     8
 73
     4
 74
     0
 42
0.000000004216321
 43
0.0000000001
 40
0.0
 40
0.0
 40
0.0
 40
0.0
 40
1.0
 40
1.0
 40
1.0
 40
1.0
 10
323.1301817777765
 20
293.1848260857975
 30
0.0
 10
323.1810000297885
 20
293.9736332935534
 30
0.0
 10
323.2064614009072
 20
294.7640752665949
 30
0.0
 10
323.2064481841381
 20
295.5545167990777
 30
0.0
  0
ARC
  5
ED
330
8B
100
AcDbEntity
  8
$DDT_AUDIT_GENERATED_(E1)
  6
Continuous
 62
     7
100
AcDbCircle
 10
321.5246059153
 20
285.81139548
 30
0.0
 40
0.3032562924099873
100
AcDbArc
 50
308.1853731268
 51
316.2760305981
  0
ENDBLK
  5
EF
330
8B
100
AcDbEntity
  8
0
100
AcDbBlockEnd
  0
BLOCK
  5
162
330
F0
100
AcDbEntity
  8
0
100
AcDbBlockBegin
  2
SE2
 70
     0
 10
0.0
 20
0.0
 30
0.0
  3
SE2
  1

  0
SPLINE
  5
F2
330
F0
100
AcDbEntity
  8
$DDT_AUDIT_GENERATED_(60)
  6
Continuous
 62
     7
100
AcDbSpline
210
0.0
220
0.0
230
1.0
 70
     8
 71
     3
 72
    40
 73
    36
 74
     0
 42
0.000000000118135
 43
0.0000000001
 40
0.25000274233332
 40
0.25000274233332
 40
0.25000274233332
 40
0.25000274233332
 40
0.2812499999999997
 40
0.2812499999999997
 40
0.3124999999999997
 40
0.3124999999999997
 40
0.3437499999999997
 40
0.3437499999999997
 40
0.3749999999999997
 40
0.3749999999999997
 40
0.4062499999999998
 40
0.4062499999999998
 40
0.4374999999999998
 40
0.4374999999999998
 40
0.4687499999999998
 40
0.4687499999999998
 40
0.4999999999999999
 40
0.4999999999999999
 40
0.5312499999999999
 40
0.5312499999999999
 40
0.5624999999999999
 40
0.5624999999999999
 40
0.5937499999999999
 40
0.5937499999999999
 40
0.6249999999999999
 40
0.6249999999999999
 40
0.6562499999999999
 40
0.6562499999999999
 40
0.6874999999999999
 40
0.6874999999999999
 40
0.7187499999999999
 40
0.7187499999999999
 40
0.7499999999999999
 40
0.7499999999999999
 40
0.7500027423203003
 40
0.7500027423203003
 40
0.7500027423203003
 40
0.7500027423203003
 10
86.9470394530284
 20
126.100669370265
 30
0.0
 10
86.94703882197024
 20
126.1006693480267
 30
0.0
 10
87.08383740517894
 20
126.1022658504277
 30
0.0
 10
87.62006946061679
 20
126.1048893747435
 30
0.0
 10
88.02601058170072
 20
126.1059112659886
 30
0.0
 10
89.0861407132646
 20
126.1059147939068
 30
0.0
 10
89.73493933970813
 20
126.1049187102939
 30
0.0
 10
91.26774653969689
 20
126.1022929000098
 30
0.0
 10
92.15739651036276
 20
126.100669748463
 30
0.0
 10
94.13255043614168
 20
126.100668992198
 30
0.0
 10
95.2004148625671
 20
126.1022656502928
 30
0.0
 10
97.49024254473625
 20
126.1048893135188
 30
0.0
 10
98.72666958850208
 20
126.1059112393001
 30
0.0
 10
101.2870493365761
 20
126.1059148204368
 30
0.0
 10
102.6046693486784
 20
126.1049187543143
 30
0.0
 10
105.3140585584886
 20
126.1022929438073
 30
0.0
 10
106.7120586447674
 20
126.1006697736809
 30
0.0
 10
109.5054198793713
 20
126.1006689669975
 30
0.0
 10
110.8788198378566
 20
126.1022656293888
 30
0.0
 10
113.5808878567902
 20
126.1048893051725
 30
0.0
 10
114.9235269103424
 20
126.1059112392929
 30
0.0
 10
117.4843332469244
 20
126.105914820444
 30
0.0
 10
118.6989355870326
 20
126.1049187461471
 30
0.0
 10
120.997790516491
 20
126.1022929227049
 30
0.0
 10
122.0852130792589
 20
126.1006697484677
 30
0.0
 10
124.0604688183883
 20
126.1006689921933
 30
0.0
 10
124.9348826901105
 20
126.1022656725975
 30
0.0
 10
126.466349691843
 20
126.1048893497058
 30
0.0
 10
127.1286962731554
 20
126.1059112659676
 30
0.0
 10
128.1898301735156
 20
126.1059147939278
 30
0.0
 10
128.5899094556042
 20
126.1049186857912
 30
0.0
 10
129.1315737561889
 20
126.102292836702
 30
0.0
 10
129.2714108937168
 20
126.1006696728241
 30
0.0
 10
129.2714355413992
 20
126.1006693702812
 30
0.0
 10
129.2714355425082
 20
126.100669370267
 30
0.0
 10
129.2714355425636
 20
126.100669370265
 30
0.0
  0
ARC
  5
F3
330
F0
100
AcDbEntity
  8
$DDT_AUDIT_GENERATED_(60)
  6
Continuous
 62
     7
100
AcDbCircle
 10
108.1094423933
 20
-4147.7920496702
 30
0.0
 40
4276.728553060807
100
AcDbArc
 50
89.6536861456
 51
89.9203015158
  0
ARC
  5
F4
330
F0
100
AcDbEntity
  8
$DDT_AUDIT_GENERATED_(60)
  6
Continuous
 62
     7
100
AcDbCircle
 10
108.1094423933
 20
-4147.7920496702
 30
0.0
 40
4276.728553060807
100
AcDbArc
 50
90.079669497
 51
90.3463192302
  0
LINE
  5
F5
330
F0
100
AcDbEntity
  8
$DDT_AUDIT_GENERATED_(60)
  6
Continuous
 62
     7
100
AcDbLine
 10
82.0394091039
 20
154.0900462877
 30
0.0
 11
82.2595913859
 21
128.8583614008
 31
0.0
  0
LINE
  5
F6
330
F0
100
AcDbEntity
  8
$DDT_AUDIT_GENERATED_(60)
  6
Continuous
 62
     7
100
AcDbLine
 10
133.9588835912
 20
128.8583592825
 30
0.0
 11
134.1790658917
 21
154.0900462877
 31
0.0
  0
SPLINE
  5
F7
330
F0
100
AcDbEntity
  8
$DDT_AUDIT_GENERATED_(60)
  6
Continuous
 62
     7
100
AcDbSpline
210
0.0
220
0.0
230
1.0
 70
     8
 71
     3
 72
     8
 73
     4
 74
     0
 42
0.0000000028747049
 43
0.0000000001
 40
0.0
 40
0.0
 40
0.0
 40
0.0
 40
1.0
 40
1.0
 40
1.0
 40
1.0
 10
83.60609273374364
 20
126.9845479903547
 30
0.0
 10
84.72880672630473
 20
126.6295746467641
 30
0.0
 10
85.84898231800723
 20
126.3335673132274
 30
0.0
 10
86.96661950885118
 20
126.0965259897448
 30
0.0
  0
SPLINE
  5
F8
330
F0
100
AcDbEntity
  8
$DDT_AUDIT_GENERATED_(60)
  6
Continuous
 62
     7
100
AcDbSpline
210
0.0
220
0.0
230
1.0
 70
     8
 71
     3
 72
     8
 73
     4
 74
     0
 42
0.0000000028747049
 43
0.0000000001
 40
0.0
 40
0.0
 40
0.0
 40
0.0
 40
1.0
 40
1.0
 40
1.0
 40
1.0
 10
129.2518554867409
 20
126.0965259897448
 30
0.0
 10
130.3694926775848
 20
126.3335673132274
 30
0.0
 10
131.4896682692873
 20
126.6295746467641
 30
0.0
 10
132.6123822618484
 20
126.9845479903548
 30
0.0
  0
ARC
  5
F9
330
F0
100
AcDbEntity
  8
$DDT_AUDIT_GENERATED_(60)
  6
Continuous
 62
     7
100
AcDbCircle
 10
131.9711178917
 20
128.856039114
 30
0.0
 40
1.960146461263534
100
AcDbArc
 50
287.1510231293
 51
0.090859077
  0
ARC
  5
FA
330
F0
100
AcDbEntity
  8
$DDT_AUDIT_GENERATED_(60)
  6
Continuous
 62
     7
100
AcDbCircle
 10
84.2482796839
 20
128.8557701884
 30
0.0
 40
1.963166730064535
100
AcDbArc
 50
179.9188649695
 51
252.7989965663
  0
LINE
  5
FB
330
F0
100
AcDbEntity
  8
$DDT_AUDIT_GENERATED_(95)
  6
Continuous
 62
     7
100
AcDbLine
 10
102.4092374978
 20
149.3340634005
 30
0.0
 11
113.8092374978
 21
149.3340634005
 31
0.0
  0
LINE
  5
FC
330
F0
100
AcDbEntity
  8
$DDT_AUDIT_GENERATED_(95)
  6
Continuous
 62
     7
100
AcDbLine
 10
102.1092374978
 20
154.3052344903
 30
0.0
 11
102.1092374978
 21
149.6340634005
 31
0.0
  0
LINE
  5
FD
330
F0
100
AcDbEntity
  8
$DDT_AUDIT_GENERATED_(95)
  6
Continuous
 62
     7
100
AcDbLine
 10
114.1092374978
 20
149.6340634005
 30
0.0
 11
114.1092374978
 21
154.3056466677
 31
0.0
  0
ARC
  5
FE
330
F0
100
AcDbEntity
  8
$DDT_AUDIT_GENERATED_(95)
  6
Continuous
 62
     7
100
AcDbCircle
 10
102.4092374978
 20
149.6340634005
 30
0.0
 40
0.2999999999999999
100
AcDbArc
 50
180.0
 51
270.0
  0
ARC
  5
FF
330
F0
100
AcDbEntity
  8
$DDT_AUDIT_GENERATED_(95)
  6
Continuous
 62
     7
100
AcDbCircle
 10
113.8092374978
 20
149.6340634005
 30
0.0
 40
0.3000000000000086
100
AcDbArc
 50
270.0
 51
0.0
  0
LINE
  5
100
330
F0
100
AcDbEntity
  8
$DDT_AUDIT_GENERATED_(63)
  6
Continuous
 62
     7
100
AcDbLine
 10
114.1092374978
 20
131.9185245875
 30
0.0
 11
102.1092374978
 21
131.9185245875
 31
0.0
  0
LINE
  5
101
330
F0
100
AcDbEntity
  8
$DDT_AUDIT_GENERATED_(63)
  6
Continuous
 62
     7
100
AcDbLine
 10
112.6092374978
 20
133.8550162606
 30
0.0
 11
103.6092374978
 21
133.8550162606
 31
0.0
  0
LINE
  5
102
330
F0
100
AcDbEntity
  8
$DDT_AUDIT_GENERATED_(63)
  6
Continuous
 62
     7
100
AcDbLine
 10
114.1092374978
 20
129.1425399962
 30
0.0
 11
102.1092374978
 21
129.1425399962
 31
0.0
  0
ARC
  5
103
330
F0
100
AcDbEntity
  8
$DDT_AUDIT_GENERATED_(63)
  6
Continuous
 62
     7
100
AcDbCircle
 10
108.1092374978
 20
177.886770424
 30
0.0
 40
49.99999999999999
100
AcDbArc
 50
264.1432980901
 51
275.8567019099
  0
LINE
  5
104
330
F0
100
AcDbEntity
  8
$DDT_AUDIT_GENERATED_(63)
  6
Continuous
 62
     7
100
AcDbLine
 10
102.1092374978
 20
131.9185245875
 30
0.0
 11
102.1092374978
 21
129.1425399962
 31
0.0
  0
LINE
  5
105
330
F0
100
AcDbEntity
  8
$DDT_AUDIT_GENERATED_(63)
  6
Continuous
 62
     7
100
AcDbLine
 10
114.1092374978
 20
129.1425399962
 30
0.0
 11
114.1092374978
 21
131.9185245875
 31
0.0
  0
ARC
  5
106
330
F0
100
AcDbEntity
  8
$DDT_AUDIT_GENERATED_(63)
  6
Continuous
 62
     7
100
AcDbCircle
 10
103.1092374978
 20
131.9185245875
 30
0.0
 40
1.000000000000009
100
AcDbArc
 50
104.4775121859
 51
180.0
  0
ARC
  5
107
330
F0
100
AcDbEntity
  8
$DDT_AUDIT_GENERATED_(63)
  6
Continuous
 62
     7
100
AcDbCircle
 10
113.1092374978
 20
131.9185245875
 30
0.0
 40
1.0
100
AcDbArc
 50
0.0
 51
75.5224878141
  0
ARC
  5
108
330
F0
100
AcDbEntity
  8
$DDT_AUDIT_GENERATED_(63)
  6
Continuous
 62
     7
100
AcDbCircle
 10
102.6092374978
 20
133.8550162606
 30
0.0
 40
1.000000000000001
100
AcDbArc
 50
284.4775121859
 51
0.0
  0
ARC
  5
109
330
F0
100
AcDbEntity
  8
$DDT_AUDIT_GENERATED_(63)
  6
Continuous
 62
     7
100
AcDbCircle
 10
113.6092374978
 20
133.8550162606
 30
0.0
 40
0.999999999999994
100
AcDbArc
 50
180.0
 51
255.5224878141
  0
LINE
  5
10A
330
F0
100
AcDbEntity
  8
$DDT_AUDIT_GENERATED_(63)
  6
Continuous
 62
     7
100
AcDbLine
 10
103.6092374978
 20
149.3340634005
 30
0.0
 11
103.6092374978
 21
133.8550162606
 31
0.0
  0
LINE
  5
10B
330
F0
100
AcDbEntity
  8
$DDT_AUDIT_GENERATED_(63)
  6
Continuous
 62
     7
100
AcDbLine
 10
112.6092374978
 20
133.8550162606
 30
0.0
 11
112.6092374978
 21
149.3340634005
 31
0.0
  0
ARC
  5
10C
330
F0
100
AcDbEntity
  8
$DDT_AUDIT_GENERATED_(63)
  6
Continuous
 62
     7
100
AcDbCircle
 10
103.1092374978
 20
129.1425399962
 30
0.0
 40
1.0
100
AcDbArc
 50
180.0
 51
264.1432980901
  0
ARC
  5
10D
330
F0
100
AcDbEntity
  8
$DDT_AUDIT_GENERATED_(63)
  6
Continuous
 62
     7
100
AcDbCircle
 10
113.1092374978
 20
129.1425399962
 30
0.0
 40
0.9999999999999861
100
AcDbArc
 50
275.8567019099
 51
0.0
  0
LINE
  5
10E
330
F0
100
AcDbEntity
  8
$DDT_AUDIT_GENERATED_(65)
  6
Continuous
 62
     7
100
AcDbLine
 10
13.8592374978
 20
156.3468728217
 30
0.0
 11
202.3592374978
 21
156.3468728217
 31
0.0
  0
SPLINE
  5
10F
330
F0
100
AcDbEntity
  8
$DDT_AUDIT_GENERATED_(65)
  6
Continuous
 62
     7
100
AcDbSpline
210
0.0
220
0.0
230
1.0
 70
     8
 71
     3
 72
    16
 73
    12
 74
     0
 42
0.0000000004220118
 43
0.0000000001
 40
0.3751076067434484
 40
0.3751076067434484
 40
0.3751076067434484
 40
0.3751076067434484
 40
0.4999999999999998
 40
0.4999999999999998
 40
0.6249999999999998
 40
0.6249999999999998
 40
0.7499999999999999
 40
0.7499999999999999
 40
0.8749999999999999
 40
0.8749999999999999
 40
0.9266599355978383
 40
0.9266599355978383
 40
0.9266599355978383
 40
0.9266599355978383
 10
114.4592374398817
 20
154.2867550848824
 30
0.0
 10
114.4591385255949
 20
154.3021087390494
 30
0.0
 10
113.7721110194425
 20
154.3171530690194
 30
0.0
 10
111.4300974921706
 20
154.3386440529914
 30
0.0
 10
109.7723026057588
 20
154.3449473653991
 30
0.0
 10
106.4602246970248
 20
154.3449809607256
 30
0.0
 10
104.809885449622
 20
154.338805571218
 30
0.0
 10
102.4386240484246
 20
154.3171176671992
 30
0.0
 10
101.7607894571476
 20
154.3020083153783
 30
0.0
 10
101.758600021399
 20
154.2805252986793
 30
0.0
 10
101.8734073186294
 20
154.2742557310686
 30
0.0
 10
102.0920920364843
 20
154.2682934381633
 30
0.0
  0
LINE
  5
110
330
F0
100
AcDbEntity
  8
$DDT_AUDIT_GENERATED_(65)
  6
Continuous
 62
     7
100
AcDbLine
 10
134.6592374978
 20
154.0900462877
 30
0.0
 11
114.1092374978
 21
154.0900462877
 31
0.0
  0
LINE
  5
111
330
F0
100
AcDbEntity
  8
$DDT_AUDIT_GENERATED_(65)
  6
Continuous
 62
     7
100
AcDbLine
 10
102.1092374978
 20
154.0900462877
 30
0.0
 11
81.5592374978
 21
154.0900462877
 31
0.0
  0
ARC
  5
112
330
F0
100
AcDbEntity
  8
$DDT_AUDIT_GENERATED_(65)
  6
Continuous
 62
     7
100
AcDbCircle
 10
15.5700070133
 20
166.8313041251
 30
0.0
 40
1.000000000000001
100
AcDbArc
 50
90.0
 51
96.4039882183
  0
ARC
  5
113
330
F0
100
AcDbEntity
  8
$DDT_AUDIT_GENERATED_(65)
  6
Continuous
 62
     7
100
AcDbCircle
 10
200.6484679823
 20
166.8313041251
 30
0.0
 40
1.000000000000005
100
AcDbArc
 50
83.5960117817
 51
90.0
  0
LINE
  5
114
330
F0
100
AcDbEntity
  8
$DDT_AUDIT_GENERATED_(65)
  6
Continuous
 62
     7
100
AcDbLine
 10
200.6484679823
 20
167.8313041251
 30
0.0
 11
15.5700070133
 21
167.8313041251
 31
0.0
  0
ARC
  5
115
330
F0
100
AcDbEntity
  8
$DDT_AUDIT_GENERATED_(65)
  6
Continuous
 62
     7
100
AcDbCircle
 10
15.6592374978
 20
166.036295999
 30
0.0
 40
1.800000000000001
100
AcDbArc
 50
96.4039882183
 51
180.0
  0
ARC
  5
116
330
F0
100
AcDbEntity
  8
$DDT_AUDIT_GENERATED_(65)
  6
Continuous
 62
     7
100
AcDbCircle
 10
200.5592374978
 20
166.036295999
 30
0.0
 40
1.799999999999996
100
AcDbArc
 50
0.0
 51
83.5960117817
  0
LINE
  5
117
330
F0
100
AcDbEntity
  8
$DDT_AUDIT_GENERATED_(65)
  6
Continuous
 62
     7
100
AcDbLine
 10
13.8592374978
 20
166.036295999
 30
0.0
 11
13.8592374978
 21
156.3468728217
 31
0.0
  0
LINE
  5
118
330
F0
100
AcDbEntity
  8
$DDT_AUDIT_GENERATED_(65)
  6
Continuous
 62
     7
100
AcDbLine
 10
202.3592374978
 20
156.3468728217
 30
0.0
 11
202.3592374978
 21
166.036295999
 31
0.0
  0
ARC
  5
119
330
F0
100
AcDbEntity
  8
$DDT_AUDIT_GENERATED_(65)
  6
Continuous
 62
     7
100
AcDbCircle
 10
15.4592374978
 20
156.3468728217
 30
0.0
 40
1.600000000000004
100
AcDbArc
 50
180.0
 51
269.1149864849
  0
ARC
  5
11A
330
F0
100
AcDbEntity
  8
$DDT_AUDIT_GENERATED_(65)
  6
Continuous
 62
     7
100
AcDbCircle
 10
200.7592374978
 20
156.3468728217
 30
0.0
 40
1.600000000000013
100
AcDbArc
 50
270.8850135151
 51
0.0
  0
ARC
  5
11B
330
F0
100
AcDbEntity
  8
$DDT_AUDIT_GENERATED_(65)
  6
Continuous
 62
     7
100
AcDbCircle
 10
108.1092374978
 20
6154.0313041251
 30
0.0
 40
5999.999999999999
100
AcDbArc
 50
270.2535346517
 51
270.8850135152
  0
ARC
  5
11C
330
F0
100
AcDbEntity
  8
$DDT_AUDIT_GENERATED_(65)
  6
Continuous
 62
     7
100
AcDbCircle
 10
108.1092374978
 20
6154.0313041251
 30
0.0
 40
6000.0
100
AcDbArc
 50
269.1149864848
 51
269.7464653483
  0
ARC
  5
11D
330
F0
100
AcDbEntity
  8
$DDT_AUDIT_GENERATED_(6A)
  6
Continuous
 62
     7
100
AcDbCircle
 10
128.5593572532
 20
126.2952100566
 30
0.0
 40
0.2998802614175356
100
AcDbArc
 50
279.9626510303
 51
320.2965941915
  0
LINE
  5
11E
330
F0
100
AcDbEntity
  8
$DDT_AUDIT_GENERATED_(6A)
  6
Continuous
 62
     7
100
AcDbLine
 10
126.1492656261
 20
125.6654441408
 30
0.0
 11
128.6112383922
 21
125.9998517681
 31
0.0
  0
LINE
  5
11F
330
F0
100
AcDbEntity
  8
$DDT_AUDIT_GENERATED_(6A)
  6
Continuous
 62
     7
100
AcDbLine
 10
87.6072366035
 20
125.9998517681
 30
0.0
 11
90.0692093695
 21
125.6654441408
 31
0.0
  0
LINE
  5
120
330
F0
100
AcDbEntity
  8
$DDT_AUDIT_GENERATED_(6A)
  6
Continuous
 62
     7
100
AcDbLine
 10
126.1492656261
 20
125.6654441408
 30
0.0
 11
125.6367625089
 21
125.6654441408
 31
0.0
  0
LINE
  5
121
330
F0
100
AcDbEntity
  8
$DDT_AUDIT_GENERATED_(6A)
  6
Continuous
 62
     7
100
AcDbLine
 10
125.6367625089
 20
125.6654441408
 30
0.0
 11
90.4169293969
 21
125.6654441408
 31
0.0
  0
LINE
  5
122
330
F0
100
AcDbEntity
  8
$DDT_AUDIT_GENERATED_(6A)
  6
Continuous
 62
     7
100
AcDbLine
 10
90.4169293969
 20
125.6654441408
 30
0.0
 11
90.0692093695
 21
125.6654441408
 31
0.0
  0
ARC
  5
123
330
F0
100
AcDbEntity
  8
$DDT_AUDIT_GENERATED_(6A)
  6
Continuous
 62
     7
100
AcDbCircle
 10
128.534304567
 20
126.2951117737
 30
0.0
 40
0.2998260107495116
100
AcDbArc
 50
280.0119393855
 51
320.333936586
  0
ARC
  5
124
330
F0
100
AcDbEntity
  8
$DDT_AUDIT_GENERATED_(6A)
  6
Continuous
 62
     7
100
AcDbCircle
 10
87.6841696714
 20
126.2951117784
 30
0.0
 40
0.2998260137971415
100
AcDbArc
 50
219.6699900965
 51
259.9880625116
  0
SPLINE
  5
125
330
F0
100
AcDbEntity
  8
$DDT_AUDIT_GENERATED_(6A)
  6
Continuous
 62
     7
100
AcDbSpline
210
0.0
220
0.0
230
1.0
 70
     8
 71
     3
 72
    25
 73
    21
 74
     0
 42
0.0000000002815397
 43
0.0000000001
 40
0.2133109841593413
 40
0.2133109841593413
 40
0.2133109841593413
 40
0.2133109841593413
 40
0.2134308264232466
 40
0.2607799343941218
 40
0.305718789645794
 40
0.3482488876082231
 40
0.3883740791950341
 40
0.4260861169860435
 40
0.4780961449568288
 40
0.5246745751168885
 40
0.5658708480066728
 40
0.6086457683204728
 40
0.6578885394711711
 40
0.7136918551656061
 40
0.754605205083645
 40
0.798514538358337
 40
0.8454714775128321
 40
0.8955179138468011
 40
0.9486846734561487
 40
1.0
 40
1.0
 40
1.0
 40
1.0
 10
97.67273744066424
 20
125.6654535774338
 30
0.0
 10
97.6741516537018
 20
125.6654531828298
 30
0.0
 10
98.2343777708337
 20
125.6652968967508
 30
0.0
 10
99.37357855151161
 20
125.6650039670066
 30
0.0
 10
101.1504191684234
 20
125.6646109455223
 30
0.0
 10
102.9153785706464
 20
125.6642716182787
 30
0.0
 10
104.6349265155435
 20
125.663986568515
 30
0.0
 10
106.5264217495642
 20
125.6637114096091
 30
0.0
 10
108.5369885829534
 20
125.6635080651949
 30
0.0
 10
110.5911679216189
 20
125.6632670909881
 30
0.0
 10
112.4773618203209
 20
125.6635009373246
 30
0.0
 10
114.3548434743701
 20
125.6623903889852
 30
0.0
 10
116.3590181945661
 20
125.659573390794
 30
0.0
 10
118.2174209216599
 20
125.6564697149935
 30
0.0
 10
119.8717666494937
 20
125.6539458993682
 30
0.0
 10
121.2927814747165
 20
125.6523663630092
 30
0.0
 10
122.6479613545734
 20
125.6519650672454
 30
0.0
 10
123.8763919117311
 20
125.6534241273867
 30
0.0
 10
124.9343557336687
 20
125.6572845002554
 30
0.0
 10
125.3694058355622
 20
125.6619845920686
 30
0.0
 10
125.615067894947
 20
125.6647733884054
 30
0.0
  0
ARC
  5
126
330
F0
100
AcDbEntity
  8
$DDT_AUDIT_GENERATED_(6A)
  6
Continuous
 62
     7
100
AcDbCircle
 10
88.7017538761
 20
1213.7892903065
 30
0.0
 40
1088.138305941795
100
AcDbArc
 50
270.0858399151
 51
270.1641120473
  0
SPLINE
  5
127
330
F0
100
AcDbEntity
  8
$DDT_AUDIT_GENERATED_(C3)
  6
Continuous
 62
     7
100
AcDbSpline
210
0.0
220
0.0
230
1.0
 70
     8
 71
     3
 72
     8
 73
     4
 74
     0
 42
0.0000000016536701
 43
0.0000000001
 40
0.0
 40
0.0
 40
0.0
 40
0.0
 40
0.0229703276551434
 40
0.0229703276551434
 40
0.0229703276551434
 40
0.0229703276551434
 10
103.0361089346433
 20
123.8140758011266
 30
0.0
 10
103.0365267792675
 20
123.7677827127482
 30
0.0
 10
103.036944741064
 20
123.7214828851785
 30
0.0
 10
103.0373628200327
 20
123.6751763184175
 30
0.0
  0
SPLINE
  5
128
330
F0
100
AcDbEntity
  8
$DDT_AUDIT_GENERATED_(C3)
  6
Continuous
 62
     7
100
AcDbSpline
210
0.0
220
0.0
230
1.0
 70
     8
 71
     3
 72
     8
 73
     4
 74
     0
 42
0.0000000015116416
 43
0.0000000001
 40
0.9784062364680184
 40
0.9784062364680184
 40
0.9784062364680184
 40
0.9784062364680184
 40
1.0
 40
1.0
 40
1.0
 40
1.0
 10
113.1845482221031
 20
123.6708156834516
 30
0.0
 10
113.1849772910436
 20
123.7183459319931
 30
0.0
 10
113.1854070710165
 20
123.7659605772893
 30
0.0
 10
113.1858375620216
 20
123.8136596193402
 30
0.0
  0
SPLINE
  5
129
330
F0
100
AcDbEntity
  8
$DDT_AUDIT_GENERATED_(C3)
  6
Continuous
 62
     7
100
AcDbSpline
210
0.0
220
0.0
230
1.0
 70
     8
 71
     3
 72
    12
 73
     8
 74
     0
 42
0.0000000066468752
 43
0.0000000001
 40
0.68565087859519
 40
0.68565087859519
 40
0.68565087859519
 40
0.68565087859519
 40
0.7219903877307166
 40
0.7584702483089849
 40
0.7966540597143318
 40
0.8526180967857598
 40
0.9264919575110099
 40
0.9264919575110099
 40
0.9264919575110099
 40
0.9264919575110099
 10
102.8802899075389
 20
123.9225733710388
 30
0.0
 10
102.8802772445339
 20
123.9225972926703
 30
0.0
 10
102.8851231945949
 20
123.9204797170879
 30
0.0
 10
102.9122026931948
 20
123.905929242424
 30
0.0
 10
102.9675519452476
 20
123.8668711822137
 30
0.0
 10
103.0453246818998
 20
123.7861047043701
 30
0.0
 10
103.0908320099841
 20
123.7021412313451
 30
0.0
 10
103.1057417479612
 20
123.6534622864741
 30
0.0
  0
SPLINE
  5
12A
330
F0
100
AcDbEntity
  8
$DDT_AUDIT_GENERATED_(C3)
  6
Continuous
 62
     7
100
AcDbSpline
210
0.0
220
0.0
230
1.0
 70
     8
 71
     3
 72
    14
 73
    10
 74
     0
 42
0.0000000087984561
 43
0.0000000001
 40
0.0
 40
0.0
 40
0.0
 40
0.0
 40
0.0288581187872044
 40
0.1269788588512822
 40
0.2088188332432135
 40
0.2761788981988598
 40
0.3278188305579361
 40
0.373978062815673
 40
0.4232706184971585
 40
0.4232706184971585
 40
0.4232706184971585
 40
0.4232706184971585
 10
113.0990537266972
 20
123.5396704644263
 30
0.0
 10
113.0981872286471
 20
123.5554612930478
 30
0.0
 10
113.095200340536
 20
123.6152396514063
 30
0.0
 10
113.1376124357715
 20
123.717150207767
 30
0.0
 10
113.2024759677339
 20
123.816230813939
 30
0.0
 10
113.2686731897852
 20
123.8777754302575
 30
0.0
 10
113.3142078658176
 20
123.9083716134992
 30
0.0
 10
113.3375383039687
 20
123.9207865682533
 30
0.0
 10
113.3420257229701
 20
123.9227202836143
 30
0.0
 10
113.3420621796726
 20
123.9227310426929
 30
0.0
  0
ARC
  5
12B
330
F0
100
AcDbEntity
  8
$DDT_AUDIT_GENERATED_(C3)
  6
Continuous
 62
     7
100
AcDbCircle
 10
108.1109747679
 20
143.7251335843
 30
0.0
 40
20.5
100
AcDbArc
 50
241.93693752
 51
270.0
  0
ARC
  5
12C
330
F0
100
AcDbEntity
  8
$DDT_AUDIT_GENERATED_(C3)
  6
Continuous
 62
     7
100
AcDbCircle
 10
108.1109747679
 20
143.7251335843
 30
0.0
 40
20.5
100
AcDbArc
 50
270.0
 51
298.0872274096
  0
ARC
  5
12D
330
F0
100
AcDbEntity
  8
$DDT_AUDIT_GENERATED_(7E)
  6
Continuous
 62
     7
100
AcDbCircle
 10
123.5842967828
 20
110.5486208665
 30
0.0
 40
2.000000000007138
100
AcDbArc
 50
359.0000000001
 51
31.0992071971
  0
LINE
  5
12E
330
F0
100
AcDbEntity
  8
$DDT_AUDIT_GENERATED_(7E)
  6
Continuous
 62
     7
100
AcDbLine
 10
125.5839921731
 20
110.5137160537
 30
0.0
 11
125.5637694996
 21
109.3551598632
 31
0.0
  0
ARC
  5
12F
330
F0
100
AcDbEntity
  8
$DDT_AUDIT_GENERATED_(7E)
  6
Continuous
 62
     7
100
AcDbCircle
 10
125.2638151911
 20
109.3603955852
 30
0.0
 40
0.2999999999995811
100
AcDbArc
 50
302.4185883894
 51
359.0000000002
  0
SPLINE
  5
130
330
F0
100
AcDbEntity
  8
$DDT_AUDIT_GENERATED_(7E)
  6
Continuous
 62
     7
100
AcDbSpline
210
0.0
220
0.0
230
1.0
 70
     8
 71
     3
 72
    11
 73
     7
 74
     0
 42
0.0000000017769805
 43
0.0000000001
 40
0.0
 40
0.0
 40
0.0
 40
0.0
 40
0.3976674467889
 40
0.4887881534628
 40
0.6777827098620001
 40
1.0
 40
1.0
 40
1.0
 40
1.0
 10
125.424645398329
 20
109.1071493721198
 30
0.0
 10
124.768113391619
 20
108.6902026488298
 30
0.0
 10
123.930294780459
 20
108.2719656509398
 30
0.0
 10
122.739455288309
 20
107.9756349217698
 30
0.0
 10
121.672211368389
 20
107.8468923387898
 30
0.0
 10
120.713100705539
 20
107.8450497914398
 30
0.0
 10
120.060974767909
 20
107.8450497914398
 30
0.0
  0
ARC
  5
131
330
F0
100
AcDbEntity
  8
$DDT_AUDIT_GENERATED_(7E)
  6
Continuous
 62
     7
100
AcDbCircle
 10
90.9581343448
 20
109.3603955852
 30
0.0
 40
0.2999999999995811
100
AcDbArc
 50
180.9999999998
 51
237.5814116106
  0
SPLINE
  5
132
330
F0
100
AcDbEntity
  8
$DDT_AUDIT_GENERATED_(7E)
  6
Continuous
 62
     7
100
AcDbSpline
210
0.0
220
0.0
230
1.0
 70
     8
 71
     3
 72
    11
 73
     7
 74
     0
 42
0.0000000017769805
 43
0.0000000001
 40
0.0
 40
0.0
 40
0.0
 40
0.0
 40
0.397667446789
 40
0.4887881534628
 40
0.6777827098620001
 40
1.0
 40
1.0
 40
1.0
 40
1.0
 10
90.79730413748901
 20
109.1071493721198
 30
0.0
 10
91.453836144199
 20
108.6902026488298
 30
0.0
 10
92.29165475535902
 20
108.2719656509398
 30
0.0
 10
93.482494247509
 20
107.9756349217698
 30
0.0
 10
94.54973816742901
 20
107.8468923387898
 30
0.0
 10
95.508848830279
 20
107.8450497914398
 30
0.0
 10
96.160974767909
 20
107.8450497914398
 30
0.0
  0
LINE
  5
133
330
F0
100
AcDbEntity
  8
$DDT_AUDIT_GENERATED_(7E)
  6
Continuous
 62
     7
100
AcDbLine
 10
125.4246453983
 20
109.1071489722
 30
0.0
 11
90.7973041375
 21
109.1071489722
 31
0.0
  0
LINE
  5
134
330
F0
100
AcDbEntity
  8
$DDT_AUDIT_GENERATED_(7E)
  6
Continuous
 62
     7
100
AcDbLine
 10
120.0609747679
 20
107.8450497914
 30
0.0
 11
96.1609747679
 21
107.8450497914
 31
0.0
  0
SPLINE
  5
135
330
F0
100
AcDbEntity
  8
$DDT_AUDIT_GENERATED_(7E)
  6
Continuous
 62
     7
100
AcDbSpline
210
0.0
220
0.0
230
1.0
 70
     8
 71
     3
 72
    20
 73
    16
 74
     0
 42
0.0000000010223777
 43
0.0000000001
 40
0.0419291765395883
 40
0.0419291765395883
 40
0.0419291765395883
 40
0.0419291765395883
 40
0.0734959147431508
 40
0.1385969788100373
 40
0.1953023606978474
 40
0.243613259785716
 40
0.2835204884313925
 40
0.3150221331831748
 40
0.3381188357945252
 40
0.3528092051706385
 40
0.359091302097291
 40
0.4494299015244492
 40
0.5397771957266345
 40
0.5670149311272132
 40
0.5866256419050597
 40
0.5866256419050597
 40
0.5866256419050597
 40
0.5866256419050597
 10
106.1196438760914
 20
123.309619536852
 30
0.0
 10
105.9950848020444
 20
123.3168019931297
 30
0.0
 10
105.6153539581195
 20
123.3403659909367
 30
0.0
 10
105.0274386306233
 20
123.391115736926
 30
0.0
 10
104.3972389697104
 20
123.4600989230366
 30
0.0
 10
103.8804123134791
 20
123.5290918824476
 30
0.0
 10
103.4689621088189
 20
123.5927479848531
 30
0.0
 10
103.1551007393987
 20
123.6471226664891
 30
0.0
 10
102.9315125100649
 20
123.6892247174405
 30
0.0
 10
102.792281590995
 20
123.716973396605
 30
0.0
 10
102.4449038446643
 20
123.7883983215532
 30
0.0
 10
101.8941647695029
 20
123.9188931391594
 30
0.0
 10
101.3585664242654
 20
124.0843252099033
 30
0.0
 10
101.0436636656851
 20
124.2003100689555
 30
0.0
 10
100.9410167213743
 20
124.2409794881912
 30
0.0
 10
100.8989189212505
 20
124.2581844615117
 30
0.0
  0
ARC
  5
136
330
F0
100
AcDbEntity
  8
$DDT_AUDIT_GENERATED_(7E)
  6
Continuous
 62
     7
100
AcDbCircle
 10
108.10724235
 20
157.1698265903
 30
0.0
 40
33.91973021865289
100
AcDbArc
 50
267.4835564952
 51
270.0063046431
  0
ARC
  5
137
330
F0
100
AcDbEntity
  8
$DDT_AUDIT_GENERATED_(7E)
  6
Continuous
 62
     7
100
AcDbCircle
 10
108.1146924512
 20
157.1705296071
 30
0.0
 40
33.92043323383191
100
AcDbArc
 50
269.993720376
 51
272.5164213478
  0
SPLINE
  5
138
330
F0
100
AcDbEntity
  8
$DDT_AUDIT_GENERATED_(7E)
  6
Continuous
 62
     7
100
AcDbSpline
210
0.0
220
0.0
230
1.0
 70
     8
 71
     3
 72
    13
 73
     9
 74
     0
 42
0.0000000010123097
 43
0.0000000001
 40
0.4264223853879417
 40
0.4264223853879417
 40
0.4264223853879417
 40
0.4264223853879417
 40
0.471205276559707
 40
0.5252867557660276
 40
0.6217285147919613
 40
0.7478377812232652
 40
0.8739261302273635
 40
0.9639285224040424
 40
0.9639285224040424
 40
0.9639285224040424
 40
0.9639285224040424
 10
115.2396015773523
 20
124.2247697258202
 30
0.0
 10
115.1408128176398
 20
124.1860012314528
 30
0.0
 10
114.9122788021894
 20
124.1023290003058
 30
0.0
 10
114.4173358840033
 20
123.946177914049
 30
0.0
 10
113.6274218193456
 20
123.7459737541497
 30
0.0
 10
112.482768470475
 20
123.5387616492633
 30
0.0
 10
111.2319148716037
 20
123.3853114697149
 30
0.0
 10
110.3864684803038
 20
123.3291845056294
 30
0.0
 10
110.03157991581
 20
123.3078309753593
 30
0.0
  0
SPLINE
  5
139
330
F0
100
AcDbEntity
  8
$DDT_AUDIT_GENERATED_(7E)
  6
Continuous
 62
     7
100
AcDbSpline
210
0.0
220
0.0
230
1.0
 70
     8
 71
     3
 72
     8
 73
     4
 74
     0
 42
0.000000000756761
 43
0.0000000001
 40
0.9569342719354267
 40
0.9569342719354267
 40
0.9569342719354267
 40
0.9569342719354267
 40
1.0
 40
1.0
 40
1.0
 40
1.0
 10
120.7772241265488
 20
114.5962591916939
 30
0.0
 10
120.9570955834878
 20
114.5353679421433
 30
0.0
 10
121.1365234381313
 20
114.4741284674564
 30
0.0
 10
121.315943489559
 20
114.4128671231598
 30
0.0
  0
SPLINE
  5
13A
330
F0
100
AcDbEntity
  8
$DDT_AUDIT_GENERATED_(7E)
  6
Continuous
 62
     7
100
AcDbSpline
210
0.0
220
0.0
230
1.0
 70
     8
 71
     3
 72
     8
 73
     4
 74
     0
 42
0.0000000007564257
 43
0.0000000001
 40
0.9568702376749227
 40
0.9568702376749227
 40
0.9568702376749227
 40
0.9568702376749227
 40
1.0
 40
1.0
 40
1.0
 40
1.0
 10
95.4463724427221
 20
114.5947706804711
 30
0.0
 10
95.26642523018886
 20
114.5334647016383
 30
0.0
 10
95.08620878103011
 20
114.4731635260256
 30
0.0
 10
94.905992368509
 20
114.4128622476798
 30
0.0
  0
LINE
  5
13B
330
F0
100
AcDbEntity
  8
$DDT_AUDIT_GENERATED_(7E)
  6
Continuous
 62
     7
100
AcDbLine
 10
94.8893835941
 20
114.4069271384
 30
0.0
 11
94.9059924456
 21
114.4128620316
 31
0.0
  0
LINE
  5
13C
330
F0
100
AcDbEntity
  8
$DDT_AUDIT_GENERATED_(7E)
  6
Continuous
 62
     7
100
AcDbLine
 10
94.9159791694
 20
114.4072895594
 30
0.0
 11
94.8893835941
 21
114.4069271384
 31
0.0
  0
SPLINE
  5
13D
330
F0
100
AcDbEntity
  8
$DDT_AUDIT_GENERATED_(7E)
  6
Continuous
 62
     7
100
AcDbSpline
210
0.0
220
0.0
230
1.0
 70
     8
 71
     3
 72
    17
 73
    13
 74
     0
 42
0.0000000012221784
 43
0.0000000001
 40
0.0
 40
0.0
 40
0.0
 40
0.0
 40
0.0758438804147517
 40
0.1453285884870768
 40
0.2083102144894773
 40
0.2648947504763144
 40
0.3152958786274767
 40
0.359718164761102
 40
0.5277336077500571
 40
0.7089939276945324
 40
0.8696831982047413
 40
1.0
 40
1.0
 40
1.0
 40
1.0
 10
106.543156834428
 20
122.9995826965008
 30
0.0
 10
106.2277460302975
 20
123.0154790906671
 30
0.0
 10
105.6233733044468
 20
123.0459384108186
 30
0.0
 10
104.7883476910265
 20
123.1170419074432
 30
0.0
 10
104.0587286527264
 20
123.1973062997955
 30
0.0
 10
103.4314598917756
 20
123.2830136212788
 30
0.0
 10
102.898790713847
 20
123.3695445642277
 30
0.0
 10
102.0195211753747
 20
123.5346884636501
 30
0.0
 10
100.8570537547192
 20
123.831727906317
 30
0.0
 10
99.78448573298463
 20
124.3033112998064
 30
0.0
 10
99.1970202640832
 20
124.7969099950194
 30
0.0
 10
99.12593723967034
 20
125.1228021034362
 30
0.0
 10
99.094141396325
 20
125.2687401190248
 30
0.0
  0
SPLINE
  5
13E
330
F0
100
AcDbEntity
  8
$DDT_AUDIT_GENERATED_(7E)
  6
Continuous
 62
     7
100
AcDbSpline
210
0.0
220
0.0
230
1.0
 70
    12
 71
     3
 72
     8
 73
     4
 74
     0
 42
0.0000000739377909
 43
0.0000000001
 40
0.6630394984947192
 40
0.6630394984947192
 40
0.6630394984947192
 40
0.6630394984947192
 40
1.0
 40
1.0
 40
1.0
 40
1.0
 10
106.5894134903907
 20
123.2712014104019
 30
0.0
 41
1.052290447136856
 10
106.5995983076282
 20
123.2904437897194
 30
0.0
 41
1.100136387734651
 10
106.6093319349821
 20
123.2933692836754
 30
0.0
 41
1.180816729600309
 10
106.617959089339
 20
123.2828064575438
 30
0.0
 41
1.294331472733829
  0
LINE
  5
13F
330
F0
100
AcDbEntity
  8
$DDT_AUDIT_GENERATED_(7E)
  6
Continuous
 62
     7
100
AcDbLine
 10
108.1109747755
 20
122.9664382089
 30
0.0
 11
106.5431632608
 21
122.9995813911
 31
0.0
  0
SPLINE
  5
140
330
F0
100
AcDbEntity
  8
$DDT_AUDIT_GENERATED_(7E)
  6
Continuous
 62
     7
100
AcDbSpline
210
0.0
220
0.0
230
1.0
 70
     8
 71
     3
 72
    26
 73
    22
 74
     0
 42
0.0000000007588485
 43
0.0000000001
 40
0.0
 40
0.0
 40
0.0
 40
0.0
 40
0.011893794100107
 40
0.0357135686039173
 40
0.0714584863524462
 40
0.1085969463947604
 40
0.1429137676608773
 40
0.2420545803942839
 40
0.2857448342683609
 40
0.3928251360359358
 40
0.4999080220712653
 40
0.5713382303759199
 40
0.6427682261371034
 40
0.7141982869906278
 40
0.7522649990442966
 40
0.7856538499772014
 40
0.85145934960441
 40
0.8928163577241147
 40
0.928545788133201
 40
0.9642736697533164
 40
1.0
 40
1.0
 40
1.0
 40
1.0
 10
94.933114181219
 20
114.4076314385598
 30
0.0
 10
94.93972169707348
 20
114.4076500359699
 30
0.0
 10
94.95958822797897
 20
114.4076327525035
 30
0.0
 10
95.01407744177622
 20
114.4075771844772
 30
0.0
 10
95.11472705331444
 20
114.4074984420619
 30
0.0
 10
95.26425350375769
 20
114.4074325160879
 30
0.0
 10
95.55987272252496
 20
114.4074677360723
 30
0.0
 10
95.97826259952998
 20
114.4075673459496
 30
0.0
 10
96.72698625903342
 20
114.407597321521
 30
0.0
 10
97.66702738585707
 20
114.407321607911
 30
0.0
 10
98.9447065139113
 20
114.4077631968073
 30
0.0
 10
100.210669937712
 20
114.4074730819502
 30
0.0
 10
101.3856555288656
 20
114.4073701424101
 30
0.0
 10
102.4422138921314
 20
114.407548817116
 30
0.0
 10
103.307851154992
 20
114.4076407478334
 30
0.0
 10
104.1567496018444
 20
114.4075814916207
 30
0.0
 10
105.0480431870527
 20
114.4074490949779
 30
0.0
 10
105.9700657886513
 20
114.4074081108794
 30
0.0
 10
106.704836119595
 20
114.4074701693245
 30
0.0
 10
107.4069079289286
 20
114.4075324717877
 30
0.0
 10
107.8762892435428
 20
114.407597496959
 30
0.0
 10
108.1109748053799
 20
114.4076314385598
 30
0.0
  0
SPLINE
  5
141
330
F0
100
AcDbEntity
  8
$DDT_AUDIT_GENERATED_(7E)
  6
Continuous
 62
     7
100
AcDbSpline
210
0.0
220
0.0
230
1.0
 70
    12
 71
     3
 72
     8
 73
     4
 74
     0
 42
0.0000000007588358
 43
0.0000000001
 40
0.0
 40
0.0
 40
0.0
 40
0.0
 40
1.0
 40
1.0
 40
1.0
 40
1.0
 10
121.2890564233797
 20
114.4075571400176
 30
0.0
 41
1.0
 10
120.7118725577502
 20
114.4076314385603
 30
0.0
 41
0.823100906440005
 10
115.3751998014676
 20
114.4076314385603
 30
0.0
 41
0.823100906440005
 10
108.1109748053799
 20
114.4076314385598
 30
0.0
 41
1.0
  0
LINE
  5
142
330
F0
100
AcDbEntity
  8
$DDT_AUDIT_GENERATED_(7E)
  6
Continuous
 62
     7
100
AcDbLine
 10
109.6787860896
 20
122.999581316
 30
0.0
 11
108.1109747754
 21
122.9664382268
 31
0.0
  0
SPLINE
  5
143
330
F0
100
AcDbEntity
  8
$DDT_AUDIT_GENERATED_(7E)
  6
Continuous
 62
     7
100
AcDbSpline
210
0.0
220
0.0
230
1.0
 70
    12
 71
     3
 72
     8
 73
     4
 74
     0
 42
0.0000000729566333
 43
0.0000000001
 40
0.6865692917658706
 40
0.6865692917658706
 40
0.6865692917658706
 40
0.6865692917658706
 40
1.0
 40
1.0
 40
1.0
 40
1.0
 10
109.6315240411343
 20
123.2730601151854
 30
0.0
 41
1.029877894949157
 10
109.6217510633333
 20
123.2905096567538
 30
0.0
 41
1.06335329375699
 10
109.6123773496576
 20
123.2930620470835
 30
0.0
 41
1.124958242703453
 10
109.603993473715
 20
123.2828065611748
 30
0.0
 41
1.214692741788544
  0
SPLINE
  5
144
330
F0
100
AcDbEntity
  8
$DDT_AUDIT_GENERATED_(7E)
  6
Continuous
 62
     7
100
AcDbSpline
210
0.0
220
0.0
230
1.0
 70
     8
 71
     3
 72
    16
 73
    12
 74
     0
 42
0.0000000012256141
 43
0.0000000001
 40
0.0
 40
0.0
 40
0.0
 40
0.0
 40
0.0596722479386426
 40
0.123555269999001
 40
0.1915161976082582
 40
0.2633739841834967
 40
0.4547272041289741
 40
0.6211639126219801
 40
0.7238148123427544
 40
0.8496567330382888
 40
1.0
 40
1.0
 40
1.0
 40
1.0
 10
117.127807841598
 20
125.2687407689618
 30
0.0
 10
117.1203062878883
 20
125.2016695317774
 30
0.0
 10
117.1046982665366
 20
125.0627915280329
 30
0.0
 10
116.9973886299562
 20
124.8523205290802
 30
0.0
 10
116.8145476397639
 20
124.6341709675149
 30
0.0
 10
116.3895179003446
 20
124.2929121672844
 30
0.0
 10
115.5292349829799
 20
123.886650574882
 30
0.0
 10
114.2109990645235
 20
123.5302475775998
 30
0.0
 10
112.871516156657
 20
123.2868864314704
 30
0.0
 10
111.4450314040896
 20
123.102221854359
 30
0.0
 10
110.3013598556033
 20
123.0357612893136
 30
0.0
 10
109.678792830493
 20
122.9995826853288
 30
0.0
  0
LINE
  5
145
330
F0
100
AcDbEntity
  8
$DDT_AUDIT_GENERATED_(7E)
  6
Continuous
 62
     7
100
AcDbLine
 10
121.3325659417
 20
114.4069271384
 30
0.0
 11
121.3059736049
 21
114.4072894582
 31
0.0
  0
LINE
  5
146
330
F0
100
AcDbEntity
  8
$DDT_AUDIT_GENERATED_(7E)
  6
Continuous
 62
     7
100
AcDbLine
 10
121.3159434132
 20
114.4128669091
 30
0.0
 11
121.3325659417
 21
114.4069271384
 31
0.0
  0
SPLINE
  5
147
330
F0
100
AcDbEntity
  8
$DDT_AUDIT_GENERATED_(7E)
  6
Continuous
 62
     7
100
AcDbSpline
210
0.0
220
0.0
230
1.0
 70
     8
 71
     3
 72
     8
 73
     4
 74
     0
 42
0.0000000112234262
 43
0.0000000001
 40
0.9288843916984006
 40
0.9288843916984006
 40
0.9288843916984006
 40
0.9288843916984006
 40
1.0
 40
1.0
 40
1.0
 40
1.0
 10
117.1244081761741
 20
125.332010140646
 30
0.0
 10
117.125828383005
 20
125.3109094449382
 30
0.0
 10
117.1268154103219
 20
125.2898250128978
 30
0.0
 10
117.127807841598
 20
125.2687407689618
 30
0.0
  0
ARC
  5
148
330
F0
100
AcDbEntity
  8
$DDT_AUDIT_GENERATED_(7E)
  6
Continuous
 62
     7
100
AcDbCircle
 10
119.2962994817
 20
107.3600872156
 30
0.0
 40
7.336774398006203
100
AcDbArc
 50
35.127617014
 51
73.8819369476
  0
ARC
  5
149
330
F0
100
AcDbEntity
  8
$DDT_AUDIT_GENERATED_(7E)
  6
Continuous
 62
     7
100
AcDbCircle
 10
96.9256498413
 20
107.3600874578
 30
0.0
 40
7.336774106242128
100
AcDbArc
 50
106.1180619806
 51
144.8723811718
  0
ARC
  5
14A
330
F0
100
AcDbEntity
  8
$DDT_AUDIT_GENERATED_(7E)
  6
Continuous
 62
     7
100
AcDbCircle
 10
92.637652753
 20
110.5486208665
 30
0.0
 40
2.000000000007508
100
AcDbArc
 50
148.9007839595
 51
180.9999989171
  0
LINE
  5
14B
330
F0
100
AcDbEntity
  8
$DDT_AUDIT_GENERATED_(7E)
  6
Continuous
 62
     7
100
AcDbLine
 10
125.296845087
 20
111.5816640921
 30
0.0
 11
90.9251044488
 21
111.5816640921
 31
0.0
  0
LINE
  5
14C
330
F0
100
AcDbEntity
  8
$DDT_AUDIT_GENERATED_(7E)
  6
Continuous
 62
     7
100
AcDbLine
 10
90.637957362
 20
110.5137160914
 30
0.0
 11
90.6581800362
 21
109.3551598632
 31
0.0
  0
ARC
  5
14D
330
F0
100
AcDbEntity
  8
$DDT_AUDIT_GENERATED_(7E)
  6
Continuous
 62
     7
100
AcDbCircle
 10
93.9707317208
 20
124.533829945
 30
0.0
 40
7.649787709216661
100
AcDbArc
 50
356.2464426796
 51
358.462765264
  0
ARC
  5
14E
330
F0
100
AcDbEntity
  8
$DDT_AUDIT_GENERATED_(7E)
  6
Continuous
 62
     7
100
AcDbCircle
 10
122.2512596084
 20
124.5338316056
 30
0.0
 40
7.649829507427451
100
AcDbArc
 50
181.9188214397
 51
184.3754224558
  0
SPLINE
  5
14F
330
F0
100
AcDbEntity
  8
$DDT_AUDIT_GENERATED_(7E)
  6
Continuous
 62
     7
100
AcDbSpline
210
0.0
220
0.0
230
1.0
 70
     8
 71
     3
 72
    19
 73
    15
 74
     0
 42
0.0000000007983971
 43
0.0000000001
 40
0.0145752729194725
 40
0.0145752729194725
 40
0.0145752729194725
 40
0.0145752729194725
 40
0.144697926905755
 40
0.2659794043252959
 40
0.3633596921520462
 40
0.4376409326711113
 40
0.5073917323012931
 40
0.5976870352065092
 40
0.6443677250231862
 40
0.6933439152628931
 40
0.7494185002710768
 40
0.8167562613960018
 40
0.8990521363803515
 40
1.0
 40
1.0
 40
1.0
 40
1.0
 10
99.12527612685186
 20
125.3705746001996
 30
0.0
 10
99.10136792606154
 20
124.7205342005672
 30
0.0
 10
99.05923367814296
 20
123.6263013147812
 30
0.0
 10
98.98567217273568
 20
121.9620737421358
 30
0.0
 10
98.90078798237364
 20
120.5965898203966
 30
0.0
 10
98.79141634363705
 20
119.4672590455455
 30
0.0
 10
98.64010539831317
 20
118.3784540205121
 30
0.0
 10
98.42095333649051
 20
117.4315312716285
 30
0.0
 10
98.09690602556948
 20
116.6240284059847
 30
0.0
 10
97.73530744276798
 20
116.020585590643
 30
0.0
 10
97.25790128431795
 20
115.4977437552958
 30
0.0
 10
96.67941972969047
 20
115.085642284732
 30
0.0
 10
96.01903321363699
 20
114.7894170251229
 30
0.0
 10
95.64936231370396
 20
114.660264456143
 30
0.0
 10
95.41095924605996
 20
114.5850484235827
 30
0.0
  0
LINE
  5
150
330
F0
100
AcDbEntity
  8
$DDT_AUDIT_GENERATED_(7E)
  6
Continuous
 62
     7
100
AcDbLine
 10
106.5894263772
 20
123.2712226941
 30
0.0
 11
106.0916903768
 21
123.3089832285
 31
0.0
  0
LINE
  5
151
330
F0
100
AcDbEntity
  8
$DDT_AUDIT_GENERATED_(7E)
  6
Continuous
 62
     7
100
AcDbLine
 10
110.1533225793
 20
123.3056287559
 30
0.0
 11
109.5592853104
 21
123.2680489857
 31
0.0
  0
SPLINE
  5
152
330
F0
100
AcDbEntity
  8
$DDT_AUDIT_GENERATED_(7E)
  6
Continuous
 62
     7
100
AcDbSpline
210
0.0
220
0.0
230
1.0
 70
     8
 71
     3
 72
    19
 73
    15
 74
     0
 42
0.0000000007987161
 43
0.0000000001
 40
0.0
 40
0.0
 40
0.0
 40
0.0
 40
0.1009452856189403
 40
0.1832394755221091
 40
0.2505761061831328
 40
0.3066501429735634
 40
0.3556266164767922
 40
0.4252154561417595
 40
0.4925999053584195
 40
0.5623518698921508
 40
0.6366342664947647
 40
0.7340161014624768
 40
0.8552995984508205
 40
0.9833426487751588
 40
0.9833426487751588
 40
0.9833426487751588
 40
0.9833426487751588
 10
120.8107657600698
 20
114.5851232645163
 30
0.0
 10
120.5723960322796
 20
114.6603307460364
 30
0.0
 10
120.2027747305256
 20
114.7894710416592
 30
0.0
 10
119.5424660139889
 20
115.0856767568904
 30
0.0
 10
118.964036054384
 20
115.4977725084338
 30
0.0
 10
118.4866472604332
 20
116.0205359992647
 30
0.0
 10
118.0704775616675
 20
116.7152558345493
 30
0.0
 10
117.774873616022
 20
117.5380233821633
 30
0.0
 10
117.5668014160523
 20
118.4843232223335
 30
0.0
 10
117.4306120079476
 20
119.4673663855562
 30
0.0
 10
117.3211380499598
 20
120.5964730567702
 30
0.0
 10
117.2362901044215
 20
121.9620285247895
 30
0.0
 10
117.1631539160099
 20
123.6162837826185
 30
0.0
 10
117.1212818469424
 20
124.7023205426498
 30
0.0
 10
117.0978213437817
 20
125.3393517519325
 30
0.0
  0
LINE
  5
153
330
F0
100
AcDbEntity
  8
$DDT_AUDIT_GENERATED_(E1)
  6
Continuous
 62
     7
100
AcDbLine
 10
104.0276380975
 20
106.5768048698
 30
0.0
 11
103.3925064202
 21
106.6531653894
 31
0.0
  0
LINE
  5
154
330
F0
100
AcDbEntity
  8
$DDT_AUDIT_GENERATED_(E1)
  6
Continuous
 62
     7
100
AcDbLine
 10
107.5489287667
 20
106.3542739305
 30
0.0
 11
106.2705198462
 21
106.3959596882
 31
0.0
  0
LINE
  5
155
330
F0
100
AcDbEntity
  8
$DDT_AUDIT_GENERATED_(E1)
  6
Continuous
 62
     7
100
AcDbLine
 10
101.6799187209
 20
106.9153062445
 30
0.0
 11
97.9781231863
 21
107.7723207986
 31
0.0
  0
LINE
  5
156
330
F0
100
AcDbEntity
  8
$DDT_AUDIT_GENERATED_(E1)
  6
Continuous
 62
     7
100
AcDbLine
 10
109.5462230869
 20
106.3779380108
 30
0.0
 11
108.6482223932
 21
106.3539043783
 31
0.0
  0
LINE
  5
157
330
F0
100
AcDbEntity
  8
$DDT_AUDIT_GENERATED_(E1)
  6
Continuous
 62
     7
100
AcDbLine
 10
112.8788706038
 20
106.6595778206
 30
0.0
 11
111.8115852304
 21
106.5361792373
 31
0.0
  0
LINE
  5
158
330
F0
100
AcDbEntity
  8
$DDT_AUDIT_GENERATED_(E1)
  6
Continuous
 62
     7
100
AcDbLine
 10
103.3925064202
 20
106.6531653894
 30
0.0
 11
101.6799187209
 21
106.9153062445
 31
0.0
  0
LINE
  5
159
330
F0
100
AcDbEntity
  8
$DDT_AUDIT_GENERATED_(E1)
  6
Continuous
 62
     7
100
AcDbLine
 10
105.6748618973
 20
106.4305678981
 30
0.0
 11
104.0276380975
 21
106.5768048698
 31
0.0
  0
LINE
  5
15A
330
F0
100
AcDbEntity
  8
$DDT_AUDIT_GENERATED_(E1)
  6
Continuous
 62
     7
100
AcDbLine
 10
109.5462230869
 20
106.3779380108
 30
0.0
 11
111.8115852304
 21
106.5361792373
 31
0.0
  0
LINE
  5
15B
330
F0
100
AcDbEntity
  8
$DDT_AUDIT_GENERATED_(E1)
  6
Continuous
 62
     7
100
AcDbLine
 10
106.2705198462
 20
106.3959596882
 30
0.0
 11
105.6748618973
 21
106.4305678981
 31
0.0
  0
SPLINE
  5
15C
330
F0
100
AcDbEntity
  8
$DDT_AUDIT_GENERATED_(E1)
  6
Continuous
 62
     7
100
AcDbSpline
210
0.0
220
0.0
230
1.0
 70
     8
 71
     3
 72
     8
 73
     4
 74
     0
 42
0.0000000022263157
 43
0.0000000001
 40
0.0
 40
0.0
 40
0.0
 40
0.0
 40
1.0
 40
1.0
 40
1.0
 40
1.0
 10
118.2438263643772
 20
107.7723208028629
 30
0.0
 10
116.8055621531504
 20
107.3590393057718
 30
0.0
 10
115.3419360162581
 20
107.0352131775708
 30
0.0
 10
113.8640392591891
 20
106.8016407733358
 30
0.0
  0
ARC
  5
15D
330
F0
100
AcDbEntity
  8
$DDT_AUDIT_GENERATED_(E1)
  6
Continuous
 62
     7
100
AcDbCircle
 10
113.1773988822
 20
795.9557919864
 30
0.0
 40
688.2021205268484
100
AcDbArc
 50
269.5781946431
 51
270.4218056374
  0
ARC
  5
15E
330
F0
100
AcDbEntity
  8
$DDT_AUDIT_GENERATED_(E1)
  6
Continuous
 62
     7
100
AcDbCircle
 10
103.0445503699
 20
795.2406406418
 30
0.0
 40
687.4869885840816
100
AcDbArc
 50
269.5777556125
 51
270.4222441554
  0
LINE
  5
15F
330
F0
100
AcDbEntity
  8
$DDT_AUDIT_GENERATED_(E1)
  6
Continuous
 62
     7
100
AcDbLine
 10
108.1109747679
 20
106.3500000096
 30
0.0
 11
108.6482223932
 21
106.3539043783
 31
0.0
  0
SPLINE
  5
160
330
F0
100
AcDbEntity
  8
$DDT_AUDIT_GENERATED_(E1)
  6
Continuous
 62
     7
100
AcDbSpline
210
0.0
220
0.0
230
1.0
 70
     8
 71
     3
 72
     8
 73
     4
 74
     0
 42
0.0000000100460204
 43
0.0000000001
 40
0.0
 40
0.0
 40
0.0
 40
0.0
 40
1.0
 40
1.0
 40
1.0
 40
1.0
 10
112.878871088874
 20
106.6595778838353
 30
0.0
 10
113.2078812743595
 20
106.7024881601347
 30
0.0
 10
113.5363111414841
 20
106.7498453796307
 30
0.0
 10
113.8640392591891
 20
106.8016407733358
 30
0.0
  0
LINE
  5
161
330
F0
100
AcDbEntity
  8
$DDT_AUDIT_GENERATED_(E1)
  6
Continuous
 62
     7
100
AcDbLine
 10
108.1109747679
 20
106.3500000096
 30
0.0
 11
107.5489287667
 21
106.3542739305
 31
0.0
  0
ENDBLK
  5
163
330
F0
100
AcDbEntity
  8
0
100
AcDbBlockEnd
  0
ENDSEC
  0
SECTION
  2
ENTITIES
  0
INSERT
  5
5F
330
1F
100
AcDbEntity
  8
Default
100
AcDbBlockReference
  2
SE
 10
0.0
 20
0.0
 30
0.0
  0
INSERT
  5
8C
330
1F
100
AcDbEntity
  8
Default
100
AcDbBlockReference
  2
SE1
 10
0.0
 20
0.0
 30
0.0
  0
INSERT
  5
F1
330
1F
100
AcDbEntity
  8
Default
100
AcDbBlockReference
  2
SE2
 10
0.0
 20
0.0
 30
0.0
  0
TEXT
  5
165
330
1F
100
AcDbEntity
  8
Default
  6
Continuous
 62
     7
100
AcDbText
 10
5.9362635081
 20
53.4225120485
 30
0.0
 40
10.0
  1
Grohe AG^J
  7
SEACAD_seiso_ttf
 11
5.9362635081
 21
63.4225120485
 31
0.0
100
AcDbText
 73
     3
  0
TEXT
  5
166
330
1F
100
AcDbEntity
  8
Default
  6
Continuous
 62
     7
100
AcDbText
 10
5.9362635081
 20
37.0588756849
 30
0.0
 40
10.0
  1
 
  7
SEACAD_seiso_ttf
 11
5.9362635081
 21
47.0588756849
 31
0.0
100
AcDbText
 73
     3
  0
TEXT
  5
167
330
1F
100
AcDbEntity
  8
Default
  6
Continuous
 62
     7
100
AcDbText
 10
5.9362635081
 20
20.6952393213
 30
0.0
 40
10.0
  1
ecn: 
  7
SEACAD_seiso_ttf
 11
5.9362635081
 21
30.6952393213
 31
0.0
100
AcDbText
 73
     3
  0
TEXT
  5
168
330
1F
100
AcDbEntity
  8
Default
  6
Continuous
 62
     7
100
AcDbText
 10
5.9362635081
 20
4.3316029576
 30
0.0
 40
10.0
  1
unit: mm
  7
SEACAD_seiso_ttf
 11
5.9362635081
 21
14.3316029576
 31
0.0
100
AcDbText
 73
     3
  0
LINE
  5
169
330
1F
100
AcDbEntity
  8
Default
  6
Continuous
 62
     7
100
AcDbLine
 10
0.0
 20
0.0
 30
0.0
 11
100.0
 21
0.0
 31
0.0
  0
LINE
  5
16A
330
1F
100
AcDbEntity
  8
Default
  6
Continuous
 62
     7
100
AcDbLine
 10
0.0
 20
0.0
 30
0.0
 11
0.0
 21
100.0
 31
0.0
  0
TEXT
  5
16B
330
1F
100
AcDbEntity
  8
Default
  6
Continuous
 62
     7
100
AcDbText
 10
24.3923665681
 20
-18.2375342018
 30
0.0
 40
10.0
  1
100 mm
  7
SEACAD_seiso_ttf
 11
24.3923665681
 21
-8.2375342018
 31
0.0
100
AcDbText
 73
     3
  0
TEXT
  5
16C
330
1F
100
AcDbEntity
  8
Default
  6
Continuous
 62
     7
100
AcDbText
 10
-7.6150308803
 20
24.6231930421
 30
0.0
 40
10.0
  1
100 mm
 50
90.0
  7
SEACAD_seiso_ttf
 11
-17.6150308803
 21
24.6231930421
 31
0.0
100
AcDbText
 73
     3
  0
TEXT
  5
16D
330
1F
100
AcDbEntity
  8
Default
  6
Continuous
 62
     7
100
AcDbText
 10
28.4878128572
 20
20.0907663715
 30
0.0
 40
10.0
  1
216308
  7
SEACAD_seiso_ttf
 11
28.4878128572
 21
30.0907663715
 31
0.0
100
AcDbText
 73
     3
  0
TEXT
  5
16E
330
1F
100
AcDbEntity
  8
Default
  6
Continuous
 62
     7
100
AcDbText
 10
5.9012241913
 20
36.7242780188
 30
0.0
 40
10.0
  1
19344000
  7
SEACAD_seiso_ttf
 11
5.9012241913
 21
46.7242780188
 31
0.0
100
AcDbText
 73
     3
  0
ENDSEC
  0
SECTION
  2
OBJECTS
  0
DICTIONARY
  5
C
330
0
100
AcDbDictionary
281
     1
  3
ACAD_GROUP
350
D
  3
ACAD_LAYOUT
350
1A
  3
ACAD_MLEADERSTYLE
350
172
  3
ACAD_MLINESTYLE
350
17
  3
ACAD_PLOTSETTINGS
350
19
  3
ACAD_PLOTSTYLENAME
350
E
  3
ACAD_SCALELIST
350
3B
  3
ACAD_TABLESTYLE
350
171
  3
ACAD_VISUALSTYLE
350
2A
  3
AcDbVariableDictionary
350
16F
  0
DICTIONARY
  5
D
102
{ACAD_REACTORS
330
C
102
}
330
C
100
AcDbDictionary
281
     1
  0
DICTIONARY
  5
1A
102
{ACAD_REACTORS
330
C
102
}
330
C
100
AcDbDictionary
281
     1
  3
Layout1
350
1E
  3
Model
350
22
  0
DICTIONARY
  5
172
102
{ACAD_REACTORS
330
C
102
}
330
C
100
AcDbDictionary
281
     1
  0
DICTIONARY
  5
17
102
{ACAD_REACTORS
330
C
102
}
330
C
100
AcDbDictionary
281
     1
  3
Standard
350
18
  0
DICTIONARY
  5
19
102
{ACAD_REACTORS
330
C
102
}
330
C
100
AcDbDictionary
281
     1
  0
ACDBDICTIONARYWDFLT
  5
E
102
{ACAD_REACTORS
330
C
102
}
330
C
100
AcDbDictionary
281
     1
  3
Normal
350
F
100
AcDbDictionaryWithDefault
340
F
  0
DICTIONARY
  5
3B
102
{ACAD_REACTORS
330
C
102
}
330
C
100
AcDbDictionary
281
     1
  3
A0
350
3C
  3
A1
350
3D
  3
A2
350
3E
  3
A3
350
3F
  3
A4
350
40
  3
A5
350
41
  3
A6
350
42
  3
A7
350
43
  3
A8
350
44
  3
A9
350
45
  3
B0
350
46
  3
B1
350
47
  3
B2
350
48
  3
B3
350
49
  3
B4
350
4A
  3
B5
350
4B
  3
B6
350
4C
  3
B7
350
4D
  3
B8
350
4E
  3
B9
350
4F
  3
C0
350
50
  3
C1
350
51
  3
C2
350
52
  3
C3
350
53
  3
C4
350
54
  3
C5
350
55
  3
C6
350
56
  3
C7
350
57
  3
C8
350
58
  3
C9
350
59
  3
D0
350
5A
  3
D1
350
5B
  3
D2
350
5C
  0
DICTIONARY
  5
171
102
{ACAD_REACTORS
330
C
102
}
330
C
100
AcDbDictionary
281
     1
  0
DICTIONARY
  5
2A
102
{ACAD_REACTORS
330
C
102
}
330
C
100
AcDbDictionary
281
     1
  3
2dWireframe
350
2F
  3
3D Hidden
350
31
  3
3dWireframe
350
30
  3
Basic
350
32
  3
Brighten
350
36
  3
ColorChange
350
3A
  3
Conceptual
350
34
  3
Dim
350
35
  3
Facepattern
350
39
  3
Flat
350
2B
  3
FlatWithEdges
350
2C
  3
Gouraud
350
2D
  3
GouraudWithEdges
350
2E
  3
Linepattern
350
38
  3
Realistic
350
33
  3
Thicken
350
37
  0
DICTIONARY
  5
16F
102
{ACAD_REACTORS
330
C
102
}
330
C
100
AcDbDictionary
281
     1
  3
CANNOSCALE
350
170
  3
PSOLHEIGHT
350
174
  3
PSOLWIDTH
350
173
  0
LAYOUT
  5
1E
102
{ACAD_REACTORS
330
1A
102
}
330
1A
100
AcDbPlotSettings
  1

  2
none_device
  4

  6

 40
0.0
 41
0.0
 42
0.0
 43
0.0
 44
0.0
 45
0.0
 46
0.0
 47
0.0
 48
0.0
 49
0.0
140
0.0
141
0.0
142
1.0
143
1.0
 70
   688
 72
     0
 73
     0
 74
     5
  7

 75
    16
147
1.0
148
0.0
149
0.0
100
AcDbLayout
  1
Layout1
 70
     1
 71
     1
 10
0.0
 20
0.0
 11
1682.0
 21
2378.0
 12
0.0
 22
0.0
 32
0.0
 14
0.0
 24
0.0
 34
0.0
 15
1682.0
 25
2378.0
 35
0.0
146
0.0
 13
0.0
 23
0.0
 33
0.0
 16
1.0
 26
0.0
 36
0.0
 17
0.0
 27
1.0
 37
0.0
 76
     0
330
1B
  0
LAYOUT
  5
22
102
{ACAD_REACTORS
330
1A
102
}
330
1A
100
AcDbPlotSettings
  1

  2
none_device
  4

  6

 40
0.0
 41
0.0
 42
0.0
 43
0.0
 44
0.0
 45
0.0
 46
0.0
 47
0.0
 48
0.0
 49
0.0
140
0.0
141
0.0
142
1.0
143
1.0
 70
  1712
 72
     0
 73
     0
 74
     0
  7

 75
     0
147
1.0
148
0.0
149
0.0
100
AcDbLayout
  1
Model
 70
     1
 71
     0
 10
0.0
 20
0.0
 11
1682.0
 21
2378.0
 12
0.0
 22
0.0
 32
0.0
 14
0.0
 24
0.0
 34
0.0
 15
1682.0
 25
2378.0
 35
0.0
146
0.0
 13
0.0
 23
0.0
 33
0.0
 16
1.0
 26
0.0
 36
0.0
 17
0.0
 27
1.0
 37
0.0
 76
     0
330
1F
331
29
  0
MLINESTYLE
  5
18
102
{ACAD_REACTORS
330
17
102
}
330
17
100
AcDbMlineStyle
  2
Standard
 70
     0
  3

 62
   256
 51
90.0
 52
90.0
 71
     2
 49
0.5
 62
   256
  6
BYLAYER
 49
-0.5
 62
   256
  6
BYLAYER
  0
ACDBPLACEHOLDER
  5
F
102
{ACAD_REACTORS
330
E
102
}
330
E
  0
SCALE
  5
3C
102
{ACAD_REACTORS
330
3B
102
}
330
3B
100
AcDbScale
 70
     0
300
1:1
140
1.0
141
1.0
290
     1
  0
SCALE
  5
3D
102
{ACAD_REACTORS
330
3B
102
}
330
3B
100
AcDbScale
 70
     0
300
1:2
140
1.0
141
2.0
290
     0
  0
SCALE
  5
3E
102
{ACAD_REACTORS
330
3B
102
}
330
3B
100
AcDbScale
 70
     0
300
1:4
140
1.0
141
4.0
290
     0
  0
SCALE
  5
3F
102
{ACAD_REACTORS
330
3B
102
}
330
3B
100
AcDbScale
 70
     0
300
1:5
140
1.0
141
5.0
290
     0
  0
SCALE
  5
40
102
{ACAD_REACTORS
330
3B
102
}
330
3B
100
AcDbScale
 70
     0
300
1:8
140
1.0
141
8.0
290
     0
  0
SCALE
  5
41
102
{ACAD_REACTORS
330
3B
102
}
330
3B
100
AcDbScale
 70
     0
300
1:10
140
1.0
141
10.0
290
     0
  0
SCALE
  5
42
102
{ACAD_REACTORS
330
3B
102
}
330
3B
100
AcDbScale
 70
     0
300
1:16
140
1.0
141
16.0
290
     0
  0
SCALE
  5
43
102
{ACAD_REACTORS
330
3B
102
}
330
3B
100
AcDbScale
 70
     0
300
1:20
140
1.0
141
20.0
290
     0
  0
SCALE
  5
44
102
{ACAD_REACTORS
330
3B
102
}
330
3B
100
AcDbScale
 70
     0
300
1:30
140
1.0
141
30.0
290
     0
  0
SCALE
  5
45
102
{ACAD_REACTORS
330
3B
102
}
330
3B
100
AcDbScale
 70
     0
300
1:40
140
1.0
141
40.0
290
     0
  0
SCALE
  5
46
102
{ACAD_REACTORS
330
3B
102
}
330
3B
100
AcDbScale
 70
     0
300
1:50
140
1.0
141
50.0
290
     0
  0
SCALE
  5
47
102
{ACAD_REACTORS
330
3B
102
}
330
3B
100
AcDbScale
 70
     0
300
1:100
140
1.0
141
100.0
290
     0
  0
SCALE
  5
48
102
{ACAD_REACTORS
330
3B
102
}
330
3B
100
AcDbScale
 70
     0
300
2:1
140
2.0
141
1.0
290
     0
  0
SCALE
  5
49
102
{ACAD_REACTORS
330
3B
102
}
330
3B
100
AcDbScale
 70
     0
300
4:1
140
4.0
141
1.0
290
     0
  0
SCALE
  5
4A
102
{ACAD_REACTORS
330
3B
102
}
330
3B
100
AcDbScale
 70
     0
300
8:1
140
8.0
141
1.0
290
     0
  0
SCALE
  5
4B
102
{ACAD_REACTORS
330
3B
102
}
330
3B
100
AcDbScale
 70
     0
300
10:1
140
10.0
141
1.0
290
     0
  0
SCALE
  5
4C
102
{ACAD_REACTORS
330
3B
102
}
330
3B
100
AcDbScale
 70
     0
300
100:1
140
100.0
141
1.0
290
     0
  0
SCALE
  5
4D
102
{ACAD_REACTORS
330
3B
102
}
330
3B
100
AcDbScale
 70
     0
300
1/128" = 1'-0"
140
0.0078125
141
12.0
290
     0
  0
SCALE
  5
4E
102
{ACAD_REACTORS
330
3B
102
}
330
3B
100
AcDbScale
 70
     0
300
1/64" = 1'-0"
140
0.015625
141
12.0
290
     0
  0
SCALE
  5
4F
102
{ACAD_REACTORS
330
3B
102
}
330
3B
100
AcDbScale
 70
     0
300
1/32" = 1'-0"
140
0.03125
141
12.0
290
     0
  0
SCALE
  5
50
102
{ACAD_REACTORS
330
3B
102
}
330
3B
100
AcDbScale
 70
     0
300
1/16" = 1'-0"
140
0.0625
141
12.0
290
     0
  0
SCALE
  5
51
102
{ACAD_REACTORS
330
3B
102
}
330
3B
100
AcDbScale
 70
     0
300
3/32" = 1'-0"
140
0.09375
141
12.0
290
     0
  0
SCALE
  5
52
102
{ACAD_REACTORS
330
3B
102
}
330
3B
100
AcDbScale
 70
     0
300
1/8" = 1'-0"
140
0.125
141
12.0
290
     0
  0
SCALE
  5
53
102
{ACAD_REACTORS
330
3B
102
}
330
3B
100
AcDbScale
 70
     0
300
3/16" = 1'-0"
140
0.1875
141
12.0
290
     0
  0
SCALE
  5
54
102
{ACAD_REACTORS
330
3B
102
}
330
3B
100
AcDbScale
 70
     0
300
1/4" = 1'-0"
140
0.25
141
12.0
290
     0
  0
SCALE
  5
55
102
{ACAD_REACTORS
330
3B
102
}
330
3B
100
AcDbScale
 70
     0
300
3/8" = 1'-0"
140
0.375
141
12.0
290
     0
  0
SCALE
  5
56
102
{ACAD_REACTORS
330
3B
102
}
330
3B
100
AcDbScale
 70
     0
300
1/2" = 1'-0"
140
0.5
141
12.0
290
     0
  0
SCALE
  5
57
102
{ACAD_REACTORS
330
3B
102
}
330
3B
100
AcDbScale
 70
     0
300
3/4" = 1'-0"
140
0.75
141
12.0
290
     0
  0
SCALE
  5
58
102
{ACAD_REACTORS
330
3B
102
}
330
3B
100
AcDbScale
 70
     0
300
1" = 1'-0"
140
1.0
141
12.0
290
     0
  0
SCALE
  5
59
102
{ACAD_REACTORS
330
3B
102
}
330
3B
100
AcDbScale
 70
     0
300
1-1/2" = 1'-0"
140
1.5
141
12.0
290
     0
  0
SCALE
  5
5A
102
{ACAD_REACTORS
330
3B
102
}
330
3B
100
AcDbScale
 70
     0
300
3" = 1'-0"
140
3.0
141
12.0
290
     0
  0
SCALE
  5
5B
102
{ACAD_REACTORS
330
3B
102
}
330
3B
100
AcDbScale
 70
     0
300
6" = 1'-0"
140
6.0
141
12.0
290
     0
  0
SCALE
  5
5C
102
{ACAD_REACTORS
330
3B
102
}
330
3B
100
AcDbScale
 70
     0
300
1'-0" = 1'-0"
140
12.0
141
12.0
290
     0
  0
VISUALSTYLE
  5
2F
102
{ACAD_REACTORS
330
2A
102
}
330
2A
100
AcDbVisualStyle
  2
2dWireframe
 70
     4
 71
     0
 72
     2
 73
     0
 90
        0
 40
-0.6
 41
-30.0
 62
     5
 63
     7
 74
     1
 91
        4
 64
     7
 65
   257
 75
     1
175
     1
 42
1.0
 92
        0
 66
   257
 43
1.0
 76
     1
 77
     6
 78
     2
 67
     7
 79
     5
170
     0
171
     0
290
     0
174
     0
 93
        1
 44
0.0
173
     0
291
     0
 45
0.0
1001
ACAD
1000
AcDbSavedByObjectVersion
1070
     0
  0
VISUALSTYLE
  5
31
102
{ACAD_REACTORS
330
2A
102
}
330
2A
100
AcDbVisualStyle
  2
3D Hidden
 70
     6
 71
     1
 72
     2
 73
     2
 90
        0
 40
-0.6
 41
-30.0
 62
     5
 63
     7
 74
     2
 91
        2
 64
     7
 65
   257
 75
     2
175
     1
 42
40.0
 92
        0
 66
   257
 43
1.0
 76
     1
 77
     6
 78
     2
 67
     7
 79
     3
170
     0
171
     0
290
     0
174
     0
 93
        1
 44
0.0
173
     0
291
     0
 45
0.0
1001
ACAD
1000
AcDbSavedByObjectVersion
1070
     0
  0
VISUALSTYLE
  5
30
102
{ACAD_REACTORS
330
2A
102
}
330
2A
100
AcDbVisualStyle
  2
3dWireframe
 70
     5
 71
     0
 72
     2
 73
     0
 90
        0
 40
-0.6
 41
-30.0
 62
     5
 63
     7
 74
     1
 91
        4
 64
     7
 65
   257
 75
     1
175
     1
 42
1.0
 92
        0
 66
   257
 43
1.0
 76
     1
 77
     6
 78
     2
 67
     7
 79
     5
170
     0
171
     0
290
     0
174
     0
 93
        1
 44
0.0
173
     0
291
     0
 45
0.0
1001
ACAD
1000
AcDbSavedByObjectVersion
1070
     0
  0
VISUALSTYLE
  5
32
102
{ACAD_REACTORS
330
2A
102
}
330
2A
100
AcDbVisualStyle
  2
Basic
 70
     7
 71
     1
 72
     0
 73
     1
 90
        0
 40
-0.6
 41
-30.0
 62
     5
 63
     7
 74
     0
 91
        4
 64
     7
 65
   257
 75
     1
175
     1
 42
1.0
 92
        8
 66
     7
 43
1.0
 76
     1
 77
     6
 78
     2
 67
     7
 79
     5
170
     0
171
     0
290
     0
174
     0
 93
        1
 44
0.0
173
     0
291
     1
 45
0.0
1001
ACAD
1000
AcDbSavedByObjectVersion
1070
     0
  0
VISUALSTYLE
  5
36
102
{ACAD_REACTORS
330
2A
102
}
330
2A
100
AcDbVisualStyle
  2
Brighten
 70
    12
 71
     2
 72
     2
 73
     0
 90
        0
 40
-0.6
 41
-30.0
 62
     5
 63
     7
 74
     1
 91
        4
 64
     7
 65
   257
 75
     1
175
     1
 42
1.0
 92
        8
 66
     7
 43
1.0
 76
     1
 77
     6
 78
     2
 67
     7
 79
     5
170
     0
171
     0
290
     0
174
     0
 93
        1
 44
50.0
173
     0
291
     1
 45
0.0
1001
ACAD
1000
AcDbSavedByObjectVersion
1070
     0
  0
VISUALSTYLE
  5
3A
102
{ACAD_REACTORS
330
2A
102
}
330
2A
100
AcDbVisualStyle
  2
ColorChange
 70
    16
 71
     2
 72
     2
 73
     3
 90
        0
 40
-0.6
 41
-30.0
 62
     5
 63
     8
 74
     1
 91
        4
 64
     7
 65
   257
 75
     1
175
     1
 42
1.0
 92
        8
 66
     8
 43
1.0
 76
     1
 77
     6
 78
     2
 67
     7
 79
     5
170
     0
171
     0
290
     0
174
     0
 93
        1
 44
0.0
173
     0
291
     1
 45
0.0
1001
ACAD
1000
AcDbSavedByObjectVersion
1070
     0
  0
VISUALSTYLE
  5
34
102
{ACAD_REACTORS
330
2A
102
}
330
2A
100
AcDbVisualStyle
  2
Conceptual
 70
     9
 71
     3
 72
     2
 73
     0
 90
        0
 40
-0.6
 41
-30.0
 62
     5
 63
     7
 74
     2
 91
        2
 64
     7
 65
   257
 75
     1
175
     1
 42
40.0
 92
        8
 66
     7
 43
1.0
 76
     1
 77
     6
 78
     2
 67
     7
 79
     3
170
     0
171
     0
290
     0
174
     0
 93
        1
 44
0.0
173
     0
291
     0
 45
0.0
1001
ACAD
1000
AcDbSavedByObjectVersion
1070
     0
  0
VISUALSTYLE
  5
35
102
{ACAD_REACTORS
330
2A
102
}
330
2A
100
AcDbVisualStyle
  2
Dim
 70
    11
 71
     2
 72
     2
 73
     0
 90
        0
 40
-0.6
 41
-30.0
 62
     5
 63
     7
 74
     1
 91
        4
 64
     7
 65
   257
 75
     1
175
     1
 42
1.0
 92
        8
 66
     7
 43
1.0
 76
     1
 77
     6
 78
     2
 67
     7
 79
     5
170
     0
171
     0
290
     0
174
     0
 93
        1
 44
-50.0
173
     0
291
     1
 45
0.0
1001
ACAD
1000
AcDbSavedByObjectVersion
1070
     0
  0
VISUALSTYLE
  5
39
102
{ACAD_REACTORS
330
2A
102
}
330
2A
100
AcDbVisualStyle
  2
Facepattern
 70
    15
 71
     2
 72
     2
 73
     0
 90
        0
 40
-0.6
 41
-30.0
 62
     5
 63
     7
 74
     1
 91
        4
 64
     7
 65
   257
 75
     1
175
     1
 42
1.0
 92
        8
 66
     7
 43
1.0
 76
     1
 77
     6
 78
     2
 67
     7
 79
     5
170
     0
171
     0
290
     0
174
     0
 93
        1
 44
0.0
173
     0
291
     1
 45
0.0
1001
ACAD
1000
AcDbSavedByObjectVersion
1070
     0
  0
VISUALSTYLE
  5
2B
102
{ACAD_REACTORS
330
2A
102
}
330
2A
100
AcDbVisualStyle
  2
Flat
 70
     0
 71
     2
 72
     1
 73
     1
 90
        2
 40
-0.6
 41
30.0
 62
     5
 63
     7
 74
     0
 91
        4
 64
     7
 65
   257
 75
     1
175
     1
 42
1.0
 92
        8
 66
     7
 43
1.0
 76
     1
 77
     6
 78
     2
 67
     7
 79
     5
170
     0
171
     0
290
     0
174
     0
 93
       13
 44
0.0
173
     0
291
     1
 45
0.0
1001
ACAD
1000
AcDbSavedByObjectVersion
1070
     0
  0
VISUALSTYLE
  5
2C
102
{ACAD_REACTORS
330
2A
102
}
330
2A
100
AcDbVisualStyle
  2
FlatWithEdges
 70
     1
 71
     2
 72
     1
 73
     1
 90
        2
 40
-0.6
 41
30.0
 62
     5
 63
     7
 74
     1
 91
        4
 64
     7
 65
   257
 75
     1
175
     1
 42
1.0
 92
        0
 66
   257
 43
1.0
 76
     1
 77
     6
 78
     2
 67
     7
 79
     5
170
     0
171
     0
290
     0
174
     0
 93
       13
 44
0.0
173
     0
291
     1
 45
0.0
1001
ACAD
1000
AcDbSavedByObjectVersion
1070
     0
  0
VISUALSTYLE
  5
2D
102
{ACAD_REACTORS
330
2A
102
}
330
2A
100
AcDbVisualStyle
  2
Gouraud
 70
     2
 71
     2
 72
     2
 73
     1
 90
        2
 40
-0.6
 41
30.0
 62
     5
 63
     7
 74
     0
 91
        4
 64
     7
 65
   257
 75
     1
175
     1
 42
1.0
 92
        0
 66
     7
 43
1.0
 76
     1
 77
     6
 78
     2
 67
     7
 79
     5
170
     0
171
     0
290
     0
174
     0
 93
       13
 44
0.0
173
     0
291
     1
 45
0.0
1001
ACAD
1000
AcDbSavedByObjectVersion
1070
     0
  0
VISUALSTYLE
  5
2E
102
{ACAD_REACTORS
330
2A
102
}
330
2A
100
AcDbVisualStyle
  2
GouraudWithEdges
 70
     3
 71
     2
 72
     2
 73
     1
 90
        2
 40
-0.6
 41
30.0
 62
     5
 63
     7
 74
     1
 91
        4
 64
     7
 65
   257
 75
     1
175
     1
 42
1.0
 92
        0
 66
   257
 43
1.0
 76
     1
 77
     6
 78
     2
 67
     7
 79
     5
170
     0
171
     0
290
     0
174
     0
 93
       13
 44
0.0
173
     0
291
     1
 45
0.0
1001
ACAD
1000
AcDbSavedByObjectVersion
1070
     0
  0
VISUALSTYLE
  5
38
102
{ACAD_REACTORS
330
2A
102
}
330
2A
100
AcDbVisualStyle
  2
Linepattern
 70
    14
 71
     2
 72
     2
 73
     0
 90
        0
 40
-0.6
 41
-30.0
 62
     5
 63
     7
 74
     1
 91
        4
 64
     7
 65
   257
 75
     7
175
     7
 42
1.0
 92
        8
 66
     7
 43
1.0
 76
     1
 77
     6
 78
     2
 67
     7
 79
     5
170
     0
171
     0
290
     0
174
     0
 93
        1
 44
0.0
173
     0
291
     1
 45
0.0
1001
ACAD
1000
AcDbSavedByObjectVersion
1070
     0
  0
VISUALSTYLE
  5
33
102
{ACAD_REACTORS
330
2A
102
}
330
2A
100
AcDbVisualStyle
  2
Realistic
 70
     8
 71
     2
 72
     2
 73
     0
 90
        0
 40
-0.6
 41
-30.0
 62
     5
 63
     7
 74
     1
 91
        0
 64
     7
 65
   257
 75
     1
175
     1
 42
1.0
 92
        8
 66
     8
 43
1.0
 76
     1
 77
     6
 78
     2
 67
     7
 79
     5
170
     0
171
     0
290
     0
174
     0
 93
       13
 44
0.0
173
     0
291
     0
 45
0.0
1001
ACAD
1000
AcDbSavedByObjectVersion
1070
     0
  0
VISUALSTYLE
  5
37
102
{ACAD_REACTORS
330
2A
102
}
330
2A
100
AcDbVisualStyle
  2
Thicken
 70
    13
 71
     2
 72
     2
 73
     0
 90
        0
 40
-0.6
 41
-30.0
 62
     5
 63
     7
 74
     1
 91
        4
 64
     7
 65
   257
 75
     1
175
     1
 42
1.0
 92
       12
 66
     7
 43
1.0
 76
     1
 77
     6
 78
     2
 67
     7
 79
     5
170
     0
171
     0
290
     0
174
     0
 93
        1
 44
0.0
173
     0
291
     1
 45
0.0
1001
ACAD
1000
AcDbSavedByObjectVersion
1070
     0
  0
DICTIONARYVAR
  5
170
102
{ACAD_REACTORS
330
16F
102
}
330
16F
100
DictionaryVariables
280
     0
  1
1:1
  0
DICTIONARYVAR
  5
174
102
{ACAD_REACTORS
330
16F
102
}
330
16F
100
DictionaryVariables
280
     0
  1
80.000000
  0
DICTIONARYVAR
  5
173
102
{ACAD_REACTORS
330
16F
102
}
330
16F
100
DictionaryVariables
280
     0
  1
5.000000
  0
ENDSEC
  0
EOF
