  0
SECTION
  2
HEADER
  9
$ACADVER
  1
AC1015
  9
$ACADMAINTVER
 70
     6
  9
$DWGCODEPAGE
  3
ANSI_1252
  9
$INSBASE
 10
0.0
 20
0.0
 30
0.0
  9
$EXTMIN
 10
0.0
 20
0.0
 30
0.0
  9
$EXTMAX
 10
1682.0
 20
2378.0
 30
0.0
  9
$LIMMIN
 10
0.0
 20
0.0
  9
$LIMMAX
 10
1682.0
 20
2378.0
  9
$ORTHOMODE
 70
     0
  9
$REGENMODE
 70
     1
  9
$FILLMODE
 70
     1
  9
$QTEXTMODE
 70
     0
  9
$MIRRTEXT
 70
     1
  9
$LTSCALE
 40
1.0
  9
$ATTMODE
 70
     1
  9
$TEXTSIZE
 40
2.5
  9
$TRACEWID
 40
1.0
  9
$TEXTSTYLE
  7
Standard
  9
$CLAYER
  8
0
  9
$CELTYPE
  6
ByLayer
  9
$CECOLOR
 62
   256
  9
$CELTSCALE
 40
1.0
  9
$DISPSILH
 70
     0
  9
$DIMSCALE
 40
1.0
  9
$DIMASZ
 40
2.5
  9
$DIMEXO
 40
0.625
  9
$DIMDLI
 40
3.75
  9
$DIMRND
 40
0.0
  9
$DIMDLE
 40
0.0
  9
$DIMEXE
 40
1.25
  9
$DIMTP
 40
0.0
  9
$DIMTM
 40
0.0
  9
$DIMTXT
 40
2.5
  9
$DIMCEN
 40
2.5
  9
$DIMTSZ
 40
0.0
  9
$DIMTOL
 70
     0
  9
$DIMLIM
 70
     0
  9
$DIMTIH
 70
     0
  9
$DIMTOH
 70
     0
  9
$DIMSE1
 70
     0
  9
$DIMSE2
 70
     0
  9
$DIMTAD
 70
     1
  9
$DIMZIN
 70
     8
  9
$DIMBLK
  1

  9
$DIMASO
 70
     1
  9
$DIMSHO
 70
     1
  9
$DIMPOST
  1

  9
$DIMAPOST
  1

  9
$DIMALT
 70
     0
  9
$DIMALTD
 70
     3
  9
$DIMALTF
 40
0.0393700787
  9
$DIMLFAC
 40
1.0
  9
$DIMTOFL
 70
     1
  9
$DIMTVP
 40
0.0
  9
$DIMTIX
 70
     0
  9
$DIMSOXD
 70
     0
  9
$DIMSAH
 70
     0
  9
$DIMBLK1
  1

  9
$DIMBLK2
  1

  9
$DIMSTYLE
  2
ISO-25
  9
$DIMCLRD
 70
     0
  9
$DIMCLRE
 70
     0
  9
$DIMCLRT
 70
     0
  9
$DIMTFAC
 40
1.0
  9
$DIMGAP
 40
0.625
  9
$DIMJUST
 70
     0
  9
$DIMSD1
 70
     0
  9
$DIMSD2
 70
     0
  9
$DIMTOLJ
 70
     0
  9
$DIMTZIN
 70
     8
  9
$DIMALTZ
 70
     0
  9
$DIMALTTZ
 70
     0
  9
$DIMUPT
 70
     0
  9
$DIMDEC
 70
     2
  9
$DIMTDEC
 70
     2
  9
$DIMALTU
 70
     2
  9
$DIMALTTD
 70
     3
  9
$DIMTXSTY
  7
Standard
  9
$DIMAUNIT
 70
     0
  9
$DIMADEC
 70
     0
  9
$DIMALTRND
 40
0.0
  9
$DIMAZIN
 70
     0
  9
$DIMDSEP
 70
    44
  9
$DIMATFIT
 70
     3
  9
$DIMFRAC
 70
     0
  9
$DIMLDRBLK
  1

  9
$DIMLUNIT
 70
     2
  9
$DIMLWD
 70
    -2
  9
$DIMLWE
 70
    -2
  9
$DIMTMOVE
 70
     0
  9
$LUNITS
 70
     2
  9
$LUPREC
 70
     4
  9
$SKETCHINC
 40
1.0
  9
$FILLETRAD
 40
10.0
  9
$AUNITS
 70
     0
  9
$AUPREC
 70
     0
  9
$MENU
  1
.
  9
$ELEVATION
 40
0.0
  9
$PELEVATION
 40
0.0
  9
$THICKNESS
 40
0.0
  9
$LIMCHECK
 70
     0
  9
$CHAMFERA
 40
10.0
  9
$CHAMFERB
 40
10.0
  9
$CHAMFERC
 40
20.0
  9
$CHAMFERD
 40
0.0
  9
$SKPOLY
 70
     0
  9
$TDCREATE
 40
2455146.474758785
  9
$TDUCREATE
 40
2455146.433092118
  9
$TDUPDATE
 40
2455146.474758796
  9
$TDUUPDATE
 40
2455146.433092129
  9
$TDINDWG
 40
0.0000000116
  9
$TDUSRTIMER
 40
0.0000000116
  9
$USRTIMER
 70
     1
  9
$ANGBASE
 50
0.0
  9
$ANGDIR
 70
     0
  9
$PDMODE
 70
     0
  9
$PDSIZE
 40
0.0
  9
$PLINEWID
 40
0.0
  9
$SPLFRAME
 70
     0
  9
$SPLINETYPE
 70
     6
  9
$SPLINESEGS
 70
     8
  9
$HANDSEED
  5
175
  9
$SURFTAB1
 70
     6
  9
$SURFTAB2
 70
     6
  9
$SURFTYPE
 70
     6
  9
$SURFU
 70
     6
  9
$SURFV
 70
     6
  9
$UCSBASE
  2

  9
$UCSNAME
  2

  9
$UCSORG
 10
0.0
 20
0.0
 30
0.0
  9
$UCSXDIR
 10
1.0
 20
0.0
 30
0.0
  9
$UCSYDIR
 10
0.0
 20
1.0
 30
0.0
  9
$UCSORTHOREF
  2

  9
$UCSORTHOVIEW
 70
     0
  9
$UCSORGTOP
 10
0.0
 20
0.0
 30
0.0
  9
$UCSORGBOTTOM
 10
0.0
 20
0.0
 30
0.0
  9
$UCSORGLEFT
 10
0.0
 20
0.0
 30
0.0
  9
$UCSORGRIGHT
 10
0.0
 20
0.0
 30
0.0
  9
$UCSORGFRONT
 10
0.0
 20
0.0
 30
0.0
  9
$UCSORGBACK
 10
0.0
 20
0.0
 30
0.0
  9
$PUCSBASE
  2

  9
$PUCSNAME
  2

  9
$PUCSORG
 10
0.0
 20
0.0
 30
0.0
  9
$PUCSXDIR
 10
1.0
 20
0.0
 30
0.0
  9
$PUCSYDIR
 10
0.0
 20
1.0
 30
0.0
  9
$PUCSORTHOREF
  2

  9
$PUCSORTHOVIEW
 70
     0
  9
$PUCSORGTOP
 10
0.0
 20
0.0
 30
0.0
  9
$PUCSORGBOTTOM
 10
0.0
 20
0.0
 30
0.0
  9
$PUCSORGLEFT
 10
0.0
 20
0.0
 30
0.0
  9
$PUCSORGRIGHT
 10
0.0
 20
0.0
 30
0.0
  9
$PUCSORGFRONT
 10
0.0
 20
0.0
 30
0.0
  9
$PUCSORGBACK
 10
0.0
 20
0.0
 30
0.0
  9
$USERI1
 70
     0
  9
$USERI2
 70
     0
  9
$USERI3
 70
     0
  9
$USERI4
 70
     0
  9
$USERI5
 70
     0
  9
$USERR1
 40
0.0
  9
$USERR2
 40
0.0
  9
$USERR3
 40
0.0
  9
$USERR4
 40
0.0
  9
$USERR5
 40
0.0
  9
$WORLDVIEW
 70
     1
  9
$SHADEDGE
 70
     3
  9
$SHADEDIF
 70
    70
  9
$TILEMODE
 70
     1
  9
$MAXACTVP
 70
    64
  9
$PINSBASE
 10
0.0
 20
0.0
 30
0.0
  9
$PLIMCHECK
 70
     0
  9
$PEXTMIN
 10
0.0
 20
0.0
 30
0.0
  9
$PEXTMAX
 10
1682.0
 20
2378.0
 30
0.0
  9
$PLIMMIN
 10
0.0
 20
0.0
  9
$PLIMMAX
 10
1682.0
 20
2378.0
  9
$UNITMODE
 70
     0
  9
$VISRETAIN
 70
     1
  9
$PLINEGEN
 70
     0
  9
$PSLTSCALE
 70
     1
  9
$TREEDEPTH
 70
  3020
  9
$CMLSTYLE
  2
Standard
  9
$CMLJUST
 70
     0
  9
$CMLSCALE
 40
20.0
  9
$PROXYGRAPHICS
 70
     1
  9
$MEASUREMENT
 70
     1
  9
$CELWEIGHT
370
    -1
  9
$ENDCAPS
280
     0
  9
$JOINSTYLE
280
     0
  9
$LWDISPLAY
290
     0
  9
$INSUNITS
 70
     4
  9
$HYPERLINKBASE
  1

  9
$STYLESHEET
  1

  9
$XEDIT
290
     1
  9
$CEPSNTYPE
380
     0
  9
$PSTYLEMODE
290
     1
  9
$FINGERPRINTGUID
  2
{DDA35710-F848-4A1B-9283-237910E464AB}
  9
$VERSIONGUID
  2
{FAEB1C32-E019-11D5-929B-00C0DF256EC4}
  9
$EXTNAMES
290
     1
  9
$PSVPSCALE
 40
0.0
  9
$OLESTARTUP
290
     0
  0
ENDSEC
  0
SECTION
  2
CLASSES
  0
CLASS
  1
ACDBDICTIONARYWDFLT
  2
AcDbDictionaryWithDefault
  3
ObjectDBX Classes
 90
        0
280
     0
281
     0
  0
CLASS
  1
VISUALSTYLE
  2
AcDbVisualStyle
  3
ObjectDBX Classes
 90
     4095
280
     0
281
     0
  0
CLASS
  1
SCALE
  2
AcDbScale
  3
ObjectDBX Classes
 90
     1153
280
     0
281
     0
  0
CLASS
  1
DICTIONARYVAR
  2
AcDbDictionaryVar
  3
ObjectDBX Classes
 90
        0
280
     0
281
     0
  0
CLASS
  1
ACDBPLACEHOLDER
  2
AcDbPlaceHolder
  3
ObjectDBX Classes
 90
        0
280
     0
281
     0
  0
CLASS
  1
LAYOUT
  2
AcDbLayout
  3
ObjectDBX Classes
 90
        0
280
     0
281
     0
  0
ENDSEC
  0
SECTION
  2
TABLES
  0
TABLE
  2
VPORT
  5
8
330
0
100
AcDbSymbolTable
 70
     1
  0
VPORT
  5
29
330
8
100
AcDbSymbolTableRecord
100
AcDbViewportTableRecord
  2
*Active
 70
     0
 10
0.0
 20
0.0
 11
1.0
 21
1.0
 12
344.1869158879
 22
148.5
 13
0.0
 23
0.0
 14
10.0
 24
10.0
 15
10.0
 25
10.0
 16
0.0
 26
0.0
 36
1.0
 17
0.0
 27
0.0
 37
0.0
 40
297.0
 41
1.9729729729
 42
50.0
 43
0.0
 44
0.0
 50
0.0
 51
0.0
 71
     0
 72
   100
 73
     1
 74
     3
 75
     0
 76
     0
 77
     0
 78
     0
281
     0
 65
     1
110
0.0
120
0.0
130
0.0
111
1.0
121
0.0
131
0.0
112
0.0
122
1.0
132
0.0
 79
     0
146
0.0
  0
ENDTAB
  0
TABLE
  2
LTYPE
  5
5
330
0
100
AcDbSymbolTable
 70
     1
  0
LTYPE
  5
14
330
5
100
AcDbSymbolTableRecord
100
AcDbLinetypeTableRecord
  2
ByBlock
 70
     0
  3

 72
    65
 73
     0
 40
0.0
  0
LTYPE
  5
15
330
5
100
AcDbSymbolTableRecord
100
AcDbLinetypeTableRecord
  2
ByLayer
 70
     0
  3

 72
    65
 73
     0
 40
0.0
  0
LTYPE
  5
16
330
5
100
AcDbSymbolTableRecord
100
AcDbLinetypeTableRecord
  2
Continuous
 70
     0
  3
Solid line
 72
    65
 73
     0
 40
0.0
  0
ENDTAB
  0
TABLE
  2
LAYER
  5
2
330
0
100
AcDbSymbolTable
 70
    10
  0
LAYER
  5
10
330
2
100
AcDbSymbolTableRecord
100
AcDbLayerTableRecord
  2
0
 70
     0
 62
     7
  6
Continuous
370
    -3
390
F
  0
LAYER
  5
5D
330
2
100
AcDbSymbolTableRecord
100
AcDbLayerTableRecord
  2
Default
 70
     0
 62
     7
  6
Continuous
370
    -3
390
F
  0
LAYER
  5
60
330
2
100
AcDbSymbolTableRecord
100
AcDbLayerTableRecord
  2
$DDT_AUDIT_GENERATED_(60)
 70
     0
 62
     7
  6
Continuous
370
    -3
390
F
  0
LAYER
  5
7D
330
2
100
AcDbSymbolTableRecord
100
AcDbLayerTableRecord
  2
$DDT_AUDIT_GENERATED_(7D)
 70
     0
 62
     7
  6
Continuous
370
    -3
390
F
  0
LAYER
  5
88
330
2
100
AcDbSymbolTableRecord
100
AcDbLayerTableRecord
  2
$DDT_AUDIT_GENERATED_(88)
 70
     0
 62
     7
  6
Continuous
370
    -3
390
F
  0
LAYER
  5
8D
330
2
100
AcDbSymbolTableRecord
100
AcDbLayerTableRecord
  2
$DDT_AUDIT_GENERATED_(8D)
 70
     0
 62
     7
  6
Continuous
370
    -3
390
F
  0
LAYER
  5
9F
330
2
100
AcDbSymbolTableRecord
100
AcDbLayerTableRecord
  2
$DDT_AUDIT_GENERATED_(9F)
 70
     0
 62
     7
  6
Continuous
370
    -3
390
F
  0
LAYER
  5
E0
330
2
100
AcDbSymbolTableRecord
100
AcDbLayerTableRecord
  2
$DDT_AUDIT_GENERATED_(E0)
 70
     0
 62
     7
  6
Continuous
370
    -3
390
F
  0
LAYER
  5
EA
330
2
100
AcDbSymbolTableRecord
100
AcDbLayerTableRecord
  2
$DDT_AUDIT_GENERATED_(EA)
 70
     0
 62
     7
  6
Continuous
370
    -3
390
F
  0
LAYER
  5
EC
330
2
100
AcDbSymbolTableRecord
100
AcDbLayerTableRecord
  2
$DDT_AUDIT_GENERATED_(EC)
 70
     0
 62
     7
  6
Continuous
370
    -3
390
F
  0
ENDTAB
  0
TABLE
  2
STYLE
  5
3
330
0
100
AcDbSymbolTable
 70
     2
  0
STYLE
  5
11
330
3
100
AcDbSymbolTableRecord
100
AcDbTextStyleTableRecord
  2
Standard
 70
     0
 40
0.0
 41
1.0
 50
0.0
 71
     0
 42
2.5
  3
txt
  4

  0
STYLE
  5
164
330
3
100
AcDbSymbolTableRecord
100
AcDbTextStyleTableRecord
  2
SEACAD_seiso_ttf
 70
     0
 40
0.0
 41
1.0
 50
0.0
 71
     0
 42
0.2
  3
seiso.ttf
  4

  0
ENDTAB
  0
TABLE
  2
VIEW
  5
6
330
0
100
AcDbSymbolTable
 70
     0
  0
ENDTAB
  0
TABLE
  2
UCS
  5
7
330
0
100
AcDbSymbolTable
 70
     0
  0
ENDTAB
  0
TABLE
  2
APPID
  5
9
330
0
100
AcDbSymbolTable
 70
     1
  0
APPID
  5
12
330
9
100
AcDbSymbolTableRecord
100
AcDbRegAppTableRecord
  2
ACAD
 70
     0
  0
ENDTAB
  0
TABLE
  2
DIMSTYLE
  5
A
330
0
100
AcDbSymbolTable
 70
     1
100
AcDbDimStyleTable
  0
DIMSTYLE
105
27
330
A
100
AcDbSymbolTableRecord
100
AcDbDimStyleTableRecord
  2
ISO-25
 70
     0
 41
2.5
 42
0.625
 43
3.75
 44
1.25
 73
     0
 74
     0
 77
     1
 78
     8
140
2.5
141
2.5
143
0.0393700787
147
0.625
171
     3
172
     1
271
     2
272
     2
274
     3
278
    44
283
     0
284
     8
340
11
  0
ENDTAB
  0
TABLE
  2
BLOCK_RECORD
  5
1
330
0
100
AcDbSymbolTable
 70
     4
  0
BLOCK_RECORD
  5
1F
330
1
100
AcDbSymbolTableRecord
100
AcDbBlockTableRecord
  2
*Model_Space
340
22
  0
BLOCK_RECORD
  5
1B
330
1
100
AcDbSymbolTableRecord
100
AcDbBlockTableRecord
  2
*Paper_Space
340
1E
  0
BLOCK_RECORD
  5
5E
330
1
100
AcDbSymbolTableRecord
100
AcDbBlockTableRecord
  2
SE
340
0
102
{BLKREFS
331
5F
102
}
  0
BLOCK_RECORD
  5
A3
330
1
100
AcDbSymbolTableRecord
100
AcDbBlockTableRecord
  2
SE1
340
0
102
{BLKREFS
331
A4
102
}
  0
BLOCK_RECORD
  5
FC
330
1
100
AcDbSymbolTableRecord
100
AcDbBlockTableRecord
  2
SE2
340
0
102
{BLKREFS
331
FD
102
}
  0
ENDTAB
  0
ENDSEC
  0
SECTION
  2
BLOCKS
  0
BLOCK
  5
20
330
1F
100
AcDbEntity
  8
0
100
AcDbBlockBegin
  2
*Model_Space
 70
     0
 10
0.0
 20
0.0
 30
0.0
  3
*Model_Space
  1

  0
ENDBLK
  5
21
330
1F
100
AcDbEntity
  8
0
100
AcDbBlockEnd
  0
BLOCK
  5
1C
330
1B
100
AcDbEntity
 67
     1
  8
0
100
AcDbBlockBegin
  2
*Paper_Space
 70
     0
 10
0.0
 20
0.0
 30
0.0
  3
*Paper_Space
  1

  0
ENDBLK
  5
1D
330
1B
100
AcDbEntity
 67
     1
  8
0
100
AcDbBlockEnd
  0
BLOCK
  5
A1
330
5E
100
AcDbEntity
  8
0
100
AcDbBlockBegin
  2
SE
 70
     0
 10
0.0
 20
0.0
 30
0.0
  3
SE
  1

  0
ARC
  5
61
330
5E
100
AcDbEntity
  8
$DDT_AUDIT_GENERATED_(60)
  6
Continuous
 62
     7
100
AcDbCircle
 10
190.0902028004
 20
415.8534753346
 30
0.0
 40
30.53529586457902
100
AcDbArc
 50
269.9996212164
 51
90.0003769327
  0
LINE
  5
62
330
5E
100
AcDbEntity
  8
$DDT_AUDIT_GENERATED_(60)
  6
Continuous
 62
     7
100
AcDbLine
 10
190.0900019173
 20
446.3887711985
 30
0.0
 11
40.0900016616
 21
446.3887729866
 31
0.0
  0
ARC
  5
63
330
5E
100
AcDbEntity
  8
$DDT_AUDIT_GENERATED_(60)
  6
Continuous
 62
     7
100
AcDbCircle
 10
40.0897997912
 20
415.8534771227
 30
0.0
 40
30.53529586457915
100
AcDbArc
 50
89.9996212146
 51
235.0953280881
  0
LINE
  5
64
330
5E
100
AcDbEntity
  8
$DDT_AUDIT_GENERATED_(60)
  6
Continuous
 62
     7
100
AcDbLine
 10
57.563149077
 20
385.3181810505
 30
0.0
 11
190.0900009309
 21
385.3181794707
 31
0.0
  0
ARC
  5
65
330
5E
100
AcDbEntity
  8
$DDT_AUDIT_GENERATED_(60)
  6
Continuous
 62
     7
100
AcDbCircle
 10
190.0900012976
 20
415.8534753346
 30
0.0
 40
26.25000004641
100
AcDbArc
 50
293.5308671018
 51
0.0
  0
ARC
  5
66
330
5E
100
AcDbEntity
  8
$DDT_AUDIT_GENERATED_(60)
  6
Continuous
 62
     7
100
AcDbCircle
 10
190.0900012976
 20
415.8534753346
 30
0.0
 40
26.25000004641
100
AcDbArc
 50
259.9848717355
 51
280.0151282645
  0
ARC
  5
67
330
5E
100
AcDbEntity
  8
$DDT_AUDIT_GENERATED_(60)
  6
Continuous
 62
     7
100
AcDbCircle
 10
190.0900012976
 20
415.8534753346
 30
0.0
 40
26.25000004641
100
AcDbArc
 50
0.0
 51
246.4697536483
  0
ARC
  5
68
330
5E
100
AcDbEntity
  8
$DDT_AUDIT_GENERATED_(60)
  6
Continuous
 62
     7
100
AcDbCircle
 10
190.0899550594
 20
415.8534894166
 30
0.0
 40
32.60101015812289
100
AcDbArc
 50
270.00008058
 51
89.9999180538
  0
LINE
  5
69
330
5E
100
AcDbEntity
  8
$DDT_AUDIT_GENERATED_(60)
  6
Continuous
 62
     7
100
AcDbLine
 10
190.0900016864
 20
448.4544409722
 30
0.0
 11
40.0900016862
 21
448.4544427602
 31
0.0
  0
ARC
  5
6A
330
5E
100
AcDbEntity
  8
$DDT_AUDIT_GENERATED_(60)
  6
Continuous
 62
     7
100
AcDbCircle
 10
40.0900475358
 20
415.8534630407
 30
0.0
 40
32.60101015811546
100
AcDbArc
 50
90.00008058
 51
237.5594495627
  0
LINE
  5
6B
330
5E
100
AcDbEntity
  8
$DDT_AUDIT_GENERATED_(60)
  6
Continuous
 62
     7
100
AcDbLine
 10
190.0900009091
 20
383.2525096971
 30
0.0
 11
57.563149077
 21
383.2525112769
 31
0.0
  0
ARC
  5
6C
330
5E
100
AcDbEntity
  8
$DDT_AUDIT_GENERATED_(60)
  6
Continuous
 62
     7
100
AcDbCircle
 10
40.0900006467
 20
415.8533665209
 30
0.0
 40
26.40167800234441
100
AcDbArc
 50
0.0
 51
228.56196336
  0
ARC
  5
6D
330
5E
100
AcDbEntity
  8
$DDT_AUDIT_GENERATED_(60)
  6
Continuous
 62
     7
100
AcDbCircle
 10
40.0900006467
 20
415.8533665209
 30
0.0
 40
26.40167800234441
100
AcDbArc
 50
311.4387952279
 51
0.0
  0
ARC
  5
6E
330
5E
100
AcDbEntity
  8
$DDT_AUDIT_GENERATED_(60)
  6
Continuous
 62
     7
100
AcDbCircle
 10
190.0899531004
 20
415.8534898645
 30
0.0
 40
32.6099265418574
100
AcDbArc
 50
270.0000839999
 51
89.999914634
  0
LINE
  5
6F
330
5E
100
AcDbEntity
  8
$DDT_AUDIT_GENERATED_(60)
  6
Continuous
 62
     7
100
AcDbLine
 10
190.0900016865
 20
448.463356691
 30
0.0
 11
40.0900016863
 21
448.4633584791
 31
0.0
  0
LINE
  5
70
330
5E
100
AcDbEntity
  8
$DDT_AUDIT_GENERATED_(60)
  6
Continuous
 62
     7
100
AcDbLine
 10
190.090000909
 20
383.2435939781
 30
0.0
 11
57.563149077
 21
383.243595558
 31
0.0
  0
ARC
  5
71
330
5E
100
AcDbEntity
  8
$DDT_AUDIT_GENERATED_(60)
  6
Continuous
 62
     7
100
AcDbCircle
 10
190.0899105081
 20
415.8535039734
 30
0.0
 40
33.74009183825046
100
AcDbArc
 50
270.0001534916
 51
89.9998451421
  0
LINE
  5
72
330
5E
100
AcDbEntity
  8
$DDT_AUDIT_GENERATED_(60)
  6
Continuous
 62
     7
100
AcDbLine
 10
190.0900017
 20
449.5934753346
 30
0.0
 11
40.0900016997
 21
449.5934771228
 31
0.0
  0
ARC
  5
73
330
5E
100
AcDbEntity
  8
$DDT_AUDIT_GENERATED_(60)
  6
Continuous
 62
     7
100
AcDbCircle
 10
40.0900920871
 20
415.8534484839
 30
0.0
 40
33.74009183825103
100
AcDbArc
 50
90.0001534916
 51
238.8105235684
  0
LINE
  5
74
330
5E
100
AcDbEntity
  8
$DDT_AUDIT_GENERATED_(60)
  6
Continuous
 62
     7
100
AcDbLine
 10
57.563149077
 20
382.1134769144
 30
0.0
 11
112.0006023131
 21
382.1134762654
 31
0.0
  0
ELLIPSE
  5
75
330
5E
100
AcDbEntity
  8
$DDT_AUDIT_GENERATED_(60)
  6
Continuous
 62
     7
100
AcDbEllipse
 10
112.0006023132
 20
382.1222037978
 30
0.0
 11
0.4999999999999996
 21
-5.960315574427000E-9
 31
0.0
210
0.0
220
0.0
230
1.0
 40
0.0174550649
 41
4.71238898038469
 42
6.195918844583285
  0
LINE
  5
76
330
5E
100
AcDbEntity
  8
$DDT_AUDIT_GENERATED_(60)
  6
Continuous
 62
     7
100
AcDbLine
 10
112.4986996623
 20
382.1214431373
 30
0.0
 11
112.5500691336
 21
382.1316919783
 31
0.0
  0
ELLIPSE
  5
77
330
5E
100
AcDbEntity
  8
$DDT_AUDIT_GENERATED_(60)
  6
Continuous
 62
     7
100
AcDbEllipse
 10
113.0481664826
 20
382.1309313178
 30
0.0
 11
-0.4999999999999996
 21
5.960315574427000E-9
 31
0.0
210
0.0
220
0.0
230
1.0
 40
0.0174550649
 41
4.712388980385144
 42
6.195918844583938
  0
LINE
  5
78
330
5E
100
AcDbEntity
  8
$DDT_AUDIT_GENERATED_(60)
  6
Continuous
 62
     7
100
AcDbLine
 10
117.1318353087
 20
382.1396588016
 30
0.0
 11
113.0481664827
 21
382.1396588503
 31
0.0
  0
ELLIPSE
  5
79
330
5E
100
AcDbEntity
  8
$DDT_AUDIT_GENERATED_(60)
  6
Continuous
 62
     7
100
AcDbEllipse
 10
117.1318353086
 20
382.1309312691
 30
0.0
 11
0.5000000000000009
 21
-5.960308635533096E-9
 31
0.0
210
0.0
220
0.0
230
1.0
 40
0.0174550649
 41
0.087266462592137
 42
1.570796326794897
  0
LINE
  5
7A
330
5E
100
AcDbEntity
  8
$DDT_AUDIT_GENERATED_(60)
  6
Continuous
 62
     7
100
AcDbLine
 10
117.6299326577
 20
382.1316919178
 30
0.0
 11
117.6813021288
 21
382.1214430756
 31
0.0
  0
ELLIPSE
  5
7B
330
5E
100
AcDbEntity
  8
$DDT_AUDIT_GENERATED_(60)
  6
Continuous
 62
     7
100
AcDbEllipse
 10
118.1793994778
 20
382.1222037242
 30
0.0
 11
-0.5000000000000004
 21
5.960308635533096E-9
 31
0.0
210
0.0
220
0.0
230
1.0
 40
0.0174550649
 41
0.0872664625950617
 42
1.570796326794868
  0
LINE
  5
7C
330
5E
100
AcDbEntity
  8
$DDT_AUDIT_GENERATED_(60)
  6
Continuous
 62
     7
100
AcDbLine
 10
118.1793994777
 20
382.1134761917
 30
0.0
 11
190.0900008955
 21
382.1134753346
 31
0.0
  0
LINE
  5
7E
330
5E
100
AcDbEntity
  8
$DDT_AUDIT_GENERATED_(7D)
  6
Continuous
 62
     7
100
AcDbLine
 10
57.5631490775
 20
344.947993614
 30
0.0
 11
57.5631490767
 21
410.017993614
 31
0.0
  0
LINE
  5
7F
330
5E
100
AcDbEntity
  8
$DDT_AUDIT_GENERATED_(7D)
  6
Continuous
 62
     7
100
AcDbLine
 10
52.0401316714
 20
344.947993614
 30
0.0
 11
52.0401316714
 21
410.017993614
 31
0.0
  0
ARC
  5
80
330
5E
100
AcDbEntity
  8
$DDT_AUDIT_GENERATED_(7D)
  6
Continuous
 62
     7
100
AcDbCircle
 10
40.0901316714
 20
344.947993614
 30
0.0
 40
11.95
100
AcDbArc
 50
180.0
 51
0.0
  0
LINE
  5
81
330
5E
100
AcDbEntity
  8
$DDT_AUDIT_GENERATED_(7D)
  6
Continuous
 62
     7
100
AcDbLine
 10
28.1401316714
 20
344.947993614
 30
0.0
 11
28.1401316714
 21
410.017993614
 31
0.0
  0
ARC
  5
82
330
5E
100
AcDbEntity
  8
$DDT_AUDIT_GENERATED_(7D)
  6
Continuous
 62
     7
100
AcDbCircle
 10
40.0901316714
 20
410.017993614
 30
0.0
 40
17.31367063042
100
AcDbArc
 50
0.0
 51
180.0
  0
LINE
  5
83
330
5E
100
AcDbEntity
  8
$DDT_AUDIT_GENERATED_(7D)
  6
Continuous
 62
     7
100
AcDbLine
 10
22.6171142656
 20
410.017993614
 30
0.0
 11
22.6171142654
 21
344.947993614
 31
0.0
  0
ARC
  5
84
330
5E
100
AcDbEntity
  8
$DDT_AUDIT_GENERATED_(7D)
  6
Continuous
 62
     7
100
AcDbCircle
 10
40.0901316714
 20
410.017993614
 30
0.0
 40
17.47301740523021
100
AcDbArc
 50
0.0
 51
180.0
  0
CIRCLE
  5
85
330
5E
100
AcDbEntity
  8
$DDT_AUDIT_GENERATED_(7D)
  6
Continuous
 62
     7
100
AcDbCircle
 10
40.0901316714
 20
410.017993614
 30
0.0
 40
10.45
  0
ARC
  5
86
330
5E
100
AcDbEntity
  8
$DDT_AUDIT_GENERATED_(7D)
  6
Continuous
 62
     7
100
AcDbCircle
 10
40.0901316714
 20
344.947993614
 30
0.0
 40
17.47332201491
100
AcDbArc
 50
180.0
 51
270.0
  0
ARC
  5
87
330
5E
100
AcDbEntity
  8
$DDT_AUDIT_GENERATED_(7D)
  6
Continuous
 62
     7
100
AcDbCircle
 10
40.0901316714
 20
344.947993614
 30
0.0
 40
17.47332201491
100
AcDbArc
 50
270.0
 51
0.0
  0
SPLINE
  5
89
330
5E
100
AcDbEntity
  8
$DDT_AUDIT_GENERATED_(88)
  6
Continuous
 62
     7
100
AcDbSpline
210
0.0
220
0.0
230
1.0
 70
     8
 71
     3
 72
    18
 73
    14
 74
     0
 42
0.0000000001524677
 43
0.0000000001
 40
0.0
 40
0.0
 40
0.0
 40
0.0
 40
0.1250000000000001
 40
0.1250000000000001
 40
0.2500000000000001
 40
0.2500000000000001
 40
0.3750000000000001
 40
0.3750000000000001
 40
0.5
 40
0.5
 40
0.625
 40
0.625
 40
0.6410227390268567
 40
0.6410227390268567
 40
0.6410227390268567
 40
0.6410227390268567
 10
42.61756894265489
 20
436.438773937515
 30
0.0
 10
45.34736381434654
 20
436.1035975267391
 30
0.0
 10
47.90912866374436
 20
435.2588544222891
 30
0.0
 10
52.69659904849438
 20
432.5502345018557
 30
0.0
 10
54.7400919723819
 20
430.7894485955506
 30
0.0
 10
58.12659381755062
 20
426.4549244432364
 30
0.0
 10
59.34071147592588
 20
424.046159457861
 30
0.0
 10
60.81068053694577
 20
418.7456231527516
 30
0.0
 10
61.01058449224289
 20
416.0555917465058
 30
0.0
 10
60.34023129878176
 20
410.5960019702832
 30
0.0
 10
59.49548796799631
 20
408.0342370776833
 30
0.0
 10
57.9675797948932
 20
405.3336684784079
 30
0.0
 10
57.78730308062524
 20
405.0325896224867
 30
0.0
 10
57.60034771411701
 20
404.7372654504601
 30
0.0
  0
ARC
  5
8A
330
5E
100
AcDbEntity
  8
$DDT_AUDIT_GENERATED_(88)
  6
Continuous
 62
     7
100
AcDbCircle
 10
40.0900006467
 20
415.8533665209
 30
0.0
 40
20.73999999999999
100
AcDbArc
 50
83.00000525
 51
212.5891514383
  0
ARC
  5
8B
330
5E
100
AcDbEntity
  8
$DDT_AUDIT_GENERATED_(88)
  6
Continuous
 62
     7
100
AcDbCircle
 10
40.0885322755
 20
415.8508005576
 30
0.0
 40
15.2527926508533
100
AcDbArc
 50
82.9957624598
 51
167.9485859411
  0
ARC
  5
8C
330
5E
100
AcDbEntity
  8
$DDT_AUDIT_GENERATED_(88)
  6
Continuous
 62
     7
100
AcDbCircle
 10
40.0917155463
 20
415.855772186
 30
0.0
 40
15.25184121258009
100
AcDbArc
 50
12.0642501162
 51
83.0050419403
  0
LINE
  5
8E
330
5E
100
AcDbEntity
  8
$DDT_AUDIT_GENERATED_(8D)
  6
Continuous
 62
     7
100
AcDbLine
 10
180.7901316714
 20
390.0034762287
 30
0.0
 11
199.3901316714
 21
390.0034762287
 31
0.0
  0
LINE
  5
8F
330
5E
100
AcDbEntity
  8
$DDT_AUDIT_GENERATED_(8D)
  6
Continuous
 62
     7
100
AcDbLine
 10
179.6101316714
 20
391.1834762287
 30
0.0
 11
200.5701316714
 21
391.1834762287
 31
0.0
  0
LINE
  5
90
330
5E
100
AcDbEntity
  8
$DDT_AUDIT_GENERATED_(8D)
  6
Continuous
 62
     7
100
AcDbLine
 10
179.6101316714
 20
396.7234762287
 30
0.0
 11
200.5701316714
 21
396.7234762287
 31
0.0
  0
LINE
  5
91
330
5E
100
AcDbEntity
  8
$DDT_AUDIT_GENERATED_(8D)
  6
Continuous
 62
     7
100
AcDbLine
 10
180.7901316714
 20
397.9034762287
 30
0.0
 11
199.3901316714
 21
397.9034762287
 31
0.0
  0
LINE
  5
92
330
5E
100
AcDbEntity
  8
$DDT_AUDIT_GENERATED_(8D)
  6
Continuous
 62
     7
100
AcDbLine
 10
178.5901316714
 20
400.0034762287
 30
0.0
 11
201.5901316714
 21
400.0034762287
 31
0.0
  0
LINE
  5
93
330
5E
100
AcDbEntity
  8
$DDT_AUDIT_GENERATED_(8D)
  6
Continuous
 62
     7
100
AcDbLine
 10
179.6101316714
 20
391.1834762287
 30
0.0
 11
180.7901316714
 21
390.0034762287
 31
0.0
  0
LINE
  5
94
330
5E
100
AcDbEntity
  8
$DDT_AUDIT_GENERATED_(8D)
  6
Continuous
 62
     7
100
AcDbLine
 10
199.3901316714
 20
390.0034762287
 30
0.0
 11
200.5701316714
 21
391.1834762287
 31
0.0
  0
LINE
  5
95
330
5E
100
AcDbEntity
  8
$DDT_AUDIT_GENERATED_(8D)
  6
Continuous
 62
     7
100
AcDbLine
 10
200.5701316714
 20
391.1834762287
 30
0.0
 11
200.5701316714
 21
396.7234762287
 31
0.0
  0
LINE
  5
96
330
5E
100
AcDbEntity
  8
$DDT_AUDIT_GENERATED_(8D)
  6
Continuous
 62
     7
100
AcDbLine
 10
179.6101316714
 20
396.7234762287
 30
0.0
 11
179.6101316714
 21
391.1834762287
 31
0.0
  0
LINE
  5
97
330
5E
100
AcDbEntity
  8
$DDT_AUDIT_GENERATED_(8D)
  6
Continuous
 62
     7
100
AcDbLine
 10
200.5701316714
 20
396.7234762287
 30
0.0
 11
199.3901316714
 21
397.9034762287
 31
0.0
  0
LINE
  5
98
330
5E
100
AcDbEntity
  8
$DDT_AUDIT_GENERATED_(8D)
  6
Continuous
 62
     7
100
AcDbLine
 10
180.7901316714
 20
397.9034762287
 30
0.0
 11
179.6101316714
 21
396.7234762287
 31
0.0
  0
LINE
  5
99
330
5E
100
AcDbEntity
  8
$DDT_AUDIT_GENERATED_(8D)
  6
Continuous
 62
     7
100
AcDbLine
 10
199.3901316714
 20
397.9034762287
 30
0.0
 11
199.3901316714
 21
400.0034762287
 31
0.0
  0
LINE
  5
9A
330
5E
100
AcDbEntity
  8
$DDT_AUDIT_GENERATED_(8D)
  6
Continuous
 62
     7
100
AcDbLine
 10
180.7901316714
 20
400.0034762287
 30
0.0
 11
180.7901316714
 21
397.9034762287
 31
0.0
  0
LINE
  5
9B
330
5E
100
AcDbEntity
  8
$DDT_AUDIT_GENERATED_(8D)
  6
Continuous
 62
     7
100
AcDbLine
 10
202.0901316714
 20
400.5034762287
 30
0.0
 11
202.0901316714
 21
406.4427111163
 31
0.0
  0
LINE
  5
9C
330
5E
100
AcDbEntity
  8
$DDT_AUDIT_GENERATED_(8D)
  6
Continuous
 62
     7
100
AcDbLine
 10
178.0901316714
 20
406.4427111163
 30
0.0
 11
178.0901316714
 21
400.5034762287
 31
0.0
  0
ARC
  5
9D
330
5E
100
AcDbEntity
  8
$DDT_AUDIT_GENERATED_(8D)
  6
Continuous
 62
     7
100
AcDbCircle
 10
178.5901316714
 20
400.5034762287
 30
0.0
 40
0.5000000000000004
100
AcDbArc
 50
180.0
 51
270.0
  0
ARC
  5
9E
330
5E
100
AcDbEntity
  8
$DDT_AUDIT_GENERATED_(8D)
  6
Continuous
 62
     7
100
AcDbCircle
 10
201.5901316714
 20
400.5034762287
 30
0.0
 40
0.5000000000000004
100
AcDbArc
 50
270.0
 51
0.0
  0
CIRCLE
  5
A0
330
5E
100
AcDbEntity
  8
$DDT_AUDIT_GENERATED_(9F)
  6
Continuous
 62
     7
100
AcDbCircle
 10
190.0901316714
 20
415.8534762287
 30
0.0
 40
15.25
  0
ENDBLK
  5
A2
330
5E
100
AcDbEntity
  8
0
100
AcDbBlockEnd
  0
BLOCK
  5
FA
330
A3
100
AcDbEntity
  8
0
100
AcDbBlockBegin
  2
SE1
 70
     0
 10
0.0
 20
0.0
 30
0.0
  3
SE1
  1

  0
LINE
  5
A5
330
A3
100
AcDbEntity
  8
$DDT_AUDIT_GENERATED_(60)
  6
Continuous
 62
     7
100
AcDbLine
 10
378.5748474133
 20
446.3887729866
 30
0.0
 11
378.5748474133
 21
385.3181812588
 31
0.0
  0
SPLINE
  5
A6
330
A3
100
AcDbEntity
  8
$DDT_AUDIT_GENERATED_(60)
  6
Continuous
 62
     7
100
AcDbSpline
210
0.0
220
0.0
230
1.0
 70
     8
 71
     5
 72
    12
 73
     6
 74
     0
 42
0.0000000031563908
 43
0.0000000001
 40
0.0
 40
0.0
 40
0.0
 40
0.0
 40
0.0
 40
0.0
 40
0.6226791964924243
 40
0.6226791964924243
 40
0.6226791964924243
 40
0.6226791964924243
 40
0.6226791964924243
 40
0.6226791964924243
 10
378.5748474133061
 20
385.3181794706706
 30
0.0
 10
378.5748474133019
 20
384.9312857137242
 30
0.0
 10
378.4815620227201
 20
384.5441809869399
 30
0.0
 10
378.2939089731989
 20
384.1878175154063
 30
0.0
 10
378.0284917048289
 20
383.8911855535149
 30
0.0
 10
377.7100005569641
 20
383.6715426940292
 30
0.0
  0
SPLINE
  5
A7
330
A3
100
AcDbEntity
  8
$DDT_AUDIT_GENERATED_(60)
  6
Continuous
 62
     7
100
AcDbSpline
210
0.0
220
0.0
230
1.0
 70
     8
 71
     5
 72
    12
 73
     6
 74
     0
 42
0.000000003156191
 43
0.0000000001
 40
0.0
 40
0.0
 40
0.0
 40
0.0
 40
0.0
 40
0.0
 40
0.6236811132011717
 40
0.6236811132011717
 40
0.6236811132011717
 40
0.6236811132011717
 40
0.6236811132011717
 40
0.6236811132011717
 10
378.5748474133061
 20
446.3887729866441
 30
0.0
 10
378.5748474133019
 20
446.7762892717266
 30
0.0
 10
378.4812615810612
 20
447.1640172061117
 30
0.0
 10
378.2930024155672
 20
447.5208549139244
 30
0.0
 10
378.0267822274423
 20
447.8176751480668
 30
0.0
 10
377.7074368564279
 20
448.0371748417594
 30
0.0
  0
ARC
  5
A8
330
A3
100
AcDbEntity
  8
$DDT_AUDIT_GENERATED_(60)
  6
Continuous
 62
     7
100
AcDbCircle
 10
376.5747345783
 20
385.3182335441
 30
0.0
 40
2.000112835665695
100
AcDbArc
 50
271.0031985292
 51
359.9985022208
  0
LINE
  5
A9
330
A3
100
AcDbEntity
  8
$DDT_AUDIT_GENERATED_(60)
  6
Continuous
 62
     7
100
AcDbLine
 10
376.6097525066
 20
448.3884987692
 30
0.0
 11
376.6097525069
 21
448.349763139
 31
0.0
  0
LINE
  5
AA
330
A3
100
AcDbEntity
  8
$DDT_AUDIT_GENERATED_(60)
  6
Continuous
 62
     7
100
AcDbLine
 10
376.6097525069
 20
448.349763139
 30
0.0
 11
376.6097529994
 21
383.3184272871
 31
0.0
  0
LINE
  5
AB
330
A3
100
AcDbEntity
  8
$DDT_AUDIT_GENERATED_(60)
  6
Continuous
 62
     7
100
AcDbLine
 10
372.8300825878
 20
448.4544427559
 30
0.0
 11
376.6097519762
 21
448.3884683814
 31
0.0
  0
LINE
  5
AC
330
A3
100
AcDbEntity
  8
$DDT_AUDIT_GENERATED_(60)
  6
Continuous
 62
     7
100
AcDbLine
 10
372.8300846339
 20
383.2523942684
 30
0.0
 11
376.6097540216
 21
383.3183687278
 31
0.0
  0
LINE
  5
AD
330
A3
100
AcDbEntity
  8
$DDT_AUDIT_GENERATED_(60)
  6
Continuous
 62
     7
100
AcDbLine
 10
372.8300831192
 20
448.4544731988
 30
0.0
 11
372.8300836108
 21
383.2524528826
 31
0.0
  0
LINE
  5
AE
330
A3
100
AcDbEntity
  8
$DDT_AUDIT_GENERATED_(60)
  6
Continuous
 62
     7
100
AcDbLine
 10
372.8246951201
 20
448.3001730281
 30
0.0
 11
372.8300834004
 21
448.454473189
 31
0.0
  0
LINE
  5
AF
330
A3
100
AcDbEntity
  8
$DDT_AUDIT_GENERATED_(60)
  6
Continuous
 62
     7
100
AcDbLine
 10
372.8246951201
 20
383.4067812173
 30
0.0
 11
372.8300843833
 21
383.2524529096
 31
0.0
  0
SPLINE
  5
B0
330
A3
100
AcDbEntity
  8
$DDT_AUDIT_GENERATED_(60)
  6
Continuous
 62
     7
100
AcDbSpline
210
0.0
220
0.0
230
1.0
 70
     8
 71
     3
 72
    14
 73
    10
 74
     0
 42
0.0000000127146814
 43
0.0000000001
 40
0.0
 40
0.0
 40
0.0
 40
0.0
 40
0.25
 40
0.25
 40
0.5
 40
0.5
 40
0.75
 40
0.75
 40
1.0
 40
1.0
 40
1.0
 40
1.0
 10
372.3249997065511
 20
383.4067794291806
 30
0.0
 10
372.3272331140273
 20
383.4707358508085
 30
0.0
 10
372.3551483782137
 20
383.5334345606868
 30
0.0
 10
372.447217263237
 20
383.6223444494292
 30
0.0
 10
372.5108520074355
 20
383.6480545549482
 30
0.0
 10
372.6388428192369
 20
383.6480545549329
 30
0.0
 10
372.7024775634292
 20
383.6223444493985
 30
0.0
 10
372.7945464484311
 20
383.533434560634
 30
0.0
 10
372.8224617126025
 20
383.470735850749
 30
0.0
 10
372.8246951200632
 20
383.4067794291205
 30
0.0
  0
SPLINE
  5
B1
330
A3
100
AcDbEntity
  8
$DDT_AUDIT_GENERATED_(60)
  6
Continuous
 62
     7
100
AcDbSpline
210
0.0
220
0.0
230
1.0
 70
     8
 71
     3
 72
    14
 73
    10
 74
     0
 42
0.0000000127146814
 43
0.0000000001
 40
0.0
 40
0.0
 40
0.0
 40
0.0
 40
0.25
 40
0.25
 40
0.5
 40
0.5
 40
0.75
 40
0.75
 40
1.0
 40
1.0
 40
1.0
 40
1.0
 10
372.3249997065531
 20
448.3001730281341
 30
0.0
 10
372.327233114027
 20
448.2362166065153
 30
0.0
 10
372.3551483782055
 20
448.1735178966456
 30
0.0
 10
372.4472172632057
 20
448.0846080079059
 30
0.0
 10
372.5108520073896
 20
448.0588979023805
 30
0.0
 10
372.6388428191727
 20
448.0588979023677
 30
0.0
 10
372.7024775633617
 20
448.0846080078804
 30
0.0
 10
372.7945464483798
 20
448.1735178966017
 30
0.0
 10
372.8224617125708
 20
448.2362166064657
 30
0.0
 10
372.8246951200572
 20
448.3001730280841
 30
0.0
  0
SPLINE
  5
B2
330
A3
100
AcDbEntity
  8
$DDT_AUDIT_GENERATED_(60)
  6
Continuous
 62
     7
100
AcDbSpline
210
0.0
220
0.0
230
1.0
 70
     8
 71
     6
 72
    14
 73
     7
 74
     0
 42
0.000000011049665
 43
0.0000000001
 40
0.0
 40
0.0
 40
0.0
 40
0.0
 40
0.0
 40
0.0
 40
0.0
 40
1.0
 40
1.0
 40
1.0
 40
1.0
 40
1.0
 40
1.0
 40
1.0
 10
372.3249997065491
 20
383.406781217274
 30
0.0
 10
372.3294665214362
 20
383.534694060554
 30
0.0
 10
372.4117476352401
 20
383.6597117211041
 30
0.0
 10
372.5748474133061
 20
383.722718158364
 30
0.0
 10
372.7379471913721
 20
383.6597117211041
 30
0.0
 10
372.8202283051762
 20
383.534694060554
 30
0.0
 10
372.8246951200632
 20
383.406781217274
 30
0.0
  0
LINE
  5
B3
330
A3
100
AcDbEntity
  8
$DDT_AUDIT_GENERATED_(60)
  6
Continuous
 62
     7
100
AcDbLine
 10
372.319300076
 20
448.4633890918
 30
0.0
 11
372.3249997066
 21
448.3001730281
 31
0.0
  0
LINE
  5
B4
330
A3
100
AcDbEntity
  8
$DDT_AUDIT_GENERATED_(60)
  6
Continuous
 62
     7
100
AcDbLine
 10
372.3192990631
 20
383.2435361468
 30
0.0
 11
372.3249997065
 21
383.4067812173
 31
0.0
  0
LINE
  5
B5
330
A3
100
AcDbEntity
  8
$DDT_AUDIT_GENERATED_(60)
  6
Continuous
 62
     7
100
AcDbLine
 10
372.3193018076
 20
383.243536051
 30
0.0
 11
372.3193013003
 21
448.4633891346
 31
0.0
  0
LINE
  5
B6
330
A3
100
AcDbEntity
  8
$DDT_AUDIT_GENERATED_(60)
  6
Continuous
 62
     7
100
AcDbLine
 10
307.5748474133
 20
449.5934771228
 30
0.0
 11
372.3193007653
 21
448.4633584858
 31
0.0
  0
LINE
  5
B7
330
A3
100
AcDbEntity
  8
$DDT_AUDIT_GENERATED_(60)
  6
Continuous
 62
     7
100
AcDbLine
 10
307.5748474133
 20
449.5935403221
 30
0.0
 11
307.5748474133
 21
382.1133566458
 31
0.0
  0
LINE
  5
B8
330
A3
100
AcDbEntity
  8
$DDT_AUDIT_GENERATED_(60)
  6
Continuous
 62
     7
100
AcDbLine
 10
307.5748489912
 20
382.113356608
 30
0.0
 11
372.3193028434
 21
383.2434767068
 31
0.0
  0
ARC
  5
B9
330
A3
100
AcDbEntity
  8
$DDT_AUDIT_GENERATED_(60)
  6
Continuous
 62
     7
100
AcDbCircle
 10
376.6970000708
 20
385.1372353036
 30
0.0
 40
1.781689056786637
100
AcDbArc
 50
279.9304861088
 51
304.6453848209
  0
ARC
  5
BA
330
A3
100
AcDbEntity
  8
$DDT_AUDIT_GENERATED_(60)
  6
Continuous
 62
     7
100
AcDbCircle
 10
376.697000071
 20
446.5697171541
 30
0.0
 40
1.78168905635548
100
AcDbArc
 50
55.3546152399
 51
92.806849665
  0
LINE
  5
BB
330
A3
100
AcDbEntity
  8
$DDT_AUDIT_GENERATED_(7D)
  6
Continuous
 62
     7
100
AcDbLine
 10
441.9509916752
 20
344.947993614
 30
0.0
 11
441.9509917014
 21
327.4951988823
 31
0.0
  0
LINE
  5
BC
330
A3
100
AcDbEntity
  8
$DDT_AUDIT_GENERATED_(7D)
  6
Continuous
 62
     7
100
AcDbLine
 10
443.461101747
 20
344.947993614
 30
0.0
 11
443.461101747
 21
332.997993614
 31
0.0
  0
LINE
  5
BD
330
A3
100
AcDbEntity
  8
$DDT_AUDIT_GENERATED_(7D)
  6
Continuous
 62
     7
100
AcDbLine
 10
441.9509916752
 20
410.017993614
 30
0.0
 11
441.9509916752
 21
344.947993614
 31
0.0
  0
LINE
  5
BE
330
A3
100
AcDbEntity
  8
$DDT_AUDIT_GENERATED_(7D)
  6
Continuous
 62
     7
100
AcDbLine
 10
443.461101747
 20
344.947993614
 30
0.0
 11
443.461101747
 21
410.017993614
 31
0.0
  0
LINE
  5
BF
330
A3
100
AcDbEntity
  8
$DDT_AUDIT_GENERATED_(7D)
  6
Continuous
 62
     7
100
AcDbLine
 10
443.461101747
 20
410.017993614
 30
0.0
 11
443.461101747
 21
421.967993614
 31
0.0
  0
SPLINE
  5
C0
330
A3
100
AcDbEntity
  8
$DDT_AUDIT_GENERATED_(7D)
  6
Continuous
 62
     7
100
AcDbSpline
210
0.0
220
0.0
230
1.0
 70
     8
 71
     3
 72
    26
 73
    22
 74
     0
 42
0.0000000003441743
 43
0.0000000001
 40
0.0944039023603552
 40
0.0944039023603552
 40
0.0944039023603552
 40
0.0944039023603552
 40
0.1100929324875326
 40
0.1751476748159103
 40
0.2402024171443908
 40
0.3052571594728713
 40
0.3377845306370088
 40
0.3703119018012491
 40
0.4353666441297295
 40
0.4678940152939698
 40
0.5004213864581072
 40
0.5329487576223475
 40
0.5654761287865878
 40
0.6305308711150683
 40
0.695585613443446
 40
0.7606403557719266
 40
0.7931677269361668
 40
0.825695098100407
 40
0.8907498404287848
 40
0.9558045827572652
 40
1.0
 40
1.0
 40
1.0
 40
1.0
 10
425.5368893455033
 20
401.8443732900839
 30
0.0
 10
425.6568924120694
 20
401.8307806793457
 30
0.0
 10
426.2737146337473
 20
401.7546159300969
 30
0.0
 10
427.3839942039513
 20
401.5518585717364
 30
0.0
 10
428.8544391054455
 20
401.0851391791907
 30
0.0
 10
430.0203467719609
 20
400.5000042955474
 30
0.0
 10
430.8967318274334
 20
399.8920300317014
 30
0.0
 10
431.7274727384478
 20
399.1834695065565
 30
0.0
 10
432.4789384086451
 20
398.3141544296814
 30
0.0
 10
433.127698935852
 20
397.2605483857878
 30
0.0
 10
433.5579818144728
 20
396.3743763876752
 30
0.0
 10
433.9339816914404
 20
395.403394718364
 30
0.0
 10
434.3686350340902
 20
394.0171846194868
 30
0.0
 10
434.7960356010256
 20
392.1493484654357
 30
0.0
 10
435.1518913939821
 20
389.8086493348657
 30
0.0
 10
435.3418778713851
 20
387.8730315692264
 30
0.0
 10
435.4443428231565
 20
386.3910674623829
 30
0.0
 10
435.5187242656489
 20
384.9790286516039
 30
0.0
 10
435.5677431217712
 20
383.3607482229833
 30
0.0
 10
435.5811075839604
 20
381.8059706056702
 30
0.0
 10
435.5811028331061
 20
380.8972474845643
 30
0.0
 10
435.5811017470252
 20
380.5379936384261
 30
0.0
  0
ARC
  5
C1
330
A3
100
AcDbEntity
  8
$DDT_AUDIT_GENERATED_(7D)
  6
Continuous
 62
     7
100
AcDbCircle
 10
154.5788614404
 20
407.7541894531
 30
0.0
 40
282.3171627301174
100
AcDbArc
 50
354.46792876
 51
359.6598283782
  0
LINE
  5
C2
330
A3
100
AcDbEntity
  8
$DDT_AUDIT_GENERATED_(7D)
  6
Continuous
 62
     7
100
AcDbLine
 10
436.8992244
 20
410.0180103876
 30
0.0
 11
436.8932895068
 21
406.2120266025
 31
0.0
  0
LINE
  5
C3
330
A3
100
AcDbEntity
  8
$DDT_AUDIT_GENERATED_(7D)
  6
Continuous
 62
     7
100
AcDbLine
 10
436.8988619791
 20
410.8400619724
 30
0.0
 11
436.8992244
 21
410.0180103869
 31
0.0
  0
ARC
  5
C4
330
A3
100
AcDbEntity
  8
$DDT_AUDIT_GENERATED_(7D)
  6
Continuous
 62
     7
100
AcDbCircle
 10
428.3502844354
 20
419.7306390211
 30
0.0
 40
0.2999999754012533
100
AcDbArc
 50
92.0193515781
 51
166.1903114165
  0
ARC
  5
C5
330
A3
100
AcDbEntity
  8
$DDT_AUDIT_GENERATED_(7D)
  6
Continuous
 62
     7
100
AcDbCircle
 10
-7810.2537382965
 20
417.152791332
 30
0.0
 40
8247.154503116812
100
AcDbArc
 50
359.9577266464
 51
0.0422733536
  0
SPLINE
  5
C6
330
A3
100
AcDbEntity
  8
$DDT_AUDIT_GENERATED_(7D)
  6
Continuous
 62
     7
100
AcDbSpline
210
0.0
220
0.0
230
1.0
 70
     8
 71
     3
 72
    24
 73
    20
 74
     0
 42
0.000000000991724
 43
0.0000000001
 40
0.0
 40
0.0
 40
0.0
 40
0.0
 40
0.045002030733029
 40
0.1100048037032743
 40
0.1750075766733951
 40
0.2400103496436196
 40
0.3050131226138442
 40
0.3700158955840687
 40
0.4350186685542933
 40
0.4675200550394056
 40
0.5000214415245178
 40
0.5650242144947424
 40
0.630026987464967
 40
0.6950297604350876
 40
0.7600325334053121
 40
0.8250353063755368
 40
0.8900380793457613
 40
0.9550408523159859
 40
1.0
 40
1.0
 40
1.0
 40
1.0
 10
428.3397132273923
 20
420.0304554585661
 30
0.0
 10
428.4814670393124
 20
420.0354528338331
 30
0.0
 10
428.8350170092734
 20
420.0480533573795
 30
0.0
 10
429.4247940701796
 20
420.0702461582013
 30
0.0
 10
430.1181771811285
 20
420.0989073720058
 30
0.0
 10
430.8470447807924
 20
420.132959000883
 30
0.0
 10
431.6129003152427
 20
420.1730393681364
 30
0.0
 10
432.4137280395676
 20
420.2210854261542
 30
0.0
 10
433.0850295406802
 20
420.2780532563285
 30
0.0
 10
433.60635920441
 20
420.34105272109
 30
0.0
 10
434.1117129369603
 20
420.417896372777
 30
0.0
 10
434.7032019728869
 20
420.5440681067207
 30
0.0
 10
435.3136339778962
 20
420.757771054329
 30
0.0
 10
435.7882076165569
 20
421.0484128722831
 30
0.0
 10
436.1318444061044
 20
421.4156941332851
 30
0.0
 10
436.3880404119976
 20
421.8454025187501
 30
0.0
 10
436.5873161055175
 20
422.328005669414
 30
0.0
 10
436.7466280350617
 20
422.7983940834216
 30
0.0
 10
436.8524294279541
 20
423.1088205281407
 30
0.0
 10
436.8985200999053
 20
423.2376172971561
 30
0.0
  0
LINE
  5
C7
330
A3
100
AcDbEntity
  8
$DDT_AUDIT_GENERATED_(7D)
  6
Continuous
 62
     7
100
AcDbLine
 10
435.581101747
 20
344.947993614
 30
0.0
 11
435.581101747
 21
380.5379936384
 31
0.0
  0
LINE
  5
C8
330
A3
100
AcDbEntity
  8
$DDT_AUDIT_GENERATED_(7D)
  6
Continuous
 62
     7
100
AcDbLine
 10
441.9509916752
 20
410.017993614
 30
0.0
 11
441.9509917043
 21
427.4707883457
 31
0.0
  0
LINE
  5
C9
330
A3
100
AcDbEntity
  8
$DDT_AUDIT_GENERATED_(7D)
  6
Continuous
 62
     7
100
AcDbLine
 10
440.792435437
 20
327.4749762079
 30
0.0
 11
441.9509917014
 21
327.4951988828
 31
0.0
  0
ARC
  5
CA
330
A3
100
AcDbEntity
  8
$DDT_AUDIT_GENERATED_(7D)
  6
Continuous
 62
     7
100
AcDbCircle
 10
440.7575306719
 20
329.4746715991
 30
0.0
 40
2.000000000003675
100
AcDbArc
 50
238.900781184
 51
270.9999986303
  0
SPLINE
  5
CB
330
A3
100
AcDbEntity
  8
$DDT_AUDIT_GENERATED_(7D)
  6
Continuous
 62
     7
100
AcDbSpline
210
0.0
220
0.0
230
1.0
 70
     8
 71
     3
 72
    12
 73
     8
 74
     0
 42
0.0000000017784903
 43
0.0000000001
 40
0.0
 40
0.0
 40
0.0
 40
0.0
 40
0.1924075290092311
 40
0.3783286483385337
 40
0.5584749360270527
 40
0.7722232520550611
 40
1.0
 40
1.0
 40
1.0
 40
1.0
 10
442.1990025258617
 20
327.6343235496884
 30
0.0
 10
442.4045737633438
 20
327.9724778240096
 30
0.0
 10
442.7379262165154
 20
328.5376130089907
 30
0.0
 10
443.1486944952508
 20
329.525870830394
 30
0.0
 10
443.3850574757531
 20
330.5788114373608
 30
0.0
 10
443.4590307085152
 20
331.7657476866444
 30
0.0
 10
443.4642151344059
 20
332.529520690628
 30
0.0
 10
443.4611017470277
 20
332.9979936140061
 30
0.0
  0
ARC
  5
CC
330
A3
100
AcDbEntity
  8
$DDT_AUDIT_GENERATED_(7D)
  6
Continuous
 62
     7
100
AcDbCircle
 10
441.9457559533
 20
327.7951531909
 30
0.0
 40
0.2999999999996607
100
AcDbArc
 50
271.0000049929
 51
327.5815396891
  0
SPLINE
  5
CD
330
A3
100
AcDbEntity
  8
$DDT_AUDIT_GENERATED_(7D)
  6
Continuous
 62
     7
100
AcDbSpline
210
0.0
220
0.0
230
1.0
 70
     8
 71
     3
 72
    12
 73
     8
 74
     0
 42
0.0000000017780833
 43
0.0000000001
 40
0.0
 40
0.0
 40
0.0
 40
0.0
 40
0.1944484029970142
 40
0.3776094251188424
 40
0.5569250570076704
 40
0.7739175735865342
 40
1.0
 40
1.0
 40
1.0
 40
1.0
 10
443.4611017470277
 20
421.9679936140061
 30
0.0
 10
443.4628696386059
 20
422.3678834686941
 30
0.0
 10
443.4599605983136
 20
423.0214071901659
 30
0.0
 10
443.4111021085542
 20
424.0833376308638
 30
0.0
 10
443.2411699738564
 20
425.1472713508322
 30
0.0
 10
442.826675693519
 20
426.269614109874
 30
0.0
 10
442.4395669567637
 20
426.9337850120426
 30
0.0
 10
442.1990021663457
 20
427.3316642444263
 30
0.0
  0
ARC
  5
CE
330
A3
100
AcDbEntity
  8
$DDT_AUDIT_GENERATED_(7D)
  6
Continuous
 62
     7
100
AcDbCircle
 10
194.2120471266
 20
477.0292299062
 30
0.0
 40
240.7381704607731
100
AcDbArc
 50
343.926881701
 51
344.1214790618
  0
ARC
  5
CF
330
A3
100
AcDbEntity
  8
$DDT_AUDIT_GENERATED_(7D)
  6
Continuous
 62
     7
100
AcDbCircle
 10
155.4330471853
 20
487.585965742
 30
0.0
 40
280.9260484786832
100
AcDbArc
 50
344.1954169804
 51
346.0100666811
  0
LINE
  5
D0
330
A3
100
AcDbEntity
  8
$DDT_AUDIT_GENERATED_(7D)
  6
Continuous
 62
     7
100
AcDbLine
 10
428.0588072956
 20
419.8016581724
 30
0.0
 11
428.0590136729
 21
419.8024811668
 31
0.0
  0
LINE
  5
D1
330
A3
100
AcDbEntity
  8
$DDT_AUDIT_GENERATED_(7D)
  6
Continuous
 62
     7
100
AcDbLine
 10
428.050916851
 20
419.7701925287
 30
0.0
 11
428.0255927503
 21
419.6686892897
 31
0.0
  0
SPLINE
  5
D2
330
A3
100
AcDbEntity
  8
$DDT_AUDIT_GENERATED_(7D)
  6
Continuous
 62
     7
100
AcDbSpline
210
0.0
220
0.0
230
1.0
 70
     8
 71
     3
 72
    17
 73
    13
 74
     0
 42
0.0000000005454421
 43
0.0000000001
 40
0.0
 40
0.0
 40
0.0
 40
0.0
 40
0.1509217378289899
 40
0.2908196071156509
 40
0.4201908331883863
 40
0.5397716475966041
 40
0.6505755448171108
 40
0.7314685780507758
 40
0.8065189575241519
 40
0.8757416174033233
 40
0.9397452189630586
 40
1.0
 40
1.0
 40
1.0
 40
1.0
 10
435.5811017470252
 20
344.9479936140061
 30
0.0
 10
435.5811773082224
 20
343.9351151957977
 30
0.0
 10
435.586259500005
 20
342.2924423204142
 30
0.0
 10
435.6436821381282
 20
339.6800817453653
 30
0.0
 10
435.7823991968069
 20
337.3225608683607
 30
0.0
 10
436.034417228471
 20
335.1378098024463
 30
0.0
 10
436.4069245846986
 20
333.2727957762243
 30
0.0
 10
436.8777685591938
 20
331.7132793991504
 30
0.0
 10
437.4104292353957
 20
330.440932833185
 30
0.0
 10
438.0484750170845
 20
329.346496391334
 30
0.0
 10
438.8167428078041
 20
328.4062689628222
 30
0.0
 10
439.3930631319832
 20
327.9938272732124
 30
0.0
 10
439.7244873633874
 20
327.7621233449796
 30
0.0
  0
ARC
  5
D3
330
A3
100
AcDbEntity
  8
$DDT_AUDIT_GENERATED_(7D)
  6
Continuous
 62
     7
100
AcDbCircle
 10
440.7575306719
 20
425.4913156289
 30
0.0
 40
2.000000000003753
100
AcDbArc
 50
89.0000010829
 51
121.0992160405
  0
LINE
  5
D4
330
A3
100
AcDbEntity
  8
$DDT_AUDIT_GENERATED_(7D)
  6
Continuous
 62
     7
100
AcDbLine
 10
441.9509917043
 20
427.4707883452
 30
0.0
 11
440.792435447
 21
427.4910110199
 31
0.0
  0
ARC
  5
D5
330
A3
100
AcDbEntity
  8
$DDT_AUDIT_GENERATED_(7D)
  6
Continuous
 62
     7
100
AcDbCircle
 10
441.9457559533
 20
427.1708340372
 30
0.0
 40
0.2999999999998304
100
AcDbArc
 50
32.418445932
 51
88.9999944493
  0
SPLINE
  5
D6
330
A3
100
AcDbEntity
  8
$DDT_AUDIT_GENERATED_(7D)
  6
Continuous
 62
     7
100
AcDbSpline
210
0.0
220
0.0
230
1.0
 70
     8
 71
     3
 72
    11
 73
     7
 74
     0
 42
0.0000000019957267
 43
0.0000000001
 40
0.0
 40
0.0
 40
0.0
 40
0.0
 40
0.2338121900970775
 40
0.51017520353005
 40
0.746105949551133
 40
1.0
 40
1.0
 40
1.0
 40
1.0
 10
439.708355035269
 20
427.177219085583
 30
0.0
 10
439.357055766833
 20
426.9338401861243
 30
0.0
 10
438.7077687758824
 20
426.4729503644728
 30
0.0
 10
437.938826237207
 20
425.4566555651875
 30
0.0
 10
437.3169151417658
 20
424.3247966818506
 30
0.0
 10
437.0428250840613
 20
423.6190003660374
 30
0.0
 10
436.8796525376753
 20
423.1845572970161
 30
0.0
  0
LINE
  5
D7
330
A3
100
AcDbEntity
  8
$DDT_AUDIT_GENERATED_(88)
  6
Continuous
 62
     7
100
AcDbLine
 10
425.5374472158
 20
433.7510586439
 30
0.0
 11
425.5374472162
 21
433.744627079
 31
0.0
  0
ARC
  5
D8
330
A3
100
AcDbEntity
  8
$DDT_AUDIT_GENERATED_(88)
  6
Continuous
 62
     7
100
AcDbCircle
 10
405.5093075899
 20
398.6231640099
 30
0.0
 40
20.03926174208472
100
AcDbArc
 50
358.0905615489
 51
1.11358576
  0
ARC
  5
D9
330
A3
100
AcDbEntity
  8
$DDT_AUDIT_GENERATED_(88)
  6
Continuous
 62
     7
100
AcDbCircle
 10
-33580.6688257052
 20
423.1528173543
 30
0.0
 40
34006.20992414761
100
AcDbArc
 50
0.0050199435
 51
0.0160823088
  0
ARC
  5
DA
330
A3
100
AcDbEntity
  8
$DDT_AUDIT_GENERATED_(88)
  6
Continuous
 62
     7
100
AcDbCircle
 10
-33581.2485849006
 20
408.5539043826
 30
0.0
 40
34006.78968330875
100
AcDbArc
 50
359.9830022666
 51
0.0406289209
  0
ARC
  5
DB
330
A3
100
AcDbEntity
  8
$DDT_AUDIT_GENERATED_(88)
  6
Continuous
 62
     7
100
AcDbCircle
 10
405.5090846407
 20
433.0835653924
 30
0.0
 40
20.03948469754701
100
AcDbArc
 50
355.9870825699
 51
1.909427915
  0
ARC
  5
DC
330
A3
100
AcDbEntity
  8
$DDT_AUDIT_GENERATED_(88)
  6
Continuous
 62
     7
100
AcDbCircle
 10
393.342972657
 20
400.945317777
 30
0.0
 40
32.34552787372287
100
AcDbArc
 50
350.0496233642
 51
354.4606139139
  0
ARC
  5
DD
330
A3
100
AcDbEntity
  8
$DDT_AUDIT_GENERATED_(88)
  6
Continuous
 62
     7
100
AcDbCircle
 10
393.8048558203
 20
430.6506486299
 30
0.0
 40
31.88369755993142
100
AcDbArc
 50
5.5803686606
 51
10.023367528
  0
ARC
  5
DE
330
A3
100
AcDbEntity
  8
$DDT_AUDIT_GENERATED_(88)
  6
Continuous
 62
     7
100
AcDbCircle
 10
424.9186561765
 20
395.4082036557
 30
0.0
 40
0.2902071433307208
100
AcDbArc
 50
312.1590190205
 51
354.0856251411
  0
SPLINE
  5
DF
330
A3
100
AcDbEntity
  8
$DDT_AUDIT_GENERATED_(88)
  6
Continuous
 62
     7
100
AcDbSpline
210
0.0
220
0.0
230
1.0
 70
     8
 71
     3
 72
    12
 73
     8
 74
     0
 42
0.0000000288711236
 43
0.0000000001
 40
0.0
 40
0.0
 40
0.0
 40
0.0
 40
0.2389160556028419
 40
0.3186892077695643
 40
0.3893133550949295
 40
0.5019939300837997
 40
0.63205611914757
 40
0.63205611914757
 40
0.63205611914757
 40
0.63205611914757
 10
425.2071198309212
 20
436.328932252691
 30
0.0
 10
425.2077993903343
 20
436.3301782867078
 30
0.0
 10
425.207231883961
 20
436.3348473557716
 30
0.0
 10
425.2000029284282
 20
436.3699301346866
 30
0.0
 10
425.1873461671636
 20
436.4097995413956
 30
0.0
 10
425.1596015066702
 20
436.4640566563357
 30
0.0
 10
425.127759895945
 20
436.5008162269921
 30
0.0
 10
425.108551997095
 20
436.5177073815038
 30
0.0
  0
ARC
  5
E1
330
A3
100
AcDbEntity
  8
$DDT_AUDIT_GENERATED_(E0)
  6
Continuous
 62
     7
100
AcDbCircle
 10
2777.5294890398
 20
415.8533718341
 30
0.0
 40
2352.512732563794
100
AcDbArc
 50
179.4858187295
 51
180.5141815608
  0
ARC
  5
E2
330
A3
100
AcDbEntity
  8
$DDT_AUDIT_GENERATED_(E0)
  6
Continuous
 62
     7
100
AcDbCircle
 10
-3788.3010101631
 20
415.8533328276
 30
0.0
 40
4210.722680199737
100
AcDbArc
 50
359.6482585616
 51
0.3517423732
  0
LINE
  5
E3
330
A3
100
AcDbEntity
  8
$DDT_AUDIT_GENERATED_(E0)
  6
Continuous
 62
     7
100
AcDbLine
 10
378.5748474133
 20
389.6217677525
 30
0.0
 11
422.3424467764
 21
390.0037022112
 31
0.0
  0
LINE
  5
E4
330
A3
100
AcDbEntity
  8
$DDT_AUDIT_GENERATED_(E0)
  6
Continuous
 62
     7
100
AcDbLine
 10
422.3424302271
 20
441.703030975
 30
0.0
 11
378.5748474133
 21
442.0849652893
 31
0.0
  0
ARC
  5
E5
330
A3
100
AcDbEntity
  8
$DDT_AUDIT_GENERATED_(E0)
  6
Continuous
 62
     7
100
AcDbCircle
 10
390.207041267
 20
402.1448829389
 30
0.0
 40
35.68082746942634
100
AcDbArc
 50
342.4030467375
 51
348.068876066
  0
ARC
  5
E6
330
A3
100
AcDbEntity
  8
$DDT_AUDIT_GENERATED_(E0)
  6
Continuous
 62
     7
100
AcDbCircle
 10
390.207041267
 20
429.5618501029
 30
0.0
 40
35.68082746939552
100
AcDbArc
 50
11.931123934
 51
17.5969532625
  0
SPLINE
  5
E7
330
A3
100
AcDbEntity
  8
$DDT_AUDIT_GENERATED_(E0)
  6
Continuous
 62
     7
100
AcDbSpline
210
0.0
220
0.0
230
1.0
 70
     8
 71
     3
 72
     9
 73
     5
 74
     0
 42
0.0000000662148902
 43
0.0000000001
 40
0.0
 40
0.0
 40
0.0
 40
0.0
 40
0.5266200006486031
 40
0.7575578279079618
 40
0.7575578279079618
 40
0.7575578279079618
 40
0.7575578279079618
 10
425.1146640079845
 20
436.7814900349861
 30
0.0
 10
425.114742156944
 20
436.8254775680514
 30
0.0
 10
425.1147448854784
 20
436.870849167194
 30
0.0
 10
425.114950050368
 20
436.8935711260319
 30
0.0
 10
425.1149062765339
 20
436.8912446410829
 30
0.0
  0
ARC
  5
E8
330
A3
100
AcDbEntity
  8
$DDT_AUDIT_GENERATED_(E0)
  6
Continuous
 62
     7
100
AcDbCircle
 10
422.340960236
 20
439.7117260654
 30
0.0
 40
1.971586888067392
100
AcDbArc
 50
16.9765209063
 51
89.9620839285
  0
ARC
  5
E9
330
A3
100
AcDbEntity
  8
$DDT_AUDIT_GENERATED_(E0)
  6
Continuous
 62
     7
100
AcDbCircle
 10
422.3332237763
 20
392.006496651
 30
0.0
 40
1.981090420594311
100
AcDbArc
 50
270.2566143147
 51
343.0415187511
  0
ARC
  5
EB
330
A3
100
AcDbEntity
  8
$DDT_AUDIT_GENERATED_(EA)
  6
Continuous
 62
     7
100
AcDbCircle
 10
407.5810179542
 20
416.2531503946
 30
0.0
 40
20.5
100
AcDbArc
 50
7.6684112055
 51
28.7989676684
  0
LINE
  5
ED
330
A3
100
AcDbEntity
  8
$DDT_AUDIT_GENERATED_(EC)
  6
Continuous
 62
     7
100
AcDbLine
 10
444.9391029937
 20
411.139423336
 30
0.0
 11
444.9560482784
 21
410.1063523948
 31
0.0
  0
LINE
  5
EE
330
A3
100
AcDbEntity
  8
$DDT_AUDIT_GENERATED_(EC)
  6
Continuous
 62
     7
100
AcDbLine
 10
444.9011345822
 20
412.0314848519
 30
0.0
 11
444.930585789
 21
411.3910090404
 31
0.0
  0
LINE
  5
EF
330
A3
100
AcDbEntity
  8
$DDT_AUDIT_GENERATED_(EC)
  6
Continuous
 62
     7
100
AcDbLine
 10
444.8413909911
 20
412.924763364
 30
0.0
 11
444.8864866069
 21
412.2834628197
 31
0.0
  0
LINE
  5
F0
330
A3
100
AcDbEntity
  8
$DDT_AUDIT_GENERATED_(EC)
  6
Continuous
 62
     7
100
AcDbLine
 10
444.9560482784
 20
410.1063523948
 30
0.0
 11
444.9561515289
 21
410.017993614
 31
0.0
  0
LINE
  5
F1
330
A3
100
AcDbEntity
  8
$DDT_AUDIT_GENERATED_(EC)
  6
Continuous
 62
     7
100
AcDbLine
 10
444.930585789
 20
411.3910090404
 30
0.0
 11
444.9391029937
 21
411.139423336
 31
0.0
  0
LINE
  5
F2
330
A3
100
AcDbEntity
  8
$DDT_AUDIT_GENERATED_(EC)
  6
Continuous
 62
     7
100
AcDbLine
 10
444.8864866069
 20
412.2834628197
 30
0.0
 11
444.9011345822
 21
412.0314848519
 31
0.0
  0
LINE
  5
F3
330
A3
100
AcDbEntity
  8
$DDT_AUDIT_GENERATED_(EC)
  6
Continuous
 62
     7
100
AcDbLine
 10
444.8206278489
 20
413.1763546627
 30
0.0
 11
444.8413909911
 21
412.924763364
 31
0.0
  0
SPLINE
  5
F4
330
A3
100
AcDbEntity
  8
$DDT_AUDIT_GENERATED_(EC)
  6
Continuous
 62
     7
100
AcDbSpline
210
0.0
220
0.0
230
1.0
 70
     8
 71
     3
 72
     8
 73
     4
 74
     0
 42
0.0000000014055845
 43
0.0000000001
 40
0.0
 40
0.0
 40
0.0
 40
0.0
 40
1.0
 40
1.0
 40
1.0
 40
1.0
 10
443.5338307603972
 20
420.1508452023701
 30
0.0
 10
444.1878251288911
 20
417.8748742008887
 30
0.0
 10
444.6178120218377
 20
415.5353937531986
 30
0.0
 10
444.8206278488883
 20
413.1763546627323
 30
0.0
  0
ARC
  5
F5
330
A3
100
AcDbEntity
  8
$DDT_AUDIT_GENERATED_(EC)
  6
Continuous
 62
     7
100
AcDbCircle
 10
443.2454982887
 20
420.0679936141
 30
0.0
 40
0.2999999998523888
100
AcDbArc
 50
16.0318675667
 51
43.2702226688
  0
SPLINE
  5
F6
330
A3
100
AcDbEntity
  8
$DDT_AUDIT_GENERATED_(EC)
  6
Continuous
 62
     7
100
AcDbSpline
210
0.0
220
0.0
230
1.0
 70
     8
 71
     3
 72
     8
 73
     4
 74
     0
 42
0.0000000013027423
 43
0.0000000001
 40
0.0
 40
0.0
 40
0.0
 40
0.0
 40
1.0
 40
1.0
 40
1.0
 40
1.0
 10
443.5970547534662
 20
400.1078532595666
 30
0.0
 10
444.2867505484624
 20
402.5673036816136
 30
0.0
 10
444.7156842000895
 20
405.0989835112774
 30
0.0
 10
444.8798851321035
 20
407.6477307342763
 30
0.0
  0
ARC
  5
F7
330
A3
100
AcDbEntity
  8
$DDT_AUDIT_GENERATED_(EC)
  6
Continuous
 62
     7
100
AcDbCircle
 10
443.4044833042
 20
400.1618554539
 30
0.0
 40
0.2000000001982514
100
AcDbArc
 50
286.5295045978
 51
344.3350802883
  0
SPLINE
  5
F8
330
A3
100
AcDbEntity
  8
$DDT_AUDIT_GENERATED_(EC)
  6
Continuous
 62
     7
100
AcDbSpline
210
0.0
220
0.0
230
1.0
 70
     8
 71
     3
 72
     8
 73
     4
 74
     0
 42
0.000000004216321
 43
0.0000000001
 40
0.0
 40
0.0
 40
0.0
 40
0.0
 40
1.0
 40
1.0
 40
1.0
 40
1.0
 10
444.8798851321035
 20
407.6477307342763
 30
0.0
 10
444.9307033841155
 20
408.4365379420322
 30
0.0
 10
444.9561647552341
 20
409.2269799150737
 30
0.0
 10
444.9561515384651
 20
410.0174214475566
 30
0.0
  0
ARC
  5
F9
330
A3
100
AcDbEntity
  8
$DDT_AUDIT_GENERATED_(EC)
  6
Continuous
 62
     7
100
AcDbCircle
 10
443.2743092697
 20
400.2743001285
 30
0.0
 40
0.3032562924100159
100
AcDbArc
 50
308.1853731268
 51
316.276030598
  0
ENDBLK
  5
FB
330
A3
100
AcDbEntity
  8
0
100
AcDbBlockEnd
  0
BLOCK
  5
162
330
FC
100
AcDbEntity
  8
0
100
AcDbBlockBegin
  2
SE2
 70
     0
 10
0.0
 20
0.0
 30
0.0
  3
SE2
  1

  0
LINE
  5
FE
330
FC
100
AcDbEntity
  8
$DDT_AUDIT_GENERATED_(60)
  6
Continuous
 62
     7
100
AcDbLine
 10
190.0900009309
 20
172.7313041252
 30
0.0
 11
220.6254986649
 21
172.7313041252
 31
0.0
  0
LINE
  5
FF
330
FC
100
AcDbEntity
  8
$DDT_AUDIT_GENERATED_(60)
  6
Continuous
 62
     7
100
AcDbLine
 10
190.0900019173
 20
172.7313041252
 30
0.0
 11
40.0900016616
 21
172.7313041252
 31
0.0
  0
LINE
  5
100
330
FC
100
AcDbEntity
  8
$DDT_AUDIT_GENERATED_(60)
  6
Continuous
 62
     7
100
AcDbLine
 10
40.0900016616
 20
172.7313041252
 30
0.0
 11
9.5545039266
 21
172.7313041252
 31
0.0
  0
LINE
  5
101
330
FC
100
AcDbEntity
  8
$DDT_AUDIT_GENERATED_(60)
  6
Continuous
 62
     7
100
AcDbLine
 10
190.0900009343
 20
174.6963990319
 30
0.0
 11
222.6246366891
 21
174.6963993041
 31
0.0
  0
LINE
  5
102
330
FC
100
AcDbEntity
  8
$DDT_AUDIT_GENERATED_(60)
  6
Continuous
 62
     7
100
AcDbLine
 10
190.0900017385
 20
174.6963993123
 30
0.0
 11
40.0900016598
 21
174.6963993123
 31
0.0
  0
LINE
  5
103
330
FC
100
AcDbEntity
  8
$DDT_AUDIT_GENERATED_(60)
  6
Continuous
 62
     7
100
AcDbLine
 10
40.0900016598
 20
174.6963990319
 30
0.0
 11
7.5553659062
 21
174.6963993041
 31
0.0
  0
LINE
  5
104
330
FC
100
AcDbEntity
  8
$DDT_AUDIT_GENERATED_(60)
  6
Continuous
 62
     7
100
AcDbLine
 10
190.0900009091
 20
178.4760684193
 30
0.0
 11
222.690968004
 21
178.4760676463
 31
0.0
  0
LINE
  5
105
330
FC
100
AcDbEntity
  8
$DDT_AUDIT_GENERATED_(60)
  6
Continuous
 62
     7
100
AcDbLine
 10
190.0900016864
 20
178.4760692006
 30
0.0
 11
40.0900016862
 21
178.4760692007
 31
0.0
  0
LINE
  5
106
330
FC
100
AcDbEntity
  8
$DDT_AUDIT_GENERATED_(60)
  6
Continuous
 62
     7
100
AcDbLine
 10
40.0900016862
 20
178.4760684193
 30
0.0
 11
7.4890345912
 21
178.4760676463
 31
0.0
  0
LINE
  5
107
330
FC
100
AcDbEntity
  8
$DDT_AUDIT_GENERATED_(60)
  6
Continuous
 62
     7
100
AcDbLine
 10
222.6998824688
 20
178.9868486854
 30
0.0
 11
190.090000909
 21
178.9868502382
 31
0.0
  0
LINE
  5
108
330
FC
100
AcDbEntity
  8
$DDT_AUDIT_GENERATED_(60)
  6
Continuous
 62
     7
100
AcDbLine
 10
190.0900016865
 20
178.9868503934
 30
0.0
 11
40.0900016863
 21
178.9868503934
 31
0.0
  0
LINE
  5
109
330
FC
100
AcDbEntity
  8
$DDT_AUDIT_GENERATED_(60)
  6
Continuous
 62
     7
100
AcDbLine
 10
7.4801201265
 20
178.9868486854
 30
0.0
 11
40.0900016863
 21
178.9868502382
 31
0.0
  0
LINE
  5
10A
330
FC
100
AcDbEntity
  8
$DDT_AUDIT_GENERATED_(60)
  6
Continuous
 62
     7
100
AcDbLine
 10
190.0900008956
 20
243.7313041252
 30
0.0
 11
223.8300023464
 21
243.7313041252
 31
0.0
  0
LINE
  5
10B
330
FC
100
AcDbEntity
  8
$DDT_AUDIT_GENERATED_(60)
  6
Continuous
 62
     7
100
AcDbLine
 10
190.0900017
 20
243.7313041252
 30
0.0
 11
40.0900016997
 21
243.7313041252
 31
0.0
  0
LINE
  5
10C
330
FC
100
AcDbEntity
  8
$DDT_AUDIT_GENERATED_(60)
  6
Continuous
 62
     7
100
AcDbLine
 10
40.0900016996
 20
243.7313041252
 30
0.0
 11
6.3500002488
 21
243.7313041252
 31
0.0
  0
ARC
  5
10D
330
FC
100
AcDbEntity
  8
$DDT_AUDIT_GENERATED_(60)
  6
Continuous
 62
     7
100
AcDbCircle
 10
220.6247967102
 20
174.7313625058
 30
0.0
 40
2.000145585631561
100
AcDbArc
 50
269.464968986
 51
358.9984001781
  0
ARC
  5
10E
330
FC
100
AcDbEntity
  8
$DDT_AUDIT_GENERATED_(60)
  6
Continuous
 62
     7
100
AcDbCircle
 10
9.5552069067
 20
174.7313635554
 30
0.0
 40
2.000146625524106
100
AcDbArc
 50
181.0016293697
 51
270.5350013804
  0
LINE
  5
10F
330
FC
100
AcDbEntity
  8
$DDT_AUDIT_GENERATED_(60)
  6
Continuous
 62
     7
100
AcDbLine
 10
222.6248630757
 20
174.6889237083
 30
0.0
 11
222.6910203828
 21
178.4790684193
 31
0.0
  0
LINE
  5
110
330
FC
100
AcDbEntity
  8
$DDT_AUDIT_GENERATED_(60)
  6
Continuous
 62
     7
100
AcDbLine
 10
7.4889822125
 20
178.4790684193
 30
0.0
 11
7.5551395196
 21
174.6889237085
 31
0.0
  0
LINE
  5
111
330
FC
100
AcDbEntity
  8
$DDT_AUDIT_GENERATED_(60)
  6
Continuous
 62
     7
100
AcDbLine
 10
164.2636782868
 20
172.9111388033
 30
0.0
 11
164.3476066493
 21
172.7400289993
 31
0.0
  0
LINE
  5
112
330
FC
100
AcDbEntity
  8
$DDT_AUDIT_GENERATED_(60)
  6
Continuous
 62
     7
100
AcDbLine
 10
222.6919514806
 20
178.4760348196
 30
0.0
 11
222.5366972031
 21
178.4814564184
 31
0.0
  0
LINE
  5
113
330
FC
100
AcDbEntity
  8
$DDT_AUDIT_GENERATED_(60)
  6
Continuous
 62
     7
100
AcDbLine
 10
7.6433053922
 20
178.4814564184
 30
0.0
 11
7.4880511147
 21
178.4760348196
 31
0.0
  0
SPLINE
  5
114
330
FC
100
AcDbEntity
  8
$DDT_AUDIT_GENERATED_(60)
  6
Continuous
 62
     7
100
AcDbSpline
210
0.0
220
0.0
230
1.0
 70
     8
 71
     3
 72
    15
 73
    11
 74
     0
 42
0.0000000128015178
 43
0.0000000001
 40
0.0
 40
0.0
 40
0.0
 40
0.0
 40
0.1249713450601316
 40
0.2499979585897287
 40
0.3750403035711829
 40
0.5000000000000003
 40
0.6249596964288154
 40
0.7500020414102716
 40
0.875028654939868
 40
1.0
 40
1.0
 40
1.0
 40
1.0
 10
222.5363423055891
 20
178.4814564184
 30
0.0
 10
222.5016637993378
 20
178.4859996681669
 30
0.0
 10
222.4420990046637
 20
178.4955765367178
 30
0.0
 10
222.3604189723464
 20
178.5537413683817
 30
0.0
 10
222.3076174583117
 20
178.6352254364465
 30
0.0
 10
222.2887980729436
 20
178.731304125159
 30
0.0
 10
222.3076174583117
 20
178.8273828138714
 30
0.0
 10
222.3604189723464
 20
178.9088668819362
 30
0.0
 10
222.4420990046636
 20
178.9670317136001
 30
0.0
 10
222.5016637993378
 20
178.9766085821511
 30
0.0
 10
222.5363423055891
 20
178.981151831918
 30
0.0
  0
SPLINE
  5
115
330
FC
100
AcDbEntity
  8
$DDT_AUDIT_GENERATED_(60)
  6
Continuous
 62
     7
100
AcDbSpline
210
0.0
220
0.0
230
1.0
 70
     8
 71
     3
 72
    15
 73
    11
 74
     0
 42
0.0000000128015178
 43
0.0000000001
 40
0.0
 40
0.0
 40
0.0
 40
0.0
 40
0.1249713450453624
 40
0.2499979585802629
 40
0.3750403035685368
 40
0.5000000000000006
 40
0.6249596964314621
 40
0.7500020414197369
 40
0.8750286549546381
 40
1.0
 40
1.0
 40
1.0
 40
1.0
 10
7.643660289707505
 20
178.981151831916
 30
0.0
 10
7.678338795948064
 20
178.9766085821413
 30
0.0
 10
7.737903590607581
 20
178.9670317135775
 30
0.0
 10
7.819583622902387
 20
178.9088668819137
 30
0.0
 10
7.87238513693031
 20
178.8273828138593
 30
0.0
 10
7.891204522297413
 20
178.731304125159
 30
0.0
 10
7.872385136930365
 20
178.6352254364587
 30
0.0
 10
7.819583622902416
 20
178.5537413684043
 30
0.0
 10
7.737903590607442
 20
178.4955765367404
 30
0.0
 10
7.678338795948064
 20
178.4859996681767
 30
0.0
 10
7.643660289707505
 20
178.481456418402
 30
0.0
  0
LINE
  5
116
330
FC
100
AcDbEntity
  8
$DDT_AUDIT_GENERATED_(60)
  6
Continuous
 62
     7
100
AcDbLine
 10
222.5350653485
 20
178.9810948463
 30
0.0
 11
222.6998337414
 21
178.9868486854
 31
0.0
  0
LINE
  5
117
330
FC
100
AcDbEntity
  8
$DDT_AUDIT_GENERATED_(60)
  6
Continuous
 62
     7
100
AcDbLine
 10
222.6998824985
 20
178.986850388
 30
0.0
 11
222.7015308272
 21
178.9869079489
 31
0.0
  0
LINE
  5
118
330
FC
100
AcDbEntity
  8
$DDT_AUDIT_GENERATED_(60)
  6
Continuous
 62
     7
100
AcDbLine
 10
7.4784717681
 20
178.9869079489
 30
0.0
 11
7.4801200967
 21
178.986850388
 31
0.0
  0
LINE
  5
119
330
FC
100
AcDbEntity
  8
$DDT_AUDIT_GENERATED_(60)
  6
Continuous
 62
     7
100
AcDbLine
 10
7.4801688533
 20
178.9868486854
 30
0.0
 11
7.6449372467
 21
178.9810948463
 31
0.0
  0
LINE
  5
11A
330
FC
100
AcDbEntity
  8
$DDT_AUDIT_GENERATED_(60)
  6
Continuous
 62
     7
100
AcDbLine
 10
222.6998301218
 20
178.9838497309
 30
0.0
 11
223.8300025952
 21
243.7313041252
 31
0.0
  0
LINE
  5
11B
330
FC
100
AcDbEntity
  8
$DDT_AUDIT_GENERATED_(60)
  6
Continuous
 62
     7
100
AcDbLine
 10
6.35
 20
243.7313041252
 30
0.0
 11
7.4801724735
 21
178.9838497309
 31
0.0
  0
ARC
  5
11C
330
FC
100
AcDbEntity
  8
$DDT_AUDIT_GENERATED_(7D)
  6
Continuous
 62
     7
100
AcDbCircle
 10
55.5634536864
 20
110.5486208665
 30
0.0
 40
2.000000000007131
100
AcDbArc
 50
359.0000000001
 51
31.0992071971
  0
LINE
  5
11D
330
FC
100
AcDbEntity
  8
$DDT_AUDIT_GENERATED_(7D)
  6
Continuous
 62
     7
100
AcDbLine
 10
57.5631490767
 20
110.5137160537
 30
0.0
 11
57.5429264031
 21
109.3551598632
 31
0.0
  0
ARC
  5
11E
330
FC
100
AcDbEntity
  8
$DDT_AUDIT_GENERATED_(7D)
  6
Continuous
 62
     7
100
AcDbCircle
 10
57.2429720946
 20
109.3603955852
 30
0.0
 40
0.2999999999995774
100
AcDbArc
 50
302.4185883894
 51
359.0000000002
  0
SPLINE
  5
11F
330
FC
100
AcDbEntity
  8
$DDT_AUDIT_GENERATED_(7D)
  6
Continuous
 62
     7
100
AcDbSpline
210
0.0
220
0.0
230
1.0
 70
     8
 71
     3
 72
    11
 73
     7
 74
     0
 42
0.0000000017769805
 43
0.0000000001
 40
0.0
 40
0.0
 40
0.0
 40
0.0
 40
0.3976674467889
 40
0.4887881534628
 40
0.6777827098620001
 40
1.0
 40
1.0
 40
1.0
 40
1.0
 10
57.40380230186976
 20
109.1071493721199
 30
0.0
 10
56.74727029515977
 20
108.6902026488299
 30
0.0
 10
55.90945168399976
 20
108.2719656509399
 30
0.0
 10
54.71861219184976
 20
107.9756349217699
 30
0.0
 10
53.65136827192977
 20
107.8468923387899
 30
0.0
 10
52.69225760907977
 20
107.8450497914399
 30
0.0
 10
52.04013167144977
 20
107.8450497914399
 30
0.0
  0
ARC
  5
120
330
FC
100
AcDbEntity
  8
$DDT_AUDIT_GENERATED_(7D)
  6
Continuous
 62
     7
100
AcDbCircle
 10
22.9372912483
 20
109.3603955852
 30
0.0
 40
0.2999999999995774
100
AcDbArc
 50
180.9999999998
 51
237.5814116106
  0
SPLINE
  5
121
330
FC
100
AcDbEntity
  8
$DDT_AUDIT_GENERATED_(7D)
  6
Continuous
 62
     7
100
AcDbSpline
210
0.0
220
0.0
230
1.0
 70
     8
 71
     3
 72
    11
 73
     7
 74
     0
 42
0.0000000017769805
 43
0.0000000001
 40
0.0
 40
0.0
 40
0.0
 40
0.0
 40
0.397667446789
 40
0.4887881534628
 40
0.6777827098620001
 40
1.0
 40
1.0
 40
1.0
 40
1.0
 10
22.77646104102976
 20
109.1071493721199
 30
0.0
 10
23.43299304773977
 20
108.6902026488299
 30
0.0
 10
24.27081165889977
 20
108.2719656509399
 30
0.0
 10
25.46165115104976
 20
107.9756349217699
 30
0.0
 10
26.52889507096975
 20
107.8468923387899
 30
0.0
 10
27.48800573381977
 20
107.8450497914399
 30
0.0
 10
28.14013167144977
 20
107.8450497914399
 30
0.0
  0
LINE
  5
122
330
FC
100
AcDbEntity
  8
$DDT_AUDIT_GENERATED_(7D)
  6
Continuous
 62
     7
100
AcDbLine
 10
57.4038023019
 20
109.1071489722
 30
0.0
 11
22.776461041
 21
109.1071489722
 31
0.0
  0
LINE
  5
123
330
FC
100
AcDbEntity
  8
$DDT_AUDIT_GENERATED_(7D)
  6
Continuous
 62
     7
100
AcDbLine
 10
52.0401316714
 20
107.8450497914
 30
0.0
 11
28.1401316714
 21
107.8450497914
 31
0.0
  0
SPLINE
  5
124
330
FC
100
AcDbEntity
  8
$DDT_AUDIT_GENERATED_(7D)
  6
Continuous
 62
     7
100
AcDbSpline
210
0.0
220
0.0
230
1.0
 70
     8
 71
     3
 72
     8
 73
     4
 74
     0
 42
0.000000000756761
 43
0.0000000001
 40
0.9569342719354261
 40
0.9569342719354261
 40
0.9569342719354261
 40
0.9569342719354261
 40
1.0
 40
1.0
 40
1.0
 40
1.0
 10
52.75638103008954
 20
114.5962591916939
 30
0.0
 10
52.93625248702853
 20
114.5353679421433
 30
0.0
 10
53.11568034167203
 20
114.4741284674564
 30
0.0
 10
53.29510039309977
 20
114.4128671231599
 30
0.0
  0
SPLINE
  5
125
330
FC
100
AcDbEntity
  8
$DDT_AUDIT_GENERATED_(7D)
  6
Continuous
 62
     7
100
AcDbSpline
210
0.0
220
0.0
230
1.0
 70
     8
 71
     3
 72
     8
 73
     4
 74
     0
 42
0.0000000007564257
 43
0.0000000001
 40
0.9568702376749229
 40
0.9568702376749229
 40
0.9568702376749229
 40
0.9568702376749229
 40
1.0
 40
1.0
 40
1.0
 40
1.0
 10
27.42552934626286
 20
114.5947706804711
 30
0.0
 10
27.24558213372962
 20
114.5334647016383
 30
0.0
 10
27.06536568457085
 20
114.4731635260257
 30
0.0
 10
26.88514927204977
 20
114.4128622476799
 30
0.0
  0
LINE
  5
126
330
FC
100
AcDbEntity
  8
$DDT_AUDIT_GENERATED_(7D)
  6
Continuous
 62
     7
100
AcDbLine
 10
26.8685404977
 20
114.4069271384
 30
0.0
 11
26.8851493491
 21
114.4128620316
 31
0.0
  0
LINE
  5
127
330
FC
100
AcDbEntity
  8
$DDT_AUDIT_GENERATED_(7D)
  6
Continuous
 62
     7
100
AcDbLine
 10
26.895136073
 20
114.4072895594
 30
0.0
 11
26.8685404977
 21
114.4069271384
 31
0.0
  0
SPLINE
  5
128
330
FC
100
AcDbEntity
  8
$DDT_AUDIT_GENERATED_(7D)
  6
Continuous
 62
     7
100
AcDbSpline
210
0.0
220
0.0
230
1.0
 70
     8
 71
     3
 72
    17
 73
    13
 74
     0
 42
0.0000000012221784
 43
0.0000000001
 40
0.0
 40
0.0
 40
0.0
 40
0.0
 40
0.0758438804147517
 40
0.1453285884870768
 40
0.2083102144894773
 40
0.2648947504763144
 40
0.3152958786274767
 40
0.359718164761102
 40
0.5277336077500571
 40
0.7089939276945324
 40
0.8696831982047413
 40
1.0
 40
1.0
 40
1.0
 40
1.0
 10
38.52231373796877
 20
122.9995826965009
 30
0.0
 10
38.20690293383824
 20
123.0154790906671
 30
0.0
 10
37.60253020798759
 20
123.0459384108187
 30
0.0
 10
36.76750459456729
 20
123.1170419074432
 30
0.0
 10
36.03788555626713
 20
123.1973062997955
 30
0.0
 10
35.41061679531632
 20
123.2830136212788
 30
0.0
 10
34.8779476173878
 20
123.3695445642277
 30
0.0
 10
33.99867807891552
 20
123.5346884636502
 30
0.0
 10
32.83621065825998
 20
123.831727906317
 30
0.0
 10
31.7636426365254
 20
124.3033112998065
 30
0.0
 10
31.17617716762397
 20
124.7969099950194
 30
0.0
 10
31.10509414321111
 20
125.1228021034362
 30
0.0
 10
31.07329829986577
 20
125.2687401190249
 30
0.0
  0
SPLINE
  5
129
330
FC
100
AcDbEntity
  8
$DDT_AUDIT_GENERATED_(7D)
  6
Continuous
 62
     7
100
AcDbSpline
210
0.0
220
0.0
230
1.0
 70
    12
 71
     3
 72
     8
 73
     4
 74
     0
 42
0.0000000739377909
 43
0.0000000001
 40
0.6630394984947243
 40
0.6630394984947243
 40
0.6630394984947243
 40
0.6630394984947243
 40
1.0
 40
1.0
 40
1.0
 40
1.0
 10
38.56857039393141
 20
123.2712014104019
 30
0.0
 41
1.052290447136858
 10
38.57875521116896
 20
123.2904437897194
 30
0.0
 41
1.100136387734654
 10
38.58848883852284
 20
123.2933692836755
 30
0.0
 41
1.180816729600311
 10
38.59711599287976
 20
123.2828064575439
 30
0.0
 41
1.294331472733829
  0
LINE
  5
12A
330
FC
100
AcDbEntity
  8
$DDT_AUDIT_GENERATED_(7D)
  6
Continuous
 62
     7
100
AcDbLine
 10
40.090131679
 20
122.9664382089
 30
0.0
 11
38.5223201643
 21
122.9995813911
 31
0.0
  0
SPLINE
  5
12B
330
FC
100
AcDbEntity
  8
$DDT_AUDIT_GENERATED_(7D)
  6
Continuous
 62
     7
100
AcDbSpline
210
0.0
220
0.0
230
1.0
 70
     8
 71
     3
 72
    26
 73
    22
 74
     0
 42
0.0000000007588485
 43
0.0000000001
 40
0.0
 40
0.0
 40
0.0
 40
0.0
 40
0.011893794100107
 40
0.0357135686039173
 40
0.0714584863524462
 40
0.1085969463947604
 40
0.1429137676608773
 40
0.2420545803942839
 40
0.2857448342683609
 40
0.3928251360359358
 40
0.4999080220712653
 40
0.5713382303759199
 40
0.6427682261371034
 40
0.7141982869906278
 40
0.7522649990442966
 40
0.7856538499772014
 40
0.85145934960441
 40
0.8928163577241147
 40
0.928545788133201
 40
0.9642736697533164
 40
1.0
 40
1.0
 40
1.0
 40
1.0
 10
26.91227108475977
 20
114.4076314385599
 30
0.0
 10
26.91887860061423
 20
114.40765003597
 30
0.0
 10
26.93874513151972
 20
114.4076327525035
 30
0.0
 10
26.99323434531697
 20
114.4075771844773
 30
0.0
 10
27.09388395685519
 20
114.4074984420619
 30
0.0
 10
27.24341040729844
 20
114.4074325160879
 30
0.0
 10
27.53902962606572
 20
114.4074677360723
 30
0.0
 10
27.95741950307074
 20
114.4075673459497
 30
0.0
 10
28.70614316257419
 20
114.407597321521
 30
0.0
 10
29.64618428939783
 20
114.407321607911
 30
0.0
 10
30.92386341745207
 20
114.4077631968074
 30
0.0
 10
32.18982684125271
 20
114.4074730819503
 30
0.0
 10
33.36481243240638
 20
114.4073701424102
 30
0.0
 10
34.4213707956722
 20
114.407548817116
 30
0.0
 10
35.28700805853274
 20
114.4076407478334
 30
0.0
 10
36.1359065053852
 20
114.4075814916207
 30
0.0
 10
37.02720009059346
 20
114.4074490949779
 30
0.0
 10
37.94922269219206
 20
114.4074081108794
 30
0.0
 10
38.68399302313577
 20
114.4074701693245
 30
0.0
 10
39.38606483246939
 20
114.4075324717877
 30
0.0
 10
39.85544614708353
 20
114.407597496959
 30
0.0
 10
40.09013170892064
 20
114.4076314385599
 30
0.0
  0
SPLINE
  5
12C
330
FC
100
AcDbEntity
  8
$DDT_AUDIT_GENERATED_(7D)
  6
Continuous
 62
     7
100
AcDbSpline
210
0.0
220
0.0
230
1.0
 70
    12
 71
     3
 72
     8
 73
     4
 74
     0
 42
0.0000000007588358
 43
0.0000000001
 40
0.0
 40
0.0
 40
0.0
 40
0.0
 40
1.0
 40
1.0
 40
1.0
 40
1.0
 10
53.26821332692047
 20
114.4075571400176
 30
0.0
 41
1.0
 10
52.69102946129092
 20
114.4076314385604
 30
0.0
 41
0.823100906440005
 10
47.35435670500834
 20
114.4076314385604
 30
0.0
 41
0.823100906440005
 10
40.09013170892064
 20
114.4076314385599
 30
0.0
 41
1.0
  0
LINE
  5
12D
330
FC
100
AcDbEntity
  8
$DDT_AUDIT_GENERATED_(7D)
  6
Continuous
 62
     7
100
AcDbLine
 10
41.6579429931
 20
122.999581316
 30
0.0
 11
40.0901316789
 21
122.9664382268
 31
0.0
  0
SPLINE
  5
12E
330
FC
100
AcDbEntity
  8
$DDT_AUDIT_GENERATED_(7D)
  6
Continuous
 62
     7
100
AcDbSpline
210
0.0
220
0.0
230
1.0
 70
    12
 71
     3
 72
     8
 73
     4
 74
     0
 42
0.0000000729566333
 43
0.0000000001
 40
0.6865692917658773
 40
0.6865692917658773
 40
0.6865692917658773
 40
0.6865692917658773
 40
1.0
 40
1.0
 40
1.0
 40
1.0
 10
41.61068094467507
 20
123.2730601151854
 30
0.0
 41
1.029877894949159
 10
41.60090796687406
 20
123.2905096567539
 30
0.0
 41
1.063353293756993
 10
41.59153425319833
 20
123.2930620470835
 30
0.0
 41
1.124958242703455
 10
41.58315037725577
 20
123.2828065611749
 30
0.0
 41
1.214692741788544
  0
SPLINE
  5
12F
330
FC
100
AcDbEntity
  8
$DDT_AUDIT_GENERATED_(7D)
  6
Continuous
 62
     7
100
AcDbSpline
210
0.0
220
0.0
230
1.0
 70
     8
 71
     3
 72
    16
 73
    12
 74
     0
 42
0.0000000012256141
 43
0.0000000001
 40
0.0
 40
0.0
 40
0.0
 40
0.0
 40
0.0596722479386426
 40
0.123555269999001
 40
0.1915161976082582
 40
0.2633739841834967
 40
0.4547272041289741
 40
0.6211639126219801
 40
0.7238148123427544
 40
0.8496567330382888
 40
1.0
 40
1.0
 40
1.0
 40
1.0
 10
49.10696474513876
 20
125.2687407689619
 30
0.0
 10
49.09946319142902
 20
125.2016695317774
 30
0.0
 10
49.08385517007735
 20
125.0627915280329
 30
0.0
 10
48.97654553349695
 20
124.8523205290802
 30
0.0
 10
48.79370454330461
 20
124.6341709675149
 30
0.0
 10
48.3686748038854
 20
124.2929121672844
 30
0.0
 10
47.50839188652067
 20
123.886650574882
 30
0.0
 10
46.19015596806427
 20
123.5302475775999
 30
0.0
 10
44.85067306019777
 20
123.2868864314704
 30
0.0
 10
43.42418830763034
 20
123.102221854359
 30
0.0
 10
42.28051675914407
 20
123.0357612893136
 30
0.0
 10
41.65794973403378
 20
122.9995826853289
 30
0.0
  0
LINE
  5
130
330
FC
100
AcDbEntity
  8
$DDT_AUDIT_GENERATED_(7D)
  6
Continuous
 62
     7
100
AcDbLine
 10
53.3117228452
 20
114.4069271384
 30
0.0
 11
53.2851305084
 21
114.4072894582
 31
0.0
  0
LINE
  5
131
330
FC
100
AcDbEntity
  8
$DDT_AUDIT_GENERATED_(7D)
  6
Continuous
 62
     7
100
AcDbLine
 10
53.2951003167
 20
114.4128669091
 30
0.0
 11
53.3117228452
 21
114.4069271384
 31
0.0
  0
SPLINE
  5
132
330
FC
100
AcDbEntity
  8
$DDT_AUDIT_GENERATED_(7D)
  6
Continuous
 62
     7
100
AcDbSpline
210
0.0
220
0.0
230
1.0
 70
     8
 71
     3
 72
     8
 73
     4
 74
     0
 42
0.0000000112234262
 43
0.0000000001
 40
0.9288843916984051
 40
0.9288843916984051
 40
0.9288843916984051
 40
0.9288843916984051
 40
1.0
 40
1.0
 40
1.0
 40
1.0
 10
49.10356507971488
 20
125.332010140646
 30
0.0
 10
49.10498528654576
 20
125.3109094449382
 30
0.0
 10
49.10597231386264
 20
125.2898250128978
 30
0.0
 10
49.10696474513876
 20
125.2687407689619
 30
0.0
  0
ARC
  5
133
330
FC
100
AcDbEntity
  8
$DDT_AUDIT_GENERATED_(7D)
  6
Continuous
 62
     7
100
AcDbCircle
 10
51.2754563852
 20
107.3600872156
 30
0.0
 40
7.336774398006158
100
AcDbArc
 50
35.127617014
 51
73.8819369476
  0
ARC
  5
134
330
FC
100
AcDbEntity
  8
$DDT_AUDIT_GENERATED_(7D)
  6
Continuous
 62
     7
100
AcDbCircle
 10
28.9048067448
 20
107.3600874578
 30
0.0
 40
7.336774106242078
100
AcDbArc
 50
106.1180619806
 51
144.8723811718
  0
ARC
  5
135
330
FC
100
AcDbEntity
  8
$DDT_AUDIT_GENERATED_(7D)
  6
Continuous
 62
     7
100
AcDbCircle
 10
24.6168096565
 20
110.5486208665
 30
0.0
 40
2.000000000007505
100
AcDbArc
 50
148.9007839595
 51
180.9999989171
  0
LINE
  5
136
330
FC
100
AcDbEntity
  8
$DDT_AUDIT_GENERATED_(7D)
  6
Continuous
 62
     7
100
AcDbLine
 10
57.2760019905
 20
111.5816640921
 30
0.0
 11
22.9042613524
 21
111.5816640921
 31
0.0
  0
LINE
  5
137
330
FC
100
AcDbEntity
  8
$DDT_AUDIT_GENERATED_(7D)
  6
Continuous
 62
     7
100
AcDbLine
 10
22.6171142656
 20
110.5137160914
 30
0.0
 11
22.6373369397
 21
109.3551598632
 31
0.0
  0
SPLINE
  5
138
330
FC
100
AcDbEntity
  8
$DDT_AUDIT_GENERATED_(7D)
  6
Continuous
 62
     7
100
AcDbSpline
210
0.0
220
0.0
230
1.0
 70
     8
 71
     3
 72
    19
 73
    15
 74
     0
 42
0.0000000007989773
 43
0.0000000001
 40
0.01826781622931
 40
0.01826781622931
 40
0.01826781622931
 40
0.01826781622931
 40
0.1446979269057545
 40
0.2659794043252959
 40
0.3633596921520461
 40
0.4376409326711113
 40
0.5073917323012925
 40
0.5976870352065091
 40
0.6443677250231861
 40
0.6933439152628932
 40
0.7494185002710768
 40
0.8167562613960014
 40
0.8990521363803516
 40
1.0
 40
1.0
 40
1.0
 40
1.0
 10
31.10240263135948
 20
125.3154348280799
 30
0.0
 10
31.07928477189126
 20
124.6883679910753
 30
0.0
 10
31.03761179390047
 20
123.6086823156213
 30
0.0
 10
30.96482907627654
 20
121.9620737421359
 30
0.0
 10
30.87994488591433
 20
120.5965898203967
 30
0.0
 10
30.77057324717783
 20
119.4672590455454
 30
0.0
 10
30.61926230185394
 20
118.378454020512
 30
0.0
 10
30.40011024003125
 20
117.4315312716286
 30
0.0
 10
30.0760629291103
 20
116.6240284059846
 30
0.0
 10
29.7144643463087
 20
116.0205855906431
 30
0.0
 10
29.23705818785874
 20
115.4977437552958
 30
0.0
 10
28.65857663323129
 20
115.0856422847321
 30
0.0
 10
27.99819011717769
 20
114.7894170251229
 30
0.0
 10
27.62851921724474
 20
114.6602644561431
 30
0.0
 10
27.39011614960071
 20
114.5850484235828
 30
0.0
  0
SPLINE
  5
139
330
FC
100
AcDbEntity
  8
$DDT_AUDIT_GENERATED_(7D)
  6
Continuous
 62
     7
100
AcDbSpline
210
0.0
220
0.0
230
1.0
 70
     8
 71
     3
 72
    19
 73
    15
 74
     0
 42
0.0000000007988313
 43
0.0000000001
 40
0.0
 40
0.0
 40
0.0
 40
0.0
 40
0.1009452856189403
 40
0.1832394755221092
 40
0.2505761061831328
 40
0.3066501429735634
 40
0.3556266164767928
 40
0.4252154561417598
 40
0.4925999053584192
 40
0.5623518698921506
 40
0.6366342664947644
 40
0.7340161014624759
 40
0.8552995984508202
 40
0.9826048937445757
 40
0.9826048937445757
 40
0.9826048937445757
 40
0.9826048937445757
 10
52.78992266361053
 20
114.5851232645164
 30
0.0
 10
52.5515529358204
 20
114.6603307460364
 30
0.0
 10
52.18193163406645
 20
114.7894710416593
 30
0.0
 10
51.5216229175296
 20
115.0856767568904
 30
0.0
 10
50.94319295792482
 20
115.4977725084337
 30
0.0
 10
50.46580416397398
 20
116.0205359992647
 30
0.0
 10
50.04963446520827
 20
116.7152558345494
 30
0.0
 10
49.7540305195627
 20
117.5380233821632
 30
0.0
 10
49.54595831959302
 20
118.4843232223336
 30
0.0
 10
49.40976891148835
 20
119.4673663855562
 30
0.0
 10
49.3002949535005
 20
120.5964730567702
 30
0.0
 10
49.21544700796229
 20
121.9620285247895
 30
0.0
 10
49.14246644483602
 20
123.612763720224
 30
0.0
 10
49.10068664251881
 20
124.6958924895704
 30
0.0
 10
49.07738357564853
 20
125.3283483401801
 30
0.0
  0
LINE
  5
13A
330
FC
100
AcDbEntity
  8
$DDT_AUDIT_GENERATED_(88)
  6
Continuous
 62
     7
100
AcDbLine
 10
42.2885265423
 20
125.7687043153
 30
0.0
 11
58.1293212013
 21
125.7687122034
 31
0.0
  0
ARC
  5
13B
330
FC
100
AcDbEntity
  8
$DDT_AUDIT_GENERATED_(88)
  6
Continuous
 62
     7
100
AcDbCircle
 10
57.7150696432
 20
133.744012753
 30
0.0
 40
7.986049185060388
100
AcDbArc
 50
268.1684972102
 51
272.9730162172
  0
ARC
  5
13C
330
FC
100
AcDbEntity
  8
$DDT_AUDIT_GENERATED_(88)
  6
Continuous
 62
     7
100
AcDbCircle
 10
22.4649280334
 20
133.7439485097
 30
0.0
 40
7.985984955154018
100
AcDbArc
 50
267.0269700579
 51
273.194239595
  0
ARC
  5
13D
330
FC
100
AcDbEntity
  8
$DDT_AUDIT_GENERATED_(88)
  6
Continuous
 62
     7
100
AcDbCircle
 10
41.0811092317
 20
11129.9159745484
 30
0.0
 40
11004.14948439198
100
AcDbArc
 50
269.9049889202
 51
270.0059559098
  0
ARC
  5
13E
330
FC
100
AcDbEntity
  8
$DDT_AUDIT_GENERATED_(88)
  6
Continuous
 62
     7
100
AcDbCircle
 10
55.0054131476
 20
157.9939670906
 30
0.0
 40
32.3763124970226
100
AcDbArc
 50
275.5366841071
 51
279.9455962513
  0
ARC
  5
13F
330
FC
100
AcDbEntity
  8
$DDT_AUDIT_GENERATED_(88)
  6
Continuous
 62
     7
100
AcDbCircle
 10
25.1746042709
 20
157.9936371002
 30
0.0
 40
32.37598112146859
100
AcDbArc
 50
260.0539139235
 51
264.4633129436
  0
ARC
  5
140
330
FC
100
AcDbEntity
  8
$DDT_AUDIT_GENERATED_(88)
  6
Continuous
 62
     7
100
AcDbCircle
 10
60.5297376269
 20
126.3969722546
 30
0.0
 40
0.2999958395450353
100
AcDbArc
 50
269.9336044453
 51
316.9530129487
  0
ARC
  5
141
330
FC
100
AcDbEntity
  8
$DDT_AUDIT_GENERATED_(88)
  6
Continuous
 62
     7
100
AcDbCircle
 10
19.650260556
 20
126.3969718822
 30
0.0
 40
0.299999782356584
100
AcDbArc
 50
222.9289040644
 51
270.0651789257
  0
SPLINE
  5
142
330
FC
100
AcDbEntity
  8
$DDT_AUDIT_GENERATED_(E0)
  6
Continuous
 62
     7
100
AcDbSpline
210
0.0
220
0.0
230
1.0
 70
     8
 71
     3
 72
    22
 73
    18
 74
     0
 42
0.0000000001242206
 43
0.0000000001
 40
0.0
 40
0.0
 40
0.0
 40
0.0
 40
0.03125
 40
0.03125
 40
0.0625
 40
0.0625
 40
0.09375
 40
0.09375
 40
0.125
 40
0.125
 40
0.15625
 40
0.15625
 40
0.1875000000000001
 40
0.1875000000000001
 40
0.21875
 40
0.21875
 40
0.2302890520842757
 40
0.2302890520842757
 40
0.2302890520842757
 40
0.2302890520842757
 10
42.66287418949582
 20
126.1932742110076
 30
0.0
 10
44.04581966717869
 20
126.1932742110076
 30
0.0
 10
45.38906497230347
 20
126.1948547689295
 30
0.0
 10
47.99934573814276
 20
126.1974517944208
 30
0.0
 10
49.27941982550902
 20
126.1984632186661
 30
0.0
 10
51.686123481234
 20
126.1984664478845
 30
0.0
 10
52.80988777908591
 20
126.1974803136983
 30
0.0
 10
54.89975386862995
 20
126.1948810212995
 30
0.0
 10
55.86830642949508
 20
126.1932743862474
 30
0.0
 10
57.58397512474008
 20
126.1932740357953
 30
0.0
 10
58.31994577730413
 20
126.1948545571822
 30
0.0
 10
59.55793676030332
 20
126.1974516286221
 30
0.0
 10
60.06343755938551
 20
126.1984631391916
 30
0.0
 10
60.80283313233723
 20
126.198466526915
 30
0.0
 10
61.03877811025919
 20
126.197480461061
 30
0.0
 10
61.18044530781175
 20
126.195700938059
 30
0.0
 10
61.20024664537262
 20
126.195179184119
 30
0.0
 10
61.20147910776371
 20
126.1947118980867
 30
0.0
  0
SPLINE
  5
143
330
FC
100
AcDbEntity
  8
$DDT_AUDIT_GENERATED_(E0)
  6
Continuous
 62
     7
100
AcDbSpline
210
0.0
220
0.0
230
1.0
 70
     8
 71
     3
 72
    24
 73
    20
 74
     0
 42
0.0000000001138561
 43
0.0000000001
 40
0.7302893454356215
 40
0.7302893454356215
 40
0.7302893454356215
 40
0.7302893454356215
 40
0.75
 40
0.75
 40
0.7812500000000001
 40
0.7812500000000001
 40
0.8125000000000001
 40
0.8125000000000001
 40
0.8437500000000001
 40
0.8437500000000001
 40
0.8750000000000001
 40
0.8750000000000001
 40
0.9062500000000001
 40
0.9062500000000001
 40
0.9375000000000001
 40
0.9375000000000001
 40
0.9687500000000001
 40
0.9687500000000001
 40
1.0
 40
1.0
 40
1.0
 40
1.0
 10
18.97852220172977
 20
126.1947118969011
 30
0.0
 10
18.97641691123721
 20
126.1939136814561
 30
0.0
 10
19.02849427428994
 20
126.1932744005156
 30
0.0
 10
19.30536721466894
 20
126.1932739106589
 30
0.0
 10
19.60780375040252
 20
126.1948544533972
 30
0.0
 10
20.4673245002128
 20
126.197451587188
 30
0.0
 10
21.03252861569507
 20
126.1984631391584
 30
0.0
 10
22.39361773894405
 20
126.1984665269482
 30
0.0
 10
23.18373302612753
 20
126.1974804205063
 30
0.0
 10
24.9810229958633
 20
126.1948810889004
 30
0.0
 10
25.99416786888656
 20
126.193274386254
 30
0.0
 10
28.19012608956689
 20
126.1932740357887
 30
0.0
 10
29.35383569448824
 20
126.1948546236325
 30
0.0
 10
31.8074240544674
 20
126.1974517364197
 30
0.0
 10
33.1122671379166
 20
126.1984632186231
 30
0.0
 10
35.77656095033391
 20
126.1984664479275
 30
0.0
 10
37.12990660882159
 20
126.1974802569149
 30
0.0
 10
39.87859345844122
 20
126.1948808746148
 30
0.0
 10
41.27992871181299
 20
126.1932742110076
 30
0.0
 10
42.66287418949582
 20
126.1932742110076
 30
0.0
  0
ARC
  5
144
330
FC
100
AcDbEntity
  8
$DDT_AUDIT_GENERATED_(E0)
  6
Continuous
 62
     7
100
AcDbCircle
 10
40.0907288809
 20
-4001.6624731641
 30
0.0
 40
4130.707165315323
100
AcDbArc
 50
90.358513989
 51
90.3585646125
  0
ARC
  5
145
330
FC
100
AcDbEntity
  8
$DDT_AUDIT_GENERATED_(E0)
  6
Continuous
 62
     7
100
AcDbCircle
 10
40.0907288809
 20
-4001.6624731641
 30
0.0
 40
4130.707165315323
100
AcDbArc
 50
89.641455889
 51
90.358513989
  0
LINE
  5
146
330
FC
100
AcDbEntity
  8
$DDT_AUDIT_GENERATED_(E0)
  6
Continuous
 62
     7
100
AcDbLine
 10
13.8584018783
 20
172.7313041252
 30
0.0
 11
14.2403364245
 21
128.963694732
 31
0.0
  0
LINE
  5
147
330
FC
100
AcDbEntity
  8
$DDT_AUDIT_GENERATED_(E0)
  6
Continuous
 62
     7
100
AcDbLine
 10
65.9396657869
 20
128.96379994
 30
0.0
 11
66.3215994151
 21
172.7313041252
 31
0.0
  0
ARC
  5
148
330
FC
100
AcDbEntity
  8
$DDT_AUDIT_GENERATED_(E0)
  6
Continuous
 62
     7
100
AcDbCircle
 10
26.3815170646
 20
161.0991102715
 30
0.0
 40
35.68082746940447
100
AcDbArc
 50
252.4030467375
 51
258.068876066
  0
ARC
  5
149
330
FC
100
AcDbEntity
  8
$DDT_AUDIT_GENERATED_(E0)
  6
Continuous
 62
     7
100
AcDbCircle
 10
53.7984842287
 20
161.0991102715
 30
0.0
 40
35.68082746941045
100
AcDbArc
 50
281.931123934
 51
287.5969532625
  0
ARC
  5
14A
330
FC
100
AcDbEntity
  8
$DDT_AUDIT_GENERATED_(E0)
  6
Continuous
 62
     7
100
AcDbCircle
 10
63.9412819805
 20
128.9781145903
 30
0.0
 40
1.987818825462301
100
AcDbArc
 50
286.936763856
 51
359.6126003089
  0
ARC
  5
14B
330
FC
100
AcDbEntity
  8
$DDT_AUDIT_GENERATED_(E0)
  6
Continuous
 62
     7
100
AcDbCircle
 10
16.221447801
 20
128.9526721964
 30
0.0
 40
1.957100379434436
100
AcDbArc
 50
179.6671259136
 51
253.4712639745
  0
ARC
  5
14C
330
FC
100
AcDbEntity
  8
$DDT_AUDIT_GENERATED_(EA)
  6
Continuous
 62
     7
100
AcDbCircle
 10
40.0901316714
 20
143.7251335843
 30
0.0
 40
20.5
100
AcDbArc
 50
241.3602368778
 51
270.0
  0
ARC
  5
14D
330
FC
100
AcDbEntity
  8
$DDT_AUDIT_GENERATED_(EA)
  6
Continuous
 62
     7
100
AcDbCircle
 10
40.0901316714
 20
143.7251335843
 30
0.0
 40
20.5
100
AcDbArc
 50
270.0
 51
298.6799832912
  0
LINE
  5
14E
330
FC
100
AcDbEntity
  8
$DDT_AUDIT_GENERATED_(EC)
  6
Continuous
 62
     7
100
AcDbLine
 10
36.0067950011
 20
106.5768048698
 30
0.0
 11
35.3716633237
 21
106.6531653894
 31
0.0
  0
LINE
  5
14F
330
FC
100
AcDbEntity
  8
$DDT_AUDIT_GENERATED_(EC)
  6
Continuous
 62
     7
100
AcDbLine
 10
39.5280856703
 20
106.3542739305
 30
0.0
 11
38.2496767498
 21
106.3959596882
 31
0.0
  0
LINE
  5
150
330
FC
100
AcDbEntity
  8
$DDT_AUDIT_GENERATED_(EC)
  6
Continuous
 62
     7
100
AcDbLine
 10
33.6590756244
 20
106.9153062445
 30
0.0
 11
29.9572800898
 21
107.7723207986
 31
0.0
  0
LINE
  5
151
330
FC
100
AcDbEntity
  8
$DDT_AUDIT_GENERATED_(EC)
  6
Continuous
 62
     7
100
AcDbLine
 10
41.5253799905
 20
106.3779380108
 30
0.0
 11
40.6273792968
 21
106.3539043783
 31
0.0
  0
LINE
  5
152
330
FC
100
AcDbEntity
  8
$DDT_AUDIT_GENERATED_(EC)
  6
Continuous
 62
     7
100
AcDbLine
 10
44.8580275074
 20
106.6595778206
 30
0.0
 11
43.7907421339
 21
106.5361792373
 31
0.0
  0
LINE
  5
153
330
FC
100
AcDbEntity
  8
$DDT_AUDIT_GENERATED_(EC)
  6
Continuous
 62
     7
100
AcDbLine
 10
35.3716633237
 20
106.6531653894
 30
0.0
 11
33.6590756244
 21
106.9153062445
 31
0.0
  0
LINE
  5
154
330
FC
100
AcDbEntity
  8
$DDT_AUDIT_GENERATED_(EC)
  6
Continuous
 62
     7
100
AcDbLine
 10
37.6540188009
 20
106.4305678981
 30
0.0
 11
36.0067950011
 21
106.5768048698
 31
0.0
  0
LINE
  5
155
330
FC
100
AcDbEntity
  8
$DDT_AUDIT_GENERATED_(EC)
  6
Continuous
 62
     7
100
AcDbLine
 10
41.5253799905
 20
106.3779380108
 30
0.0
 11
43.7907421339
 21
106.5361792373
 31
0.0
  0
LINE
  5
156
330
FC
100
AcDbEntity
  8
$DDT_AUDIT_GENERATED_(EC)
  6
Continuous
 62
     7
100
AcDbLine
 10
38.2496767498
 20
106.3959596882
 30
0.0
 11
37.6540188009
 21
106.4305678981
 31
0.0
  0
SPLINE
  5
157
330
FC
100
AcDbEntity
  8
$DDT_AUDIT_GENERATED_(EC)
  6
Continuous
 62
     7
100
AcDbSpline
210
0.0
220
0.0
230
1.0
 70
     8
 71
     3
 72
     8
 73
     4
 74
     0
 42
0.0000000022263157
 43
0.0000000001
 40
0.0
 40
0.0
 40
0.0
 40
0.0
 40
1.0
 40
1.0
 40
1.0
 40
1.0
 10
50.22298326791791
 20
107.7723208028629
 30
0.0
 10
48.78471905669116
 20
107.3590393057718
 30
0.0
 10
47.32109291979883
 20
107.0352131775709
 30
0.0
 10
45.84319616272978
 20
106.8016407733358
 30
0.0
  0
ARC
  5
158
330
FC
100
AcDbEntity
  8
$DDT_AUDIT_GENERATED_(EC)
  6
Continuous
 62
     7
100
AcDbCircle
 10
45.1565557857
 20
795.9557919861
 30
0.0
 40
688.2021205265988
100
AcDbArc
 50
269.5781946431
 51
270.4218056374
  0
ARC
  5
159
330
FC
100
AcDbEntity
  8
$DDT_AUDIT_GENERATED_(EC)
  6
Continuous
 62
     7
100
AcDbCircle
 10
35.0237072735
 20
795.2406406411
 30
0.0
 40
687.4869885834189
100
AcDbArc
 50
269.5777556125
 51
270.4222441554
  0
LINE
  5
15A
330
FC
100
AcDbEntity
  8
$DDT_AUDIT_GENERATED_(EC)
  6
Continuous
 62
     7
100
AcDbLine
 10
40.0901316714
 20
106.3500000096
 30
0.0
 11
40.6273792968
 21
106.3539043783
 31
0.0
  0
SPLINE
  5
15B
330
FC
100
AcDbEntity
  8
$DDT_AUDIT_GENERATED_(EC)
  6
Continuous
 62
     7
100
AcDbSpline
210
0.0
220
0.0
230
1.0
 70
     8
 71
     3
 72
     8
 73
     4
 74
     0
 42
0.0000000100460204
 43
0.0000000001
 40
0.0
 40
0.0
 40
0.0
 40
0.0
 40
1.0
 40
1.0
 40
1.0
 40
1.0
 10
44.85802799241475
 20
106.6595778838354
 30
0.0
 10
45.18703817790021
 20
106.7024881601347
 30
0.0
 10
45.51546804502482
 20
106.7498453796307
 30
0.0
 10
45.84319616272978
 20
106.8016407733358
 30
0.0
  0
LINE
  5
15C
330
FC
100
AcDbEntity
  8
$DDT_AUDIT_GENERATED_(EC)
  6
Continuous
 62
     7
100
AcDbLine
 10
40.0901316714
 20
106.3500000096
 30
0.0
 11
39.5280856703
 21
106.3542739305
 31
0.0
  0
LINE
  5
15D
330
FC
100
AcDbEntity
  8
$DDT_AUDIT_GENERATED_(9F)
  6
Continuous
 62
     7
100
AcDbLine
 10
175.3401316714
 20
137.7313041252
 30
0.0
 11
204.8401316714
 21
137.7313041252
 31
0.0
  0
LINE
  5
15E
330
FC
100
AcDbEntity
  8
$DDT_AUDIT_GENERATED_(9F)
  6
Continuous
 62
     7
100
AcDbLine
 10
174.8401316714
 20
172.7313041252
 30
0.0
 11
174.8401316714
 21
138.2313041252
 31
0.0
  0
LINE
  5
15F
330
FC
100
AcDbEntity
  8
$DDT_AUDIT_GENERATED_(9F)
  6
Continuous
 62
     7
100
AcDbLine
 10
205.3401316714
 20
138.2313041252
 30
0.0
 11
205.3401316714
 21
172.7313041252
 31
0.0
  0
ARC
  5
160
330
FC
100
AcDbEntity
  8
$DDT_AUDIT_GENERATED_(9F)
  6
Continuous
 62
     7
100
AcDbCircle
 10
204.8401316714
 20
138.2313041252
 30
0.0
 40
0.5000000000000004
100
AcDbArc
 50
270.0
 51
0.0
  0
ARC
  5
161
330
FC
100
AcDbEntity
  8
$DDT_AUDIT_GENERATED_(9F)
  6
Continuous
 62
     7
100
AcDbCircle
 10
175.3401316714
 20
138.2313041252
 30
0.0
 40
0.5000000000000004
100
AcDbArc
 50
180.0
 51
270.0
  0
ENDBLK
  5
163
330
FC
100
AcDbEntity
  8
0
100
AcDbBlockEnd
  0
ENDSEC
  0
SECTION
  2
ENTITIES
  0
INSERT
  5
5F
330
1F
100
AcDbEntity
  8
Default
100
AcDbBlockReference
  2
SE
 10
0.0
 20
0.0
 30
0.0
  0
INSERT
  5
A4
330
1F
100
AcDbEntity
  8
Default
100
AcDbBlockReference
  2
SE1
 10
0.0
 20
0.0
 30
0.0
  0
INSERT
  5
FD
330
1F
100
AcDbEntity
  8
Default
100
AcDbBlockReference
  2
SE2
 10
0.0
 20
0.0
 30
0.0
  0
TEXT
  5
165
330
1F
100
AcDbEntity
  8
Default
  6
Continuous
 62
     7
100
AcDbText
 10
5.9362635081
 20
53.4225120485
 30
0.0
 40
10.0
  1
Grohe AG^J
  7
SEACAD_seiso_ttf
 11
5.9362635081
 21
63.4225120485
 31
0.0
100
AcDbText
 73
     3
  0
TEXT
  5
166
330
1F
100
AcDbEntity
  8
Default
  6
Continuous
 62
     7
100
AcDbText
 10
5.9362635081
 20
37.0588756849
 30
0.0
 40
10.0
  1
 
  7
SEACAD_seiso_ttf
 11
5.9362635081
 21
47.0588756849
 31
0.0
100
AcDbText
 73
     3
  0
TEXT
  5
167
330
1F
100
AcDbEntity
  8
Default
  6
Continuous
 62
     7
100
AcDbText
 10
5.9362635081
 20
20.6952393213
 30
0.0
 40
10.0
  1
ecn: 
  7
SEACAD_seiso_ttf
 11
5.9362635081
 21
30.6952393213
 31
0.0
100
AcDbText
 73
     3
  0
TEXT
  5
168
330
1F
100
AcDbEntity
  8
Default
  6
Continuous
 62
     7
100
AcDbText
 10
5.9362635081
 20
4.3316029576
 30
0.0
 40
10.0
  1
unit: mm
  7
SEACAD_seiso_ttf
 11
5.9362635081
 21
14.3316029576
 31
0.0
100
AcDbText
 73
     3
  0
LINE
  5
169
330
1F
100
AcDbEntity
  8
Default
  6
Continuous
 62
     7
100
AcDbLine
 10
0.0
 20
0.0
 30
0.0
 11
100.0
 21
0.0
 31
0.0
  0
LINE
  5
16A
330
1F
100
AcDbEntity
  8
Default
  6
Continuous
 62
     7
100
AcDbLine
 10
0.0
 20
0.0
 30
0.0
 11
0.0
 21
100.0
 31
0.0
  0
TEXT
  5
16B
330
1F
100
AcDbEntity
  8
Default
  6
Continuous
 62
     7
100
AcDbText
 10
24.3923665681
 20
-18.2375342018
 30
0.0
 40
10.0
  1
100 mm
  7
SEACAD_seiso_ttf
 11
24.3923665681
 21
-8.2375342018
 31
0.0
100
AcDbText
 73
     3
  0
TEXT
  5
16C
330
1F
100
AcDbEntity
  8
Default
  6
Continuous
 62
     7
100
AcDbText
 10
-7.6150308803
 20
24.6231930421
 30
0.0
 40
10.0
  1
100 mm
 50
90.0
  7
SEACAD_seiso_ttf
 11
-17.6150308803
 21
24.6231930421
 31
0.0
100
AcDbText
 73
     3
  0
TEXT
  5
16D
330
1F
100
AcDbEntity
  8
Default
  6
Continuous
 62
     7
100
AcDbText
 10
28.4878128572
 20
20.0907663715
 30
0.0
 40
10.0
  1
216308
  7
SEACAD_seiso_ttf
 11
28.4878128572
 21
30.0907663715
 31
0.0
100
AcDbText
 73
     3
  0
TEXT
  5
16E
330
1F
100
AcDbEntity
  8
Default
  6
Continuous
 62
     7
100
AcDbText
 10
5.9012241913
 20
36.7242780188
 30
0.0
 40
10.0
  1
32197000
  7
SEACAD_seiso_ttf
 11
5.9012241913
 21
46.7242780188
 31
0.0
100
AcDbText
 73
     3
  0
ENDSEC
  0
SECTION
  2
OBJECTS
  0
DICTIONARY
  5
C
330
0
100
AcDbDictionary
281
     1
  3
ACAD_GROUP
350
D
  3
ACAD_LAYOUT
350
1A
  3
ACAD_MLEADERSTYLE
350
172
  3
ACAD_MLINESTYLE
350
17
  3
ACAD_PLOTSETTINGS
350
19
  3
ACAD_PLOTSTYLENAME
350
E
  3
ACAD_SCALELIST
350
3B
  3
ACAD_TABLESTYLE
350
171
  3
ACAD_VISUALSTYLE
350
2A
  3
AcDbVariableDictionary
350
16F
  0
DICTIONARY
  5
D
102
{ACAD_REACTORS
330
C
102
}
330
C
100
AcDbDictionary
281
     1
  0
DICTIONARY
  5
1A
102
{ACAD_REACTORS
330
C
102
}
330
C
100
AcDbDictionary
281
     1
  3
Layout1
350
1E
  3
Model
350
22
  0
DICTIONARY
  5
172
102
{ACAD_REACTORS
330
C
102
}
330
C
100
AcDbDictionary
281
     1
  0
DICTIONARY
  5
17
102
{ACAD_REACTORS
330
C
102
}
330
C
100
AcDbDictionary
281
     1
  3
Standard
350
18
  0
DICTIONARY
  5
19
102
{ACAD_REACTORS
330
C
102
}
330
C
100
AcDbDictionary
281
     1
  0
ACDBDICTIONARYWDFLT
  5
E
102
{ACAD_REACTORS
330
C
102
}
330
C
100
AcDbDictionary
281
     1
  3
Normal
350
F
100
AcDbDictionaryWithDefault
340
F
  0
DICTIONARY
  5
3B
102
{ACAD_REACTORS
330
C
102
}
330
C
100
AcDbDictionary
281
     1
  3
A0
350
3C
  3
A1
350
3D
  3
A2
350
3E
  3
A3
350
3F
  3
A4
350
40
  3
A5
350
41
  3
A6
350
42
  3
A7
350
43
  3
A8
350
44
  3
A9
350
45
  3
B0
350
46
  3
B1
350
47
  3
B2
350
48
  3
B3
350
49
  3
B4
350
4A
  3
B5
350
4B
  3
B6
350
4C
  3
B7
350
4D
  3
B8
350
4E
  3
B9
350
4F
  3
C0
350
50
  3
C1
350
51
  3
C2
350
52
  3
C3
350
53
  3
C4
350
54
  3
C5
350
55
  3
C6
350
56
  3
C7
350
57
  3
C8
350
58
  3
C9
350
59
  3
D0
350
5A
  3
D1
350
5B
  3
D2
350
5C
  0
DICTIONARY
  5
171
102
{ACAD_REACTORS
330
C
102
}
330
C
100
AcDbDictionary
281
     1
  0
DICTIONARY
  5
2A
102
{ACAD_REACTORS
330
C
102
}
330
C
100
AcDbDictionary
281
     1
  3
2dWireframe
350
2F
  3
3D Hidden
350
31
  3
3dWireframe
350
30
  3
Basic
350
32
  3
Brighten
350
36
  3
ColorChange
350
3A
  3
Conceptual
350
34
  3
Dim
350
35
  3
Facepattern
350
39
  3
Flat
350
2B
  3
FlatWithEdges
350
2C
  3
Gouraud
350
2D
  3
GouraudWithEdges
350
2E
  3
Linepattern
350
38
  3
Realistic
350
33
  3
Thicken
350
37
  0
DICTIONARY
  5
16F
102
{ACAD_REACTORS
330
C
102
}
330
C
100
AcDbDictionary
281
     1
  3
CANNOSCALE
350
170
  3
PSOLHEIGHT
350
174
  3
PSOLWIDTH
350
173
  0
LAYOUT
  5
1E
102
{ACAD_REACTORS
330
1A
102
}
330
1A
100
AcDbPlotSettings
  1

  2
none_device
  4

  6

 40
0.0
 41
0.0
 42
0.0
 43
0.0
 44
0.0
 45
0.0
 46
0.0
 47
0.0
 48
0.0
 49
0.0
140
0.0
141
0.0
142
1.0
143
1.0
 70
   688
 72
     0
 73
     0
 74
     5
  7

 75
    16
147
1.0
148
0.0
149
0.0
100
AcDbLayout
  1
Layout1
 70
     1
 71
     1
 10
0.0
 20
0.0
 11
1682.0
 21
2378.0
 12
0.0
 22
0.0
 32
0.0
 14
0.0
 24
0.0
 34
0.0
 15
1682.0
 25
2378.0
 35
0.0
146
0.0
 13
0.0
 23
0.0
 33
0.0
 16
1.0
 26
0.0
 36
0.0
 17
0.0
 27
1.0
 37
0.0
 76
     0
330
1B
  0
LAYOUT
  5
22
102
{ACAD_REACTORS
330
1A
102
}
330
1A
100
AcDbPlotSettings
  1

  2
none_device
  4

  6

 40
0.0
 41
0.0
 42
0.0
 43
0.0
 44
0.0
 45
0.0
 46
0.0
 47
0.0
 48
0.0
 49
0.0
140
0.0
141
0.0
142
1.0
143
1.0
 70
  1712
 72
     0
 73
     0
 74
     0
  7

 75
     0
147
1.0
148
0.0
149
0.0
100
AcDbLayout
  1
Model
 70
     1
 71
     0
 10
0.0
 20
0.0
 11
1682.0
 21
2378.0
 12
0.0
 22
0.0
 32
0.0
 14
0.0
 24
0.0
 34
0.0
 15
1682.0
 25
2378.0
 35
0.0
146
0.0
 13
0.0
 23
0.0
 33
0.0
 16
1.0
 26
0.0
 36
0.0
 17
0.0
 27
1.0
 37
0.0
 76
     0
330
1F
331
29
  0
MLINESTYLE
  5
18
102
{ACAD_REACTORS
330
17
102
}
330
17
100
AcDbMlineStyle
  2
Standard
 70
     0
  3

 62
   256
 51
90.0
 52
90.0
 71
     2
 49
0.5
 62
   256
  6
BYLAYER
 49
-0.5
 62
   256
  6
BYLAYER
  0
ACDBPLACEHOLDER
  5
F
102
{ACAD_REACTORS
330
E
102
}
330
E
  0
SCALE
  5
3C
102
{ACAD_REACTORS
330
3B
102
}
330
3B
100
AcDbScale
 70
     0
300
1:1
140
1.0
141
1.0
290
     1
  0
SCALE
  5
3D
102
{ACAD_REACTORS
330
3B
102
}
330
3B
100
AcDbScale
 70
     0
300
1:2
140
1.0
141
2.0
290
     0
  0
SCALE
  5
3E
102
{ACAD_REACTORS
330
3B
102
}
330
3B
100
AcDbScale
 70
     0
300
1:4
140
1.0
141
4.0
290
     0
  0
SCALE
  5
3F
102
{ACAD_REACTORS
330
3B
102
}
330
3B
100
AcDbScale
 70
     0
300
1:5
140
1.0
141
5.0
290
     0
  0
SCALE
  5
40
102
{ACAD_REACTORS
330
3B
102
}
330
3B
100
AcDbScale
 70
     0
300
1:8
140
1.0
141
8.0
290
     0
  0
SCALE
  5
41
102
{ACAD_REACTORS
330
3B
102
}
330
3B
100
AcDbScale
 70
     0
300
1:10
140
1.0
141
10.0
290
     0
  0
SCALE
  5
42
102
{ACAD_REACTORS
330
3B
102
}
330
3B
100
AcDbScale
 70
     0
300
1:16
140
1.0
141
16.0
290
     0
  0
SCALE
  5
43
102
{ACAD_REACTORS
330
3B
102
}
330
3B
100
AcDbScale
 70
     0
300
1:20
140
1.0
141
20.0
290
     0
  0
SCALE
  5
44
102
{ACAD_REACTORS
330
3B
102
}
330
3B
100
AcDbScale
 70
     0
300
1:30
140
1.0
141
30.0
290
     0
  0
SCALE
  5
45
102
{ACAD_REACTORS
330
3B
102
}
330
3B
100
AcDbScale
 70
     0
300
1:40
140
1.0
141
40.0
290
     0
  0
SCALE
  5
46
102
{ACAD_REACTORS
330
3B
102
}
330
3B
100
AcDbScale
 70
     0
300
1:50
140
1.0
141
50.0
290
     0
  0
SCALE
  5
47
102
{ACAD_REACTORS
330
3B
102
}
330
3B
100
AcDbScale
 70
     0
300
1:100
140
1.0
141
100.0
290
     0
  0
SCALE
  5
48
102
{ACAD_REACTORS
330
3B
102
}
330
3B
100
AcDbScale
 70
     0
300
2:1
140
2.0
141
1.0
290
     0
  0
SCALE
  5
49
102
{ACAD_REACTORS
330
3B
102
}
330
3B
100
AcDbScale
 70
     0
300
4:1
140
4.0
141
1.0
290
     0
  0
SCALE
  5
4A
102
{ACAD_REACTORS
330
3B
102
}
330
3B
100
AcDbScale
 70
     0
300
8:1
140
8.0
141
1.0
290
     0
  0
SCALE
  5
4B
102
{ACAD_REACTORS
330
3B
102
}
330
3B
100
AcDbScale
 70
     0
300
10:1
140
10.0
141
1.0
290
     0
  0
SCALE
  5
4C
102
{ACAD_REACTORS
330
3B
102
}
330
3B
100
AcDbScale
 70
     0
300
100:1
140
100.0
141
1.0
290
     0
  0
SCALE
  5
4D
102
{ACAD_REACTORS
330
3B
102
}
330
3B
100
AcDbScale
 70
     0
300
1/128" = 1'-0"
140
0.0078125
141
12.0
290
     0
  0
SCALE
  5
4E
102
{ACAD_REACTORS
330
3B
102
}
330
3B
100
AcDbScale
 70
     0
300
1/64" = 1'-0"
140
0.015625
141
12.0
290
     0
  0
SCALE
  5
4F
102
{ACAD_REACTORS
330
3B
102
}
330
3B
100
AcDbScale
 70
     0
300
1/32" = 1'-0"
140
0.03125
141
12.0
290
     0
  0
SCALE
  5
50
102
{ACAD_REACTORS
330
3B
102
}
330
3B
100
AcDbScale
 70
     0
300
1/16" = 1'-0"
140
0.0625
141
12.0
290
     0
  0
SCALE
  5
51
102
{ACAD_REACTORS
330
3B
102
}
330
3B
100
AcDbScale
 70
     0
300
3/32" = 1'-0"
140
0.09375
141
12.0
290
     0
  0
SCALE
  5
52
102
{ACAD_REACTORS
330
3B
102
}
330
3B
100
AcDbScale
 70
     0
300
1/8" = 1'-0"
140
0.125
141
12.0
290
     0
  0
SCALE
  5
53
102
{ACAD_REACTORS
330
3B
102
}
330
3B
100
AcDbScale
 70
     0
300
3/16" = 1'-0"
140
0.1875
141
12.0
290
     0
  0
SCALE
  5
54
102
{ACAD_REACTORS
330
3B
102
}
330
3B
100
AcDbScale
 70
     0
300
1/4" = 1'-0"
140
0.25
141
12.0
290
     0
  0
SCALE
  5
55
102
{ACAD_REACTORS
330
3B
102
}
330
3B
100
AcDbScale
 70
     0
300
3/8" = 1'-0"
140
0.375
141
12.0
290
     0
  0
SCALE
  5
56
102
{ACAD_REACTORS
330
3B
102
}
330
3B
100
AcDbScale
 70
     0
300
1/2" = 1'-0"
140
0.5
141
12.0
290
     0
  0
SCALE
  5
57
102
{ACAD_REACTORS
330
3B
102
}
330
3B
100
AcDbScale
 70
     0
300
3/4" = 1'-0"
140
0.75
141
12.0
290
     0
  0
SCALE
  5
58
102
{ACAD_REACTORS
330
3B
102
}
330
3B
100
AcDbScale
 70
     0
300
1" = 1'-0"
140
1.0
141
12.0
290
     0
  0
SCALE
  5
59
102
{ACAD_REACTORS
330
3B
102
}
330
3B
100
AcDbScale
 70
     0
300
1-1/2" = 1'-0"
140
1.5
141
12.0
290
     0
  0
SCALE
  5
5A
102
{ACAD_REACTORS
330
3B
102
}
330
3B
100
AcDbScale
 70
     0
300
3" = 1'-0"
140
3.0
141
12.0
290
     0
  0
SCALE
  5
5B
102
{ACAD_REACTORS
330
3B
102
}
330
3B
100
AcDbScale
 70
     0
300
6" = 1'-0"
140
6.0
141
12.0
290
     0
  0
SCALE
  5
5C
102
{ACAD_REACTORS
330
3B
102
}
330
3B
100
AcDbScale
 70
     0
300
1'-0" = 1'-0"
140
12.0
141
12.0
290
     0
  0
VISUALSTYLE
  5
2F
102
{ACAD_REACTORS
330
2A
102
}
330
2A
100
AcDbVisualStyle
  2
2dWireframe
 70
     4
 71
     0
 72
     2
 73
     0
 90
        0
 40
-0.6
 41
-30.0
 62
     5
 63
     7
 74
     1
 91
        4
 64
     7
 65
   257
 75
     1
175
     1
 42
1.0
 92
        0
 66
   257
 43
1.0
 76
     1
 77
     6
 78
     2
 67
     7
 79
     5
170
     0
171
     0
290
     0
174
     0
 93
        1
 44
0.0
173
     0
291
     0
 45
0.0
1001
ACAD
1000
AcDbSavedByObjectVersion
1070
     0
  0
VISUALSTYLE
  5
31
102
{ACAD_REACTORS
330
2A
102
}
330
2A
100
AcDbVisualStyle
  2
3D Hidden
 70
     6
 71
     1
 72
     2
 73
     2
 90
        0
 40
-0.6
 41
-30.0
 62
     5
 63
     7
 74
     2
 91
        2
 64
     7
 65
   257
 75
     2
175
     1
 42
40.0
 92
        0
 66
   257
 43
1.0
 76
     1
 77
     6
 78
     2
 67
     7
 79
     3
170
     0
171
     0
290
     0
174
     0
 93
        1
 44
0.0
173
     0
291
     0
 45
0.0
1001
ACAD
1000
AcDbSavedByObjectVersion
1070
     0
  0
VISUALSTYLE
  5
30
102
{ACAD_REACTORS
330
2A
102
}
330
2A
100
AcDbVisualStyle
  2
3dWireframe
 70
     5
 71
     0
 72
     2
 73
     0
 90
        0
 40
-0.6
 41
-30.0
 62
     5
 63
     7
 74
     1
 91
        4
 64
     7
 65
   257
 75
     1
175
     1
 42
1.0
 92
        0
 66
   257
 43
1.0
 76
     1
 77
     6
 78
     2
 67
     7
 79
     5
170
     0
171
     0
290
     0
174
     0
 93
        1
 44
0.0
173
     0
291
     0
 45
0.0
1001
ACAD
1000
AcDbSavedByObjectVersion
1070
     0
  0
VISUALSTYLE
  5
32
102
{ACAD_REACTORS
330
2A
102
}
330
2A
100
AcDbVisualStyle
  2
Basic
 70
     7
 71
     1
 72
     0
 73
     1
 90
        0
 40
-0.6
 41
-30.0
 62
     5
 63
     7
 74
     0
 91
        4
 64
     7
 65
   257
 75
     1
175
     1
 42
1.0
 92
        8
 66
     7
 43
1.0
 76
     1
 77
     6
 78
     2
 67
     7
 79
     5
170
     0
171
     0
290
     0
174
     0
 93
        1
 44
0.0
173
     0
291
     1
 45
0.0
1001
ACAD
1000
AcDbSavedByObjectVersion
1070
     0
  0
VISUALSTYLE
  5
36
102
{ACAD_REACTORS
330
2A
102
}
330
2A
100
AcDbVisualStyle
  2
Brighten
 70
    12
 71
     2
 72
     2
 73
     0
 90
        0
 40
-0.6
 41
-30.0
 62
     5
 63
     7
 74
     1
 91
        4
 64
     7
 65
   257
 75
     1
175
     1
 42
1.0
 92
        8
 66
     7
 43
1.0
 76
     1
 77
     6
 78
     2
 67
     7
 79
     5
170
     0
171
     0
290
     0
174
     0
 93
        1
 44
50.0
173
     0
291
     1
 45
0.0
1001
ACAD
1000
AcDbSavedByObjectVersion
1070
     0
  0
VISUALSTYLE
  5
3A
102
{ACAD_REACTORS
330
2A
102
}
330
2A
100
AcDbVisualStyle
  2
ColorChange
 70
    16
 71
     2
 72
     2
 73
     3
 90
        0
 40
-0.6
 41
-30.0
 62
     5
 63
     8
 74
     1
 91
        4
 64
     7
 65
   257
 75
     1
175
     1
 42
1.0
 92
        8
 66
     8
 43
1.0
 76
     1
 77
     6
 78
     2
 67
     7
 79
     5
170
     0
171
     0
290
     0
174
     0
 93
        1
 44
0.0
173
     0
291
     1
 45
0.0
1001
ACAD
1000
AcDbSavedByObjectVersion
1070
     0
  0
VISUALSTYLE
  5
34
102
{ACAD_REACTORS
330
2A
102
}
330
2A
100
AcDbVisualStyle
  2
Conceptual
 70
     9
 71
     3
 72
     2
 73
     0
 90
        0
 40
-0.6
 41
-30.0
 62
     5
 63
     7
 74
     2
 91
        2
 64
     7
 65
   257
 75
     1
175
     1
 42
40.0
 92
        8
 66
     7
 43
1.0
 76
     1
 77
     6
 78
     2
 67
     7
 79
     3
170
     0
171
     0
290
     0
174
     0
 93
        1
 44
0.0
173
     0
291
     0
 45
0.0
1001
ACAD
1000
AcDbSavedByObjectVersion
1070
     0
  0
VISUALSTYLE
  5
35
102
{ACAD_REACTORS
330
2A
102
}
330
2A
100
AcDbVisualStyle
  2
Dim
 70
    11
 71
     2
 72
     2
 73
     0
 90
        0
 40
-0.6
 41
-30.0
 62
     5
 63
     7
 74
     1
 91
        4
 64
     7
 65
   257
 75
     1
175
     1
 42
1.0
 92
        8
 66
     7
 43
1.0
 76
     1
 77
     6
 78
     2
 67
     7
 79
     5
170
     0
171
     0
290
     0
174
     0
 93
        1
 44
-50.0
173
     0
291
     1
 45
0.0
1001
ACAD
1000
AcDbSavedByObjectVersion
1070
     0
  0
VISUALSTYLE
  5
39
102
{ACAD_REACTORS
330
2A
102
}
330
2A
100
AcDbVisualStyle
  2
Facepattern
 70
    15
 71
     2
 72
     2
 73
     0
 90
        0
 40
-0.6
 41
-30.0
 62
     5
 63
     7
 74
     1
 91
        4
 64
     7
 65
   257
 75
     1
175
     1
 42
1.0
 92
        8
 66
     7
 43
1.0
 76
     1
 77
     6
 78
     2
 67
     7
 79
     5
170
     0
171
     0
290
     0
174
     0
 93
        1
 44
0.0
173
     0
291
     1
 45
0.0
1001
ACAD
1000
AcDbSavedByObjectVersion
1070
     0
  0
VISUALSTYLE
  5
2B
102
{ACAD_REACTORS
330
2A
102
}
330
2A
100
AcDbVisualStyle
  2
Flat
 70
     0
 71
     2
 72
     1
 73
     1
 90
        2
 40
-0.6
 41
30.0
 62
     5
 63
     7
 74
     0
 91
        4
 64
     7
 65
   257
 75
     1
175
     1
 42
1.0
 92
        8
 66
     7
 43
1.0
 76
     1
 77
     6
 78
     2
 67
     7
 79
     5
170
     0
171
     0
290
     0
174
     0
 93
       13
 44
0.0
173
     0
291
     1
 45
0.0
1001
ACAD
1000
AcDbSavedByObjectVersion
1070
     0
  0
VISUALSTYLE
  5
2C
102
{ACAD_REACTORS
330
2A
102
}
330
2A
100
AcDbVisualStyle
  2
FlatWithEdges
 70
     1
 71
     2
 72
     1
 73
     1
 90
        2
 40
-0.6
 41
30.0
 62
     5
 63
     7
 74
     1
 91
        4
 64
     7
 65
   257
 75
     1
175
     1
 42
1.0
 92
        0
 66
   257
 43
1.0
 76
     1
 77
     6
 78
     2
 67
     7
 79
     5
170
     0
171
     0
290
     0
174
     0
 93
       13
 44
0.0
173
     0
291
     1
 45
0.0
1001
ACAD
1000
AcDbSavedByObjectVersion
1070
     0
  0
VISUALSTYLE
  5
2D
102
{ACAD_REACTORS
330
2A
102
}
330
2A
100
AcDbVisualStyle
  2
Gouraud
 70
     2
 71
     2
 72
     2
 73
     1
 90
        2
 40
-0.6
 41
30.0
 62
     5
 63
     7
 74
     0
 91
        4
 64
     7
 65
   257
 75
     1
175
     1
 42
1.0
 92
        0
 66
     7
 43
1.0
 76
     1
 77
     6
 78
     2
 67
     7
 79
     5
170
     0
171
     0
290
     0
174
     0
 93
       13
 44
0.0
173
     0
291
     1
 45
0.0
1001
ACAD
1000
AcDbSavedByObjectVersion
1070
     0
  0
VISUALSTYLE
  5
2E
102
{ACAD_REACTORS
330
2A
102
}
330
2A
100
AcDbVisualStyle
  2
GouraudWithEdges
 70
     3
 71
     2
 72
     2
 73
     1
 90
        2
 40
-0.6
 41
30.0
 62
     5
 63
     7
 74
     1
 91
        4
 64
     7
 65
   257
 75
     1
175
     1
 42
1.0
 92
        0
 66
   257
 43
1.0
 76
     1
 77
     6
 78
     2
 67
     7
 79
     5
170
     0
171
     0
290
     0
174
     0
 93
       13
 44
0.0
173
     0
291
     1
 45
0.0
1001
ACAD
1000
AcDbSavedByObjectVersion
1070
     0
  0
VISUALSTYLE
  5
38
102
{ACAD_REACTORS
330
2A
102
}
330
2A
100
AcDbVisualStyle
  2
Linepattern
 70
    14
 71
     2
 72
     2
 73
     0
 90
        0
 40
-0.6
 41
-30.0
 62
     5
 63
     7
 74
     1
 91
        4
 64
     7
 65
   257
 75
     7
175
     7
 42
1.0
 92
        8
 66
     7
 43
1.0
 76
     1
 77
     6
 78
     2
 67
     7
 79
     5
170
     0
171
     0
290
     0
174
     0
 93
        1
 44
0.0
173
     0
291
     1
 45
0.0
1001
ACAD
1000
AcDbSavedByObjectVersion
1070
     0
  0
VISUALSTYLE
  5
33
102
{ACAD_REACTORS
330
2A
102
}
330
2A
100
AcDbVisualStyle
  2
Realistic
 70
     8
 71
     2
 72
     2
 73
     0
 90
        0
 40
-0.6
 41
-30.0
 62
     5
 63
     7
 74
     1
 91
        0
 64
     7
 65
   257
 75
     1
175
     1
 42
1.0
 92
        8
 66
     8
 43
1.0
 76
     1
 77
     6
 78
     2
 67
     7
 79
     5
170
     0
171
     0
290
     0
174
     0
 93
       13
 44
0.0
173
     0
291
     0
 45
0.0
1001
ACAD
1000
AcDbSavedByObjectVersion
1070
     0
  0
VISUALSTYLE
  5
37
102
{ACAD_REACTORS
330
2A
102
}
330
2A
100
AcDbVisualStyle
  2
Thicken
 70
    13
 71
     2
 72
     2
 73
     0
 90
        0
 40
-0.6
 41
-30.0
 62
     5
 63
     7
 74
     1
 91
        4
 64
     7
 65
   257
 75
     1
175
     1
 42
1.0
 92
       12
 66
     7
 43
1.0
 76
     1
 77
     6
 78
     2
 67
     7
 79
     5
170
     0
171
     0
290
     0
174
     0
 93
        1
 44
0.0
173
     0
291
     1
 45
0.0
1001
ACAD
1000
AcDbSavedByObjectVersion
1070
     0
  0
DICTIONARYVAR
  5
170
102
{ACAD_REACTORS
330
16F
102
}
330
16F
100
DictionaryVariables
280
     0
  1
1:1
  0
DICTIONARYVAR
  5
174
102
{ACAD_REACTORS
330
16F
102
}
330
16F
100
DictionaryVariables
280
     0
  1
80.000000
  0
DICTIONARYVAR
  5
173
102
{ACAD_REACTORS
330
16F
102
}
330
16F
100
DictionaryVariables
280
     0
  1
5.000000
  0
ENDSEC
  0
EOF
