  0
SECTION
  2
HEADER
  9
$ACADVER
  1
AC1015
  9
$ACADMAINTVER
 70
     6
  9
$DWGCODEPAGE
  3
ANSI_1252
  9
$INSBASE
 10
0.0
 20
0.0
 30
0.0
  9
$EXTMIN
 10
0.0
 20
0.0
 30
0.0
  9
$EXTMAX
 10
1682.0
 20
2378.0
 30
0.0
  9
$LIMMIN
 10
0.0
 20
0.0
  9
$LIMMAX
 10
1682.0
 20
2378.0
  9
$ORTHOMODE
 70
     0
  9
$REGENMODE
 70
     1
  9
$FILLMODE
 70
     1
  9
$QTEXTMODE
 70
     0
  9
$MIRRTEXT
 70
     1
  9
$LTSCALE
 40
1.0
  9
$ATTMODE
 70
     1
  9
$TEXTSIZE
 40
2.5
  9
$TRACEWID
 40
1.0
  9
$TEXTSTYLE
  7
Standard
  9
$CLAYER
  8
0
  9
$CELTYPE
  6
ByLayer
  9
$CECOLOR
 62
   256
  9
$CELTSCALE
 40
1.0
  9
$DISPSILH
 70
     0
  9
$DIMSCALE
 40
1.0
  9
$DIMASZ
 40
2.5
  9
$DIMEXO
 40
0.625
  9
$DIMDLI
 40
3.75
  9
$DIMRND
 40
0.0
  9
$DIMDLE
 40
0.0
  9
$DIMEXE
 40
1.25
  9
$DIMTP
 40
0.0
  9
$DIMTM
 40
0.0
  9
$DIMTXT
 40
2.5
  9
$DIMCEN
 40
2.5
  9
$DIMTSZ
 40
0.0
  9
$DIMTOL
 70
     0
  9
$DIMLIM
 70
     0
  9
$DIMTIH
 70
     0
  9
$DIMTOH
 70
     0
  9
$DIMSE1
 70
     0
  9
$DIMSE2
 70
     0
  9
$DIMTAD
 70
     1
  9
$DIMZIN
 70
     8
  9
$DIMBLK
  1

  9
$DIMASO
 70
     1
  9
$DIMSHO
 70
     1
  9
$DIMPOST
  1

  9
$DIMAPOST
  1

  9
$DIMALT
 70
     0
  9
$DIMALTD
 70
     3
  9
$DIMALTF
 40
0.0393700787
  9
$DIMLFAC
 40
1.0
  9
$DIMTOFL
 70
     1
  9
$DIMTVP
 40
0.0
  9
$DIMTIX
 70
     0
  9
$DIMSOXD
 70
     0
  9
$DIMSAH
 70
     0
  9
$DIMBLK1
  1

  9
$DIMBLK2
  1

  9
$DIMSTYLE
  2
ISO-25
  9
$DIMCLRD
 70
     0
  9
$DIMCLRE
 70
     0
  9
$DIMCLRT
 70
     0
  9
$DIMTFAC
 40
1.0
  9
$DIMGAP
 40
0.625
  9
$DIMJUST
 70
     0
  9
$DIMSD1
 70
     0
  9
$DIMSD2
 70
     0
  9
$DIMTOLJ
 70
     0
  9
$DIMTZIN
 70
     8
  9
$DIMALTZ
 70
     0
  9
$DIMALTTZ
 70
     0
  9
$DIMUPT
 70
     0
  9
$DIMDEC
 70
     2
  9
$DIMTDEC
 70
     2
  9
$DIMALTU
 70
     2
  9
$DIMALTTD
 70
     3
  9
$DIMTXSTY
  7
Standard
  9
$DIMAUNIT
 70
     0
  9
$DIMADEC
 70
     0
  9
$DIMALTRND
 40
0.0
  9
$DIMAZIN
 70
     0
  9
$DIMDSEP
 70
    44
  9
$DIMATFIT
 70
     3
  9
$DIMFRAC
 70
     0
  9
$DIMLDRBLK
  1

  9
$DIMLUNIT
 70
     2
  9
$DIMLWD
 70
    -2
  9
$DIMLWE
 70
    -2
  9
$DIMTMOVE
 70
     0
  9
$LUNITS
 70
     2
  9
$LUPREC
 70
     4
  9
$SKETCHINC
 40
1.0
  9
$FILLETRAD
 40
10.0
  9
$AUNITS
 70
     0
  9
$AUPREC
 70
     0
  9
$MENU
  1
.
  9
$ELEVATION
 40
0.0
  9
$PELEVATION
 40
0.0
  9
$THICKNESS
 40
0.0
  9
$LIMCHECK
 70
     0
  9
$CHAMFERA
 40
10.0
  9
$CHAMFERB
 40
10.0
  9
$CHAMFERC
 40
20.0
  9
$CHAMFERD
 40
0.0
  9
$SKPOLY
 70
     0
  9
$TDCREATE
 40
2455146.454820278
  9
$TDUCREATE
 40
2455146.413153611
  9
$TDUPDATE
 40
2455146.454820289
  9
$TDUUPDATE
 40
2455146.413153623
  9
$TDINDWG
 40
0.0000000116
  9
$TDUSRTIMER
 40
0.0000000116
  9
$USRTIMER
 70
     1
  9
$ANGBASE
 50
0.0
  9
$ANGDIR
 70
     0
  9
$PDMODE
 70
     0
  9
$PDSIZE
 40
0.0
  9
$PLINEWID
 40
0.0
  9
$SPLFRAME
 70
     0
  9
$SPLINETYPE
 70
     6
  9
$SPLINESEGS
 70
     8
  9
$HANDSEED
  5
1C9
  9
$SURFTAB1
 70
     6
  9
$SURFTAB2
 70
     6
  9
$SURFTYPE
 70
     6
  9
$SURFU
 70
     6
  9
$SURFV
 70
     6
  9
$UCSBASE
  2

  9
$UCSNAME
  2

  9
$UCSORG
 10
0.0
 20
0.0
 30
0.0
  9
$UCSXDIR
 10
1.0
 20
0.0
 30
0.0
  9
$UCSYDIR
 10
0.0
 20
1.0
 30
0.0
  9
$UCSORTHOREF
  2

  9
$UCSORTHOVIEW
 70
     0
  9
$UCSORGTOP
 10
0.0
 20
0.0
 30
0.0
  9
$UCSORGBOTTOM
 10
0.0
 20
0.0
 30
0.0
  9
$UCSORGLEFT
 10
0.0
 20
0.0
 30
0.0
  9
$UCSORGRIGHT
 10
0.0
 20
0.0
 30
0.0
  9
$UCSORGFRONT
 10
0.0
 20
0.0
 30
0.0
  9
$UCSORGBACK
 10
0.0
 20
0.0
 30
0.0
  9
$PUCSBASE
  2

  9
$PUCSNAME
  2

  9
$PUCSORG
 10
0.0
 20
0.0
 30
0.0
  9
$PUCSXDIR
 10
1.0
 20
0.0
 30
0.0
  9
$PUCSYDIR
 10
0.0
 20
1.0
 30
0.0
  9
$PUCSORTHOREF
  2

  9
$PUCSORTHOVIEW
 70
     0
  9
$PUCSORGTOP
 10
0.0
 20
0.0
 30
0.0
  9
$PUCSORGBOTTOM
 10
0.0
 20
0.0
 30
0.0
  9
$PUCSORGLEFT
 10
0.0
 20
0.0
 30
0.0
  9
$PUCSORGRIGHT
 10
0.0
 20
0.0
 30
0.0
  9
$PUCSORGFRONT
 10
0.0
 20
0.0
 30
0.0
  9
$PUCSORGBACK
 10
0.0
 20
0.0
 30
0.0
  9
$USERI1
 70
     0
  9
$USERI2
 70
     0
  9
$USERI3
 70
     0
  9
$USERI4
 70
     0
  9
$USERI5
 70
     0
  9
$USERR1
 40
0.0
  9
$USERR2
 40
0.0
  9
$USERR3
 40
0.0
  9
$USERR4
 40
0.0
  9
$USERR5
 40
0.0
  9
$WORLDVIEW
 70
     1
  9
$SHADEDGE
 70
     3
  9
$SHADEDIF
 70
    70
  9
$TILEMODE
 70
     1
  9
$MAXACTVP
 70
    64
  9
$PINSBASE
 10
0.0
 20
0.0
 30
0.0
  9
$PLIMCHECK
 70
     0
  9
$PEXTMIN
 10
0.0
 20
0.0
 30
0.0
  9
$PEXTMAX
 10
1682.0
 20
2378.0
 30
0.0
  9
$PLIMMIN
 10
0.0
 20
0.0
  9
$PLIMMAX
 10
1682.0
 20
2378.0
  9
$UNITMODE
 70
     0
  9
$VISRETAIN
 70
     1
  9
$PLINEGEN
 70
     0
  9
$PSLTSCALE
 70
     1
  9
$TREEDEPTH
 70
  3020
  9
$CMLSTYLE
  2
Standard
  9
$CMLJUST
 70
     0
  9
$CMLSCALE
 40
20.0
  9
$PROXYGRAPHICS
 70
     1
  9
$MEASUREMENT
 70
     1
  9
$CELWEIGHT
370
    -1
  9
$ENDCAPS
280
     0
  9
$JOINSTYLE
280
     0
  9
$LWDISPLAY
290
     0
  9
$INSUNITS
 70
     4
  9
$HYPERLINKBASE
  1

  9
$STYLESHEET
  1

  9
$XEDIT
290
     1
  9
$CEPSNTYPE
380
     0
  9
$PSTYLEMODE
290
     1
  9
$FINGERPRINTGUID
  2
{971DC3C4-F5AB-48BB-93F9-FB6426A228F7}
  9
$VERSIONGUID
  2
{FAEB1C32-E019-11D5-929B-00C0DF256EC4}
  9
$EXTNAMES
290
     1
  9
$PSVPSCALE
 40
0.0
  9
$OLESTARTUP
290
     0
  0
ENDSEC
  0
SECTION
  2
CLASSES
  0
CLASS
  1
ACDBDICTIONARYWDFLT
  2
AcDbDictionaryWithDefault
  3
ObjectDBX Classes
 90
        0
280
     0
281
     0
  0
CLASS
  1
VISUALSTYLE
  2
AcDbVisualStyle
  3
ObjectDBX Classes
 90
     4095
280
     0
281
     0
  0
CLASS
  1
SCALE
  2
AcDbScale
  3
ObjectDBX Classes
 90
     1153
280
     0
281
     0
  0
CLASS
  1
DICTIONARYVAR
  2
AcDbDictionaryVar
  3
ObjectDBX Classes
 90
        0
280
     0
281
     0
  0
CLASS
  1
ACDBPLACEHOLDER
  2
AcDbPlaceHolder
  3
ObjectDBX Classes
 90
        0
280
     0
281
     0
  0
CLASS
  1
LAYOUT
  2
AcDbLayout
  3
ObjectDBX Classes
 90
        0
280
     0
281
     0
  0
ENDSEC
  0
SECTION
  2
TABLES
  0
TABLE
  2
VPORT
  5
8
330
0
100
AcDbSymbolTable
 70
     1
  0
VPORT
  5
29
330
8
100
AcDbSymbolTableRecord
100
AcDbViewportTableRecord
  2
*Active
 70
     0
 10
0.0
 20
0.0
 11
1.0
 21
1.0
 12
344.1869158879
 22
148.5
 13
0.0
 23
0.0
 14
10.0
 24
10.0
 15
10.0
 25
10.0
 16
0.0
 26
0.0
 36
1.0
 17
0.0
 27
0.0
 37
0.0
 40
297.0
 41
1.9729729729
 42
50.0
 43
0.0
 44
0.0
 50
0.0
 51
0.0
 71
     0
 72
   100
 73
     1
 74
     3
 75
     0
 76
     0
 77
     0
 78
     0
281
     0
 65
     1
110
0.0
120
0.0
130
0.0
111
1.0
121
0.0
131
0.0
112
0.0
122
1.0
132
0.0
 79
     0
146
0.0
  0
ENDTAB
  0
TABLE
  2
LTYPE
  5
5
330
0
100
AcDbSymbolTable
 70
     1
  0
LTYPE
  5
14
330
5
100
AcDbSymbolTableRecord
100
AcDbLinetypeTableRecord
  2
ByBlock
 70
     0
  3

 72
    65
 73
     0
 40
0.0
  0
LTYPE
  5
15
330
5
100
AcDbSymbolTableRecord
100
AcDbLinetypeTableRecord
  2
ByLayer
 70
     0
  3

 72
    65
 73
     0
 40
0.0
  0
LTYPE
  5
16
330
5
100
AcDbSymbolTableRecord
100
AcDbLinetypeTableRecord
  2
Continuous
 70
     0
  3
Solid line
 72
    65
 73
     0
 40
0.0
  0
ENDTAB
  0
TABLE
  2
LAYER
  5
2
330
0
100
AcDbSymbolTable
 70
    15
  0
LAYER
  5
10
330
2
100
AcDbSymbolTableRecord
100
AcDbLayerTableRecord
  2
0
 70
     0
 62
     7
  6
Continuous
370
    -3
390
F
  0
LAYER
  5
5D
330
2
100
AcDbSymbolTableRecord
100
AcDbLayerTableRecord
  2
Default
 70
     0
 62
     7
  6
Continuous
370
    -3
390
F
  0
LAYER
  5
60
330
2
100
AcDbSymbolTableRecord
100
AcDbLayerTableRecord
  2
$DDT_AUDIT_GENERATED_(60)
 70
     0
 62
     7
  6
Continuous
370
    -3
390
F
  0
LAYER
  5
75
330
2
100
AcDbSymbolTableRecord
100
AcDbLayerTableRecord
  2
$DDT_AUDIT_GENERATED_(75)
 70
     0
 62
     7
  6
Continuous
370
    -3
390
F
  0
LAYER
  5
80
330
2
100
AcDbSymbolTableRecord
100
AcDbLayerTableRecord
  2
$DDT_AUDIT_GENERATED_(80)
 70
     0
 62
     7
  6
Continuous
370
    -3
390
F
  0
LAYER
  5
84
330
2
100
AcDbSymbolTableRecord
100
AcDbLayerTableRecord
  2
$DDT_AUDIT_GENERATED_(84)
 70
     0
 62
     7
  6
Continuous
370
    -3
390
F
  0
LAYER
  5
88
330
2
100
AcDbSymbolTableRecord
100
AcDbLayerTableRecord
  2
$DDT_AUDIT_GENERATED_(88)
 70
     0
 62
     7
  6
Continuous
370
    -3
390
F
  0
LAYER
  5
8A
330
2
100
AcDbSymbolTableRecord
100
AcDbLayerTableRecord
  2
$DDT_AUDIT_GENERATED_(8A)
 70
     0
 62
     7
  6
Continuous
370
    -3
390
F
  0
LAYER
  5
99
330
2
100
AcDbSymbolTableRecord
100
AcDbLayerTableRecord
  2
$DDT_AUDIT_GENERATED_(99)
 70
     0
 62
     7
  6
Continuous
370
    -3
390
F
  0
LAYER
  5
AA
330
2
100
AcDbSymbolTableRecord
100
AcDbLayerTableRecord
  2
02636038_GEHÄUSE
 70
     0
 62
     7
  6
Continuous
370
    -3
390
F
  0
LAYER
  5
FE
330
2
100
AcDbSymbolTableRecord
100
AcDbLayerTableRecord
  2
$DDT_AUDIT_GENERATED_(FE)
 70
     0
 62
     7
  6
Continuous
370
    -3
390
F
  0
LAYER
  5
100
330
2
100
AcDbSymbolTableRecord
100
AcDbLayerTableRecord
  2
$DDT_AUDIT_GENERATED_(100)
 70
     0
 62
     7
  6
Continuous
370
    -3
390
F
  0
LAYER
  5
137
330
2
100
AcDbSymbolTableRecord
100
AcDbLayerTableRecord
  2
$DDT_AUDIT_GENERATED_(137)
 70
     0
 62
     7
  6
Continuous
370
    -3
390
F
  0
LAYER
  5
170
330
2
100
AcDbSymbolTableRecord
100
AcDbLayerTableRecord
  2
$DDT_AUDIT_GENERATED_(170)
 70
     0
 62
     7
  6
Continuous
370
    -3
390
F
  0
LAYER
  5
1A0
330
2
100
AcDbSymbolTableRecord
100
AcDbLayerTableRecord
  2
$DDT_AUDIT_GENERATED_(1A0)
 70
     0
 62
     7
  6
Continuous
370
    -3
390
F
  0
ENDTAB
  0
TABLE
  2
STYLE
  5
3
330
0
100
AcDbSymbolTable
 70
     2
  0
STYLE
  5
11
330
3
100
AcDbSymbolTableRecord
100
AcDbTextStyleTableRecord
  2
Standard
 70
     0
 40
0.0
 41
1.0
 50
0.0
 71
     0
 42
2.5
  3
txt
  4

  0
STYLE
  5
1B8
330
3
100
AcDbSymbolTableRecord
100
AcDbTextStyleTableRecord
  2
SEACAD_seiso_ttf
 70
     0
 40
0.0
 41
1.0
 50
0.0
 71
     0
 42
0.2
  3
seiso.ttf
  4

  0
ENDTAB
  0
TABLE
  2
VIEW
  5
6
330
0
100
AcDbSymbolTable
 70
     0
  0
ENDTAB
  0
TABLE
  2
UCS
  5
7
330
0
100
AcDbSymbolTable
 70
     0
  0
ENDTAB
  0
TABLE
  2
APPID
  5
9
330
0
100
AcDbSymbolTable
 70
     1
  0
APPID
  5
12
330
9
100
AcDbSymbolTableRecord
100
AcDbRegAppTableRecord
  2
ACAD
 70
     0
  0
ENDTAB
  0
TABLE
  2
DIMSTYLE
  5
A
330
0
100
AcDbSymbolTable
 70
     1
100
AcDbDimStyleTable
  0
DIMSTYLE
105
27
330
A
100
AcDbSymbolTableRecord
100
AcDbDimStyleTableRecord
  2
ISO-25
 70
     0
 41
2.5
 42
0.625
 43
3.75
 44
1.25
 73
     0
 74
     0
 77
     1
 78
     8
140
2.5
141
2.5
143
0.0393700787
147
0.625
171
     3
172
     1
271
     2
272
     2
274
     3
278
    44
283
     0
284
     8
340
11
  0
ENDTAB
  0
TABLE
  2
BLOCK_RECORD
  5
1
330
0
100
AcDbSymbolTable
 70
     4
  0
BLOCK_RECORD
  5
1F
330
1
100
AcDbSymbolTableRecord
100
AcDbBlockTableRecord
  2
*Model_Space
340
22
  0
BLOCK_RECORD
  5
1B
330
1
100
AcDbSymbolTableRecord
100
AcDbBlockTableRecord
  2
*Paper_Space
340
1E
  0
BLOCK_RECORD
  5
5E
330
1
100
AcDbSymbolTableRecord
100
AcDbBlockTableRecord
  2
SE
340
0
102
{BLKREFS
331
5F
102
}
  0
BLOCK_RECORD
  5
BC
330
1
100
AcDbSymbolTableRecord
100
AcDbBlockTableRecord
  2
SE1
340
0
102
{BLKREFS
331
BD
102
}
  0
BLOCK_RECORD
  5
13D
330
1
100
AcDbSymbolTableRecord
100
AcDbBlockTableRecord
  2
SE2
340
0
102
{BLKREFS
331
13E
102
}
  0
ENDTAB
  0
ENDSEC
  0
SECTION
  2
BLOCKS
  0
BLOCK
  5
20
330
1F
100
AcDbEntity
  8
0
100
AcDbBlockBegin
  2
*Model_Space
 70
     0
 10
0.0
 20
0.0
 30
0.0
  3
*Model_Space
  1

  0
ENDBLK
  5
21
330
1F
100
AcDbEntity
  8
0
100
AcDbBlockEnd
  0
BLOCK
  5
1C
330
1B
100
AcDbEntity
 67
     1
  8
0
100
AcDbBlockBegin
  2
*Paper_Space
 70
     0
 10
0.0
 20
0.0
 30
0.0
  3
*Paper_Space
  1

  0
ENDBLK
  5
1D
330
1B
100
AcDbEntity
 67
     1
  8
0
100
AcDbBlockEnd
  0
BLOCK
  5
BA
330
5E
100
AcDbEntity
  8
0
100
AcDbBlockBegin
  2
SE
 70
     0
 10
0.0
 20
0.0
 30
0.0
  3
SE
  1

  0
LINE
  5
61
330
5E
100
AcDbEntity
  8
$DDT_AUDIT_GENERATED_(60)
  6
Continuous
 62
     7
100
AcDbLine
 10
190.0900012977
 20
422.4022007308
 30
0.0
 11
57.5630187032
 21
422.4022007308
 31
0.0
  0
LINE
  5
62
330
5E
100
AcDbEntity
  8
$DDT_AUDIT_GENERATED_(60)
  6
Continuous
 62
     7
100
AcDbLine
 10
57.5630187032
 20
421.2720820871
 30
0.0
 11
106.0900012976
 21
421.2720820871
 31
0.0
  0
LINE
  5
63
330
5E
100
AcDbEntity
  8
$DDT_AUDIT_GENERATED_(60)
  6
Continuous
 62
     7
100
AcDbLine
 10
124.0900012976
 20
421.2720820871
 30
0.0
 11
190.0900012977
 21
421.2720820871
 31
0.0
  0
ARC
  5
64
330
5E
100
AcDbEntity
  8
$DDT_AUDIT_GENERATED_(60)
  6
Continuous
 62
     7
100
AcDbCircle
 10
115.0900012916
 20
153.0247715687
 30
0.0
 40
269.036876970368
100
AcDbArc
 50
88.0215382795
 51
92.0091681082
  0
ARC
  5
65
330
5E
100
AcDbEntity
  8
$DDT_AUDIT_GENERATED_(60)
  6
Continuous
 62
     7
100
AcDbCircle
 10
190.0899105081
 20
455.012110726
 30
0.0
 40
33.74009183825088
100
AcDbArc
 50
270.0001541746
 51
89.9998458251
  0
ARC
  5
66
330
5E
100
AcDbEntity
  8
$DDT_AUDIT_GENERATED_(60)
  6
Continuous
 62
     7
100
AcDbCircle
 10
190.0899531025
 20
455.0120966171
 30
0.0
 40
32.60992654183759
100
AcDbArc
 50
270.0000846791
 51
89.9999153208
  0
ARC
  5
67
330
5E
100
AcDbEntity
  8
$DDT_AUDIT_GENERATED_(60)
  6
Continuous
 62
     7
100
AcDbCircle
 10
40.0900920871
 20
455.0120534484
 30
0.0
 40
33.74009183825115
100
AcDbArc
 50
90.0001541746
 51
238.8102647661
  0
LINE
  5
68
330
5E
100
AcDbEntity
  8
$DDT_AUDIT_GENERATED_(60)
  6
Continuous
 62
     7
100
AcDbLine
 10
190.0900012978
 20
488.7520820872
 30
0.0
 11
40.0900012975
 21
488.7520820872
 31
0.0
  0
ARC
  5
69
330
5E
100
AcDbEntity
  8
$DDT_AUDIT_GENERATED_(60)
  6
Continuous
 62
     7
100
AcDbCircle
 10
190.0902027658
 20
455.0120820872
 30
0.0
 40
30.5352958645942
100
AcDbArc
 50
269.9996219643
 51
90.0003777789
  0
LINE
  5
6A
330
5E
100
AcDbEntity
  8
$DDT_AUDIT_GENERATED_(60)
  6
Continuous
 62
     7
100
AcDbLine
 10
190.0900014317
 20
485.5473779511
 30
0.0
 11
40.0900012976
 21
485.5473779511
 31
0.0
  0
ARC
  5
6B
330
5E
100
AcDbEntity
  8
$DDT_AUDIT_GENERATED_(60)
  6
Continuous
 62
     7
100
AcDbCircle
 10
40.0897998215
 20
455.0120820872
 30
0.0
 40
30.5352958645693
100
AcDbArc
 50
89.9996219545
 51
235.0950297263
  0
LINE
  5
6C
330
5E
100
AcDbEntity
  8
$DDT_AUDIT_GENERATED_(60)
  6
Continuous
 62
     7
100
AcDbLine
 10
57.5630187032
 20
424.4767862233
 30
0.0
 11
190.0900012949
 21
424.4767862233
 31
0.0
  0
CIRCLE
  5
6D
330
5E
100
AcDbEntity
  8
$DDT_AUDIT_GENERATED_(60)
  6
Continuous
 62
     7
100
AcDbCircle
 10
190.0900012976
 20
455.0120820872
 30
0.0
 40
26.25000004641
  0
ARC
  5
6E
330
5E
100
AcDbEntity
  8
$DDT_AUDIT_GENERATED_(60)
  6
Continuous
 62
     7
100
AcDbCircle
 10
40.0900494927
 20
455.0120675572
 30
0.0
 40
32.6099265418447
100
AcDbArc
 50
90.0000846791
 51
237.5689729477
  0
LINE
  5
6F
330
5E
100
AcDbEntity
  8
$DDT_AUDIT_GENERATED_(60)
  6
Continuous
 62
     7
100
AcDbLine
 10
190.0900012978
 20
487.6219634436
 30
0.0
 11
40.0900012975
 21
487.6219634436
 31
0.0
  0
ARC
  5
70
330
5E
100
AcDbEntity
  8
$DDT_AUDIT_GENERATED_(60)
  6
Continuous
 62
     7
100
AcDbCircle
 10
190.0899550594
 20
455.0120961692
 30
0.0
 40
32.60101015811534
100
AcDbArc
 50
270.0000812631
 51
89.9999187368
  0
LINE
  5
71
330
5E
100
AcDbEntity
  8
$DDT_AUDIT_GENERATED_(60)
  6
Continuous
 62
     7
100
AcDbLine
 10
190.0900012978
 20
487.6130477247
 30
0.0
 11
40.0900012975
 21
487.6130477247
 31
0.0
  0
LINE
  5
72
330
5E
100
AcDbEntity
  8
$DDT_AUDIT_GENERATED_(60)
  6
Continuous
 62
     7
100
AcDbLine
 10
190.0900012977
 20
422.4111164497
 30
0.0
 11
57.5630187032
 21
422.4111164497
 31
0.0
  0
ARC
  5
73
330
5E
100
AcDbEntity
  8
$DDT_AUDIT_GENERATED_(60)
  6
Continuous
 62
     7
100
AcDbCircle
 10
40.0900006467
 20
455.0119714854
 30
0.0
 40
26.40167800234441
100
AcDbArc
 50
0.0
 51
228.5615859515
  0
ARC
  5
74
330
5E
100
AcDbEntity
  8
$DDT_AUDIT_GENERATED_(60)
  6
Continuous
 62
     7
100
AcDbCircle
 10
40.0900006467
 20
455.0119714854
 30
0.0
 40
26.40167800234441
100
AcDbArc
 50
311.4384178173
 51
0.0
  0
LINE
  5
76
330
5E
100
AcDbEntity
  8
$DDT_AUDIT_GENERATED_(75)
  6
Continuous
 62
     7
100
AcDbLine
 10
57.5630187037
 20
384.1065994726
 30
0.0
 11
57.5630187028
 21
449.1765994725
 31
0.0
  0
LINE
  5
77
330
5E
100
AcDbEntity
  8
$DDT_AUDIT_GENERATED_(75)
  6
Continuous
 62
     7
100
AcDbLine
 10
52.0400012976
 20
384.1065994726
 30
0.0
 11
52.0400012976
 21
449.1765994726
 31
0.0
  0
ARC
  5
78
330
5E
100
AcDbEntity
  8
$DDT_AUDIT_GENERATED_(75)
  6
Continuous
 62
     7
100
AcDbCircle
 10
40.0900012976
 20
384.1065994726
 30
0.0
 40
11.95
100
AcDbArc
 50
180.0
 51
0.0
  0
LINE
  5
79
330
5E
100
AcDbEntity
  8
$DDT_AUDIT_GENERATED_(75)
  6
Continuous
 62
     7
100
AcDbLine
 10
28.1400012976
 20
384.1065994726
 30
0.0
 11
28.1400012976
 21
449.1765994726
 31
0.0
  0
ARC
  5
7A
330
5E
100
AcDbEntity
  8
$DDT_AUDIT_GENERATED_(75)
  6
Continuous
 62
     7
100
AcDbCircle
 10
40.0900012976
 20
449.1765994726
 30
0.0
 40
11.95
100
AcDbArc
 50
0.0
 51
180.0
  0
LINE
  5
7B
330
5E
100
AcDbEntity
  8
$DDT_AUDIT_GENERATED_(75)
  6
Continuous
 62
     7
100
AcDbLine
 10
22.6169838917
 20
449.1765994726
 30
0.0
 11
22.6169838916
 21
384.1065994726
 31
0.0
  0
ARC
  5
7C
330
5E
100
AcDbEntity
  8
$DDT_AUDIT_GENERATED_(75)
  6
Continuous
 62
     7
100
AcDbCircle
 10
40.0900012976
 20
449.1765994726
 30
0.0
 40
17.47301740523021
100
AcDbArc
 50
0.0
 51
180.0
  0
CIRCLE
  5
7D
330
5E
100
AcDbEntity
  8
$DDT_AUDIT_GENERATED_(75)
  6
Continuous
 62
     7
100
AcDbCircle
 10
40.0900012976
 20
449.1765994726
 30
0.0
 40
10.45
  0
ARC
  5
7E
330
5E
100
AcDbEntity
  8
$DDT_AUDIT_GENERATED_(75)
  6
Continuous
 62
     7
100
AcDbCircle
 10
40.0900012976
 20
384.1065994726
 30
0.0
 40
17.47332201491
100
AcDbArc
 50
180.0
 51
270.0
  0
ARC
  5
7F
330
5E
100
AcDbEntity
  8
$DDT_AUDIT_GENERATED_(75)
  6
Continuous
 62
     7
100
AcDbCircle
 10
40.0900012976
 20
384.1065994726
 30
0.0
 40
17.47332201491
100
AcDbArc
 50
270.0
 51
0.0
  0
SPLINE
  5
81
330
5E
100
AcDbEntity
  8
$DDT_AUDIT_GENERATED_(80)
  6
Continuous
 62
     7
100
AcDbSpline
210
0.0
220
0.0
230
1.0
 70
     8
 71
     3
 72
    18
 73
    14
 74
     0
 42
0.0000000001524677
 43
0.0000000001
 40
0.0
 40
0.0
 40
0.0
 40
0.0
 40
0.1250000000000001
 40
0.1250000000000001
 40
0.2500000000000001
 40
0.2500000000000001
 40
0.3750000000000001
 40
0.3750000000000001
 40
0.5
 40
0.5
 40
0.625
 40
0.625
 40
0.6410263957329342
 40
0.6410263957329342
 40
0.6410263957329342
 40
0.6410263957329342
 10
42.61756934822847
 20
475.5974895339688
 30
0.0
 10
45.34736422391564
 20
475.2623131557338
 30
0.0
 10
47.90912908338335
 20
474.4175700818216
 30
0.0
 10
52.69659950042178
 20
471.7089502184579
 30
0.0
 10
54.74009244529898
 20
469.9481643365124
 30
0.0
 10
58.12659434213793
 20
465.6136402245675
 30
0.0
 10
59.34071202922717
 20
463.2048752536651
 30
0.0
 10
60.81068115343275
 20
457.9043389660787
 30
0.0
 10
61.01058514079674
 20
455.2143075622159
 30
0.0
 10
60.34023201241732
 20
449.7547177780023
 30
0.0
 10
59.4954887121697
 20
447.1929528753325
 30
0.0
 10
57.96754095274773
 20
444.4923142323586
 30
0.0
 10
57.7872215748075
 20
444.1911679757676
 30
0.0
 10
57.60022049580981
 20
443.8957790299573
 30
0.0
  0
ARC
  5
82
330
5E
100
AcDbEntity
  8
$DDT_AUDIT_GENERATED_(80)
  6
Continuous
 62
     7
100
AcDbCircle
 10
40.0885329256
 20
455.0095161218
 30
0.0
 40
15.25279264925374
100
AcDbArc
 50
82.9957631402
 51
167.9479234553
  0
ARC
  5
83
330
5E
100
AcDbEntity
  8
$DDT_AUDIT_GENERATED_(80)
  6
Continuous
 62
     7
100
AcDbCircle
 10
40.0917161982
 20
455.0144877545
 30
0.0
 40
15.25184121078642
100
AcDbArc
 50
12.062301196
 51
83.0050426258
  0
ARC
  5
85
330
5E
100
AcDbEntity
  8
$DDT_AUDIT_GENERATED_(84)
  6
Continuous
 62
     7
100
AcDbCircle
 10
40.0900012976
 20
455.0120820872
 30
0.0
 40
20.7500000000005
100
AcDbArc
 50
0.0
 51
45.3103870951
  0
ARC
  5
86
330
5E
100
AcDbEntity
  8
$DDT_AUDIT_GENERATED_(84)
  6
Continuous
 62
     7
100
AcDbCircle
 10
40.0900012976
 20
455.0120820872
 30
0.0
 40
20.7500000000005
100
AcDbArc
 50
75.687757335
 51
212.5726467559
  0
ARC
  5
87
330
5E
100
AcDbEntity
  8
$DDT_AUDIT_GENERATED_(84)
  6
Continuous
 62
     7
100
AcDbCircle
 10
40.0900012976
 20
455.0120820872
 30
0.0
 40
20.7500000000005
100
AcDbArc
 50
327.3625956521
 51
0.0
  0
CIRCLE
  5
89
330
5E
100
AcDbEntity
  8
$DDT_AUDIT_GENERATED_(88)
  6
Continuous
 62
     7
100
AcDbCircle
 10
115.0900012976
 20
455.0120820872
 30
0.0
 40
15.2
  0
LINE
  5
8B
330
5E
100
AcDbEntity
  8
$DDT_AUDIT_GENERATED_(8A)
  6
Continuous
 62
     7
100
AcDbLine
 10
106.0900012976
 20
419.2120820872
 30
0.0
 11
124.0900012976
 21
419.2120820872
 31
0.0
  0
LINE
  5
8C
330
5E
100
AcDbEntity
  8
$DDT_AUDIT_GENERATED_(8A)
  6
Continuous
 62
     7
100
AcDbLine
 10
125.5700012976
 20
417.7320820872
 30
0.0
 11
104.6100012976
 21
417.7320820872
 31
0.0
  0
LINE
  5
8D
330
5E
100
AcDbEntity
  8
$DDT_AUDIT_GENERATED_(8A)
  6
Continuous
 62
     7
100
AcDbLine
 10
124.3700012976
 20
410.3120820872
 30
0.0
 11
105.8100012976
 21
410.3120820872
 31
0.0
  0
LINE
  5
8E
330
5E
100
AcDbEntity
  8
$DDT_AUDIT_GENERATED_(8A)
  6
Continuous
 62
     7
100
AcDbLine
 10
125.5700012976
 20
411.5120820872
 30
0.0
 11
104.6100012976
 21
411.5120820872
 31
0.0
  0
LINE
  5
8F
330
5E
100
AcDbEntity
  8
$DDT_AUDIT_GENERATED_(8A)
  6
Continuous
 62
     7
100
AcDbLine
 10
104.6100012976
 20
417.7320820872
 30
0.0
 11
104.6100012976
 21
411.5120820872
 31
0.0
  0
LINE
  5
90
330
5E
100
AcDbEntity
  8
$DDT_AUDIT_GENERATED_(8A)
  6
Continuous
 62
     7
100
AcDbLine
 10
125.5700012976
 20
411.5120820872
 30
0.0
 11
125.5700012976
 21
417.7320820872
 31
0.0
  0
LINE
  5
91
330
5E
100
AcDbEntity
  8
$DDT_AUDIT_GENERATED_(8A)
  6
Continuous
 62
     7
100
AcDbLine
 10
106.0900012976
 20
421.9503256615
 30
0.0
 11
106.0900012976
 21
419.2120820872
 31
0.0
  0
LINE
  5
92
330
5E
100
AcDbEntity
  8
$DDT_AUDIT_GENERATED_(8A)
  6
Continuous
 62
     7
100
AcDbLine
 10
124.0900012976
 20
419.2120820872
 30
0.0
 11
124.0900012976
 21
421.9503255118
 31
0.0
  0
LINE
  5
93
330
5E
100
AcDbEntity
  8
$DDT_AUDIT_GENERATED_(8A)
  6
Continuous
 62
     7
100
AcDbLine
 10
125.5700012976
 20
417.7320820872
 30
0.0
 11
124.0900012976
 21
419.2120820872
 31
0.0
  0
LINE
  5
94
330
5E
100
AcDbEntity
  8
$DDT_AUDIT_GENERATED_(8A)
  6
Continuous
 62
     7
100
AcDbLine
 10
106.0900012976
 20
419.2120820872
 30
0.0
 11
104.6100012976
 21
417.7320820872
 31
0.0
  0
LINE
  5
95
330
5E
100
AcDbEntity
  8
$DDT_AUDIT_GENERATED_(8A)
  6
Continuous
 62
     7
100
AcDbLine
 10
104.6100012976
 20
411.5120820872
 30
0.0
 11
105.8100012976
 21
410.3120820872
 31
0.0
  0
LINE
  5
96
330
5E
100
AcDbEntity
  8
$DDT_AUDIT_GENERATED_(8A)
  6
Continuous
 62
     7
100
AcDbLine
 10
124.3700012976
 20
410.3120820872
 30
0.0
 11
125.5700012976
 21
411.5120820872
 31
0.0
  0
LINE
  5
97
330
5E
100
AcDbEntity
  8
$DDT_AUDIT_GENERATED_(8A)
  6
Continuous
 62
     7
100
AcDbLine
 10
124.4050012976
 20
418.8970820872
 30
0.0
 11
124.4050012976
 21
410.3470820872
 31
0.0
  0
LINE
  5
98
330
5E
100
AcDbEntity
  8
$DDT_AUDIT_GENERATED_(8A)
  6
Continuous
 62
     7
100
AcDbLine
 10
105.7750012976
 20
418.8970820872
 30
0.0
 11
105.7750012976
 21
410.3470820872
 31
0.0
  0
LINE
  5
9A
330
5E
100
AcDbEntity
  8
$DDT_AUDIT_GENERATED_(99)
  6
Continuous
 62
     7
100
AcDbLine
 10
173.3095040615
 20
462.708537879
 30
0.0
 11
206.9522855424
 21
462.7085378789
 31
0.0
  0
ARC
  5
9B
330
5E
100
AcDbEntity
  8
$DDT_AUDIT_GENERATED_(99)
  6
Continuous
 62
     7
100
AcDbCircle
 10
205.5331720177
 20
456.4282936576
 30
0.0
 40
6.438582971139801
100
AcDbArc
 50
49.9611769271
 51
77.267017323
  0
LINE
  5
9C
330
5E
100
AcDbEntity
  8
$DDT_AUDIT_GENERATED_(99)
  6
Continuous
 62
     7
100
AcDbLine
 10
170.6000111116
 20
461.3577282696
 30
0.0
 11
209.6751544643
 21
461.3577289283
 31
0.0
  0
LINE
  5
9D
330
5E
100
AcDbEntity
  8
$DDT_AUDIT_GENERATED_(99)
  6
Continuous
 62
     7
100
AcDbLine
 10
169.3537530638
 20
453.4921006406
 30
0.0
 11
210.9274679793
 21
453.4920994638
 31
0.0
  0
ARC
  5
9E
330
5E
100
AcDbEntity
  8
$DDT_AUDIT_GENERATED_(99)
  6
Continuous
 62
     7
100
AcDbCircle
 10
190.0980679025
 20
454.2082873805
 30
0.0
 40
20.84170896767831
100
AcDbArc
 50
358.0307456971
 51
20.0619082306
  0
ARC
  5
9F
330
5E
100
AcDbEntity
  8
$DDT_AUDIT_GENERATED_(99)
  6
Continuous
 62
     7
100
AcDbCircle
 10
192.9756143301
 20
633.5575271486
 30
0.0
 40
186.679165326265
100
AcDbArc
 50
269.114309888
 51
272.863424892
  0
ARC
  5
A0
330
5E
100
AcDbEntity
  8
$DDT_AUDIT_GENERATED_(99)
  6
Continuous
 62
     7
100
AcDbCircle
 10
187.4781641814
 20
649.4135583905
 30
0.0
 40
202.5297348851444
100
AcDbArc
 50
267.3265415359
 51
270.7389114188
  0
SPLINE
  5
A1
330
5E
100
AcDbEntity
  8
$DDT_AUDIT_GENERATED_(99)
  6
Continuous
 62
     7
100
AcDbSpline
210
0.0
220
0.0
230
1.0
 70
     8
 71
     5
 72
    12
 73
     6
 74
     0
 42
0.0000000008823762
 43
0.0000000001
 40
0.0
 40
0.0
 40
0.0
 40
0.0
 40
0.0
 40
0.0
 40
0.9293642339389849
 40
0.9293642339389849
 40
0.9293642339389849
 40
0.9293642339389849
 40
0.9293642339389849
 40
0.9293642339389849
 10
169.2525743419176
 20
453.4921006434674
 30
0.0
 10
169.2889289641178
 20
452.4352629350444
 30
0.0
 10
169.3990751073783
 20
451.1843000182441
 30
0.0
 10
170.6563309240625
 20
449.7956385893768
 30
0.0
 10
173.1388405146861
 20
448.5037065463255
 30
0.0
 10
176.5362446881558
 20
447.4829397078665
 30
0.0
  0
SPLINE
  5
A2
330
5E
100
AcDbEntity
  8
$DDT_AUDIT_GENERATED_(99)
  6
Continuous
 62
     7
100
AcDbSpline
210
0.0
220
0.0
230
1.0
 70
     8
 71
     5
 72
    12
 73
     6
 74
     0
 42
0.000000000503809
 43
0.0000000001
 40
0.9434675154664516
 40
0.9434675154664516
 40
0.9434675154664516
 40
0.9434675154664516
 40
0.9434675154664516
 40
0.9434675154664516
 40
1.0
 40
1.0
 40
1.0
 40
1.0
 40
1.0
 40
1.0
 10
176.796121936729
 20
447.4061185760635
 30
0.0
 10
177.006135045064
 20
447.3450419982449
 30
0.0
 10
177.2194801724814
 20
447.2849980115566
 30
0.0
 10
177.4360848409034
 20
447.2260254558056
 30
0.0
 10
177.6558713791387
 20
447.1681622999742
 30
0.0
 10
177.8787574281409
 20
447.1114454440104
 30
0.0
  0
ARC
  5
A3
330
5E
100
AcDbEntity
  8
$DDT_AUDIT_GENERATED_(99)
  6
Continuous
 62
     7
100
AcDbCircle
 10
190.4328634563
 20
496.5520057277
 30
0.0
 40
50.84462281607995
100
AcDbArc
 50
283.0390358957
 51
283.5438987565
  0
ARC
  5
A4
330
5E
100
AcDbEntity
  8
$DDT_AUDIT_GENERATED_(99)
  6
Continuous
 62
     7
100
AcDbCircle
 10
189.7513192756
 20
496.5908069018
 30
0.0
 40
50.88339500982661
100
AcDbArc
 50
256.4677390971
 51
256.9670323946
  0
SPLINE
  5
A5
330
5E
100
AcDbEntity
  8
$DDT_AUDIT_GENERATED_(99)
  6
Continuous
 62
     7
100
AcDbSpline
210
0.0
220
0.0
230
1.0
 70
     8
 71
     3
 72
    16
 73
    12
 74
     0
 42
0.0000000004163307
 43
0.0000000001
 40
0.498832221147217
 40
0.498832221147217
 40
0.498832221147217
 40
0.498832221147217
 40
0.5
 40
0.5
 40
0.75
 40
0.75
 40
0.875
 40
0.875
 40
0.9375
 40
0.9375
 40
1.0
 40
1.0
 40
1.0
 40
1.0
 10
178.2883109968384
 20
446.966112227216
 30
0.0
 10
178.2792888163212
 20
446.9682458934967
 30
0.0
 10
178.2702673113139
 20
446.9703826577946
 30
0.0
 10
176.3300529597404
 20
447.4306283368185
 30
0.0
 10
174.4120977096918
 20
448.0209146042784
 30
0.0
 10
171.7757914454635
 20
449.4324124854747
 30
0.0
 10
170.9244339079808
 20
449.9994501380345
 30
0.0
 10
169.9446984699721
 20
451.1215633385291
 30
0.0
 10
169.6693700604329
 20
451.5522010016417
 30
0.0
 10
169.3271019332394
 20
452.48345246217
 30
0.0
 10
169.2698372488568
 20
452.9896271404886
 30
0.0
 10
169.2525644886979
 20
453.4921008615155
 30
0.0
  0
SPLINE
  5
A6
330
5E
100
AcDbEntity
  8
$DDT_AUDIT_GENERATED_(99)
  6
Continuous
 62
     7
100
AcDbSpline
210
0.0
220
0.0
230
1.0
 70
     8
 71
     3
 72
    16
 73
    12
 74
     0
 42
0.0000000004161305
 43
0.0000000001
 40
0.0
 40
0.0
 40
0.0
 40
0.0
 40
0.0624999999999998
 40
0.0624999999999998
 40
0.1249999999999997
 40
0.1249999999999997
 40
0.2499999999999997
 40
0.2499999999999997
 40
0.4999999999999999
 40
0.4999999999999999
 40
0.5009276830666578
 40
0.5009276830666578
 40
0.5009276830666578
 40
0.5009276830666578
 10
210.9274722640826
 20
453.4920996905978
 30
0.0
 10
210.9101872716471
 20
452.9902619538994
 30
0.0
 10
210.8562975163774
 20
452.4957281417501
 30
0.0
 10
210.5123055373178
 20
451.5537632486387
 30
0.0
 10
210.2372204921508
 20
451.1232887230132
 30
0.0
 10
209.2454504624696
 20
449.9888046038509
 30
0.0
 10
208.395440067253
 20
449.4263320479942
 30
0.0
 10
205.7412766549813
 20
448.0094610515747
 30
0.0
 10
203.8481604994976
 20
447.4299335042666
 30
0.0
 10
201.9068743303374
 20
446.9697053112728
 30
0.0
 10
201.8996968472772
 20
446.9680059315563
 30
0.0
 10
201.8925188445271
 20
446.9663086396566
 30
0.0
  0
ARC
  5
A7
330
5E
100
AcDbEntity
  8
$DDT_AUDIT_GENERATED_(99)
  6
Continuous
 62
     7
100
AcDbCircle
 10
174.7298231034
 20
456.4663469684
 30
0.0
 40
6.40173329124777
100
AcDbArc
 50
102.8183750317
 51
130.1755367429
  0
ARC
  5
A8
330
5E
100
AcDbEntity
  8
$DDT_AUDIT_GENERATED_(99)
  6
Continuous
 62
     7
100
AcDbCircle
 10
190.2746898003
 20
454.2089404985
 30
0.0
 40
20.93332231031874
100
AcDbArc
 50
160.0315391793
 51
181.9624180243
  0
SPLINE
  5
A9
330
5E
100
AcDbEntity
  8
$DDT_AUDIT_GENERATED_(99)
  6
Continuous
 62
     7
100
AcDbSpline
210
0.0
220
0.0
230
1.0
 70
     8
 71
     3
 72
    18
 73
    14
 74
     0
 42
0.00000000086096
 43
0.0000000001
 40
0.0
 40
0.0
 40
0.0
 40
0.0
 40
0.0446625635520947
 40
0.0996084284682449
 40
0.1685843778331454
 40
0.2106504397347218
 40
0.2594682252971487
 40
0.3377564103585561
 40
0.4348027938765884
 40
0.554472021773027
 40
0.7001343024921779
 40
0.8742904876397208
 40
1.0
 40
1.0
 40
1.0
 40
1.0
 10
169.3536448373355
 20
453.4921006549513
 30
0.0
 10
169.360470607784
 20
453.3018604184433
 30
0.0
 10
169.3779131486739
 20
452.9432319949437
 30
0.0
 10
169.4917656790404
 20
452.2832108455973
 30
0.0
 10
169.7360338260164
 20
451.6861369869388
 30
0.0
 10
170.0664383339528
 20
451.1609026862908
 30
0.0
 10
170.4806278471981
 20
450.6526439158248
 30
0.0
 10
171.1172422024081
 20
450.0602032616659
 30
0.0
 10
172.0494206604133
 20
449.4009010280545
 30
0.0
 10
173.2795353099775
 20
448.7252212449905
 30
0.0
 10
174.8308359086634
 20
448.0591596239775
 30
0.0
 10
176.4968337153626
 20
447.4885182800732
 30
0.0
 10
177.5415971275648
 20
447.2270870732117
 30
0.0
 10
178.0596542367031
 20
447.1001868449023
 30
0.0
  0
ELLIPSE
  5
AB
330
5E
100
AcDbEntity
  8
02636038_GEHÄUSE
  6
Continuous
 62
     7
100
AcDbEllipse
 10
190.0900012976
 20
440.1379006683
 30
0.0
 11
10.05000000000002
 21
0.0
 31
0.0
210
0.0
220
0.0
230
1.0
 40
0.0871557427
 41
0.0
 42
6.283185307179586
  0
ELLIPSE
  5
AC
330
5E
100
AcDbEntity
  8
02636038_GEHÄUSE
  6
Continuous
 62
     7
100
AcDbEllipse
 10
190.0900012976
 20
440.1379006683
 30
0.0
 11
10.75000000000001
 21
0.0
 31
0.0
210
0.0
220
0.0
230
1.0
 40
0.0871557427
 41
0.0
 42
6.283185307179586
  0
ELLIPSE
  5
AD
330
5E
100
AcDbEntity
  8
02636038_GEHÄUSE
  6
Continuous
 62
     7
100
AcDbEllipse
 10
190.0900012976
 20
440.4542349707
 30
0.0
 11
-11.3
 21
0.0
 31
0.0
210
0.0
220
0.0
230
1.0
 40
0.0871557427
 41
3.372534132729952
 42
6.052243828039427
  0
LINE
  5
AE
330
5E
100
AcDbEntity
  8
02636038_GEHÄUSE
  6
Continuous
 62
     7
100
AcDbLine
 10
179.0900012976
 20
440.6796635984
 30
0.0
 11
179.0900012976
 21
440.2087371846
 31
0.0
  0
ELLIPSE
  5
AF
330
5E
100
AcDbEntity
  8
02636038_GEHÄUSE
  6
Continuous
 62
     7
100
AcDbEllipse
 10
190.0900012976
 20
443.1264847626
 30
0.0
 11
11.80000000000012
 21
0.0
 31
0.0
210
0.0
220
0.0
230
1.0
 40
0.0871557427
 41
2.771250021498073
 42
3.511935285681513
  0
LINE
  5
B0
330
5E
100
AcDbEntity
  8
02636038_GEHÄUSE
  6
Continuous
 62
     7
100
AcDbLine
 10
179.0900012976
 20
443.4987122368
 30
0.0
 11
179.0900012976
 21
441.6891923606
 31
0.0
  0
LINE
  5
B1
330
5E
100
AcDbEntity
  8
02636038_GEHÄUSE
  6
Continuous
 62
     7
100
AcDbLine
 10
179.0900012976
 20
441.6891923606
 30
0.0
 11
179.0900012976
 21
440.6796635984
 31
0.0
  0
LINE
  5
B2
330
5E
100
AcDbEntity
  8
02636038_GEHÄUSE
  6
Continuous
 62
     7
100
AcDbLine
 10
201.0900012976
 20
440.2087371846
 30
0.0
 11
201.0900012976
 21
440.6796635984
 31
0.0
  0
ELLIPSE
  5
B3
330
5E
100
AcDbEntity
  8
02636038_GEHÄUSE
  6
Continuous
 62
     7
100
AcDbEllipse
 10
190.0900012976
 20
443.1264847626
 30
0.0
 11
-11.80000000000016
 21
5.204170427930421E-15
 31
0.0
210
0.0
220
0.0
230
1.0
 40
0.0871557427
 41
2.771250021498077
 42
3.511935285681509
  0
LINE
  5
B4
330
5E
100
AcDbEntity
  8
02636038_GEHÄUSE
  6
Continuous
 62
     7
100
AcDbLine
 10
201.0900012976
 20
440.6796635984
 30
0.0
 11
201.0900012976
 21
441.6891923606
 31
0.0
  0
LINE
  5
B5
330
5E
100
AcDbEntity
  8
02636038_GEHÄUSE
  6
Continuous
 62
     7
100
AcDbLine
 10
201.0900012976
 20
441.6891923606
 30
0.0
 11
201.0900012976
 21
443.4987122368
 31
0.0
  0
LINE
  5
B6
330
5E
100
AcDbEntity
  8
02636038_GEHÄUSE
  6
Continuous
 62
     7
100
AcDbLine
 10
179.0900012976
 20
440.2086279209
 30
0.0
 11
179.4641431407
 21
439.9959240322
 31
0.0
  0
LINE
  5
B7
330
5E
100
AcDbEntity
  8
02636038_GEHÄUSE
  6
Continuous
 62
     7
100
AcDbLine
 10
200.7158594545
 20
439.9959240322
 30
0.0
 11
201.0900012976
 21
440.2086279209
 31
0.0
  0
LINE
  5
B8
330
5E
100
AcDbEntity
  8
02636038_GEHÄUSE
  6
Continuous
 62
     7
100
AcDbLine
 10
178.2900012976
 20
447.0672267601
 30
0.0
 11
178.2900012976
 21
443.1264847626
 31
0.0
  0
LINE
  5
B9
330
5E
100
AcDbEntity
  8
02636038_GEHÄUSE
  6
Continuous
 62
     7
100
AcDbLine
 10
201.8900012976
 20
443.1264847626
 30
0.0
 11
201.8900012976
 21
447.0661415054
 31
0.0
  0
ENDBLK
  5
BB
330
5E
100
AcDbEntity
  8
0
100
AcDbBlockEnd
  0
BLOCK
  5
13B
330
BC
100
AcDbEntity
  8
0
100
AcDbBlockBegin
  2
SE1
 70
     0
 10
0.0
 20
0.0
 30
0.0
  3
SE1
  1

  0
LINE
  5
BE
330
BC
100
AcDbEntity
  8
$DDT_AUDIT_GENERATED_(60)
  6
Continuous
 62
     7
100
AcDbLine
 10
307.2813796956
 20
421.2719615725
 30
0.0
 11
372.0258335479
 21
422.4020816713
 31
0.0
  0
LINE
  5
BF
330
BC
100
AcDbEntity
  8
$DDT_AUDIT_GENERATED_(60)
  6
Continuous
 62
     7
100
AcDbLine
 10
307.2813781177
 20
488.7521452866
 30
0.0
 11
307.2813781177
 21
421.2719616103
 31
0.0
  0
LINE
  5
C0
330
BC
100
AcDbEntity
  8
$DDT_AUDIT_GENERATED_(60)
  6
Continuous
 62
     7
100
AcDbLine
 10
378.2813781177
 20
485.5473779511
 30
0.0
 11
378.2813781177
 21
424.4767862233
 31
0.0
  0
LINE
  5
C1
330
BC
100
AcDbEntity
  8
$DDT_AUDIT_GENERATED_(60)
  6
Continuous
 62
     7
100
AcDbLine
 10
372.0258297675
 20
422.4021411113
 30
0.0
 11
372.031530411
 21
422.5653861818
 31
0.0
  0
LINE
  5
C2
330
BC
100
AcDbEntity
  8
$DDT_AUDIT_GENERATED_(60)
  6
Continuous
 62
     7
100
AcDbLine
 10
307.2813781177
 20
488.7520820873
 30
0.0
 11
372.0258314698
 21
487.6219634503
 31
0.0
  0
LINE
  5
C3
330
BC
100
AcDbEntity
  8
$DDT_AUDIT_GENERATED_(60)
  6
Continuous
 62
     7
100
AcDbLine
 10
372.025832512
 20
422.4021410154
 30
0.0
 11
372.0258320048
 21
487.621994099
 31
0.0
  0
SPLINE
  5
C4
330
BC
100
AcDbEntity
  8
$DDT_AUDIT_GENERATED_(60)
  6
Continuous
 62
     7
100
AcDbSpline
210
0.0
220
0.0
230
1.0
 70
     8
 71
     5
 72
    12
 73
     6
 74
     0
 42
0.000000003058862
 43
0.0000000001
 40
0.0
 40
0.0
 40
0.0
 40
0.0
 40
0.0
 40
0.0
 40
1.0
 40
1.0
 40
1.0
 40
1.0
 40
1.0
 40
1.0
 10
378.2813781177455
 20
485.5473779510942
 30
0.0
 10
378.2813781177387
 20
486.1687151647943
 30
0.0
 10
378.0407840462744
 20
486.7905964946443
 30
0.0
 10
377.5551131804515
 20
487.2848187582543
 30
0.0
 10
376.9375255116575
 20
487.5362295117943
 30
0.0
 10
376.3162832110449
 20
487.5471037337429
 30
0.0
  0
ARC
  5
C5
330
BC
100
AcDbEntity
  8
$DDT_AUDIT_GENERATED_(60)
  6
Continuous
 62
     7
100
AcDbCircle
 10
376.2812652828
 20
424.4768385086
 30
0.0
 40
2.000112835665583
100
AcDbArc
 50
271.003198507
 51
359.9985022199
  0
LINE
  5
C6
330
BC
100
AcDbEntity
  8
$DDT_AUDIT_GENERATED_(60)
  6
Continuous
 62
     7
100
AcDbLine
 10
376.316283211
 20
487.5471037337
 30
0.0
 11
376.3162837031
 21
422.4770322516
 31
0.0
  0
SPLINE
  5
C7
330
BC
100
AcDbEntity
  8
$DDT_AUDIT_GENERATED_(60)
  6
Continuous
 62
     7
100
AcDbSpline
210
0.0
220
0.0
230
1.0
 70
     8
 71
     6
 72
    14
 73
     7
 74
     0
 42
0.000000011049665
 43
0.0000000001
 40
0.0
 40
0.0
 40
0.0
 40
0.0
 40
0.0
 40
0.0
 40
0.0
 40
1.0
 40
1.0
 40
1.0
 40
1.0
 40
1.0
 40
1.0
 40
1.0
 10
372.0315304109924
 20
422.5653861817743
 30
0.0
 10
372.0359972258755
 20
422.6932990250543
 30
0.0
 10
372.1182783396795
 20
422.8183166856043
 30
0.0
 10
372.2813781177455
 20
422.8813231228643
 30
0.0
 10
372.4444778958115
 20
422.8183166856043
 30
0.0
 10
372.5267590096154
 20
422.6932990250543
 30
0.0
 10
372.5312258244985
 20
422.5653861817743
 30
0.0
  0
LINE
  5
C8
330
BC
100
AcDbEntity
  8
$DDT_AUDIT_GENERATED_(60)
  6
Continuous
 62
     7
100
AcDbLine
 10
372.0258307805
 20
487.6219940563
 30
0.0
 11
372.031530411
 21
487.4587779926
 31
0.0
  0
LINE
  5
C9
330
BC
100
AcDbEntity
  8
$DDT_AUDIT_GENERATED_(60)
  6
Continuous
 62
     7
100
AcDbLine
 10
372.5366132923
 20
487.6130477204
 30
0.0
 11
376.3162826806
 21
487.5470733459
 31
0.0
  0
LINE
  5
CA
330
BC
100
AcDbEntity
  8
$DDT_AUDIT_GENERATED_(60)
  6
Continuous
 62
     7
100
AcDbLine
 10
372.5366153384
 20
422.4109992329
 30
0.0
 11
376.3162847252
 21
422.4769736923
 31
0.0
  0
LINE
  5
CB
330
BC
100
AcDbEntity
  8
$DDT_AUDIT_GENERATED_(60)
  6
Continuous
 62
     7
100
AcDbLine
 10
372.5366138236
 20
487.6130781633
 30
0.0
 11
372.5366143152
 21
422.4110578471
 31
0.0
  0
LINE
  5
CC
330
BC
100
AcDbEntity
  8
$DDT_AUDIT_GENERATED_(60)
  6
Continuous
 62
     7
100
AcDbLine
 10
372.5312258245
 20
422.5653861818
 30
0.0
 11
372.5366150878
 21
422.4110578741
 31
0.0
  0
SPLINE
  5
CD
330
BC
100
AcDbEntity
  8
$DDT_AUDIT_GENERATED_(60)
  6
Continuous
 62
     7
100
AcDbSpline
210
0.0
220
0.0
230
1.0
 70
     8
 71
     3
 72
    14
 73
    10
 74
     0
 42
0.0000000127146814
 43
0.0000000001
 40
0.0
 40
0.0
 40
0.0
 40
0.0
 40
0.25
 40
0.25
 40
0.5
 40
0.5
 40
0.75
 40
0.75
 40
1.0
 40
1.0
 40
1.0
 40
1.0
 10
372.0315304109885
 20
487.4587779926343
 30
0.0
 10
372.0337638184662
 20
487.3948215710156
 30
0.0
 10
372.0616790826447
 20
487.3321228611459
 30
0.0
 10
372.153747967645
 20
487.2432129724061
 30
0.0
 10
372.2173827118289
 20
487.2175028668807
 30
0.0
 10
372.345373523612
 20
487.2175028668679
 30
0.0
 10
372.4090082678011
 20
487.2432129723805
 30
0.0
 10
372.5010771528192
 20
487.3321228611019
 30
0.0
 10
372.5289924170102
 20
487.394821570966
 30
0.0
 10
372.5312258245005
 20
487.4587779925843
 30
0.0
  0
LINE
  5
CE
330
BC
100
AcDbEntity
  8
$DDT_AUDIT_GENERATED_(60)
  6
Continuous
 62
     7
100
AcDbLine
 10
372.5312258245
 20
487.4587779926
 30
0.0
 11
372.5366141048
 21
487.6130781535
 31
0.0
  0
LINE
  5
CF
330
BC
100
AcDbEntity
  8
$DDT_AUDIT_GENERATED_(75)
  6
Continuous
 62
     7
100
AcDbLine
 10
441.6575223796
 20
384.1065994726
 30
0.0
 11
441.6575224058
 21
366.6538047409
 31
0.0
  0
LINE
  5
D0
330
BC
100
AcDbEntity
  8
$DDT_AUDIT_GENERATED_(75)
  6
Continuous
 62
     7
100
AcDbLine
 10
443.1676324514
 20
384.1065994726
 30
0.0
 11
443.1676324514
 21
372.1565994726
 31
0.0
  0
LINE
  5
D1
330
BC
100
AcDbEntity
  8
$DDT_AUDIT_GENERATED_(75)
  6
Continuous
 62
     7
100
AcDbLine
 10
441.6575223796
 20
449.1765994726
 30
0.0
 11
441.6575223796
 21
384.1065994726
 31
0.0
  0
LINE
  5
D2
330
BC
100
AcDbEntity
  8
$DDT_AUDIT_GENERATED_(75)
  6
Continuous
 62
     7
100
AcDbLine
 10
443.1676324514
 20
384.1065994726
 30
0.0
 11
443.1676324514
 21
449.1765994726
 31
0.0
  0
LINE
  5
D3
330
BC
100
AcDbEntity
  8
$DDT_AUDIT_GENERATED_(75)
  6
Continuous
 62
     7
100
AcDbLine
 10
443.1676324514
 20
449.1765994726
 30
0.0
 11
443.1676324514
 21
461.1265994726
 31
0.0
  0
SPLINE
  5
D4
330
BC
100
AcDbEntity
  8
$DDT_AUDIT_GENERATED_(75)
  6
Continuous
 62
     7
100
AcDbSpline
210
0.0
220
0.0
230
1.0
 70
     8
 71
     3
 72
    26
 73
    22
 74
     0
 42
0.0000000003441743
 43
0.0000000001
 40
0.0944038994334593
 40
0.0944038994334593
 40
0.0944038994334593
 40
0.0944038994334593
 40
0.1100929324875326
 40
0.1751476748159103
 40
0.2402024171443908
 40
0.3052571594728713
 40
0.3377845306370088
 40
0.3703119018012491
 40
0.4353666441297295
 40
0.4678940152939698
 40
0.5004213864581072
 40
0.5329487576223475
 40
0.5654761287865878
 40
0.6305308711150683
 40
0.695585613443446
 40
0.7606403557719266
 40
0.7931677269361668
 40
0.825695098100407
 40
0.8907498404287848
 40
0.9558045827572652
 40
1.0
 40
1.0
 40
1.0
 40
1.0
 10
425.2434199827642
 20
441.00297915624
 30
0.0
 10
425.3634230717738
 20
440.9893865434161
 30
0.0
 10
425.9802453158815
 20
440.9132217927158
 30
0.0
 10
427.0905249083743
 20
440.7104644302851
 30
0.0
 10
428.5609698098686
 20
440.2437450377393
 30
0.0
 10
429.7268774763839
 20
439.658610154096
 30
0.0
 10
430.6032625318564
 20
439.05063589025
 30
0.0
 10
431.4340034428708
 20
438.3420753651052
 30
0.0
 10
432.1854691130682
 20
437.47276028823
 30
0.0
 10
432.834229640275
 20
436.4191542443365
 30
0.0
 10
433.2645125188959
 20
435.5329822462238
 30
0.0
 10
433.6405123958635
 20
434.5620005769127
 30
0.0
 10
434.0751657385132
 20
433.1757904780354
 30
0.0
 10
434.5025663054486
 20
431.3079543239843
 30
0.0
 10
434.8584220984051
 20
428.9672551934144
 30
0.0
 10
435.0484085758081
 20
427.0316374277751
 30
0.0
 10
435.1508735275795
 20
425.5496733209315
 30
0.0
 10
435.225254970072
 20
424.1376345101525
 30
0.0
 10
435.2742738261942
 20
422.5193540815319
 30
0.0
 10
435.2876382883834
 20
420.9645764642188
 30
0.0
 10
435.2876335375291
 20
420.0558533431129
 30
0.0
 10
435.2876324514483
 20
419.6965994969747
 30
0.0
  0
ARC
  5
D5
330
BC
100
AcDbEntity
  8
$DDT_AUDIT_GENERATED_(75)
  6
Continuous
 62
     7
100
AcDbCircle
 10
154.2853921448
 20
446.9127953117
 30
0.0
 40
282.3171627301174
100
AcDbArc
 50
354.46792876
 51
359.6598283782
  0
LINE
  5
D6
330
BC
100
AcDbEntity
  8
$DDT_AUDIT_GENERATED_(75)
  6
Continuous
 62
     7
100
AcDbLine
 10
436.6057551044
 20
449.1766162462
 30
0.0
 11
436.5998202112
 21
445.3706324611
 31
0.0
  0
LINE
  5
D7
330
BC
100
AcDbEntity
  8
$DDT_AUDIT_GENERATED_(75)
  6
Continuous
 62
     7
100
AcDbLine
 10
436.6053926835
 20
449.998667831
 30
0.0
 11
436.6057551045
 21
449.1766162455
 31
0.0
  0
ARC
  5
D8
330
BC
100
AcDbEntity
  8
$DDT_AUDIT_GENERATED_(75)
  6
Continuous
 62
     7
100
AcDbCircle
 10
428.0568151398
 20
458.8892448797
 30
0.0
 40
0.2999999754012603
100
AcDbArc
 50
92.0193515781
 51
166.1903114165
  0
ARC
  5
D9
330
BC
100
AcDbEntity
  8
$DDT_AUDIT_GENERATED_(75)
  6
Continuous
 62
     7
100
AcDbCircle
 10
-7810.547207592
 20
456.3113971906
 30
0.0
 40
8247.154503116772
100
AcDbArc
 50
359.9577266464
 51
0.0422733536
  0
SPLINE
  5
DA
330
BC
100
AcDbEntity
  8
$DDT_AUDIT_GENERATED_(75)
  6
Continuous
 62
     7
100
AcDbSpline
210
0.0
220
0.0
230
1.0
 70
     8
 71
     3
 72
    24
 73
    20
 74
     0
 42
0.000000000991724
 43
0.0000000001
 40
0.0
 40
0.0
 40
0.0
 40
0.0
 40
0.045002030733029
 40
0.1100048037032743
 40
0.1750075766733951
 40
0.2400103496436196
 40
0.3050131226138442
 40
0.3700158955840687
 40
0.4350186685542933
 40
0.4675200550394056
 40
0.5000214415245178
 40
0.5650242144947424
 40
0.630026987464967
 40
0.6950297604350876
 40
0.7600325334053121
 40
0.8250353063755368
 40
0.8900380793457613
 40
0.9550408523159859
 40
1.0
 40
1.0
 40
1.0
 40
1.0
 10
428.0462439318153
 20
459.1890613171147
 30
0.0
 10
428.1879977437354
 20
459.1940586923818
 30
0.0
 10
428.5415477136964
 20
459.2066592159281
 30
0.0
 10
429.1313247746027
 20
459.2288520167499
 30
0.0
 10
429.8247078855516
 20
459.2575132305545
 30
0.0
 10
430.5535754852155
 20
459.2915648594317
 30
0.0
 10
431.3194310196657
 20
459.3316452266851
 30
0.0
 10
432.1202587439906
 20
459.3796912847029
 30
0.0
 10
432.7915602451033
 20
459.4366591148772
 30
0.0
 10
433.312889908833
 20
459.4996585796386
 30
0.0
 10
433.8182436413833
 20
459.5765022313257
 30
0.0
 10
434.40973267731
 20
459.7026739652693
 30
0.0
 10
435.0201646823193
 20
459.9163769128776
 30
0.0
 10
435.4947383209799
 20
460.2070187308317
 30
0.0
 10
435.8383751105275
 20
460.5742999918338
 30
0.0
 10
436.0945711164206
 20
461.0040083772988
 30
0.0
 10
436.2938468099406
 20
461.4866115279627
 30
0.0
 10
436.4531587394848
 20
461.9569999419701
 30
0.0
 10
436.5589601323771
 20
462.2674263866893
 30
0.0
 10
436.6050508043283
 20
462.3962231557047
 30
0.0
  0
LINE
  5
DB
330
BC
100
AcDbEntity
  8
$DDT_AUDIT_GENERATED_(75)
  6
Continuous
 62
     7
100
AcDbLine
 10
435.2876324514
 20
384.1065994726
 30
0.0
 11
435.2876324514
 21
419.696599497
 31
0.0
  0
LINE
  5
DC
330
BC
100
AcDbEntity
  8
$DDT_AUDIT_GENERATED_(75)
  6
Continuous
 62
     7
100
AcDbLine
 10
441.6575223796
 20
449.1765994726
 30
0.0
 11
441.6575224087
 21
466.6293942043
 31
0.0
  0
LINE
  5
DD
330
BC
100
AcDbEntity
  8
$DDT_AUDIT_GENERATED_(75)
  6
Continuous
 62
     7
100
AcDbLine
 10
440.4989661414
 20
366.6335820665
 30
0.0
 11
441.6575224058
 21
366.6538047413
 31
0.0
  0
ARC
  5
DE
330
BC
100
AcDbEntity
  8
$DDT_AUDIT_GENERATED_(75)
  6
Continuous
 62
     7
100
AcDbCircle
 10
440.4640613764
 20
368.6332774576
 30
0.0
 40
2.000000000003667
100
AcDbArc
 50
238.900781184
 51
270.9999986303
  0
SPLINE
  5
DF
330
BC
100
AcDbEntity
  8
$DDT_AUDIT_GENERATED_(75)
  6
Continuous
 62
     7
100
AcDbSpline
210
0.0
220
0.0
230
1.0
 70
     8
 71
     3
 72
    12
 73
     8
 74
     0
 42
0.0000000017784903
 43
0.0000000001
 40
0.0
 40
0.0
 40
0.0
 40
0.0
 40
0.1924075290092311
 40
0.3783286483385337
 40
0.5584749360270527
 40
0.7722232520550611
 40
1.0
 40
1.0
 40
1.0
 40
1.0
 10
441.9055332302847
 20
366.7929294082371
 30
0.0
 10
442.1111044677668
 20
367.1310836825583
 30
0.0
 10
442.4444569209385
 20
367.6962188675393
 30
0.0
 10
442.8552251996738
 20
368.6844766889426
 30
0.0
 10
443.0915881801761
 20
369.7374172959094
 30
0.0
 10
443.1655614129384
 20
370.924353545193
 30
0.0
 10
443.170745838829
 20
371.6881265491766
 30
0.0
 10
443.1676324514507
 20
372.1565994725548
 30
0.0
  0
ARC
  5
E0
330
BC
100
AcDbEntity
  8
$DDT_AUDIT_GENERATED_(75)
  6
Continuous
 62
     7
100
AcDbCircle
 10
441.6522866577
 20
366.9537590494
 30
0.0
 40
0.299999999999661
100
AcDbArc
 50
271.0000049929
 51
327.5815396891
  0
SPLINE
  5
E1
330
BC
100
AcDbEntity
  8
$DDT_AUDIT_GENERATED_(75)
  6
Continuous
 62
     7
100
AcDbSpline
210
0.0
220
0.0
230
1.0
 70
     8
 71
     3
 72
    12
 73
     8
 74
     0
 42
0.0000000017780833
 43
0.0000000001
 40
0.0
 40
0.0
 40
0.0
 40
0.0
 40
0.1944484029970144
 40
0.3776094251188427
 40
0.5569250570076711
 40
0.7739175735865342
 40
1.0
 40
1.0
 40
1.0
 40
1.0
 10
443.1676324514507
 20
461.1265994725547
 30
0.0
 10
443.169400343029
 20
461.5264893272428
 30
0.0
 10
443.1664913027366
 20
462.1800130487145
 30
0.0
 10
443.1176328129771
 20
463.2419434894124
 30
0.0
 10
442.9477006782795
 20
464.3058772093809
 30
0.0
 10
442.5332063979421
 20
465.4282199684226
 30
0.0
 10
442.1460976611867
 20
466.0923908705912
 30
0.0
 10
441.9055328707688
 20
466.490270102975
 30
0.0
  0
ARC
  5
E2
330
BC
100
AcDbEntity
  8
$DDT_AUDIT_GENERATED_(75)
  6
Continuous
 62
     7
100
AcDbCircle
 10
193.9185778301
 20
516.1878357651
 30
0.0
 40
240.7381704617103
100
AcDbArc
 50
343.9268817011
 51
344.1214790618
  0
ARC
  5
E3
330
BC
100
AcDbEntity
  8
$DDT_AUDIT_GENERATED_(75)
  6
Continuous
 62
     7
100
AcDbCircle
 10
155.1395778897
 20
526.7445716006
 30
0.0
 40
280.926048478708
100
AcDbArc
 50
344.1954169804
 51
346.0100666811
  0
LINE
  5
E4
330
BC
100
AcDbEntity
  8
$DDT_AUDIT_GENERATED_(75)
  6
Continuous
 62
     7
100
AcDbLine
 10
427.7653380001
 20
458.9602640309
 30
0.0
 11
427.7655443773
 21
458.9610870254
 31
0.0
  0
LINE
  5
E5
330
BC
100
AcDbEntity
  8
$DDT_AUDIT_GENERATED_(75)
  6
Continuous
 62
     7
100
AcDbLine
 10
427.7574475554
 20
458.9287983872
 30
0.0
 11
427.7321234547
 21
458.8272951483
 31
0.0
  0
SPLINE
  5
E6
330
BC
100
AcDbEntity
  8
$DDT_AUDIT_GENERATED_(75)
  6
Continuous
 62
     7
100
AcDbSpline
210
0.0
220
0.0
230
1.0
 70
     8
 71
     3
 72
    17
 73
    13
 74
     0
 42
0.0000000005454421
 43
0.0000000001
 40
0.0
 40
0.0
 40
0.0
 40
0.0
 40
0.1509217378289899
 40
0.2908196071156509
 40
0.4201908331883863
 40
0.5397716475966041
 40
0.6505755448171108
 40
0.7314685780507758
 40
0.8065189575241519
 40
0.8757416174033233
 40
0.9397452189630586
 40
1.0
 40
1.0
 40
1.0
 40
1.0
 10
435.2876324514483
 20
384.1065994725547
 30
0.0
 10
435.2877080126455
 20
383.0937210543464
 30
0.0
 10
435.292790204428
 20
381.4510481789629
 30
0.0
 10
435.3502128425513
 20
378.838687603914
 30
0.0
 10
435.4889299012299
 20
376.4811667269093
 30
0.0
 10
435.7409479328941
 20
374.2964156609949
 30
0.0
 10
436.1134552891216
 20
372.4314016347728
 30
0.0
 10
436.5842992636169
 20
370.871885257699
 30
0.0
 10
437.1169599398187
 20
369.5995386917336
 30
0.0
 10
437.7550057215076
 20
368.5051022498826
 30
0.0
 10
438.5232735122271
 20
367.5648748213708
 30
0.0
 10
439.0995938364063
 20
367.152433131761
 30
0.0
 10
439.4310180678104
 20
366.9207292035282
 30
0.0
  0
ARC
  5
E7
330
BC
100
AcDbEntity
  8
$DDT_AUDIT_GENERATED_(75)
  6
Continuous
 62
     7
100
AcDbCircle
 10
440.4640613764
 20
464.6499214875
 30
0.0
 40
2.000000000003754
100
AcDbArc
 50
89.0000010829
 51
121.0992160405
  0
LINE
  5
E8
330
BC
100
AcDbEntity
  8
$DDT_AUDIT_GENERATED_(75)
  6
Continuous
 62
     7
100
AcDbLine
 10
441.6575224087
 20
466.6293942037
 30
0.0
 11
440.4989661514
 21
466.6496168784
 31
0.0
  0
ARC
  5
E9
330
BC
100
AcDbEntity
  8
$DDT_AUDIT_GENERATED_(75)
  6
Continuous
 62
     7
100
AcDbCircle
 10
441.6522866577
 20
466.3294398957
 30
0.0
 40
0.2999999999998304
100
AcDbArc
 50
32.4184459319
 51
88.9999944493
  0
SPLINE
  5
EA
330
BC
100
AcDbEntity
  8
$DDT_AUDIT_GENERATED_(75)
  6
Continuous
 62
     7
100
AcDbSpline
210
0.0
220
0.0
230
1.0
 70
     8
 71
     3
 72
    11
 73
     7
 74
     0
 42
0.0000000019957267
 43
0.0000000001
 40
0.0
 40
0.0
 40
0.0
 40
0.0
 40
0.2338121899637262
 40
0.5101752034447997
 40
0.7461059495069448
 40
1.0
 40
1.0
 40
1.0
 40
1.0
 10
439.4148857390069
 20
466.3358249435994
 30
0.0
 10
439.0635864708378
 20
466.0924460443141
 30
0.0
 10
438.4142994801123
 20
465.631556222809
 30
0.0
 10
437.6453569416334
 20
464.6152614237301
 30
0.0
 10
437.0234458461879
 20
463.483402540401
 30
0.0
 10
436.7493557884844
 20
462.777606224586
 30
0.0
 10
436.5861832420983
 20
462.3431631555648
 30
0.0
  0
LINE
  5
EB
330
BC
100
AcDbEntity
  8
$DDT_AUDIT_GENERATED_(80)
  6
Continuous
 62
     7
100
AcDbLine
 10
425.2439779202
 20
472.9097741952
 30
0.0
 11
425.2439779206
 21
472.9033426276
 31
0.0
  0
SPLINE
  5
EC
330
BC
100
AcDbEntity
  8
$DDT_AUDIT_GENERATED_(80)
  6
Continuous
 62
     7
100
AcDbSpline
210
0.0
220
0.0
230
1.0
 70
     8
 71
     3
 72
    24
 73
    20
 74
     0
 42
0.0000000002338151
 43
0.0000000001
 40
0.0404345191738803
 40
0.0404345191738803
 40
0.0404345191738803
 40
0.0404345191738803
 40
0.1250000000000001
 40
0.1250000000000001
 40
0.2500000000000002
 40
0.2500000000000002
 40
0.3750000000000001
 40
0.3750000000000001
 40
0.5000000000000001
 40
0.5000000000000001
 40
0.6250000000000001
 40
0.6250000000000001
 40
0.75
 40
0.75
 40
0.875
 40
0.875
 40
0.9375000000000001
 40
0.9375000000000001
 40
0.9938987628571969
 40
0.9938987628571969
 40
0.9938987628571969
 40
0.9938987628571969
 10
424.9113483331973
 20
475.5029941791596
 30
0.0
 10
424.9113483525963
 20
475.4945648109369
 30
0.0
 10
424.911348372689
 20
475.2469955554618
 30
0.0
 10
424.911348442542
 20
474.0369561545253
 30
0.0
 10
424.9113484398943
 20
472.8227358225265
 30
0.0
 10
424.9113485244093
 20
469.4971783391719
 30
0.0
 10
424.9113485003778
 20
467.4535058316857
 30
0.0
 10
424.9113485726098
 20
462.7521780852418
 30
0.0
 10
424.9113485306751
 20
460.1901804860459
 30
0.0
 10
424.9113485804727
 20
454.8288112337505
 30
0.0
 10
424.9113485259247
 20
452.1385279146747
 30
0.0
 10
424.911348547082
 20
446.9333359544773
 30
0.0
 10
424.9113484870963
 20
444.5243386730097
 30
0.0
 10
424.9113484772918
 20
440.2677719325703
 30
0.0
 10
424.9113484208028
 20
438.5068111102265
 30
0.0
 10
424.9113483909696
 20
436.5118791720305
 30
0.0
 10
424.9111145362443
 20
435.9723151540127
 30
0.0
 10
424.9111131389971
 20
435.1761768228388
 30
0.0
 10
424.911304638323
 20
434.8951232898723
 30
0.0
 10
424.9113420218087
 20
434.7244296567682
 30
0.0
  0
ARC
  5
ED
330
BC
100
AcDbEntity
  8
$DDT_AUDIT_GENERATED_(80)
  6
Continuous
 62
     7
100
AcDbCircle
 10
405.2158368613
 20
437.7818796148
 30
0.0
 40
20.03926317511344
100
AcDbArc
 50
358.090561618
 51
1.1135857179
  0
ARC
  5
EE
330
BC
100
AcDbEntity
  8
$DDT_AUDIT_GENERATED_(80)
  6
Continuous
 62
     7
100
AcDbCircle
 10
-33580.9644389905
 20
462.3115330714
 30
0.0
 40
34006.21206813723
100
AcDbArc
 50
0.0050197514
 51
0.0160823074
  0
ARC
  5
EF
330
BC
100
AcDbEntity
  8
$DDT_AUDIT_GENERATED_(80)
  6
Continuous
 62
     7
100
AcDbCircle
 10
-33581.5441983383
 20
447.7126197983
 30
0.0
 40
34006.79182745075
100
AcDbArc
 50
359.9830022679
 51
0.0406289185
  0
ARC
  5
F0
330
BC
100
AcDbEntity
  8
$DDT_AUDIT_GENERATED_(80)
  6
Continuous
 62
     7
100
AcDbCircle
 10
405.2156139121
 20
472.2422809201
 30
0.0
 40
20.03948613058436
100
AcDbArc
 50
355.9870827139
 51
1.9094278459
  0
ARC
  5
F1
330
BC
100
AcDbEntity
  8
$DDT_AUDIT_GENERATED_(80)
  6
Continuous
 62
     7
100
AcDbCircle
 10
393.0495033726
 20
440.104033346
 30
0.0
 40
32.34552786261593
100
AcDbArc
 50
350.0496233625
 51
354.4606139129
  0
ARC
  5
F2
330
BC
100
AcDbEntity
  8
$DDT_AUDIT_GENERATED_(80)
  6
Continuous
 62
     7
100
AcDbCircle
 10
393.5113865768
 20
469.8093641836
 30
0.0
 40
31.88369750787528
100
AcDbArc
 50
5.5803686653
 51
10.0233675363
  0
ARC
  5
F3
330
BC
100
AcDbEntity
  8
$DDT_AUDIT_GENERATED_(80)
  6
Continuous
 62
     7
100
AcDbCircle
 10
424.6251868814
 20
434.566919222
 30
0.0
 40
0.2902071431275105
100
AcDbArc
 50
312.1590188482
 51
354.0856244333
  0
SPLINE
  5
F4
330
BC
100
AcDbEntity
  8
$DDT_AUDIT_GENERATED_(80)
  6
Continuous
 62
     7
100
AcDbSpline
210
0.0
220
0.0
230
1.0
 70
     8
 71
     3
 72
    12
 73
     8
 74
     0
 42
0.0000000313148722
 43
0.0000000001
 40
0.0
 40
0.0
 40
0.0
 40
0.0
 40
0.2389166082126191
 40
0.3186895518961103
 40
0.3893137632487293
 40
0.5019946011299744
 40
0.5707838708478367
 40
0.5707838708478367
 40
0.5707838708478367
 40
0.5707838708478367
 10
424.9136505346284
 20
475.4876478208053
 30
0.0
 10
424.9143301016965
 20
475.4888938507347
 30
0.0
 10
424.9137625973131
 20
475.4935629229429
 30
0.0
 10
424.9065335934673
 20
475.5286458548715
 30
0.0
 10
424.8938767843409
 20
475.568515335688
 30
0.0
 10
424.8715569804067
 20
475.6121635606165
 30
0.0
 10
424.8497057774421
 20
475.6406387089613
 30
0.0
 10
424.8407134982635
 20
475.6508183755674
 30
0.0
  0
ARC
  5
F5
330
BC
100
AcDbEntity
  8
$DDT_AUDIT_GENERATED_(84)
  6
Continuous
 62
     7
100
AcDbCircle
 10
2777.2360333667
 20
455.0120874004
 30
0.0
 40
2352.512746185422
100
AcDbArc
 50
179.4858187324
 51
180.5141815578
  0
ARC
  5
F6
330
BC
100
AcDbEntity
  8
$DDT_AUDIT_GENERATED_(84)
  6
Continuous
 62
     7
100
AcDbCircle
 10
-3788.5945106664
 20
455.0120483939
 30
0.0
 40
4210.722711407305
100
AcDbArc
 50
359.6482585642
 51
0.3517423706
  0
LINE
  5
F7
330
BC
100
AcDbEntity
  8
$DDT_AUDIT_GENERATED_(84)
  6
Continuous
 62
     7
100
AcDbLine
 10
378.2813781177
 20
428.7804833188
 30
0.0
 11
422.0489774811
 21
429.1624177775
 31
0.0
  0
LINE
  5
F8
330
BC
100
AcDbEntity
  8
$DDT_AUDIT_GENERATED_(84)
  6
Continuous
 62
     7
100
AcDbLine
 10
422.0489609319
 20
480.8617465413
 30
0.0
 11
378.2813781177
 21
481.2436808556
 31
0.0
  0
ARC
  5
F9
330
BC
100
AcDbEntity
  8
$DDT_AUDIT_GENERATED_(84)
  6
Continuous
 62
     7
100
AcDbCircle
 10
389.9135719682
 20
441.3035985044
 30
0.0
 40
35.68082747261674
100
AcDbArc
 50
342.4030467383
 51
348.0688760666
  0
ARC
  5
FA
330
BC
100
AcDbEntity
  8
$DDT_AUDIT_GENERATED_(84)
  6
Continuous
 62
     7
100
AcDbCircle
 10
389.9135719682
 20
468.72056567
 30
0.0
 40
35.68082747259685
100
AcDbArc
 50
11.9311239334
 51
17.5969532617
  0
SPLINE
  5
FB
330
BC
100
AcDbEntity
  8
$DDT_AUDIT_GENERATED_(84)
  6
Continuous
 62
     7
100
AcDbSpline
210
0.0
220
0.0
230
1.0
 70
     8
 71
     3
 72
     9
 73
     5
 74
     0
 42
0.0000000662147642
 43
0.0000000001
 40
0.0
 40
0.0
 40
0.0
 40
0.0
 40
0.5266187495692071
 40
0.757558682010554
 40
0.757558682010554
 40
0.757558682010554
 40
0.757558682010554
 10
424.821194711321
 20
475.9402048933355
 30
0.0
 10
424.8212728598903
 20
475.9841925488907
 30
0.0
 10
424.8212756045414
 20
476.0295648612449
 30
0.0
 10
424.821480742197
 20
476.0522864558299
 30
0.0
 10
424.8214369759054
 20
476.0499600952831
 30
0.0
  0
ARC
  5
FC
330
BC
100
AcDbEntity
  8
$DDT_AUDIT_GENERATED_(84)
  6
Continuous
 62
     7
100
AcDbCircle
 10
422.0474911961
 20
478.8704420828
 30
0.0
 40
1.971586314815405
100
AcDbArc
 50
16.9765106891
 51
89.9620916885
  0
ARC
  5
FD
330
BC
100
AcDbEntity
  8
$DDT_AUDIT_GENERATED_(84)
  6
Continuous
 62
     7
100
AcDbCircle
 10
422.0397545728
 20
431.165212159
 30
0.0
 40
1.981090314441509
100
AcDbArc
 50
270.256611753
 51
343.0415192731
  0
ARC
  5
FF
330
BC
100
AcDbEntity
  8
$DDT_AUDIT_GENERATED_(FE)
  6
Continuous
 62
     7
100
AcDbCircle
 10
407.2875486586
 20
455.4117562531
 30
0.0
 40
20.5
100
AcDbArc
 50
7.6684111801
 51
28.7989675917
  0
LINE
  5
101
330
BC
100
AcDbEntity
  8
$DDT_AUDIT_GENERATED_(100)
  6
Continuous
 62
     7
100
AcDbLine
 10
444.6456336981
 20
450.2980291945
 30
0.0
 11
444.6625789828
 21
449.2649582534
 31
0.0
  0
LINE
  5
102
330
BC
100
AcDbEntity
  8
$DDT_AUDIT_GENERATED_(100)
  6
Continuous
 62
     7
100
AcDbLine
 10
444.6076652866
 20
451.1900907105
 30
0.0
 11
444.6371164935
 21
450.549614899
 31
0.0
  0
LINE
  5
103
330
BC
100
AcDbEntity
  8
$DDT_AUDIT_GENERATED_(100)
  6
Continuous
 62
     7
100
AcDbLine
 10
444.5479216955
 20
452.0833692226
 30
0.0
 11
444.5930173113
 21
451.4420686783
 31
0.0
  0
LINE
  5
104
330
BC
100
AcDbEntity
  8
$DDT_AUDIT_GENERATED_(100)
  6
Continuous
 62
     7
100
AcDbLine
 10
444.6625789828
 20
449.2649582534
 30
0.0
 11
444.6626822333
 21
449.1765994726
 31
0.0
  0
LINE
  5
105
330
BC
100
AcDbEntity
  8
$DDT_AUDIT_GENERATED_(100)
  6
Continuous
 62
     7
100
AcDbLine
 10
444.6371164935
 20
450.549614899
 30
0.0
 11
444.6456336981
 21
450.2980291945
 31
0.0
  0
LINE
  5
106
330
BC
100
AcDbEntity
  8
$DDT_AUDIT_GENERATED_(100)
  6
Continuous
 62
     7
100
AcDbLine
 10
444.5930173113
 20
451.4420686783
 30
0.0
 11
444.6076652866
 21
451.1900907105
 31
0.0
  0
LINE
  5
107
330
BC
100
AcDbEntity
  8
$DDT_AUDIT_GENERATED_(100)
  6
Continuous
 62
     7
100
AcDbLine
 10
444.5271585533
 20
452.3349605213
 30
0.0
 11
444.5479216955
 21
452.0833692226
 31
0.0
  0
SPLINE
  5
108
330
BC
100
AcDbEntity
  8
$DDT_AUDIT_GENERATED_(100)
  6
Continuous
 62
     7
100
AcDbSpline
210
0.0
220
0.0
230
1.0
 70
     8
 71
     3
 72
     8
 73
     4
 74
     0
 42
0.0000000014055845
 43
0.0000000001
 40
0.0
 40
0.0
 40
0.0
 40
0.0
 40
1.0
 40
1.0
 40
1.0
 40
1.0
 10
443.2403614648202
 20
459.3094510609187
 30
0.0
 10
443.894355833314
 20
457.0334800594373
 30
0.0
 10
444.3243427262607
 20
454.6939996117472
 30
0.0
 10
444.5271585533113
 20
452.3349605212808
 30
0.0
  0
ARC
  5
109
330
BC
100
AcDbEntity
  8
$DDT_AUDIT_GENERATED_(100)
  6
Continuous
 62
     7
100
AcDbCircle
 10
442.9520289931
 20
459.2265994726
 30
0.0
 40
0.2999999998523833
100
AcDbArc
 50
16.0318675667
 51
43.2702226688
  0
SPLINE
  5
10A
330
BC
100
AcDbEntity
  8
$DDT_AUDIT_GENERATED_(100)
  6
Continuous
 62
     7
100
AcDbSpline
210
0.0
220
0.0
230
1.0
 70
     8
 71
     3
 72
     8
 73
     4
 74
     0
 42
0.0000000013027423
 43
0.0000000001
 40
0.0
 40
0.0
 40
0.0
 40
0.0
 40
1.0
 40
1.0
 40
1.0
 40
1.0
 10
443.3035854578893
 20
439.2664591181153
 30
0.0
 10
443.9932812528854
 20
441.7259095401623
 30
0.0
 10
444.4222149045124
 20
444.257589369826
 30
0.0
 10
444.5864158365266
 20
446.8063365928249
 30
0.0
  0
ARC
  5
10B
330
BC
100
AcDbEntity
  8
$DDT_AUDIT_GENERATED_(100)
  6
Continuous
 62
     7
100
AcDbCircle
 10
443.1110140086
 20
439.3204613124
 30
0.0
 40
0.2000000001982524
100
AcDbArc
 50
286.5295045978
 51
344.3350802883
  0
SPLINE
  5
10C
330
BC
100
AcDbEntity
  8
$DDT_AUDIT_GENERATED_(100)
  6
Continuous
 62
     7
100
AcDbSpline
210
0.0
220
0.0
230
1.0
 70
     8
 71
     3
 72
     8
 73
     4
 74
     0
 42
0.000000004216321
 43
0.0000000001
 40
0.0
 40
0.0
 40
0.0
 40
0.0
 40
1.0
 40
1.0
 40
1.0
 40
1.0
 10
444.5864158365266
 20
446.8063365928249
 30
0.0
 10
444.6372340885385
 20
447.5951438005808
 30
0.0
 10
444.6626954596572
 20
448.3855857736223
 30
0.0
 10
444.6626822428881
 20
449.1760273061052
 30
0.0
  0
ARC
  5
10D
330
BC
100
AcDbEntity
  8
$DDT_AUDIT_GENERATED_(100)
  6
Continuous
 62
     7
100
AcDbCircle
 10
442.9808399741
 20
439.4329059871
 30
0.0
 40
0.3032562924099154
100
AcDbArc
 50
308.1853731268
 51
316.2760305981
  0
LINE
  5
10E
330
BC
100
AcDbEntity
  8
$DDT_AUDIT_GENERATED_(8A)
  6
Continuous
 62
     7
100
AcDbLine
 10
351.2813781177
 20
419.2120820872
 30
0.0
 11
333.2813781177
 21
419.2120820872
 31
0.0
  0
LINE
  5
10F
330
BC
100
AcDbEntity
  8
$DDT_AUDIT_GENERATED_(8A)
  6
Continuous
 62
     7
100
AcDbLine
 10
352.7613781177
 20
417.7320820872
 30
0.0
 11
331.8013781177
 21
417.7320820872
 31
0.0
  0
LINE
  5
110
330
BC
100
AcDbEntity
  8
$DDT_AUDIT_GENERATED_(8A)
  6
Continuous
 62
     7
100
AcDbLine
 10
351.5613781177
 20
410.3120820872
 30
0.0
 11
333.0013781177
 21
410.3120820872
 31
0.0
  0
LINE
  5
111
330
BC
100
AcDbEntity
  8
$DDT_AUDIT_GENERATED_(8A)
  6
Continuous
 62
     7
100
AcDbLine
 10
352.7613781177
 20
411.5120820872
 30
0.0
 11
331.8013781177
 21
411.5120820872
 31
0.0
  0
LINE
  5
112
330
BC
100
AcDbEntity
  8
$DDT_AUDIT_GENERATED_(8A)
  6
Continuous
 62
     7
100
AcDbLine
 10
331.8013781177
 20
417.7320820872
 30
0.0
 11
331.8013781177
 21
411.5120820872
 31
0.0
  0
LINE
  5
113
330
BC
100
AcDbEntity
  8
$DDT_AUDIT_GENERATED_(8A)
  6
Continuous
 62
     7
100
AcDbLine
 10
352.7613781177
 20
411.5120820872
 30
0.0
 11
352.7613781177
 21
417.7320820872
 31
0.0
  0
LINE
  5
114
330
BC
100
AcDbEntity
  8
$DDT_AUDIT_GENERATED_(8A)
  6
Continuous
 62
     7
100
AcDbLine
 10
333.2813781177
 20
421.7257938166
 30
0.0
 11
333.2813781177
 21
419.2120820872
 31
0.0
  0
LINE
  5
115
330
BC
100
AcDbEntity
  8
$DDT_AUDIT_GENERATED_(8A)
  6
Continuous
 62
     7
100
AcDbLine
 10
351.2813781177
 20
419.2120820872
 30
0.0
 11
351.2813781177
 21
422.0399853893
 31
0.0
  0
LINE
  5
116
330
BC
100
AcDbEntity
  8
$DDT_AUDIT_GENERATED_(8A)
  6
Continuous
 62
     7
100
AcDbLine
 10
352.7613781177
 20
417.7320820872
 30
0.0
 11
351.2813781177
 21
419.2120820872
 31
0.0
  0
LINE
  5
117
330
BC
100
AcDbEntity
  8
$DDT_AUDIT_GENERATED_(8A)
  6
Continuous
 62
     7
100
AcDbLine
 10
333.2813781177
 20
419.2120820872
 30
0.0
 11
331.8013781177
 21
417.7320820872
 31
0.0
  0
LINE
  5
118
330
BC
100
AcDbEntity
  8
$DDT_AUDIT_GENERATED_(8A)
  6
Continuous
 62
     7
100
AcDbLine
 10
331.8013781177
 20
411.5120820872
 30
0.0
 11
333.0013781177
 21
410.3120820872
 31
0.0
  0
LINE
  5
119
330
BC
100
AcDbEntity
  8
$DDT_AUDIT_GENERATED_(8A)
  6
Continuous
 62
     7
100
AcDbLine
 10
351.5613781177
 20
410.3120820872
 30
0.0
 11
352.7613781177
 21
411.5120820872
 31
0.0
  0
LINE
  5
11A
330
BC
100
AcDbEntity
  8
$DDT_AUDIT_GENERATED_(8A)
  6
Continuous
 62
     7
100
AcDbLine
 10
351.5963781177
 20
418.8970820872
 30
0.0
 11
351.5963781177
 21
410.3470820872
 31
0.0
  0
LINE
  5
11B
330
BC
100
AcDbEntity
  8
$DDT_AUDIT_GENERATED_(8A)
  6
Continuous
 62
     7
100
AcDbLine
 10
332.9663781177
 20
418.8970820872
 30
0.0
 11
332.9663781177
 21
410.3470820872
 31
0.0
  0
LINE
  5
11C
330
BC
100
AcDbEntity
  8
$DDT_AUDIT_GENERATED_(99)
  6
Continuous
 62
     7
100
AcDbLine
 10
463.2602686637
 20
462.708537879
 30
0.0
 11
480.1225468888
 21
462.708537879
 31
0.0
  0
LINE
  5
11D
330
BC
100
AcDbEntity
  8
$DDT_AUDIT_GENERATED_(99)
  6
Continuous
 62
     7
100
AcDbLine
 10
463.2602684809
 20
461.357728268
 30
0.0
 11
482.8454174794
 21
461.3577292243
 31
0.0
  0
ARC
  5
11E
330
BC
100
AcDbEntity
  8
$DDT_AUDIT_GENERATED_(99)
  6
Continuous
 62
     7
100
AcDbCircle
 10
538.3522269924
 20
4181.2688657991
 30
0.0
 40
3734.912374029374
100
AcDbArc
 50
268.8479670813
 51
269.0219265688
  0
LINE
  5
11F
330
BC
100
AcDbEntity
  8
$DDT_AUDIT_GENERATED_(99)
  6
Continuous
 62
     7
100
AcDbLine
 10
450.1088334838
 20
445.7085389937
 30
0.0
 11
444.4774147657
 21
445.7085375073
 31
0.0
  0
ARC
  5
120
330
BC
100
AcDbEntity
  8
$DDT_AUDIT_GENERATED_(99)
  6
Continuous
 62
     7
100
AcDbCircle
 10
462.5697871085
 20
391.2393157866
 30
0.0
 40
55.87639610802777
100
AcDbArc
 50
89.291957115
 51
102.8858429238
  0
LINE
  5
121
330
BC
100
AcDbEntity
  8
$DDT_AUDIT_GENERATED_(99)
  6
Continuous
 62
     7
100
AcDbLine
 10
426.4383019803
 20
462.708537879
 30
0.0
 11
436.7361190229
 21
462.708537879
 31
0.0
  0
LINE
  5
122
330
BC
100
AcDbEntity
  8
$DDT_AUDIT_GENERATED_(99)
  6
Continuous
 62
     7
100
AcDbLine
 10
443.1295879704
 20
462.708537879
 30
0.0
 11
463.2602686719
 21
462.708537879
 31
0.0
  0
LINE
  5
123
330
BC
100
AcDbEntity
  8
$DDT_AUDIT_GENERATED_(99)
  6
Continuous
 62
     7
100
AcDbLine
 10
426.8554779524
 20
461.3577144011
 30
0.0
 11
436.2280179854
 21
461.3577197049
 31
0.0
  0
LINE
  5
124
330
BC
100
AcDbEntity
  8
$DDT_AUDIT_GENERATED_(99)
  6
Continuous
 62
     7
100
AcDbLine
 10
443.1656740151
 20
461.3577236309
 30
0.0
 11
463.2602684809
 21
461.3577350023
 31
0.0
  0
ARC
  5
125
330
BC
100
AcDbEntity
  8
$DDT_AUDIT_GENERATED_(99)
  6
Continuous
 62
     7
100
AcDbCircle
 10
478.7004657628
 20
456.4223055668
 30
0.0
 40
6.445078076486508
100
AcDbArc
 50
49.9752146169
 51
77.2530175877
  0
SPLINE
  5
126
330
BC
100
AcDbEntity
  8
$DDT_AUDIT_GENERATED_(99)
  6
Continuous
 62
     7
100
AcDbSpline
210
0.0
220
0.0
230
1.0
 70
     8
 71
     3
 72
    10
 73
     6
 74
     0
 42
0.0000000012457827
 43
0.0000000001
 40
0.0
 40
0.0
 40
0.0
 40
0.0
 40
0.3329209227468403
 40
0.6661245089514508
 40
1.0
 40
1.0
 40
1.0
 40
1.0
 10
484.0977100771598
 20
453.4921006549513
 30
0.0
 10
484.1000342848955
 20
454.4697023941266
 30
0.0
 10
484.0887409649814
 20
456.1093285871204
 30
0.0
 10
483.6509707512979
 20
458.8622041918489
 30
0.0
 10
483.1520035437928
 20
460.4264913484885
 30
0.0
 10
482.8454175609396
 20
461.3577292242523
 30
0.0
  0
SPLINE
  5
127
330
BC
100
AcDbEntity
  8
$DDT_AUDIT_GENERATED_(99)
  6
Continuous
 62
     7
100
AcDbSpline
210
0.0
220
0.0
230
1.0
 70
     8
 71
     3
 72
    18
 73
    14
 74
     0
 42
0.0000000008044267
 43
0.0000000001
 40
0.0
 40
0.0
 40
0.0
 40
0.0
 40
0.1492974322786318
 40
0.2928529848174164
 40
0.4196448221376514
 40
0.5299038603689704
 40
0.6244484335192607
 40
0.7046556174238662
 40
0.756533711271814
 40
0.8023336372929746
 40
0.8795481676849933
 40
0.9438813894984482
 40
1.0
 40
1.0
 40
1.0
 40
1.0
 10
474.5972907214663
 20
446.9039290936289
 30
0.0
 10
475.2577417077843
 20
447.0609506373646
 30
0.0
 10
476.3476868390849
 20
447.3261843588421
 30
0.0
 10
478.0351006658452
 20
447.8606239514902
 30
0.0
 10
479.4947288388645
 20
448.4301234449273
 30
0.0
 10
480.7323526761705
 20
449.0270086535172
 30
0.0
 10
481.7433040966949
 20
449.6349691602503
 30
0.0
 10
482.4900465285715
 20
450.2049012955052
 30
0.0
 10
483.0185379061775
 20
450.7180759873402
 30
0.0
 10
483.4780468688052
 20
451.2785362457424
 30
0.0
 10
483.8602388219209
 20
451.9579077810353
 30
0.0
 10
484.0625947291801
 20
452.7742738950337
 30
0.0
 10
484.0879994028386
 20
453.2371123453206
 30
0.0
 10
484.097709995653
 20
453.4921006549513
 30
0.0
  0
LINE
  5
128
330
BC
100
AcDbEntity
  8
02636038_GEHÄUSE
  6
Continuous
 62
     7
100
AcDbLine
 10
452.1839011913
 20
439.2009764338
 30
0.0
 11
473.6020872003
 21
441.0748249029
 31
0.0
  0
SPLINE
  5
129
330
BC
100
AcDbEntity
  8
02636038_GEHÄUSE
  6
Continuous
 62
     7
100
AcDbSpline
210
0.0
220
0.0
230
1.0
 70
     8
 71
     3
 72
    10
 73
     6
 74
     0
 42
0.0000000019260148
 43
0.0000000001
 40
0.0
 40
0.0
 40
0.0
 40
0.0
 40
0.5
 40
0.5
 40
1.0
 40
1.0
 40
1.0
 40
1.0
 10
465.4419795352894
 20
440.6796635984026
 30
0.0
 10
464.5931675569443
 20
440.4910491845218
 30
0.0
 10
463.7395230916674
 20
440.3568614166141
 30
0.0
 10
462.0217508773011
 20
440.2065555175643
 30
0.0
 10
461.1576229869975
 20
440.1904389768694
 30
0.0
 10
460.2886575256238
 20
440.2288063430582
 30
0.0
  0
LINE
  5
12A
330
BC
100
AcDbEntity
  8
02636038_GEHÄUSE
  6
Continuous
 62
     7
100
AcDbLine
 10
474.5449368806
 20
442.3454026508
 30
0.0
 11
467.0444189415
 21
441.6891923606
 31
0.0
  0
LINE
  5
12B
330
BC
100
AcDbEntity
  8
02636038_GEHÄUSE
  6
Continuous
 62
     7
100
AcDbLine
 10
466.8861064659
 20
443.4987122368
 30
0.0
 11
458.3769474692
 21
442.7542572884
 31
0.0
  0
LINE
  5
12C
330
BC
100
AcDbEntity
  8
02636038_GEHÄUSE
  6
Continuous
 62
     7
100
AcDbLine
 10
466.8861064659
 20
443.4987122368
 30
0.0
 11
467.0444189415
 21
441.6891923606
 31
0.0
  0
SPLINE
  5
12D
330
BC
100
AcDbEntity
  8
02636038_GEHÄUSE
  6
Continuous
 62
     7
100
AcDbSpline
210
0.0
220
0.0
230
1.0
 70
     8
 71
     3
 72
    14
 73
    10
 74
     0
 42
0.0000000049321089
 43
0.0000000001
 40
0.0
 40
0.0
 40
0.0
 40
0.0
 40
0.1250000000000004
 40
0.1250000000000004
 40
0.2500000000000009
 40
0.2500000000000009
 40
0.5000000000000008
 40
0.5000000000000008
 40
1.0
 40
1.0
 40
1.0
 40
1.0
 10
467.0444189414652
 20
441.6891923605655
 30
0.0
 10
467.0517610544431
 20
441.6052716252156
 30
0.0
 10
467.0270848780794
 20
441.5186540945826
 30
0.0
 10
466.9437837141081
 20
441.3716365724554
 30
0.0
 10
466.8860405978694
 20
441.3073438721931
 30
0.0
 10
466.6976715525776
 20
441.1391655500961
 30
0.0
 10
466.5484988613751
 20
441.0544371553505
 30
0.0
 10
466.0944602480457
 20
440.8426871945924
 30
0.0
 10
465.7686884246235
 20
440.7522615438175
 30
0.0
 10
465.4419795352894
 20
440.6796635984026
 30
0.0
  0
SPLINE
  5
12E
330
BC
100
AcDbEntity
  8
02636038_GEHÄUSE
  6
Continuous
 62
     7
100
AcDbSpline
210
0.0
220
0.0
230
1.0
 70
     8
 71
     3
 72
    18
 73
    14
 74
     0
 42
0.0000000049401632
 43
0.0000000001
 40
0.0
 40
0.0
 40
0.0
 40
0.0
 40
0.2499999999999998
 40
0.2499999999999998
 40
0.4999999999999997
 40
0.4999999999999997
 40
0.6249999999999992
 40
0.6249999999999992
 40
0.7499999999999989
 40
0.7499999999999989
 40
0.8749999999999994
 40
0.8749999999999994
 40
1.0
 40
1.0
 40
1.0
 40
1.0
 10
460.2886575256238
 20
440.2288063430582
 30
0.0
 10
460.1209814394159
 20
440.2362097325902
 30
0.0
 10
459.9536991836265
 20
440.2487521084674
 30
0.0
 10
459.6204177323055
 20
440.2905791656282
 30
0.0
 10
459.4544799603369
 20
440.3196803001028
 30
0.0
 10
459.2124147816314
 20
440.3847602325449
 30
0.0
 10
459.1327358086605
 20
440.4100807496721
 30
0.0
 10
458.9764419124787
 20
440.4717320090005
 30
0.0
 10
458.8993917296269
 20
440.5082917421259
 30
0.0
 10
458.7571419057333
 20
440.596528470112
 30
0.0
 10
458.6899363428765
 20
440.6489798792934
 30
0.0
 10
458.5816041969313
 20
440.7801959768843
 30
0.0
 10
458.542733635472
 20
440.8593127373759
 30
0.0
 10
458.5352599448377
 20
440.9447374122208
 30
0.0
  0
LINE
  5
12F
330
BC
100
AcDbEntity
  8
02636038_GEHÄUSE
  6
Continuous
 62
     7
100
AcDbLine
 10
458.5352599448
 20
440.9447374122
 30
0.0
 11
458.3769474692
 21
442.7542572884
 31
0.0
  0
LINE
  5
130
330
BC
100
AcDbEntity
  8
02636038_GEHÄUSE
  6
Continuous
 62
     7
100
AcDbLine
 10
458.5352599448
 20
440.9447374122
 30
0.0
 11
451.0347420057
 21
440.288527122
 31
0.0
  0
LINE
  5
131
330
BC
100
AcDbEntity
  8
02636038_GEHÄUSE
  6
Continuous
 62
     7
100
AcDbLine
 10
451.608318442
 20
439.4693750777
 30
0.0
 11
452.1839011913
 21
439.2009764338
 31
0.0
  0
LINE
  5
132
330
BC
100
AcDbEntity
  8
02636038_GEHÄUSE
  6
Continuous
 62
     7
100
AcDbLine
 10
473.6020872003
 20
441.0748249029
 30
0.0
 11
474.1223186189
 21
441.4390948638
 31
0.0
  0
ARC
  5
133
330
BC
100
AcDbEntity
  8
02636038_GEHÄUSE
  6
Continuous
 62
     7
100
AcDbCircle
 10
452.0309367038
 20
440.3756828647
 30
0.0
 40
0.9999999999999987
100
AcDbArc
 50
185.0
 51
245.0
  0
ARC
  5
134
330
BC
100
AcDbEntity
  8
02636038_GEHÄUSE
  6
Continuous
 62
     7
100
AcDbCircle
 10
473.5487421825
 20
442.2582469081
 30
0.0
 40
1.000000000000001
100
AcDbArc
 50
305.0
 51
5.0
  0
LINE
  5
135
330
BC
100
AcDbEntity
  8
02636038_GEHÄUSE
  6
Continuous
 62
     7
100
AcDbLine
 10
450.5523914858
 20
445.8018187929
 30
0.0
 11
451.0347420057
 21
440.288527122
 31
0.0
  0
LINE
  5
136
330
BC
100
AcDbEntity
  8
02636038_GEHÄUSE
  6
Continuous
 62
     7
100
AcDbLine
 10
474.5449368806
 20
442.3454026508
 30
0.0
 11
474.1457219324
 21
446.908450389
 31
0.0
  0
LINE
  5
138
330
BC
100
AcDbEntity
  8
$DDT_AUDIT_GENERATED_(137)
  6
Continuous
 62
     7
100
AcDbLine
 10
453.9621042101
 20
438.9550211044
 30
0.0
 11
471.8936087757
 21
440.5238244738
 31
0.0
  0
LINE
  5
139
330
BC
100
AcDbEntity
  8
$DDT_AUDIT_GENERATED_(137)
  6
Continuous
 62
     7
100
AcDbLine
 10
453.927241913
 20
439.3534989836
 30
0.0
 11
453.9621042101
 21
438.9550211044
 31
0.0
  0
LINE
  5
13A
330
BC
100
AcDbEntity
  8
$DDT_AUDIT_GENERATED_(137)
  6
Continuous
 62
     7
100
AcDbLine
 10
471.8936087757
 20
440.5238244738
 30
0.0
 11
471.8587464786
 21
440.922302353
 31
0.0
  0
ENDBLK
  5
13C
330
BC
100
AcDbEntity
  8
0
100
AcDbBlockEnd
  0
BLOCK
  5
1B6
330
13D
100
AcDbEntity
  8
0
100
AcDbBlockBegin
  2
SE2
 70
     0
 10
0.0
 20
0.0
 30
0.0
  3
SE2
  1

  0
LINE
  5
13F
330
13D
100
AcDbEntity
  8
$DDT_AUDIT_GENERATED_(60)
  6
Continuous
 62
     7
100
AcDbLine
 10
190.0900012978
 20
283.1784664184
 30
0.0
 11
223.8300023464
 21
283.1784664184
 31
0.0
  0
LINE
  5
140
330
13D
100
AcDbEntity
  8
$DDT_AUDIT_GENERATED_(60)
  6
Continuous
 62
     7
100
AcDbLine
 10
40.0900012974
 20
283.1784664184
 30
0.0
 11
6.3500002488
 21
283.1784664184
 31
0.0
  0
LINE
  5
141
330
13D
100
AcDbEntity
  8
$DDT_AUDIT_GENERATED_(60)
  6
Continuous
 62
     7
100
AcDbLine
 10
190.0900012978
 20
283.1784664184
 30
0.0
 11
40.0900012975
 21
283.1784664184
 31
0.0
  0
LINE
  5
142
330
13D
100
AcDbEntity
  8
$DDT_AUDIT_GENERATED_(60)
  6
Continuous
 62
     7
100
AcDbLine
 10
190.0900012949
 20
212.1784664184
 30
0.0
 11
220.6254986304
 21
212.1784664184
 31
0.0
  0
LINE
  5
143
330
13D
100
AcDbEntity
  8
$DDT_AUDIT_GENERATED_(60)
  6
Continuous
 62
     7
100
AcDbLine
 10
190.0900014317
 20
212.1784664184
 30
0.0
 11
40.0900012976
 21
212.1784664184
 31
0.0
  0
LINE
  5
144
330
13D
100
AcDbEntity
  8
$DDT_AUDIT_GENERATED_(60)
  6
Continuous
 62
     7
100
AcDbLine
 10
40.0900012976
 20
212.1784664184
 30
0.0
 11
9.5545039569
 21
212.1784664184
 31
0.0
  0
LINE
  5
145
330
13D
100
AcDbEntity
  8
$DDT_AUDIT_GENERATED_(60)
  6
Continuous
 62
     7
100
AcDbLine
 10
190.0900012977
 20
217.9232307125
 30
0.0
 11
222.690968004
 21
217.9232299395
 31
0.0
  0
LINE
  5
146
330
13D
100
AcDbEntity
  8
$DDT_AUDIT_GENERATED_(60)
  6
Continuous
 62
     7
100
AcDbLine
 10
190.0900012978
 20
217.9232314939
 30
0.0
 11
40.0900012975
 21
217.9232314939
 31
0.0
  0
LINE
  5
147
330
13D
100
AcDbEntity
  8
$DDT_AUDIT_GENERATED_(60)
  6
Continuous
 62
     7
100
AcDbLine
 10
40.0900012975
 20
217.9232307125
 30
0.0
 11
7.4890345912
 21
217.9232299395
 31
0.0
  0
LINE
  5
148
330
13D
100
AcDbEntity
  8
$DDT_AUDIT_GENERATED_(60)
  6
Continuous
 62
     7
100
AcDbLine
 10
222.6998301218
 20
218.4310120242
 30
0.0
 11
223.8300025952
 21
283.1784664184
 31
0.0
  0
LINE
  5
149
330
13D
100
AcDbEntity
  8
$DDT_AUDIT_GENERATED_(60)
  6
Continuous
 62
     7
100
AcDbLine
 10
6.35
 20
283.1784664184
 30
0.0
 11
7.4801724735
 21
218.4310120242
 31
0.0
  0
LINE
  5
14A
330
13D
100
AcDbEntity
  8
$DDT_AUDIT_GENERATED_(60)
  6
Continuous
 62
     7
100
AcDbLine
 10
222.536697203
 20
218.4283141252
 30
0.0
 11
222.6998374888
 21
218.4340111095
 31
0.0
  0
LINE
  5
14B
330
13D
100
AcDbEntity
  8
$DDT_AUDIT_GENERATED_(60)
  6
Continuous
 62
     7
100
AcDbLine
 10
222.6998824985
 20
218.4340126812
 30
0.0
 11
222.7009217439
 21
218.4340489725
 31
0.0
  0
SPLINE
  5
14C
330
13D
100
AcDbEntity
  8
$DDT_AUDIT_GENERATED_(60)
  6
Continuous
 62
     7
100
AcDbSpline
210
0.0
220
0.0
230
1.0
 70
     8
 71
     3
 72
    13
 73
     9
 74
     0
 42
0.0000000031749976
 43
0.0000000001
 40
0.0
 40
0.0
 40
0.0
 40
0.0
 40
0.1578137848362386
 40
0.2851140004068206
 40
0.4522520008723018
 40
0.663534782859431
 40
0.8162436865878053
 40
1.0
 40
1.0
 40
1.0
 40
1.0
 10
220.6061194883993
 20
212.1784664184037
 30
0.0
 10
220.7861842589922
 20
212.1878871835007
 30
0.0
 10
221.0620655220069
 20
212.207022330627
 30
0.0
 10
221.515723052426
 20
212.3682623889666
 30
0.0
 10
221.9620533774788
 20
212.6519048426675
 30
0.0
 10
222.3264550828273
 20
213.0768369130398
 30
0.0
 10
222.5701188265004
 20
213.6087242827093
 30
0.0
 10
222.6059541221645
 20
213.9344426636661
 30
0.0
 10
222.6246366885008
 20
214.1435616055302
 30
0.0
  0
SPLINE
  5
14D
330
13D
100
AcDbEntity
  8
$DDT_AUDIT_GENERATED_(60)
  6
Continuous
 62
     7
100
AcDbSpline
210
0.0
220
0.0
230
1.0
 70
     8
 71
     3
 72
    13
 73
     9
 74
     0
 42
0.0000000031749966
 43
0.0000000001
 40
0.0
 40
0.0
 40
0.0
 40
0.0
 40
0.157813386838948
 40
0.285114631878125
 40
0.4522531831789703
 40
0.663535639106524
 40
0.8162429504481347
 40
1.0
 40
1.0
 40
1.0
 40
1.0
 10
7.555365906722066
 20
214.1435616055302
 30
0.0
 10
7.569579434085871
 20
213.9638119960306
 30
0.0
 10
7.59605567609431
 20
213.6885306320276
 30
0.0
 10
7.769456943234331
 20
213.2393744949208
 30
0.0
 10
8.064977330702632
 20
212.8008235440311
 30
0.0
 10
8.499540807997974
 20
212.4479539601438
 30
0.0
 10
9.037789580806589
 20
212.2187000307118
 30
0.0
 10
9.364339290308083
 20
212.1915647594834
 30
0.0
 10
9.573883100379183
 20
212.178466418404
 30
0.0
  0
LINE
  5
14E
330
13D
100
AcDbEntity
  8
$DDT_AUDIT_GENERATED_(60)
  6
Continuous
 62
     7
100
AcDbLine
 10
7.4790808513
 20
218.4340489725
 30
0.0
 11
7.6433053922
 21
218.4283141252
 31
0.0
  0
SPLINE
  5
14F
330
13D
100
AcDbEntity
  8
$DDT_AUDIT_GENERATED_(60)
  6
Continuous
 62
     7
100
AcDbSpline
210
0.0
220
0.0
230
1.0
 70
     8
 71
     3
 72
    15
 73
    11
 74
     0
 42
0.0000000128015178
 43
0.0000000001
 40
0.0
 40
0.0
 40
0.0
 40
0.0
 40
0.1249713450494476
 40
0.2499979585764213
 40
0.3750403035569548
 40
0.4999999999880506
 40
0.6249596964223367
 40
0.7500020414109781
 40
0.8750286549468064
 40
1.0
 40
1.0
 40
1.0
 40
1.0
 10
222.5363423054411
 20
217.9286187116492
 30
0.0
 10
222.5016637992032
 20
217.9331619614303
 30
0.0
 10
222.4420990045517
 20
217.9427388300048
 30
0.0
 10
222.3604189722793
 20
218.0009036616804
 30
0.0
 10
222.3076174582819
 20
218.08238772974
 30
0.0
 10
222.2887980729409
 20
218.1784664184339
 30
0.0
 10
222.3076174583172
 20
218.2745451071228
 30
0.0
 10
222.3604189723437
 20
218.3560291751689
 30
0.0
 10
222.4420990046357
 20
218.4141940068255
 30
0.0
 10
222.501663799292
 20
218.4237708753874
 30
0.0
 10
222.5363423055319
 20
218.4283141251612
 30
0.0
  0
LINE
  5
150
330
13D
100
AcDbEntity
  8
$DDT_AUDIT_GENERATED_(60)
  6
Continuous
 62
     7
100
AcDbLine
 10
222.6248630757
 20
214.1360860023
 30
0.0
 11
222.6910203828
 21
217.9262307125
 31
0.0
  0
LINE
  5
151
330
13D
100
AcDbEntity
  8
$DDT_AUDIT_GENERATED_(60)
  6
Continuous
 62
     7
100
AcDbLine
 10
7.4889822125
 20
217.9262307125
 30
0.0
 11
7.5551395196
 21
214.1360860025
 31
0.0
  0
SPLINE
  5
152
330
13D
100
AcDbEntity
  8
$DDT_AUDIT_GENERATED_(60)
  6
Continuous
 62
     7
100
AcDbSpline
210
0.0
220
0.0
230
1.0
 70
     8
 71
     3
 72
    15
 73
    11
 74
     0
 42
0.0000000128015178
 43
0.0000000001
 40
0.0
 40
0.0
 40
0.0
 40
0.0
 40
0.1249713450453513
 40
0.2499979585802289
 40
0.3750403035685294
 40
0.4999999999999999
 40
0.6249596964314683
 40
0.7500020414197707
 40
0.875028654954649
 40
1.0
 40
1.0
 40
1.0
 40
1.0
 10
7.643660289707172
 20
218.4283141251612
 30
0.0
 10
7.678338795947731
 20
218.4237708753865
 30
0.0
 10
7.737903590607082
 20
218.4141940068228
 30
0.0
 10
7.819583622901999
 20
218.3560291751589
 30
0.0
 10
7.872385136930005
 20
218.2745451071046
 30
0.0
 10
7.891204522296941
 20
218.1784664184042
 30
0.0
 10
7.872385136930199
 20
218.0823877297039
 30
0.0
 10
7.819583622901888
 20
218.0009036616495
 30
0.0
 10
7.737903590607082
 20
217.9427388299856
 30
0.0
 10
7.678338795947731
 20
217.9331619614219
 30
0.0
 10
7.643660289707172
 20
217.9286187116472
 30
0.0
  0
LINE
  5
153
330
13D
100
AcDbEntity
  8
$DDT_AUDIT_GENERATED_(60)
  6
Continuous
 62
     7
100
AcDbLine
 10
222.6919514806
 20
217.9231971128
 30
0.0
 11
222.536697203
 21
217.9286187116
 31
0.0
  0
LINE
  5
154
330
13D
100
AcDbEntity
  8
$DDT_AUDIT_GENERATED_(60)
  6
Continuous
 62
     7
100
AcDbLine
 10
7.6433053922
 20
217.9286187116
 30
0.0
 11
7.4880511147
 21
217.9231971128
 31
0.0
  0
ARC
  5
155
330
13D
100
AcDbEntity
  8
$DDT_AUDIT_GENERATED_(75)
  6
Continuous
 62
     7
100
AcDbCircle
 10
55.5633233125
 20
149.9957831598
 30
0.0
 40
2.000000000007131
100
AcDbArc
 50
359.0000000001
 51
31.0992071971
  0
LINE
  5
156
330
13D
100
AcDbEntity
  8
$DDT_AUDIT_GENERATED_(75)
  6
Continuous
 62
     7
100
AcDbLine
 10
57.5630187028
 20
149.9608783469
 30
0.0
 11
57.5427960293
 21
148.8023221565
 31
0.0
  0
ARC
  5
157
330
13D
100
AcDbEntity
  8
$DDT_AUDIT_GENERATED_(75)
  6
Continuous
 62
     7
100
AcDbCircle
 10
57.2428417208
 20
148.8075578784
 30
0.0
 40
0.2999999999995657
100
AcDbArc
 50
302.4185883894
 51
359.0000000002
  0
SPLINE
  5
158
330
13D
100
AcDbEntity
  8
$DDT_AUDIT_GENERATED_(75)
  6
Continuous
 62
     7
100
AcDbSpline
210
0.0
220
0.0
230
1.0
 70
     8
 71
     3
 72
    11
 73
     7
 74
     0
 42
0.0000000017769805
 43
0.0000000001
 40
0.0
 40
0.0
 40
0.0
 40
0.0
 40
0.3976674467889
 40
0.4887881534628
 40
0.6777827098620001
 40
1.0
 40
1.0
 40
1.0
 40
1.0
 10
57.4036719280395
 20
148.5543116653814
 30
0.0
 10
56.74713992132951
 20
148.1373649420914
 30
0.0
 10
55.9093213101695
 20
147.7191279442014
 30
0.0
 10
54.71848181801951
 20
147.4227972150314
 30
0.0
 10
53.65123789809951
 20
147.2940546320514
 30
0.0
 10
52.69212723524951
 20
147.2922120847014
 30
0.0
 10
52.04000129761951
 20
147.2922120847014
 30
0.0
  0
ARC
  5
159
330
13D
100
AcDbEntity
  8
$DDT_AUDIT_GENERATED_(75)
  6
Continuous
 62
     7
100
AcDbCircle
 10
22.9371608745
 20
148.8075578784
 30
0.0
 40
0.2999999999995657
100
AcDbArc
 50
180.9999999998
 51
237.5814116106
  0
SPLINE
  5
15A
330
13D
100
AcDbEntity
  8
$DDT_AUDIT_GENERATED_(75)
  6
Continuous
 62
     7
100
AcDbSpline
210
0.0
220
0.0
230
1.0
 70
     8
 71
     3
 72
    11
 73
     7
 74
     0
 42
0.0000000017769805
 43
0.0000000001
 40
0.0
 40
0.0
 40
0.0
 40
0.0
 40
0.397667446789
 40
0.4887881534628
 40
0.6777827098620001
 40
1.0
 40
1.0
 40
1.0
 40
1.0
 10
22.7763306671995
 20
148.5543116653814
 30
0.0
 10
23.43286267390951
 20
148.1373649420914
 30
0.0
 10
24.27068128506951
 20
147.7191279442014
 30
0.0
 10
25.4615207772195
 20
147.4227972150314
 30
0.0
 10
26.52876469713949
 20
147.2940546320514
 30
0.0
 10
27.48787535998951
 20
147.2922120847014
 30
0.0
 10
28.14000129761951
 20
147.2922120847014
 30
0.0
  0
LINE
  5
15B
330
13D
100
AcDbEntity
  8
$DDT_AUDIT_GENERATED_(75)
  6
Continuous
 62
     7
100
AcDbLine
 10
52.0400012976
 20
147.2922120847
 30
0.0
 11
28.1400012976
 21
147.2922120847
 31
0.0
  0
SPLINE
  5
15C
330
13D
100
AcDbEntity
  8
$DDT_AUDIT_GENERATED_(75)
  6
Continuous
 62
     7
100
AcDbSpline
210
0.0
220
0.0
230
1.0
 70
     8
 71
     3
 72
     9
 73
     5
 74
     0
 42
0.0000000007560643
 43
0.0000000001
 40
0.9261737245778879
 40
0.9261737245778879
 40
0.9261737245778879
 40
0.9261737245778879
 40
0.9513076147806833
 40
1.0
 40
1.0
 40
1.0
 40
1.0
 10
52.37063446761422
 20
154.1747595437476
 30
0.0
 10
52.47545830285702
 20
154.1380982474162
 30
0.0
 10
52.78451874559549
 20
154.0342708072448
 30
0.0
 10
53.09210823908342
 20
153.9292947257427
 30
0.0
 10
53.29497001926951
 20
153.8600294164214
 30
0.0
  0
SPLINE
  5
15D
330
13D
100
AcDbEntity
  8
$DDT_AUDIT_GENERATED_(75)
  6
Continuous
 62
     7
100
AcDbSpline
210
0.0
220
0.0
230
1.0
 70
     8
 71
     3
 72
     9
 73
     5
 74
     0
 42
0.0000000007562626
 43
0.0000000001
 40
0.929514891887011
 40
0.929514891887011
 40
0.929514891887011
 40
0.929514891887011
 40
0.9315665326429801
 40
1.0
 40
1.0
 40
1.0
 40
1.0
 10
27.76740330568174
 20
154.1600540684616
 30
0.0
 10
27.75886506504938
 20
154.1570570948637
 30
0.0
 10
27.46548607567638
 20
154.0542513519825
 30
0.0
 10
27.1709660799013
 20
153.9557038431402
 30
0.0
 10
26.88501889821951
 20
153.8600245409414
 30
0.0
  0
LINE
  5
15E
330
13D
100
AcDbEntity
  8
$DDT_AUDIT_GENERATED_(75)
  6
Continuous
 62
     7
100
AcDbLine
 10
26.8684101238
 20
153.8540894317
 30
0.0
 11
26.8850189753
 21
153.8600243249
 31
0.0
  0
LINE
  5
15F
330
13D
100
AcDbEntity
  8
$DDT_AUDIT_GENERATED_(75)
  6
Continuous
 62
     7
100
AcDbLine
 10
26.8950056991
 20
153.8544518526
 30
0.0
 11
26.8684101238
 21
153.8540894317
 31
0.0
  0
SPLINE
  5
160
330
13D
100
AcDbEntity
  8
$DDT_AUDIT_GENERATED_(75)
  6
Continuous
 62
     7
100
AcDbSpline
210
0.0
220
0.0
230
1.0
 70
     8
 71
     3
 72
    17
 73
    13
 74
     0
 42
0.0000000012221784
 43
0.0000000001
 40
0.0
 40
0.0
 40
0.0
 40
0.0
 40
0.0758438804147517
 40
0.1453285884870768
 40
0.2083102144894773
 40
0.2648947504763144
 40
0.3152958786274767
 40
0.359718164761102
 40
0.5277336077500571
 40
0.7089939276945324
 40
0.8696831982047413
 40
1.0
 40
1.0
 40
1.0
 40
1.0
 10
38.52218336413851
 20
162.4467449897624
 30
0.0
 10
38.20677256000798
 20
162.4626413839286
 30
0.0
 10
37.60239983415733
 20
162.4931007040802
 30
0.0
 10
36.76737422073703
 20
162.5642042007047
 30
0.0
 10
36.03775518243688
 20
162.644468593057
 30
0.0
 10
35.41048642148606
 20
162.7301759145403
 30
0.0
 10
34.87781724355754
 20
162.8167068574893
 30
0.0
 10
33.99854770508526
 20
162.9818507569117
 30
0.0
 10
32.83608028442972
 20
163.2788901995785
 30
0.0
 10
31.76351226269514
 20
163.750473593068
 30
0.0
 10
31.17604679379371
 20
164.2440722882809
 30
0.0
 10
31.10496376938085
 20
164.5699643966977
 30
0.0
 10
31.07316792603551
 20
164.7159024122864
 30
0.0
  0
LINE
  5
161
330
13D
100
AcDbEntity
  8
$DDT_AUDIT_GENERATED_(75)
  6
Continuous
 62
     7
100
AcDbLine
 10
40.0900013052
 20
162.4136005022
 30
0.0
 11
38.5221897905
 21
162.4467436843
 31
0.0
  0
SPLINE
  5
162
330
13D
100
AcDbEntity
  8
$DDT_AUDIT_GENERATED_(75)
  6
Continuous
 62
     7
100
AcDbSpline
210
0.0
220
0.0
230
1.0
 70
     8
 71
     3
 72
    26
 73
    22
 74
     0
 42
0.0000000007588485
 43
0.0000000001
 40
0.0
 40
0.0
 40
0.0
 40
0.0
 40
0.011893794100107
 40
0.0357135686039173
 40
0.0714584863524462
 40
0.1085969463947604
 40
0.1429137676608773
 40
0.2420545803942839
 40
0.2857448342683609
 40
0.3928251360359358
 40
0.4999080220712653
 40
0.5713382303759199
 40
0.6427682261371034
 40
0.7141982869906278
 40
0.7522649990442966
 40
0.7856538499772014
 40
0.85145934960441
 40
0.8928163577241147
 40
0.928545788133201
 40
0.9642736697533164
 40
1.0
 40
1.0
 40
1.0
 40
1.0
 10
26.91214071092951
 20
153.8547937318214
 30
0.0
 10
26.91874822678397
 20
153.8548123292315
 30
0.0
 10
26.93861475768947
 20
153.854795045765
 30
0.0
 10
26.99310397148671
 20
153.8547394777387
 30
0.0
 10
27.09375358302493
 20
153.8546607353234
 30
0.0
 10
27.24328003346818
 20
153.8545948093494
 30
0.0
 10
27.53889925223546
 20
153.8546300293338
 30
0.0
 10
27.95728912924048
 20
153.8547296392112
 30
0.0
 10
28.70601278874393
 20
153.8547596147825
 30
0.0
 10
29.64605391556757
 20
153.8544839011725
 30
0.0
 10
30.92373304362181
 20
153.8549254900689
 30
0.0
 10
32.18969646742245
 20
153.8546353752118
 30
0.0
 10
33.36468205857612
 20
153.8545324356717
 30
0.0
 10
34.42124042184194
 20
153.8547111103775
 30
0.0
 10
35.28687768470248
 20
153.8548030410949
 30
0.0
 10
36.13577613155494
 20
153.8547437848822
 30
0.0
 10
37.0270697167632
 20
153.8546113882394
 30
0.0
 10
37.9490923183618
 20
153.8545704041409
 30
0.0
 10
38.68386264930551
 20
153.854632462586
 30
0.0
 10
39.38593445863914
 20
153.8546947650493
 30
0.0
 10
39.85531577325327
 20
153.8547597902206
 30
0.0
 10
40.09000133509038
 20
153.8547937318214
 30
0.0
  0
SPLINE
  5
163
330
13D
100
AcDbEntity
  8
$DDT_AUDIT_GENERATED_(75)
  6
Continuous
 62
     7
100
AcDbSpline
210
0.0
220
0.0
230
1.0
 70
    12
 71
     3
 72
     8
 73
     4
 74
     0
 42
0.0000000007588358
 43
0.0000000001
 40
0.0
 40
0.0
 40
0.0
 40
0.0
 40
1.0
 40
1.0
 40
1.0
 40
1.0
 10
53.26808295309021
 20
153.8547194332791
 30
0.0
 41
1.0
 10
52.69089908746066
 20
153.8547937318219
 30
0.0
 41
0.823100906440005
 10
47.35422633117808
 20
153.8547937318219
 30
0.0
 41
0.823100906440005
 10
40.09000133509038
 20
153.8547937318214
 30
0.0
 41
1.0
  0
LINE
  5
164
330
13D
100
AcDbEntity
  8
$DDT_AUDIT_GENERATED_(75)
  6
Continuous
 62
     7
100
AcDbLine
 10
41.6578126193
 20
162.4467436092
 30
0.0
 11
40.0900013051
 21
162.41360052
 31
0.0
  0
SPLINE
  5
165
330
13D
100
AcDbEntity
  8
$DDT_AUDIT_GENERATED_(75)
  6
Continuous
 62
     7
100
AcDbSpline
210
0.0
220
0.0
230
1.0
 70
     8
 71
     3
 72
    16
 73
    12
 74
     0
 42
0.0000000012256141
 43
0.0000000001
 40
0.0
 40
0.0
 40
0.0
 40
0.0
 40
0.0596722479386426
 40
0.123555269999001
 40
0.1915161976082582
 40
0.2633739841834967
 40
0.4547272041289741
 40
0.6211639126219801
 40
0.7238148123427544
 40
0.8496567330382888
 40
1.0
 40
1.0
 40
1.0
 40
1.0
 10
49.1068343713085
 20
164.7159030622234
 30
0.0
 10
49.09933281759876
 20
164.6488318250389
 30
0.0
 10
49.08372479624709
 20
164.5099538212944
 30
0.0
 10
48.97641515966669
 20
164.2994828223418
 30
0.0
 10
48.79357416947435
 20
164.0813332607764
 30
0.0
 10
48.36854443005515
 20
163.7400744605459
 30
0.0
 10
47.50826151269042
 20
163.3338128681436
 30
0.0
 10
46.19002559423402
 20
162.9774098708614
 30
0.0
 10
44.85054268636751
 20
162.7340487247319
 30
0.0
 10
43.42405793380008
 20
162.5493841476205
 30
0.0
 10
42.28038638531381
 20
162.4829235825751
 30
0.0
 10
41.65781936020352
 20
162.4467449785904
 30
0.0
  0
LINE
  5
166
330
13D
100
AcDbEntity
  8
$DDT_AUDIT_GENERATED_(75)
  6
Continuous
 62
     7
100
AcDbLine
 10
53.3115924714
 20
153.8540894317
 30
0.0
 11
53.2850001346
 21
153.8544517514
 31
0.0
  0
LINE
  5
167
330
13D
100
AcDbEntity
  8
$DDT_AUDIT_GENERATED_(75)
  6
Continuous
 62
     7
100
AcDbLine
 10
53.2949699429
 20
153.8600292023
 30
0.0
 11
53.3115924714
 21
153.8540894317
 31
0.0
  0
ARC
  5
168
330
13D
100
AcDbEntity
  8
$DDT_AUDIT_GENERATED_(75)
  6
Continuous
 62
     7
100
AcDbCircle
 10
51.2753260114
 20
146.8072495089
 30
0.0
 40
7.336774398006158
100
AcDbArc
 50
35.127617014
 51
73.8819369476
  0
ARC
  5
169
330
13D
100
AcDbEntity
  8
$DDT_AUDIT_GENERATED_(75)
  6
Continuous
 62
     7
100
AcDbCircle
 10
28.904676371
 20
146.8072497511
 30
0.0
 40
7.336774106242035
100
AcDbArc
 50
106.1180619806
 51
144.8723811718
  0
ARC
  5
16A
330
13D
100
AcDbEntity
  8
$DDT_AUDIT_GENERATED_(75)
  6
Continuous
 62
     7
100
AcDbCircle
 10
24.6166792827
 20
149.9957831598
 30
0.0
 40
2.000000000007505
100
AcDbArc
 50
148.9007839595
 51
180.9999989171
  0
LINE
  5
16B
330
13D
100
AcDbEntity
  8
$DDT_AUDIT_GENERATED_(75)
  6
Continuous
 62
     7
100
AcDbLine
 10
57.2758716167
 20
151.0288263854
 30
0.0
 11
22.9041309785
 21
151.0288263854
 31
0.0
  0
LINE
  5
16C
330
13D
100
AcDbEntity
  8
$DDT_AUDIT_GENERATED_(75)
  6
Continuous
 62
     7
100
AcDbLine
 10
22.6169838917
 20
149.9608783847
 30
0.0
 11
22.6372065659
 21
148.8023221565
 31
0.0
  0
LINE
  5
16D
330
13D
100
AcDbEntity
  8
$DDT_AUDIT_GENERATED_(75)
  6
Continuous
 62
     7
100
AcDbLine
 10
57.5427960293
 20
148.8023221565
 30
0.0
 11
22.6372065659
 21
148.8023220984
 31
0.0
  0
SPLINE
  5
16E
330
13D
100
AcDbEntity
  8
$DDT_AUDIT_GENERATED_(75)
  6
Continuous
 62
     7
100
AcDbSpline
210
0.0
220
0.0
230
1.0
 70
     8
 71
     3
 72
    18
 73
    14
 74
     0
 42
0.0000000008224913
 43
0.0000000001
 40
0.0300369636682608
 40
0.0300369636682608
 40
0.0300369636682608
 40
0.0300369636682608
 40
0.1477213367836548
 40
0.270814015085831
 40
0.3688138102772147
 40
0.4418232539177472
 40
0.5225849061588381
 40
0.5750293409338608
 40
0.636560382974316
 40
0.7081813007619441
 40
0.7911701250537907
 40
0.8874605454485336
 40
1.0
 40
1.0
 40
1.0
 40
1.0
 10
31.09691673006743
 20
164.6179385351552
 30
0.0
 10
31.07706086167367
 20
164.0826048297063
 30
0.0
 10
31.03900324255994
 20
163.0961981061764
 30
0.0
 10
30.97257090512853
 20
161.5829761290467
 30
0.0
 10
30.89803332419883
 20
160.3004323202522
 30
0.0
 10
30.79990725101625
 20
159.1950689369583
 30
0.0
 10
30.69564250226853
 20
158.3039762324999
 30
0.0
 10
30.55941019585914
 20
157.5001469273979
 30
0.0
 10
30.38114516236823
 20
156.7617294633718
 30
0.0
 10
30.07564751457642
 20
155.9573282278017
 30
0.0
 10
29.54451308451806
 20
155.1667103715749
 30
0.0
 10
28.71092557892122
 20
154.5149839061257
 30
0.0
 10
28.131425625396
 20
154.2883322836991
 30
0.0
 10
27.75829091560181
 20
154.1567092432801
 30
0.0
  0
SPLINE
  5
16F
330
13D
100
AcDbEntity
  8
$DDT_AUDIT_GENERATED_(75)
  6
Continuous
 62
     7
100
AcDbSpline
210
0.0
220
0.0
230
1.0
 70
     8
 71
     3
 72
    19
 73
    15
 74
     0
 42
0.0000000008228645
 43
0.0000000001
 40
0.0
 40
0.0
 40
0.0
 40
0.0
 40
0.1008041203033631
 40
0.1849171182643753
 40
0.2551492356663723
 40
0.3134975886780044
 40
0.3616842217169539
 40
0.4012752910572248
 40
0.434225552430982
 40
0.470311031829642
 40
0.5628978317440932
 40
0.682328731057059
 40
0.8282351249055809
 40
0.9857339687241068
 40
0.9857339687241068
 40
0.9857339687241068
 40
0.9857339687241068
 10
52.42153916538297
 20
154.1567689655888
 30
0.0
 10
52.12949745352064
 20
154.258802986661
 30
0.0
 10
51.67986682652479
 20
154.4308410778692
 30
0.0
 10
50.98828838049599
 20
154.8770045428438
 30
0.0
 10
50.48222702557207
 20
155.4174534684562
 30
0.0
 10
50.13373270497807
 20
155.9908959730743
 30
0.0
 10
49.90612563018681
 20
156.538381904211
 30
0.0
 10
49.75461402408335
 20
157.0342690361621
 30
0.0
 10
49.63725832865759
 20
157.5067931699057
 30
0.0
 10
49.49779342730668
 20
158.2147669123384
 30
0.0
 10
49.35825861002052
 20
159.3164101554744
 30
0.0
 10
49.2380795169664
 20
160.9025041741735
 30
0.0
 10
49.15147140284989
 20
162.8232374974355
 30
0.0
 10
49.10242131221203
 20
164.0793032574198
 30
0.0
 10
49.07506598275549
 20
164.8322160957683
 30
0.0
  0
LINE
  5
171
330
13D
100
AcDbEntity
  8
$DDT_AUDIT_GENERATED_(170)
  6
Continuous
 62
     7
100
AcDbLine
 10
129.8400012976
 20
203.2284664184
 30
0.0
 11
100.3400012976
 21
203.2284664184
 31
0.0
  0
LINE
  5
172
330
13D
100
AcDbEntity
  8
$DDT_AUDIT_GENERATED_(170)
  6
Continuous
 62
     7
100
AcDbLine
 10
99.8400012976
 20
178.7284664184
 30
0.0
 11
130.3400012976
 21
178.7284664184
 31
0.0
  0
LINE
  5
173
330
13D
100
AcDbEntity
  8
$DDT_AUDIT_GENERATED_(170)
  6
Continuous
 62
     7
100
AcDbLine
 10
99.8400012976
 20
202.7284664184
 30
0.0
 11
99.8400012976
 21
178.7284664184
 31
0.0
  0
LINE
  5
174
330
13D
100
AcDbEntity
  8
$DDT_AUDIT_GENERATED_(170)
  6
Continuous
 62
     7
100
AcDbLine
 10
130.3400012976
 20
178.7284664184
 30
0.0
 11
130.3400012976
 21
202.7284664184
 31
0.0
  0
ARC
  5
175
330
13D
100
AcDbEntity
  8
$DDT_AUDIT_GENERATED_(170)
  6
Continuous
 62
     7
100
AcDbCircle
 10
100.3400012976
 20
202.7284664184
 30
0.0
 40
0.5000000000000004
100
AcDbArc
 50
90.0
 51
180.0
  0
ARC
  5
176
330
13D
100
AcDbEntity
  8
$DDT_AUDIT_GENERATED_(170)
  6
Continuous
 62
     7
100
AcDbCircle
 10
129.8400012976
 20
202.7284664184
 30
0.0
 40
0.5000000000000004
100
AcDbArc
 50
0.0
 51
90.0
  0
LINE
  5
177
330
13D
100
AcDbEntity
  8
$DDT_AUDIT_GENERATED_(80)
  6
Continuous
 62
     7
100
AcDbLine
 10
42.2885269798
 20
165.2158666086
 30
0.0
 11
58.1293218524
 21
165.2158744967
 31
0.0
  0
ARC
  5
178
330
13D
100
AcDbEntity
  8
$DDT_AUDIT_GENERATED_(80)
  6
Continuous
 62
     7
100
AcDbCircle
 10
47.3518701548
 20
561.2299084767
 30
0.0
 40
396.0493817468085
100
AcDbArc
 50
269.2582833328
 51
269.4162381924
  0
ARC
  5
179
330
13D
100
AcDbEntity
  8
$DDT_AUDIT_GENERATED_(80)
  6
Continuous
 62
     7
100
AcDbCircle
 10
57.715070313
 20
173.1911742204
 30
0.0
 40
7.986048359374854
100
AcDbArc
 50
268.1684970543
 51
272.9730163906
  0
ARC
  5
17A
330
13D
100
AcDbEntity
  8
$DDT_AUDIT_GENERATED_(80)
  6
Continuous
 62
     7
100
AcDbCircle
 10
22.4649286656
 20
173.1911099771
 30
0.0
 40
7.985984129451142
100
AcDbArc
 50
267.0269698846
 51
271.8314385357
  0
ARC
  5
17B
330
13D
100
AcDbEntity
  8
$DDT_AUDIT_GENERATED_(80)
  6
Continuous
 62
     7
100
AcDbCircle
 10
41.0811093852
 20
11169.3616697613
 30
0.0
 40
11004.14801731161
100
AcDbArc
 50
269.9049889101
 51
270.0059559121
  0
ARC
  5
17C
330
13D
100
AcDbEntity
  8
$DDT_AUDIT_GENERATED_(80)
  6
Continuous
 62
     7
100
AcDbCircle
 10
55.0054137987
 20
197.4411293842
 30
0.0
 40
32.37631249736584
100
AcDbArc
 50
275.5366841071
 51
279.9455962513
  0
ARC
  5
17D
330
13D
100
AcDbEntity
  8
$DDT_AUDIT_GENERATED_(80)
  6
Continuous
 62
     7
100
AcDbCircle
 10
25.1746049218
 20
197.4407993938
 30
0.0
 40
32.3759811217583
100
AcDbArc
 50
260.0539139235
 51
264.4633129436
  0
ARC
  5
17E
330
13D
100
AcDbEntity
  8
$DDT_AUDIT_GENERATED_(80)
  6
Continuous
 62
     7
100
AcDbCircle
 10
60.5297382779
 20
165.8441345478
 30
0.0
 40
0.2999958395455681
100
AcDbArc
 50
269.933604448
 51
316.9975058226
  0
ARC
  5
17F
330
13D
100
AcDbEntity
  8
$DDT_AUDIT_GENERATED_(80)
  6
Continuous
 62
     7
100
AcDbCircle
 10
19.6502612069
 20
165.8441341755
 30
0.0
 40
0.2999997823565086
100
AcDbArc
 50
222.8848486385
 51
270.0651789238
  0
SPLINE
  5
180
330
13D
100
AcDbEntity
  8
$DDT_AUDIT_GENERATED_(84)
  6
Continuous
 62
     7
100
AcDbSpline
210
0.0
220
0.0
230
1.0
 70
     8
 71
     3
 72
    22
 73
    18
 74
     0
 42
0.0000000001242208
 43
0.0000000001
 40
0.0
 40
0.0
 40
0.0
 40
0.0
 40
0.03125
 40
0.03125
 40
0.0625
 40
0.0625
 40
0.09375
 40
0.09375
 40
0.125
 40
0.125
 40
0.15625
 40
0.15625
 40
0.1875000000000001
 40
0.1875000000000001
 40
0.21875
 40
0.21875
 40
0.2302895249175853
 40
0.2302895249175853
 40
0.2302895249175853
 40
0.2302895249175853
 10
42.66287459067117
 20
165.6404365042529
 30
0.0
 10
44.04582007037819
 20
165.6404365042529
 30
0.0
 10
45.38906537910833
 20
165.6420170621747
 30
0.0
 10
47.99934615519386
 20
165.644614087666
 30
0.0
 10
49.27942024929771
 20
165.6456255119113
 30
0.0
 10
51.68612392124761
 20
165.6456287411298
 30
0.0
 10
52.80988822851806
 20
165.6446426069436
 30
0.0
 10
54.89975433948655
 20
165.6420433145448
 30
0.0
 10
55.86830691242876
 20
165.6404366794927
 30
0.0
 10
57.58397563385036
 20
165.6404363290405
 30
0.0
 10
58.31994630028623
 20
165.6420168504275
 30
0.0
 10
59.55793731253301
 20
165.6446139218673
 30
0.0
 10
60.06343812716933
 20
165.6456254324368
 30
0.0
 10
60.80283373188033
 20
165.6456288201603
 30
0.0
 10
61.03877872593463
 20
165.6446427543062
 30
0.0
 10
61.18044751138918
 20
165.6428632116399
 30
0.0
 10
61.20024891233314
 20
165.6423414346046
 30
0.0
 10
61.20147990948816
 20
165.6418741338885
 30
0.0
  0
SPLINE
  5
181
330
13D
100
AcDbEntity
  8
$DDT_AUDIT_GENERATED_(84)
  6
Continuous
 62
     7
100
AcDbSpline
210
0.0
220
0.0
230
1.0
 70
     8
 71
     3
 72
    24
 73
    20
 74
     0
 42
0.0000000001138559
 43
0.0000000001
 40
0.7302898182613723
 40
0.7302898182613723
 40
0.7302898182613723
 40
0.7302898182613723
 40
0.75
 40
0.75
 40
0.7812500000000001
 40
0.7812500000000001
 40
0.8125000000000001
 40
0.8125000000000001
 40
0.8437500000000001
 40
0.8437500000000001
 40
0.8750000000000001
 40
0.8750000000000001
 40
0.9062500000000001
 40
0.9062500000000001
 40
0.9375000000000001
 40
0.9375000000000001
 40
0.9687500000000001
 40
0.9687500000000001
 40
1.0
 40
1.0
 40
1.0
 40
1.0
 10
18.97852270193415
 20
165.6418741327031
 30
0.0
 10
18.97642005094885
 20
165.6410759440311
 30
0.0
 10
19.02849747388339
 20
165.6404366937563
 30
0.0
 10
19.30536781848163
 20
165.6404362039042
 30
0.0
 10
19.60780433820239
 20
165.6420167466424
 30
0.0
 10
20.46732505689569
 20
165.6446138804332
 30
0.0
 10
21.03252915711831
 20
165.6456254324036
 30
0.0
 10
22.39361825167704
 20
165.6456288201934
 30
0.0
 10
23.18373352546418
 20
165.6446427137515
 30
0.0
 10
24.98102347028683
 20
165.6420433821456
 30
0.0
 10
25.99416833176402
 20
165.6404366794992
 30
0.0
 10
28.19012653199207
 20
165.640436329034
 30
0.0
 10
29.35383612814002
 20
165.6420169168777
 30
0.0
 10
31.80742447336138
 20
165.6446140296649
 30
0.0
 10
33.11226755078464
 20
165.6456255118683
 30
0.0
 10
35.776561354388
 20
165.6456287411727
 30
0.0
 10
37.12990701006316
 20
165.6446425501601
 30
0.0
 10
39.87859385721648
 20
165.6420431678601
 30
0.0
 10
41.27992911096412
 20
165.6404365042529
 30
0.0
 10
42.66287459067117
 20
165.6404365042529
 30
0.0
  0
ARC
  5
182
330
13D
100
AcDbEntity
  8
$DDT_AUDIT_GENERATED_(84)
  6
Continuous
 62
     7
100
AcDbCircle
 10
40.0907295306
 20
-3962.2153370216
 30
0.0
 40
4130.707191465154
100
AcDbArc
 50
90.3585139868
 51
90.3585646102
  0
LINE
  5
183
330
13D
100
AcDbEntity
  8
$DDT_AUDIT_GENERATED_(84)
  6
Continuous
 62
     7
100
AcDbLine
 10
13.8584025292
 20
212.1784664184
 30
0.0
 11
14.2403370754
 21
168.4108570249
 31
0.0
  0
LINE
  5
184
330
13D
100
AcDbEntity
  8
$DDT_AUDIT_GENERATED_(84)
  6
Continuous
 62
     7
100
AcDbLine
 10
65.9396664379
 20
168.4109622328
 30
0.0
 11
66.321600066
 21
212.1784664184
 31
0.0
  0
ARC
  5
185
330
13D
100
AcDbEntity
  8
$DDT_AUDIT_GENERATED_(84)
  6
Continuous
 62
     7
100
AcDbCircle
 10
26.3815177149
 20
200.5462725679
 30
0.0
 40
35.68082747259436
100
AcDbArc
 50
252.4030467383
 51
258.0688760666
  0
ARC
  5
186
330
13D
100
AcDbEntity
  8
$DDT_AUDIT_GENERATED_(84)
  6
Continuous
 62
     7
100
AcDbCircle
 10
53.7984848804
 20
200.5462725679
 30
0.0
 40
35.68082747260636
100
AcDbArc
 50
281.9311239334
 51
287.5969532617
  0
ARC
  5
187
330
13D
100
AcDbEntity
  8
$DDT_AUDIT_GENERATED_(84)
  6
Continuous
 62
     7
100
AcDbCircle
 10
63.9760966597
 20
168.4005943759
 30
0.0
 40
1.945478508879856
100
AcDbArc
 50
283.3532357849
 51
0.3445568932
  0
ARC
  5
188
330
13D
100
AcDbEntity
  8
$DDT_AUDIT_GENERATED_(84)
  6
Continuous
 62
     7
100
AcDbCircle
 10
16.2394005301
 20
168.4269949266
 30
0.0
 40
1.987555874212525
100
AcDbArc
 50
180.4990643031
 51
253.1984127847
  0
LINE
  5
189
330
13D
100
AcDbEntity
  8
$DDT_AUDIT_GENERATED_(88)
  6
Continuous
 62
     7
100
AcDbLine
 10
100.0900012976
 20
177.2284664184
 30
0.0
 11
130.0900012976
 21
177.2284664184
 31
0.0
  0
LINE
  5
18A
330
13D
100
AcDbEntity
  8
$DDT_AUDIT_GENERATED_(88)
  6
Continuous
 62
     7
100
AcDbLine
 10
99.8900012976
 20
178.5284664184
 30
0.0
 11
99.8900012976
 21
177.4284664184
 31
0.0
  0
LINE
  5
18B
330
13D
100
AcDbEntity
  8
$DDT_AUDIT_GENERATED_(88)
  6
Continuous
 62
     7
100
AcDbLine
 10
130.2900012976
 20
177.4284664184
 30
0.0
 11
130.2900012976
 21
178.5284664184
 31
0.0
  0
ARC
  5
18C
330
13D
100
AcDbEntity
  8
$DDT_AUDIT_GENERATED_(88)
  6
Continuous
 62
     7
100
AcDbCircle
 10
130.0900012976
 20
177.4284664184
 30
0.0
 40
0.199999999999978
100
AcDbArc
 50
270.0
 51
0.0
  0
ARC
  5
18D
330
13D
100
AcDbEntity
  8
$DDT_AUDIT_GENERATED_(88)
  6
Continuous
 62
     7
100
AcDbCircle
 10
100.0900012976
 20
177.4284664184
 30
0.0
 40
0.2000000000000005
100
AcDbArc
 50
180.0
 51
270.0
  0
ARC
  5
18E
330
13D
100
AcDbEntity
  8
$DDT_AUDIT_GENERATED_(88)
  6
Continuous
 62
     7
100
AcDbCircle
 10
100.0900012976
 20
178.5284664184
 30
0.0
 40
0.2000000000000335
100
AcDbArc
 50
90.0
 51
180.0
  0
ARC
  5
18F
330
13D
100
AcDbEntity
  8
$DDT_AUDIT_GENERATED_(88)
  6
Continuous
 62
     7
100
AcDbCircle
 10
130.0900012976
 20
178.5284664184
 30
0.0
 40
0.2000000000000005
100
AcDbArc
 50
0.0
 51
90.0
  0
ARC
  5
190
330
13D
100
AcDbEntity
  8
$DDT_AUDIT_GENERATED_(FE)
  6
Continuous
 62
     7
100
AcDbCircle
 10
40.0900012976
 20
183.1722958775
 30
0.0
 40
20.49999999999999
100
AcDbArc
 50
241.338532896
 51
264.4124170009
  0
ARC
  5
191
330
13D
100
AcDbEntity
  8
$DDT_AUDIT_GENERATED_(FE)
  6
Continuous
 62
     7
100
AcDbCircle
 10
40.0900012976
 20
183.1722958775
 30
0.0
 40
20.49999999999999
100
AcDbArc
 50
265.7427750983
 51
270.0
  0
ARC
  5
192
330
13D
100
AcDbEntity
  8
$DDT_AUDIT_GENERATED_(FE)
  6
Continuous
 62
     7
100
AcDbCircle
 10
40.0900012976
 20
183.1722958775
 30
0.0
 40
20.5
100
AcDbArc
 50
270.0
 51
298.6460890245
  0
LINE
  5
193
330
13D
100
AcDbEntity
  8
$DDT_AUDIT_GENERATED_(100)
  6
Continuous
 62
     7
100
AcDbLine
 10
36.0066646272
 20
146.023967163
 30
0.0
 11
35.3715329499
 21
146.1003276827
 31
0.0
  0
LINE
  5
194
330
13D
100
AcDbEntity
  8
$DDT_AUDIT_GENERATED_(100)
  6
Continuous
 62
     7
100
AcDbLine
 10
39.5279552964
 20
145.8014362238
 30
0.0
 11
38.2495463759
 21
145.8431219815
 31
0.0
  0
LINE
  5
195
330
13D
100
AcDbEntity
  8
$DDT_AUDIT_GENERATED_(100)
  6
Continuous
 62
     7
100
AcDbLine
 10
33.6589452506
 20
146.3624685378
 30
0.0
 11
29.957149716
 21
147.2194830919
 31
0.0
  0
LINE
  5
196
330
13D
100
AcDbEntity
  8
$DDT_AUDIT_GENERATED_(100)
  6
Continuous
 62
     7
100
AcDbLine
 10
41.5252496166
 20
145.825100304
 30
0.0
 11
40.6272489229
 21
145.8010666716
 31
0.0
  0
LINE
  5
197
330
13D
100
AcDbEntity
  8
$DDT_AUDIT_GENERATED_(100)
  6
Continuous
 62
     7
100
AcDbLine
 10
44.8578971335
 20
146.1067401138
 30
0.0
 11
43.7906117601
 21
145.9833415305
 31
0.0
  0
LINE
  5
198
330
13D
100
AcDbEntity
  8
$DDT_AUDIT_GENERATED_(100)
  6
Continuous
 62
     7
100
AcDbLine
 10
35.3715329499
 20
146.1003276827
 30
0.0
 11
33.6589452506
 21
146.3624685378
 31
0.0
  0
LINE
  5
199
330
13D
100
AcDbEntity
  8
$DDT_AUDIT_GENERATED_(100)
  6
Continuous
 62
     7
100
AcDbLine
 10
37.653888427
 20
145.8777301914
 30
0.0
 11
36.0066646272
 21
146.023967163
 31
0.0
  0
LINE
  5
19A
330
13D
100
AcDbEntity
  8
$DDT_AUDIT_GENERATED_(100)
  6
Continuous
 62
     7
100
AcDbLine
 10
41.5252496166
 20
145.825100304
 30
0.0
 11
43.7906117601
 21
145.9833415305
 31
0.0
  0
LINE
  5
19B
330
13D
100
AcDbEntity
  8
$DDT_AUDIT_GENERATED_(100)
  6
Continuous
 62
     7
100
AcDbLine
 10
38.2495463759
 20
145.8431219815
 30
0.0
 11
37.653888427
 21
145.8777301914
 31
0.0
  0
LINE
  5
19C
330
13D
100
AcDbEntity
  8
$DDT_AUDIT_GENERATED_(100)
  6
Continuous
 62
     7
100
AcDbLine
 10
50.2228528941
 20
147.2194830961
 30
0.0
 11
45.8430657889
 21
146.2488030666
 31
0.0
  0
LINE
  5
19D
330
13D
100
AcDbEntity
  8
$DDT_AUDIT_GENERATED_(100)
  6
Continuous
 62
     7
100
AcDbLine
 10
40.0900012976
 20
145.7971623028
 30
0.0
 11
40.6272489229
 21
145.8010666716
 31
0.0
  0
SPLINE
  5
19E
330
13D
100
AcDbEntity
  8
$DDT_AUDIT_GENERATED_(100)
  6
Continuous
 62
     7
100
AcDbSpline
210
0.0
220
0.0
230
1.0
 70
     8
 71
     3
 72
     8
 73
     4
 74
     0
 42
0.0000000100460204
 43
0.0000000001
 40
0.0
 40
0.0
 40
0.0
 40
0.0
 40
1.0
 40
1.0
 40
1.0
 40
1.0
 10
44.8578976185845
 20
146.1067401770969
 30
0.0
 10
45.18690780406995
 20
146.1496504533962
 30
0.0
 10
45.51533767119456
 20
146.1970076728922
 30
0.0
 10
45.84306578889952
 20
146.2488030665973
 30
0.0
  0
LINE
  5
19F
330
13D
100
AcDbEntity
  8
$DDT_AUDIT_GENERATED_(100)
  6
Continuous
 62
     7
100
AcDbLine
 10
40.0900012976
 20
145.7971623028
 30
0.0
 11
39.5279552964
 21
145.8014362238
 31
0.0
  0
LINE
  5
1A1
330
13D
100
AcDbEntity
  8
$DDT_AUDIT_GENERATED_(1A0)
  6
Continuous
 62
     7
100
AcDbLine
 10
101.3786921667
 20
209.6438476553
 30
0.0
 11
128.8013104285
 21
209.6438476553
 31
0.0
  0
LINE
  5
1A2
330
13D
100
AcDbEntity
  8
$DDT_AUDIT_GENERATED_(1A0)
  6
Continuous
 62
     7
100
AcDbLine
 10
127.1673830359
 20
208.8819347992
 30
0.0
 11
103.0126195594
 21
208.8819347992
 31
0.0
  0
LINE
  5
1A3
330
13D
100
AcDbEntity
  8
$DDT_AUDIT_GENERATED_(1A0)
  6
Continuous
 62
     7
100
AcDbLine
 10
129.0900012976
 20
210.0970015488
 30
0.0
 11
129.0900012976
 21
212.1784664184
 31
0.0
  0
LINE
  5
1A4
330
13D
100
AcDbEntity
  8
$DDT_AUDIT_GENERATED_(1A0)
  6
Continuous
 62
     7
100
AcDbLine
 10
101.0900012976
 20
212.1784664184
 30
0.0
 11
101.0900012976
 21
210.0970015488
 31
0.0
  0
LINE
  5
1A5
330
13D
100
AcDbEntity
  8
$DDT_AUDIT_GENERATED_(1A0)
  6
Continuous
 62
     7
100
AcDbLine
 10
101.3786921667
 20
209.6438476553
 30
0.0
 11
103.0126195594
 21
208.8819347992
 31
0.0
  0
LINE
  5
1A6
330
13D
100
AcDbEntity
  8
$DDT_AUDIT_GENERATED_(1A0)
  6
Continuous
 62
     7
100
AcDbLine
 10
127.1673830359
 20
208.8819347992
 30
0.0
 11
128.8013104285
 21
209.6438476553
 31
0.0
  0
LINE
  5
1A7
330
13D
100
AcDbEntity
  8
$DDT_AUDIT_GENERATED_(1A0)
  6
Continuous
 62
     7
100
AcDbLine
 10
126.5900012976
 20
203.2284664184
 30
0.0
 11
126.5900012976
 21
207.9756270122
 31
0.0
  0
LINE
  5
1A8
330
13D
100
AcDbEntity
  8
$DDT_AUDIT_GENERATED_(1A0)
  6
Continuous
 62
     7
100
AcDbLine
 10
103.5900012976
 20
207.9756270122
 30
0.0
 11
103.5900012976
 21
203.2284664184
 31
0.0
  0
ARC
  5
1A9
330
13D
100
AcDbEntity
  8
$DDT_AUDIT_GENERATED_(1A0)
  6
Continuous
 62
     7
100
AcDbCircle
 10
101.5900012976
 20
210.0970015488
 30
0.0
 40
0.5000000000000004
100
AcDbArc
 50
180.0
 51
245.0
  0
ARC
  5
1AA
330
13D
100
AcDbEntity
  8
$DDT_AUDIT_GENERATED_(1A0)
  6
Continuous
 62
     7
100
AcDbCircle
 10
128.5900012976
 20
210.0970015488
 30
0.0
 40
0.5000000000000011
100
AcDbArc
 50
295.0
 51
360.0
  0
ARC
  5
1AB
330
13D
100
AcDbEntity
  8
$DDT_AUDIT_GENERATED_(1A0)
  6
Continuous
 62
     7
100
AcDbCircle
 10
127.5900012976
 20
207.9756270122
 30
0.0
 40
1.000000000000001
100
AcDbArc
 50
115.0
 51
180.0
  0
ARC
  5
1AC
330
13D
100
AcDbEntity
  8
$DDT_AUDIT_GENERATED_(1A0)
  6
Continuous
 62
     7
100
AcDbCircle
 10
102.5900012976
 20
207.9756270122
 30
0.0
 40
0.9999999999999991
100
AcDbArc
 50
0.0
 51
65.0
  0
SPLINE
  5
1AD
330
13D
100
AcDbEntity
  8
$DDT_AUDIT_GENERATED_(99)
  6
Continuous
 62
     7
100
AcDbSpline
210
0.0
220
0.0
230
1.0
 70
     8
 71
     2
 72
    36
 73
    33
 74
     0
 42
0.0000000001881697
 43
0.0000000001
 40
0.0
 40
0.0
 40
0.0
 40
0.0625
 40
0.0625
 40
0.125
 40
0.125
 40
0.1875
 40
0.1875
 40
0.25
 40
0.25
 40
0.3125
 40
0.3125
 40
0.375
 40
0.375
 40
0.4375
 40
0.4375
 40
0.5
 40
0.5
 40
0.5625
 40
0.5625
 40
0.625
 40
0.625
 40
0.6875
 40
0.6875
 40
0.75
 40
0.75
 40
0.8125
 40
0.8125
 40
0.875
 40
0.875
 40
0.9375
 40
0.9375
 40
1.0
 40
1.0
 40
1.0
 10
173.2277379859823
 20
127.1995758724583
 30
0.0
 10
173.227846829481
 20
125.5440502381024
 30
0.0
 10
173.5528050875024
 20
123.910121017157
 30
0.0
 10
173.8777217892038
 20
122.2764007463885
 30
0.0
 10
174.511300369917
 20
120.7466626623701
 30
0.0
 10
175.1444759288194
 20
119.2178976507238
 30
0.0
 10
176.0704432337383
 20
117.8320005037114
 30
0.0
 10
176.9958248065146
 20
116.4469800231869
 30
0.0
 10
178.1665805112847
 20
115.2761463445804
 30
0.0
 10
179.3365914941046
 20
114.1060574375234
 30
0.0
 10
180.7224336127457
 20
113.1800077774287
 30
0.0
 10
182.1073991000707
 20
112.2545439013287
 30
0.0
 10
183.6370949847215
 20
111.6208634429832
 30
0.0
 10
185.1658178242386
 20
110.9875860710895
 30
0.0
 10
186.800552855898
 20
110.6623665645038
 30
0.0
 10
188.4342538158079
 20
110.3373527795169
 30
0.0
 10
190.0900075474721
 20
110.3372976473834
 30
0.0
 10
191.7447080482659
 20
110.3372425503196
 30
0.0
 10
193.3794624016268
 20
110.6623649193173
 30
0.0
 10
195.0131826715714
 20
110.9872816282724
 30
0.0
 10
196.5429207521956
 20
111.6208602155968
 30
0.0
 10
198.0716857615216
 20
112.2540357815502
 30
0.0
 10
199.4575829039858
 20
113.1800030922302
 30
0.0
 10
200.8426033807336
 20
114.1053846712776
 30
0.0
 10
202.013437053834
 20
115.2761403810176
 30
0.0
 10
203.1835259557148
 20
116.4461513691306
 30
0.0
 10
204.1095756096736
 20
117.8319934917397
 30
0.0
 10
205.0350394797654
 20
119.2169589832156
 30
0.0
 10
205.6687199312141
 20
120.746654870583
 30
0.0
 10
206.301997296371
 20
122.2753777131903
 30
0.0
 10
206.627216795753
 20
123.9101127460046
 30
0.0
 10
206.9521758375545
 20
125.5435385733981
 30
0.0
 10
206.9522855424264
 20
127.1995674389911
 30
0.0
  0
ARC
  5
1AE
330
13D
100
AcDbEntity
  8
$DDT_AUDIT_GENERATED_(99)
  6
Continuous
 62
     7
100
AcDbCircle
 10
190.0900205962
 20
127.1995615917
 30
0.0
 40
19.58513386808239
100
AcDbArc
 50
179.9999576872
 51
0.0
  0
LINE
  5
1AF
330
13D
100
AcDbEntity
  8
$DDT_AUDIT_GENERATED_(99)
  6
Continuous
 62
     7
100
AcDbLine
 10
206.9522856984
 20
127.1995674308
 30
0.0
 11
206.9522710337
 21
212.1784664184
 31
0.0
  0
LINE
  5
1B0
330
13D
100
AcDbEntity
  8
$DDT_AUDIT_GENERATED_(99)
  6
Continuous
 62
     7
100
AcDbLine
 10
173.2277217669
 20
212.1784664184
 30
0.0
 11
173.22773783
 21
127.1995758642
 31
0.0
  0
LINE
  5
1B1
330
13D
100
AcDbEntity
  8
$DDT_AUDIT_GENERATED_(99)
  6
Continuous
 62
     7
100
AcDbLine
 10
209.6751565584
 20
212.1784664184
 30
0.0
 11
209.6751453282
 21
127.1995671856
 31
0.0
  0
LINE
  5
1B2
330
13D
100
AcDbEntity
  8
$DDT_AUDIT_GENERATED_(99)
  6
Continuous
 62
     7
100
AcDbLine
 10
170.504911061
 20
212.1784664184
 30
0.0
 11
170.5049286241
 21
127.1995760553
 31
0.0
  0
ARC
  5
1B3
330
13D
100
AcDbEntity
  8
$DDT_AUDIT_GENERATED_(99)
  6
Continuous
 62
     7
100
AcDbCircle
 10
190.0900117475
 20
127.1997556574
 30
0.0
 40
20.84975565743483
100
AcDbArc
 50
180.0004939499
 51
359.9994819018
  0
LINE
  5
1B4
330
13D
100
AcDbEntity
  8
$DDT_AUDIT_GENERATED_(99)
  6
Continuous
 62
     7
100
AcDbLine
 10
210.9398013388
 20
127.1964421856
 30
0.0
 11
210.9398013388
 21
212.1784664184
 31
0.0
  0
LINE
  5
1B5
330
13D
100
AcDbEntity
  8
$DDT_AUDIT_GENERATED_(99)
  6
Continuous
 62
     7
100
AcDbLine
 10
169.2402536383
 20
212.1784664184
 30
0.0
 11
169.2402536383
 21
127.196451054
 31
0.0
  0
ENDBLK
  5
1B7
330
13D
100
AcDbEntity
  8
0
100
AcDbBlockEnd
  0
ENDSEC
  0
SECTION
  2
ENTITIES
  0
INSERT
  5
5F
330
1F
100
AcDbEntity
  8
Default
100
AcDbBlockReference
  2
SE
 10
0.0
 20
0.0
 30
0.0
  0
INSERT
  5
BD
330
1F
100
AcDbEntity
  8
Default
100
AcDbBlockReference
  2
SE1
 10
0.0
 20
0.0
 30
0.0
  0
INSERT
  5
13E
330
1F
100
AcDbEntity
  8
Default
100
AcDbBlockReference
  2
SE2
 10
0.0
 20
0.0
 30
0.0
  0
TEXT
  5
1B9
330
1F
100
AcDbEntity
  8
Default
  6
Continuous
 62
     7
100
AcDbText
 10
5.9362635081
 20
53.4225120485
 30
0.0
 40
10.0
  1
Grohe AG^J
  7
SEACAD_seiso_ttf
 11
5.9362635081
 21
63.4225120485
 31
0.0
100
AcDbText
 73
     3
  0
TEXT
  5
1BA
330
1F
100
AcDbEntity
  8
Default
  6
Continuous
 62
     7
100
AcDbText
 10
5.9362635081
 20
37.0588756849
 30
0.0
 40
10.0
  1
 
  7
SEACAD_seiso_ttf
 11
5.9362635081
 21
47.0588756849
 31
0.0
100
AcDbText
 73
     3
  0
TEXT
  5
1BB
330
1F
100
AcDbEntity
  8
Default
  6
Continuous
 62
     7
100
AcDbText
 10
5.9362635081
 20
20.6952393213
 30
0.0
 40
10.0
  1
ecn: 
  7
SEACAD_seiso_ttf
 11
5.9362635081
 21
30.6952393213
 31
0.0
100
AcDbText
 73
     3
  0
TEXT
  5
1BC
330
1F
100
AcDbEntity
  8
Default
  6
Continuous
 62
     7
100
AcDbText
 10
5.9362635081
 20
4.3316029576
 30
0.0
 40
10.0
  1
unit: mm
  7
SEACAD_seiso_ttf
 11
5.9362635081
 21
14.3316029576
 31
0.0
100
AcDbText
 73
     3
  0
LINE
  5
1BD
330
1F
100
AcDbEntity
  8
Default
  6
Continuous
 62
     7
100
AcDbLine
 10
0.0
 20
0.0
 30
0.0
 11
100.0
 21
0.0
 31
0.0
  0
LINE
  5
1BE
330
1F
100
AcDbEntity
  8
Default
  6
Continuous
 62
     7
100
AcDbLine
 10
0.0
 20
0.0
 30
0.0
 11
0.0
 21
100.0
 31
0.0
  0
TEXT
  5
1BF
330
1F
100
AcDbEntity
  8
Default
  6
Continuous
 62
     7
100
AcDbText
 10
24.3923665681
 20
-18.2375342018
 30
0.0
 40
10.0
  1
100 mm
  7
SEACAD_seiso_ttf
 11
24.3923665681
 21
-8.2375342018
 31
0.0
100
AcDbText
 73
     3
  0
TEXT
  5
1C0
330
1F
100
AcDbEntity
  8
Default
  6
Continuous
 62
     7
100
AcDbText
 10
-7.6150308803
 20
24.6231930421
 30
0.0
 40
10.0
  1
100 mm
 50
90.0
  7
SEACAD_seiso_ttf
 11
-17.6150308803
 21
24.6231930421
 31
0.0
100
AcDbText
 73
     3
  0
TEXT
  5
1C1
330
1F
100
AcDbEntity
  8
Default
  6
Continuous
 62
     7
100
AcDbText
 10
28.4878128572
 20
20.0907663715
 30
0.0
 40
10.0
  1
216308
  7
SEACAD_seiso_ttf
 11
28.4878128572
 21
30.0907663715
 31
0.0
100
AcDbText
 73
     3
  0
TEXT
  5
1C2
330
1F
100
AcDbEntity
  8
Default
  6
Continuous
 62
     7
100
AcDbText
 10
5.9012241913
 20
36.7242780188
 30
0.0
 40
10.0
  1
32195000
  7
SEACAD_seiso_ttf
 11
5.9012241913
 21
46.7242780188
 31
0.0
100
AcDbText
 73
     3
  0
ENDSEC
  0
SECTION
  2
OBJECTS
  0
DICTIONARY
  5
C
330
0
100
AcDbDictionary
281
     1
  3
ACAD_GROUP
350
D
  3
ACAD_LAYOUT
350
1A
  3
ACAD_MLEADERSTYLE
350
1C6
  3
ACAD_MLINESTYLE
350
17
  3
ACAD_PLOTSETTINGS
350
19
  3
ACAD_PLOTSTYLENAME
350
E
  3
ACAD_SCALELIST
350
3B
  3
ACAD_TABLESTYLE
350
1C5
  3
ACAD_VISUALSTYLE
350
2A
  3
AcDbVariableDictionary
350
1C3
  0
DICTIONARY
  5
D
102
{ACAD_REACTORS
330
C
102
}
330
C
100
AcDbDictionary
281
     1
  0
DICTIONARY
  5
1A
102
{ACAD_REACTORS
330
C
102
}
330
C
100
AcDbDictionary
281
     1
  3
Layout1
350
1E
  3
Model
350
22
  0
DICTIONARY
  5
1C6
102
{ACAD_REACTORS
330
C
102
}
330
C
100
AcDbDictionary
281
     1
  0
DICTIONARY
  5
17
102
{ACAD_REACTORS
330
C
102
}
330
C
100
AcDbDictionary
281
     1
  3
Standard
350
18
  0
DICTIONARY
  5
19
102
{ACAD_REACTORS
330
C
102
}
330
C
100
AcDbDictionary
281
     1
  0
ACDBDICTIONARYWDFLT
  5
E
102
{ACAD_REACTORS
330
C
102
}
330
C
100
AcDbDictionary
281
     1
  3
Normal
350
F
100
AcDbDictionaryWithDefault
340
F
  0
DICTIONARY
  5
3B
102
{ACAD_REACTORS
330
C
102
}
330
C
100
AcDbDictionary
281
     1
  3
A0
350
3C
  3
A1
350
3D
  3
A2
350
3E
  3
A3
350
3F
  3
A4
350
40
  3
A5
350
41
  3
A6
350
42
  3
A7
350
43
  3
A8
350
44
  3
A9
350
45
  3
B0
350
46
  3
B1
350
47
  3
B2
350
48
  3
B3
350
49
  3
B4
350
4A
  3
B5
350
4B
  3
B6
350
4C
  3
B7
350
4D
  3
B8
350
4E
  3
B9
350
4F
  3
C0
350
50
  3
C1
350
51
  3
C2
350
52
  3
C3
350
53
  3
C4
350
54
  3
C5
350
55
  3
C6
350
56
  3
C7
350
57
  3
C8
350
58
  3
C9
350
59
  3
D0
350
5A
  3
D1
350
5B
  3
D2
350
5C
  0
DICTIONARY
  5
1C5
102
{ACAD_REACTORS
330
C
102
}
330
C
100
AcDbDictionary
281
     1
  0
DICTIONARY
  5
2A
102
{ACAD_REACTORS
330
C
102
}
330
C
100
AcDbDictionary
281
     1
  3
2dWireframe
350
2F
  3
3D Hidden
350
31
  3
3dWireframe
350
30
  3
Basic
350
32
  3
Brighten
350
36
  3
ColorChange
350
3A
  3
Conceptual
350
34
  3
Dim
350
35
  3
Facepattern
350
39
  3
Flat
350
2B
  3
FlatWithEdges
350
2C
  3
Gouraud
350
2D
  3
GouraudWithEdges
350
2E
  3
Linepattern
350
38
  3
Realistic
350
33
  3
Thicken
350
37
  0
DICTIONARY
  5
1C3
102
{ACAD_REACTORS
330
C
102
}
330
C
100
AcDbDictionary
281
     1
  3
CANNOSCALE
350
1C4
  3
PSOLHEIGHT
350
1C8
  3
PSOLWIDTH
350
1C7
  0
LAYOUT
  5
1E
102
{ACAD_REACTORS
330
1A
102
}
330
1A
100
AcDbPlotSettings
  1

  2
none_device
  4

  6

 40
0.0
 41
0.0
 42
0.0
 43
0.0
 44
0.0
 45
0.0
 46
0.0
 47
0.0
 48
0.0
 49
0.0
140
0.0
141
0.0
142
1.0
143
1.0
 70
   688
 72
     0
 73
     0
 74
     5
  7

 75
    16
147
1.0
148
0.0
149
0.0
100
AcDbLayout
  1
Layout1
 70
     1
 71
     1
 10
0.0
 20
0.0
 11
1682.0
 21
2378.0
 12
0.0
 22
0.0
 32
0.0
 14
0.0
 24
0.0
 34
0.0
 15
1682.0
 25
2378.0
 35
0.0
146
0.0
 13
0.0
 23
0.0
 33
0.0
 16
1.0
 26
0.0
 36
0.0
 17
0.0
 27
1.0
 37
0.0
 76
     0
330
1B
  0
LAYOUT
  5
22
102
{ACAD_REACTORS
330
1A
102
}
330
1A
100
AcDbPlotSettings
  1

  2
none_device
  4

  6

 40
0.0
 41
0.0
 42
0.0
 43
0.0
 44
0.0
 45
0.0
 46
0.0
 47
0.0
 48
0.0
 49
0.0
140
0.0
141
0.0
142
1.0
143
1.0
 70
  1712
 72
     0
 73
     0
 74
     0
  7

 75
     0
147
1.0
148
0.0
149
0.0
100
AcDbLayout
  1
Model
 70
     1
 71
     0
 10
0.0
 20
0.0
 11
1682.0
 21
2378.0
 12
0.0
 22
0.0
 32
0.0
 14
0.0
 24
0.0
 34
0.0
 15
1682.0
 25
2378.0
 35
0.0
146
0.0
 13
0.0
 23
0.0
 33
0.0
 16
1.0
 26
0.0
 36
0.0
 17
0.0
 27
1.0
 37
0.0
 76
     0
330
1F
331
29
  0
MLINESTYLE
  5
18
102
{ACAD_REACTORS
330
17
102
}
330
17
100
AcDbMlineStyle
  2
Standard
 70
     0
  3

 62
   256
 51
90.0
 52
90.0
 71
     2
 49
0.5
 62
   256
  6
BYLAYER
 49
-0.5
 62
   256
  6
BYLAYER
  0
ACDBPLACEHOLDER
  5
F
102
{ACAD_REACTORS
330
E
102
}
330
E
  0
SCALE
  5
3C
102
{ACAD_REACTORS
330
3B
102
}
330
3B
100
AcDbScale
 70
     0
300
1:1
140
1.0
141
1.0
290
     1
  0
SCALE
  5
3D
102
{ACAD_REACTORS
330
3B
102
}
330
3B
100
AcDbScale
 70
     0
300
1:2
140
1.0
141
2.0
290
     0
  0
SCALE
  5
3E
102
{ACAD_REACTORS
330
3B
102
}
330
3B
100
AcDbScale
 70
     0
300
1:4
140
1.0
141
4.0
290
     0
  0
SCALE
  5
3F
102
{ACAD_REACTORS
330
3B
102
}
330
3B
100
AcDbScale
 70
     0
300
1:5
140
1.0
141
5.0
290
     0
  0
SCALE
  5
40
102
{ACAD_REACTORS
330
3B
102
}
330
3B
100
AcDbScale
 70
     0
300
1:8
140
1.0
141
8.0
290
     0
  0
SCALE
  5
41
102
{ACAD_REACTORS
330
3B
102
}
330
3B
100
AcDbScale
 70
     0
300
1:10
140
1.0
141
10.0
290
     0
  0
SCALE
  5
42
102
{ACAD_REACTORS
330
3B
102
}
330
3B
100
AcDbScale
 70
     0
300
1:16
140
1.0
141
16.0
290
     0
  0
SCALE
  5
43
102
{ACAD_REACTORS
330
3B
102
}
330
3B
100
AcDbScale
 70
     0
300
1:20
140
1.0
141
20.0
290
     0
  0
SCALE
  5
44
102
{ACAD_REACTORS
330
3B
102
}
330
3B
100
AcDbScale
 70
     0
300
1:30
140
1.0
141
30.0
290
     0
  0
SCALE
  5
45
102
{ACAD_REACTORS
330
3B
102
}
330
3B
100
AcDbScale
 70
     0
300
1:40
140
1.0
141
40.0
290
     0
  0
SCALE
  5
46
102
{ACAD_REACTORS
330
3B
102
}
330
3B
100
AcDbScale
 70
     0
300
1:50
140
1.0
141
50.0
290
     0
  0
SCALE
  5
47
102
{ACAD_REACTORS
330
3B
102
}
330
3B
100
AcDbScale
 70
     0
300
1:100
140
1.0
141
100.0
290
     0
  0
SCALE
  5
48
102
{ACAD_REACTORS
330
3B
102
}
330
3B
100
AcDbScale
 70
     0
300
2:1
140
2.0
141
1.0
290
     0
  0
SCALE
  5
49
102
{ACAD_REACTORS
330
3B
102
}
330
3B
100
AcDbScale
 70
     0
300
4:1
140
4.0
141
1.0
290
     0
  0
SCALE
  5
4A
102
{ACAD_REACTORS
330
3B
102
}
330
3B
100
AcDbScale
 70
     0
300
8:1
140
8.0
141
1.0
290
     0
  0
SCALE
  5
4B
102
{ACAD_REACTORS
330
3B
102
}
330
3B
100
AcDbScale
 70
     0
300
10:1
140
10.0
141
1.0
290
     0
  0
SCALE
  5
4C
102
{ACAD_REACTORS
330
3B
102
}
330
3B
100
AcDbScale
 70
     0
300
100:1
140
100.0
141
1.0
290
     0
  0
SCALE
  5
4D
102
{ACAD_REACTORS
330
3B
102
}
330
3B
100
AcDbScale
 70
     0
300
1/128" = 1'-0"
140
0.0078125
141
12.0
290
     0
  0
SCALE
  5
4E
102
{ACAD_REACTORS
330
3B
102
}
330
3B
100
AcDbScale
 70
     0
300
1/64" = 1'-0"
140
0.015625
141
12.0
290
     0
  0
SCALE
  5
4F
102
{ACAD_REACTORS
330
3B
102
}
330
3B
100
AcDbScale
 70
     0
300
1/32" = 1'-0"
140
0.03125
141
12.0
290
     0
  0
SCALE
  5
50
102
{ACAD_REACTORS
330
3B
102
}
330
3B
100
AcDbScale
 70
     0
300
1/16" = 1'-0"
140
0.0625
141
12.0
290
     0
  0
SCALE
  5
51
102
{ACAD_REACTORS
330
3B
102
}
330
3B
100
AcDbScale
 70
     0
300
3/32" = 1'-0"
140
0.09375
141
12.0
290
     0
  0
SCALE
  5
52
102
{ACAD_REACTORS
330
3B
102
}
330
3B
100
AcDbScale
 70
     0
300
1/8" = 1'-0"
140
0.125
141
12.0
290
     0
  0
SCALE
  5
53
102
{ACAD_REACTORS
330
3B
102
}
330
3B
100
AcDbScale
 70
     0
300
3/16" = 1'-0"
140
0.1875
141
12.0
290
     0
  0
SCALE
  5
54
102
{ACAD_REACTORS
330
3B
102
}
330
3B
100
AcDbScale
 70
     0
300
1/4" = 1'-0"
140
0.25
141
12.0
290
     0
  0
SCALE
  5
55
102
{ACAD_REACTORS
330
3B
102
}
330
3B
100
AcDbScale
 70
     0
300
3/8" = 1'-0"
140
0.375
141
12.0
290
     0
  0
SCALE
  5
56
102
{ACAD_REACTORS
330
3B
102
}
330
3B
100
AcDbScale
 70
     0
300
1/2" = 1'-0"
140
0.5
141
12.0
290
     0
  0
SCALE
  5
57
102
{ACAD_REACTORS
330
3B
102
}
330
3B
100
AcDbScale
 70
     0
300
3/4" = 1'-0"
140
0.75
141
12.0
290
     0
  0
SCALE
  5
58
102
{ACAD_REACTORS
330
3B
102
}
330
3B
100
AcDbScale
 70
     0
300
1" = 1'-0"
140
1.0
141
12.0
290
     0
  0
SCALE
  5
59
102
{ACAD_REACTORS
330
3B
102
}
330
3B
100
AcDbScale
 70
     0
300
1-1/2" = 1'-0"
140
1.5
141
12.0
290
     0
  0
SCALE
  5
5A
102
{ACAD_REACTORS
330
3B
102
}
330
3B
100
AcDbScale
 70
     0
300
3" = 1'-0"
140
3.0
141
12.0
290
     0
  0
SCALE
  5
5B
102
{ACAD_REACTORS
330
3B
102
}
330
3B
100
AcDbScale
 70
     0
300
6" = 1'-0"
140
6.0
141
12.0
290
     0
  0
SCALE
  5
5C
102
{ACAD_REACTORS
330
3B
102
}
330
3B
100
AcDbScale
 70
     0
300
1'-0" = 1'-0"
140
12.0
141
12.0
290
     0
  0
VISUALSTYLE
  5
2F
102
{ACAD_REACTORS
330
2A
102
}
330
2A
100
AcDbVisualStyle
  2
2dWireframe
 70
     4
 71
     0
 72
     2
 73
     0
 90
        0
 40
-0.6
 41
-30.0
 62
     5
 63
     7
 74
     1
 91
        4
 64
     7
 65
   257
 75
     1
175
     1
 42
1.0
 92
        0
 66
   257
 43
1.0
 76
     1
 77
     6
 78
     2
 67
     7
 79
     5
170
     0
171
     0
290
     0
174
     0
 93
        1
 44
0.0
173
     0
291
     0
 45
0.0
1001
ACAD
1000
AcDbSavedByObjectVersion
1070
     0
  0
VISUALSTYLE
  5
31
102
{ACAD_REACTORS
330
2A
102
}
330
2A
100
AcDbVisualStyle
  2
3D Hidden
 70
     6
 71
     1
 72
     2
 73
     2
 90
        0
 40
-0.6
 41
-30.0
 62
     5
 63
     7
 74
     2
 91
        2
 64
     7
 65
   257
 75
     2
175
     1
 42
40.0
 92
        0
 66
   257
 43
1.0
 76
     1
 77
     6
 78
     2
 67
     7
 79
     3
170
     0
171
     0
290
     0
174
     0
 93
        1
 44
0.0
173
     0
291
     0
 45
0.0
1001
ACAD
1000
AcDbSavedByObjectVersion
1070
     0
  0
VISUALSTYLE
  5
30
102
{ACAD_REACTORS
330
2A
102
}
330
2A
100
AcDbVisualStyle
  2
3dWireframe
 70
     5
 71
     0
 72
     2
 73
     0
 90
        0
 40
-0.6
 41
-30.0
 62
     5
 63
     7
 74
     1
 91
        4
 64
     7
 65
   257
 75
     1
175
     1
 42
1.0
 92
        0
 66
   257
 43
1.0
 76
     1
 77
     6
 78
     2
 67
     7
 79
     5
170
     0
171
     0
290
     0
174
     0
 93
        1
 44
0.0
173
     0
291
     0
 45
0.0
1001
ACAD
1000
AcDbSavedByObjectVersion
1070
     0
  0
VISUALSTYLE
  5
32
102
{ACAD_REACTORS
330
2A
102
}
330
2A
100
AcDbVisualStyle
  2
Basic
 70
     7
 71
     1
 72
     0
 73
     1
 90
        0
 40
-0.6
 41
-30.0
 62
     5
 63
     7
 74
     0
 91
        4
 64
     7
 65
   257
 75
     1
175
     1
 42
1.0
 92
        8
 66
     7
 43
1.0
 76
     1
 77
     6
 78
     2
 67
     7
 79
     5
170
     0
171
     0
290
     0
174
     0
 93
        1
 44
0.0
173
     0
291
     1
 45
0.0
1001
ACAD
1000
AcDbSavedByObjectVersion
1070
     0
  0
VISUALSTYLE
  5
36
102
{ACAD_REACTORS
330
2A
102
}
330
2A
100
AcDbVisualStyle
  2
Brighten
 70
    12
 71
     2
 72
     2
 73
     0
 90
        0
 40
-0.6
 41
-30.0
 62
     5
 63
     7
 74
     1
 91
        4
 64
     7
 65
   257
 75
     1
175
     1
 42
1.0
 92
        8
 66
     7
 43
1.0
 76
     1
 77
     6
 78
     2
 67
     7
 79
     5
170
     0
171
     0
290
     0
174
     0
 93
        1
 44
50.0
173
     0
291
     1
 45
0.0
1001
ACAD
1000
AcDbSavedByObjectVersion
1070
     0
  0
VISUALSTYLE
  5
3A
102
{ACAD_REACTORS
330
2A
102
}
330
2A
100
AcDbVisualStyle
  2
ColorChange
 70
    16
 71
     2
 72
     2
 73
     3
 90
        0
 40
-0.6
 41
-30.0
 62
     5
 63
     8
 74
     1
 91
        4
 64
     7
 65
   257
 75
     1
175
     1
 42
1.0
 92
        8
 66
     8
 43
1.0
 76
     1
 77
     6
 78
     2
 67
     7
 79
     5
170
     0
171
     0
290
     0
174
     0
 93
        1
 44
0.0
173
     0
291
     1
 45
0.0
1001
ACAD
1000
AcDbSavedByObjectVersion
1070
     0
  0
VISUALSTYLE
  5
34
102
{ACAD_REACTORS
330
2A
102
}
330
2A
100
AcDbVisualStyle
  2
Conceptual
 70
     9
 71
     3
 72
     2
 73
     0
 90
        0
 40
-0.6
 41
-30.0
 62
     5
 63
     7
 74
     2
 91
        2
 64
     7
 65
   257
 75
     1
175
     1
 42
40.0
 92
        8
 66
     7
 43
1.0
 76
     1
 77
     6
 78
     2
 67
     7
 79
     3
170
     0
171
     0
290
     0
174
     0
 93
        1
 44
0.0
173
     0
291
     0
 45
0.0
1001
ACAD
1000
AcDbSavedByObjectVersion
1070
     0
  0
VISUALSTYLE
  5
35
102
{ACAD_REACTORS
330
2A
102
}
330
2A
100
AcDbVisualStyle
  2
Dim
 70
    11
 71
     2
 72
     2
 73
     0
 90
        0
 40
-0.6
 41
-30.0
 62
     5
 63
     7
 74
     1
 91
        4
 64
     7
 65
   257
 75
     1
175
     1
 42
1.0
 92
        8
 66
     7
 43
1.0
 76
     1
 77
     6
 78
     2
 67
     7
 79
     5
170
     0
171
     0
290
     0
174
     0
 93
        1
 44
-50.0
173
     0
291
     1
 45
0.0
1001
ACAD
1000
AcDbSavedByObjectVersion
1070
     0
  0
VISUALSTYLE
  5
39
102
{ACAD_REACTORS
330
2A
102
}
330
2A
100
AcDbVisualStyle
  2
Facepattern
 70
    15
 71
     2
 72
     2
 73
     0
 90
        0
 40
-0.6
 41
-30.0
 62
     5
 63
     7
 74
     1
 91
        4
 64
     7
 65
   257
 75
     1
175
     1
 42
1.0
 92
        8
 66
     7
 43
1.0
 76
     1
 77
     6
 78
     2
 67
     7
 79
     5
170
     0
171
     0
290
     0
174
     0
 93
        1
 44
0.0
173
     0
291
     1
 45
0.0
1001
ACAD
1000
AcDbSavedByObjectVersion
1070
     0
  0
VISUALSTYLE
  5
2B
102
{ACAD_REACTORS
330
2A
102
}
330
2A
100
AcDbVisualStyle
  2
Flat
 70
     0
 71
     2
 72
     1
 73
     1
 90
        2
 40
-0.6
 41
30.0
 62
     5
 63
     7
 74
     0
 91
        4
 64
     7
 65
   257
 75
     1
175
     1
 42
1.0
 92
        8
 66
     7
 43
1.0
 76
     1
 77
     6
 78
     2
 67
     7
 79
     5
170
     0
171
     0
290
     0
174
     0
 93
       13
 44
0.0
173
     0
291
     1
 45
0.0
1001
ACAD
1000
AcDbSavedByObjectVersion
1070
     0
  0
VISUALSTYLE
  5
2C
102
{ACAD_REACTORS
330
2A
102
}
330
2A
100
AcDbVisualStyle
  2
FlatWithEdges
 70
     1
 71
     2
 72
     1
 73
     1
 90
        2
 40
-0.6
 41
30.0
 62
     5
 63
     7
 74
     1
 91
        4
 64
     7
 65
   257
 75
     1
175
     1
 42
1.0
 92
        0
 66
   257
 43
1.0
 76
     1
 77
     6
 78
     2
 67
     7
 79
     5
170
     0
171
     0
290
     0
174
     0
 93
       13
 44
0.0
173
     0
291
     1
 45
0.0
1001
ACAD
1000
AcDbSavedByObjectVersion
1070
     0
  0
VISUALSTYLE
  5
2D
102
{ACAD_REACTORS
330
2A
102
}
330
2A
100
AcDbVisualStyle
  2
Gouraud
 70
     2
 71
     2
 72
     2
 73
     1
 90
        2
 40
-0.6
 41
30.0
 62
     5
 63
     7
 74
     0
 91
        4
 64
     7
 65
   257
 75
     1
175
     1
 42
1.0
 92
        0
 66
     7
 43
1.0
 76
     1
 77
     6
 78
     2
 67
     7
 79
     5
170
     0
171
     0
290
     0
174
     0
 93
       13
 44
0.0
173
     0
291
     1
 45
0.0
1001
ACAD
1000
AcDbSavedByObjectVersion
1070
     0
  0
VISUALSTYLE
  5
2E
102
{ACAD_REACTORS
330
2A
102
}
330
2A
100
AcDbVisualStyle
  2
GouraudWithEdges
 70
     3
 71
     2
 72
     2
 73
     1
 90
        2
 40
-0.6
 41
30.0
 62
     5
 63
     7
 74
     1
 91
        4
 64
     7
 65
   257
 75
     1
175
     1
 42
1.0
 92
        0
 66
   257
 43
1.0
 76
     1
 77
     6
 78
     2
 67
     7
 79
     5
170
     0
171
     0
290
     0
174
     0
 93
       13
 44
0.0
173
     0
291
     1
 45
0.0
1001
ACAD
1000
AcDbSavedByObjectVersion
1070
     0
  0
VISUALSTYLE
  5
38
102
{ACAD_REACTORS
330
2A
102
}
330
2A
100
AcDbVisualStyle
  2
Linepattern
 70
    14
 71
     2
 72
     2
 73
     0
 90
        0
 40
-0.6
 41
-30.0
 62
     5
 63
     7
 74
     1
 91
        4
 64
     7
 65
   257
 75
     7
175
     7
 42
1.0
 92
        8
 66
     7
 43
1.0
 76
     1
 77
     6
 78
     2
 67
     7
 79
     5
170
     0
171
     0
290
     0
174
     0
 93
        1
 44
0.0
173
     0
291
     1
 45
0.0
1001
ACAD
1000
AcDbSavedByObjectVersion
1070
     0
  0
VISUALSTYLE
  5
33
102
{ACAD_REACTORS
330
2A
102
}
330
2A
100
AcDbVisualStyle
  2
Realistic
 70
     8
 71
     2
 72
     2
 73
     0
 90
        0
 40
-0.6
 41
-30.0
 62
     5
 63
     7
 74
     1
 91
        0
 64
     7
 65
   257
 75
     1
175
     1
 42
1.0
 92
        8
 66
     8
 43
1.0
 76
     1
 77
     6
 78
     2
 67
     7
 79
     5
170
     0
171
     0
290
     0
174
     0
 93
       13
 44
0.0
173
     0
291
     0
 45
0.0
1001
ACAD
1000
AcDbSavedByObjectVersion
1070
     0
  0
VISUALSTYLE
  5
37
102
{ACAD_REACTORS
330
2A
102
}
330
2A
100
AcDbVisualStyle
  2
Thicken
 70
    13
 71
     2
 72
     2
 73
     0
 90
        0
 40
-0.6
 41
-30.0
 62
     5
 63
     7
 74
     1
 91
        4
 64
     7
 65
   257
 75
     1
175
     1
 42
1.0
 92
       12
 66
     7
 43
1.0
 76
     1
 77
     6
 78
     2
 67
     7
 79
     5
170
     0
171
     0
290
     0
174
     0
 93
        1
 44
0.0
173
     0
291
     1
 45
0.0
1001
ACAD
1000
AcDbSavedByObjectVersion
1070
     0
  0
DICTIONARYVAR
  5
1C4
102
{ACAD_REACTORS
330
1C3
102
}
330
1C3
100
DictionaryVariables
280
     0
  1
1:1
  0
DICTIONARYVAR
  5
1C8
102
{ACAD_REACTORS
330
1C3
102
}
330
1C3
100
DictionaryVariables
280
     0
  1
80.000000
  0
DICTIONARYVAR
  5
1C7
102
{ACAD_REACTORS
330
1C3
102
}
330
1C3
100
DictionaryVariables
280
     0
  1
5.000000
  0
ENDSEC
  0
EOF
