  0
SECTION
  2
HEADER
  9
$ACADVER
  1
AC1015
  9
$ACADMAINTVER
 70
     6
  9
$DWGCODEPAGE
  3
ANSI_1252
  9
$INSBASE
 10
0.0
 20
0.0
 30
0.0
  9
$EXTMIN
 10
0.0
 20
0.0
 30
0.0
  9
$EXTMAX
 10
1682.0
 20
2378.0
 30
0.0
  9
$LIMMIN
 10
0.0
 20
0.0
  9
$LIMMAX
 10
1682.0
 20
2378.0
  9
$ORTHOMODE
 70
     0
  9
$REGENMODE
 70
     1
  9
$FILLMODE
 70
     1
  9
$QTEXTMODE
 70
     0
  9
$MIRRTEXT
 70
     1
  9
$LTSCALE
 40
1.0
  9
$ATTMODE
 70
     1
  9
$TEXTSIZE
 40
2.5
  9
$TRACEWID
 40
1.0
  9
$TEXTSTYLE
  7
Standard
  9
$CLAYER
  8
0
  9
$CELTYPE
  6
ByLayer
  9
$CECOLOR
 62
   256
  9
$CELTSCALE
 40
1.0
  9
$DISPSILH
 70
     0
  9
$DIMSCALE
 40
1.0
  9
$DIMASZ
 40
2.5
  9
$DIMEXO
 40
0.625
  9
$DIMDLI
 40
3.75
  9
$DIMRND
 40
0.0
  9
$DIMDLE
 40
0.0
  9
$DIMEXE
 40
1.25
  9
$DIMTP
 40
0.0
  9
$DIMTM
 40
0.0
  9
$DIMTXT
 40
2.5
  9
$DIMCEN
 40
2.5
  9
$DIMTSZ
 40
0.0
  9
$DIMTOL
 70
     0
  9
$DIMLIM
 70
     0
  9
$DIMTIH
 70
     0
  9
$DIMTOH
 70
     0
  9
$DIMSE1
 70
     0
  9
$DIMSE2
 70
     0
  9
$DIMTAD
 70
     1
  9
$DIMZIN
 70
     8
  9
$DIMBLK
  1

  9
$DIMASO
 70
     1
  9
$DIMSHO
 70
     1
  9
$DIMPOST
  1

  9
$DIMAPOST
  1

  9
$DIMALT
 70
     0
  9
$DIMALTD
 70
     3
  9
$DIMALTF
 40
0.0393700787
  9
$DIMLFAC
 40
1.0
  9
$DIMTOFL
 70
     1
  9
$DIMTVP
 40
0.0
  9
$DIMTIX
 70
     0
  9
$DIMSOXD
 70
     0
  9
$DIMSAH
 70
     0
  9
$DIMBLK1
  1

  9
$DIMBLK2
  1

  9
$DIMSTYLE
  2
ISO-25
  9
$DIMCLRD
 70
     0
  9
$DIMCLRE
 70
     0
  9
$DIMCLRT
 70
     0
  9
$DIMTFAC
 40
1.0
  9
$DIMGAP
 40
0.625
  9
$DIMJUST
 70
     0
  9
$DIMSD1
 70
     0
  9
$DIMSD2
 70
     0
  9
$DIMTOLJ
 70
     0
  9
$DIMTZIN
 70
     8
  9
$DIMALTZ
 70
     0
  9
$DIMALTTZ
 70
     0
  9
$DIMUPT
 70
     0
  9
$DIMDEC
 70
     2
  9
$DIMTDEC
 70
     2
  9
$DIMALTU
 70
     2
  9
$DIMALTTD
 70
     3
  9
$DIMTXSTY
  7
Standard
  9
$DIMAUNIT
 70
     0
  9
$DIMADEC
 70
     0
  9
$DIMALTRND
 40
0.0
  9
$DIMAZIN
 70
     0
  9
$DIMDSEP
 70
    44
  9
$DIMATFIT
 70
     3
  9
$DIMFRAC
 70
     0
  9
$DIMLDRBLK
  1

  9
$DIMLUNIT
 70
     2
  9
$DIMLWD
 70
    -2
  9
$DIMLWE
 70
    -2
  9
$DIMTMOVE
 70
     0
  9
$LUNITS
 70
     2
  9
$LUPREC
 70
     4
  9
$SKETCHINC
 40
1.0
  9
$FILLETRAD
 40
10.0
  9
$AUNITS
 70
     0
  9
$AUPREC
 70
     0
  9
$MENU
  1
.
  9
$ELEVATION
 40
0.0
  9
$PELEVATION
 40
0.0
  9
$THICKNESS
 40
0.0
  9
$LIMCHECK
 70
     0
  9
$CHAMFERA
 40
10.0
  9
$CHAMFERB
 40
10.0
  9
$CHAMFERC
 40
20.0
  9
$CHAMFERD
 40
0.0
  9
$SKPOLY
 70
     0
  9
$TDCREATE
 40
2455138.53551419
  9
$TDUCREATE
 40
2455138.493847523
  9
$TDUPDATE
 40
2455138.535514202
  9
$TDUUPDATE
 40
2455138.493847535
  9
$TDINDWG
 40
0.0000000116
  9
$TDUSRTIMER
 40
0.0000000116
  9
$USRTIMER
 70
     1
  9
$ANGBASE
 50
0.0
  9
$ANGDIR
 70
     0
  9
$PDMODE
 70
     0
  9
$PDSIZE
 40
0.0
  9
$PLINEWID
 40
0.0
  9
$SPLFRAME
 70
     0
  9
$SPLINETYPE
 70
     6
  9
$SPLINESEGS
 70
     8
  9
$HANDSEED
  5
12F
  9
$SURFTAB1
 70
     6
  9
$SURFTAB2
 70
     6
  9
$SURFTYPE
 70
     6
  9
$SURFU
 70
     6
  9
$SURFV
 70
     6
  9
$UCSBASE
  2

  9
$UCSNAME
  2

  9
$UCSORG
 10
0.0
 20
0.0
 30
0.0
  9
$UCSXDIR
 10
1.0
 20
0.0
 30
0.0
  9
$UCSYDIR
 10
0.0
 20
1.0
 30
0.0
  9
$UCSORTHOREF
  2

  9
$UCSORTHOVIEW
 70
     0
  9
$UCSORGTOP
 10
0.0
 20
0.0
 30
0.0
  9
$UCSORGBOTTOM
 10
0.0
 20
0.0
 30
0.0
  9
$UCSORGLEFT
 10
0.0
 20
0.0
 30
0.0
  9
$UCSORGRIGHT
 10
0.0
 20
0.0
 30
0.0
  9
$UCSORGFRONT
 10
0.0
 20
0.0
 30
0.0
  9
$UCSORGBACK
 10
0.0
 20
0.0
 30
0.0
  9
$PUCSBASE
  2

  9
$PUCSNAME
  2

  9
$PUCSORG
 10
0.0
 20
0.0
 30
0.0
  9
$PUCSXDIR
 10
1.0
 20
0.0
 30
0.0
  9
$PUCSYDIR
 10
0.0
 20
1.0
 30
0.0
  9
$PUCSORTHOREF
  2

  9
$PUCSORTHOVIEW
 70
     0
  9
$PUCSORGTOP
 10
0.0
 20
0.0
 30
0.0
  9
$PUCSORGBOTTOM
 10
0.0
 20
0.0
 30
0.0
  9
$PUCSORGLEFT
 10
0.0
 20
0.0
 30
0.0
  9
$PUCSORGRIGHT
 10
0.0
 20
0.0
 30
0.0
  9
$PUCSORGFRONT
 10
0.0
 20
0.0
 30
0.0
  9
$PUCSORGBACK
 10
0.0
 20
0.0
 30
0.0
  9
$USERI1
 70
     0
  9
$USERI2
 70
     0
  9
$USERI3
 70
     0
  9
$USERI4
 70
     0
  9
$USERI5
 70
     0
  9
$USERR1
 40
0.0
  9
$USERR2
 40
0.0
  9
$USERR3
 40
0.0
  9
$USERR4
 40
0.0
  9
$USERR5
 40
0.0
  9
$WORLDVIEW
 70
     1
  9
$SHADEDGE
 70
     3
  9
$SHADEDIF
 70
    70
  9
$TILEMODE
 70
     1
  9
$MAXACTVP
 70
    64
  9
$PINSBASE
 10
0.0
 20
0.0
 30
0.0
  9
$PLIMCHECK
 70
     0
  9
$PEXTMIN
 10
0.0
 20
0.0
 30
0.0
  9
$PEXTMAX
 10
1682.0
 20
2378.0
 30
0.0
  9
$PLIMMIN
 10
0.0
 20
0.0
  9
$PLIMMAX
 10
1682.0
 20
2378.0
  9
$UNITMODE
 70
     0
  9
$VISRETAIN
 70
     1
  9
$PLINEGEN
 70
     0
  9
$PSLTSCALE
 70
     1
  9
$TREEDEPTH
 70
  3020
  9
$CMLSTYLE
  2
Standard
  9
$CMLJUST
 70
     0
  9
$CMLSCALE
 40
20.0
  9
$PROXYGRAPHICS
 70
     1
  9
$MEASUREMENT
 70
     1
  9
$CELWEIGHT
370
    -1
  9
$ENDCAPS
280
     0
  9
$JOINSTYLE
280
     0
  9
$LWDISPLAY
290
     0
  9
$INSUNITS
 70
     4
  9
$HYPERLINKBASE
  1

  9
$STYLESHEET
  1

  9
$XEDIT
290
     1
  9
$CEPSNTYPE
380
     0
  9
$PSTYLEMODE
290
     1
  9
$FINGERPRINTGUID
  2
{3A79E12A-8FAB-466A-BA82-6120178BC8C3}
  9
$VERSIONGUID
  2
{FAEB1C32-E019-11D5-929B-00C0DF256EC4}
  9
$EXTNAMES
290
     1
  9
$PSVPSCALE
 40
0.0
  9
$OLESTARTUP
290
     0
  0
ENDSEC
  0
SECTION
  2
CLASSES
  0
CLASS
  1
ACDBDICTIONARYWDFLT
  2
AcDbDictionaryWithDefault
  3
ObjectDBX Classes
 90
        0
280
     0
281
     0
  0
CLASS
  1
VISUALSTYLE
  2
AcDbVisualStyle
  3
ObjectDBX Classes
 90
     4095
280
     0
281
     0
  0
CLASS
  1
SCALE
  2
AcDbScale
  3
ObjectDBX Classes
 90
     1153
280
     0
281
     0
  0
CLASS
  1
DICTIONARYVAR
  2
AcDbDictionaryVar
  3
ObjectDBX Classes
 90
        0
280
     0
281
     0
  0
CLASS
  1
ACDBPLACEHOLDER
  2
AcDbPlaceHolder
  3
ObjectDBX Classes
 90
        0
280
     0
281
     0
  0
CLASS
  1
LAYOUT
  2
AcDbLayout
  3
ObjectDBX Classes
 90
        0
280
     0
281
     0
  0
ENDSEC
  0
SECTION
  2
TABLES
  0
TABLE
  2
VPORT
  5
8
330
0
100
AcDbSymbolTable
 70
     1
  0
VPORT
  5
29
330
8
100
AcDbSymbolTableRecord
100
AcDbViewportTableRecord
  2
*Active
 70
     0
 10
0.0
 20
0.0
 11
1.0
 21
1.0
 12
344.1869158879
 22
148.5
 13
0.0
 23
0.0
 14
10.0
 24
10.0
 15
10.0
 25
10.0
 16
0.0
 26
0.0
 36
1.0
 17
0.0
 27
0.0
 37
0.0
 40
297.0
 41
1.9729729729
 42
50.0
 43
0.0
 44
0.0
 50
0.0
 51
0.0
 71
     0
 72
   100
 73
     1
 74
     3
 75
     0
 76
     0
 77
     0
 78
     0
281
     0
 65
     1
110
0.0
120
0.0
130
0.0
111
1.0
121
0.0
131
0.0
112
0.0
122
1.0
132
0.0
 79
     0
146
0.0
  0
ENDTAB
  0
TABLE
  2
LTYPE
  5
5
330
0
100
AcDbSymbolTable
 70
     1
  0
LTYPE
  5
14
330
5
100
AcDbSymbolTableRecord
100
AcDbLinetypeTableRecord
  2
ByBlock
 70
     0
  3

 72
    65
 73
     0
 40
0.0
  0
LTYPE
  5
15
330
5
100
AcDbSymbolTableRecord
100
AcDbLinetypeTableRecord
  2
ByLayer
 70
     0
  3

 72
    65
 73
     0
 40
0.0
  0
LTYPE
  5
16
330
5
100
AcDbSymbolTableRecord
100
AcDbLinetypeTableRecord
  2
Continuous
 70
     0
  3
Solid line
 72
    65
 73
     0
 40
0.0
  0
ENDTAB
  0
TABLE
  2
LAYER
  5
2
330
0
100
AcDbSymbolTable
 70
     4
  0
LAYER
  5
10
330
2
100
AcDbSymbolTableRecord
100
AcDbLayerTableRecord
  2
0
 70
     0
 62
     7
  6
Continuous
370
    -3
390
F
  0
LAYER
  5
5D
330
2
100
AcDbSymbolTableRecord
100
AcDbLayerTableRecord
  2
Default
 70
     0
 62
     7
  6
Continuous
370
    -3
390
F
  0
LAYER
  5
60
330
2
100
AcDbSymbolTableRecord
100
AcDbLayerTableRecord
  2
40308000_HANDTUC
 70
     0
 62
     7
  6
Continuous
370
    -3
390
F
  0
LAYER
  5
D2
330
2
100
AcDbSymbolTableRecord
100
AcDbLayerTableRecord
  2
DV2_Standard
 70
     0
 62
     7
  6
Continuous
370
    -3
390
F
  0
ENDTAB
  0
TABLE
  2
STYLE
  5
3
330
0
100
AcDbSymbolTable
 70
     2
  0
STYLE
  5
11
330
3
100
AcDbSymbolTableRecord
100
AcDbTextStyleTableRecord
  2
Standard
 70
     0
 40
0.0
 41
1.0
 50
0.0
 71
     0
 42
2.5
  3
txt
  4

  0
STYLE
  5
11E
330
3
100
AcDbSymbolTableRecord
100
AcDbTextStyleTableRecord
  2
SEACAD_seiso_ttf
 70
     0
 40
0.0
 41
1.0
 50
0.0
 71
     0
 42
0.2
  3
seiso.ttf
  4

  0
ENDTAB
  0
TABLE
  2
VIEW
  5
6
330
0
100
AcDbSymbolTable
 70
     0
  0
ENDTAB
  0
TABLE
  2
UCS
  5
7
330
0
100
AcDbSymbolTable
 70
     0
  0
ENDTAB
  0
TABLE
  2
APPID
  5
9
330
0
100
AcDbSymbolTable
 70
     1
  0
APPID
  5
12
330
9
100
AcDbSymbolTableRecord
100
AcDbRegAppTableRecord
  2
ACAD
 70
     0
  0
ENDTAB
  0
TABLE
  2
DIMSTYLE
  5
A
330
0
100
AcDbSymbolTable
 70
     1
100
AcDbDimStyleTable
  0
DIMSTYLE
105
27
330
A
100
AcDbSymbolTableRecord
100
AcDbDimStyleTableRecord
  2
ISO-25
 70
     0
 41
2.5
 42
0.625
 43
3.75
 44
1.25
 73
     0
 74
     0
 77
     1
 78
     8
140
2.5
141
2.5
143
0.0393700787
147
0.625
171
     3
172
     1
271
     2
272
     2
274
     3
278
    44
283
     0
284
     8
340
11
  0
ENDTAB
  0
TABLE
  2
BLOCK_RECORD
  5
1
330
0
100
AcDbSymbolTable
 70
     4
  0
BLOCK_RECORD
  5
1F
330
1
100
AcDbSymbolTableRecord
100
AcDbBlockTableRecord
  2
*Model_Space
340
22
  0
BLOCK_RECORD
  5
1B
330
1
100
AcDbSymbolTableRecord
100
AcDbBlockTableRecord
  2
*Paper_Space
340
1E
  0
BLOCK_RECORD
  5
5E
330
1
100
AcDbSymbolTableRecord
100
AcDbBlockTableRecord
  2
SE
340
0
102
{BLKREFS
331
5F
102
}
  0
BLOCK_RECORD
  5
89
330
1
100
AcDbSymbolTableRecord
100
AcDbBlockTableRecord
  2
SE1
340
0
102
{BLKREFS
331
8A
102
}
  0
BLOCK_RECORD
  5
D6
330
1
100
AcDbSymbolTableRecord
100
AcDbBlockTableRecord
  2
SE2
340
0
102
{BLKREFS
331
D7
102
}
  0
ENDTAB
  0
ENDSEC
  0
SECTION
  2
BLOCKS
  0
BLOCK
  5
20
330
1F
100
AcDbEntity
  8
0
100
AcDbBlockBegin
  2
*Model_Space
 70
     0
 10
0.0
 20
0.0
 30
0.0
  3
*Model_Space
  1

  0
ENDBLK
  5
21
330
1F
100
AcDbEntity
  8
0
100
AcDbBlockEnd
  0
BLOCK
  5
1C
330
1B
100
AcDbEntity
 67
     1
  8
0
100
AcDbBlockBegin
  2
*Paper_Space
 70
     0
 10
0.0
 20
0.0
 30
0.0
  3
*Paper_Space
  1

  0
ENDBLK
  5
1D
330
1B
100
AcDbEntity
 67
     1
  8
0
100
AcDbBlockEnd
  0
BLOCK
  5
87
330
5E
100
AcDbEntity
  8
0
100
AcDbBlockBegin
  2
SE
 70
     0
 10
0.0
 20
0.0
 30
0.0
  3
SE
  1

  0
LINE
  5
61
330
5E
100
AcDbEntity
  8
40308000_HANDTUC
  6
Continuous
 62
     7
100
AcDbLine
 10
31.1
 20
689.1286796563
 30
0.0
 11
65.6
 21
689.1286796563
 31
0.0
  0
LINE
  5
62
330
5E
100
AcDbEntity
  8
40308000_HANDTUC
  6
Continuous
 62
     7
100
AcDbLine
 10
31.1
 20
688.1286796563
 30
0.0
 11
65.6
 21
688.1286796563
 31
0.0
  0
LINE
  5
63
330
5E
100
AcDbEntity
  8
40308000_HANDTUC
  6
Continuous
 62
     7
100
AcDbLine
 10
65.6
 20
688.1286796563
 30
0.0
 11
65.6
 21
689.1286796563
 31
0.0
  0
LINE
  5
64
330
5E
100
AcDbEntity
  8
40308000_HANDTUC
  6
Continuous
 62
     7
100
AcDbLine
 10
31.1
 20
689.1286796563
 30
0.0
 11
31.1
 21
688.1286796563
 31
0.0
  0
CIRCLE
  5
65
330
5E
100
AcDbEntity
  8
40308000_HANDTUC
  6
Continuous
 62
     7
100
AcDbCircle
 10
15.35
 20
701.1286796563
 30
0.0
 40
8.58585858585858
  0
CIRCLE
  5
66
330
5E
100
AcDbEntity
  8
40308000_HANDTUC
  6
Continuous
 62
     7
100
AcDbCircle
 10
15.35
 20
701.1286796563
 30
0.0
 40
9.0
  0
CIRCLE
  5
67
330
5E
100
AcDbEntity
  8
40308000_HANDTUC
  6
Continuous
 62
     7
100
AcDbCircle
 10
81.3539610306
 20
701.1286796563
 30
0.0
 40
8.58585858585858
  0
CIRCLE
  5
68
330
5E
100
AcDbEntity
  8
40308000_HANDTUC
  6
Continuous
 62
     7
100
AcDbCircle
 10
81.3539610306
 20
701.1286796563
 30
0.0
 40
9.0
  0
ELLIPSE
  5
69
330
5E
100
AcDbEntity
  8
40308000_HANDTUC
  6
Continuous
 62
     7
100
AcDbEllipse
 10
21.5007575951
 20
701.1286796563
 30
0.0
 11
0.0
 21
5.968574822541977
 31
0.0
210
0.0
220
0.0
230
1.0
 40
1.0
 41
3.24452612768431
 42
6.180251833084977
  0
LINE
  5
6A
330
5E
100
AcDbEntity
  8
40308000_HANDTUC
  6
Continuous
 62
     7
100
AcDbLine
 10
36.4828076631
 20
707.1286796563
 30
0.0
 11
35.4918115912
 21
707.1286796563
 31
0.0
  0
LINE
  5
6B
330
5E
100
AcDbEntity
  8
40308000_HANDTUC
  6
Continuous
 62
     7
100
AcDbLine
 10
35.4685392599
 20
707.1286796563
 30
0.0
 11
22.0582039325
 21
707.1286796563
 31
0.0
  0
LINE
  5
6C
330
5E
100
AcDbEntity
  8
40308000_HANDTUC
  6
Continuous
 62
     7
100
AcDbLine
 10
22.0582039325
 20
695.1286796563
 30
0.0
 11
36.5147541997
 21
695.1286796563
 31
0.0
  0
ELLIPSE
  5
6D
330
5E
100
AcDbEntity
  8
40308000_HANDTUC
  6
Continuous
 62
     7
100
AcDbEllipse
 10
75.2032034355
 20
701.1286796563
 30
0.0
 11
0.0
 21
5.968574822541979
 31
0.0
210
0.0
220
0.0
230
1.0
 40
1.0
 41
0.1029334740945196
 42
3.038659179495274
  0
LINE
  5
6E
330
5E
100
AcDbEntity
  8
40308000_HANDTUC
  6
Continuous
 62
     7
100
AcDbLine
 10
74.6457570981
 20
707.1286796563
 30
0.0
 11
60.216156978
 21
707.1286796563
 31
0.0
  0
LINE
  5
6F
330
5E
100
AcDbEntity
  8
40308000_HANDTUC
  6
Continuous
 62
     7
100
AcDbLine
 10
60.1883604724
 20
695.1286796563
 30
0.0
 11
74.6457570981
 21
695.1286796563
 31
0.0
  0
LINE
  5
70
330
5E
100
AcDbEntity
  8
40308000_HANDTUC
  6
Continuous
 62
     7
100
AcDbLine
 10
31.35
 20
713.1286796563
 30
0.0
 11
65.35
 21
713.1286796563
 31
0.0
  0
SPLINE
  5
71
330
5E
100
AcDbEntity
  8
40308000_HANDTUC
  6
Continuous
 62
     7
100
AcDbSpline
210
0.0
220
0.0
230
1.0
 70
     8
 71
     3
 72
     8
 73
     4
 74
     0
 42
0.0000000003742724
 43
0.0000000001
 40
0.0
 40
0.0
 40
0.0
 40
0.0
 40
0.0194675545420661
 40
0.0194675545420661
 40
0.0194675545420661
 40
0.0194675545420661
 10
60.72272084506395
 20
695.0786801050762
 30
0.0
 10
60.90028549912903
 20
695.0785833985669
 30
0.0
 10
61.07260287791141
 20
695.0945752558883
 30
0.0
 10
61.23921715375982
 20
695.1258359902462
 30
0.0
  0
SPLINE
  5
72
330
5E
100
AcDbEntity
  8
40308000_HANDTUC
  6
Continuous
 62
     7
100
AcDbSpline
210
0.0
220
0.0
230
1.0
 70
     8
 71
     3
 72
    18
 73
    14
 74
     0
 42
0.000000000286605
 43
0.0000000001
 40
0.48160141158485
 40
0.48160141158485
 40
0.48160141158485
 40
0.48160141158485
 40
0.5000000000000001
 40
0.5000000000000001
 40
0.5625
 40
0.5625
 40
0.6249999999999999
 40
0.6249999999999999
 40
0.75
 40
0.75
 40
0.875
 40
0.875
 40
1.0
 40
1.0
 40
1.0
 40
1.0
 10
61.20991428218782
 20
707.1373291705197
 30
0.0
 10
61.05186586992043
 20
707.1647486417227
 30
0.0
 10
60.88964546149104
 20
707.178679764615
 30
0.0
 10
60.16291474111346
 20
707.1786792884436
 30
0.0
 10
59.55562658514452
 20
707.017589110879
 30
0.0
 10
58.38764769953579
 20
706.4116282913766
 30
0.0
 10
57.81841332904678
 20
705.9647000636489
 30
0.0
 10
56.34040916147395
 20
704.2967675711022
 30
0.0
 10
55.68287275503586
 20
702.7190201425035
 30
0.0
 10
55.68386173379601
 20
699.5344557524312
 30
0.0
 10
56.34162263335111
 20
697.9616750928235
 30
0.0
 10
58.30048899194561
 20
695.7461942521211
 30
0.0
 10
59.58258885210226
 20
695.0793010517706
 30
0.0
 10
60.72272084506395
 20
695.0786801050762
 30
0.0
  0
SPLINE
  5
73
330
5E
100
AcDbEntity
  8
40308000_HANDTUC
  6
Continuous
 62
     7
100
AcDbSpline
210
0.0
220
0.0
230
1.0
 70
     8
 71
     3
 72
    18
 73
    14
 74
     0
 42
0.0000000002866582
 43
0.0000000001
 40
0.0
 40
0.0
 40
0.0
 40
0.0
 40
0.1249999999999998
 40
0.1249999999999998
 40
0.2499999999999994
 40
0.2499999999999994
 40
0.3749999999999991
 40
0.3749999999999991
 40
0.4374999999999992
 40
0.4374999999999992
 40
0.4999999999999993
 40
0.4999999999999993
 40
0.5193264141435301
 40
0.5193264141435301
 40
0.5193264141435301
 40
0.5193264141435301
 10
35.97398372293717
 20
695.0786801050762
 30
0.0
 10
37.11381212649104
 20
695.0780591583815
 30
0.0
 10
38.3929740801388
 20
695.7407450942927
 30
0.0
 10
40.35750060020668
 20
697.9587466770936
 30
0.0
 10
41.01602519693632
 20
699.5314281724559
 30
0.0
 10
41.01724001034493
 20
702.7211686796288
 30
0.0
 10
40.36706154012465
 20
704.2865640924497
 30
0.0
 10
38.88288981174909
 20
705.9641113446563
 30
0.0
 10
38.31572209593959
 20
706.4095985038523
 30
0.0
 10
37.14427775014686
 20
707.0179194562179
 30
0.0
 10
36.5370811149203
 20
707.1786800241972
 30
0.0
 10
35.80201575702391
 20
707.1786795425646
 30
0.0
 10
35.63178055059907
 20
707.1632762414785
 30
0.0
 10
35.4662480340296
 20
707.133037435508
 30
0.0
  0
SPLINE
  5
74
330
5E
100
AcDbEntity
  8
40308000_HANDTUC
  6
Continuous
 62
     7
100
AcDbSpline
210
0.0
220
0.0
230
1.0
 70
     8
 71
     3
 72
     8
 73
     4
 74
     0
 42
0.0000000003741219
 43
0.0000000001
 40
0.9809041669371633
 40
0.9809041669371633
 40
0.9809041669371633
 40
0.9809041669371633
 40
1.0
 40
1.0
 40
1.0
 40
1.0
 10
35.46708601057904
 20
695.124808689656
 30
0.0
 10
35.630740923761
 20
695.0944190561681
 30
0.0
 10
35.79985593962082
 20
695.0787749650315
 30
0.0
 10
35.97398372293717
 20
695.0786801050762
 30
0.0
  0
LINE
  5
75
330
5E
100
AcDbEntity
  8
40308000_HANDTUC
  6
Continuous
 62
     7
100
AcDbLine
 10
65.85
 20
689.6286796563
 30
0.0
 11
65.85
 21
695.1286796563
 31
0.0
  0
LINE
  5
76
330
5E
100
AcDbEntity
  8
40308000_HANDTUC
  6
Continuous
 62
     7
100
AcDbLine
 10
65.85
 20
707.1286796563
 30
0.0
 11
65.85
 21
712.6286796563
 31
0.0
  0
LINE
  5
77
330
5E
100
AcDbEntity
  8
40308000_HANDTUC
  6
Continuous
 62
     7
100
AcDbLine
 10
30.85
 20
712.6286796563
 30
0.0
 11
30.85
 21
707.1286796563
 31
0.0
  0
LINE
  5
78
330
5E
100
AcDbEntity
  8
40308000_HANDTUC
  6
Continuous
 62
     7
100
AcDbLine
 10
30.85
 20
695.1286796563
 30
0.0
 11
30.85
 21
689.6286796563
 31
0.0
  0
ARC
  5
79
330
5E
100
AcDbEntity
  8
40308000_HANDTUC
  6
Continuous
 62
     7
100
AcDbCircle
 10
65.35
 20
689.6286796563
 30
0.0
 40
0.5000000000000004
100
AcDbArc
 50
270.0
 51
0.0
  0
ARC
  5
7A
330
5E
100
AcDbEntity
  8
40308000_HANDTUC
  6
Continuous
 62
     7
100
AcDbCircle
 10
31.35
 20
689.6286796563
 30
0.0
 40
0.5000000000000004
100
AcDbArc
 50
180.0
 51
270.0
  0
ARC
  5
7B
330
5E
100
AcDbEntity
  8
40308000_HANDTUC
  6
Continuous
 62
     7
100
AcDbCircle
 10
31.35
 20
712.6286796563
 30
0.0
 40
0.5000000000000004
100
AcDbArc
 50
90.0
 51
180.0
  0
ARC
  5
7C
330
5E
100
AcDbEntity
  8
40308000_HANDTUC
  6
Continuous
 62
     7
100
AcDbCircle
 10
65.35
 20
712.6286796563
 30
0.0
 40
0.5000000000000004
100
AcDbArc
 50
0.0
 51
90.0
  0
LINE
  5
7D
330
5E
100
AcDbEntity
  8
40308000_HANDTUC
  6
Continuous
 62
     7
100
AcDbLine
 10
65.3
 20
676.1286796563
 30
0.0
 11
31.4
 21
676.1286796563
 31
0.0
  0
LINE
  5
7E
330
5E
100
AcDbEntity
  8
40308000_HANDTUC
  6
Continuous
 62
     7
100
AcDbLine
 10
30.9
 20
687.6286796563
 30
0.0
 11
30.9
 21
676.6286796563
 31
0.0
  0
LINE
  5
7F
330
5E
100
AcDbEntity
  8
40308000_HANDTUC
  6
Continuous
 62
     7
100
AcDbLine
 10
65.8
 20
687.6286796563
 30
0.0
 11
65.8
 21
676.6286796563
 31
0.0
  0
ARC
  5
80
330
5E
100
AcDbEntity
  8
40308000_HANDTUC
  6
Continuous
 62
     7
100
AcDbCircle
 10
31.4
 20
687.6286796563
 30
0.0
 40
0.5000000000000004
100
AcDbArc
 50
90.0
 51
180.0
  0
ARC
  5
81
330
5E
100
AcDbEntity
  8
40308000_HANDTUC
  6
Continuous
 62
     7
100
AcDbCircle
 10
31.4
 20
676.6286796563
 30
0.0
 40
0.5000000000000004
100
AcDbArc
 50
180.0
 51
270.0
  0
ARC
  5
82
330
5E
100
AcDbEntity
  8
40308000_HANDTUC
  6
Continuous
 62
     7
100
AcDbCircle
 10
65.3
 20
676.6286796563
 30
0.0
 40
0.5000000000000004
100
AcDbArc
 50
270.0
 51
0.0
  0
ARC
  5
83
330
5E
100
AcDbEntity
  8
40308000_HANDTUC
  6
Continuous
 62
     7
100
AcDbCircle
 10
65.3
 20
687.6286796563
 30
0.0
 40
0.5000000000000004
100
AcDbArc
 50
0.0
 51
90.0
  0
ARC
  5
84
330
5E
100
AcDbEntity
  8
40308000_HANDTUC
  6
Continuous
 62
     7
100
AcDbCircle
 10
48.35
 20
682.1286796563
 30
0.0
 40
21.0
100
AcDbArc
 50
146.4426902381
 51
0.0
  0
ARC
  5
85
330
5E
100
AcDbEntity
  8
40308000_HANDTUC
  6
Continuous
 62
     7
100
AcDbCircle
 10
48.35
 20
682.1286796563
 30
0.0
 40
21.0
100
AcDbArc
 50
0.0
 51
33.5573097619
  0
ARC
  5
86
330
5E
100
AcDbEntity
  8
40308000_HANDTUC
  6
Continuous
 62
     7
100
AcDbCircle
 10
48.35
 20
682.1286796563
 30
0.0
 40
12.4956746419279
100
AcDbArc
 50
208.6962541745
 51
331.3037458255
  0
ENDBLK
  5
88
330
5E
100
AcDbEntity
  8
0
100
AcDbBlockEnd
  0
BLOCK
  5
D4
330
89
100
AcDbEntity
  8
0
100
AcDbBlockBegin
  2
SE1
 70
     0
 10
0.0
 20
0.0
 30
0.0
  3
SE1
  1

  0
LINE
  5
8B
330
89
100
AcDbEntity
  8
40308000_HANDTUC
  6
Continuous
 62
     7
100
AcDbLine
 10
219.3039610306
 20
689.1286796563
 30
0.0
 11
184.8039610306
 21
689.1286796563
 31
0.0
  0
LINE
  5
8C
330
89
100
AcDbEntity
  8
40308000_HANDTUC
  6
Continuous
 62
     7
100
AcDbLine
 10
219.3039610306
 20
688.1286796563
 30
0.0
 11
198.850837555
 21
688.1286796563
 31
0.0
  0
LINE
  5
8D
330
89
100
AcDbEntity
  8
40308000_HANDTUC
  6
Continuous
 62
     7
100
AcDbLine
 10
219.3039610306
 20
688.1286796563
 30
0.0
 11
219.3039610306
 21
689.1286796563
 31
0.0
  0
LINE
  5
8E
330
89
100
AcDbEntity
  8
40308000_HANDTUC
  6
Continuous
 62
     7
100
AcDbLine
 10
184.8039610306
 20
689.1286796563
 30
0.0
 11
184.8039610306
 21
688.1286796563
 31
0.0
  0
LINE
  5
8F
330
89
100
AcDbEntity
  8
40308000_HANDTUC
  6
Continuous
 62
     7
100
AcDbLine
 10
636.0883465149
 20
709.6286796563
 30
0.0
 11
636.0883465149
 21
692.6286796563
 31
0.0
  0
ARC
  5
90
330
89
100
AcDbEntity
  8
40308000_HANDTUC
  6
Continuous
 62
     7
100
AcDbCircle
 10
594.0883465149
 20
701.1286796563
 30
0.0
 40
49.99999999999998
100
AcDbArc
 50
350.1123259257
 51
9.8876740743
  0
LINE
  5
91
330
89
100
AcDbEntity
  8
40308000_HANDTUC
  6
Continuous
 62
     7
100
AcDbLine
 10
636.5883465149
 20
692.1286796563
 30
0.0
 11
642.8530878759
 21
692.1286796563
 31
0.0
  0
LINE
  5
92
330
89
100
AcDbEntity
  8
40308000_HANDTUC
  6
Continuous
 62
     7
100
AcDbLine
 10
642.8530878759
 20
710.1286796563
 30
0.0
 11
636.5883465149
 21
710.1286796563
 31
0.0
  0
ARC
  5
93
330
89
100
AcDbEntity
  8
40308000_HANDTUC
  6
Continuous
 62
     7
100
AcDbCircle
 10
636.5883465149
 20
692.6286796563
 30
0.0
 40
0.5000000000000004
100
AcDbArc
 50
180.0
 51
270.0
  0
ARC
  5
94
330
89
100
AcDbEntity
  8
40308000_HANDTUC
  6
Continuous
 62
     7
100
AcDbCircle
 10
636.5883465149
 20
709.6286796563
 30
0.0
 40
0.499999999999997
100
AcDbArc
 50
90.0
 51
180.0
  0
ARC
  5
95
330
89
100
AcDbEntity
  8
40308000_HANDTUC
  6
Continuous
 62
     7
100
AcDbCircle
 10
642.8530878759
 20
692.6286796563
 30
0.0
 40
0.5000000000000004
100
AcDbArc
 50
270.0
 51
350.1123259257
  0
ARC
  5
96
330
89
100
AcDbEntity
  8
40308000_HANDTUC
  6
Continuous
 62
     7
100
AcDbCircle
 10
642.8530878759
 20
709.6286796563
 30
0.0
 40
0.4999999999999752
100
AcDbArc
 50
9.8876740743
 51
90.0
  0
ARC
  5
97
330
89
100
AcDbEntity
  8
40308000_HANDTUC
  6
Continuous
 62
     7
100
AcDbCircle
 10
595.1326406869
 20
701.1286796563
 30
0.0
 40
49.99999999999998
100
AcDbArc
 50
350.1123259257
 51
9.8876740743
  0
LINE
  5
98
330
89
100
AcDbEntity
  8
40308000_HANDTUC
  6
Continuous
 62
     7
100
AcDbLine
 10
642.8530878759
 20
692.1286796563
 30
0.0
 11
643.8973820478
 21
692.1286796563
 31
0.0
  0
LINE
  5
99
330
89
100
AcDbEntity
  8
40308000_HANDTUC
  6
Continuous
 62
     7
100
AcDbLine
 10
643.8973820478
 20
710.1286796563
 30
0.0
 11
642.8530878759
 21
710.1286796563
 31
0.0
  0
ARC
  5
9A
330
89
100
AcDbEntity
  8
40308000_HANDTUC
  6
Continuous
 62
     7
100
AcDbCircle
 10
643.8973820478
 20
692.6286796563
 30
0.0
 40
0.5000000000000004
100
AcDbArc
 50
270.0
 51
350.1123259257
  0
ARC
  5
9B
330
89
100
AcDbEntity
  8
40308000_HANDTUC
  6
Continuous
 62
     7
100
AcDbCircle
 10
643.8973820478
 20
709.6286796563
 30
0.0
 40
0.4999999999999752
100
AcDbArc
 50
9.8876740744
 51
90.0
  0
ELLIPSE
  5
9C
330
89
100
AcDbEntity
  8
40308000_HANDTUC
  6
Continuous
 62
     7
100
AcDbEllipse
 10
227.8628702941
 20
701.1286796563
 30
0.0
 11
0.0
 21
6.0
 31
0.0
210
0.0
220
0.0
230
1.0
 40
1.0
 41
0.0
 42
3.141592653589793
  0
LINE
  5
9D
330
89
100
AcDbEntity
  8
40308000_HANDTUC
  6
Continuous
 62
     7
100
AcDbLine
 10
213.8961221455
 20
695.1286796563
 30
0.0
 11
227.8628702941
 21
695.1286796563
 31
0.0
  0
LINE
  5
9E
330
89
100
AcDbEntity
  8
40308000_HANDTUC
  6
Continuous
 62
     7
100
AcDbLine
 10
227.8628702941
 20
707.1286796563
 30
0.0
 11
213.8950886293
 21
707.1286796563
 31
0.0
  0
LINE
  5
9F
330
89
100
AcDbEntity
  8
40308000_HANDTUC
  6
Continuous
 62
     7
100
AcDbLine
 10
242.712112699
 20
695.1286796563
 30
0.0
 11
636.0883465149
 21
695.1286796563
 31
0.0
  0
LINE
  5
A0
330
89
100
AcDbEntity
  8
40308000_HANDTUC
  6
Continuous
 62
     7
100
AcDbLine
 10
636.0883465149
 20
707.1286796563
 30
0.0
 11
242.712112699
 21
707.1286796563
 31
0.0
  0
LINE
  5
A1
330
89
100
AcDbEntity
  8
40308000_HANDTUC
  6
Continuous
 62
     7
100
AcDbLine
 10
242.712112699
 20
707.1286796563
 30
0.0
 11
227.8628702941
 21
707.1286796563
 31
0.0
  0
LINE
  5
A2
330
89
100
AcDbEntity
  8
40308000_HANDTUC
  6
Continuous
 62
     7
100
AcDbLine
 10
227.8628702941
 20
695.1286796563
 30
0.0
 11
242.712112699
 21
695.1286796563
 31
0.0
  0
LINE
  5
A3
330
89
100
AcDbEntity
  8
40308000_HANDTUC
  6
Continuous
 62
     7
100
AcDbLine
 10
219.0539610306
 20
713.1286796563
 30
0.0
 11
185.0539610306
 21
713.1286796563
 31
0.0
  0
SPLINE
  5
A4
330
89
100
AcDbEntity
  8
40308000_HANDTUC
  6
Continuous
 62
     7
100
AcDbSpline
210
0.0
220
0.0
230
1.0
 70
     8
 71
     3
 72
     8
 73
     4
 74
     0
 42
0.0000000003742724
 43
0.0000000001
 40
0.0
 40
0.0
 40
0.0
 40
0.0
 40
0.0194675545420706
 40
0.0194675545420706
 40
0.0194675545420706
 40
0.0194675545420706
 10
214.4266818756235
 20
695.0786801050762
 30
0.0
 10
214.6042465296886
 20
695.0785833985669
 30
0.0
 10
214.776563908471
 20
695.0945752558883
 30
0.0
 10
214.9431781843194
 20
695.1258359902462
 30
0.0
  0
SPLINE
  5
A5
330
89
100
AcDbEntity
  8
40308000_HANDTUC
  6
Continuous
 62
     7
100
AcDbSpline
210
0.0
220
0.0
230
1.0
 70
     8
 71
     3
 72
    10
 73
     6
 74
     0
 42
0.0000000003685401
 43
0.0000000001
 40
0.4816014115848564
 40
0.4816014115848564
 40
0.4816014115848564
 40
0.4816014115848564
 40
0.4999999999999993
 40
0.4999999999999993
 40
0.5193264141435301
 40
0.5193264141435301
 40
0.5193264141435301
 40
0.5193264141435301
 10
214.9138753127475
 20
707.1373291705197
 30
0.0
 10
214.7558269004801
 20
707.1647486417227
 30
0.0
 10
214.5936064920508
 20
707.178679764615
 30
0.0
 10
214.2547140734956
 20
707.1786795425646
 30
0.0
 10
214.0767176321515
 20
707.1632762414785
 30
0.0
 10
213.8963825382081
 20
707.133037435508
 30
0.0
  0
SPLINE
  5
A6
330
89
100
AcDbEntity
  8
40308000_HANDTUC
  6
Continuous
 62
     7
100
AcDbSpline
210
0.0
220
0.0
230
1.0
 70
     8
 71
     3
 72
     8
 73
     4
 74
     0
 42
0.0000000003575173
 43
0.0000000001
 40
0.9809041669371633
 40
0.9809041669371633
 40
0.9809041669371633
 40
0.9809041669371633
 40
1.0
 40
1.0
 40
1.0
 40
1.0
 10
213.8958050178459
 20
695.124808689656
 30
0.0
 10
214.0750203553754
 20
695.0944190561681
 30
0.0
 10
214.2525077139659
 20
695.0787749650315
 30
0.0
 10
214.4266818756235
 20
695.0786801050762
 30
0.0
  0
LINE
  5
A7
330
89
100
AcDbEntity
  8
40308000_HANDTUC
  6
Continuous
 62
     7
100
AcDbLine
 10
219.5539610306
 20
689.6286796563
 30
0.0
 11
219.5539610306
 21
695.1286796563
 31
0.0
  0
LINE
  5
A8
330
89
100
AcDbEntity
  8
40308000_HANDTUC
  6
Continuous
 62
     7
100
AcDbLine
 10
219.5539610306
 20
707.1286796563
 30
0.0
 11
219.5539610306
 21
712.6286796563
 31
0.0
  0
LINE
  5
A9
330
89
100
AcDbEntity
  8
40308000_HANDTUC
  6
Continuous
 62
     7
100
AcDbLine
 10
184.5539610306
 20
712.6286796563
 30
0.0
 11
184.5539610306
 21
689.6286796563
 31
0.0
  0
ARC
  5
AA
330
89
100
AcDbEntity
  8
40308000_HANDTUC
  6
Continuous
 62
     7
100
AcDbCircle
 10
219.0539610306
 20
689.6286796563
 30
0.0
 40
0.5000000000000004
100
AcDbArc
 50
270.0
 51
0.0
  0
ARC
  5
AB
330
89
100
AcDbEntity
  8
40308000_HANDTUC
  6
Continuous
 62
     7
100
AcDbCircle
 10
185.0539610306
 20
689.6286796563
 30
0.0
 40
0.5000000000000004
100
AcDbArc
 50
180.0
 51
270.0
  0
ARC
  5
AC
330
89
100
AcDbEntity
  8
40308000_HANDTUC
  6
Continuous
 62
     7
100
AcDbCircle
 10
185.0539610306
 20
712.6286796563
 30
0.0
 40
0.5000000000000004
100
AcDbArc
 50
90.0
 51
180.0
  0
ARC
  5
AD
330
89
100
AcDbEntity
  8
40308000_HANDTUC
  6
Continuous
 62
     7
100
AcDbCircle
 10
219.0539610306
 20
712.6286796563
 30
0.0
 40
0.5000000000000004
100
AcDbArc
 50
0.0
 51
90.0
  0
LINE
  5
AE
330
89
100
AcDbEntity
  8
40308000_HANDTUC
  6
Continuous
 62
     7
100
AcDbLine
 10
202.0539610306
 20
676.1286796563
 30
0.0
 11
219.0039610306
 21
676.1286796563
 31
0.0
  0
LINE
  5
AF
330
89
100
AcDbEntity
  8
40308000_HANDTUC
  6
Continuous
 62
     7
100
AcDbLine
 10
202.0539610306
 20
676.1286796563
 30
0.0
 11
183.5539610306
 21
676.1286796563
 31
0.0
  0
ARC
  5
B0
330
89
100
AcDbEntity
  8
40308000_HANDTUC
  6
Continuous
 62
     7
100
AcDbCircle
 10
183.5539610306
 20
682.1286796563
 30
0.0
 40
6.0
100
AcDbArc
 50
90.0
 51
270.0
  0
ARC
  5
B1
330
89
100
AcDbEntity
  8
40308000_HANDTUC
  6
Continuous
 62
     7
100
AcDbCircle
 10
183.5539610306
 20
682.1286796563
 30
0.0
 40
6.000000000000105
100
AcDbArc
 50
199.1171275482
 51
208.3082722689
  0
LINE
  5
B2
330
89
100
AcDbEntity
  8
40308000_HANDTUC
  6
Continuous
 62
     7
100
AcDbLine
 10
183.5539610306
 20
688.1286796563
 30
0.0
 11
202.0539610306
 21
688.1286796563
 31
0.0
  0
LINE
  5
B3
330
89
100
AcDbEntity
  8
40308000_HANDTUC
  6
Continuous
 62
     7
100
AcDbLine
 10
219.5039610306
 20
676.6286796563
 30
0.0
 11
219.5039610306
 21
687.6286796563
 31
0.0
  0
ARC
  5
B4
330
89
100
AcDbEntity
  8
40308000_HANDTUC
  6
Continuous
 62
     7
100
AcDbCircle
 10
219.0039610306
 20
676.6286796563
 30
0.0
 40
0.5000000000000004
100
AcDbArc
 50
270.0
 51
0.0
  0
ARC
  5
B5
330
89
100
AcDbEntity
  8
40308000_HANDTUC
  6
Continuous
 62
     7
100
AcDbCircle
 10
219.0039610306
 20
687.6286796563
 30
0.0
 40
0.5000000000000004
100
AcDbArc
 50
0.0
 51
90.0
  0
ARC
  5
B6
330
89
100
AcDbEntity
  8
40308000_HANDTUC
  6
Continuous
 62
     7
100
AcDbCircle
 10
183.5539610306
 20
682.1286796563
 30
0.0
 40
6.100000000000005
100
AcDbArc
 50
94.3447520426
 51
265.6552479574
  0
LINE
  5
B7
330
89
100
AcDbEntity
  8
40308000_HANDTUC
  6
Continuous
 62
     7
100
AcDbLine
 10
153.0539610306
 20
703.1286796563
 30
0.0
 11
153.0539610306
 21
661.1286796563
 31
0.0
  0
ELLIPSE
  5
B8
330
89
100
AcDbEntity
  8
40308000_HANDTUC
  6
Continuous
 62
     7
100
AcDbEllipse
 10
183.0539610306
 20
688.7097130098
 30
0.0
 11
-0.03787878787870139
 21
0.4985631328416089
 31
0.0
210
0.0
220
0.0
230
1.0
 40
0.0611033382
 41
3.141592653589793
 42
5.29983044138042
  0
ARC
  5
B9
330
89
100
AcDbEntity
  8
40308000_HANDTUC
  6
Continuous
 62
     7
100
AcDbCircle
 10
183.0539610306
 20
675.5476463028
 30
0.0
 40
0.4999999999999975
100
AcDbArc
 50
0.0
 51
85.6552479574
  0
ARC
  5
BA
330
89
100
AcDbEntity
  8
40308000_HANDTUC
  6
Continuous
 62
     7
100
AcDbCircle
 10
167.6594958709
 20
657.5748399402
 30
0.0
 40
12.46014302377216
100
AcDbArc
 50
76.5676090011
 51
104.4323905088
  0
LINE
  5
BB
330
89
100
AcDbEntity
  8
40308000_HANDTUC
  6
Continuous
 62
     7
100
AcDbLine
 10
163.0539610306
 20
665.1548793101
 30
0.0
 11
163.0539610306
 21
699.1024800025
 31
0.0
  0
LINE
  5
BC
330
89
100
AcDbEntity
  8
40308000_HANDTUC
  6
Continuous
 62
     7
100
AcDbLine
 10
159.5539610306
 20
661.6810599247
 30
0.0
 11
159.5539610306
 21
702.5762993879
 31
0.0
  0
LINE
  5
BD
330
89
100
AcDbEntity
  8
40308000_HANDTUC
  6
Continuous
 62
     7
100
AcDbLine
 10
183.5539610306
 20
675.5476463028
 30
0.0
 11
183.5539610306
 21
670.3032361262
 31
0.0
  0
ARC
  5
BE
330
89
100
AcDbEntity
  8
40308000_HANDTUC
  6
Continuous
 62
     7
100
AcDbCircle
 10
183.0539610306
 20
688.7097130098
 30
0.0
 40
0.5000000000000004
100
AcDbArc
 50
274.3447520426
 51
0.0
  0
LINE
  5
BF
330
89
100
AcDbEntity
  8
40308000_HANDTUC
  6
Continuous
 62
     7
100
AcDbLine
 10
183.5539610306
 20
693.9541231865
 30
0.0
 11
183.5539610306
 21
688.7097130098
 31
0.0
  0
ELLIPSE
  5
C0
330
89
100
AcDbEntity
  8
40308000_HANDTUC
  6
Continuous
 62
     7
100
AcDbEllipse
 10
183.0539610306
 20
688.7097130098
 30
0.0
 11
-0.499999999999997
 21
-3.469446951953614E-15
 31
0.0
210
0.0
220
0.0
230
1.0
 40
0.5565147165
 41
3.141592653589781
 42
4.703662330384479
  0
LINE
  5
C1
330
89
100
AcDbEntity
  8
40308000_HANDTUC
  6
Continuous
 62
     7
100
AcDbLine
 10
170.5491710862
 20
669.6940893916
 30
0.0
 11
183.0583243002
 21
669.8032551646
 31
0.0
  0
LINE
  5
C2
330
89
100
AcDbEntity
  8
40308000_HANDTUC
  6
Continuous
 62
     7
100
AcDbLine
 10
163.5495977609
 20
669.6330050144
 30
0.0
 11
164.5559714902
 21
669.6417875086
 31
0.0
  0
LINE
  5
C3
330
89
100
AcDbEntity
  8
40308000_HANDTUC
  6
Continuous
 62
     7
100
AcDbLine
 10
183.0583243002
 20
694.454104148
 30
0.0
 11
163.5495977609
 21
694.6243542982
 31
0.0
  0
ARC
  5
C4
330
89
100
AcDbEntity
  8
40308000_HANDTUC
  6
Continuous
 62
     7
100
AcDbCircle
 10
162.5539610306
 20
699.1024800025
 30
0.0
 40
0.5000000000000004
100
AcDbArc
 50
0.0
 51
89.4999997857
  0
ARC
  5
C5
330
89
100
AcDbEntity
  8
40308000_HANDTUC
  6
Continuous
 62
     7
100
AcDbCircle
 10
162.5539610306
 20
665.1548793101
 30
0.0
 40
0.5000000000000171
100
AcDbArc
 50
270.5000002143
 51
0.0
  0
ARC
  5
C6
330
89
100
AcDbEntity
  8
40308000_HANDTUC
  6
Continuous
 62
     7
100
AcDbCircle
 10
159.0539610306
 20
702.5762993879
 30
0.0
 40
0.5000000000000004
100
AcDbArc
 50
0.0
 51
89.4999997857
  0
ARC
  5
C7
330
89
100
AcDbEntity
  8
40308000_HANDTUC
  6
Continuous
 62
     7
100
AcDbCircle
 10
159.0539610306
 20
661.6810599247
 30
0.0
 40
0.4999999999999659
100
AcDbArc
 50
270.5000002143
 51
0.0
  0
ARC
  5
C8
330
89
100
AcDbEntity
  8
40308000_HANDTUC
  6
Continuous
 62
     7
100
AcDbCircle
 10
160.0539610306
 20
700.1243352598
 30
0.0
 40
0.5000000000000179
100
AcDbArc
 50
180.0
 51
269.4999997857
  0
ARC
  5
C9
330
89
100
AcDbEntity
  8
40308000_HANDTUC
  6
Continuous
 62
     7
100
AcDbCircle
 10
160.0539610306
 20
664.1330240529
 30
0.0
 40
0.5000000000000004
100
AcDbArc
 50
90.5000002143
 51
180.0
  0
ARC
  5
CA
330
89
100
AcDbEntity
  8
40308000_HANDTUC
  6
Continuous
 62
     7
100
AcDbCircle
 10
163.5539610306
 20
695.1243352598
 30
0.0
 40
0.4999999999999676
100
AcDbArc
 50
180.0
 51
269.4999997857
  0
ARC
  5
CB
330
89
100
AcDbEntity
  8
40308000_HANDTUC
  6
Continuous
 62
     7
100
AcDbCircle
 10
163.5539610306
 20
669.1330240529
 30
0.0
 40
0.5000000000000004
100
AcDbArc
 50
90.5000002143
 51
180.0
  0
ARC
  5
CC
330
89
100
AcDbEntity
  8
40308000_HANDTUC
  6
Continuous
 62
     7
100
AcDbCircle
 10
183.0539610306
 20
670.3032361262
 30
0.0
 40
0.4999999999999678
100
AcDbArc
 50
270.5000002143
 51
0.0
  0
ARC
  5
CD
330
89
100
AcDbEntity
  8
40308000_HANDTUC
  6
Continuous
 62
     7
100
AcDbCircle
 10
183.0539610306
 20
693.9541231865
 30
0.0
 40
0.5000000000000039
100
AcDbArc
 50
0.0
 51
89.4999997857
  0
LINE
  5
CE
330
89
100
AcDbEntity
  8
40308000_HANDTUC
  6
Continuous
 62
     7
100
AcDbLine
 10
153.0539610306
 20
661.1286796563
 30
0.0
 11
159.0583243002
 21
661.1810789632
 31
0.0
  0
LINE
  5
CF
330
89
100
AcDbEntity
  8
40308000_HANDTUC
  6
Continuous
 62
     7
100
AcDbLine
 10
159.0583243002
 20
703.0762803494
 30
0.0
 11
153.0539610306
 21
703.1286796563
 31
0.0
  0
LINE
  5
D0
330
89
100
AcDbEntity
  8
40308000_HANDTUC
  6
Continuous
 62
     7
100
AcDbLine
 10
160.0495977609
 20
664.6330050144
 30
0.0
 11
162.5583243002
 21
664.6548983486
 31
0.0
  0
LINE
  5
D1
330
89
100
AcDbEntity
  8
40308000_HANDTUC
  6
Continuous
 62
     7
100
AcDbLine
 10
162.5583243002
 20
699.602460964
 30
0.0
 11
160.0495977609
 21
699.6243542982
 31
0.0
  0
ARC
  5
D3
330
89
100
AcDbEntity
  8
DV2_Standard
  6
Continuous
 62
     7
100
AcDbCircle
 10
213.8326652585
 20
701.0889593183
 30
0.0
 40
6.039720338029718
100
AcDbArc
 50
90.0
 51
275.6595222448
  0
ENDBLK
  5
D5
330
89
100
AcDbEntity
  8
0
100
AcDbBlockEnd
  0
BLOCK
  5
11C
330
D6
100
AcDbEntity
  8
0
100
AcDbBlockBegin
  2
SE2
 70
     0
 10
0.0
 20
0.0
 30
0.0
  3
SE2
  1

  0
LINE
  5
D8
330
D6
100
AcDbEntity
  8
40308000_HANDTUC
  6
Continuous
 62
     7
100
AcDbLine
 10
23.85
 20
115.3942941719
 30
0.0
 11
6.85
 21
115.3942941719
 31
0.0
  0
ARC
  5
D9
330
D6
100
AcDbEntity
  8
40308000_HANDTUC
  6
Continuous
 62
     7
100
AcDbCircle
 10
15.35
 20
157.3942941719
 30
0.0
 40
49.99999999999997
100
AcDbArc
 50
260.1123259257
 51
270.0
  0
ARC
  5
DA
330
D6
100
AcDbEntity
  8
40308000_HANDTUC
  6
Continuous
 62
     7
100
AcDbCircle
 10
15.35
 20
157.3942941719
 30
0.0
 40
49.99999999999999
100
AcDbArc
 50
270.0
 51
279.8876740743
  0
LINE
  5
DB
330
D6
100
AcDbEntity
  8
40308000_HANDTUC
  6
Continuous
 62
     7
100
AcDbLine
 10
6.35
 20
114.8942941719
 30
0.0
 11
6.35
 21
108.629552811
 31
0.0
  0
LINE
  5
DC
330
D6
100
AcDbEntity
  8
40308000_HANDTUC
  6
Continuous
 62
     7
100
AcDbLine
 10
24.35
 20
108.629552811
 30
0.0
 11
24.35
 21
114.8942941719
 31
0.0
  0
ARC
  5
DD
330
D6
100
AcDbEntity
  8
40308000_HANDTUC
  6
Continuous
 62
     7
100
AcDbCircle
 10
6.85
 20
114.8942941719
 30
0.0
 40
0.5000000000000004
100
AcDbArc
 50
90.0
 51
180.0
  0
ARC
  5
DE
330
D6
100
AcDbEntity
  8
40308000_HANDTUC
  6
Continuous
 62
     7
100
AcDbCircle
 10
23.85
 20
114.8942941719
 30
0.0
 40
0.5000000000000004
100
AcDbArc
 50
0.0
 51
90.0
  0
ARC
  5
DF
330
D6
100
AcDbEntity
  8
40308000_HANDTUC
  6
Continuous
 62
     7
100
AcDbCircle
 10
6.85
 20
108.629552811
 30
0.0
 40
0.5000000000000004
100
AcDbArc
 50
180.0
 51
260.1123259256
  0
ARC
  5
E0
330
D6
100
AcDbEntity
  8
40308000_HANDTUC
  6
Continuous
 62
     7
100
AcDbCircle
 10
23.85
 20
108.629552811
 30
0.0
 40
0.4999999999999752
100
AcDbArc
 50
279.8876740744
 51
0.0
  0
LINE
  5
E1
330
D6
100
AcDbEntity
  8
40308000_HANDTUC
  6
Continuous
 62
     7
100
AcDbLine
 10
89.8539610306
 20
114.35
 30
0.0
 11
72.8539610306
 21
114.35
 31
0.0
  0
ARC
  5
E2
330
D6
100
AcDbEntity
  8
40308000_HANDTUC
  6
Continuous
 62
     7
100
AcDbCircle
 10
81.3539610306
 20
156.35
 30
0.0
 40
49.99999999999998
100
AcDbArc
 50
260.1123259257
 51
270.0
  0
ARC
  5
E3
330
D6
100
AcDbEntity
  8
40308000_HANDTUC
  6
Continuous
 62
     7
100
AcDbCircle
 10
81.3539610306
 20
156.35
 30
0.0
 40
49.99999999999999
100
AcDbArc
 50
270.0
 51
279.8876740743
  0
LINE
  5
E4
330
D6
100
AcDbEntity
  8
40308000_HANDTUC
  6
Continuous
 62
     7
100
AcDbLine
 10
72.3539610306
 20
113.85
 30
0.0
 11
72.3539610306
 21
107.5852586391
 31
0.0
  0
LINE
  5
E5
330
D6
100
AcDbEntity
  8
40308000_HANDTUC
  6
Continuous
 62
     7
100
AcDbLine
 10
90.3539610306
 20
107.5852586391
 30
0.0
 11
90.3539610306
 21
113.85
 31
0.0
  0
ARC
  5
E6
330
D6
100
AcDbEntity
  8
40308000_HANDTUC
  6
Continuous
 62
     7
100
AcDbCircle
 10
72.8539610306
 20
113.85
 30
0.0
 40
0.5000000000000004
100
AcDbArc
 50
90.0
 51
180.0
  0
ARC
  5
E7
330
D6
100
AcDbEntity
  8
40308000_HANDTUC
  6
Continuous
 62
     7
100
AcDbCircle
 10
89.8539610306
 20
113.85
 30
0.0
 40
0.5000000000000004
100
AcDbArc
 50
0.0
 51
90.0
  0
ARC
  5
E8
330
D6
100
AcDbEntity
  8
40308000_HANDTUC
  6
Continuous
 62
     7
100
AcDbCircle
 10
72.8539610306
 20
107.5852586391
 30
0.0
 40
0.5000000000000004
100
AcDbArc
 50
180.0
 51
260.1123259256
  0
ARC
  5
E9
330
D6
100
AcDbEntity
  8
40308000_HANDTUC
  6
Continuous
 62
     7
100
AcDbCircle
 10
89.8539610306
 20
107.5852586391
 30
0.0
 40
0.4999999999999752
100
AcDbArc
 50
279.8876740744
 51
0.0
  0
LINE
  5
EA
330
D6
100
AcDbEntity
  8
40308000_HANDTUC
  6
Continuous
 62
     7
100
AcDbLine
 10
32.1661303124
 20
542.7704244844
 30
0.0
 11
17.258116908
 21
527.8624110799
 31
0.0
  0
LINE
  5
EB
330
D6
100
AcDbEntity
  8
40308000_HANDTUC
  6
Continuous
 62
     7
100
AcDbLine
 10
25.7433982822
 20
519.3771297057
 30
0.0
 11
40.2712798357
 21
533.9050112591
 31
0.0
  0
LINE
  5
EC
330
D6
100
AcDbEntity
  8
40308000_HANDTUC
  6
Continuous
 62
     7
100
AcDbLine
 10
9.35
 20
508.7705279879
 30
0.0
 11
9.35
 21
115.3942941719
 31
0.0
  0
LINE
  5
ED
330
D6
100
AcDbEntity
  8
40308000_HANDTUC
  6
Continuous
 62
     7
100
AcDbLine
 10
21.35
 20
115.3942941719
 30
0.0
 11
21.35
 21
508.7705279879
 31
0.0
  0
ARC
  5
EE
330
D6
100
AcDbEntity
  8
40308000_HANDTUC
  6
Continuous
 62
     7
100
AcDbCircle
 10
36.35
 20
508.7705279879
 30
0.0
 40
15.00000000000001
100
AcDbArc
 50
135.0
 51
180.0
  0
ARC
  5
EF
330
D6
100
AcDbEntity
  8
40308000_HANDTUC
  6
Continuous
 62
     7
100
AcDbCircle
 10
36.35
 20
508.7705279879
 30
0.0
 40
27.00000000000002
100
AcDbArc
 50
135.0
 51
180.0
  0
LINE
  5
F0
330
D6
100
AcDbEntity
  8
40308000_HANDTUC
  6
Continuous
 62
     7
100
AcDbLine
 10
79.4458441226
 20
526.818116908
 30
0.0
 11
64.2169686247
 21
542.0469924059
 31
0.0
  0
LINE
  5
F1
330
D6
100
AcDbEntity
  8
40308000_HANDTUC
  6
Continuous
 62
     7
100
AcDbLine
 10
55.7316872504
 20
533.5617110316
 30
0.0
 11
70.9605627484
 21
518.3328355337
 31
0.0
  0
ARC
  5
F2
330
D6
100
AcDbEntity
  8
40308000_HANDTUC
  6
Continuous
 62
     7
100
AcDbCircle
 10
60.3539610306
 20
507.7262338159
 30
0.0
 40
15.0
100
AcDbArc
 50
0.0
 51
45.0
  0
ARC
  5
F3
330
D6
100
AcDbEntity
  8
40308000_HANDTUC
  6
Continuous
 62
     7
100
AcDbCircle
 10
60.3539610306
 20
507.7262338159
 30
0.0
 40
27.0
100
AcDbArc
 50
0.0
 51
45.0
  0
LINE
  5
F4
330
D6
100
AcDbEntity
  8
40308000_HANDTUC
  6
Continuous
 62
     7
100
AcDbLine
 10
87.3539610306
 20
114.35
 30
0.0
 11
87.3539610306
 21
507.7262338159
 31
0.0
  0
LINE
  5
F5
330
D6
100
AcDbEntity
  8
40308000_HANDTUC
  6
Continuous
 62
     7
100
AcDbLine
 10
75.3539610306
 20
507.7262338159
 30
0.0
 11
75.3539610306
 21
114.35
 31
0.0
  0
CIRCLE
  5
F6
330
D6
100
AcDbEntity
  8
40308000_HANDTUC
  6
Continuous
 62
     7
100
AcDbCircle
 10
48.35
 20
549.4286796563
 30
0.0
 40
17.5
  0
ARC
  5
F7
330
D6
100
AcDbEntity
  8
40308000_HANDTUC
  6
Continuous
 62
     7
100
AcDbCircle
 10
48.35
 20
549.4286796563
 30
0.0
 40
17.49999999999979
100
AcDbArc
 50
294.9203030776
 51
296.5229833272
  0
ARC
  5
F8
330
D6
100
AcDbEntity
  8
40308000_HANDTUC
  6
Continuous
 62
     7
100
AcDbCircle
 10
48.35
 20
549.4286796563
 30
0.0
 40
17.49999999999979
100
AcDbArc
 50
334.2253458487
 51
335.0919186351
  0
LINE
  5
F9
330
D6
100
AcDbEntity
  8
40308000_HANDTUC
  6
Continuous
 62
     7
100
AcDbLine
 10
41.0112877306
 20
533.5339753346
 30
0.0
 11
41.0166330571
 21
533.5393206611
 31
0.0
  0
LINE
  5
FA
330
D6
100
AcDbEntity
  8
40308000_HANDTUC
  6
Continuous
 62
     7
100
AcDbLine
 10
30.9
 20
550.750610063
 30
0.0
 11
30.9
 21
567.9286796563
 31
0.0
  0
LINE
  5
FB
330
D6
100
AcDbEntity
  8
40308000_HANDTUC
  6
Continuous
 62
     7
100
AcDbLine
 10
30.9
 20
567.9286796563
 30
0.0
 11
30.9
 21
573.4286796563
 31
0.0
  0
LINE
  5
FC
330
D6
100
AcDbEntity
  8
40308000_HANDTUC
  6
Continuous
 62
     7
100
AcDbLine
 10
65.8
 20
567.9286796563
 30
0.0
 11
65.8
 21
573.4286796563
 31
0.0
  0
LINE
  5
FD
330
D6
100
AcDbEntity
  8
40308000_HANDTUC
  6
Continuous
 62
     7
100
AcDbLine
 10
65.8
 20
567.9286796563
 30
0.0
 11
65.8
 21
550.750610063
 31
0.0
  0
LINE
  5
FE
330
D6
100
AcDbEntity
  8
40308000_HANDTUC
  6
Continuous
 62
     7
100
AcDbLine
 10
36.235754501
 20
573.9286796563
 30
0.0
 11
31.4
 21
573.9286796563
 31
0.0
  0
LINE
  5
FF
330
D6
100
AcDbEntity
  8
40308000_HANDTUC
  6
Continuous
 62
     7
100
AcDbLine
 10
65.3
 20
573.9286796563
 30
0.0
 11
60.4661437435
 21
573.9286796563
 31
0.0
  0
ARC
  5
100
330
D6
100
AcDbEntity
  8
40308000_HANDTUC
  6
Continuous
 62
     7
100
AcDbCircle
 10
65.3
 20
573.4286796563
 30
0.0
 40
0.5000000000000004
100
AcDbArc
 50
0.0
 51
90.0
  0
ARC
  5
101
330
D6
100
AcDbEntity
  8
40308000_HANDTUC
  6
Continuous
 62
     7
100
AcDbCircle
 10
31.4
 20
573.4286796563
 30
0.0
 40
0.5000000000000004
100
AcDbArc
 50
90.0
 51
180.0
  0
LINE
  5
102
330
D6
100
AcDbEntity
  8
40308000_HANDTUC
  6
Continuous
 62
     7
100
AcDbLine
 10
27.35
 20
598.4286796563
 30
0.0
 11
69.35
 21
598.4286796563
 31
0.0
  0
ELLIPSE
  5
103
330
D6
100
AcDbEntity
  8
40308000_HANDTUC
  6
Continuous
 62
     7
100
AcDbEllipse
 10
58.1750249203
 20
568.4286796563
 30
0.0
 11
-0.4990603448673577
 21
0.0306393893684323
 31
0.0
210
0.0
220
0.0
230
0.9999999999999998
 40
0.0756160186
 41
2.552388343068788
 42
3.733676462982535
  0
ELLIPSE
  5
104
330
D6
100
AcDbEntity
  8
40308000_HANDTUC
  6
Continuous
 62
     7
100
AcDbEllipse
 10
38.5249750797
 20
568.4286796563
 30
0.0
 11
0.4990603448673681
 21
0.03063938936825536
 31
0.0
210
0.0
220
0.0
230
1.0
 40
0.0756160186
 41
2.549508844196673
 42
3.730796966362574
  0
LINE
  5
105
330
D6
100
AcDbEntity
  8
40308000_HANDTUC
  6
Continuous
 62
     7
100
AcDbLine
 10
65.3238003462
 20
588.4286796563
 30
0.0
 11
31.3761996538
 21
588.4286796563
 31
0.0
  0
LINE
  5
106
330
D6
100
AcDbEntity
  8
40308000_HANDTUC
  6
Continuous
 62
     7
100
AcDbLine
 10
68.7976197316
 20
591.9286796563
 30
0.0
 11
27.9023802684
 21
591.9286796563
 31
0.0
  0
LINE
  5
107
330
D6
100
AcDbEntity
  8
40308000_HANDTUC
  6
Continuous
 62
     7
100
AcDbLine
 10
58.1750249203
 20
567.9286796563
 30
0.0
 11
38.5249750797
 21
567.9286796563
 31
0.0
  0
ELLIPSE
  5
108
330
D6
100
AcDbEntity
  8
40308000_HANDTUC
  6
Continuous
 62
     7
100
AcDbEllipse
 10
58.1750249203
 20
568.4286796563
 30
0.0
 11
-1.734723475976807E-15
 21
-0.5000000000000004
 31
0.0
210
0.0
220
0.0
230
1.0
 40
0.8308377521
 41
0.0
 42
1.562069676794863
  0
ELLIPSE
  5
109
330
D6
100
AcDbEntity
  8
40308000_HANDTUC
  6
Continuous
 62
     7
100
AcDbEllipse
 10
38.5249750797
 20
568.4286796563
 30
0.0
 11
0.0
 21
0.4154259727729111
 31
0.0
210
0.0
220
0.0
230
1.0
 40
1.0
 41
1.581299641782367
 42
3.141592653589793
  0
ARC
  5
10A
330
D6
100
AcDbEntity
  8
40308000_HANDTUC
  6
Continuous
 62
     7
100
AcDbCircle
 10
72.3863115802
 20
567.0561809461
 30
0.0
 40
13.77775929981424
100
AcDbArc
 50
148.0761108829
 51
174.4094832114
  0
ARC
  5
10B
330
D6
100
AcDbEntity
  8
40308000_HANDTUC
  6
Continuous
 62
     7
100
AcDbCircle
 10
60.2277671924
 20
574.5288618015
 30
0.0
 40
0.5009118403283301
100
AcDbArc
 50
338.0308046043
 51
359.4800760565
  0
ARC
  5
10C
330
D6
100
AcDbEntity
  8
40308000_HANDTUC
  6
Continuous
 62
     7
100
AcDbCircle
 10
36.4722328076
 20
574.5288618015
 30
0.0
 40
0.5009118403276535
100
AcDbArc
 50
180.5199239435
 51
201.9691953957
  0
ARC
  5
10D
330
D6
100
AcDbEntity
  8
40308000_HANDTUC
  6
Continuous
 62
     7
100
AcDbCircle
 10
24.2971809299
 20
567.0505750939
 30
0.0
 40
13.79473495588658
100
AcDbArc
 50
5.6070103932
 51
31.9073955125
  0
LINE
  5
10E
330
D6
100
AcDbEntity
  8
40308000_HANDTUC
  6
Continuous
 62
     7
100
AcDbLine
 10
35.8543253581
 20
587.9330429259
 30
0.0
 11
35.9713458287
 21
574.5238309119
 31
0.0
  0
LINE
  5
10F
330
D6
100
AcDbEntity
  8
40308000_HANDTUC
  6
Continuous
 62
     7
100
AcDbLine
 10
60.7286541713
 20
574.5238309119
 30
0.0
 11
60.8456746419
 21
587.9330429259
 31
0.0
  0
ARC
  5
110
330
D6
100
AcDbEntity
  8
40308000_HANDTUC
  6
Continuous
 62
     7
100
AcDbCircle
 10
65.3238003462
 20
588.9286796563
 30
0.0
 40
0.5000000000000004
100
AcDbArc
 50
270.0
 51
359.4999997857
  0
ARC
  5
111
330
D6
100
AcDbEntity
  8
40308000_HANDTUC
  6
Continuous
 62
     7
100
AcDbCircle
 10
31.3761996538
 20
588.9286796563
 30
0.0
 40
0.5000000000000171
100
AcDbArc
 50
180.5000002143
 51
270.0
  0
ARC
  5
112
330
D6
100
AcDbEntity
  8
40308000_HANDTUC
  6
Continuous
 62
     7
100
AcDbCircle
 10
68.7976197316
 20
592.4286796563
 30
0.0
 40
0.5000000000000004
100
AcDbArc
 50
270.0
 51
359.4999997857
  0
ARC
  5
113
330
D6
100
AcDbEntity
  8
40308000_HANDTUC
  6
Continuous
 62
     7
100
AcDbCircle
 10
27.9023802684
 20
592.4286796563
 30
0.0
 40
0.4999999999999659
100
AcDbArc
 50
180.5000002143
 51
270.0
  0
ARC
  5
114
330
D6
100
AcDbEntity
  8
40308000_HANDTUC
  6
Continuous
 62
     7
100
AcDbCircle
 10
66.3456556034
 20
591.4286796563
 30
0.0
 40
0.5000000000000179
100
AcDbArc
 50
90.0
 51
179.4999997857
  0
ARC
  5
115
330
D6
100
AcDbEntity
  8
40308000_HANDTUC
  6
Continuous
 62
     7
100
AcDbCircle
 10
30.3543443966
 20
591.4286796563
 30
0.0
 40
0.5000000000000004
100
AcDbArc
 50
0.5000002143
 51
90.0
  0
ARC
  5
116
330
D6
100
AcDbEntity
  8
40308000_HANDTUC
  6
Continuous
 62
     7
100
AcDbCircle
 10
61.3456556034
 20
587.9286796563
 30
0.0
 40
0.4999999999999676
100
AcDbArc
 50
90.0
 51
179.4999997857
  0
ARC
  5
117
330
D6
100
AcDbEntity
  8
40308000_HANDTUC
  6
Continuous
 62
     7
100
AcDbCircle
 10
35.3543443966
 20
587.9286796563
 30
0.0
 40
0.5000000000000004
100
AcDbArc
 50
0.5000002143
 51
90.0
  0
LINE
  5
118
330
D6
100
AcDbEntity
  8
40308000_HANDTUC
  6
Continuous
 62
     7
100
AcDbLine
 10
27.35
 20
598.4286796563
 30
0.0
 11
27.4023993069
 21
592.4243163867
 31
0.0
  0
LINE
  5
119
330
D6
100
AcDbEntity
  8
40308000_HANDTUC
  6
Continuous
 62
     7
100
AcDbLine
 10
69.2976006931
 20
592.4243163867
 30
0.0
 11
69.35
 21
598.4286796563
 31
0.0
  0
LINE
  5
11A
330
D6
100
AcDbEntity
  8
40308000_HANDTUC
  6
Continuous
 62
     7
100
AcDbLine
 10
30.8543253581
 20
591.4330429259
 30
0.0
 11
30.8762186923
 21
588.9243163867
 31
0.0
  0
LINE
  5
11B
330
D6
100
AcDbEntity
  8
40308000_HANDTUC
  6
Continuous
 62
     7
100
AcDbLine
 10
65.8237813077
 20
588.9243163867
 30
0.0
 11
65.8456746419
 21
591.4330429259
 31
0.0
  0
ENDBLK
  5
11D
330
D6
100
AcDbEntity
  8
0
100
AcDbBlockEnd
  0
ENDSEC
  0
SECTION
  2
ENTITIES
  0
INSERT
  5
5F
330
1F
100
AcDbEntity
  8
Default
100
AcDbBlockReference
  2
SE
 10
0.0
 20
0.0
 30
0.0
  0
INSERT
  5
8A
330
1F
100
AcDbEntity
  8
Default
100
AcDbBlockReference
  2
SE1
 10
0.0
 20
0.0
 30
0.0
  0
INSERT
  5
D7
330
1F
100
AcDbEntity
  8
Default
100
AcDbBlockReference
  2
SE2
 10
0.0
 20
0.0
 30
0.0
  0
TEXT
  5
11F
330
1F
100
AcDbEntity
  8
Default
  6
Continuous
 62
     7
100
AcDbText
 10
5.9362635081
 20
53.4225120485
 30
0.0
 40
10.0
  1
Grohe AG^J
  7
SEACAD_seiso_ttf
 11
5.9362635081
 21
63.4225120485
 31
0.0
100
AcDbText
 73
     3
  0
TEXT
  5
120
330
1F
100
AcDbEntity
  8
Default
  6
Continuous
 62
     7
100
AcDbText
 10
5.9362635081
 20
37.0588756849
 30
0.0
 40
10.0
  1
 
  7
SEACAD_seiso_ttf
 11
5.9362635081
 21
47.0588756849
 31
0.0
100
AcDbText
 73
     3
  0
TEXT
  5
121
330
1F
100
AcDbEntity
  8
Default
  6
Continuous
 62
     7
100
AcDbText
 10
5.9362635081
 20
20.6952393213
 30
0.0
 40
10.0
  1
ecn: 
  7
SEACAD_seiso_ttf
 11
5.9362635081
 21
30.6952393213
 31
0.0
100
AcDbText
 73
     3
  0
TEXT
  5
122
330
1F
100
AcDbEntity
  8
Default
  6
Continuous
 62
     7
100
AcDbText
 10
5.9362635081
 20
4.3316029576
 30
0.0
 40
10.0
  1
unit: mm
  7
SEACAD_seiso_ttf
 11
5.9362635081
 21
14.3316029576
 31
0.0
100
AcDbText
 73
     3
  0
LINE
  5
123
330
1F
100
AcDbEntity
  8
Default
  6
Continuous
 62
     7
100
AcDbLine
 10
0.0
 20
0.0
 30
0.0
 11
100.0
 21
0.0
 31
0.0
  0
LINE
  5
124
330
1F
100
AcDbEntity
  8
Default
  6
Continuous
 62
     7
100
AcDbLine
 10
0.0
 20
0.0
 30
0.0
 11
0.0
 21
100.0
 31
0.0
  0
TEXT
  5
125
330
1F
100
AcDbEntity
  8
Default
  6
Continuous
 62
     7
100
AcDbText
 10
24.3923665681
 20
-18.2375342018
 30
0.0
 40
10.0
  1
100 mm
  7
SEACAD_seiso_ttf
 11
24.3923665681
 21
-8.2375342018
 31
0.0
100
AcDbText
 73
     3
  0
TEXT
  5
126
330
1F
100
AcDbEntity
  8
Default
  6
Continuous
 62
     7
100
AcDbText
 10
-7.6150308803
 20
24.6231930421
 30
0.0
 40
10.0
  1
100 mm
 50
90.0
  7
SEACAD_seiso_ttf
 11
-17.6150308803
 21
24.6231930421
 31
0.0
100
AcDbText
 73
     3
  0
TEXT
  5
127
330
1F
100
AcDbEntity
  8
Default
  6
Continuous
 62
     7
100
AcDbText
 10
28.4878128572
 20
20.0907663715
 30
0.0
 40
10.0
  1
212646
  7
SEACAD_seiso_ttf
 11
28.4878128572
 21
30.0907663715
 31
0.0
100
AcDbText
 73
     3
  0
TEXT
  5
128
330
1F
100
AcDbEntity
  8
Default
  6
Continuous
 62
     7
100
AcDbText
 10
5.9012241913
 20
36.7242780188
 30
0.0
 40
10.0
  1
40308000
  7
SEACAD_seiso_ttf
 11
5.9012241913
 21
46.7242780188
 31
0.0
100
AcDbText
 73
     3
  0
ENDSEC
  0
SECTION
  2
OBJECTS
  0
DICTIONARY
  5
C
330
0
100
AcDbDictionary
281
     1
  3
ACAD_GROUP
350
D
  3
ACAD_LAYOUT
350
1A
  3
ACAD_MLEADERSTYLE
350
12C
  3
ACAD_MLINESTYLE
350
17
  3
ACAD_PLOTSETTINGS
350
19
  3
ACAD_PLOTSTYLENAME
350
E
  3
ACAD_SCALELIST
350
3B
  3
ACAD_TABLESTYLE
350
12B
  3
ACAD_VISUALSTYLE
350
2A
  3
AcDbVariableDictionary
350
129
  0
DICTIONARY
  5
D
102
{ACAD_REACTORS
330
C
102
}
330
C
100
AcDbDictionary
281
     1
  0
DICTIONARY
  5
1A
102
{ACAD_REACTORS
330
C
102
}
330
C
100
AcDbDictionary
281
     1
  3
Layout1
350
1E
  3
Model
350
22
  0
DICTIONARY
  5
12C
102
{ACAD_REACTORS
330
C
102
}
330
C
100
AcDbDictionary
281
     1
  0
DICTIONARY
  5
17
102
{ACAD_REACTORS
330
C
102
}
330
C
100
AcDbDictionary
281
     1
  3
Standard
350
18
  0
DICTIONARY
  5
19
102
{ACAD_REACTORS
330
C
102
}
330
C
100
AcDbDictionary
281
     1
  0
ACDBDICTIONARYWDFLT
  5
E
102
{ACAD_REACTORS
330
C
102
}
330
C
100
AcDbDictionary
281
     1
  3
Normal
350
F
100
AcDbDictionaryWithDefault
340
F
  0
DICTIONARY
  5
3B
102
{ACAD_REACTORS
330
C
102
}
330
C
100
AcDbDictionary
281
     1
  3
A0
350
3C
  3
A1
350
3D
  3
A2
350
3E
  3
A3
350
3F
  3
A4
350
40
  3
A5
350
41
  3
A6
350
42
  3
A7
350
43
  3
A8
350
44
  3
A9
350
45
  3
B0
350
46
  3
B1
350
47
  3
B2
350
48
  3
B3
350
49
  3
B4
350
4A
  3
B5
350
4B
  3
B6
350
4C
  3
B7
350
4D
  3
B8
350
4E
  3
B9
350
4F
  3
C0
350
50
  3
C1
350
51
  3
C2
350
52
  3
C3
350
53
  3
C4
350
54
  3
C5
350
55
  3
C6
350
56
  3
C7
350
57
  3
C8
350
58
  3
C9
350
59
  3
D0
350
5A
  3
D1
350
5B
  3
D2
350
5C
  0
DICTIONARY
  5
12B
102
{ACAD_REACTORS
330
C
102
}
330
C
100
AcDbDictionary
281
     1
  0
DICTIONARY
  5
2A
102
{ACAD_REACTORS
330
C
102
}
330
C
100
AcDbDictionary
281
     1
  3
2dWireframe
350
2F
  3
3D Hidden
350
31
  3
3dWireframe
350
30
  3
Basic
350
32
  3
Brighten
350
36
  3
ColorChange
350
3A
  3
Conceptual
350
34
  3
Dim
350
35
  3
Facepattern
350
39
  3
Flat
350
2B
  3
FlatWithEdges
350
2C
  3
Gouraud
350
2D
  3
GouraudWithEdges
350
2E
  3
Linepattern
350
38
  3
Realistic
350
33
  3
Thicken
350
37
  0
DICTIONARY
  5
129
102
{ACAD_REACTORS
330
C
102
}
330
C
100
AcDbDictionary
281
     1
  3
CANNOSCALE
350
12A
  3
PSOLHEIGHT
350
12E
  3
PSOLWIDTH
350
12D
  0
LAYOUT
  5
1E
102
{ACAD_REACTORS
330
1A
102
}
330
1A
100
AcDbPlotSettings
  1

  2
none_device
  4

  6

 40
0.0
 41
0.0
 42
0.0
 43
0.0
 44
0.0
 45
0.0
 46
0.0
 47
0.0
 48
0.0
 49
0.0
140
0.0
141
0.0
142
1.0
143
1.0
 70
   688
 72
     0
 73
     0
 74
     5
  7

 75
    16
147
1.0
148
0.0
149
0.0
100
AcDbLayout
  1
Layout1
 70
     1
 71
     1
 10
0.0
 20
0.0
 11
1682.0
 21
2378.0
 12
0.0
 22
0.0
 32
0.0
 14
0.0
 24
0.0
 34
0.0
 15
1682.0
 25
2378.0
 35
0.0
146
0.0
 13
0.0
 23
0.0
 33
0.0
 16
1.0
 26
0.0
 36
0.0
 17
0.0
 27
1.0
 37
0.0
 76
     0
330
1B
  0
LAYOUT
  5
22
102
{ACAD_REACTORS
330
1A
102
}
330
1A
100
AcDbPlotSettings
  1

  2
none_device
  4

  6

 40
0.0
 41
0.0
 42
0.0
 43
0.0
 44
0.0
 45
0.0
 46
0.0
 47
0.0
 48
0.0
 49
0.0
140
0.0
141
0.0
142
1.0
143
1.0
 70
  1712
 72
     0
 73
     0
 74
     0
  7

 75
     0
147
1.0
148
0.0
149
0.0
100
AcDbLayout
  1
Model
 70
     1
 71
     0
 10
0.0
 20
0.0
 11
1682.0
 21
2378.0
 12
0.0
 22
0.0
 32
0.0
 14
0.0
 24
0.0
 34
0.0
 15
1682.0
 25
2378.0
 35
0.0
146
0.0
 13
0.0
 23
0.0
 33
0.0
 16
1.0
 26
0.0
 36
0.0
 17
0.0
 27
1.0
 37
0.0
 76
     0
330
1F
331
29
  0
MLINESTYLE
  5
18
102
{ACAD_REACTORS
330
17
102
}
330
17
100
AcDbMlineStyle
  2
Standard
 70
     0
  3

 62
   256
 51
90.0
 52
90.0
 71
     2
 49
0.5
 62
   256
  6
BYLAYER
 49
-0.5
 62
   256
  6
BYLAYER
  0
ACDBPLACEHOLDER
  5
F
102
{ACAD_REACTORS
330
E
102
}
330
E
  0
SCALE
  5
3C
102
{ACAD_REACTORS
330
3B
102
}
330
3B
100
AcDbScale
 70
     0
300
1:1
140
1.0
141
1.0
290
     1
  0
SCALE
  5
3D
102
{ACAD_REACTORS
330
3B
102
}
330
3B
100
AcDbScale
 70
     0
300
1:2
140
1.0
141
2.0
290
     0
  0
SCALE
  5
3E
102
{ACAD_REACTORS
330
3B
102
}
330
3B
100
AcDbScale
 70
     0
300
1:4
140
1.0
141
4.0
290
     0
  0
SCALE
  5
3F
102
{ACAD_REACTORS
330
3B
102
}
330
3B
100
AcDbScale
 70
     0
300
1:5
140
1.0
141
5.0
290
     0
  0
SCALE
  5
40
102
{ACAD_REACTORS
330
3B
102
}
330
3B
100
AcDbScale
 70
     0
300
1:8
140
1.0
141
8.0
290
     0
  0
SCALE
  5
41
102
{ACAD_REACTORS
330
3B
102
}
330
3B
100
AcDbScale
 70
     0
300
1:10
140
1.0
141
10.0
290
     0
  0
SCALE
  5
42
102
{ACAD_REACTORS
330
3B
102
}
330
3B
100
AcDbScale
 70
     0
300
1:16
140
1.0
141
16.0
290
     0
  0
SCALE
  5
43
102
{ACAD_REACTORS
330
3B
102
}
330
3B
100
AcDbScale
 70
     0
300
1:20
140
1.0
141
20.0
290
     0
  0
SCALE
  5
44
102
{ACAD_REACTORS
330
3B
102
}
330
3B
100
AcDbScale
 70
     0
300
1:30
140
1.0
141
30.0
290
     0
  0
SCALE
  5
45
102
{ACAD_REACTORS
330
3B
102
}
330
3B
100
AcDbScale
 70
     0
300
1:40
140
1.0
141
40.0
290
     0
  0
SCALE
  5
46
102
{ACAD_REACTORS
330
3B
102
}
330
3B
100
AcDbScale
 70
     0
300
1:50
140
1.0
141
50.0
290
     0
  0
SCALE
  5
47
102
{ACAD_REACTORS
330
3B
102
}
330
3B
100
AcDbScale
 70
     0
300
1:100
140
1.0
141
100.0
290
     0
  0
SCALE
  5
48
102
{ACAD_REACTORS
330
3B
102
}
330
3B
100
AcDbScale
 70
     0
300
2:1
140
2.0
141
1.0
290
     0
  0
SCALE
  5
49
102
{ACAD_REACTORS
330
3B
102
}
330
3B
100
AcDbScale
 70
     0
300
4:1
140
4.0
141
1.0
290
     0
  0
SCALE
  5
4A
102
{ACAD_REACTORS
330
3B
102
}
330
3B
100
AcDbScale
 70
     0
300
8:1
140
8.0
141
1.0
290
     0
  0
SCALE
  5
4B
102
{ACAD_REACTORS
330
3B
102
}
330
3B
100
AcDbScale
 70
     0
300
10:1
140
10.0
141
1.0
290
     0
  0
SCALE
  5
4C
102
{ACAD_REACTORS
330
3B
102
}
330
3B
100
AcDbScale
 70
     0
300
100:1
140
100.0
141
1.0
290
     0
  0
SCALE
  5
4D
102
{ACAD_REACTORS
330
3B
102
}
330
3B
100
AcDbScale
 70
     0
300
1/128" = 1'-0"
140
0.0078125
141
12.0
290
     0
  0
SCALE
  5
4E
102
{ACAD_REACTORS
330
3B
102
}
330
3B
100
AcDbScale
 70
     0
300
1/64" = 1'-0"
140
0.015625
141
12.0
290
     0
  0
SCALE
  5
4F
102
{ACAD_REACTORS
330
3B
102
}
330
3B
100
AcDbScale
 70
     0
300
1/32" = 1'-0"
140
0.03125
141
12.0
290
     0
  0
SCALE
  5
50
102
{ACAD_REACTORS
330
3B
102
}
330
3B
100
AcDbScale
 70
     0
300
1/16" = 1'-0"
140
0.0625
141
12.0
290
     0
  0
SCALE
  5
51
102
{ACAD_REACTORS
330
3B
102
}
330
3B
100
AcDbScale
 70
     0
300
3/32" = 1'-0"
140
0.09375
141
12.0
290
     0
  0
SCALE
  5
52
102
{ACAD_REACTORS
330
3B
102
}
330
3B
100
AcDbScale
 70
     0
300
1/8" = 1'-0"
140
0.125
141
12.0
290
     0
  0
SCALE
  5
53
102
{ACAD_REACTORS
330
3B
102
}
330
3B
100
AcDbScale
 70
     0
300
3/16" = 1'-0"
140
0.1875
141
12.0
290
     0
  0
SCALE
  5
54
102
{ACAD_REACTORS
330
3B
102
}
330
3B
100
AcDbScale
 70
     0
300
1/4" = 1'-0"
140
0.25
141
12.0
290
     0
  0
SCALE
  5
55
102
{ACAD_REACTORS
330
3B
102
}
330
3B
100
AcDbScale
 70
     0
300
3/8" = 1'-0"
140
0.375
141
12.0
290
     0
  0
SCALE
  5
56
102
{ACAD_REACTORS
330
3B
102
}
330
3B
100
AcDbScale
 70
     0
300
1/2" = 1'-0"
140
0.5
141
12.0
290
     0
  0
SCALE
  5
57
102
{ACAD_REACTORS
330
3B
102
}
330
3B
100
AcDbScale
 70
     0
300
3/4" = 1'-0"
140
0.75
141
12.0
290
     0
  0
SCALE
  5
58
102
{ACAD_REACTORS
330
3B
102
}
330
3B
100
AcDbScale
 70
     0
300
1" = 1'-0"
140
1.0
141
12.0
290
     0
  0
SCALE
  5
59
102
{ACAD_REACTORS
330
3B
102
}
330
3B
100
AcDbScale
 70
     0
300
1-1/2" = 1'-0"
140
1.5
141
12.0
290
     0
  0
SCALE
  5
5A
102
{ACAD_REACTORS
330
3B
102
}
330
3B
100
AcDbScale
 70
     0
300
3" = 1'-0"
140
3.0
141
12.0
290
     0
  0
SCALE
  5
5B
102
{ACAD_REACTORS
330
3B
102
}
330
3B
100
AcDbScale
 70
     0
300
6" = 1'-0"
140
6.0
141
12.0
290
     0
  0
SCALE
  5
5C
102
{ACAD_REACTORS
330
3B
102
}
330
3B
100
AcDbScale
 70
     0
300
1'-0" = 1'-0"
140
12.0
141
12.0
290
     0
  0
VISUALSTYLE
  5
2F
102
{ACAD_REACTORS
330
2A
102
}
330
2A
100
AcDbVisualStyle
  2
2dWireframe
 70
     4
 71
     0
 72
     2
 73
     0
 90
        0
 40
-0.6
 41
-30.0
 62
     5
 63
     7
 74
     1
 91
        4
 64
     7
 65
   257
 75
     1
175
     1
 42
1.0
 92
        0
 66
   257
 43
1.0
 76
     1
 77
     6
 78
     2
 67
     7
 79
     5
170
     0
171
     0
290
     0
174
     0
 93
        1
 44
0.0
173
     0
291
     0
 45
0.0
1001
ACAD
1000
AcDbSavedByObjectVersion
1070
     0
  0
VISUALSTYLE
  5
31
102
{ACAD_REACTORS
330
2A
102
}
330
2A
100
AcDbVisualStyle
  2
3D Hidden
 70
     6
 71
     1
 72
     2
 73
     2
 90
        0
 40
-0.6
 41
-30.0
 62
     5
 63
     7
 74
     2
 91
        2
 64
     7
 65
   257
 75
     2
175
     1
 42
40.0
 92
        0
 66
   257
 43
1.0
 76
     1
 77
     6
 78
     2
 67
     7
 79
     3
170
     0
171
     0
290
     0
174
     0
 93
        1
 44
0.0
173
     0
291
     0
 45
0.0
1001
ACAD
1000
AcDbSavedByObjectVersion
1070
     0
  0
VISUALSTYLE
  5
30
102
{ACAD_REACTORS
330
2A
102
}
330
2A
100
AcDbVisualStyle
  2
3dWireframe
 70
     5
 71
     0
 72
     2
 73
     0
 90
        0
 40
-0.6
 41
-30.0
 62
     5
 63
     7
 74
     1
 91
        4
 64
     7
 65
   257
 75
     1
175
     1
 42
1.0
 92
        0
 66
   257
 43
1.0
 76
     1
 77
     6
 78
     2
 67
     7
 79
     5
170
     0
171
     0
290
     0
174
     0
 93
        1
 44
0.0
173
     0
291
     0
 45
0.0
1001
ACAD
1000
AcDbSavedByObjectVersion
1070
     0
  0
VISUALSTYLE
  5
32
102
{ACAD_REACTORS
330
2A
102
}
330
2A
100
AcDbVisualStyle
  2
Basic
 70
     7
 71
     1
 72
     0
 73
     1
 90
        0
 40
-0.6
 41
-30.0
 62
     5
 63
     7
 74
     0
 91
        4
 64
     7
 65
   257
 75
     1
175
     1
 42
1.0
 92
        8
 66
     7
 43
1.0
 76
     1
 77
     6
 78
     2
 67
     7
 79
     5
170
     0
171
     0
290
     0
174
     0
 93
        1
 44
0.0
173
     0
291
     1
 45
0.0
1001
ACAD
1000
AcDbSavedByObjectVersion
1070
     0
  0
VISUALSTYLE
  5
36
102
{ACAD_REACTORS
330
2A
102
}
330
2A
100
AcDbVisualStyle
  2
Brighten
 70
    12
 71
     2
 72
     2
 73
     0
 90
        0
 40
-0.6
 41
-30.0
 62
     5
 63
     7
 74
     1
 91
        4
 64
     7
 65
   257
 75
     1
175
     1
 42
1.0
 92
        8
 66
     7
 43
1.0
 76
     1
 77
     6
 78
     2
 67
     7
 79
     5
170
     0
171
     0
290
     0
174
     0
 93
        1
 44
50.0
173
     0
291
     1
 45
0.0
1001
ACAD
1000
AcDbSavedByObjectVersion
1070
     0
  0
VISUALSTYLE
  5
3A
102
{ACAD_REACTORS
330
2A
102
}
330
2A
100
AcDbVisualStyle
  2
ColorChange
 70
    16
 71
     2
 72
     2
 73
     3
 90
        0
 40
-0.6
 41
-30.0
 62
     5
 63
     8
 74
     1
 91
        4
 64
     7
 65
   257
 75
     1
175
     1
 42
1.0
 92
        8
 66
     8
 43
1.0
 76
     1
 77
     6
 78
     2
 67
     7
 79
     5
170
     0
171
     0
290
     0
174
     0
 93
        1
 44
0.0
173
     0
291
     1
 45
0.0
1001
ACAD
1000
AcDbSavedByObjectVersion
1070
     0
  0
VISUALSTYLE
  5
34
102
{ACAD_REACTORS
330
2A
102
}
330
2A
100
AcDbVisualStyle
  2
Conceptual
 70
     9
 71
     3
 72
     2
 73
     0
 90
        0
 40
-0.6
 41
-30.0
 62
     5
 63
     7
 74
     2
 91
        2
 64
     7
 65
   257
 75
     1
175
     1
 42
40.0
 92
        8
 66
     7
 43
1.0
 76
     1
 77
     6
 78
     2
 67
     7
 79
     3
170
     0
171
     0
290
     0
174
     0
 93
        1
 44
0.0
173
     0
291
     0
 45
0.0
1001
ACAD
1000
AcDbSavedByObjectVersion
1070
     0
  0
VISUALSTYLE
  5
35
102
{ACAD_REACTORS
330
2A
102
}
330
2A
100
AcDbVisualStyle
  2
Dim
 70
    11
 71
     2
 72
     2
 73
     0
 90
        0
 40
-0.6
 41
-30.0
 62
     5
 63
     7
 74
     1
 91
        4
 64
     7
 65
   257
 75
     1
175
     1
 42
1.0
 92
        8
 66
     7
 43
1.0
 76
     1
 77
     6
 78
     2
 67
     7
 79
     5
170
     0
171
     0
290
     0
174
     0
 93
        1
 44
-50.0
173
     0
291
     1
 45
0.0
1001
ACAD
1000
AcDbSavedByObjectVersion
1070
     0
  0
VISUALSTYLE
  5
39
102
{ACAD_REACTORS
330
2A
102
}
330
2A
100
AcDbVisualStyle
  2
Facepattern
 70
    15
 71
     2
 72
     2
 73
     0
 90
        0
 40
-0.6
 41
-30.0
 62
     5
 63
     7
 74
     1
 91
        4
 64
     7
 65
   257
 75
     1
175
     1
 42
1.0
 92
        8
 66
     7
 43
1.0
 76
     1
 77
     6
 78
     2
 67
     7
 79
     5
170
     0
171
     0
290
     0
174
     0
 93
        1
 44
0.0
173
     0
291
     1
 45
0.0
1001
ACAD
1000
AcDbSavedByObjectVersion
1070
     0
  0
VISUALSTYLE
  5
2B
102
{ACAD_REACTORS
330
2A
102
}
330
2A
100
AcDbVisualStyle
  2
Flat
 70
     0
 71
     2
 72
     1
 73
     1
 90
        2
 40
-0.6
 41
30.0
 62
     5
 63
     7
 74
     0
 91
        4
 64
     7
 65
   257
 75
     1
175
     1
 42
1.0
 92
        8
 66
     7
 43
1.0
 76
     1
 77
     6
 78
     2
 67
     7
 79
     5
170
     0
171
     0
290
     0
174
     0
 93
       13
 44
0.0
173
     0
291
     1
 45
0.0
1001
ACAD
1000
AcDbSavedByObjectVersion
1070
     0
  0
VISUALSTYLE
  5
2C
102
{ACAD_REACTORS
330
2A
102
}
330
2A
100
AcDbVisualStyle
  2
FlatWithEdges
 70
     1
 71
     2
 72
     1
 73
     1
 90
        2
 40
-0.6
 41
30.0
 62
     5
 63
     7
 74
     1
 91
        4
 64
     7
 65
   257
 75
     1
175
     1
 42
1.0
 92
        0
 66
   257
 43
1.0
 76
     1
 77
     6
 78
     2
 67
     7
 79
     5
170
     0
171
     0
290
     0
174
     0
 93
       13
 44
0.0
173
     0
291
     1
 45
0.0
1001
ACAD
1000
AcDbSavedByObjectVersion
1070
     0
  0
VISUALSTYLE
  5
2D
102
{ACAD_REACTORS
330
2A
102
}
330
2A
100
AcDbVisualStyle
  2
Gouraud
 70
     2
 71
     2
 72
     2
 73
     1
 90
        2
 40
-0.6
 41
30.0
 62
     5
 63
     7
 74
     0
 91
        4
 64
     7
 65
   257
 75
     1
175
     1
 42
1.0
 92
        0
 66
     7
 43
1.0
 76
     1
 77
     6
 78
     2
 67
     7
 79
     5
170
     0
171
     0
290
     0
174
     0
 93
       13
 44
0.0
173
     0
291
     1
 45
0.0
1001
ACAD
1000
AcDbSavedByObjectVersion
1070
     0
  0
VISUALSTYLE
  5
2E
102
{ACAD_REACTORS
330
2A
102
}
330
2A
100
AcDbVisualStyle
  2
GouraudWithEdges
 70
     3
 71
     2
 72
     2
 73
     1
 90
        2
 40
-0.6
 41
30.0
 62
     5
 63
     7
 74
     1
 91
        4
 64
     7
 65
   257
 75
     1
175
     1
 42
1.0
 92
        0
 66
   257
 43
1.0
 76
     1
 77
     6
 78
     2
 67
     7
 79
     5
170
     0
171
     0
290
     0
174
     0
 93
       13
 44
0.0
173
     0
291
     1
 45
0.0
1001
ACAD
1000
AcDbSavedByObjectVersion
1070
     0
  0
VISUALSTYLE
  5
38
102
{ACAD_REACTORS
330
2A
102
}
330
2A
100
AcDbVisualStyle
  2
Linepattern
 70
    14
 71
     2
 72
     2
 73
     0
 90
        0
 40
-0.6
 41
-30.0
 62
     5
 63
     7
 74
     1
 91
        4
 64
     7
 65
   257
 75
     7
175
     7
 42
1.0
 92
        8
 66
     7
 43
1.0
 76
     1
 77
     6
 78
     2
 67
     7
 79
     5
170
     0
171
     0
290
     0
174
     0
 93
        1
 44
0.0
173
     0
291
     1
 45
0.0
1001
ACAD
1000
AcDbSavedByObjectVersion
1070
     0
  0
VISUALSTYLE
  5
33
102
{ACAD_REACTORS
330
2A
102
}
330
2A
100
AcDbVisualStyle
  2
Realistic
 70
     8
 71
     2
 72
     2
 73
     0
 90
        0
 40
-0.6
 41
-30.0
 62
     5
 63
     7
 74
     1
 91
        0
 64
     7
 65
   257
 75
     1
175
     1
 42
1.0
 92
        8
 66
     8
 43
1.0
 76
     1
 77
     6
 78
     2
 67
     7
 79
     5
170
     0
171
     0
290
     0
174
     0
 93
       13
 44
0.0
173
     0
291
     0
 45
0.0
1001
ACAD
1000
AcDbSavedByObjectVersion
1070
     0
  0
VISUALSTYLE
  5
37
102
{ACAD_REACTORS
330
2A
102
}
330
2A
100
AcDbVisualStyle
  2
Thicken
 70
    13
 71
     2
 72
     2
 73
     0
 90
        0
 40
-0.6
 41
-30.0
 62
     5
 63
     7
 74
     1
 91
        4
 64
     7
 65
   257
 75
     1
175
     1
 42
1.0
 92
       12
 66
     7
 43
1.0
 76
     1
 77
     6
 78
     2
 67
     7
 79
     5
170
     0
171
     0
290
     0
174
     0
 93
        1
 44
0.0
173
     0
291
     1
 45
0.0
1001
ACAD
1000
AcDbSavedByObjectVersion
1070
     0
  0
DICTIONARYVAR
  5
12A
102
{ACAD_REACTORS
330
129
102
}
330
129
100
DictionaryVariables
280
     0
  1
1:1
  0
DICTIONARYVAR
  5
12E
102
{ACAD_REACTORS
330
129
102
}
330
129
100
DictionaryVariables
280
     0
  1
80.000000
  0
DICTIONARYVAR
  5
12D
102
{ACAD_REACTORS
330
129
102
}
330
129
100
DictionaryVariables
280
     0
  1
5.000000
  0
ENDSEC
  0
EOF
