  0
SECTION
  2
HEADER
  9
$ACADVER
  1
AC1015
  9
$ACADMAINTVER
 70
     6
  9
$DWGCODEPAGE
  3
ANSI_1252
  9
$INSBASE
 10
0.0
 20
0.0
 30
0.0
  9
$EXTMIN
 10
0.0
 20
0.0
 30
0.0
  9
$EXTMAX
 10
1682.0
 20
2378.0
 30
0.0
  9
$LIMMIN
 10
0.0
 20
0.0
  9
$LIMMAX
 10
1682.0
 20
2378.0
  9
$ORTHOMODE
 70
     0
  9
$REGENMODE
 70
     1
  9
$FILLMODE
 70
     1
  9
$QTEXTMODE
 70
     0
  9
$MIRRTEXT
 70
     1
  9
$LTSCALE
 40
1.0
  9
$ATTMODE
 70
     1
  9
$TEXTSIZE
 40
2.5
  9
$TRACEWID
 40
1.0
  9
$TEXTSTYLE
  7
Standard
  9
$CLAYER
  8
0
  9
$CELTYPE
  6
ByLayer
  9
$CECOLOR
 62
   256
  9
$CELTSCALE
 40
1.0
  9
$DISPSILH
 70
     0
  9
$DIMSCALE
 40
1.0
  9
$DIMASZ
 40
2.5
  9
$DIMEXO
 40
0.625
  9
$DIMDLI
 40
3.75
  9
$DIMRND
 40
0.0
  9
$DIMDLE
 40
0.0
  9
$DIMEXE
 40
1.25
  9
$DIMTP
 40
0.0
  9
$DIMTM
 40
0.0
  9
$DIMTXT
 40
2.5
  9
$DIMCEN
 40
2.5
  9
$DIMTSZ
 40
0.0
  9
$DIMTOL
 70
     0
  9
$DIMLIM
 70
     0
  9
$DIMTIH
 70
     0
  9
$DIMTOH
 70
     0
  9
$DIMSE1
 70
     0
  9
$DIMSE2
 70
     0
  9
$DIMTAD
 70
     1
  9
$DIMZIN
 70
     8
  9
$DIMBLK
  1

  9
$DIMASO
 70
     1
  9
$DIMSHO
 70
     1
  9
$DIMPOST
  1

  9
$DIMAPOST
  1

  9
$DIMALT
 70
     0
  9
$DIMALTD
 70
     3
  9
$DIMALTF
 40
0.0393700787
  9
$DIMLFAC
 40
1.0
  9
$DIMTOFL
 70
     1
  9
$DIMTVP
 40
0.0
  9
$DIMTIX
 70
     0
  9
$DIMSOXD
 70
     0
  9
$DIMSAH
 70
     0
  9
$DIMBLK1
  1

  9
$DIMBLK2
  1

  9
$DIMSTYLE
  2
ISO-25
  9
$DIMCLRD
 70
     0
  9
$DIMCLRE
 70
     0
  9
$DIMCLRT
 70
     0
  9
$DIMTFAC
 40
1.0
  9
$DIMGAP
 40
0.625
  9
$DIMJUST
 70
     0
  9
$DIMSD1
 70
     0
  9
$DIMSD2
 70
     0
  9
$DIMTOLJ
 70
     0
  9
$DIMTZIN
 70
     8
  9
$DIMALTZ
 70
     0
  9
$DIMALTTZ
 70
     0
  9
$DIMUPT
 70
     0
  9
$DIMDEC
 70
     2
  9
$DIMTDEC
 70
     2
  9
$DIMALTU
 70
     2
  9
$DIMALTTD
 70
     3
  9
$DIMTXSTY
  7
Standard
  9
$DIMAUNIT
 70
     0
  9
$DIMADEC
 70
     0
  9
$DIMALTRND
 40
0.0
  9
$DIMAZIN
 70
     0
  9
$DIMDSEP
 70
    44
  9
$DIMATFIT
 70
     3
  9
$DIMFRAC
 70
     0
  9
$DIMLDRBLK
  1

  9
$DIMLUNIT
 70
     2
  9
$DIMLWD
 70
    -2
  9
$DIMLWE
 70
    -2
  9
$DIMTMOVE
 70
     0
  9
$LUNITS
 70
     2
  9
$LUPREC
 70
     4
  9
$SKETCHINC
 40
1.0
  9
$FILLETRAD
 40
10.0
  9
$AUNITS
 70
     0
  9
$AUPREC
 70
     0
  9
$MENU
  1
.
  9
$ELEVATION
 40
0.0
  9
$PELEVATION
 40
0.0
  9
$THICKNESS
 40
0.0
  9
$LIMCHECK
 70
     0
  9
$CHAMFERA
 40
10.0
  9
$CHAMFERB
 40
10.0
  9
$CHAMFERC
 40
20.0
  9
$CHAMFERD
 40
0.0
  9
$SKPOLY
 70
     0
  9
$TDCREATE
 40
2455118.40806691
  9
$TDUCREATE
 40
2455118.324733576
  9
$TDUPDATE
 40
2455118.408066921
  9
$TDUUPDATE
 40
2455118.324733588
  9
$TDINDWG
 40
0.0000000116
  9
$TDUSRTIMER
 40
0.0000000116
  9
$USRTIMER
 70
     1
  9
$ANGBASE
 50
0.0
  9
$ANGDIR
 70
     0
  9
$PDMODE
 70
     0
  9
$PDSIZE
 40
0.0
  9
$PLINEWID
 40
0.0
  9
$SPLFRAME
 70
     0
  9
$SPLINETYPE
 70
     6
  9
$SPLINESEGS
 70
     8
  9
$HANDSEED
  5
269
  9
$SURFTAB1
 70
     6
  9
$SURFTAB2
 70
     6
  9
$SURFTYPE
 70
     6
  9
$SURFU
 70
     6
  9
$SURFV
 70
     6
  9
$UCSBASE
  2

  9
$UCSNAME
  2

  9
$UCSORG
 10
0.0
 20
0.0
 30
0.0
  9
$UCSXDIR
 10
1.0
 20
0.0
 30
0.0
  9
$UCSYDIR
 10
0.0
 20
1.0
 30
0.0
  9
$UCSORTHOREF
  2

  9
$UCSORTHOVIEW
 70
     0
  9
$UCSORGTOP
 10
0.0
 20
0.0
 30
0.0
  9
$UCSORGBOTTOM
 10
0.0
 20
0.0
 30
0.0
  9
$UCSORGLEFT
 10
0.0
 20
0.0
 30
0.0
  9
$UCSORGRIGHT
 10
0.0
 20
0.0
 30
0.0
  9
$UCSORGFRONT
 10
0.0
 20
0.0
 30
0.0
  9
$UCSORGBACK
 10
0.0
 20
0.0
 30
0.0
  9
$PUCSBASE
  2

  9
$PUCSNAME
  2

  9
$PUCSORG
 10
0.0
 20
0.0
 30
0.0
  9
$PUCSXDIR
 10
1.0
 20
0.0
 30
0.0
  9
$PUCSYDIR
 10
0.0
 20
1.0
 30
0.0
  9
$PUCSORTHOREF
  2

  9
$PUCSORTHOVIEW
 70
     0
  9
$PUCSORGTOP
 10
0.0
 20
0.0
 30
0.0
  9
$PUCSORGBOTTOM
 10
0.0
 20
0.0
 30
0.0
  9
$PUCSORGLEFT
 10
0.0
 20
0.0
 30
0.0
  9
$PUCSORGRIGHT
 10
0.0
 20
0.0
 30
0.0
  9
$PUCSORGFRONT
 10
0.0
 20
0.0
 30
0.0
  9
$PUCSORGBACK
 10
0.0
 20
0.0
 30
0.0
  9
$USERI1
 70
     0
  9
$USERI2
 70
     0
  9
$USERI3
 70
     0
  9
$USERI4
 70
     0
  9
$USERI5
 70
     0
  9
$USERR1
 40
0.0
  9
$USERR2
 40
0.0
  9
$USERR3
 40
0.0
  9
$USERR4
 40
0.0
  9
$USERR5
 40
0.0
  9
$WORLDVIEW
 70
     1
  9
$SHADEDGE
 70
     3
  9
$SHADEDIF
 70
    70
  9
$TILEMODE
 70
     1
  9
$MAXACTVP
 70
    64
  9
$PINSBASE
 10
0.0
 20
0.0
 30
0.0
  9
$PLIMCHECK
 70
     0
  9
$PEXTMIN
 10
0.0
 20
0.0
 30
0.0
  9
$PEXTMAX
 10
1682.0
 20
2378.0
 30
0.0
  9
$PLIMMIN
 10
0.0
 20
0.0
  9
$PLIMMAX
 10
1682.0
 20
2378.0
  9
$UNITMODE
 70
     0
  9
$VISRETAIN
 70
     1
  9
$PLINEGEN
 70
     0
  9
$PSLTSCALE
 70
     1
  9
$TREEDEPTH
 70
  3020
  9
$CMLSTYLE
  2
Standard
  9
$CMLJUST
 70
     0
  9
$CMLSCALE
 40
20.0
  9
$PROXYGRAPHICS
 70
     1
  9
$MEASUREMENT
 70
     1
  9
$CELWEIGHT
370
    -1
  9
$ENDCAPS
280
     0
  9
$JOINSTYLE
280
     0
  9
$LWDISPLAY
290
     0
  9
$INSUNITS
 70
     4
  9
$HYPERLINKBASE
  1

  9
$STYLESHEET
  1

  9
$XEDIT
290
     1
  9
$CEPSNTYPE
380
     0
  9
$PSTYLEMODE
290
     1
  9
$FINGERPRINTGUID
  2
{6AF04E76-E85D-465A-8CFA-52799791000F}
  9
$VERSIONGUID
  2
{FAEB1C32-E019-11D5-929B-00C0DF256EC4}
  9
$EXTNAMES
290
     1
  9
$PSVPSCALE
 40
0.0
  9
$OLESTARTUP
290
     0
  0
ENDSEC
  0
SECTION
  2
CLASSES
  0
CLASS
  1
ACDBDICTIONARYWDFLT
  2
AcDbDictionaryWithDefault
  3
ObjectDBX Classes
 90
        0
280
     0
281
     0
  0
CLASS
  1
VISUALSTYLE
  2
AcDbVisualStyle
  3
ObjectDBX Classes
 90
     4095
280
     0
281
     0
  0
CLASS
  1
SCALE
  2
AcDbScale
  3
ObjectDBX Classes
 90
     1153
280
     0
281
     0
  0
CLASS
  1
DICTIONARYVAR
  2
AcDbDictionaryVar
  3
ObjectDBX Classes
 90
        0
280
     0
281
     0
  0
CLASS
  1
ACDBPLACEHOLDER
  2
AcDbPlaceHolder
  3
ObjectDBX Classes
 90
        0
280
     0
281
     0
  0
CLASS
  1
LAYOUT
  2
AcDbLayout
  3
ObjectDBX Classes
 90
        0
280
     0
281
     0
  0
ENDSEC
  0
SECTION
  2
TABLES
  0
TABLE
  2
VPORT
  5
8
330
0
100
AcDbSymbolTable
 70
     1
  0
VPORT
  5
29
330
8
100
AcDbSymbolTableRecord
100
AcDbViewportTableRecord
  2
*Active
 70
     0
 10
0.0
 20
0.0
 11
1.0
 21
1.0
 12
344.1869158879
 22
148.5
 13
0.0
 23
0.0
 14
10.0
 24
10.0
 15
10.0
 25
10.0
 16
0.0
 26
0.0
 36
1.0
 17
0.0
 27
0.0
 37
0.0
 40
297.0
 41
1.9729729729
 42
50.0
 43
0.0
 44
0.0
 50
0.0
 51
0.0
 71
     0
 72
   100
 73
     1
 74
     3
 75
     0
 76
     0
 77
     0
 78
     0
281
     0
 65
     1
110
0.0
120
0.0
130
0.0
111
1.0
121
0.0
131
0.0
112
0.0
122
1.0
132
0.0
 79
     0
146
0.0
  0
ENDTAB
  0
TABLE
  2
LTYPE
  5
5
330
0
100
AcDbSymbolTable
 70
     1
  0
LTYPE
  5
14
330
5
100
AcDbSymbolTableRecord
100
AcDbLinetypeTableRecord
  2
ByBlock
 70
     0
  3

 72
    65
 73
     0
 40
0.0
  0
LTYPE
  5
15
330
5
100
AcDbSymbolTableRecord
100
AcDbLinetypeTableRecord
  2
ByLayer
 70
     0
  3

 72
    65
 73
     0
 40
0.0
  0
LTYPE
  5
16
330
5
100
AcDbSymbolTableRecord
100
AcDbLinetypeTableRecord
  2
Continuous
 70
     0
  3
Solid line
 72
    65
 73
     0
 40
0.0
  0
ENDTAB
  0
TABLE
  2
LAYER
  5
2
330
0
100
AcDbSymbolTable
 70
    11
  0
LAYER
  5
10
330
2
100
AcDbSymbolTableRecord
100
AcDbLayerTableRecord
  2
0
 70
     0
 62
     7
  6
Continuous
370
    -3
390
F
  0
LAYER
  5
5D
330
2
100
AcDbSymbolTableRecord
100
AcDbLayerTableRecord
  2
Default
 70
     0
 62
     7
  6
Continuous
370
    -3
390
F
  0
LAYER
  5
60
330
2
100
AcDbSymbolTableRecord
100
AcDbLayerTableRecord
  2
$DDT_AUDIT_GENERATED_(60)
 70
     0
 62
     7
  6
Continuous
370
    -3
390
F
  0
LAYER
  5
81
330
2
100
AcDbSymbolTableRecord
100
AcDbLayerTableRecord
  2
$DDT_AUDIT_GENERATED_(81)
 70
     0
 62
     7
  6
Continuous
370
    -3
390
F
  0
LAYER
  5
AC
330
2
100
AcDbSymbolTableRecord
100
AcDbLayerTableRecord
  2
$DDT_AUDIT_GENERATED_(AC)
 70
     0
 62
     7
  6
Continuous
370
    -3
390
F
  0
LAYER
  5
B1
330
2
100
AcDbSymbolTableRecord
100
AcDbLayerTableRecord
  2
$DDT_AUDIT_GENERATED_(B1)
 70
     0
 62
     7
  6
Continuous
370
    -3
390
F
  0
LAYER
  5
C2
330
2
100
AcDbSymbolTableRecord
100
AcDbLayerTableRecord
  2
$DDT_AUDIT_GENERATED_(C2)
 70
     0
 62
     7
  6
Continuous
370
    -3
390
F
  0
LAYER
  5
C7
330
2
100
AcDbSymbolTableRecord
100
AcDbLayerTableRecord
  2
$DDT_AUDIT_GENERATED_(C7)
 70
     0
 62
     7
  6
Continuous
370
    -3
390
F
  0
LAYER
  5
F0
330
2
100
AcDbSymbolTableRecord
100
AcDbLayerTableRecord
  2
$DDT_AUDIT_GENERATED_(F0)
 70
     0
 62
     7
  6
Continuous
370
    -3
390
F
  0
LAYER
  5
1B5
330
2
100
AcDbSymbolTableRecord
100
AcDbLayerTableRecord
  2
DV2_Standard
 70
     0
 62
     7
  6
Continuous
370
    -3
390
F
  0
LAYER
  5
253
330
2
100
AcDbSymbolTableRecord
100
AcDbLayerTableRecord
  2
DV3_Standard
 70
     0
 62
     7
  6
Continuous
370
    -3
390
F
  0
ENDTAB
  0
TABLE
  2
STYLE
  5
3
330
0
100
AcDbSymbolTable
 70
     2
  0
STYLE
  5
11
330
3
100
AcDbSymbolTableRecord
100
AcDbTextStyleTableRecord
  2
Standard
 70
     0
 40
0.0
 41
1.0
 50
0.0
 71
     0
 42
2.5
  3
txt
  4

  0
STYLE
  5
258
330
3
100
AcDbSymbolTableRecord
100
AcDbTextStyleTableRecord
  2
SEACAD_seiso_ttf
 70
     0
 40
0.0
 41
1.0
 50
0.0
 71
     0
 42
0.2
  3
seiso.ttf
  4

  0
ENDTAB
  0
TABLE
  2
VIEW
  5
6
330
0
100
AcDbSymbolTable
 70
     0
  0
ENDTAB
  0
TABLE
  2
UCS
  5
7
330
0
100
AcDbSymbolTable
 70
     0
  0
ENDTAB
  0
TABLE
  2
APPID
  5
9
330
0
100
AcDbSymbolTable
 70
     1
  0
APPID
  5
12
330
9
100
AcDbSymbolTableRecord
100
AcDbRegAppTableRecord
  2
ACAD
 70
     0
  0
ENDTAB
  0
TABLE
  2
DIMSTYLE
  5
A
330
0
100
AcDbSymbolTable
 70
     1
100
AcDbDimStyleTable
  0
DIMSTYLE
105
27
330
A
100
AcDbSymbolTableRecord
100
AcDbDimStyleTableRecord
  2
ISO-25
 70
     0
 41
2.5
 42
0.625
 43
3.75
 44
1.25
 73
     0
 74
     0
 77
     1
 78
     8
140
2.5
141
2.5
143
0.0393700787
147
0.625
171
     3
172
     1
271
     2
272
     2
274
     3
278
    44
283
     0
284
     8
340
11
  0
ENDTAB
  0
TABLE
  2
BLOCK_RECORD
  5
1
330
0
100
AcDbSymbolTable
 70
     4
  0
BLOCK_RECORD
  5
1F
330
1
100
AcDbSymbolTableRecord
100
AcDbBlockTableRecord
  2
*Model_Space
340
22
  0
BLOCK_RECORD
  5
1B
330
1
100
AcDbSymbolTableRecord
100
AcDbBlockTableRecord
  2
*Paper_Space
340
1E
  0
BLOCK_RECORD
  5
5E
330
1
100
AcDbSymbolTableRecord
100
AcDbBlockTableRecord
  2
SE
340
0
102
{BLKREFS
331
5F
102
}
  0
BLOCK_RECORD
  5
EE
330
1
100
AcDbSymbolTableRecord
100
AcDbBlockTableRecord
  2
SE1
340
0
102
{BLKREFS
331
EF
102
}
  0
BLOCK_RECORD
  5
1BC
330
1
100
AcDbSymbolTableRecord
100
AcDbBlockTableRecord
  2
SE2
340
0
102
{BLKREFS
331
1BD
102
}
  0
ENDTAB
  0
ENDSEC
  0
SECTION
  2
BLOCKS
  0
BLOCK
  5
20
330
1F
100
AcDbEntity
  8
0
100
AcDbBlockBegin
  2
*Model_Space
 70
     0
 10
0.0
 20
0.0
 30
0.0
  3
*Model_Space
  1

  0
ENDBLK
  5
21
330
1F
100
AcDbEntity
  8
0
100
AcDbBlockEnd
  0
BLOCK
  5
1C
330
1B
100
AcDbEntity
 67
     1
  8
0
100
AcDbBlockBegin
  2
*Paper_Space
 70
     0
 10
0.0
 20
0.0
 30
0.0
  3
*Paper_Space
  1

  0
ENDBLK
  5
1D
330
1B
100
AcDbEntity
 67
     1
  8
0
100
AcDbBlockEnd
  0
BLOCK
  5
EC
330
5E
100
AcDbEntity
  8
0
100
AcDbBlockBegin
  2
SE
 70
     0
 10
0.0
 20
0.0
 30
0.0
  3
SE
  1

  0
ARC
  5
61
330
5E
100
AcDbEntity
  8
$DDT_AUDIT_GENERATED_(60)
  6
Continuous
 62
     7
100
AcDbCircle
 10
105.1746890062
 20
279.3126052333
 30
0.0
 40
28.10217298590241
100
AcDbArc
 50
100.2601587312
 51
105.0384736948
  0
SPLINE
  5
62
330
5E
100
AcDbEntity
  8
$DDT_AUDIT_GENERATED_(60)
  6
Continuous
 62
     7
100
AcDbSpline
210
0.0
220
0.0
230
1.0
 70
     8
 71
     3
 72
    10
 73
     6
 74
     0
 42
0.0000000164907823
 43
0.0000000001
 40
0.0
 40
0.0
 40
0.0
 40
0.0
 40
0.5
 40
0.5
 40
1.0
 40
1.0
 40
1.0
 40
1.0
 10
96.76133489286099
 20
301.7896039778376
 30
0.0
 10
96.8554026387268
 20
301.824814428557
 30
0.0
 10
96.93670472760309
 20
301.887833822276
 30
0.0
 10
97.05158825031698
 20
302.0501365826885
 30
0.0
 10
97.08419976809775
 20
302.1486828610801
 30
0.0
 10
97.08595271656476
 20
302.2491092114963
 30
0.0
  0
LINE
  5
63
330
5E
100
AcDbEntity
  8
$DDT_AUDIT_GENERATED_(60)
  6
Continuous
 62
     7
100
AcDbLine
 10
81.2667257423
 20
274.8494043555
 30
0.0
 11
78.47621913
 21
273.1726988251
 31
0.0
  0
ARC
  5
64
330
5E
100
AcDbEntity
  8
$DDT_AUDIT_GENERATED_(60)
  6
Continuous
 62
     7
100
AcDbCircle
 10
105.1746890062
 20
279.3126052333
 30
0.0
 40
24.0
100
AcDbArc
 50
110.521352102
 51
189.478647898
  0
SPLINE
  5
65
330
5E
100
AcDbEntity
  8
$DDT_AUDIT_GENERATED_(60)
  6
Continuous
 62
     7
100
AcDbSpline
210
0.0
220
0.0
230
1.0
 70
     8
 71
     3
 72
    10
 73
     6
 74
     0
 42
0.0000000164907823
 43
0.0000000001
 40
0.0
 40
0.0
 40
0.0
 40
0.0
 40
0.5
 40
0.5
 40
1.0
 40
1.0
 40
1.0
 40
1.0
 10
81.2667257422524
 20
274.8494043555233
 30
0.0
 10
81.35282100440736
 20
274.9011356080371
 30
0.0
 10
81.42130591847929
 20
274.977890348509
 30
0.0
 10
81.50475564507084
 20
275.1583801071116
 30
0.0
 10
81.51890077063828
 20
275.2612139317973
 30
0.0
 10
81.50236003592087
 20
275.3602842542014
 30
0.0
  0
SPLINE
  5
66
330
5E
100
AcDbEntity
  8
$DDT_AUDIT_GENERATED_(60)
  6
Continuous
 62
     7
100
AcDbSpline
210
0.0
220
0.0
230
1.0
 70
     8
 71
     3
 72
    10
 73
     6
 74
     0
 42
0.0000000164907823
 43
0.0000000001
 40
0.0
 40
0.0
 40
0.0
 40
0.0
 40
0.5
 40
0.5
 40
1.0
 40
1.0
 40
1.0
 40
1.0
 10
89.91571414928667
 20
260.7879274677832
 30
0.0
 10
89.83818713155208
 20
260.85178730002
 30
0.0
 10
89.7429596912222
 20
260.8906872775082
 30
0.0
 10
89.5449596162437
 20
260.9090279464484
 30
0.0
 10
89.44331027681773
 20
260.8879972101067
 30
0.0
 10
89.35546203191446
 20
260.8393021328025
 30
0.0
  0
SPLINE
  5
67
330
5E
100
AcDbEntity
  8
$DDT_AUDIT_GENERATED_(60)
  6
Continuous
 62
     7
100
AcDbSpline
210
0.0
220
0.0
230
1.0
 70
     8
 71
     3
 72
    10
 73
     6
 74
     0
 42
0.0000000164907823
 43
0.0000000001
 40
0.0
 40
0.0
 40
0.0
 40
0.0
 40
0.5
 40
0.5
 40
1.0
 40
1.0
 40
1.0
 40
1.0
 10
128.8470179765326
 20
275.3602842542012
 30
0.0
 10
128.8304772484014
 20
275.261213971245
 30
0.0
 10
128.8444025998549
 20
275.159294600038
 30
0.0
 10
128.9275191521195
 20
274.9786511706852
 30
0.0
 10
128.9965569737647
 20
274.9011356286353
 30
0.0
 10
129.082652270201
 20
274.8494043555232
 30
0.0
  0
LINE
  5
68
330
5E
100
AcDbEntity
  8
$DDT_AUDIT_GENERATED_(60)
  6
Continuous
 62
     7
100
AcDbLine
 10
120.9939159805
 20
260.8393021328
 30
0.0
 11
123.8412388706
 21
259.2610052824
 31
0.0
  0
ARC
  5
69
330
5E
100
AcDbEntity
  8
$DDT_AUDIT_GENERATED_(60)
  6
Continuous
 62
     7
100
AcDbCircle
 10
105.1746890062
 20
279.3126052333
 30
0.0
 40
24.0
100
AcDbArc
 50
230.521352102
 51
309.478647898
  0
SPLINE
  5
6A
330
5E
100
AcDbEntity
  8
$DDT_AUDIT_GENERATED_(60)
  6
Continuous
 62
     7
100
AcDbSpline
210
0.0
220
0.0
230
1.0
 70
     8
 71
     3
 72
    10
 73
     6
 74
     0
 42
0.0000000164907823
 43
0.0000000001
 40
0.0
 40
0.0
 40
0.0
 40
0.0
 40
0.5000000000000043
 40
0.5000000000000043
 40
1.0
 40
1.0
 40
1.0
 40
1.0
 10
120.993915980539
 20
260.8393021328025
 30
0.0
 10
120.906067770615
 20
260.8879971907173
 30
0.0
 10
120.8053537584695
 20
260.9089294958436
 30
0.0
 10
120.607320179101
 20
260.8909541997095
 30
0.0
 10
120.5111909117711
 20
260.8517873254478
 30
0.0
 10
120.4336638631668
 20
260.7879274677832
 30
0.0
  0
LINE
  5
6B
330
5E
100
AcDbEntity
  8
$DDT_AUDIT_GENERATED_(60)
  6
Continuous
 62
     7
100
AcDbLine
 10
113.2634252959
 20
302.2491092115
 30
0.0
 11
113.206609018
 21
305.5041115923
 31
0.0
  0
ARC
  5
6C
330
5E
100
AcDbEntity
  8
$DDT_AUDIT_GENERATED_(60)
  6
Continuous
 62
     7
100
AcDbCircle
 10
105.1746890062
 20
279.3126052333
 30
0.0
 40
24.0
100
AcDbArc
 50
350.521352102
 51
69.478647898
  0
SPLINE
  5
6D
330
5E
100
AcDbEntity
  8
$DDT_AUDIT_GENERATED_(60)
  6
Continuous
 62
     7
100
AcDbSpline
210
0.0
220
0.0
230
1.0
 70
     8
 71
     3
 72
    10
 73
     6
 74
     0
 42
0.0000000164907823
 43
0.0000000001
 40
0.0
 40
0.0
 40
0.0
 40
0.0
 40
0.5
 40
0.5
 40
1.0
 40
1.0
 40
1.0
 40
1.0
 10
113.2634252958888
 20
302.2491092114963
 30
0.0
 10
113.2651782436578
 20
302.1486829010678
 30
0.0
 10
113.2974073417314
 20
302.0509958554695
 30
0.0
 10
113.4119911945084
 20
301.8884813930011
 30
0.0
 10
113.4939753362708
 20
301.8248144425771
 30
0.0
 10
113.5880431195925
 20
301.7896039778376
 30
0.0
  0
ARC
  5
6E
330
5E
100
AcDbEntity
  8
$DDT_AUDIT_GENERATED_(60)
  6
Continuous
 62
     7
100
AcDbCircle
 10
105.1746890062
 20
279.3126052333
 30
0.0
 40
28.10217298590242
100
AcDbArc
 50
194.9615263052
 51
225.0384736948
  0
SPLINE
  5
6F
330
5E
100
AcDbEntity
  8
$DDT_AUDIT_GENERATED_(60)
  6
Continuous
 62
     7
100
AcDbSpline
210
0.0
220
0.0
230
1.0
 70
     8
 71
     3
 72
    10
 73
     6
 74
     0
 42
0.0000000076150316
 43
0.0000000001
 40
0.0
 40
0.0
 40
0.0
 40
0.0
 40
0.5
 40
0.5
 40
1.0
 40
1.0
 40
1.0
 40
1.0
 10
78.02519644487647
 20
272.0574567033837
 30
0.0
 10
77.96916087753412
 20
272.2671474095717
 30
0.0
 10
77.98311960558286
 20
272.489565091853
 30
0.0
 10
78.14486198433133
 20
272.8902391335204
 30
0.0
 10
78.2901719506112
 20
273.0609104017091
 30
0.0
 10
78.47621913004124
 20
273.1726988251097
 30
0.0
  0
LINE
  5
70
330
5E
100
AcDbEntity
  8
$DDT_AUDIT_GENERATED_(60)
  6
Continuous
 62
     7
100
AcDbLine
 10
86.5081391418
 20
259.2610052824
 30
0.0
 11
89.3554620319
 21
260.8393021328
 31
0.0
  0
SPLINE
  5
71
330
5E
100
AcDbEntity
  8
$DDT_AUDIT_GENERATED_(60)
  6
Continuous
 62
     7
100
AcDbSpline
210
0.0
220
0.0
230
1.0
 70
     8
 71
     3
 72
    10
 73
     6
 74
     0
 42
0.0000000076150316
 43
0.0000000001
 40
0.0
 40
0.0
 40
0.0
 40
0.0
 40
0.5
 40
0.5
 40
1.0
 40
1.0
 40
1.0
 40
1.0
 10
86.50813914180469
 20
259.261005282406
 30
0.0
 10
86.31830399300597
 20
259.1557779411431
 30
0.0
 10
86.09914323062627
 20
259.1153671540529
 30
0.0
 10
85.67120170031012
 20
259.175085923139
 30
0.0
 10
85.47037953010602
 20
259.2746556175218
 30
0.0
 10
85.31679979043712
 20
259.4280292402333
 30
0.0
  0
LINE
  5
72
330
5E
100
AcDbEntity
  8
$DDT_AUDIT_GENERATED_(60)
  6
Continuous
 62
     7
100
AcDbLine
 10
131.8731588824
 20
273.1726988251
 30
0.0
 11
129.0826522702
 21
274.8494043555
 31
0.0
  0
SPLINE
  5
73
330
5E
100
AcDbEntity
  8
$DDT_AUDIT_GENERATED_(60)
  6
Continuous
 62
     7
100
AcDbSpline
210
0.0
220
0.0
230
1.0
 70
     8
 71
     3
 72
    10
 73
     6
 74
     0
 42
0.0000000076150316
 43
0.0000000001
 40
0.0
 40
0.0
 40
0.0
 40
0.0
 40
0.5
 40
0.5
 40
1.0
 40
1.0
 40
1.0
 40
1.0
 10
131.8731588824122
 20
273.1726988251095
 30
0.0
 10
132.059206007518
 20
273.0609104343501
 30
0.0
 10
132.2037831569149
 20
272.8913170401616
 30
0.0
 10
132.3660359509616
 20
272.4908494190303
 30
0.0
 10
132.3802171512811
 20
272.267147470799
 30
0.0
 10
132.3241815675769
 20
272.0574567033834
 30
0.0
  0
ARC
  5
74
330
5E
100
AcDbEntity
  8
$DDT_AUDIT_GENERATED_(60)
  6
Continuous
 62
     7
100
AcDbCircle
 10
105.1746890062
 20
279.3126052333
 30
0.0
 40
28.10217298590242
100
AcDbArc
 50
314.9615263052
 51
345.0384736948
  0
SPLINE
  5
75
330
5E
100
AcDbEntity
  8
$DDT_AUDIT_GENERATED_(60)
  6
Continuous
 62
     7
100
AcDbSpline
210
0.0
220
0.0
230
1.0
 70
     8
 71
     3
 72
    10
 73
     6
 74
     0
 42
0.0000000076150316
 43
0.0000000001
 40
0.0
 40
0.0
 40
0.0
 40
0.0
 40
0.5
 40
0.5
 40
1.0
 40
1.0
 40
1.0
 40
1.0
 10
125.0325782220163
 20
259.4280292402333
 30
0.0
 10
124.8789985271911
 20
259.2746556623053
 30
0.0
 10
124.6793998000603
 20
259.1755354342594
 30
0.0
 10
124.2515347119651
 20
259.1152714222904
 30
0.0
 10
124.0310740748777
 20
259.1557779104175
 30
0.0
 10
123.8412388706487
 20
259.261005282406
 30
0.0
  0
ARC
  5
76
330
5E
100
AcDbEntity
  8
$DDT_AUDIT_GENERATED_(60)
  6
Continuous
 62
     7
100
AcDbCircle
 10
107.5592416483
 20
294.2635299597
 30
0.0
 40
12.88866085639002
100
AcDbArc
 50
77.3113930421
 51
78.249508065
  0
ARC
  5
77
330
5E
100
AcDbEntity
  8
$DDT_AUDIT_GENERATED_(60)
  6
Continuous
 62
     7
100
AcDbCircle
 10
105.1746890062
 20
279.3126052333
 30
0.0
 40
28.10217298590241
100
AcDbArc
 50
74.9615263052
 51
79.7256973043
  0
SPLINE
  5
78
330
5E
100
AcDbEntity
  8
$DDT_AUDIT_GENERATED_(60)
  6
Continuous
 62
     7
100
AcDbSpline
210
0.0
220
0.0
230
1.0
 70
     8
 71
     3
 72
    10
 73
     6
 74
     0
 42
0.0000000076150316
 43
0.0000000001
 40
0.0
 40
0.0
 40
0.0
 40
0.0
 40
0.5
 40
0.5
 40
1.0
 40
1.0
 40
1.0
 40
1.0
 10
112.4662923517874
 20
306.4523297562052
 30
0.0
 10
112.6759076139549
 20
306.3960126279451
 30
0.0
 10
112.861547613037
 20
306.2727151737099
 30
0.0
 10
113.1276703223837
 20
305.9323051440114
 30
0.0
 10
113.2028209931913
 20
305.7211273876957
 30
0.0
 10
113.2066090179902
 20
305.5041115923065
 30
0.0
  0
LINE
  5
79
330
5E
100
AcDbEntity
  8
$DDT_AUDIT_GENERATED_(60)
  6
Continuous
 62
     7
100
AcDbLine
 10
99.95911341
 20
306.8374270368
 30
0.0
 11
99.9626567955
 21
306.4313952822
 31
0.0
  0
ARC
  5
7A
330
5E
100
AcDbEntity
  8
$DDT_AUDIT_GENERATED_(60)
  6
Continuous
 62
     7
100
AcDbCircle
 10
102.436330462
 20
296.1852855846
 30
0.0
 40
10.93639437103711
100
AcDbArc
 50
101.9357955127
 51
103.0917647476
  0
LINE
  5
7B
330
5E
100
AcDbEntity
  8
$DDT_AUDIT_GENERATED_(60)
  6
Continuous
 62
     7
100
AcDbLine
 10
97.1427689945
 20
305.5041115923
 30
0.0
 11
97.0859527166
 21
302.2491092115
 31
0.0
  0
SPLINE
  5
7C
330
5E
100
AcDbEntity
  8
$DDT_AUDIT_GENERATED_(60)
  6
Continuous
 62
     7
100
AcDbSpline
210
0.0
220
0.0
230
1.0
 70
     8
 71
     3
 72
    10
 73
     6
 74
     0
 42
0.0000000076150316
 43
0.0000000001
 40
0.0
 40
0.0
 40
0.0
 40
0.0
 40
0.5000000000000007
 40
0.5000000000000007
 40
1.0
 40
1.0
 40
1.0
 40
1.0
 10
97.14276899446331
 20
305.5041115923065
 30
0.0
 10
97.1465570181562
 20
305.7211273243289
 30
0.0
 10
97.22114063113905
 20
305.9311315056076
 30
0.0
 10
97.48682936740848
 20
306.2718803576527
 30
0.0
 10
97.67347033729311
 20
306.3960126115011
 30
0.0
 10
97.88308566066617
 20
306.4523297562052
 30
0.0
  0
LINE
  5
7D
330
5E
100
AcDbEntity
  8
$DDT_AUDIT_GENERATED_(60)
  6
Continuous
 62
     7
100
AcDbLine
 10
110.386721217
 20
306.4313952822
 30
0.0
 11
110.3902646024
 21
306.8374270368
 31
0.0
  0
ARC
  5
7E
330
5E
100
AcDbEntity
  8
$DDT_AUDIT_GENERATED_(60)
  6
Continuous
 62
     7
100
AcDbCircle
 10
105.8449421941
 20
281.34990513
 30
0.0
 40
25.48934416876854
100
AcDbArc
 50
79.7360414805
 51
83.0285813264
  0
ARC
  5
7F
330
5E
100
AcDbEntity
  8
$DDT_AUDIT_GENERATED_(60)
  6
Continuous
 62
     7
100
AcDbCircle
 10
105.1746890062
 20
279.3094526284
 30
0.0
 40
27.59922279377747
100
AcDbArc
 50
82.1615315995
 51
97.8384684005
  0
ARC
  5
80
330
5E
100
AcDbEntity
  8
$DDT_AUDIT_GENERATED_(60)
  6
Continuous
 62
     7
100
AcDbCircle
 10
106.0509876271
 20
271.137944854
 30
0.0
 40
35.81473740572046
100
AcDbArc
 50
97.4443985043
 51
99.787535727
  0
LINE
  5
82
330
5E
100
AcDbEntity
  8
$DDT_AUDIT_GENERATED_(81)
  6
Continuous
 62
     7
100
AcDbLine
 10
110.1746890062
 20
310.6240863709
 30
0.0
 11
110.1746890062
 21
306.4635715366
 31
0.0
  0
LINE
  5
83
330
5E
100
AcDbEntity
  8
$DDT_AUDIT_GENERATED_(81)
  6
Continuous
 62
     7
100
AcDbLine
 10
100.1746890062
 20
306.463245983
 30
0.0
 11
100.1746890062
 21
310.6240863709
 31
0.0
  0
ARC
  5
84
330
5E
100
AcDbEntity
  8
$DDT_AUDIT_GENERATED_(81)
  6
Continuous
 62
     7
100
AcDbCircle
 10
101.1746890062
 20
310.6240863709
 30
0.0
 40
1.000000000000005
100
AcDbArc
 50
97.208034015
 51
180.0
  0
ARC
  5
85
330
5E
100
AcDbEntity
  8
$DDT_AUDIT_GENERATED_(81)
  6
Continuous
 62
     7
100
AcDbCircle
 10
105.1746890062
 20
278.9964754086
 30
0.0
 40
32.87955105051035
100
AcDbArc
 50
82.7919696403
 51
97.2080303597
  0
ARC
  5
86
330
5E
100
AcDbEntity
  8
$DDT_AUDIT_GENERATED_(81)
  6
Continuous
 62
     7
100
AcDbCircle
 10
109.1746890062
 20
310.6240863709
 30
0.0
 40
1.0
100
AcDbArc
 50
0.0
 51
82.791965985
  0
ARC
  5
87
330
5E
100
AcDbEntity
  8
$DDT_AUDIT_GENERATED_(60)
  6
Continuous
 62
     7
100
AcDbCircle
 10
105.1746890062
 20
364.3126052333
 30
0.0
 40
28.10217298590241
100
AcDbArc
 50
100.2601587312
 51
105.0384736948
  0
SPLINE
  5
88
330
5E
100
AcDbEntity
  8
$DDT_AUDIT_GENERATED_(60)
  6
Continuous
 62
     7
100
AcDbSpline
210
0.0
220
0.0
230
1.0
 70
     8
 71
     3
 72
    10
 73
     6
 74
     0
 42
0.0000000164907823
 43
0.0000000001
 40
0.0
 40
0.0
 40
0.0
 40
0.0
 40
0.5
 40
0.5
 40
1.0
 40
1.0
 40
1.0
 40
1.0
 10
96.76133489286097
 20
386.7896039778376
 30
0.0
 10
96.85540263872677
 20
386.824814428557
 30
0.0
 10
96.93670472760306
 20
386.887833822276
 30
0.0
 10
97.05158825031695
 20
387.0501365826885
 30
0.0
 10
97.08419976809772
 20
387.1486828610801
 30
0.0
 10
97.08595271656475
 20
387.2491092114963
 30
0.0
  0
LINE
  5
89
330
5E
100
AcDbEntity
  8
$DDT_AUDIT_GENERATED_(60)
  6
Continuous
 62
     7
100
AcDbLine
 10
81.2667257423
 20
359.8494043555
 30
0.0
 11
78.47621913
 21
358.1726988251
 31
0.0
  0
ARC
  5
8A
330
5E
100
AcDbEntity
  8
$DDT_AUDIT_GENERATED_(60)
  6
Continuous
 62
     7
100
AcDbCircle
 10
105.1746890062
 20
364.3126052333
 30
0.0
 40
24.00000000000001
100
AcDbArc
 50
110.521352102
 51
189.478647898
  0
SPLINE
  5
8B
330
5E
100
AcDbEntity
  8
$DDT_AUDIT_GENERATED_(60)
  6
Continuous
 62
     7
100
AcDbSpline
210
0.0
220
0.0
230
1.0
 70
     8
 71
     3
 72
    10
 73
     6
 74
     0
 42
0.0000000164907823
 43
0.0000000001
 40
0.0
 40
0.0
 40
0.0
 40
0.0
 40
0.5
 40
0.5
 40
1.0
 40
1.0
 40
1.0
 40
1.0
 10
81.26672574225239
 20
359.8494043555233
 30
0.0
 10
81.35282100440735
 20
359.9011356080371
 30
0.0
 10
81.42130591847928
 20
359.977890348509
 30
0.0
 10
81.50475564507082
 20
360.1583801071116
 30
0.0
 10
81.51890077063827
 20
360.2612139317973
 30
0.0
 10
81.50236003592084
 20
360.3602842542014
 30
0.0
  0
SPLINE
  5
8C
330
5E
100
AcDbEntity
  8
$DDT_AUDIT_GENERATED_(60)
  6
Continuous
 62
     7
100
AcDbSpline
210
0.0
220
0.0
230
1.0
 70
     8
 71
     3
 72
    10
 73
     6
 74
     0
 42
0.0000000164907823
 43
0.0000000001
 40
0.0
 40
0.0
 40
0.0
 40
0.0
 40
0.5
 40
0.5
 40
1.0
 40
1.0
 40
1.0
 40
1.0
 10
89.91571414928666
 20
345.7879274677832
 30
0.0
 10
89.83818713155206
 20
345.8517873000201
 30
0.0
 10
89.7429596912222
 20
345.8906872775082
 30
0.0
 10
89.5449596162437
 20
345.9090279464484
 30
0.0
 10
89.44331027681771
 20
345.8879972101067
 30
0.0
 10
89.35546203191444
 20
345.8393021328026
 30
0.0
  0
SPLINE
  5
8D
330
5E
100
AcDbEntity
  8
$DDT_AUDIT_GENERATED_(60)
  6
Continuous
 62
     7
100
AcDbSpline
210
0.0
220
0.0
230
1.0
 70
     8
 71
     3
 72
    10
 73
     6
 74
     0
 42
0.0000000164907823
 43
0.0000000001
 40
0.0
 40
0.0
 40
0.0
 40
0.0
 40
0.5
 40
0.5
 40
1.0
 40
1.0
 40
1.0
 40
1.0
 10
128.8470179765326
 20
360.3602842542013
 30
0.0
 10
128.8304772484013
 20
360.2612139712451
 30
0.0
 10
128.8444025998549
 20
360.159294600038
 30
0.0
 10
128.9275191521195
 20
359.9786511706852
 30
0.0
 10
128.9965569737647
 20
359.9011356286353
 30
0.0
 10
129.082652270201
 20
359.8494043555232
 30
0.0
  0
LINE
  5
8E
330
5E
100
AcDbEntity
  8
$DDT_AUDIT_GENERATED_(60)
  6
Continuous
 62
     7
100
AcDbLine
 10
120.9939159805
 20
345.8393021328
 30
0.0
 11
123.8412388706
 21
344.2610052824
 31
0.0
  0
ARC
  5
8F
330
5E
100
AcDbEntity
  8
$DDT_AUDIT_GENERATED_(60)
  6
Continuous
 62
     7
100
AcDbCircle
 10
105.1746890062
 20
364.3126052333
 30
0.0
 40
24.0
100
AcDbArc
 50
230.521352102
 51
309.478647898
  0
SPLINE
  5
90
330
5E
100
AcDbEntity
  8
$DDT_AUDIT_GENERATED_(60)
  6
Continuous
 62
     7
100
AcDbSpline
210
0.0
220
0.0
230
1.0
 70
     8
 71
     3
 72
    10
 73
     6
 74
     0
 42
0.0000000164907823
 43
0.0000000001
 40
0.0
 40
0.0
 40
0.0
 40
0.0
 40
0.5000000000000043
 40
0.5000000000000043
 40
1.0
 40
1.0
 40
1.0
 40
1.0
 10
120.993915980539
 20
345.8393021328026
 30
0.0
 10
120.906067770615
 20
345.8879971907173
 30
0.0
 10
120.8053537584695
 20
345.9089294958436
 30
0.0
 10
120.607320179101
 20
345.8909541997095
 30
0.0
 10
120.5111909117711
 20
345.8517873254478
 30
0.0
 10
120.4336638631667
 20
345.7879274677832
 30
0.0
  0
LINE
  5
91
330
5E
100
AcDbEntity
  8
$DDT_AUDIT_GENERATED_(60)
  6
Continuous
 62
     7
100
AcDbLine
 10
113.2634252959
 20
387.2491092115
 30
0.0
 11
113.206609018
 21
390.5041115923
 31
0.0
  0
ARC
  5
92
330
5E
100
AcDbEntity
  8
$DDT_AUDIT_GENERATED_(60)
  6
Continuous
 62
     7
100
AcDbCircle
 10
105.1746890062
 20
364.3126052333
 30
0.0
 40
23.99999999999999
100
AcDbArc
 50
350.521352102
 51
69.478647898
  0
SPLINE
  5
93
330
5E
100
AcDbEntity
  8
$DDT_AUDIT_GENERATED_(60)
  6
Continuous
 62
     7
100
AcDbSpline
210
0.0
220
0.0
230
1.0
 70
     8
 71
     3
 72
    10
 73
     6
 74
     0
 42
0.0000000164907823
 43
0.0000000001
 40
0.0
 40
0.0
 40
0.0
 40
0.0
 40
0.5
 40
0.5
 40
1.0
 40
1.0
 40
1.0
 40
1.0
 10
113.2634252958887
 20
387.2491092114963
 30
0.0
 10
113.2651782436578
 20
387.1486829010678
 30
0.0
 10
113.2974073417314
 20
387.0509958554695
 30
0.0
 10
113.4119911945083
 20
386.8884813930011
 30
0.0
 10
113.4939753362707
 20
386.8248144425771
 30
0.0
 10
113.5880431195925
 20
386.7896039778376
 30
0.0
  0
ARC
  5
94
330
5E
100
AcDbEntity
  8
$DDT_AUDIT_GENERATED_(60)
  6
Continuous
 62
     7
100
AcDbCircle
 10
105.1746890062
 20
364.3126052333
 30
0.0
 40
28.10217298590242
100
AcDbArc
 50
194.9615263052
 51
225.0384736948
  0
SPLINE
  5
95
330
5E
100
AcDbEntity
  8
$DDT_AUDIT_GENERATED_(60)
  6
Continuous
 62
     7
100
AcDbSpline
210
0.0
220
0.0
230
1.0
 70
     8
 71
     3
 72
    10
 73
     6
 74
     0
 42
0.0000000076150316
 43
0.0000000001
 40
0.0
 40
0.0
 40
0.0
 40
0.0
 40
0.5
 40
0.5
 40
1.0
 40
1.0
 40
1.0
 40
1.0
 10
78.02519644487646
 20
357.0574567033837
 30
0.0
 10
77.96916087753411
 20
357.2671474095717
 30
0.0
 10
77.98311960558283
 20
357.489565091853
 30
0.0
 10
78.14486198433131
 20
357.8902391335204
 30
0.0
 10
78.29017195061118
 20
358.060910401709
 30
0.0
 10
78.47621913004123
 20
358.1726988251097
 30
0.0
  0
LINE
  5
96
330
5E
100
AcDbEntity
  8
$DDT_AUDIT_GENERATED_(60)
  6
Continuous
 62
     7
100
AcDbLine
 10
86.5081391418
 20
344.2610052824
 30
0.0
 11
89.3554620319
 21
345.8393021328
 31
0.0
  0
SPLINE
  5
97
330
5E
100
AcDbEntity
  8
$DDT_AUDIT_GENERATED_(60)
  6
Continuous
 62
     7
100
AcDbSpline
210
0.0
220
0.0
230
1.0
 70
     8
 71
     3
 72
    10
 73
     6
 74
     0
 42
0.0000000076150316
 43
0.0000000001
 40
0.0
 40
0.0
 40
0.0
 40
0.0
 40
0.5
 40
0.5
 40
1.0
 40
1.0
 40
1.0
 40
1.0
 10
86.50813914180469
 20
344.2610052824061
 30
0.0
 10
86.31830399300597
 20
344.1557779411431
 30
0.0
 10
86.09914323062625
 20
344.1153671540529
 30
0.0
 10
85.67120170031012
 20
344.1750859231391
 30
0.0
 10
85.47037953010602
 20
344.2746556175219
 30
0.0
 10
85.31679979043712
 20
344.4280292402333
 30
0.0
  0
LINE
  5
98
330
5E
100
AcDbEntity
  8
$DDT_AUDIT_GENERATED_(60)
  6
Continuous
 62
     7
100
AcDbLine
 10
131.8731588824
 20
358.1726988251
 30
0.0
 11
129.0826522702
 21
359.8494043555
 31
0.0
  0
SPLINE
  5
99
330
5E
100
AcDbEntity
  8
$DDT_AUDIT_GENERATED_(60)
  6
Continuous
 62
     7
100
AcDbSpline
210
0.0
220
0.0
230
1.0
 70
     8
 71
     3
 72
    10
 73
     6
 74
     0
 42
0.0000000076150316
 43
0.0000000001
 40
0.0
 40
0.0
 40
0.0
 40
0.0
 40
0.5
 40
0.5
 40
1.0
 40
1.0
 40
1.0
 40
1.0
 10
131.8731588824122
 20
358.1726988251095
 30
0.0
 10
132.059206007518
 20
358.0609104343501
 30
0.0
 10
132.2037831569149
 20
357.8913170401617
 30
0.0
 10
132.3660359509616
 20
357.4908494190304
 30
0.0
 10
132.3802171512811
 20
357.2671474707991
 30
0.0
 10
132.3241815675769
 20
357.0574567033835
 30
0.0
  0
ARC
  5
9A
330
5E
100
AcDbEntity
  8
$DDT_AUDIT_GENERATED_(60)
  6
Continuous
 62
     7
100
AcDbCircle
 10
105.1746890062
 20
364.3126052333
 30
0.0
 40
28.10217298590241
100
AcDbArc
 50
314.9615263052
 51
345.0384736948
  0
SPLINE
  5
9B
330
5E
100
AcDbEntity
  8
$DDT_AUDIT_GENERATED_(60)
  6
Continuous
 62
     7
100
AcDbSpline
210
0.0
220
0.0
230
1.0
 70
     8
 71
     3
 72
    10
 73
     6
 74
     0
 42
0.0000000076150316
 43
0.0000000001
 40
0.0
 40
0.0
 40
0.0
 40
0.0
 40
0.5
 40
0.5
 40
1.0
 40
1.0
 40
1.0
 40
1.0
 10
125.0325782220163
 20
344.4280292402333
 30
0.0
 10
124.8789985271911
 20
344.2746556623053
 30
0.0
 10
124.6793998000603
 20
344.1755354342594
 30
0.0
 10
124.2515347119651
 20
344.1152714222904
 30
0.0
 10
124.0310740748777
 20
344.1557779104175
 30
0.0
 10
123.8412388706487
 20
344.2610052824061
 30
0.0
  0
ARC
  5
9C
330
5E
100
AcDbEntity
  8
$DDT_AUDIT_GENERATED_(60)
  6
Continuous
 62
     7
100
AcDbCircle
 10
107.5592416483
 20
379.2635299597
 30
0.0
 40
12.88866085639857
100
AcDbArc
 50
77.3113930421
 51
78.249508065
  0
ARC
  5
9D
330
5E
100
AcDbEntity
  8
$DDT_AUDIT_GENERATED_(60)
  6
Continuous
 62
     7
100
AcDbCircle
 10
105.1746890062
 20
364.3126052333
 30
0.0
 40
28.10217298590241
100
AcDbArc
 50
74.9615263052
 51
79.7256973043
  0
SPLINE
  5
9E
330
5E
100
AcDbEntity
  8
$DDT_AUDIT_GENERATED_(60)
  6
Continuous
 62
     7
100
AcDbSpline
210
0.0
220
0.0
230
1.0
 70
     8
 71
     3
 72
    10
 73
     6
 74
     0
 42
0.0000000076150316
 43
0.0000000001
 40
0.0
 40
0.0
 40
0.0
 40
0.0
 40
0.5
 40
0.5
 40
1.0
 40
1.0
 40
1.0
 40
1.0
 10
112.4662923517873
 20
391.4523297562052
 30
0.0
 10
112.6759076139549
 20
391.3960126279451
 30
0.0
 10
112.8615476130369
 20
391.2727151737099
 30
0.0
 10
113.1276703223837
 20
390.9323051440114
 30
0.0
 10
113.2028209931912
 20
390.7211273876957
 30
0.0
 10
113.2066090179902
 20
390.5041115923065
 30
0.0
  0
LINE
  5
9F
330
5E
100
AcDbEntity
  8
$DDT_AUDIT_GENERATED_(60)
  6
Continuous
 62
     7
100
AcDbLine
 10
99.95911341
 20
391.8374270368
 30
0.0
 11
99.9626567955
 21
391.4313952822
 31
0.0
  0
ARC
  5
A0
330
5E
100
AcDbEntity
  8
$DDT_AUDIT_GENERATED_(60)
  6
Continuous
 62
     7
100
AcDbCircle
 10
102.436330462
 20
381.1852855846
 30
0.0
 40
10.9363943710314
100
AcDbArc
 50
101.9357955127
 51
103.0917647476
  0
LINE
  5
A1
330
5E
100
AcDbEntity
  8
$DDT_AUDIT_GENERATED_(60)
  6
Continuous
 62
     7
100
AcDbLine
 10
97.1427689945
 20
390.5041115923
 30
0.0
 11
97.0859527166
 21
387.2491092115
 31
0.0
  0
SPLINE
  5
A2
330
5E
100
AcDbEntity
  8
$DDT_AUDIT_GENERATED_(60)
  6
Continuous
 62
     7
100
AcDbSpline
210
0.0
220
0.0
230
1.0
 70
     8
 71
     3
 72
    10
 73
     6
 74
     0
 42
0.0000000076150316
 43
0.0000000001
 40
0.0
 40
0.0
 40
0.0
 40
0.0
 40
0.5000000000000007
 40
0.5000000000000007
 40
1.0
 40
1.0
 40
1.0
 40
1.0
 10
97.14276899446328
 20
390.5041115923065
 30
0.0
 10
97.14655701815617
 20
390.7211273243289
 30
0.0
 10
97.22114063113902
 20
390.9311315056075
 30
0.0
 10
97.48682936740843
 20
391.2718803576527
 30
0.0
 10
97.67347033729308
 20
391.3960126115011
 30
0.0
 10
97.88308566066614
 20
391.4523297562052
 30
0.0
  0
LINE
  5
A3
330
5E
100
AcDbEntity
  8
$DDT_AUDIT_GENERATED_(60)
  6
Continuous
 62
     7
100
AcDbLine
 10
110.386721217
 20
391.4313952822
 30
0.0
 11
110.3902646024
 21
391.8374270368
 31
0.0
  0
ARC
  5
A4
330
5E
100
AcDbEntity
  8
$DDT_AUDIT_GENERATED_(60)
  6
Continuous
 62
     7
100
AcDbCircle
 10
105.8449421941
 20
366.3499051299
 30
0.0
 40
25.48934416880513
100
AcDbArc
 50
79.7360414805
 51
83.0285813264
  0
ARC
  5
A5
330
5E
100
AcDbEntity
  8
$DDT_AUDIT_GENERATED_(60)
  6
Continuous
 62
     7
100
AcDbCircle
 10
105.1746890062
 20
364.3094526284
 30
0.0
 40
27.59922279377748
100
AcDbArc
 50
82.1615315995
 51
97.8384684005
  0
ARC
  5
A6
330
5E
100
AcDbEntity
  8
$DDT_AUDIT_GENERATED_(60)
  6
Continuous
 62
     7
100
AcDbCircle
 10
106.0509876271
 20
356.1379448541
 30
0.0
 40
35.81473740564515
100
AcDbArc
 50
97.4443985043
 51
99.787535727
  0
LINE
  5
A7
330
5E
100
AcDbEntity
  8
$DDT_AUDIT_GENERATED_(81)
  6
Continuous
 62
     7
100
AcDbLine
 10
110.1746890062
 20
395.6240863709
 30
0.0
 11
110.1746890062
 21
391.4635715366
 31
0.0
  0
LINE
  5
A8
330
5E
100
AcDbEntity
  8
$DDT_AUDIT_GENERATED_(81)
  6
Continuous
 62
     7
100
AcDbLine
 10
100.1746890062
 20
391.463245983
 30
0.0
 11
100.1746890062
 21
395.6240863709
 31
0.0
  0
ARC
  5
A9
330
5E
100
AcDbEntity
  8
$DDT_AUDIT_GENERATED_(81)
  6
Continuous
 62
     7
100
AcDbCircle
 10
101.1746890062
 20
395.6240863709
 30
0.0
 40
1.000000000000002
100
AcDbArc
 50
97.208034015
 51
180.0
  0
ARC
  5
AA
330
5E
100
AcDbEntity
  8
$DDT_AUDIT_GENERATED_(81)
  6
Continuous
 62
     7
100
AcDbCircle
 10
105.1746890062
 20
363.9964754086
 30
0.0
 40
32.87955105051199
100
AcDbArc
 50
82.7919696403
 51
97.2080303597
  0
ARC
  5
AB
330
5E
100
AcDbEntity
  8
$DDT_AUDIT_GENERATED_(81)
  6
Continuous
 62
     7
100
AcDbCircle
 10
109.1746890062
 20
395.6240863709
 30
0.0
 40
1.0
100
AcDbArc
 50
0.0
 51
82.791965985
  0
ARC
  5
AD
330
5E
100
AcDbEntity
  8
$DDT_AUDIT_GENERATED_(AC)
  6
Continuous
 62
     7
100
AcDbCircle
 10
105.1746890062
 20
279.3126052333
 30
0.0
 40
25.71922359359559
100
AcDbArc
 50
0.0
 51
71.7301442652
  0
ARC
  5
AE
330
5E
100
AcDbEntity
  8
$DDT_AUDIT_GENERATED_(AC)
  6
Continuous
 62
     7
100
AcDbCircle
 10
105.1746890062
 20
279.3126052333
 30
0.0
 40
25.71922359359559
100
AcDbArc
 50
108.2698557348
 51
191.7301442652
  0
ARC
  5
AF
330
5E
100
AcDbEntity
  8
$DDT_AUDIT_GENERATED_(AC)
  6
Continuous
 62
     7
100
AcDbCircle
 10
105.1746890062
 20
279.3126052333
 30
0.0
 40
25.71922359359559
100
AcDbArc
 50
228.2698557348
 51
311.7301442652
  0
ARC
  5
B0
330
5E
100
AcDbEntity
  8
$DDT_AUDIT_GENERATED_(AC)
  6
Continuous
 62
     7
100
AcDbCircle
 10
105.1746890062
 20
279.3126052333
 30
0.0
 40
25.71922359359559
100
AcDbArc
 50
348.2698557348
 51
0.0
  0
LINE
  5
B2
330
5E
100
AcDbEntity
  8
$DDT_AUDIT_GENERATED_(B1)
  6
Continuous
 62
     7
100
AcDbLine
 10
188.8746890062
 20
219.8126052333
 30
0.0
 11
21.4746890062
 21
219.8126052333
 31
0.0
  0
LINE
  5
B3
330
5E
100
AcDbEntity
  8
$DDT_AUDIT_GENERATED_(B1)
  6
Continuous
 62
     7
100
AcDbLine
 10
19.6746890062
 20
221.6126052333
 30
0.0
 11
19.6746890062
 21
414.5126052333
 31
0.0
  0
LINE
  5
B4
330
5E
100
AcDbEntity
  8
$DDT_AUDIT_GENERATED_(B1)
  6
Continuous
 62
     7
100
AcDbLine
 10
21.4746890062
 20
416.3126052333
 30
0.0
 11
188.8746890062
 21
416.3126052333
 31
0.0
  0
LINE
  5
B5
330
5E
100
AcDbEntity
  8
$DDT_AUDIT_GENERATED_(B1)
  6
Continuous
 62
     7
100
AcDbLine
 10
190.6746890062
 20
414.5126052333
 30
0.0
 11
190.6746890062
 21
221.6126052333
 31
0.0
  0
ARC
  5
B6
330
5E
100
AcDbEntity
  8
$DDT_AUDIT_GENERATED_(B1)
  6
Continuous
 62
     7
100
AcDbCircle
 10
188.8746890062
 20
414.5126052333
 30
0.0
 40
1.799999999999996
100
AcDbArc
 50
0.0
 51
90.0
  0
ARC
  5
B7
330
5E
100
AcDbEntity
  8
$DDT_AUDIT_GENERATED_(B1)
  6
Continuous
 62
     7
100
AcDbCircle
 10
21.4746890062
 20
414.5126052333
 30
0.0
 40
1.799999999999996
100
AcDbArc
 50
90.0
 51
180.0
  0
ARC
  5
B8
330
5E
100
AcDbEntity
  8
$DDT_AUDIT_GENERATED_(B1)
  6
Continuous
 62
     7
100
AcDbCircle
 10
188.8746890062
 20
221.6126052333
 30
0.0
 40
1.799999999999996
100
AcDbArc
 50
270.0
 51
0.0
  0
ARC
  5
B9
330
5E
100
AcDbEntity
  8
$DDT_AUDIT_GENERATED_(B1)
  6
Continuous
 62
     7
100
AcDbCircle
 10
21.4746890062
 20
221.6126052333
 30
0.0
 40
1.799999999999996
100
AcDbArc
 50
180.0
 51
270.0
  0
ARC
  5
BA
330
5E
100
AcDbEntity
  8
$DDT_AUDIT_GENERATED_(B1)
  6
Continuous
 62
     7
100
AcDbCircle
 10
105.1746890062
 20
279.3126052333
 30
0.0
 40
26.75
100
AcDbArc
 50
0.0
 51
72.5002214192
  0
ARC
  5
BB
330
5E
100
AcDbEntity
  8
$DDT_AUDIT_GENERATED_(B1)
  6
Continuous
 62
     7
100
AcDbCircle
 10
105.1746890062
 20
279.3126052333
 30
0.0
 40
26.75
100
AcDbArc
 50
107.4997785808
 51
192.5002214192
  0
ARC
  5
BC
330
5E
100
AcDbEntity
  8
$DDT_AUDIT_GENERATED_(B1)
  6
Continuous
 62
     7
100
AcDbCircle
 10
105.1746890062
 20
279.3126052333
 30
0.0
 40
26.75
100
AcDbArc
 50
227.4997785808
 51
312.5002214192
  0
ARC
  5
BD
330
5E
100
AcDbEntity
  8
$DDT_AUDIT_GENERATED_(B1)
  6
Continuous
 62
     7
100
AcDbCircle
 10
105.1746890062
 20
279.3126052333
 30
0.0
 40
26.75
100
AcDbArc
 50
347.4997785808
 51
0.0
  0
ARC
  5
BE
330
5E
100
AcDbEntity
  8
$DDT_AUDIT_GENERATED_(B1)
  6
Continuous
 62
     7
100
AcDbCircle
 10
105.1746890062
 20
364.3126052333
 30
0.0
 40
26.75
100
AcDbArc
 50
0.0
 51
72.5002214192
  0
ARC
  5
BF
330
5E
100
AcDbEntity
  8
$DDT_AUDIT_GENERATED_(B1)
  6
Continuous
 62
     7
100
AcDbCircle
 10
105.1746890062
 20
364.3126052333
 30
0.0
 40
26.75
100
AcDbArc
 50
107.4997785808
 51
192.5002214192
  0
ARC
  5
C0
330
5E
100
AcDbEntity
  8
$DDT_AUDIT_GENERATED_(B1)
  6
Continuous
 62
     7
100
AcDbCircle
 10
105.1746890062
 20
364.3126052333
 30
0.0
 40
26.75
100
AcDbArc
 50
227.4997785808
 51
312.5002214192
  0
ARC
  5
C1
330
5E
100
AcDbEntity
  8
$DDT_AUDIT_GENERATED_(B1)
  6
Continuous
 62
     7
100
AcDbCircle
 10
105.1746890062
 20
364.3126052333
 30
0.0
 40
26.75
100
AcDbArc
 50
347.4997785808
 51
0.0
  0
ARC
  5
C3
330
5E
100
AcDbEntity
  8
$DDT_AUDIT_GENERATED_(C2)
  6
Continuous
 62
     7
100
AcDbCircle
 10
105.1746890062
 20
364.3126052333
 30
0.0
 40
25.55
100
AcDbArc
 50
0.0
 51
71.5974213468
  0
ARC
  5
C4
330
5E
100
AcDbEntity
  8
$DDT_AUDIT_GENERATED_(C2)
  6
Continuous
 62
     7
100
AcDbCircle
 10
105.1746890062
 20
364.3126052333
 30
0.0
 40
25.55
100
AcDbArc
 50
108.4025786532
 51
191.5974213468
  0
ARC
  5
C5
330
5E
100
AcDbEntity
  8
$DDT_AUDIT_GENERATED_(C2)
  6
Continuous
 62
     7
100
AcDbCircle
 10
105.1746890062
 20
364.3126052333
 30
0.0
 40
25.55
100
AcDbArc
 50
228.4025786532
 51
311.5974213468
  0
ARC
  5
C6
330
5E
100
AcDbEntity
  8
$DDT_AUDIT_GENERATED_(C2)
  6
Continuous
 62
     7
100
AcDbCircle
 10
105.1746890062
 20
364.3126052333
 30
0.0
 40
25.55
100
AcDbArc
 50
348.4025786532
 51
0.0
  0
ARC
  5
C8
330
5E
100
AcDbEntity
  8
$DDT_AUDIT_GENERATED_(C7)
  6
Continuous
 62
     7
100
AcDbCircle
 10
105.1746890062
 20
341.2185944657
 30
0.0
 40
12.59999999999999
100
AcDbArc
 50
60.0000000001
 51
120.0
  0
LINE
  5
C9
330
5E
100
AcDbEntity
  8
$DDT_AUDIT_GENERATED_(C7)
  6
Continuous
 62
     7
100
AcDbLine
 10
123.4771888642
 20
345.2008680294
 30
0.0
 11
111.4746890062
 21
352.1305145534
 31
0.0
  0
LINE
  5
CA
330
5E
100
AcDbEntity
  8
$DDT_AUDIT_GENERATED_(C7)
  6
Continuous
 62
     7
100
AcDbLine
 10
98.8746890062
 20
352.1305145534
 30
0.0
 11
86.8721891483
 21
345.2008680294
 31
0.0
  0
ARC
  5
CB
330
5E
100
AcDbEntity
  8
$DDT_AUDIT_GENERATED_(C7)
  6
Continuous
 62
     7
100
AcDbCircle
 10
123.9771888642
 20
346.0668934332
 30
0.0
 40
0.9999999999999966
100
AcDbArc
 50
240.0000000001
 51
315.8610187348
  0
ARC
  5
CC
330
5E
100
AcDbEntity
  8
$DDT_AUDIT_GENERATED_(C7)
  6
Continuous
 62
     7
100
AcDbCircle
 10
86.3721891483
 20
346.0668934332
 30
0.0
 40
1.000000000000004
100
AcDbArc
 50
224.1389812652
 51
300.0
  0
ARC
  5
CD
330
5E
100
AcDbEntity
  8
$DDT_AUDIT_GENERATED_(C7)
  6
Continuous
 62
     7
100
AcDbCircle
 10
105.1746890062
 20
364.3126052333
 30
0.0
 40
27.2
100
AcDbArc
 50
315.8610187348
 51
344.1389812652
  0
ARC
  5
CE
330
5E
100
AcDbEntity
  8
$DDT_AUDIT_GENERATED_(C7)
  6
Continuous
 62
     7
100
AcDbCircle
 10
105.1746890062
 20
364.3126052333
 30
0.0
 40
27.2
100
AcDbArc
 50
195.8610187348
 51
224.1389812652
  0
ARC
  5
CF
330
5E
100
AcDbEntity
  8
$DDT_AUDIT_GENERATED_(C7)
  6
Continuous
 62
     7
100
AcDbCircle
 10
130.3771888642
 20
357.1520186016
 30
0.0
 40
0.9999999999999993
100
AcDbArc
 50
344.1389812652
 51
60.0
  0
ARC
  5
D0
330
5E
100
AcDbEntity
  8
$DDT_AUDIT_GENERATED_(C7)
  6
Continuous
 62
     7
100
AcDbCircle
 10
79.9721891483
 20
357.1520186016
 30
0.0
 40
1.000000000000009
100
AcDbArc
 50
120.0
 51
195.8610187348
  0
LINE
  5
D1
330
5E
100
AcDbEntity
  8
$DDT_AUDIT_GENERATED_(C7)
  6
Continuous
 62
     7
100
AcDbLine
 10
118.8746890062
 20
364.9476905294
 30
0.0
 11
130.8771888642
 21
358.0180440054
 31
0.0
  0
LINE
  5
D2
330
5E
100
AcDbEntity
  8
$DDT_AUDIT_GENERATED_(C7)
  6
Continuous
 62
     7
100
AcDbLine
 10
79.4721891483
 20
358.0180440054
 30
0.0
 11
91.4746890062
 21
364.9476905294
 31
0.0
  0
ARC
  5
D3
330
5E
100
AcDbEntity
  8
$DDT_AUDIT_GENERATED_(C7)
  6
Continuous
 62
     7
100
AcDbCircle
 10
125.1746890062
 20
375.8596106171
 30
0.0
 40
12.6
100
AcDbArc
 50
180.0
 51
240.0
  0
ARC
  5
D4
330
5E
100
AcDbEntity
  8
$DDT_AUDIT_GENERATED_(C7)
  6
Continuous
 62
     7
100
AcDbCircle
 10
85.1746890062
 20
375.8596106171
 30
0.0
 40
12.6
100
AcDbArc
 50
300.0
 51
0.0
  0
LINE
  5
D5
330
5E
100
AcDbEntity
  8
$DDT_AUDIT_GENERATED_(C7)
  6
Continuous
 62
     7
100
AcDbLine
 10
112.5746890062
 20
389.718903665
 30
0.0
 11
112.5746890062
 21
375.8596106171
 31
0.0
  0
LINE
  5
D6
330
5E
100
AcDbEntity
  8
$DDT_AUDIT_GENERATED_(C7)
  6
Continuous
 62
     7
100
AcDbLine
 10
97.7746890062
 20
375.8596106171
 30
0.0
 11
97.7746890062
 21
389.718903665
 31
0.0
  0
ARC
  5
D7
330
5E
100
AcDbEntity
  8
$DDT_AUDIT_GENERATED_(C7)
  6
Continuous
 62
     7
100
AcDbCircle
 10
111.5746890062
 20
389.718903665
 30
0.0
 40
0.9999999999999954
100
AcDbArc
 50
0.0
 51
75.8610187348
  0
ARC
  5
D8
330
5E
100
AcDbEntity
  8
$DDT_AUDIT_GENERATED_(C7)
  6
Continuous
 62
     7
100
AcDbCircle
 10
98.7746890062
 20
389.718903665
 30
0.0
 40
1.0
100
AcDbArc
 50
104.1389812652
 51
180.0
  0
ARC
  5
D9
330
5E
100
AcDbEntity
  8
$DDT_AUDIT_GENERATED_(C7)
  6
Continuous
 62
     7
100
AcDbCircle
 10
105.1746890062
 20
364.3126052333
 30
0.0
 40
27.2
100
AcDbArc
 50
75.8610187348
 51
104.1389812652
  0
ARC
  5
DA
330
5E
100
AcDbEntity
  8
$DDT_AUDIT_GENERATED_(C7)
  6
Continuous
 62
     7
100
AcDbCircle
 10
105.1746890062
 20
256.2185944657
 30
0.0
 40
12.6
100
AcDbArc
 50
60.0
 51
120.0
  0
LINE
  5
DB
330
5E
100
AcDbEntity
  8
$DDT_AUDIT_GENERATED_(C7)
  6
Continuous
 62
     7
100
AcDbLine
 10
123.4771888642
 20
260.2008680294
 30
0.0
 11
111.4746890062
 21
267.1305145534
 31
0.0
  0
LINE
  5
DC
330
5E
100
AcDbEntity
  8
$DDT_AUDIT_GENERATED_(C7)
  6
Continuous
 62
     7
100
AcDbLine
 10
98.8746890062
 20
267.1305145534
 30
0.0
 11
86.8721891483
 21
260.2008680294
 31
0.0
  0
ARC
  5
DD
330
5E
100
AcDbEntity
  8
$DDT_AUDIT_GENERATED_(C7)
  6
Continuous
 62
     7
100
AcDbCircle
 10
123.9771888642
 20
261.0668934332
 30
0.0
 40
0.9999999999999918
100
AcDbArc
 50
240.0000000001
 51
315.8610187348
  0
ARC
  5
DE
330
5E
100
AcDbEntity
  8
$DDT_AUDIT_GENERATED_(C7)
  6
Continuous
 62
     7
100
AcDbCircle
 10
86.3721891483
 20
261.0668934332
 30
0.0
 40
0.9999999999999979
100
AcDbArc
 50
224.1389812652
 51
300.0
  0
ARC
  5
DF
330
5E
100
AcDbEntity
  8
$DDT_AUDIT_GENERATED_(C7)
  6
Continuous
 62
     7
100
AcDbCircle
 10
105.1746890062
 20
279.3126052333
 30
0.0
 40
27.2
100
AcDbArc
 50
315.8610187348
 51
344.1389812652
  0
ARC
  5
E0
330
5E
100
AcDbEntity
  8
$DDT_AUDIT_GENERATED_(C7)
  6
Continuous
 62
     7
100
AcDbCircle
 10
105.1746890062
 20
279.3126052333
 30
0.0
 40
27.2
100
AcDbArc
 50
195.8610187348
 51
224.1389812652
  0
ARC
  5
E1
330
5E
100
AcDbEntity
  8
$DDT_AUDIT_GENERATED_(C7)
  6
Continuous
 62
     7
100
AcDbCircle
 10
130.3771888642
 20
272.1520186016
 30
0.0
 40
1.000000000000001
100
AcDbArc
 50
344.1389812652
 51
60.0
  0
ARC
  5
E2
330
5E
100
AcDbEntity
  8
$DDT_AUDIT_GENERATED_(C7)
  6
Continuous
 62
     7
100
AcDbCircle
 10
79.9721891483
 20
272.1520186016
 30
0.0
 40
1.000000000000005
100
AcDbArc
 50
120.0
 51
195.8610187348
  0
LINE
  5
E3
330
5E
100
AcDbEntity
  8
$DDT_AUDIT_GENERATED_(C7)
  6
Continuous
 62
     7
100
AcDbLine
 10
118.8746890062
 20
279.9476905294
 30
0.0
 11
130.8771888642
 21
273.0180440054
 31
0.0
  0
LINE
  5
E4
330
5E
100
AcDbEntity
  8
$DDT_AUDIT_GENERATED_(C7)
  6
Continuous
 62
     7
100
AcDbLine
 10
79.4721891483
 20
273.0180440054
 30
0.0
 11
91.4746890062
 21
279.9476905294
 31
0.0
  0
ARC
  5
E5
330
5E
100
AcDbEntity
  8
$DDT_AUDIT_GENERATED_(C7)
  6
Continuous
 62
     7
100
AcDbCircle
 10
125.1746890062
 20
290.8596106171
 30
0.0
 40
12.6
100
AcDbArc
 50
180.0
 51
240.0
  0
ARC
  5
E6
330
5E
100
AcDbEntity
  8
$DDT_AUDIT_GENERATED_(C7)
  6
Continuous
 62
     7
100
AcDbCircle
 10
85.1746890062
 20
290.8596106171
 30
0.0
 40
12.6
100
AcDbArc
 50
300.0
 51
0.0
  0
LINE
  5
E7
330
5E
100
AcDbEntity
  8
$DDT_AUDIT_GENERATED_(C7)
  6
Continuous
 62
     7
100
AcDbLine
 10
112.5746890062
 20
304.718903665
 30
0.0
 11
112.5746890062
 21
290.8596106171
 31
0.0
  0
LINE
  5
E8
330
5E
100
AcDbEntity
  8
$DDT_AUDIT_GENERATED_(C7)
  6
Continuous
 62
     7
100
AcDbLine
 10
97.7746890062
 20
290.8596106171
 30
0.0
 11
97.7746890062
 21
304.718903665
 31
0.0
  0
ARC
  5
E9
330
5E
100
AcDbEntity
  8
$DDT_AUDIT_GENERATED_(C7)
  6
Continuous
 62
     7
100
AcDbCircle
 10
111.5746890062
 20
304.718903665
 30
0.0
 40
0.9999999999999989
100
AcDbArc
 50
0.0
 51
75.8610187348
  0
ARC
  5
EA
330
5E
100
AcDbEntity
  8
$DDT_AUDIT_GENERATED_(C7)
  6
Continuous
 62
     7
100
AcDbCircle
 10
98.7746890062
 20
304.718903665
 30
0.0
 40
1.0
100
AcDbArc
 50
104.1389812652
 51
180.0
  0
ARC
  5
EB
330
5E
100
AcDbEntity
  8
$DDT_AUDIT_GENERATED_(C7)
  6
Continuous
 62
     7
100
AcDbCircle
 10
105.1746890062
 20
279.3126052333
 30
0.0
 40
27.2
100
AcDbArc
 50
75.8610187348
 51
104.1389812652
  0
ENDBLK
  5
ED
330
5E
100
AcDbEntity
  8
0
100
AcDbBlockEnd
  0
BLOCK
  5
1BA
330
EE
100
AcDbEntity
  8
0
100
AcDbBlockBegin
  2
SE1
 70
     0
 10
0.0
 20
0.0
 30
0.0
  3
SE1
  1

  0
LINE
  5
F1
330
EE
100
AcDbEntity
  8
$DDT_AUDIT_GENERATED_(F0)
  6
Continuous
 62
     7
100
AcDbLine
 10
272.2569829108
 20
255.0626052333
 30
0.0
 11
272.2569829108
 21
303.5626052333
 31
0.0
  0
ARC
  5
F2
330
EE
100
AcDbEntity
  8
$DDT_AUDIT_GENERATED_(F0)
  6
Continuous
 62
     7
100
AcDbCircle
 10
270.2569829108
 20
255.0626052333
 30
0.0
 40
2.000000000000002
100
AcDbArc
 50
270.0
 51
0.0
  0
ARC
  5
F3
330
EE
100
AcDbEntity
  8
$DDT_AUDIT_GENERATED_(F0)
  6
Continuous
 62
     7
100
AcDbCircle
 10
270.2569829108
 20
303.5626052333
 30
0.0
 40
2.000000000000002
100
AcDbArc
 50
0.0
 51
90.0
  0
LINE
  5
F4
330
EE
100
AcDbEntity
  8
$DDT_AUDIT_GENERATED_(F0)
  6
Continuous
 62
     7
100
AcDbLine
 10
272.3069829108
 20
340.0626052333
 30
0.0
 11
272.3069829108
 21
388.5626052333
 31
0.0
  0
ARC
  5
F5
330
EE
100
AcDbEntity
  8
$DDT_AUDIT_GENERATED_(F0)
  6
Continuous
 62
     7
100
AcDbCircle
 10
270.3069829108
 20
340.0626052333
 30
0.0
 40
1.999999999999995
100
AcDbArc
 50
270.0
 51
0.0
  0
ARC
  5
F6
330
EE
100
AcDbEntity
  8
$DDT_AUDIT_GENERATED_(F0)
  6
Continuous
 62
     7
100
AcDbCircle
 10
270.3069829108
 20
388.5626052333
 30
0.0
 40
2.000000000000002
100
AcDbArc
 50
0.0
 51
90.0
  0
LINE
  5
F7
330
EE
100
AcDbEntity
  8
$DDT_AUDIT_GENERATED_(60)
  6
Continuous
 62
     7
100
AcDbLine
 10
281.1569829108
 20
307.360263218
 30
0.0
 11
281.1569829108
 21
306.4523297562
 31
0.0
  0
LINE
  5
F8
330
EE
100
AcDbEntity
  8
$DDT_AUDIT_GENERATED_(60)
  6
Continuous
 62
     7
100
AcDbLine
 10
281.1569829108
 20
307.360263218
 30
0.0
 11
285.8011926607
 21
307.2994151353
 31
0.0
  0
SPLINE
  5
F9
330
EE
100
AcDbEntity
  8
$DDT_AUDIT_GENERATED_(60)
  6
Continuous
 62
     7
100
AcDbSpline
210
0.0
220
0.0
230
1.0
 70
     8
 71
     3
 72
     8
 73
     4
 74
     0
 42
0.000000049466351
 43
0.0000000001
 40
0.0
 40
0.0
 40
0.0
 40
0.0
 40
0.5
 40
0.5
 40
0.5
 40
0.5
 10
285.8011926606695
 20
307.2994151352946
 30
0.0
 10
285.8587668250664
 20
307.3348179710034
 30
0.0
 10
285.8869829108264
 20
307.3528591273652
 30
0.0
 10
285.8869829108264
 20
307.3528591273652
 30
0.0
  0
ARC
  5
FA
330
EE
100
AcDbEntity
  8
$DDT_AUDIT_GENERATED_(60)
  6
Continuous
 62
     7
100
AcDbCircle
 10
-145.9471730733
 20
285.5971891267
 30
0.0
 40
474.2584013585306
100
AcDbArc
 50
359.3639070458
 51
0.6360929542
  0
ARC
  5
FB
330
EE
100
AcDbEntity
  8
$DDT_AUDIT_GENERATED_(60)
  6
Continuous
 62
     7
100
AcDbCircle
 10
-972.0534568203
 20
279.3126116445
 30
0.0
 40
1300.386749892933
100
AcDbArc
 50
0.5088906796
 51
0.9252844924
  0
SPLINE
  5
FC
330
EE
100
AcDbEntity
  8
$DDT_AUDIT_GENERATED_(60)
  6
Continuous
 62
     7
100
AcDbSpline
210
0.0
220
0.0
230
1.0
 70
     8
 71
     3
 72
    17
 73
    13
 74
     0
 42
0.0000000002228937
 43
0.0000000001
 40
0.0
 40
0.0
 40
0.0
 40
0.0
 40
0.0222875528087132
 40
0.0222875528087132
 40
0.0222875528087132
 40
0.1114377640480548
 40
0.1114377640480548
 40
0.1114377640480548
 40
0.4680386092870241
 40
0.4680386092870241
 40
0.4680386092870241
 40
1.0
 40
1.0
 40
1.0
 40
1.0
 10
326.0194941417377
 20
301.3732869569014
 30
0.0
 10
325.6862025054051
 20
301.3764067860748
 30
0.0
 10
325.3529108639034
 20
301.3795260043444
 30
0.0
 10
325.019619217242
 20
301.3826446124357
 30
0.0
 10
323.6864526305627
 20
301.3951190448011
 30
0.0
 10
322.3532859612826
 20
301.4075837143421
 30
0.0
 10
321.0201192099948
 20
301.4200386672623
 30
0.0
 10
315.6874522027384
 20
301.4698584789627
 30
0.0
 10
310.3547838806487
 20
301.5195228318713
 30
0.0
 10
305.0221142807882
 20
301.5690346255637
 30
0.0
 10
297.0670733069323
 20
301.6428941325397
 30
0.0
 10
289.1120294778098
 20
301.7164141631526
 30
0.0
 10
281.1569829108264
 20
301.7896039778376
 30
0.0
  0
LINE
  5
FD
330
EE
100
AcDbEntity
  8
$DDT_AUDIT_GENERATED_(60)
  6
Continuous
 62
     7
100
AcDbLine
 10
281.1569829108
 20
301.7896039778
 30
0.0
 11
281.1569829108
 21
302.2491092115
 31
0.0
  0
LINE
  5
FE
330
EE
100
AcDbEntity
  8
$DDT_AUDIT_GENERATED_(60)
  6
Continuous
 62
     7
100
AcDbLine
 10
281.1569829108
 20
274.8494043555
 30
0.0
 11
281.1569829108
 21
273.1726988251
 31
0.0
  0
LINE
  5
FF
330
EE
100
AcDbEntity
  8
$DDT_AUDIT_GENERATED_(60)
  6
Continuous
 62
     7
100
AcDbLine
 10
281.1569829108
 20
275.3602842542
 30
0.0
 11
281.1569829108
 21
301.7896039778
 31
0.0
  0
SPLINE
  5
100
330
EE
100
AcDbEntity
  8
$DDT_AUDIT_GENERATED_(60)
  6
Continuous
 62
     7
100
AcDbSpline
210
0.0
220
0.0
230
1.0
 70
     8
 71
     3
 72
    17
 73
    13
 74
     0
 42
0.0000000002228987
 43
0.0000000001
 40
0.0
 40
0.0
 40
0.0
 40
0.0
 40
0.0222875528088341
 40
0.0222875528088341
 40
0.0222875528088341
 40
0.1114377640482575
 40
0.1114377640482575
 40
0.1114377640482575
 40
0.4680386092726612
 40
0.4680386092726612
 40
0.4680386092726612
 40
1.0
 40
1.0
 40
1.0
 40
1.0
 10
281.1569829108264
 20
275.3602842542014
 30
0.0
 10
281.4902749950126
 20
275.358133577117
 30
0.0
 10
281.8235670743801
 20
275.3559832247893
 30
0.0
 10
282.1568591489205
 20
275.3538331976033
 30
0.0
 10
283.4900274471128
 20
275.3452330888592
 30
0.0
 10
284.8231956681129
 20
275.3366381823674
 30
0.0
 10
286.1563638113798
 20
275.3280485028959
 30
0.0
 10
291.4890363864415
 20
275.2936897849969
 30
0.0
 10
296.8217077205215
 20
275.2594146954705
 30
0.0
 10
302.1543777781666
 20
275.2252248506549
 30
0.0
 10
310.1094194351402
 20
275.1742219502668
 30
0.0
 10
318.0644582641036
 20
275.1234087354204
 30
0.0
 10
326.0194941417045
 20
275.0727907867098
 30
0.0
  0
LINE
  5
101
330
EE
100
AcDbEntity
  8
$DDT_AUDIT_GENERATED_(60)
  6
Continuous
 62
     7
100
AcDbLine
 10
281.1569829108
 20
274.8494043555
 30
0.0
 11
281.1569829108
 21
275.3602842542
 31
0.0
  0
LINE
  5
102
330
EE
100
AcDbEntity
  8
$DDT_AUDIT_GENERATED_(60)
  6
Continuous
 62
     7
100
AcDbLine
 10
281.1569829108
 20
255.3126052333
 30
0.0
 11
281.1569829108
 21
259.0010944278
 31
0.0
  0
LINE
  5
103
330
EE
100
AcDbEntity
  8
$DDT_AUDIT_GENERATED_(60)
  6
Continuous
 62
     7
100
AcDbLine
 10
281.1569829108
 20
272.0574567034
 30
0.0
 11
281.1569829108
 21
259.4280292402
 31
0.0
  0
LINE
  5
104
330
EE
100
AcDbEntity
  8
$DDT_AUDIT_GENERATED_(60)
  6
Continuous
 62
     7
100
AcDbLine
 10
281.1569829108
 20
272.0574567034
 30
0.0
 11
281.1569829108
 21
273.1726988251
 31
0.0
  0
LINE
  5
105
330
EE
100
AcDbEntity
  8
$DDT_AUDIT_GENERATED_(60)
  6
Continuous
 62
     7
100
AcDbLine
 10
281.1569829108
 20
259.1356576325
 30
0.0
 11
281.1569829108
 21
259.4280292402
 31
0.0
  0
LINE
  5
106
330
EE
100
AcDbEntity
  8
$DDT_AUDIT_GENERATED_(60)
  6
Continuous
 62
     7
100
AcDbLine
 10
286.844803288
 20
307.0212302798
 30
0.0
 11
286.8420183111
 21
307.3403570291
 31
0.0
  0
LINE
  5
107
330
EE
100
AcDbEntity
  8
$DDT_AUDIT_GENERATED_(60)
  6
Continuous
 62
     7
100
AcDbLine
 10
287.8463692377
 20
306.8374270368
 30
0.0
 11
318.3640703331
 21
306.4313952822
 31
0.0
  0
SPLINE
  5
108
330
EE
100
AcDbEntity
  8
$DDT_AUDIT_GENERATED_(60)
  6
Continuous
 62
     7
100
AcDbSpline
210
0.0
220
0.0
230
1.0
 70
     8
 71
     3
 72
    12
 73
     8
 74
     0
 42
0.000000009456238
 43
0.0000000001
 40
0.0
 40
0.0
 40
0.0
 40
0.0
 40
0.2499999999999979
 40
0.2499999999999979
 40
0.4999999999999958
 40
0.4999999999999958
 40
1.0
 40
1.0
 40
1.0
 40
1.0
 10
287.8463692376994
 20
306.837427036771
 30
0.0
 10
287.7133121585574
 20
306.8391969168083
 30
0.0
 10
287.5828074054127
 20
306.845966375853
 30
0.0
 10
287.3400043000586
 20
306.8680332224578
 30
0.0
 10
287.2290383733935
 20
306.8832907619106
 30
0.0
 10
286.953144712102
 20
306.9362433731523
 30
0.0
 10
286.8451526704085
 20
306.981195025098
 30
0.0
 10
286.8448032880336
 20
307.0212302798174
 30
0.0
  0
LINE
  5
109
330
EE
100
AcDbEntity
  8
$DDT_AUDIT_GENERATED_(60)
  6
Continuous
 62
     7
100
AcDbLine
 10
281.1569829108
 20
305.5041115923
 30
0.0
 11
281.1569829108
 21
302.2491092115
 31
0.0
  0
LINE
  5
10A
330
EE
100
AcDbEntity
  8
$DDT_AUDIT_GENERATED_(60)
  6
Continuous
 62
     7
100
AcDbLine
 10
281.1569829108
 20
305.5041115923
 30
0.0
 11
281.1569829108
 21
306.4523297562
 31
0.0
  0
ELLIPSE
  5
10B
330
EE
100
AcDbEntity
  8
$DDT_AUDIT_GENERATED_(60)
  6
Continuous
 62
     7
100
AcDbEllipse
 10
327.1730385973
 20
301.0528823046
 30
0.0
 11
-0.009808915976794454
 21
-0.2998395990648332
 31
0.0
210
0.0
220
0.0
230
1.0
 40
0.0523080504
 41
3.141127840264328
 42
3.486579724593657
  0
ELLIPSE
  5
10C
330
EE
100
AcDbEntity
  8
$DDT_AUDIT_GENERATED_(60)
  6
Continuous
 62
     7
100
AcDbEllipse
 10
-968.494065729
 20
227.2508709317
 30
0.0
 11
1296.235752309797
 21
78.44203850526654
 31
0.0
210
0.0
220
0.0
230
1.0
 40
0.4993144651
 41
-0.0463783614218904
 42
-0.0391009525992212
  0
LINE
  5
10D
330
EE
100
AcDbEntity
  8
$DDT_AUDIT_GENERATED_(60)
  6
Continuous
 62
     7
100
AcDbLine
 10
328.1637272221
 20
300.3119837563
 30
0.0
 11
328.1637272221
 21
275.6018892631
 31
0.0
  0
ELLIPSE
  5
10E
330
EE
100
AcDbEntity
  8
$DDT_AUDIT_GENERATED_(60)
  6
Continuous
 62
     7
100
AcDbEllipse
 10
327.1730385973
 20
275.1985233613
 30
0.0
 11
-0.01848781557131641
 21
0.2994297925648093
 31
0.0
210
0.0
220
0.0
230
1.0
 40
0.0021231117
 41
-3.169990249223948
 42
-3.142037964334648
  0
ARC
  5
10F
330
EE
100
AcDbEntity
  8
$DDT_AUDIT_GENERATED_(60)
  6
Continuous
 62
     7
100
AcDbCircle
 10
327.1334531565
 20
300.3058557673
 30
0.0
 40
1.030292289922864
100
AcDbArc
 50
0.3407867653
 51
87.5795082613
  0
LINE
  5
110
330
EE
100
AcDbEntity
  8
$DDT_AUDIT_GENERATED_(60)
  6
Continuous
 62
     7
100
AcDbLine
 10
327.1569829108
 20
274.90000708
 30
0.0
 11
327.1569829108
 21
274.1216291544
 31
0.0
  0
LINE
  5
111
330
EE
100
AcDbEntity
  8
$DDT_AUDIT_GENERATED_(60)
  6
Continuous
 62
     7
100
AcDbLine
 10
327.1569829108
 20
272.4665906857
 30
0.0
 11
327.1569829108
 21
271.9008335254
 31
0.0
  0
LINE
  5
112
330
EE
100
AcDbEntity
  8
$DDT_AUDIT_GENERATED_(60)
  6
Continuous
 62
     7
100
AcDbLine
 10
327.1569829108
 20
271.9008335254
 30
0.0
 11
327.1569829108
 21
260.5282128802
 31
0.0
  0
LINE
  5
113
330
EE
100
AcDbEntity
  8
$DDT_AUDIT_GENERATED_(60)
  6
Continuous
 62
     7
100
AcDbLine
 10
327.1569829108
 20
260.5282128802
 30
0.0
 11
327.1569829108
 21
260.3800171371
 31
0.0
  0
SPLINE
  5
114
330
EE
100
AcDbEntity
  8
$DDT_AUDIT_GENERATED_(60)
  6
Continuous
 62
     7
100
AcDbSpline
210
0.0
220
0.0
230
1.0
 70
     8
 71
     3
 72
    14
 73
    10
 74
     0
 42
0.0000000160009277
 43
0.0000000001
 40
0.0
 40
0.0
 40
0.0
 40
0.0
 40
0.25
 40
0.25
 40
0.5
 40
0.5
 40
0.75
 40
0.75
 40
0.7829357017844617
 40
0.7829357017844617
 40
0.7829357017844617
 40
0.7829357017844617
 10
326.6652366206006
 20
275.0963124463403
 30
0.0
 10
326.7207050501775
 20
275.0655098915967
 30
0.0
 10
326.7742533594156
 20
275.036984340091
 30
0.0
 10
326.879307725979
 20
274.9822903662737
 30
0.0
 10
326.9310006821925
 20
274.9559197585536
 30
0.0
 10
327.0233835101374
 20
274.9133136356722
 30
0.0
 10
327.0651800499193
 20
274.8965149745796
 30
0.0
 10
327.0996099085185
 20
274.8937496680793
 30
0.0
 10
327.1034076439647
 20
274.8936962639802
 30
0.0
 10
327.1069984748046
 20
274.8939197031793
 30
0.0
  0
LINE
  5
115
330
EE
100
AcDbEntity
  8
$DDT_AUDIT_GENERATED_(60)
  6
Continuous
 62
     7
100
AcDbLine
 10
327.1569829108
 20
305.5087692943
 30
0.0
 11
327.1569829108
 21
306.3191077519
 31
0.0
  0
LINE
  5
116
330
EE
100
AcDbEntity
  8
$DDT_AUDIT_GENERATED_(60)
  6
Continuous
 62
     7
100
AcDbLine
 10
327.1569829108
 20
305.5087692943
 30
0.0
 11
327.1569829108
 21
305.0325389554
 31
0.0
  0
LINE
  5
117
330
EE
100
AcDbEntity
  8
$DDT_AUDIT_GENERATED_(60)
  6
Continuous
 62
     7
100
AcDbLine
 10
327.1569829108
 20
301.8195990216
 30
0.0
 11
327.1569829108
 21
301.3466405249
 31
0.0
  0
SPLINE
  5
118
330
EE
100
AcDbEntity
  8
$DDT_AUDIT_GENERATED_(60)
  6
Continuous
 62
     7
100
AcDbSpline
210
0.0
220
0.0
230
1.0
 70
     8
 71
     3
 72
     8
 73
     4
 74
     0
 42
0.0000000152656376
 43
0.0000000001
 40
0.8030794850972931
 40
0.8030794850972931
 40
0.8030794850972931
 40
0.8030794850972931
 40
1.0
 40
1.0
 40
1.0
 40
1.0
 10
326.7936626492465
 20
301.3654394657775
 30
0.0
 10
326.7515595198481
 20
301.3665724916886
 30
0.0
 10
326.7083051459913
 20
301.3637097423835
 30
0.0
 10
326.6652366206116
 20
301.3573980656612
 30
0.0
  0
LINE
  5
119
330
EE
100
AcDbEntity
  8
$DDT_AUDIT_GENERATED_(60)
  6
Continuous
 62
     7
100
AcDbLine
 10
319.8181802823
 20
306.9086754222
 30
0.0
 11
319.8159298552
 21
306.6508020207
 31
0.0
  0
SPLINE
  5
11A
330
EE
100
AcDbEntity
  8
$DDT_AUDIT_GENERATED_(60)
  6
Continuous
 62
     7
100
AcDbSpline
210
0.0
220
0.0
230
1.0
 70
     8
 71
     3
 72
    16
 73
    12
 74
     0
 42
0.0000000066474141
 43
0.0000000001
 40
0.0
 40
0.0
 40
0.0
 40
0.0
 40
0.2500000000000001
 40
0.2500000000000001
 40
0.3750000000000002
 40
0.3750000000000002
 40
0.5000000000000002
 40
0.5000000000000002
 40
0.7500000000000001
 40
0.7500000000000001
 40
1.0
 40
1.0
 40
1.0
 40
1.0
 10
319.815929855176
 20
306.6508020207159
 30
0.0
 10
319.8157007033662
 20
306.6245438241558
 30
0.0
 10
319.7780826369911
 20
306.5972375348427
 30
0.0
 10
319.6693858475421
 20
306.5571513705713
 30
0.0
 10
319.6250704753842
 20
306.5441773589488
 30
0.0
 10
319.520420279689
 20
306.5192322420219
 30
0.0
 10
319.4594275172399
 20
306.5071866287332
 30
0.0
 10
319.2592705409949
 20
306.474521110913
 30
0.0
 10
319.0976844494128
 20
306.4565695862312
 30
0.0
 10
318.7479355195877
 20
306.4338342694832
 30
0.0
 10
318.556647366728
 20
306.4288324715274
 30
0.0
 10
318.3640703331334
 20
306.4313952821902
 30
0.0
  0
LINE
  5
11B
330
EE
100
AcDbEntity
  8
$DDT_AUDIT_GENERATED_(60)
  6
Continuous
 62
     7
100
AcDbLine
 10
286.8420183111
 20
307.3403570291
 30
0.0
 11
285.8430823765
 21
307.3534338168
 31
0.0
  0
LINE
  5
11C
330
EE
100
AcDbEntity
  8
$DDT_AUDIT_GENERATED_(60)
  6
Continuous
 62
     7
100
AcDbLine
 10
326.6635277086
 20
306.8190649157
 30
0.0
 11
319.8181802823
 21
306.9086754222
 31
0.0
  0
ARC
  5
11D
330
EE
100
AcDbEntity
  8
$DDT_AUDIT_GENERATED_(60)
  6
Continuous
 62
     7
100
AcDbCircle
 10
-971.6430170892
 20
279.3126052333
 30
0.0
 40
1300.0
100
AcDbArc
 50
359.0120442853
 51
359.1517397357
  0
LINE
  5
11E
330
EE
100
AcDbEntity
  8
$DDT_AUDIT_GENERATED_(60)
  6
Continuous
 62
     7
100
AcDbLine
 10
281.1569829108
 20
255.3126052333
 30
0.0
 11
327.1769654759
 21
255.9150398053
 31
0.0
  0
LINE
  5
11F
330
EE
100
AcDbEntity
  8
$DDT_AUDIT_GENERATED_(60)
  6
Continuous
 62
     7
100
AcDbLine
 10
327.1051391717
 20
274.8937628839
 30
0.0
 11
327.1915264128
 21
274.8990935687
 31
0.0
  0
LINE
  5
120
330
EE
100
AcDbEntity
  8
$DDT_AUDIT_GENERATED_(60)
  6
Continuous
 62
     7
100
AcDbLine
 10
327.1828475132
 20
301.3527219037
 30
0.0
 11
326.7923855483
 21
301.3654762137
 31
0.0
  0
LINE
  5
121
330
EE
100
AcDbEntity
  8
$DDT_AUDIT_GENERATED_(60)
  6
Continuous
 62
     7
100
AcDbLine
 10
281.1572087971
 20
259.1359634581
 30
0.0
 11
326.6652253462
 21
259.8776085673
 31
0.0
  0
ARC
  5
122
330
EE
100
AcDbEntity
  8
$DDT_AUDIT_GENERATED_(60)
  6
Continuous
 62
     7
100
AcDbCircle
 10
327.1638758804
 20
256.9149541329
 30
0.0
 40
1.000000000000002
100
AcDbArc
 50
270.75
 51
359.0120442853
  0
SPLINE
  5
123
330
EE
100
AcDbEntity
  8
$DDT_AUDIT_GENERATED_(60)
  6
Continuous
 62
     7
100
AcDbSpline
210
0.0
220
0.0
230
1.0
 70
     8
 71
     3
 72
    13
 73
     9
 74
     0
 42
0.0000000075217587
 43
0.0000000001
 40
0.0
 40
0.0
 40
0.0
 40
0.0
 40
0.1352521260709567
 40
0.3397935103387416
 40
0.5544350959897789
 40
0.7487816768279896
 40
0.9235885725104986
 40
1.0
 40
1.0
 40
1.0
 40
1.0
 10
327.191058618964
 20
274.9053395990587
 30
0.0
 10
327.2644147668046
 20
274.9094229412817
 30
0.0
 10
327.4223873473042
 20
274.9198037116893
 30
0.0
 10
327.6821843492248
 20
275.0000336604535
 30
0.0
 10
327.9156979451743
 20
275.1302656506548
 30
0.0
 10
328.0774096726168
 20
275.3013387285001
 30
0.0
 10
328.1617392558232
 20
275.4740438013202
 30
0.0
 10
328.1555098197266
 20
275.5704054653612
 30
0.0
 10
328.1529430412084
 20
275.6045608381368
 30
0.0
  0
ARC
  5
124
330
EE
100
AcDbEntity
  8
$DDT_AUDIT_GENERATED_(60)
  6
Continuous
 62
     7
100
AcDbCircle
 10
326.6569829108
 20
260.3759986881
 30
0.0
 40
0.4999999999999752
100
AcDbArc
 50
271.1713561984
 51
0.0057734005
  0
ARC
  5
125
330
EE
100
AcDbEntity
  8
$DDT_AUDIT_GENERATED_(60)
  6
Continuous
 62
     7
100
AcDbCircle
 10
326.6569829108
 20
306.3191077519
 30
0.0
 40
0.4999999999999727
100
AcDbArc
 50
0.0
 51
89.25
  0
ARC
  5
126
330
EE
100
AcDbEntity
  8
$DDT_AUDIT_GENERATED_(81)
  6
Continuous
 62
     7
100
AcDbCircle
 10
298.048555721
 20
305.5506638569
 30
0.0
 40
20.79040583977165
100
AcDbArc
 50
2.458630469
 51
14.8537365793
  0
LINE
  5
127
330
EE
100
AcDbEntity
  8
$DDT_AUDIT_GENERATED_(81)
  6
Continuous
 62
     7
100
AcDbLine
 10
287.2654412059
 20
307.4714789971
 30
0.0
 11
287.262047329
 21
307.1855294519
 31
0.0
  0
LINE
  5
128
330
EE
100
AcDbEntity
  8
$DDT_AUDIT_GENERATED_(81)
  6
Continuous
 62
     7
100
AcDbLine
 10
287.2584422797
 20
306.8817876694
 30
0.0
 11
287.262047329
 21
307.1855294519
 31
0.0
  0
ARC
  5
129
330
EE
100
AcDbEntity
  8
$DDT_AUDIT_GENERATED_(81)
  6
Continuous
 62
     7
100
AcDbCircle
 10
287.3685431441
 20
439.1270658715
 30
0.0
 40
130.6705090840262
100
AcDbArc
 50
270.3902531866
 51
283.0863080597
  0
ARC
  5
12A
330
EE
100
AcDbEntity
  8
$DDT_AUDIT_GENERATED_(81)
  6
Continuous
 62
     7
100
AcDbCircle
 10
298.3683464682
 20
305.8442894376
 30
0.0
 40
20.47412179443755
100
AcDbArc
 50
1.6763734219
 51
14.97399965
  0
ARC
  5
12B
330
EE
100
AcDbEntity
  8
$DDT_AUDIT_GENERATED_(81)
  6
Continuous
 62
     7
100
AcDbCircle
 10
288.2653707792
 20
307.4596110368
 30
0.0
 40
1.000000000000006
100
AcDbArc
 50
90.3902531866
 51
179.32
  0
ARC
  5
12C
330
EE
100
AcDbEntity
  8
$DDT_AUDIT_GENERATED_(81)
  6
Continuous
 62
     7
100
AcDbCircle
 10
317.1811889513
 20
310.876026451
 30
0.0
 40
0.9999999999999549
100
AcDbArc
 50
14.97399965
 51
103.0863080597
  0
LINE
  5
12D
330
EE
100
AcDbEntity
  8
$DDT_AUDIT_GENERATED_(60)
  6
Continuous
 62
     7
100
AcDbLine
 10
281.4069829108
 20
392.360263218
 30
0.0
 11
281.4069829108
 21
391.4523297562
 31
0.0
  0
LINE
  5
12E
330
EE
100
AcDbEntity
  8
$DDT_AUDIT_GENERATED_(60)
  6
Continuous
 62
     7
100
AcDbLine
 10
281.4069829108
 20
392.360263218
 30
0.0
 11
286.0511926607
 21
392.2994151353
 31
0.0
  0
SPLINE
  5
12F
330
EE
100
AcDbEntity
  8
$DDT_AUDIT_GENERATED_(60)
  6
Continuous
 62
     7
100
AcDbSpline
210
0.0
220
0.0
230
1.0
 70
     8
 71
     3
 72
     8
 73
     4
 74
     0
 42
0.000000049466351
 43
0.0000000001
 40
0.0
 40
0.0
 40
0.0
 40
0.0
 40
0.5
 40
0.5
 40
0.5
 40
0.5
 10
286.0511926606695
 20
392.2994151352946
 30
0.0
 10
286.1087668250665
 20
392.3348179710035
 30
0.0
 10
286.1369829108265
 20
392.3528591273652
 30
0.0
 10
286.1369829108265
 20
392.3528591273652
 30
0.0
  0
ARC
  5
130
330
EE
100
AcDbEntity
  8
$DDT_AUDIT_GENERATED_(60)
  6
Continuous
 62
     7
100
AcDbCircle
 10
-145.6971730734
 20
370.5971891267
 30
0.0
 40
474.2584013585537
100
AcDbArc
 50
359.3639070458
 51
0.6360929542
  0
ARC
  5
131
330
EE
100
AcDbEntity
  8
$DDT_AUDIT_GENERATED_(60)
  6
Continuous
 62
     7
100
AcDbCircle
 10
-971.8034568203
 20
364.3126116445
 30
0.0
 40
1300.38674989292
100
AcDbArc
 50
0.5088906796
 51
0.9252844924
  0
SPLINE
  5
132
330
EE
100
AcDbEntity
  8
$DDT_AUDIT_GENERATED_(60)
  6
Continuous
 62
     7
100
AcDbSpline
210
0.0
220
0.0
230
1.0
 70
     8
 71
     3
 72
    17
 73
    13
 74
     0
 42
0.0000000002228937
 43
0.0000000001
 40
0.0
 40
0.0
 40
0.0
 40
0.0
 40
0.0222875528087132
 40
0.0222875528087132
 40
0.0222875528087132
 40
0.1114377640480548
 40
0.1114377640480548
 40
0.1114377640480548
 40
0.4680386092870241
 40
0.4680386092870241
 40
0.4680386092870241
 40
1.0
 40
1.0
 40
1.0
 40
1.0
 10
326.2694941417377
 20
386.3732869569014
 30
0.0
 10
325.9362025054051
 20
386.3764067860748
 30
0.0
 10
325.6029108639034
 20
386.3795260043444
 30
0.0
 10
325.269619217242
 20
386.3826446124357
 30
0.0
 10
323.9364526305628
 20
386.395119044801
 30
0.0
 10
322.6032859612827
 20
386.4075837143421
 30
0.0
 10
321.2701192099949
 20
386.4200386672622
 30
0.0
 10
315.9374522027384
 20
386.4698584789627
 30
0.0
 10
310.6047838806488
 20
386.5195228318713
 30
0.0
 10
305.2721142807882
 20
386.5690346255637
 30
0.0
 10
297.3170733069323
 20
386.6428941325397
 30
0.0
 10
289.3620294778098
 20
386.7164141631526
 30
0.0
 10
281.4069829108265
 20
386.7896039778376
 30
0.0
  0
LINE
  5
133
330
EE
100
AcDbEntity
  8
$DDT_AUDIT_GENERATED_(60)
  6
Continuous
 62
     7
100
AcDbLine
 10
281.4069829108
 20
386.7896039778
 30
0.0
 11
281.4069829108
 21
387.2491092115
 31
0.0
  0
LINE
  5
134
330
EE
100
AcDbEntity
  8
$DDT_AUDIT_GENERATED_(60)
  6
Continuous
 62
     7
100
AcDbLine
 10
281.4069829108
 20
359.8494043555
 30
0.0
 11
281.4069829108
 21
358.1726988251
 31
0.0
  0
LINE
  5
135
330
EE
100
AcDbEntity
  8
$DDT_AUDIT_GENERATED_(60)
  6
Continuous
 62
     7
100
AcDbLine
 10
326.2694941417
 20
359.5537064955
 30
0.0
 11
281.4069829108
 21
359.8494043555
 31
0.0
  0
LINE
  5
136
330
EE
100
AcDbEntity
  8
$DDT_AUDIT_GENERATED_(60)
  6
Continuous
 62
     7
100
AcDbLine
 10
281.4069829108
 20
360.3602842542
 30
0.0
 11
281.4069829108
 21
386.7896039778
 31
0.0
  0
LINE
  5
137
330
EE
100
AcDbEntity
  8
$DDT_AUDIT_GENERATED_(60)
  6
Continuous
 62
     7
100
AcDbLine
 10
281.4069829108
 20
359.8494043555
 30
0.0
 11
281.4069829108
 21
360.3602842542
 31
0.0
  0
LINE
  5
138
330
EE
100
AcDbEntity
  8
$DDT_AUDIT_GENERATED_(60)
  6
Continuous
 62
     7
100
AcDbLine
 10
281.4069829108
 20
340.3126052333
 30
0.0
 11
281.4069829108
 21
344.0010944278
 31
0.0
  0
LINE
  5
139
330
EE
100
AcDbEntity
  8
$DDT_AUDIT_GENERATED_(60)
  6
Continuous
 62
     7
100
AcDbLine
 10
281.4069829108
 20
357.0574567034
 30
0.0
 11
281.4069829108
 21
344.4280292402
 31
0.0
  0
LINE
  5
13A
330
EE
100
AcDbEntity
  8
$DDT_AUDIT_GENERATED_(60)
  6
Continuous
 62
     7
100
AcDbLine
 10
281.4069829108
 20
357.0574567034
 30
0.0
 11
281.4069829108
 21
358.1726988251
 31
0.0
  0
LINE
  5
13B
330
EE
100
AcDbEntity
  8
$DDT_AUDIT_GENERATED_(60)
  6
Continuous
 62
     7
100
AcDbLine
 10
281.4069829108
 20
344.1356576325
 30
0.0
 11
281.4069829108
 21
344.4280292402
 31
0.0
  0
LINE
  5
13C
330
EE
100
AcDbEntity
  8
$DDT_AUDIT_GENERATED_(60)
  6
Continuous
 62
     7
100
AcDbLine
 10
287.094803288
 20
392.0212302798
 30
0.0
 11
287.0920183111
 21
392.3403570291
 31
0.0
  0
LINE
  5
13D
330
EE
100
AcDbEntity
  8
$DDT_AUDIT_GENERATED_(60)
  6
Continuous
 62
     7
100
AcDbLine
 10
288.0963692377
 20
391.8374270368
 30
0.0
 11
318.6140703331
 21
391.4313952822
 31
0.0
  0
SPLINE
  5
13E
330
EE
100
AcDbEntity
  8
$DDT_AUDIT_GENERATED_(60)
  6
Continuous
 62
     7
100
AcDbSpline
210
0.0
220
0.0
230
1.0
 70
     8
 71
     3
 72
    12
 73
     8
 74
     0
 42
0.000000009456238
 43
0.0000000001
 40
0.0
 40
0.0
 40
0.0
 40
0.0
 40
0.2499999999999979
 40
0.2499999999999979
 40
0.4999999999999958
 40
0.4999999999999958
 40
1.0
 40
1.0
 40
1.0
 40
1.0
 10
288.0963692376995
 20
391.837427036771
 30
0.0
 10
287.9633121585574
 20
391.8391969168083
 30
0.0
 10
287.8328074054127
 20
391.845966375853
 30
0.0
 10
287.5900043000586
 20
391.8680332224578
 30
0.0
 10
287.4790383733936
 20
391.8832907619105
 30
0.0
 10
287.2031447121021
 20
391.9362433731523
 30
0.0
 10
287.0951526704087
 20
391.981195025098
 30
0.0
 10
287.0948032880337
 20
392.0212302798174
 30
0.0
  0
LINE
  5
13F
330
EE
100
AcDbEntity
  8
$DDT_AUDIT_GENERATED_(60)
  6
Continuous
 62
     7
100
AcDbLine
 10
281.4069829108
 20
390.5041115923
 30
0.0
 11
281.4069829108
 21
387.2491092115
 31
0.0
  0
LINE
  5
140
330
EE
100
AcDbEntity
  8
$DDT_AUDIT_GENERATED_(60)
  6
Continuous
 62
     7
100
AcDbLine
 10
281.4069829108
 20
390.5041115923
 30
0.0
 11
281.4069829108
 21
391.4523297562
 31
0.0
  0
ELLIPSE
  5
141
330
EE
100
AcDbEntity
  8
$DDT_AUDIT_GENERATED_(60)
  6
Continuous
 62
     7
100
AcDbEllipse
 10
327.4230385973
 20
386.0528823046
 30
0.0
 11
-0.009808915976794456
 21
-0.2998395990648356
 31
0.0
210
0.0
220
0.0
230
1.0
 40
0.0523080504
 41
3.141127840481685
 42
3.486579724591422
  0
ELLIPSE
  5
142
330
EE
100
AcDbEntity
  8
$DDT_AUDIT_GENERATED_(60)
  6
Continuous
 62
     7
100
AcDbEllipse
 10
-968.2440645329
 20
312.250870978
 30
0.0
 11
1296.235751112508
 21
78.44203846757166
 31
0.0
210
0.0
220
0.0
230
0.9999999999999994
 40
0.4993144653
 41
-0.0463783614566351
 42
-0.0391009526305934
  0
LINE
  5
143
330
EE
100
AcDbEntity
  8
$DDT_AUDIT_GENERATED_(60)
  6
Continuous
 62
     7
100
AcDbLine
 10
328.4137272221
 20
385.3119837563
 30
0.0
 11
328.4137272221
 21
360.6018892631
 31
0.0
  0
ELLIPSE
  5
144
330
EE
100
AcDbEntity
  8
$DDT_AUDIT_GENERATED_(60)
  6
Continuous
 62
     7
100
AcDbEllipse
 10
327.4230385973
 20
360.1985233613
 30
0.0
 11
-0.01848781557128865
 21
0.2994297925648093
 31
0.0
210
0.0
220
0.0
230
0.9999999999999998
 40
0.0021231117
 41
-3.169990249217085
 42
-3.142037964347613
  0
ARC
  5
145
330
EE
100
AcDbEntity
  8
$DDT_AUDIT_GENERATED_(60)
  6
Continuous
 62
     7
100
AcDbCircle
 10
327.3834531565
 20
385.3058557673
 30
0.0
 40
1.030292289922853
100
AcDbArc
 50
0.3407867653
 51
87.5795082613
  0
LINE
  5
146
330
EE
100
AcDbEntity
  8
$DDT_AUDIT_GENERATED_(60)
  6
Continuous
 62
     7
100
AcDbLine
 10
327.4069829108
 20
359.90000708
 30
0.0
 11
327.4069829108
 21
359.1216291544
 31
0.0
  0
LINE
  5
147
330
EE
100
AcDbEntity
  8
$DDT_AUDIT_GENERATED_(60)
  6
Continuous
 62
     7
100
AcDbLine
 10
327.4069829108
 20
357.4665906857
 30
0.0
 11
327.4069829108
 21
356.9008335254
 31
0.0
  0
LINE
  5
148
330
EE
100
AcDbEntity
  8
$DDT_AUDIT_GENERATED_(60)
  6
Continuous
 62
     7
100
AcDbLine
 10
327.4069829108
 20
356.9008335254
 30
0.0
 11
327.4069829108
 21
345.5282128802
 31
0.0
  0
LINE
  5
149
330
EE
100
AcDbEntity
  8
$DDT_AUDIT_GENERATED_(60)
  6
Continuous
 62
     7
100
AcDbLine
 10
327.4069829108
 20
345.5282128802
 30
0.0
 11
327.4069829108
 21
345.3800171371
 31
0.0
  0
SPLINE
  5
14A
330
EE
100
AcDbEntity
  8
$DDT_AUDIT_GENERATED_(60)
  6
Continuous
 62
     7
100
AcDbSpline
210
0.0
220
0.0
230
1.0
 70
     8
 71
     3
 72
    14
 73
    10
 74
     0
 42
0.0000000160009277
 43
0.0000000001
 40
0.0
 40
0.0
 40
0.0
 40
0.0
 40
0.25
 40
0.25
 40
0.5
 40
0.5
 40
0.75
 40
0.75
 40
0.7829357017844759
 40
0.7829357017844759
 40
0.7829357017844759
 40
0.7829357017844759
 10
326.9152366206007
 20
360.0963124463403
 30
0.0
 10
326.9707050501776
 20
360.0655098915967
 30
0.0
 10
327.0242533594156
 20
360.036984340091
 30
0.0
 10
327.1293077259791
 20
359.9822903662737
 30
0.0
 10
327.1810006821925
 20
359.9559197585537
 30
0.0
 10
327.2733835101374
 20
359.9133136356722
 30
0.0
 10
327.3151800499194
 20
359.8965149745796
 30
0.0
 10
327.3496099085185
 20
359.8937496680792
 30
0.0
 10
327.3534076439647
 20
359.8936962639802
 30
0.0
 10
327.3569984748047
 20
359.8939197031793
 30
0.0
  0
LINE
  5
14B
330
EE
100
AcDbEntity
  8
$DDT_AUDIT_GENERATED_(60)
  6
Continuous
 62
     7
100
AcDbLine
 10
327.4069829108
 20
390.5087692943
 30
0.0
 11
327.4069829108
 21
391.3191077519
 31
0.0
  0
LINE
  5
14C
330
EE
100
AcDbEntity
  8
$DDT_AUDIT_GENERATED_(60)
  6
Continuous
 62
     7
100
AcDbLine
 10
327.4069829108
 20
390.5087692943
 30
0.0
 11
327.4069829108
 21
390.0325389554
 31
0.0
  0
LINE
  5
14D
330
EE
100
AcDbEntity
  8
$DDT_AUDIT_GENERATED_(60)
  6
Continuous
 62
     7
100
AcDbLine
 10
327.4069829108
 20
386.8195990216
 30
0.0
 11
327.4069829108
 21
386.3412663175
 31
0.0
  0
SPLINE
  5
14E
330
EE
100
AcDbEntity
  8
$DDT_AUDIT_GENERATED_(60)
  6
Continuous
 62
     7
100
AcDbSpline
210
0.0
220
0.0
230
1.0
 70
     8
 71
     3
 72
     8
 73
     4
 74
     0
 42
0.0000000152656376
 43
0.0000000001
 40
0.803079485097306
 40
0.803079485097306
 40
0.803079485097306
 40
0.803079485097306
 40
1.0
 40
1.0
 40
1.0
 40
1.0
 10
327.0436626492466
 20
386.3654394657774
 30
0.0
 10
327.0015595198482
 20
386.3665724916885
 30
0.0
 10
326.9583051459915
 20
386.3637097423835
 30
0.0
 10
326.9152366206116
 20
386.3573980656613
 30
0.0
  0
LINE
  5
14F
330
EE
100
AcDbEntity
  8
$DDT_AUDIT_GENERATED_(60)
  6
Continuous
 62
     7
100
AcDbLine
 10
320.0681802823
 20
391.9086754222
 30
0.0
 11
320.0659298552
 21
391.6508020207
 31
0.0
  0
SPLINE
  5
150
330
EE
100
AcDbEntity
  8
$DDT_AUDIT_GENERATED_(60)
  6
Continuous
 62
     7
100
AcDbSpline
210
0.0
220
0.0
230
1.0
 70
     8
 71
     3
 72
    16
 73
    12
 74
     0
 42
0.0000000066474141
 43
0.0000000001
 40
0.0
 40
0.0
 40
0.0
 40
0.0
 40
0.2500000000000001
 40
0.2500000000000001
 40
0.3750000000000002
 40
0.3750000000000002
 40
0.5000000000000002
 40
0.5000000000000002
 40
0.7500000000000001
 40
0.7500000000000001
 40
1.0
 40
1.0
 40
1.0
 40
1.0
 10
320.0659298551761
 20
391.650802020716
 30
0.0
 10
320.0657007033662
 20
391.6245438241558
 30
0.0
 10
320.0280826369912
 20
391.5972375348426
 30
0.0
 10
319.9193858475422
 20
391.5571513705713
 30
0.0
 10
319.8750704753843
 20
391.5441773589488
 30
0.0
 10
319.7704202796891
 20
391.5192322420219
 30
0.0
 10
319.70942751724
 20
391.5071866287332
 30
0.0
 10
319.509270540995
 20
391.474521110913
 30
0.0
 10
319.3476844494128
 20
391.4565695862311
 30
0.0
 10
318.9979355195878
 20
391.4338342694832
 30
0.0
 10
318.8066473667281
 20
391.4288324715274
 30
0.0
 10
318.6140703331336
 20
391.4313952821902
 30
0.0
  0
LINE
  5
151
330
EE
100
AcDbEntity
  8
$DDT_AUDIT_GENERATED_(60)
  6
Continuous
 62
     7
100
AcDbLine
 10
287.0920183111
 20
392.3403570291
 30
0.0
 11
286.0930823765
 21
392.3534338168
 31
0.0
  0
LINE
  5
152
330
EE
100
AcDbEntity
  8
$DDT_AUDIT_GENERATED_(60)
  6
Continuous
 62
     7
100
AcDbLine
 10
326.9135277086
 20
391.8190649157
 30
0.0
 11
320.0681802823
 21
391.9086754222
 31
0.0
  0
ARC
  5
153
330
EE
100
AcDbEntity
  8
$DDT_AUDIT_GENERATED_(60)
  6
Continuous
 62
     7
100
AcDbCircle
 10
-971.3930170892
 20
364.3126052333
 30
0.0
 40
1300.0
100
AcDbArc
 50
359.0120442853
 51
359.1517397357
  0
LINE
  5
154
330
EE
100
AcDbEntity
  8
$DDT_AUDIT_GENERATED_(60)
  6
Continuous
 62
     7
100
AcDbLine
 10
281.4069829108
 20
340.3126052333
 30
0.0
 11
327.4269654759
 21
340.9150398053
 31
0.0
  0
LINE
  5
155
330
EE
100
AcDbEntity
  8
$DDT_AUDIT_GENERATED_(60)
  6
Continuous
 62
     7
100
AcDbLine
 10
327.3551391717
 20
359.8937628839
 30
0.0
 11
327.4415264128
 21
359.8990935687
 31
0.0
  0
LINE
  5
156
330
EE
100
AcDbEntity
  8
$DDT_AUDIT_GENERATED_(60)
  6
Continuous
 62
     7
100
AcDbLine
 10
327.4328475132
 20
386.3527219037
 30
0.0
 11
327.0423855483
 21
386.3654762137
 31
0.0
  0
LINE
  5
157
330
EE
100
AcDbEntity
  8
$DDT_AUDIT_GENERATED_(60)
  6
Continuous
 62
     7
100
AcDbLine
 10
281.4072087971
 20
344.1359634581
 30
0.0
 11
326.9152253462
 21
344.8776085673
 31
0.0
  0
ARC
  5
158
330
EE
100
AcDbEntity
  8
$DDT_AUDIT_GENERATED_(60)
  6
Continuous
 62
     7
100
AcDbCircle
 10
327.4138758804
 20
341.9149541329
 30
0.0
 40
1.000000000000002
100
AcDbArc
 50
270.75
 51
359.0120442853
  0
SPLINE
  5
159
330
EE
100
AcDbEntity
  8
$DDT_AUDIT_GENERATED_(60)
  6
Continuous
 62
     7
100
AcDbSpline
210
0.0
220
0.0
230
1.0
 70
     8
 71
     3
 72
    13
 73
     9
 74
     0
 42
0.0000000075217587
 43
0.0000000001
 40
0.0
 40
0.0
 40
0.0
 40
0.0
 40
0.135252126070974
 40
0.3397935103387573
 40
0.5544350959897901
 40
0.7487816768279999
 40
0.9235885725104976
 40
1.0
 40
1.0
 40
1.0
 40
1.0
 10
327.441058618964
 20
359.9053395990587
 30
0.0
 10
327.5144147668046
 20
359.9094229412817
 30
0.0
 10
327.6723873473042
 20
359.9198037116893
 30
0.0
 10
327.932184349225
 20
360.0000336604535
 30
0.0
 10
328.1656979451742
 20
360.1302656506548
 30
0.0
 10
328.327409672617
 20
360.3013387285001
 30
0.0
 10
328.4117392558232
 20
360.4740438013201
 30
0.0
 10
328.4055098197267
 20
360.5704054653612
 30
0.0
 10
328.4029430412084
 20
360.6045608381368
 30
0.0
  0
ARC
  5
15A
330
EE
100
AcDbEntity
  8
$DDT_AUDIT_GENERATED_(60)
  6
Continuous
 62
     7
100
AcDbCircle
 10
326.9069829108
 20
345.3759986881
 30
0.0
 40
0.4999999999999752
100
AcDbArc
 50
271.1713561984
 51
0.0057734005
  0
ARC
  5
15B
330
EE
100
AcDbEntity
  8
$DDT_AUDIT_GENERATED_(60)
  6
Continuous
 62
     7
100
AcDbCircle
 10
326.9069829108
 20
391.3191077519
 30
0.0
 40
0.5000000000000004
100
AcDbArc
 50
0.0
 51
89.25
  0
ARC
  5
15C
330
EE
100
AcDbEntity
  8
$DDT_AUDIT_GENERATED_(81)
  6
Continuous
 62
     7
100
AcDbCircle
 10
298.298555721
 20
390.5506638569
 30
0.0
 40
20.79040583976856
100
AcDbArc
 50
2.458630469
 51
14.8537365793
  0
LINE
  5
15D
330
EE
100
AcDbEntity
  8
$DDT_AUDIT_GENERATED_(81)
  6
Continuous
 62
     7
100
AcDbLine
 10
287.512047329
 20
392.1855294519
 30
0.0
 11
287.5154412059
 21
392.4714789971
 31
0.0
  0
LINE
  5
15E
330
EE
100
AcDbEntity
  8
$DDT_AUDIT_GENERATED_(81)
  6
Continuous
 62
     7
100
AcDbLine
 10
287.5084422797
 20
391.8817876694
 30
0.0
 11
287.512047329
 21
392.1855294519
 31
0.0
  0
ARC
  5
15F
330
EE
100
AcDbEntity
  8
$DDT_AUDIT_GENERATED_(81)
  6
Continuous
 62
     7
100
AcDbCircle
 10
287.6185431441
 20
524.1270658715
 30
0.0
 40
130.6705090840262
100
AcDbArc
 50
270.3902531866
 51
283.0863080597
  0
ARC
  5
160
330
EE
100
AcDbEntity
  8
$DDT_AUDIT_GENERATED_(81)
  6
Continuous
 62
     7
100
AcDbCircle
 10
298.6183464682
 20
390.8442894376
 30
0.0
 40
20.47412179443755
100
AcDbArc
 50
1.6763734219
 51
14.97399965
  0
ARC
  5
161
330
EE
100
AcDbEntity
  8
$DDT_AUDIT_GENERATED_(81)
  6
Continuous
 62
     7
100
AcDbCircle
 10
288.5153707792
 20
392.4596110368
 30
0.0
 40
0.999999999999995
100
AcDbArc
 50
90.3902531866
 51
179.32
  0
ARC
  5
162
330
EE
100
AcDbEntity
  8
$DDT_AUDIT_GENERATED_(81)
  6
Continuous
 62
     7
100
AcDbCircle
 10
317.4311889513
 20
395.876026451
 30
0.0
 40
0.9999999999999531
100
AcDbArc
 50
14.97399965
 51
103.0863080597
  0
LINE
  5
163
330
EE
100
AcDbEntity
  8
$DDT_AUDIT_GENERATED_(AC)
  6
Continuous
 62
     7
100
AcDbLine
 10
280.2569829108
 20
302.9222170301
 30
0.0
 11
280.2569829108
 21
255.7029934365
 31
0.0
  0
LINE
  5
164
330
EE
100
AcDbEntity
  8
$DDT_AUDIT_GENERATED_(AC)
  6
Continuous
 62
     7
100
AcDbLine
 10
273.4995185359
 20
253.6232391395
 30
0.0
 11
279.8782507233
 21
255.2179221864
 31
0.0
  0
LINE
  5
165
330
EE
100
AcDbEntity
  8
$DDT_AUDIT_GENERATED_(AC)
  6
Continuous
 62
     7
100
AcDbLine
 10
279.8782507233
 20
303.4072882801
 30
0.0
 11
273.4995185359
 21
305.001971327
 31
0.0
  0
LINE
  5
166
330
EE
100
AcDbEntity
  8
$DDT_AUDIT_GENERATED_(AC)
  6
Continuous
 62
     7
100
AcDbLine
 10
280.7569829108
 20
259.8126052333
 30
0.0
 11
281.1569829108
 21
259.8126052333
 31
0.0
  0
LINE
  5
167
330
EE
100
AcDbEntity
  8
$DDT_AUDIT_GENERATED_(AC)
  6
Continuous
 62
     7
100
AcDbLine
 10
281.1569829108
 20
298.8126052333
 30
0.0
 11
280.7569829108
 21
298.8126052333
 31
0.0
  0
ARC
  5
168
330
EE
100
AcDbEntity
  8
$DDT_AUDIT_GENERATED_(AC)
  6
Continuous
 62
     7
100
AcDbCircle
 10
280.7569829108
 20
299.3126052333
 30
0.0
 40
0.5000000000000004
100
AcDbArc
 50
180.0
 51
270.0
  0
ARC
  5
169
330
EE
100
AcDbEntity
  8
$DDT_AUDIT_GENERATED_(AC)
  6
Continuous
 62
     7
100
AcDbCircle
 10
280.7569829108
 20
259.3126052333
 30
0.0
 40
0.5000000000000004
100
AcDbArc
 50
90.0
 51
180.0
  0
ARC
  5
16A
330
EE
100
AcDbEntity
  8
$DDT_AUDIT_GENERATED_(AC)
  6
Continuous
 62
     7
100
AcDbCircle
 10
279.7569829108
 20
302.9222170301
 30
0.0
 40
0.5000000000000004
100
AcDbArc
 50
0.0
 51
75.9637565321
  0
ARC
  5
16B
330
EE
100
AcDbEntity
  8
$DDT_AUDIT_GENERATED_(AC)
  6
Continuous
 62
     7
100
AcDbCircle
 10
279.7569829108
 20
255.7029934365
 30
0.0
 40
0.5000000000000063
100
AcDbArc
 50
284.0362434679
 51
0.0
  0
ARC
  5
16C
330
EE
100
AcDbEntity
  8
$DDT_AUDIT_GENERATED_(AC)
  6
Continuous
 62
     7
100
AcDbCircle
 10
273.2569829108
 20
254.5933816397
 30
0.0
 40
0.9999999999993732
100
AcDbArc
 50
194.0362434681
 51
284.0362434679
  0
ARC
  5
16D
330
EE
100
AcDbEntity
  8
$DDT_AUDIT_GENERATED_(AC)
  6
Continuous
 62
     7
100
AcDbCircle
 10
273.2569829108
 20
304.0318288269
 30
0.0
 40
1.000000000000002
100
AcDbArc
 50
75.9637565321
 51
165.9637565319
  0
LINE
  5
16E
330
EE
100
AcDbEntity
  8
$DDT_AUDIT_GENERATED_(AC)
  6
Continuous
 62
     7
100
AcDbLine
 10
272.2719116608
 20
301.4126052333
 30
0.0
 11
272.2569829108
 21
301.4126052333
 31
0.0
  0
LINE
  5
16F
330
EE
100
AcDbEntity
  8
$DDT_AUDIT_GENERATED_(AC)
  6
Continuous
 62
     7
100
AcDbLine
 10
272.2569829108
 20
257.2126052333
 30
0.0
 11
272.2719116608
 21
257.2126052333
 31
0.0
  0
ARC
  5
170
330
EE
100
AcDbEntity
  8
$DDT_AUDIT_GENERATED_(AC)
  6
Continuous
 62
     7
100
AcDbCircle
 10
272.7719116608
 20
254.4721138272
 30
0.0
 40
0.5000000000000004
100
AcDbArc
 50
180.0
 51
194.0362434682
  0
ARC
  5
171
330
EE
100
AcDbEntity
  8
$DDT_AUDIT_GENERATED_(AC)
  6
Continuous
 62
     7
100
AcDbCircle
 10
272.7719116608
 20
304.1530966394
 30
0.0
 40
0.4999999999993727
100
AcDbArc
 50
165.9637565318
 51
180.0
  0
LINE
  5
172
330
EE
100
AcDbEntity
  8
$DDT_AUDIT_GENERATED_(AC)
  6
Continuous
 62
     7
100
AcDbLine
 10
272.2719116608
 20
304.1530966394
 30
0.0
 11
272.2719116608
 21
254.4721138272
 31
0.0
  0
LINE
  5
173
330
EE
100
AcDbEntity
  8
$DDT_AUDIT_GENERATED_(B1)
  6
Continuous
 62
     7
100
AcDbLine
 10
266.9569829108
 20
219.8126052333
 30
0.0
 11
255.4569829108
 21
219.8126052333
 31
0.0
  0
LINE
  5
174
330
EE
100
AcDbEntity
  8
$DDT_AUDIT_GENERATED_(B1)
  6
Continuous
 62
     7
100
AcDbLine
 10
255.4569829108
 20
221.6126052333
 30
0.0
 11
255.4569829108
 21
414.5126052333
 31
0.0
  0
LINE
  5
175
330
EE
100
AcDbEntity
  8
$DDT_AUDIT_GENERATED_(B1)
  6
Continuous
 62
     7
100
AcDbLine
 10
255.4569829108
 20
414.5126052333
 30
0.0
 11
255.4569829108
 21
416.3126052333
 31
0.0
  0
LINE
  5
176
330
EE
100
AcDbEntity
  8
$DDT_AUDIT_GENERATED_(B1)
  6
Continuous
 62
     7
100
AcDbLine
 10
255.4569829108
 20
219.8126052333
 30
0.0
 11
255.4569829108
 21
221.6126052333
 31
0.0
  0
LINE
  5
177
330
EE
100
AcDbEntity
  8
$DDT_AUDIT_GENERATED_(B1)
  6
Continuous
 62
     7
100
AcDbLine
 10
268.7569829108
 20
414.5126052333
 30
0.0
 11
268.7569829108
 21
221.6126052333
 31
0.0
  0
LINE
  5
178
330
EE
100
AcDbEntity
  8
$DDT_AUDIT_GENERATED_(B1)
  6
Continuous
 62
     7
100
AcDbLine
 10
255.4569829108
 20
416.3126052333
 30
0.0
 11
266.9569829108
 21
416.3126052333
 31
0.0
  0
ARC
  5
179
330
EE
100
AcDbEntity
  8
$DDT_AUDIT_GENERATED_(B1)
  6
Continuous
 62
     7
100
AcDbCircle
 10
266.9569829108
 20
414.5126052333
 30
0.0
 40
1.799999999999996
100
AcDbArc
 50
0.0
 51
90.0
  0
ARC
  5
17A
330
EE
100
AcDbEntity
  8
$DDT_AUDIT_GENERATED_(B1)
  6
Continuous
 62
     7
100
AcDbCircle
 10
266.9569829108
 20
221.6126052333
 30
0.0
 40
1.799999999999996
100
AcDbArc
 50
270.0
 51
0.0
  0
LINE
  5
17B
330
EE
100
AcDbEntity
  8
$DDT_AUDIT_GENERATED_(C2)
  6
Continuous
 62
     7
100
AcDbLine
 10
280.3069829108
 20
340.7126052333
 30
0.0
 11
280.3069829108
 21
387.9126052333
 31
0.0
  0
LINE
  5
17C
330
EE
100
AcDbEntity
  8
$DDT_AUDIT_GENERATED_(C2)
  6
Continuous
 62
     7
100
AcDbLine
 10
273.5264951059
 20
338.7869954772
 30
0.0
 11
279.9167390084
 21
340.2248003552
 31
0.0
  0
LINE
  5
17D
330
EE
100
AcDbEntity
  8
$DDT_AUDIT_GENERATED_(C2)
  6
Continuous
 62
     7
100
AcDbLine
 10
279.9167390084
 20
388.4004101113
 30
0.0
 11
273.5264951059
 21
389.8382149894
 31
0.0
  0
LINE
  5
17E
330
EE
100
AcDbEntity
  8
$DDT_AUDIT_GENERATED_(C2)
  6
Continuous
 62
     7
100
AcDbLine
 10
280.8069829108
 20
344.8126052333
 30
0.0
 11
281.4069829108
 21
344.8126052333
 31
0.0
  0
LINE
  5
17F
330
EE
100
AcDbEntity
  8
$DDT_AUDIT_GENERATED_(C2)
  6
Continuous
 62
     7
100
AcDbLine
 10
281.4069829108
 20
383.8126052333
 30
0.0
 11
280.8069829108
 21
383.8126052333
 31
0.0
  0
ARC
  5
180
330
EE
100
AcDbEntity
  8
$DDT_AUDIT_GENERATED_(C2)
  6
Continuous
 62
     7
100
AcDbCircle
 10
280.8069829108
 20
384.3126052333
 30
0.0
 40
0.5000000000000004
100
AcDbArc
 50
180.0
 51
270.0
  0
ARC
  5
181
330
EE
100
AcDbEntity
  8
$DDT_AUDIT_GENERATED_(C2)
  6
Continuous
 62
     7
100
AcDbCircle
 10
280.8069829108
 20
344.3126052333
 30
0.0
 40
0.5000000000000004
100
AcDbArc
 50
90.0
 51
180.0
  0
ARC
  5
182
330
EE
100
AcDbEntity
  8
$DDT_AUDIT_GENERATED_(C2)
  6
Continuous
 62
     7
100
AcDbCircle
 10
279.8069829108
 20
387.9126052333
 30
0.0
 40
0.5000000000000004
100
AcDbArc
 50
0.0
 51
77.3196165082
  0
ARC
  5
183
330
EE
100
AcDbEntity
  8
$DDT_AUDIT_GENERATED_(C2)
  6
Continuous
 62
     7
100
AcDbCircle
 10
279.8069829108
 20
340.7126052333
 30
0.0
 40
0.5000000000000004
100
AcDbArc
 50
282.6803834918
 51
0.0
  0
ARC
  5
184
330
EE
100
AcDbEntity
  8
$DDT_AUDIT_GENERATED_(C2)
  6
Continuous
 62
     7
100
AcDbCircle
 10
273.3069829108
 20
339.7626052333
 30
0.0
 40
0.9999999999992558
100
AcDbArc
 50
192.6803834916
 51
282.6803834918
  0
ARC
  5
185
330
EE
100
AcDbEntity
  8
$DDT_AUDIT_GENERATED_(C2)
  6
Continuous
 62
     7
100
AcDbCircle
 10
273.3069829108
 20
388.8626052333
 30
0.0
 40
1.000000000000001
100
AcDbArc
 50
77.3196165082
 51
167.3196165084
  0
LINE
  5
186
330
EE
100
AcDbEntity
  8
$DDT_AUDIT_GENERATED_(C2)
  6
Continuous
 62
     7
100
AcDbLine
 10
272.3191780328
 20
386.4126052333
 30
0.0
 11
272.3069829108
 21
386.4126052333
 31
0.0
  0
LINE
  5
187
330
EE
100
AcDbEntity
  8
$DDT_AUDIT_GENERATED_(C2)
  6
Continuous
 62
     7
100
AcDbLine
 10
272.3069829108
 20
342.2126052333
 30
0.0
 11
272.3191780328
 21
342.2126052333
 31
0.0
  0
ARC
  5
188
330
EE
100
AcDbEntity
  8
$DDT_AUDIT_GENERATED_(C2)
  6
Continuous
 62
     7
100
AcDbCircle
 10
272.8191780328
 20
339.6528491357
 30
0.0
 40
0.5000000000000004
100
AcDbArc
 50
180.0
 51
192.6803834918
  0
ARC
  5
189
330
EE
100
AcDbEntity
  8
$DDT_AUDIT_GENERATED_(C2)
  6
Continuous
 62
     7
100
AcDbCircle
 10
272.8191780328
 20
388.9723613308
 30
0.0
 40
0.4999999999992432
100
AcDbArc
 50
167.3196165082
 51
180.0
  0
LINE
  5
18A
330
EE
100
AcDbEntity
  8
$DDT_AUDIT_GENERATED_(C2)
  6
Continuous
 62
     7
100
AcDbLine
 10
272.3191780328
 20
388.9723613308
 30
0.0
 11
272.3191780328
 21
339.6528491357
 31
0.0
  0
LINE
  5
18B
330
EE
100
AcDbEntity
  8
$DDT_AUDIT_GENERATED_(C7)
  6
Continuous
 62
     7
100
AcDbLine
 10
331.6069829108
 20
391.0126052333
 30
0.0
 11
331.6069829108
 21
390.2037566885
 31
0.0
  0
LINE
  5
18C
330
EE
100
AcDbEntity
  8
$DDT_AUDIT_GENERATED_(C7)
  6
Continuous
 62
     7
100
AcDbLine
 10
331.6069829108
 20
390.2037566885
 30
0.0
 11
331.6069829108
 21
389.718903665
 31
0.0
  0
LINE
  5
18D
330
EE
100
AcDbEntity
  8
$DDT_AUDIT_GENERATED_(C7)
  6
Continuous
 62
     7
100
AcDbLine
 10
331.6069829108
 20
389.718903665
 30
0.0
 11
331.6069829108
 21
375.8596106171
 31
0.0
  0
LINE
  5
18E
330
EE
100
AcDbEntity
  8
$DDT_AUDIT_GENERATED_(C7)
  6
Continuous
 62
     7
100
AcDbLine
 10
331.6069829108
 20
375.8596106171
 30
0.0
 11
331.6069829108
 21
364.5146778275
 31
0.0
  0
LINE
  5
18F
330
EE
100
AcDbEntity
  8
$DDT_AUDIT_GENERATED_(C7)
  6
Continuous
 62
     7
100
AcDbLine
 10
331.6069829108
 20
364.5146778275
 30
0.0
 11
331.6069829108
 21
357.5850313035
 31
0.0
  0
LINE
  5
190
330
EE
100
AcDbEntity
  8
$DDT_AUDIT_GENERATED_(C7)
  6
Continuous
 62
     7
100
AcDbLine
 10
331.6069829108
 20
357.5850313035
 30
0.0
 11
331.6069829108
 21
357.015366185
 31
0.0
  0
LINE
  5
191
330
EE
100
AcDbEntity
  8
$DDT_AUDIT_GENERATED_(C7)
  6
Continuous
 62
     7
100
AcDbLine
 10
331.6069829108
 20
357.015366185
 30
0.0
 11
331.6069829108
 21
345.7186928263
 31
0.0
  0
LINE
  5
192
330
EE
100
AcDbEntity
  8
$DDT_AUDIT_GENERATED_(C7)
  6
Continuous
 62
     7
100
AcDbLine
 10
331.6069829108
 20
345.7186928263
 30
0.0
 11
331.6069829108
 21
345.5668934332
 31
0.0
  0
LINE
  5
193
330
EE
100
AcDbEntity
  8
$DDT_AUDIT_GENERATED_(C7)
  6
Continuous
 62
     7
100
AcDbLine
 10
327.4069829108
 20
390.3976978979
 30
0.0
 11
327.4069829108
 21
390.5087692943
 31
0.0
  0
LINE
  5
194
330
EE
100
AcDbEntity
  8
$DDT_AUDIT_GENERATED_(C7)
  6
Continuous
 62
     7
100
AcDbLine
 10
327.4069829108
 20
389.718903665
 30
0.0
 11
327.4069829108
 21
390.3976978979
 31
0.0
  0
LINE
  5
195
330
EE
100
AcDbEntity
  8
$DDT_AUDIT_GENERATED_(C7)
  6
Continuous
 62
     7
100
AcDbLine
 10
327.4069829108
 20
386.3535674045
 30
0.0
 11
327.4069829108
 21
389.718903665
 31
0.0
  0
LINE
  5
196
330
EE
100
AcDbEntity
  8
$DDT_AUDIT_GENERATED_(C7)
  6
Continuous
 62
     7
100
AcDbLine
 10
327.4069829108
 20
357.7582363843
 30
0.0
 11
327.4069829108
 21
359.8969619979
 31
0.0
  0
LINE
  5
197
330
EE
100
AcDbEntity
  8
$DDT_AUDIT_GENERATED_(C7)
  6
Continuous
 62
     7
100
AcDbLine
 10
327.4069829108
 20
356.9607052184
 30
0.0
 11
327.4069829108
 21
357.7582363843
 31
0.0
  0
LINE
  5
198
330
EE
100
AcDbEntity
  8
$DDT_AUDIT_GENERATED_(C7)
  6
Continuous
 62
     7
100
AcDbLine
 10
327.4069829108
 20
356.9008335254
 30
0.0
 11
327.4069829108
 21
356.9607052184
 31
0.0
  0
LINE
  5
199
330
EE
100
AcDbEntity
  8
$DDT_AUDIT_GENERATED_(C7)
  6
Continuous
 62
     7
100
AcDbLine
 10
327.4069829108
 20
345.3668934332
 30
0.0
 11
327.4069829108
 21
345.5282128802
 31
0.0
  0
LINE
  5
19A
330
EE
100
AcDbEntity
  8
$DDT_AUDIT_GENERATED_(C7)
  6
Continuous
 62
     7
100
AcDbLine
 10
331.1069829108
 20
391.5126052333
 30
0.0
 11
327.7069829108
 21
391.5126052333
 31
0.0
  0
LINE
  5
19B
330
EE
100
AcDbEntity
  8
$DDT_AUDIT_GENERATED_(C7)
  6
Continuous
 62
     7
100
AcDbLine
 10
327.7069829108
 20
345.0668934332
 30
0.0
 11
331.1069829108
 21
345.0668934332
 31
0.0
  0
ARC
  5
19C
330
EE
100
AcDbEntity
  8
$DDT_AUDIT_GENERATED_(C7)
  6
Continuous
 62
     7
100
AcDbCircle
 10
331.1069829108
 20
391.0126052333
 30
0.0
 40
0.5000000000000004
100
AcDbArc
 50
0.0
 51
90.0
  0
ARC
  5
19D
330
EE
100
AcDbEntity
  8
$DDT_AUDIT_GENERATED_(C7)
  6
Continuous
 62
     7
100
AcDbCircle
 10
331.1069829108
 20
345.5668934332
 30
0.0
 40
0.5000000000000004
100
AcDbArc
 50
270.0
 51
0.0
  0
ARC
  5
19E
330
EE
100
AcDbEntity
  8
$DDT_AUDIT_GENERATED_(C7)
  6
Continuous
 62
     7
100
AcDbCircle
 10
327.7069829108
 20
391.2126052333
 30
0.0
 40
0.3000000000000086
100
AcDbArc
 50
90.0
 51
180.0
  0
ARC
  5
19F
330
EE
100
AcDbEntity
  8
$DDT_AUDIT_GENERATED_(C7)
  6
Continuous
 62
     7
100
AcDbCircle
 10
327.7069829108
 20
345.3668934332
 30
0.0
 40
0.2999999999999947
100
AcDbArc
 50
180.0
 51
270.0
  0
LINE
  5
1A0
330
EE
100
AcDbEntity
  8
$DDT_AUDIT_GENERATED_(C7)
  6
Continuous
 62
     7
100
AcDbLine
 10
331.3569829108
 20
306.0126052333
 30
0.0
 11
331.3569829108
 21
305.2037566885
 31
0.0
  0
LINE
  5
1A1
330
EE
100
AcDbEntity
  8
$DDT_AUDIT_GENERATED_(C7)
  6
Continuous
 62
     7
100
AcDbLine
 10
331.3569829108
 20
305.2037566885
 30
0.0
 11
331.3569829108
 21
304.718903665
 31
0.0
  0
LINE
  5
1A2
330
EE
100
AcDbEntity
  8
$DDT_AUDIT_GENERATED_(C7)
  6
Continuous
 62
     7
100
AcDbLine
 10
331.3569829108
 20
304.718903665
 30
0.0
 11
331.3569829108
 21
290.8596106171
 31
0.0
  0
LINE
  5
1A3
330
EE
100
AcDbEntity
  8
$DDT_AUDIT_GENERATED_(C7)
  6
Continuous
 62
     7
100
AcDbLine
 10
331.3569829108
 20
290.8596106171
 30
0.0
 11
331.3569829108
 21
279.5146778275
 31
0.0
  0
LINE
  5
1A4
330
EE
100
AcDbEntity
  8
$DDT_AUDIT_GENERATED_(C7)
  6
Continuous
 62
     7
100
AcDbLine
 10
331.3569829108
 20
279.5146778275
 30
0.0
 11
331.3569829108
 21
272.5850313035
 31
0.0
  0
LINE
  5
1A5
330
EE
100
AcDbEntity
  8
$DDT_AUDIT_GENERATED_(C7)
  6
Continuous
 62
     7
100
AcDbLine
 10
331.3569829108
 20
272.5850313035
 30
0.0
 11
331.3569829108
 21
272.015366185
 31
0.0
  0
LINE
  5
1A6
330
EE
100
AcDbEntity
  8
$DDT_AUDIT_GENERATED_(C7)
  6
Continuous
 62
     7
100
AcDbLine
 10
331.3569829108
 20
272.015366185
 30
0.0
 11
331.3569829108
 21
260.7186928263
 31
0.0
  0
LINE
  5
1A7
330
EE
100
AcDbEntity
  8
$DDT_AUDIT_GENERATED_(C7)
  6
Continuous
 62
     7
100
AcDbLine
 10
331.3569829108
 20
260.7186928263
 30
0.0
 11
331.3569829108
 21
260.5668934332
 31
0.0
  0
LINE
  5
1A8
330
EE
100
AcDbEntity
  8
$DDT_AUDIT_GENERATED_(C7)
  6
Continuous
 62
     7
100
AcDbLine
 10
327.1569829108
 20
305.3976978979
 30
0.0
 11
327.1569829108
 21
305.5087692943
 31
0.0
  0
LINE
  5
1A9
330
EE
100
AcDbEntity
  8
$DDT_AUDIT_GENERATED_(C7)
  6
Continuous
 62
     7
100
AcDbLine
 10
327.1569829108
 20
304.718903665
 30
0.0
 11
327.1569829108
 21
305.3976978979
 31
0.0
  0
LINE
  5
1AA
330
EE
100
AcDbEntity
  8
$DDT_AUDIT_GENERATED_(C7)
  6
Continuous
 62
     7
100
AcDbLine
 10
327.1569829108
 20
301.3535674045
 30
0.0
 11
327.1569829108
 21
304.718903665
 31
0.0
  0
LINE
  5
1AB
330
EE
100
AcDbEntity
  8
$DDT_AUDIT_GENERATED_(C7)
  6
Continuous
 62
     7
100
AcDbLine
 10
327.1569829108
 20
272.7582363843
 30
0.0
 11
327.1569829108
 21
274.8969619979
 31
0.0
  0
LINE
  5
1AC
330
EE
100
AcDbEntity
  8
$DDT_AUDIT_GENERATED_(C7)
  6
Continuous
 62
     7
100
AcDbLine
 10
327.1569829108
 20
271.9607052184
 30
0.0
 11
327.1569829108
 21
272.7582363843
 31
0.0
  0
LINE
  5
1AD
330
EE
100
AcDbEntity
  8
$DDT_AUDIT_GENERATED_(C7)
  6
Continuous
 62
     7
100
AcDbLine
 10
327.1569829108
 20
271.9008335254
 30
0.0
 11
327.1569829108
 21
271.9607052184
 31
0.0
  0
LINE
  5
1AE
330
EE
100
AcDbEntity
  8
$DDT_AUDIT_GENERATED_(C7)
  6
Continuous
 62
     7
100
AcDbLine
 10
327.1569829108
 20
260.3668934332
 30
0.0
 11
327.1569829108
 21
260.5282128802
 31
0.0
  0
LINE
  5
1AF
330
EE
100
AcDbEntity
  8
$DDT_AUDIT_GENERATED_(C7)
  6
Continuous
 62
     7
100
AcDbLine
 10
330.8569829108
 20
306.5126052333
 30
0.0
 11
327.4569829108
 21
306.5126052333
 31
0.0
  0
LINE
  5
1B0
330
EE
100
AcDbEntity
  8
$DDT_AUDIT_GENERATED_(C7)
  6
Continuous
 62
     7
100
AcDbLine
 10
327.4569829108
 20
260.0668934332
 30
0.0
 11
330.8569829108
 21
260.0668934332
 31
0.0
  0
ARC
  5
1B1
330
EE
100
AcDbEntity
  8
$DDT_AUDIT_GENERATED_(C7)
  6
Continuous
 62
     7
100
AcDbCircle
 10
330.8569829108
 20
306.0126052333
 30
0.0
 40
0.5000000000000004
100
AcDbArc
 50
0.0
 51
90.0
  0
ARC
  5
1B2
330
EE
100
AcDbEntity
  8
$DDT_AUDIT_GENERATED_(C7)
  6
Continuous
 62
     7
100
AcDbCircle
 10
330.8569829108
 20
260.5668934332
 30
0.0
 40
0.5000000000000004
100
AcDbArc
 50
270.0
 51
0.0
  0
ARC
  5
1B3
330
EE
100
AcDbEntity
  8
$DDT_AUDIT_GENERATED_(C7)
  6
Continuous
 62
     7
100
AcDbCircle
 10
327.4569829108
 20
306.2126052333
 30
0.0
 40
0.3000000000000017
100
AcDbArc
 50
90.0
 51
180.0
  0
ARC
  5
1B4
330
EE
100
AcDbEntity
  8
$DDT_AUDIT_GENERATED_(C7)
  6
Continuous
 62
     7
100
AcDbCircle
 10
327.4569829108
 20
260.3668934332
 30
0.0
 40
0.2999999999999947
100
AcDbArc
 50
180.0
 51
270.0
  0
LINE
  5
1B6
330
EE
100
AcDbEntity
  8
DV2_Standard
  6
Continuous
 62
     7
100
AcDbLine
 10
270.3069829108
 20
390.5626052333
 30
0.0
 11
268.7569829108
 21
390.5626052333
 31
0.0
  0
LINE
  5
1B7
330
EE
100
AcDbEntity
  8
DV2_Standard
  6
Continuous
 62
     7
100
AcDbLine
 10
270.3069829108
 20
338.0626052333
 30
0.0
 11
268.7569829108
 21
338.0626052333
 31
0.0
  0
LINE
  5
1B8
330
EE
100
AcDbEntity
  8
DV2_Standard
  6
Continuous
 62
     7
100
AcDbLine
 10
270.2569829108
 20
305.5626052333
 30
0.0
 11
268.7569829108
 21
305.5626052333
 31
0.0
  0
LINE
  5
1B9
330
EE
100
AcDbEntity
  8
DV2_Standard
  6
Continuous
 62
     7
100
AcDbLine
 10
270.2569829108
 20
253.0626052333
 30
0.0
 11
268.7569829108
 21
253.0626052333
 31
0.0
  0
ENDBLK
  5
1BB
330
EE
100
AcDbEntity
  8
0
100
AcDbBlockEnd
  0
BLOCK
  5
256
330
1BC
100
AcDbEntity
  8
0
100
AcDbBlockBegin
  2
SE2
 70
     0
 10
0.0
 20
0.0
 30
0.0
  3
SE2
  1

  0
LINE
  5
1BE
330
1BC
100
AcDbEntity
  8
$DDT_AUDIT_GENERATED_(F0)
  6
Continuous
 62
     7
100
AcDbLine
 10
131.4246890062
 20
167.65
 30
0.0
 11
78.9246890062
 21
167.65
 31
0.0
  0
LINE
  5
1BF
330
1BC
100
AcDbEntity
  8
$DDT_AUDIT_GENERATED_(F0)
  6
Continuous
 62
     7
100
AcDbLine
 10
129.4246890062
 20
165.65
 30
0.0
 11
80.9246890062
 21
165.65
 31
0.0
  0
ARC
  5
1C0
330
1BC
100
AcDbEntity
  8
$DDT_AUDIT_GENERATED_(F0)
  6
Continuous
 62
     7
100
AcDbCircle
 10
80.9246890062
 20
167.65
 30
0.0
 40
1.999999999999998
100
AcDbArc
 50
180.0
 51
270.0
  0
ARC
  5
1C1
330
1BC
100
AcDbEntity
  8
$DDT_AUDIT_GENERATED_(F0)
  6
Continuous
 62
     7
100
AcDbCircle
 10
129.4246890062
 20
167.65
 30
0.0
 40
2.000000000000002
100
AcDbArc
 50
270.0
 51
0.0
  0
LINE
  5
1C2
330
1BC
100
AcDbEntity
  8
$DDT_AUDIT_GENERATED_(60)
  6
Continuous
 62
     7
100
AcDbLine
 10
81.1746890062
 20
156.8
 30
0.0
 11
78.47621913
 21
156.8
 31
0.0
  0
LINE
  5
1C3
330
1BC
100
AcDbEntity
  8
$DDT_AUDIT_GENERATED_(60)
  6
Continuous
 62
     7
100
AcDbLine
 10
81.1746890062
 20
156.8
 30
0.0
 11
85.6746890062
 21
156.8
 31
0.0
  0
LINE
  5
1C4
330
1BC
100
AcDbEntity
  8
$DDT_AUDIT_GENERATED_(60)
  6
Continuous
 62
     7
100
AcDbLine
 10
124.6746890062
 20
156.8
 30
0.0
 11
129.1746890062
 21
156.8
 31
0.0
  0
LINE
  5
1C5
330
1BC
100
AcDbEntity
  8
$DDT_AUDIT_GENERATED_(60)
  6
Continuous
 62
     7
100
AcDbLine
 10
77.9913506871
 20
156.8
 30
0.0
 11
78.47621913
 21
156.8
 31
0.0
  0
LINE
  5
1C6
330
1BC
100
AcDbEntity
  8
$DDT_AUDIT_GENERATED_(60)
  6
Continuous
 62
     7
100
AcDbLine
 10
131.8731588824
 20
156.8
 30
0.0
 11
129.1746890062
 21
156.8
 31
0.0
  0
LINE
  5
1C7
330
1BC
100
AcDbEntity
  8
$DDT_AUDIT_GENERATED_(60)
  6
Continuous
 62
     7
100
AcDbLine
 10
131.8731588824
 20
156.8
 30
0.0
 11
132.3579312118
 21
156.8
 31
0.0
  0
LINE
  5
1C8
330
1BC
100
AcDbEntity
  8
$DDT_AUDIT_GENERATED_(60)
  6
Continuous
 62
     7
100
AcDbLine
 10
81.1746890062
 20
156.8
 30
0.0
 11
81.1779616855
 21
156.55
 31
0.0
  0
LINE
  5
1C9
330
1BC
100
AcDbEntity
  8
$DDT_AUDIT_GENERATED_(60)
  6
Continuous
 62
     7
100
AcDbLine
 10
129.171416327
 20
156.55
 30
0.0
 11
129.1746890062
 21
156.8
 31
0.0
  0
LINE
  5
1CA
330
1BC
100
AcDbEntity
  8
$DDT_AUDIT_GENERATED_(60)
  6
Continuous
 62
     7
100
AcDbLine
 10
77.9918888598
 20
156.7998634149
 30
0.0
 11
77.9953054516
 21
156.5767486029
 31
0.0
  0
LINE
  5
1CB
330
1BC
100
AcDbEntity
  8
$DDT_AUDIT_GENERATED_(60)
  6
Continuous
 62
     7
100
AcDbLine
 10
132.3520508047
 20
156.5760272906
 30
0.0
 11
132.3554603425
 21
156.8000071541
 31
0.0
  0
LINE
  5
1CC
330
1BC
100
AcDbEntity
  8
$DDT_AUDIT_GENERATED_(60)
  6
Continuous
 62
     7
100
AcDbLine
 10
103.425115315
 20
156.55
 30
0.0
 11
97.8830856607
 21
156.55
 31
0.0
  0
LINE
  5
1CD
330
1BC
100
AcDbEntity
  8
$DDT_AUDIT_GENERATED_(60)
  6
Continuous
 62
     7
100
AcDbLine
 10
103.425115315
 20
156.55
 30
0.0
 11
103.4261774223
 21
151.9057902502
 31
0.0
  0
ARC
  5
1CE
330
1BC
100
AcDbEntity
  8
$DDT_AUDIT_GENERATED_(60)
  6
Continuous
 62
     7
100
AcDbCircle
 10
105.1746890062
 20
169.6813112837
 30
0.0
 40
17.86131128366016
100
AcDbArc
 50
264.3821011936
 51
275.6178988064
  0
LINE
  5
1CF
330
1BC
100
AcDbEntity
  8
$DDT_AUDIT_GENERATED_(60)
  6
Continuous
 62
     7
100
AcDbLine
 10
106.9242626974
 20
156.55
 30
0.0
 11
106.9232005902
 21
151.9057902502
 31
0.0
  0
LINE
  5
1D0
330
1BC
100
AcDbEntity
  8
$DDT_AUDIT_GENERATED_(60)
  6
Continuous
 62
     7
100
AcDbLine
 10
106.9007623524
 20
156.55
 30
0.0
 11
103.4486156601
 21
156.55
 31
0.0
  0
LINE
  5
1D1
330
1BC
100
AcDbEntity
  8
$DDT_AUDIT_GENERATED_(60)
  6
Continuous
 62
     7
100
AcDbLine
 10
103.4486156601
 20
156.55
 30
0.0
 11
103.425115315
 21
156.55
 31
0.0
  0
ELLIPSE
  5
1D2
330
1BC
100
AcDbEntity
  8
$DDT_AUDIT_GENERATED_(60)
  6
Continuous
 62
     7
100
AcDbEllipse
 10
107.0522627381
 20
156.4524015387
 30
0.0
 11
0.0
 21
0.1802160550645826
 31
0.0
210
0.0
220
0.0
230
1.0
 40
1.0
 41
0.9985003236898651
 42
3.113213825770499
  0
LINE
  5
1D3
330
1BC
100
AcDbEntity
  8
$DDT_AUDIT_GENERATED_(60)
  6
Continuous
 62
     7
100
AcDbLine
 10
106.9007623524
 20
156.55
 30
0.0
 11
106.9242626974
 21
156.55
 31
0.0
  0
ELLIPSE
  5
1D4
330
1BC
100
AcDbEntity
  8
$DDT_AUDIT_GENERATED_(60)
  6
Continuous
 62
     7
100
AcDbEllipse
 10
103.2971152744
 20
156.4524015387
 30
0.0
 11
0.0
 21
4.548442727683356
 31
0.0
210
0.0
220
0.0
230
1.0
 40
1.0
 41
3.169971481409085
 42
5.284684983489721
  0
LINE
  5
1D5
330
1BC
100
AcDbEntity
  8
$DDT_AUDIT_GENERATED_(60)
  6
Continuous
 62
     7
100
AcDbLine
 10
97.6749830796
 20
110.5550220331
 30
0.0
 11
97.6730555998
 21
110.5182435267
 31
0.0
  0
ARC
  5
1D6
330
1BC
100
AcDbEntity
  8
$DDT_AUDIT_GENERATED_(60)
  6
Continuous
 62
     7
100
AcDbCircle
 10
94.2894703983
 20
228.1107517133
 30
0.0
 40
118.724691881253
100
AcDbArc
 50
268.5328568854
 51
271.4671431146
  0
ELLIPSE
  5
1D7
330
1BC
100
AcDbEntity
  8
$DDT_AUDIT_GENERATED_(60)
  6
Continuous
 62
     7
100
AcDbEllipse
 10
97.3310698672
 20
109.7249638003
 30
0.0
 11
-0.2995888604240072
 21
0.01570078692042509
 31
0.0
210
0.0
220
0.0
230
1.0
 40
0.9999604486
 41
1.617119154238152
 42
3.141592653589813
  0
ELLIPSE
  5
1D8
330
1BC
100
AcDbEntity
  8
$DDT_AUDIT_GENERATED_(60)
  6
Continuous
 62
     7
100
AcDbEllipse
 10
75.1168111412
 20
1406.2010202992
 30
0.0
 11
135.3722177684952
 21
-1291.531865431372
 31
0.0
210
0.0
220
0.0
230
0.9999999999999999
 40
0.8648380363
 41
-0.0815071309677293
 42
-0.0799382658862209
  0
ARC
  5
1D9
330
1BC
100
AcDbEntity
  8
$DDT_AUDIT_GENERATED_(60)
  6
Continuous
 62
     7
100
AcDbCircle
 10
116.0599076141
 20
245.0313217727
 30
0.0
 40
135.6404067627168
100
AcDbArc
 50
268.7171535724
 51
271.2841428728
  0
LINE
  5
1DA
330
1BC
100
AcDbEntity
  8
$DDT_AUDIT_GENERATED_(60)
  6
Continuous
 62
     7
100
AcDbLine
 10
112.7187192849
 20
109.7092630134
 30
0.0
 11
112.7125222069
 21
109.8275103043
 31
0.0
  0
ELLIPSE
  5
1DB
330
1BC
100
AcDbEntity
  8
$DDT_AUDIT_GENERATED_(60)
  6
Continuous
 62
     7
100
AcDbEllipse
 10
113.0183081453
 20
109.7249638003
 30
0.0
 11
-0.2995888604180076
 21
-0.01570078703036493
 31
0.0
210
0.0
220
0.0
230
1.0
 40
0.9999604486
 41
0.0
 42
1.524473498984566
  0
LINE
  5
1DC
330
1BC
100
AcDbEntity
  8
$DDT_AUDIT_GENERATED_(60)
  6
Continuous
 62
     7
100
AcDbLine
 10
97.3336644987
 20
111.6874887691
 30
0.0
 11
96.7613348929
 21
156.55
 31
0.0
  0
LINE
  5
1DD
330
1BC
100
AcDbEntity
  8
$DDT_AUDIT_GENERATED_(60)
  6
Continuous
 62
     7
100
AcDbLine
 10
96.7613348929
 20
156.55
 30
0.0
 11
97.0859527166
 21
156.55
 31
0.0
  0
LINE
  5
1DE
330
1BC
100
AcDbEntity
  8
$DDT_AUDIT_GENERATED_(60)
  6
Continuous
 62
     7
100
AcDbLine
 10
81.1746890062
 20
156.55
 30
0.0
 11
78.47621913
 21
156.55
 31
0.0
  0
LINE
  5
1DF
330
1BC
100
AcDbEntity
  8
$DDT_AUDIT_GENERATED_(60)
  6
Continuous
 62
     7
100
AcDbLine
 10
81.1746890062
 20
156.55
 30
0.0
 11
96.7613348929
 21
156.55
 31
0.0
  0
LINE
  5
1E0
330
1BC
100
AcDbEntity
  8
$DDT_AUDIT_GENERATED_(60)
  6
Continuous
 62
     7
100
AcDbLine
 10
113.2634252959
 20
156.55
 30
0.0
 11
113.206609018
 21
156.55
 31
0.0
  0
LINE
  5
1E1
330
1BC
100
AcDbEntity
  8
$DDT_AUDIT_GENERATED_(60)
  6
Continuous
 62
     7
100
AcDbLine
 10
113.5880431196
 20
156.55
 30
0.0
 11
129.1746890062
 21
156.55
 31
0.0
  0
LINE
  5
1E2
330
1BC
100
AcDbEntity
  8
$DDT_AUDIT_GENERATED_(60)
  6
Continuous
 62
     7
100
AcDbLine
 10
113.5880431196
 20
156.55
 30
0.0
 11
113.0157135138
 21
111.6874887691
 31
0.0
  0
LINE
  5
1E3
330
1BC
100
AcDbEntity
  8
$DDT_AUDIT_GENERATED_(60)
  6
Continuous
 62
     7
100
AcDbLine
 10
113.2634252959
 20
156.55
 30
0.0
 11
113.5880431196
 21
156.55
 31
0.0
  0
LINE
  5
1E4
330
1BC
100
AcDbEntity
  8
$DDT_AUDIT_GENERATED_(60)
  6
Continuous
 62
     7
100
AcDbLine
 10
77.9913506871
 20
156.55
 30
0.0
 11
78.47621913
 21
156.55
 31
0.0
  0
LINE
  5
1E5
330
1BC
100
AcDbEntity
  8
$DDT_AUDIT_GENERATED_(60)
  6
Continuous
 62
     7
100
AcDbLine
 10
131.8731588824
 20
156.55
 30
0.0
 11
129.1746890062
 21
156.55
 31
0.0
  0
LINE
  5
1E6
330
1BC
100
AcDbEntity
  8
$DDT_AUDIT_GENERATED_(60)
  6
Continuous
 62
     7
100
AcDbLine
 10
131.8731588824
 20
156.55
 30
0.0
 11
132.3579312118
 21
156.55
 31
0.0
  0
ELLIPSE
  5
1E7
330
1BC
100
AcDbEntity
  8
$DDT_AUDIT_GENERATED_(60)
  6
Continuous
 62
     7
100
AcDbEllipse
 10
105.1746890062
 20
150.6203980549
 30
0.0
 11
28.0245500615215
 21
0.0
 31
0.0
210
0.0
220
0.0
230
1.0
 40
0.0087268678
 41
1.41973953277829
 42
1.721853120811522
  0
ARC
  5
1E8
330
1BC
100
AcDbEntity
  8
$DDT_AUDIT_GENERATED_(60)
  6
Continuous
 62
     7
100
AcDbCircle
 10
109.3896198778
 20
149.8615370853
 30
0.0
 40
1.00064515063887
100
AcDbArc
 50
359.9471264857
 51
89.8690587638
  0
LINE
  5
1E9
330
1BC
100
AcDbEntity
  8
$DDT_AUDIT_GENERATED_(60)
  6
Continuous
 62
     7
100
AcDbLine
 10
112.4662923518
 20
156.55
 30
0.0
 11
106.9242626974
 21
156.55
 31
0.0
  0
LINE
  5
1EA
330
1BC
100
AcDbEntity
  8
$DDT_AUDIT_GENERATED_(60)
  6
Continuous
 62
     7
100
AcDbLine
 10
112.4662923518
 20
156.55
 30
0.0
 11
113.206609018
 21
156.55
 31
0.0
  0
LINE
  5
1EB
330
1BC
100
AcDbEntity
  8
$DDT_AUDIT_GENERATED_(60)
  6
Continuous
 62
     7
100
AcDbLine
 10
99.95911341
 20
149.8606136731
 30
0.0
 11
99.9626567955
 21
119.3429125777
 31
0.0
  0
ARC
  5
1EC
330
1BC
100
AcDbEntity
  8
$DDT_AUDIT_GENERATED_(60)
  6
Continuous
 62
     7
100
AcDbCircle
 10
100.9600400244
 20
149.8612560983
 30
0.0
 40
1.000926820569327
100
AcDbArc
 50
90.1470405782
 51
180.0367741722
  0
LINE
  5
1ED
330
1BC
100
AcDbEntity
  8
$DDT_AUDIT_GENERATED_(60)
  6
Continuous
 62
     7
100
AcDbLine
 10
97.1427689945
 20
156.55
 30
0.0
 11
97.0859527166
 21
156.55
 31
0.0
  0
LINE
  5
1EE
330
1BC
100
AcDbEntity
  8
$DDT_AUDIT_GENERATED_(60)
  6
Continuous
 62
     7
100
AcDbLine
 10
97.1427689945
 20
156.55
 30
0.0
 11
97.8830856607
 21
156.55
 31
0.0
  0
LINE
  5
1EF
330
1BC
100
AcDbEntity
  8
$DDT_AUDIT_GENERATED_(60)
  6
Continuous
 62
     7
100
AcDbLine
 10
97.6368558055
 20
109.8275103043
 30
0.0
 11
97.6306587276
 21
109.7092630134
 31
0.0
  0
LINE
  5
1F0
330
1BC
100
AcDbEntity
  8
$DDT_AUDIT_GENERATED_(60)
  6
Continuous
 62
     7
100
AcDbLine
 10
97.6368558055
 20
109.8275103043
 30
0.0
 11
97.6730555998
 21
110.5182435267
 31
0.0
  0
ELLIPSE
  5
1F1
330
1BC
100
AcDbEntity
  8
$DDT_AUDIT_GENERATED_(60)
  6
Continuous
 62
     7
100
AcDbEllipse
 10
135.2325686295
 20
1406.2010474437
 30
0.0
 11
-135.3722163386266
 21
-1291.531892898486
 31
0.0
210
0.0
220
0.0
230
0.9999999999999999
 40
0.8648380273
 41
0.0799382620846882
 42
0.0815071272597401
  0
LINE
  5
1F2
330
1BC
100
AcDbEntity
  8
$DDT_AUDIT_GENERATED_(60)
  6
Continuous
 62
     7
100
AcDbLine
 10
112.6763224127
 20
110.5182435267
 30
0.0
 11
112.6743949328
 21
110.5550220331
 31
0.0
  0
LINE
  5
1F3
330
1BC
100
AcDbEntity
  8
$DDT_AUDIT_GENERATED_(60)
  6
Continuous
 62
     7
100
AcDbLine
 10
112.6763224127
 20
110.5182435267
 30
0.0
 11
112.7125222069
 21
109.8275103043
 31
0.0
  0
LINE
  5
1F4
330
1BC
100
AcDbEntity
  8
$DDT_AUDIT_GENERATED_(60)
  6
Continuous
 62
     7
100
AcDbLine
 10
79.4284160322
 20
110.55
 30
0.0
 11
79.2461751771
 21
110.55
 31
0.0
  0
LINE
  5
1F5
330
1BC
100
AcDbEntity
  8
$DDT_AUDIT_GENERATED_(60)
  6
Continuous
 62
     7
100
AcDbLine
 10
112.6746581264
 20
110.55
 30
0.0
 11
112.1750850556
 21
110.55
 31
0.0
  0
LINE
  5
1F6
330
1BC
100
AcDbEntity
  8
$DDT_AUDIT_GENERATED_(60)
  6
Continuous
 62
     7
100
AcDbLine
 10
112.1190029804
 20
110.55
 30
0.0
 11
111.7406745972
 21
110.55
 31
0.0
  0
LINE
  5
1F7
330
1BC
100
AcDbEntity
  8
$DDT_AUDIT_GENERATED_(60)
  6
Continuous
 62
     7
100
AcDbLine
 10
111.7406745972
 20
110.55
 30
0.0
 11
98.6087034153
 21
110.55
 31
0.0
  0
LINE
  5
1F8
330
1BC
100
AcDbEntity
  8
$DDT_AUDIT_GENERATED_(60)
  6
Continuous
 62
     7
100
AcDbLine
 10
98.6087034153
 20
110.55
 30
0.0
 11
98.230375032
 21
110.55
 31
0.0
  0
LINE
  5
1F9
330
1BC
100
AcDbEntity
  8
$DDT_AUDIT_GENERATED_(60)
  6
Continuous
 62
     7
100
AcDbLine
 10
98.1742929569
 20
110.55
 30
0.0
 11
97.674719886
 21
110.55
 31
0.0
  0
ARC
  5
1FA
330
1BC
100
AcDbEntity
  8
$DDT_AUDIT_GENERATED_(60)
  6
Continuous
 62
     7
100
AcDbCircle
 10
99.1342379522
 20
112.0082451723
 30
0.0
 40
2.059437368681085
100
AcDbArc
 50
207.989022778
 51
224.8813407797
  0
ARC
  5
1FB
330
1BC
100
AcDbEntity
  8
$DDT_AUDIT_GENERATED_(60)
  6
Continuous
 62
     7
100
AcDbCircle
 10
111.2148145543
 20
112.0084854647
 30
0.0
 40
2.059837573346702
100
AcDbArc
 50
315.1203122072
 51
332.0093242357
  0
LINE
  5
1FC
330
1BC
100
AcDbEntity
  8
$DDT_AUDIT_GENERATED_(60)
  6
Continuous
 62
     7
100
AcDbLine
 10
131.163402263
 20
110.55
 30
0.0
 11
130.9209619803
 21
110.55
 31
0.0
  0
LINE
  5
1FD
330
1BC
100
AcDbEntity
  8
$DDT_AUDIT_GENERATED_(60)
  6
Continuous
 62
     7
100
AcDbLine
 10
110.386721217
 20
119.3429125777
 30
0.0
 11
110.3902646024
 21
149.8606136731
 31
0.0
  0
ARC
  5
1FE
330
1BC
100
AcDbEntity
  8
$DDT_AUDIT_GENERATED_(60)
  6
Continuous
 62
     7
100
AcDbCircle
 10
108.9354025809
 20
119.3423680681
 30
0.0
 40
1.451318738266392
100
AcDbArc
 50
270.1298281239
 51
0.0214963834
  0
ELLIPSE
  5
1FF
330
1BC
100
AcDbEntity
  8
$DDT_AUDIT_GENERATED_(60)
  6
Continuous
 62
     7
100
AcDbEllipse
 10
105.1746890062
 20
118.1296574001
 30
0.0
 11
-27.59922297051372
 21
0.0
 31
0.0
210
0.0
220
0.0
230
1.0
 40
0.0087268678
 41
1.433989245774799
 42
1.707603407814982
  0
ARC
  5
200
330
1BC
100
AcDbEntity
  8
$DDT_AUDIT_GENERATED_(60)
  6
Continuous
 62
     7
100
AcDbCircle
 10
101.4137890736
 20
119.3421822016
 30
0.0
 40
1.451132461884185
100
AcDbArc
 50
179.9711621978
 51
269.8775132949
  0
ARC
  5
201
330
1BC
100
AcDbEntity
  8
$DDT_AUDIT_GENERATED_(60)
  6
Continuous
 62
     7
100
AcDbCircle
 10
105.1746890062
 20
1409.35
 30
0.0
 40
1300.0
100
AcDbArc
 50
270.6914796765
 51
270.9879557147
  0
ARC
  5
202
330
1BC
100
AcDbEntity
  8
$DDT_AUDIT_GENERATED_(60)
  6
Continuous
 62
     7
100
AcDbCircle
 10
105.1746890062
 20
1409.35
 30
0.0
 40
1300.0
100
AcDbArc
 50
269.0120442853
 51
269.3085203235
  0
LINE
  5
203
330
1BC
100
AcDbEntity
  8
$DDT_AUDIT_GENERATED_(60)
  6
Continuous
 62
     7
100
AcDbLine
 10
81.1746890062
 20
156.55
 30
0.0
 11
81.7771235782
 21
110.5300174349
 31
0.0
  0
LINE
  5
204
330
1BC
100
AcDbEntity
  8
$DDT_AUDIT_GENERATED_(60)
  6
Continuous
 62
     7
100
AcDbLine
 10
128.5722544342
 20
110.5300174349
 30
0.0
 11
129.1746890062
 21
156.55
 31
0.0
  0
LINE
  5
205
330
1BC
100
AcDbEntity
  8
$DDT_AUDIT_GENERATED_(60)
  6
Continuous
 62
     7
100
AcDbLine
 10
77.9918888598
 20
156.5498634149
 30
0.0
 11
78.6887531361
 21
111.0423076261
 31
0.0
  0
LINE
  5
206
330
1BC
100
AcDbEntity
  8
$DDT_AUDIT_GENERATED_(60)
  6
Continuous
 62
     7
100
AcDbLine
 10
131.6627187166
 20
111.0423217108
 30
0.0
 11
132.3554603425
 21
156.5500071541
 31
0.0
  0
ARC
  5
207
330
1BC
100
AcDbEntity
  8
$DDT_AUDIT_GENERATED_(60)
  6
Continuous
 62
     7
100
AcDbCircle
 10
82.7770379058
 20
110.5431070305
 30
0.0
 40
1.000000000000085
100
AcDbArc
 50
180.75
 51
269.0120442853
  0
ARC
  5
208
330
1BC
100
AcDbEntity
  8
$DDT_AUDIT_GENERATED_(60)
  6
Continuous
 62
     7
100
AcDbCircle
 10
127.5723401066
 20
110.5431070305
 30
0.0
 40
1.000000000000111
100
AcDbArc
 50
270.9879557144
 51
359.25
  0
ARC
  5
209
330
1BC
100
AcDbEntity
  8
$DDT_AUDIT_GENERATED_(60)
  6
Continuous
 62
     7
100
AcDbCircle
 10
79.1859547778
 20
111.049999993
 30
0.0
 40
0.499999992978194
100
AcDbArc
 50
181.0050614849
 51
270.0018967194
  0
ARC
  5
20A
330
1BC
100
AcDbEntity
  8
$DDT_AUDIT_GENERATED_(60)
  6
Continuous
 62
     7
100
AcDbCircle
 10
131.1634234102
 20
111.0499999993
 30
0.0
 40
0.4999999753875043
100
AcDbArc
 50
269.9999598724
 51
359.1582107952
  0
LINE
  5
20B
330
1BC
100
AcDbEntity
  8
$DDT_AUDIT_GENERATED_(81)
  6
Continuous
 62
     7
100
AcDbLine
 10
110.1746890062
 20
149.4450060085
 30
0.0
 11
110.1746890062
 21
120.528784185
 31
0.0
  0
LINE
  5
20C
330
1BC
100
AcDbEntity
  8
$DDT_AUDIT_GENERATED_(81)
  6
Continuous
 62
     7
100
AcDbLine
 10
110.1746890062
 20
120.528784185
 30
0.0
 11
110.1746890062
 21
119.8680466322
 31
0.0
  0
LINE
  5
20D
330
1BC
100
AcDbEntity
  8
$DDT_AUDIT_GENERATED_(81)
  6
Continuous
 62
     7
100
AcDbLine
 10
100.1746890062
 20
120.528784185
 30
0.0
 11
100.1746890062
 21
149.4450060085
 31
0.0
  0
LINE
  5
20E
330
1BC
100
AcDbEntity
  8
$DDT_AUDIT_GENERATED_(81)
  6
Continuous
 62
     7
100
AcDbLine
 10
100.1746890062
 20
119.8680466322
 30
0.0
 11
100.1746890062
 21
120.528784185
 31
0.0
  0
ELLIPSE
  5
20F
330
1BC
100
AcDbEntity
  8
$DDT_AUDIT_GENERATED_(81)
  6
Continuous
 62
     7
100
AcDbEllipse
 10
105.1746890062
 20
150.7752447521
 30
0.0
 11
-28.11797805205464
 21
0.0
 31
0.0
210
0.0
220
0.0
230
1.0
 40
0.0118679603
 41
1.428054346308423
 42
1.713538307281369
  0
ELLIPSE
  5
210
330
1BC
100
AcDbEntity
  8
$DDT_AUDIT_GENERATED_(81)
  6
Continuous
 62
     7
100
AcDbEllipse
 10
101.1746890062
 20
149.4450060085
 30
0.0
 11
0.9999999999996947
 21
-4.732325642464730E-12
 31
0.0
210
0.0
220
0.0
230
1.0
 40
0.9999295733
 41
1.570796326799629
 42
3.141592653594526
  0
ELLIPSE
  5
211
330
1BC
100
AcDbEntity
  8
$DDT_AUDIT_GENERATED_(81)
  6
Continuous
 62
     7
100
AcDbEllipse
 10
101.1746890062
 20
119.8694727755
 30
0.0
 11
-1.000000000000414
 21
-3.164135620181696E-12
 31
0.0
210
0.0
220
0.0
230
1.0
 40
0.9999295733
 41
0.0000000000000049
 42
1.570796326791733
  0
ELLIPSE
  5
212
330
1BC
100
AcDbEntity
  8
$DDT_AUDIT_GENERATED_(81)
  6
Continuous
 62
     7
100
AcDbEllipse
 10
109.1746890062
 20
149.4450060085
 30
0.0
 11
1.000000000000413
 21
-3.150257832373882E-12
 31
0.0
210
0.0
220
0.0
230
1.0
 40
0.9999295733
 41
0.0000000000031505
 42
1.570796326798047
  0
LINE
  5
213
330
1BC
100
AcDbEntity
  8
$DDT_AUDIT_GENERATED_(81)
  6
Continuous
 62
     7
100
AcDbLine
 10
100.1746890062
 20
118.811274623
 30
0.0
 11
100.1746890062
 21
119.8983103151
 31
0.0
  0
LINE
  5
214
330
1BC
100
AcDbEntity
  8
$DDT_AUDIT_GENERATED_(81)
  6
Continuous
 62
     7
100
AcDbLine
 10
110.1746890062
 20
119.8737326993
 30
0.0
 11
110.1746890062
 21
118.8149632836
 31
0.0
  0
ARC
  5
215
330
1BC
100
AcDbEntity
  8
$DDT_AUDIT_GENERATED_(81)
  6
Continuous
 62
     7
100
AcDbCircle
 10
105.1746890062
 20
2369.0415972241
 30
0.0
 40
2250.177083396672
100
AcDbArc
 50
269.8959842997
 51
270.1040157003
  0
ARC
  5
216
330
1BC
100
AcDbEntity
  8
$DDT_AUDIT_GENERATED_(81)
  6
Continuous
 62
     7
100
AcDbCircle
 10
109.1746890063
 20
119.8680699796
 30
0.0
 40
0.9999999999698715
100
AcDbArc
 50
270.1800944414
 51
0.0
  0
LINE
  5
217
330
1BC
100
AcDbEntity
  8
$DDT_AUDIT_GENERATED_(AC)
  6
Continuous
 62
     7
100
AcDbLine
 10
79.4853229125
 20
164.457464375
 30
0.0
 11
81.0621890062
 21
158.15
 31
0.0
  0
LINE
  5
218
330
1BC
100
AcDbEntity
  8
$DDT_AUDIT_GENERATED_(AC)
  6
Continuous
 62
     7
100
AcDbLine
 10
129.2871890062
 20
158.15
 30
0.0
 11
130.8640551
 21
164.457464375
 31
0.0
  0
ARC
  5
219
330
1BC
100
AcDbEntity
  8
$DDT_AUDIT_GENERATED_(AC)
  6
Continuous
 62
     7
100
AcDbCircle
 10
80.4554654126
 20
164.7
 30
0.0
 40
0.9999999999993612
100
AcDbArc
 50
104.0362434681
 51
194.0362434679
  0
ARC
  5
21A
330
1BC
100
AcDbEntity
  8
$DDT_AUDIT_GENERATED_(AC)
  6
Continuous
 62
     7
100
AcDbCircle
 10
129.8939125998
 20
164.7
 30
0.0
 40
1.000000000000002
100
AcDbArc
 50
345.9637565321
 51
75.9637565319
  0
ARC
  5
21B
330
1BC
100
AcDbEntity
  8
$DDT_AUDIT_GENERATED_(AC)
  6
Continuous
 62
     7
100
AcDbCircle
 10
80.3341976001
 20
165.1850712501
 30
0.0
 40
0.5000000000000004
100
AcDbArc
 50
90.0
 51
104.0362434682
  0
ARC
  5
21C
330
1BC
100
AcDbEntity
  8
$DDT_AUDIT_GENERATED_(AC)
  6
Continuous
 62
     7
100
AcDbCircle
 10
130.0151804123
 20
165.1850712501
 30
0.0
 40
0.4999999999993727
100
AcDbArc
 50
75.9637565318
 51
90.0
  0
LINE
  5
21D
330
1BC
100
AcDbEntity
  8
$DDT_AUDIT_GENERATED_(AC)
  6
Continuous
 62
     7
100
AcDbLine
 10
130.0151804123
 20
165.6850712501
 30
0.0
 11
129.7975898077
 21
165.6850712501
 31
0.0
  0
LINE
  5
21E
330
1BC
100
AcDbEntity
  8
$DDT_AUDIT_GENERATED_(AC)
  6
Continuous
 62
     7
100
AcDbLine
 10
80.5517882048
 20
165.6850712501
 30
0.0
 11
80.3341976001
 21
165.6850712501
 31
0.0
  0
LINE
  5
21F
330
1BC
100
AcDbEntity
  8
$DDT_AUDIT_GENERATED_(B1)
  6
Continuous
 62
     7
100
AcDbLine
 10
21.4746890062
 20
182.5
 30
0.0
 11
188.8746890062
 21
182.5
 31
0.0
  0
LINE
  5
220
330
1BC
100
AcDbEntity
  8
$DDT_AUDIT_GENERATED_(B1)
  6
Continuous
 62
     7
100
AcDbLine
 10
188.8746890062
 20
182.5
 30
0.0
 11
190.6746890062
 21
182.5
 31
0.0
  0
LINE
  5
221
330
1BC
100
AcDbEntity
  8
$DDT_AUDIT_GENERATED_(B1)
  6
Continuous
 62
     7
100
AcDbLine
 10
19.6746890062
 20
182.5
 30
0.0
 11
21.4746890062
 21
182.5
 31
0.0
  0
LINE
  5
222
330
1BC
100
AcDbEntity
  8
$DDT_AUDIT_GENERATED_(B1)
  6
Continuous
 62
     7
100
AcDbLine
 10
19.6746890062
 20
171.0
 30
0.0
 11
19.6746890062
 21
182.5
 31
0.0
  0
LINE
  5
223
330
1BC
100
AcDbEntity
  8
$DDT_AUDIT_GENERATED_(B1)
  6
Continuous
 62
     7
100
AcDbLine
 10
188.8746890062
 20
169.2
 30
0.0
 11
21.4746890062
 21
169.2
 31
0.0
  0
LINE
  5
224
330
1BC
100
AcDbEntity
  8
$DDT_AUDIT_GENERATED_(B1)
  6
Continuous
 62
     7
100
AcDbLine
 10
190.6746890062
 20
182.5
 30
0.0
 11
190.6746890062
 21
171.0
 31
0.0
  0
ARC
  5
225
330
1BC
100
AcDbEntity
  8
$DDT_AUDIT_GENERATED_(B1)
  6
Continuous
 62
     7
100
AcDbCircle
 10
188.8746890062
 20
171.0
 30
0.0
 40
1.799999999999996
100
AcDbArc
 50
270.0
 51
0.0
  0
ARC
  5
226
330
1BC
100
AcDbEntity
  8
$DDT_AUDIT_GENERATED_(B1)
  6
Continuous
 62
     7
100
AcDbCircle
 10
21.4746890062
 20
171.0
 30
0.0
 40
1.799999999999996
100
AcDbArc
 50
180.0
 51
270.0
  0
LINE
  5
227
330
1BC
100
AcDbEntity
  8
$DDT_AUDIT_GENERATED_(C2)
  6
Continuous
 62
     7
100
AcDbLine
 10
81.5746890062
 20
157.65
 30
0.0
 11
128.7746890062
 21
157.65
 31
0.0
  0
LINE
  5
228
330
1BC
100
AcDbEntity
  8
$DDT_AUDIT_GENERATED_(C2)
  6
Continuous
 62
     7
100
AcDbLine
 10
79.6490792501
 20
164.4304878049
 30
0.0
 11
130.7002987623
 21
164.4304878049
 31
0.0
  0
LINE
  5
229
330
1BC
100
AcDbEntity
  8
$DDT_AUDIT_GENERATED_(C2)
  6
Continuous
 62
     7
100
AcDbLine
 10
85.6746890062
 20
157.15
 30
0.0
 11
85.6746890062
 21
156.55
 31
0.0
  0
LINE
  5
22A
330
1BC
100
AcDbEntity
  8
$DDT_AUDIT_GENERATED_(C2)
  6
Continuous
 62
     7
100
AcDbLine
 10
124.6746890062
 20
156.55
 30
0.0
 11
124.6746890062
 21
157.15
 31
0.0
  0
ARC
  5
22B
330
1BC
100
AcDbEntity
  8
$DDT_AUDIT_GENERATED_(C2)
  6
Continuous
 62
     7
100
AcDbCircle
 10
125.1746890062
 20
157.15
 30
0.0
 40
0.5000000000000004
100
AcDbArc
 50
90.0
 51
180.0
  0
ARC
  5
22C
330
1BC
100
AcDbEntity
  8
$DDT_AUDIT_GENERATED_(C2)
  6
Continuous
 62
     7
100
AcDbCircle
 10
85.1746890062
 20
157.15
 30
0.0
 40
0.5000000000000004
100
AcDbArc
 50
0.0
 51
90.0
  0
ARC
  5
22D
330
1BC
100
AcDbEntity
  8
$DDT_AUDIT_GENERATED_(C2)
  6
Continuous
 62
     7
100
AcDbCircle
 10
128.7746890062
 20
158.15
 30
0.0
 40
0.5000000000000004
100
AcDbArc
 50
270.0
 51
347.3196165082
  0
ARC
  5
22E
330
1BC
100
AcDbEntity
  8
$DDT_AUDIT_GENERATED_(C2)
  6
Continuous
 62
     7
100
AcDbCircle
 10
81.5746890062
 20
158.15
 30
0.0
 40
0.5000000000000004
100
AcDbArc
 50
192.6803834918
 51
270.0
  0
LINE
  5
22F
330
1BC
100
AcDbEntity
  8
$DDT_AUDIT_GENERATED_(C2)
  6
Continuous
 62
     7
100
AcDbLine
 10
127.2746890062
 20
165.637804878
 30
0.0
 11
127.2746890062
 21
165.65
 31
0.0
  0
LINE
  5
230
330
1BC
100
AcDbEntity
  8
$DDT_AUDIT_GENERATED_(C2)
  6
Continuous
 62
     7
100
AcDbLine
 10
83.0746890062
 20
165.65
 30
0.0
 11
83.0746890062
 21
165.637804878
 31
0.0
  0
ARC
  5
231
330
1BC
100
AcDbEntity
  8
$DDT_AUDIT_GENERATED_(C2)
  6
Continuous
 62
     7
100
AcDbCircle
 10
80.5149329087
 20
165.137804878
 30
0.0
 40
0.5000000000000004
100
AcDbArc
 50
90.0
 51
102.6803834918
  0
ARC
  5
232
330
1BC
100
AcDbEntity
  8
$DDT_AUDIT_GENERATED_(C2)
  6
Continuous
 62
     7
100
AcDbCircle
 10
129.8344451038
 20
165.137804878
 30
0.0
 40
0.499999999999256
100
AcDbArc
 50
77.3196165082
 51
90.0
  0
LINE
  5
233
330
1BC
100
AcDbEntity
  8
$DDT_AUDIT_GENERATED_(C2)
  6
Continuous
 62
     7
100
AcDbLine
 10
129.8344451038
 20
165.637804878
 30
0.0
 11
80.5149329087
 21
165.637804878
 31
0.0
  0
LINE
  5
234
330
1BC
100
AcDbEntity
  8
$DDT_AUDIT_GENERATED_(C7)
  6
Continuous
 62
     7
100
AcDbLine
 10
111.6968264108
 20
106.35
 30
0.0
 11
98.6525516016
 21
106.35
 31
0.0
  0
LINE
  5
235
330
1BC
100
AcDbEntity
  8
$DDT_AUDIT_GENERATED_(C7)
  6
Continuous
 62
     7
100
AcDbLine
 10
98.6525516016
 20
106.35
 30
0.0
 11
98.2746890062
 21
106.35
 31
0.0
  0
LINE
  5
236
330
1BC
100
AcDbEntity
  8
$DDT_AUDIT_GENERATED_(C7)
  6
Continuous
 62
     7
100
AcDbLine
 10
112.0746890062
 20
106.35
 30
0.0
 11
111.6968264108
 21
106.35
 31
0.0
  0
LINE
  5
237
330
1BC
100
AcDbEntity
  8
$DDT_AUDIT_GENERATED_(C7)
  6
Continuous
 62
     7
100
AcDbLine
 10
98.2746890062
 20
106.35
 30
0.0
 11
91.7246890062
 21
106.35
 31
0.0
  0
LINE
  5
238
330
1BC
100
AcDbEntity
  8
$DDT_AUDIT_GENERATED_(C7)
  6
Continuous
 62
     7
100
AcDbLine
 10
118.6246890062
 20
106.35
 30
0.0
 11
112.0746890062
 21
106.35
 31
0.0
  0
LINE
  5
239
330
1BC
100
AcDbEntity
  8
$DDT_AUDIT_GENERATED_(C7)
  6
Continuous
 62
     7
100
AcDbLine
 10
91.7246890062
 20
106.35
 30
0.0
 11
79.7221891483
 21
106.35
 31
0.0
  0
LINE
  5
23A
330
1BC
100
AcDbEntity
  8
$DDT_AUDIT_GENERATED_(C7)
  6
Continuous
 62
     7
100
AcDbLine
 10
130.6271888642
 20
106.35
 30
0.0
 11
118.6246890062
 21
106.35
 31
0.0
  0
LINE
  5
23B
330
1BC
100
AcDbEntity
  8
$DDT_AUDIT_GENERATED_(C7)
  6
Continuous
 62
     7
100
AcDbLine
 10
79.7221891483
 20
106.35
 30
0.0
 11
79.4721891483
 21
106.35
 31
0.0
  0
LINE
  5
23C
330
1BC
100
AcDbEntity
  8
$DDT_AUDIT_GENERATED_(C7)
  6
Continuous
 62
     7
100
AcDbLine
 10
130.8771888642
 20
106.35
 30
0.0
 11
130.6271888642
 21
106.35
 31
0.0
  0
ARC
  5
23D
330
1BC
100
AcDbEntity
  8
$DDT_AUDIT_GENERATED_(C7)
  6
Continuous
 62
     7
100
AcDbCircle
 10
112.0746890062
 20
106.85
 30
0.0
 40
0.5000000000000004
100
AcDbArc
 50
270.0
 51
0.0
  0
ARC
  5
23E
330
1BC
100
AcDbEntity
  8
$DDT_AUDIT_GENERATED_(C7)
  6
Continuous
 62
     7
100
AcDbCircle
 10
98.2746890062
 20
106.85
 30
0.0
 40
0.5000000000000004
100
AcDbArc
 50
180.0
 51
270.0
  0
LINE
  5
23F
330
1BC
100
AcDbEntity
  8
$DDT_AUDIT_GENERATED_(C7)
  6
Continuous
 62
     7
100
AcDbLine
 10
98.0746890062
 20
110.55
 30
0.0
 11
98.6036966398
 21
110.55
 31
0.0
  0
LINE
  5
240
330
1BC
100
AcDbEntity
  8
$DDT_AUDIT_GENERATED_(C7)
  6
Continuous
 62
     7
100
AcDbLine
 10
111.7456813726
 20
110.55
 30
0.0
 11
112.2746890062
 21
110.55
 31
0.0
  0
LINE
  5
241
330
1BC
100
AcDbEntity
  8
$DDT_AUDIT_GENERATED_(C7)
  6
Continuous
 62
     7
100
AcDbLine
 10
79.6221891483
 20
110.55
 30
0.0
 11
81.7768619921
 21
110.55
 31
0.0
  0
LINE
  5
242
330
1BC
100
AcDbEntity
  8
$DDT_AUDIT_GENERATED_(C7)
  6
Continuous
 62
     7
100
AcDbLine
 10
128.5725160203
 20
110.55
 30
0.0
 11
130.7271888642
 21
110.55
 31
0.0
  0
LINE
  5
243
330
1BC
100
AcDbEntity
  8
$DDT_AUDIT_GENERATED_(C7)
  6
Continuous
 62
     7
100
AcDbLine
 10
79.2721891483
 20
110.55
 30
0.0
 11
79.6221891483
 21
110.55
 31
0.0
  0
LINE
  5
244
330
1BC
100
AcDbEntity
  8
$DDT_AUDIT_GENERATED_(C7)
  6
Continuous
 62
     7
100
AcDbLine
 10
130.7271888642
 20
110.55
 30
0.0
 11
131.0771888642
 21
110.55
 31
0.0
  0
LINE
  5
245
330
1BC
100
AcDbEntity
  8
$DDT_AUDIT_GENERATED_(C7)
  6
Continuous
 62
     7
100
AcDbLine
 10
112.5746890062
 20
110.25
 30
0.0
 11
112.5746890062
 21
106.85
 31
0.0
  0
LINE
  5
246
330
1BC
100
AcDbEntity
  8
$DDT_AUDIT_GENERATED_(C7)
  6
Continuous
 62
     7
100
AcDbLine
 10
97.7746890062
 20
110.25
 30
0.0
 11
97.7746890062
 21
106.85
 31
0.0
  0
ARC
  5
247
330
1BC
100
AcDbEntity
  8
$DDT_AUDIT_GENERATED_(C7)
  6
Continuous
 62
     7
100
AcDbCircle
 10
112.2746890062
 20
110.25
 30
0.0
 40
0.3000000000000225
100
AcDbArc
 50
0.0
 51
90.0
  0
ARC
  5
248
330
1BC
100
AcDbEntity
  8
$DDT_AUDIT_GENERATED_(C7)
  6
Continuous
 62
     7
100
AcDbCircle
 10
98.0746890062
 20
110.25
 30
0.0
 40
0.2999999999999999
100
AcDbArc
 50
90.0
 51
180.0
  0
LINE
  5
249
330
1BC
100
AcDbEntity
  8
$DDT_AUDIT_GENERATED_(C7)
  6
Continuous
 62
     7
100
AcDbLine
 10
78.9721891483
 20
110.25
 30
0.0
 11
78.9721891483
 21
106.85
 31
0.0
  0
LINE
  5
24A
330
1BC
100
AcDbEntity
  8
$DDT_AUDIT_GENERATED_(C7)
  6
Continuous
 62
     7
100
AcDbLine
 10
131.3771888642
 20
106.85
 30
0.0
 11
131.3771888642
 21
110.25
 31
0.0
  0
ARC
  5
24B
330
1BC
100
AcDbEntity
  8
$DDT_AUDIT_GENERATED_(C7)
  6
Continuous
 62
     7
100
AcDbCircle
 10
130.8771888642
 20
106.85
 30
0.0
 40
0.5000000000000004
100
AcDbArc
 50
270.0
 51
0.0
  0
ARC
  5
24C
330
1BC
100
AcDbEntity
  8
$DDT_AUDIT_GENERATED_(C7)
  6
Continuous
 62
     7
100
AcDbCircle
 10
79.4721891483
 20
106.85
 30
0.0
 40
0.5000000000000004
100
AcDbArc
 50
180.0
 51
270.0
  0
ARC
  5
24D
330
1BC
100
AcDbEntity
  8
$DDT_AUDIT_GENERATED_(C7)
  6
Continuous
 62
     7
100
AcDbCircle
 10
131.0771888642
 20
110.25
 30
0.0
 40
0.3000000000000017
100
AcDbArc
 50
0.0
 51
90.0
  0
ARC
  5
24E
330
1BC
100
AcDbEntity
  8
$DDT_AUDIT_GENERATED_(C7)
  6
Continuous
 62
     7
100
AcDbCircle
 10
79.2721891483
 20
110.25
 30
0.0
 40
0.2999999999999947
100
AcDbArc
 50
90.0
 51
180.0
  0
LINE
  5
24F
330
1BC
100
AcDbEntity
  8
$DDT_AUDIT_GENERATED_(C7)
  6
Continuous
 62
     7
100
AcDbLine
 10
78.9721891483
 20
110.5
 30
0.0
 11
78.9721891483
 21
110.25
 31
0.0
  0
LINE
  5
250
330
1BC
100
AcDbEntity
  8
$DDT_AUDIT_GENERATED_(C7)
  6
Continuous
 62
     7
100
AcDbLine
 10
131.3771888642
 20
110.25
 30
0.0
 11
131.3771888642
 21
110.5
 31
0.0
  0
ARC
  5
251
330
1BC
100
AcDbEntity
  8
$DDT_AUDIT_GENERATED_(C7)
  6
Continuous
 62
     7
100
AcDbCircle
 10
131.0771888642
 20
110.5
 30
0.0
 40
0.3000000000000017
100
AcDbArc
 50
0.0
 51
17.7602725281
  0
ARC
  5
252
330
1BC
100
AcDbEntity
  8
$DDT_AUDIT_GENERATED_(C7)
  6
Continuous
 62
     7
100
AcDbCircle
 10
79.2721891483
 20
110.5
 30
0.0
 40
0.2999999999999947
100
AcDbArc
 50
162.2397080539
 51
180.0
  0
LINE
  5
254
330
1BC
100
AcDbEntity
  8
DV3_Standard
  6
Continuous
 62
     7
100
AcDbLine
 10
78.9246890062
 20
167.65
 30
0.0
 11
78.9246890062
 21
169.2
 31
0.0
  0
LINE
  5
255
330
1BC
100
AcDbEntity
  8
DV3_Standard
  6
Continuous
 62
     7
100
AcDbLine
 10
131.4246890062
 20
167.65
 30
0.0
 11
131.4246890062
 21
169.2
 31
0.0
  0
ENDBLK
  5
257
330
1BC
100
AcDbEntity
  8
0
100
AcDbBlockEnd
  0
ENDSEC
  0
SECTION
  2
ENTITIES
  0
INSERT
  5
5F
330
1F
100
AcDbEntity
  8
Default
100
AcDbBlockReference
  2
SE
 10
0.0
 20
0.0
 30
0.0
  0
INSERT
  5
EF
330
1F
100
AcDbEntity
  8
Default
100
AcDbBlockReference
  2
SE1
 10
0.0
 20
0.0
 30
0.0
  0
INSERT
  5
1BD
330
1F
100
AcDbEntity
  8
Default
100
AcDbBlockReference
  2
SE2
 10
0.0
 20
0.0
 30
0.0
  0
TEXT
  5
259
330
1F
100
AcDbEntity
  8
Default
  6
Continuous
 62
     7
100
AcDbText
 10
5.9362635081
 20
53.4225120485
 30
0.0
 40
10.0
  1
Grohe AG^J
  7
SEACAD_seiso_ttf
 11
5.9362635081
 21
63.4225120485
 31
0.0
100
AcDbText
 73
     3
  0
TEXT
  5
25A
330
1F
100
AcDbEntity
  8
Default
  6
Continuous
 62
     7
100
AcDbText
 10
5.9362635081
 20
37.0588756849
 30
0.0
 40
10.0
  1
 
  7
SEACAD_seiso_ttf
 11
5.9362635081
 21
47.0588756849
 31
0.0
100
AcDbText
 73
     3
  0
TEXT
  5
25B
330
1F
100
AcDbEntity
  8
Default
  6
Continuous
 62
     7
100
AcDbText
 10
5.9362635081
 20
20.6952393213
 30
0.0
 40
10.0
  1
ecn: 
  7
SEACAD_seiso_ttf
 11
5.9362635081
 21
30.6952393213
 31
0.0
100
AcDbText
 73
     3
  0
TEXT
  5
25C
330
1F
100
AcDbEntity
  8
Default
  6
Continuous
 62
     7
100
AcDbText
 10
5.9362635081
 20
4.3316029576
 30
0.0
 40
10.0
  1
unit: mm
  7
SEACAD_seiso_ttf
 11
5.9362635081
 21
14.3316029576
 31
0.0
100
AcDbText
 73
     3
  0
LINE
  5
25D
330
1F
100
AcDbEntity
  8
Default
  6
Continuous
 62
     7
100
AcDbLine
 10
0.0
 20
0.0
 30
0.0
 11
100.0
 21
0.0
 31
0.0
  0
LINE
  5
25E
330
1F
100
AcDbEntity
  8
Default
  6
Continuous
 62
     7
100
AcDbLine
 10
0.0
 20
0.0
 30
0.0
 11
0.0
 21
100.0
 31
0.0
  0
TEXT
  5
25F
330
1F
100
AcDbEntity
  8
Default
  6
Continuous
 62
     7
100
AcDbText
 10
24.3923665681
 20
-18.2375342018
 30
0.0
 40
10.0
  1
100 mm
  7
SEACAD_seiso_ttf
 11
24.3923665681
 21
-8.2375342018
 31
0.0
100
AcDbText
 73
     3
  0
TEXT
  5
260
330
1F
100
AcDbEntity
  8
Default
  6
Continuous
 62
     7
100
AcDbText
 10
-7.6150308803
 20
24.6231930421
 30
0.0
 40
10.0
  1
100 mm
 50
90.0
  7
SEACAD_seiso_ttf
 11
-17.6150308803
 21
24.6231930421
 31
0.0
100
AcDbText
 73
     3
  0
TEXT
  5
261
330
1F
100
AcDbEntity
  8
Default
  6
Continuous
 62
     7
100
AcDbText
 10
28.4878128572
 20
20.0907663715
 30
0.0
 40
10.0
  1
210555
  7
SEACAD_seiso_ttf
 11
28.4878128572
 21
30.0907663715
 31
0.0
100
AcDbText
 73
     3
  0
TEXT
  5
262
330
1F
100
AcDbEntity
  8
Default
  6
Continuous
 62
     7
100
AcDbText
 10
5.9012241913
 20
36.7242780188
 30
0.0
 40
10.0
  1
19380000
  7
SEACAD_seiso_ttf
 11
5.9012241913
 21
46.7242780188
 31
0.0
100
AcDbText
 73
     3
  0
ENDSEC
  0
SECTION
  2
OBJECTS
  0
DICTIONARY
  5
C
330
0
100
AcDbDictionary
281
     1
  3
ACAD_GROUP
350
D
  3
ACAD_LAYOUT
350
1A
  3
ACAD_MLEADERSTYLE
350
266
  3
ACAD_MLINESTYLE
350
17
  3
ACAD_PLOTSETTINGS
350
19
  3
ACAD_PLOTSTYLENAME
350
E
  3
ACAD_SCALELIST
350
3B
  3
ACAD_TABLESTYLE
350
265
  3
ACAD_VISUALSTYLE
350
2A
  3
AcDbVariableDictionary
350
263
  0
DICTIONARY
  5
D
102
{ACAD_REACTORS
330
C
102
}
330
C
100
AcDbDictionary
281
     1
  0
DICTIONARY
  5
1A
102
{ACAD_REACTORS
330
C
102
}
330
C
100
AcDbDictionary
281
     1
  3
Layout1
350
1E
  3
Model
350
22
  0
DICTIONARY
  5
266
102
{ACAD_REACTORS
330
C
102
}
330
C
100
AcDbDictionary
281
     1
  0
DICTIONARY
  5
17
102
{ACAD_REACTORS
330
C
102
}
330
C
100
AcDbDictionary
281
     1
  3
Standard
350
18
  0
DICTIONARY
  5
19
102
{ACAD_REACTORS
330
C
102
}
330
C
100
AcDbDictionary
281
     1
  0
ACDBDICTIONARYWDFLT
  5
E
102
{ACAD_REACTORS
330
C
102
}
330
C
100
AcDbDictionary
281
     1
  3
Normal
350
F
100
AcDbDictionaryWithDefault
340
F
  0
DICTIONARY
  5
3B
102
{ACAD_REACTORS
330
C
102
}
330
C
100
AcDbDictionary
281
     1
  3
A0
350
3C
  3
A1
350
3D
  3
A2
350
3E
  3
A3
350
3F
  3
A4
350
40
  3
A5
350
41
  3
A6
350
42
  3
A7
350
43
  3
A8
350
44
  3
A9
350
45
  3
B0
350
46
  3
B1
350
47
  3
B2
350
48
  3
B3
350
49
  3
B4
350
4A
  3
B5
350
4B
  3
B6
350
4C
  3
B7
350
4D
  3
B8
350
4E
  3
B9
350
4F
  3
C0
350
50
  3
C1
350
51
  3
C2
350
52
  3
C3
350
53
  3
C4
350
54
  3
C5
350
55
  3
C6
350
56
  3
C7
350
57
  3
C8
350
58
  3
C9
350
59
  3
D0
350
5A
  3
D1
350
5B
  3
D2
350
5C
  0
DICTIONARY
  5
265
102
{ACAD_REACTORS
330
C
102
}
330
C
100
AcDbDictionary
281
     1
  0
DICTIONARY
  5
2A
102
{ACAD_REACTORS
330
C
102
}
330
C
100
AcDbDictionary
281
     1
  3
2dWireframe
350
2F
  3
3D Hidden
350
31
  3
3dWireframe
350
30
  3
Basic
350
32
  3
Brighten
350
36
  3
ColorChange
350
3A
  3
Conceptual
350
34
  3
Dim
350
35
  3
Facepattern
350
39
  3
Flat
350
2B
  3
FlatWithEdges
350
2C
  3
Gouraud
350
2D
  3
GouraudWithEdges
350
2E
  3
Linepattern
350
38
  3
Realistic
350
33
  3
Thicken
350
37
  0
DICTIONARY
  5
263
102
{ACAD_REACTORS
330
C
102
}
330
C
100
AcDbDictionary
281
     1
  3
CANNOSCALE
350
264
  3
PSOLHEIGHT
350
268
  3
PSOLWIDTH
350
267
  0
LAYOUT
  5
1E
102
{ACAD_REACTORS
330
1A
102
}
330
1A
100
AcDbPlotSettings
  1

  2
none_device
  4

  6

 40
0.0
 41
0.0
 42
0.0
 43
0.0
 44
0.0
 45
0.0
 46
0.0
 47
0.0
 48
0.0
 49
0.0
140
0.0
141
0.0
142
1.0
143
1.0
 70
   688
 72
     0
 73
     0
 74
     5
  7

 75
    16
147
1.0
148
0.0
149
0.0
100
AcDbLayout
  1
Layout1
 70
     1
 71
     1
 10
0.0
 20
0.0
 11
1682.0
 21
2378.0
 12
0.0
 22
0.0
 32
0.0
 14
0.0
 24
0.0
 34
0.0
 15
1682.0
 25
2378.0
 35
0.0
146
0.0
 13
0.0
 23
0.0
 33
0.0
 16
1.0
 26
0.0
 36
0.0
 17
0.0
 27
1.0
 37
0.0
 76
     0
330
1B
  0
LAYOUT
  5
22
102
{ACAD_REACTORS
330
1A
102
}
330
1A
100
AcDbPlotSettings
  1

  2
none_device
  4

  6

 40
0.0
 41
0.0
 42
0.0
 43
0.0
 44
0.0
 45
0.0
 46
0.0
 47
0.0
 48
0.0
 49
0.0
140
0.0
141
0.0
142
1.0
143
1.0
 70
  1712
 72
     0
 73
     0
 74
     0
  7

 75
     0
147
1.0
148
0.0
149
0.0
100
AcDbLayout
  1
Model
 70
     1
 71
     0
 10
0.0
 20
0.0
 11
1682.0
 21
2378.0
 12
0.0
 22
0.0
 32
0.0
 14
0.0
 24
0.0
 34
0.0
 15
1682.0
 25
2378.0
 35
0.0
146
0.0
 13
0.0
 23
0.0
 33
0.0
 16
1.0
 26
0.0
 36
0.0
 17
0.0
 27
1.0
 37
0.0
 76
     0
330
1F
331
29
  0
MLINESTYLE
  5
18
102
{ACAD_REACTORS
330
17
102
}
330
17
100
AcDbMlineStyle
  2
Standard
 70
     0
  3

 62
   256
 51
90.0
 52
90.0
 71
     2
 49
0.5
 62
   256
  6
BYLAYER
 49
-0.5
 62
   256
  6
BYLAYER
  0
ACDBPLACEHOLDER
  5
F
102
{ACAD_REACTORS
330
E
102
}
330
E
  0
SCALE
  5
3C
102
{ACAD_REACTORS
330
3B
102
}
330
3B
100
AcDbScale
 70
     0
300
1:1
140
1.0
141
1.0
290
     1
  0
SCALE
  5
3D
102
{ACAD_REACTORS
330
3B
102
}
330
3B
100
AcDbScale
 70
     0
300
1:2
140
1.0
141
2.0
290
     0
  0
SCALE
  5
3E
102
{ACAD_REACTORS
330
3B
102
}
330
3B
100
AcDbScale
 70
     0
300
1:4
140
1.0
141
4.0
290
     0
  0
SCALE
  5
3F
102
{ACAD_REACTORS
330
3B
102
}
330
3B
100
AcDbScale
 70
     0
300
1:5
140
1.0
141
5.0
290
     0
  0
SCALE
  5
40
102
{ACAD_REACTORS
330
3B
102
}
330
3B
100
AcDbScale
 70
     0
300
1:8
140
1.0
141
8.0
290
     0
  0
SCALE
  5
41
102
{ACAD_REACTORS
330
3B
102
}
330
3B
100
AcDbScale
 70
     0
300
1:10
140
1.0
141
10.0
290
     0
  0
SCALE
  5
42
102
{ACAD_REACTORS
330
3B
102
}
330
3B
100
AcDbScale
 70
     0
300
1:16
140
1.0
141
16.0
290
     0
  0
SCALE
  5
43
102
{ACAD_REACTORS
330
3B
102
}
330
3B
100
AcDbScale
 70
     0
300
1:20
140
1.0
141
20.0
290
     0
  0
SCALE
  5
44
102
{ACAD_REACTORS
330
3B
102
}
330
3B
100
AcDbScale
 70
     0
300
1:30
140
1.0
141
30.0
290
     0
  0
SCALE
  5
45
102
{ACAD_REACTORS
330
3B
102
}
330
3B
100
AcDbScale
 70
     0
300
1:40
140
1.0
141
40.0
290
     0
  0
SCALE
  5
46
102
{ACAD_REACTORS
330
3B
102
}
330
3B
100
AcDbScale
 70
     0
300
1:50
140
1.0
141
50.0
290
     0
  0
SCALE
  5
47
102
{ACAD_REACTORS
330
3B
102
}
330
3B
100
AcDbScale
 70
     0
300
1:100
140
1.0
141
100.0
290
     0
  0
SCALE
  5
48
102
{ACAD_REACTORS
330
3B
102
}
330
3B
100
AcDbScale
 70
     0
300
2:1
140
2.0
141
1.0
290
     0
  0
SCALE
  5
49
102
{ACAD_REACTORS
330
3B
102
}
330
3B
100
AcDbScale
 70
     0
300
4:1
140
4.0
141
1.0
290
     0
  0
SCALE
  5
4A
102
{ACAD_REACTORS
330
3B
102
}
330
3B
100
AcDbScale
 70
     0
300
8:1
140
8.0
141
1.0
290
     0
  0
SCALE
  5
4B
102
{ACAD_REACTORS
330
3B
102
}
330
3B
100
AcDbScale
 70
     0
300
10:1
140
10.0
141
1.0
290
     0
  0
SCALE
  5
4C
102
{ACAD_REACTORS
330
3B
102
}
330
3B
100
AcDbScale
 70
     0
300
100:1
140
100.0
141
1.0
290
     0
  0
SCALE
  5
4D
102
{ACAD_REACTORS
330
3B
102
}
330
3B
100
AcDbScale
 70
     0
300
1/128" = 1'-0"
140
0.0078125
141
12.0
290
     0
  0
SCALE
  5
4E
102
{ACAD_REACTORS
330
3B
102
}
330
3B
100
AcDbScale
 70
     0
300
1/64" = 1'-0"
140
0.015625
141
12.0
290
     0
  0
SCALE
  5
4F
102
{ACAD_REACTORS
330
3B
102
}
330
3B
100
AcDbScale
 70
     0
300
1/32" = 1'-0"
140
0.03125
141
12.0
290
     0
  0
SCALE
  5
50
102
{ACAD_REACTORS
330
3B
102
}
330
3B
100
AcDbScale
 70
     0
300
1/16" = 1'-0"
140
0.0625
141
12.0
290
     0
  0
SCALE
  5
51
102
{ACAD_REACTORS
330
3B
102
}
330
3B
100
AcDbScale
 70
     0
300
3/32" = 1'-0"
140
0.09375
141
12.0
290
     0
  0
SCALE
  5
52
102
{ACAD_REACTORS
330
3B
102
}
330
3B
100
AcDbScale
 70
     0
300
1/8" = 1'-0"
140
0.125
141
12.0
290
     0
  0
SCALE
  5
53
102
{ACAD_REACTORS
330
3B
102
}
330
3B
100
AcDbScale
 70
     0
300
3/16" = 1'-0"
140
0.1875
141
12.0
290
     0
  0
SCALE
  5
54
102
{ACAD_REACTORS
330
3B
102
}
330
3B
100
AcDbScale
 70
     0
300
1/4" = 1'-0"
140
0.25
141
12.0
290
     0
  0
SCALE
  5
55
102
{ACAD_REACTORS
330
3B
102
}
330
3B
100
AcDbScale
 70
     0
300
3/8" = 1'-0"
140
0.375
141
12.0
290
     0
  0
SCALE
  5
56
102
{ACAD_REACTORS
330
3B
102
}
330
3B
100
AcDbScale
 70
     0
300
1/2" = 1'-0"
140
0.5
141
12.0
290
     0
  0
SCALE
  5
57
102
{ACAD_REACTORS
330
3B
102
}
330
3B
100
AcDbScale
 70
     0
300
3/4" = 1'-0"
140
0.75
141
12.0
290
     0
  0
SCALE
  5
58
102
{ACAD_REACTORS
330
3B
102
}
330
3B
100
AcDbScale
 70
     0
300
1" = 1'-0"
140
1.0
141
12.0
290
     0
  0
SCALE
  5
59
102
{ACAD_REACTORS
330
3B
102
}
330
3B
100
AcDbScale
 70
     0
300
1-1/2" = 1'-0"
140
1.5
141
12.0
290
     0
  0
SCALE
  5
5A
102
{ACAD_REACTORS
330
3B
102
}
330
3B
100
AcDbScale
 70
     0
300
3" = 1'-0"
140
3.0
141
12.0
290
     0
  0
SCALE
  5
5B
102
{ACAD_REACTORS
330
3B
102
}
330
3B
100
AcDbScale
 70
     0
300
6" = 1'-0"
140
6.0
141
12.0
290
     0
  0
SCALE
  5
5C
102
{ACAD_REACTORS
330
3B
102
}
330
3B
100
AcDbScale
 70
     0
300
1'-0" = 1'-0"
140
12.0
141
12.0
290
     0
  0
VISUALSTYLE
  5
2F
102
{ACAD_REACTORS
330
2A
102
}
330
2A
100
AcDbVisualStyle
  2
2dWireframe
 70
     4
 71
     0
 72
     2
 73
     0
 90
        0
 40
-0.6
 41
-30.0
 62
     5
 63
     7
 74
     1
 91
        4
 64
     7
 65
   257
 75
     1
175
     1
 42
1.0
 92
        0
 66
   257
 43
1.0
 76
     1
 77
     6
 78
     2
 67
     7
 79
     5
170
     0
171
     0
290
     0
174
     0
 93
        1
 44
0.0
173
     0
291
     0
 45
0.0
1001
ACAD
1000
AcDbSavedByObjectVersion
1070
     0
  0
VISUALSTYLE
  5
31
102
{ACAD_REACTORS
330
2A
102
}
330
2A
100
AcDbVisualStyle
  2
3D Hidden
 70
     6
 71
     1
 72
     2
 73
     2
 90
        0
 40
-0.6
 41
-30.0
 62
     5
 63
     7
 74
     2
 91
        2
 64
     7
 65
   257
 75
     2
175
     1
 42
40.0
 92
        0
 66
   257
 43
1.0
 76
     1
 77
     6
 78
     2
 67
     7
 79
     3
170
     0
171
     0
290
     0
174
     0
 93
        1
 44
0.0
173
     0
291
     0
 45
0.0
1001
ACAD
1000
AcDbSavedByObjectVersion
1070
     0
  0
VISUALSTYLE
  5
30
102
{ACAD_REACTORS
330
2A
102
}
330
2A
100
AcDbVisualStyle
  2
3dWireframe
 70
     5
 71
     0
 72
     2
 73
     0
 90
        0
 40
-0.6
 41
-30.0
 62
     5
 63
     7
 74
     1
 91
        4
 64
     7
 65
   257
 75
     1
175
     1
 42
1.0
 92
        0
 66
   257
 43
1.0
 76
     1
 77
     6
 78
     2
 67
     7
 79
     5
170
     0
171
     0
290
     0
174
     0
 93
        1
 44
0.0
173
     0
291
     0
 45
0.0
1001
ACAD
1000
AcDbSavedByObjectVersion
1070
     0
  0
VISUALSTYLE
  5
32
102
{ACAD_REACTORS
330
2A
102
}
330
2A
100
AcDbVisualStyle
  2
Basic
 70
     7
 71
     1
 72
     0
 73
     1
 90
        0
 40
-0.6
 41
-30.0
 62
     5
 63
     7
 74
     0
 91
        4
 64
     7
 65
   257
 75
     1
175
     1
 42
1.0
 92
        8
 66
     7
 43
1.0
 76
     1
 77
     6
 78
     2
 67
     7
 79
     5
170
     0
171
     0
290
     0
174
     0
 93
        1
 44
0.0
173
     0
291
     1
 45
0.0
1001
ACAD
1000
AcDbSavedByObjectVersion
1070
     0
  0
VISUALSTYLE
  5
36
102
{ACAD_REACTORS
330
2A
102
}
330
2A
100
AcDbVisualStyle
  2
Brighten
 70
    12
 71
     2
 72
     2
 73
     0
 90
        0
 40
-0.6
 41
-30.0
 62
     5
 63
     7
 74
     1
 91
        4
 64
     7
 65
   257
 75
     1
175
     1
 42
1.0
 92
        8
 66
     7
 43
1.0
 76
     1
 77
     6
 78
     2
 67
     7
 79
     5
170
     0
171
     0
290
     0
174
     0
 93
        1
 44
50.0
173
     0
291
     1
 45
0.0
1001
ACAD
1000
AcDbSavedByObjectVersion
1070
     0
  0
VISUALSTYLE
  5
3A
102
{ACAD_REACTORS
330
2A
102
}
330
2A
100
AcDbVisualStyle
  2
ColorChange
 70
    16
 71
     2
 72
     2
 73
     3
 90
        0
 40
-0.6
 41
-30.0
 62
     5
 63
     8
 74
     1
 91
        4
 64
     7
 65
   257
 75
     1
175
     1
 42
1.0
 92
        8
 66
     8
 43
1.0
 76
     1
 77
     6
 78
     2
 67
     7
 79
     5
170
     0
171
     0
290
     0
174
     0
 93
        1
 44
0.0
173
     0
291
     1
 45
0.0
1001
ACAD
1000
AcDbSavedByObjectVersion
1070
     0
  0
VISUALSTYLE
  5
34
102
{ACAD_REACTORS
330
2A
102
}
330
2A
100
AcDbVisualStyle
  2
Conceptual
 70
     9
 71
     3
 72
     2
 73
     0
 90
        0
 40
-0.6
 41
-30.0
 62
     5
 63
     7
 74
     2
 91
        2
 64
     7
 65
   257
 75
     1
175
     1
 42
40.0
 92
        8
 66
     7
 43
1.0
 76
     1
 77
     6
 78
     2
 67
     7
 79
     3
170
     0
171
     0
290
     0
174
     0
 93
        1
 44
0.0
173
     0
291
     0
 45
0.0
1001
ACAD
1000
AcDbSavedByObjectVersion
1070
     0
  0
VISUALSTYLE
  5
35
102
{ACAD_REACTORS
330
2A
102
}
330
2A
100
AcDbVisualStyle
  2
Dim
 70
    11
 71
     2
 72
     2
 73
     0
 90
        0
 40
-0.6
 41
-30.0
 62
     5
 63
     7
 74
     1
 91
        4
 64
     7
 65
   257
 75
     1
175
     1
 42
1.0
 92
        8
 66
     7
 43
1.0
 76
     1
 77
     6
 78
     2
 67
     7
 79
     5
170
     0
171
     0
290
     0
174
     0
 93
        1
 44
-50.0
173
     0
291
     1
 45
0.0
1001
ACAD
1000
AcDbSavedByObjectVersion
1070
     0
  0
VISUALSTYLE
  5
39
102
{ACAD_REACTORS
330
2A
102
}
330
2A
100
AcDbVisualStyle
  2
Facepattern
 70
    15
 71
     2
 72
     2
 73
     0
 90
        0
 40
-0.6
 41
-30.0
 62
     5
 63
     7
 74
     1
 91
        4
 64
     7
 65
   257
 75
     1
175
     1
 42
1.0
 92
        8
 66
     7
 43
1.0
 76
     1
 77
     6
 78
     2
 67
     7
 79
     5
170
     0
171
     0
290
     0
174
     0
 93
        1
 44
0.0
173
     0
291
     1
 45
0.0
1001
ACAD
1000
AcDbSavedByObjectVersion
1070
     0
  0
VISUALSTYLE
  5
2B
102
{ACAD_REACTORS
330
2A
102
}
330
2A
100
AcDbVisualStyle
  2
Flat
 70
     0
 71
     2
 72
     1
 73
     1
 90
        2
 40
-0.6
 41
30.0
 62
     5
 63
     7
 74
     0
 91
        4
 64
     7
 65
   257
 75
     1
175
     1
 42
1.0
 92
        8
 66
     7
 43
1.0
 76
     1
 77
     6
 78
     2
 67
     7
 79
     5
170
     0
171
     0
290
     0
174
     0
 93
       13
 44
0.0
173
     0
291
     1
 45
0.0
1001
ACAD
1000
AcDbSavedByObjectVersion
1070
     0
  0
VISUALSTYLE
  5
2C
102
{ACAD_REACTORS
330
2A
102
}
330
2A
100
AcDbVisualStyle
  2
FlatWithEdges
 70
     1
 71
     2
 72
     1
 73
     1
 90
        2
 40
-0.6
 41
30.0
 62
     5
 63
     7
 74
     1
 91
        4
 64
     7
 65
   257
 75
     1
175
     1
 42
1.0
 92
        0
 66
   257
 43
1.0
 76
     1
 77
     6
 78
     2
 67
     7
 79
     5
170
     0
171
     0
290
     0
174
     0
 93
       13
 44
0.0
173
     0
291
     1
 45
0.0
1001
ACAD
1000
AcDbSavedByObjectVersion
1070
     0
  0
VISUALSTYLE
  5
2D
102
{ACAD_REACTORS
330
2A
102
}
330
2A
100
AcDbVisualStyle
  2
Gouraud
 70
     2
 71
     2
 72
     2
 73
     1
 90
        2
 40
-0.6
 41
30.0
 62
     5
 63
     7
 74
     0
 91
        4
 64
     7
 65
   257
 75
     1
175
     1
 42
1.0
 92
        0
 66
     7
 43
1.0
 76
     1
 77
     6
 78
     2
 67
     7
 79
     5
170
     0
171
     0
290
     0
174
     0
 93
       13
 44
0.0
173
     0
291
     1
 45
0.0
1001
ACAD
1000
AcDbSavedByObjectVersion
1070
     0
  0
VISUALSTYLE
  5
2E
102
{ACAD_REACTORS
330
2A
102
}
330
2A
100
AcDbVisualStyle
  2
GouraudWithEdges
 70
     3
 71
     2
 72
     2
 73
     1
 90
        2
 40
-0.6
 41
30.0
 62
     5
 63
     7
 74
     1
 91
        4
 64
     7
 65
   257
 75
     1
175
     1
 42
1.0
 92
        0
 66
   257
 43
1.0
 76
     1
 77
     6
 78
     2
 67
     7
 79
     5
170
     0
171
     0
290
     0
174
     0
 93
       13
 44
0.0
173
     0
291
     1
 45
0.0
1001
ACAD
1000
AcDbSavedByObjectVersion
1070
     0
  0
VISUALSTYLE
  5
38
102
{ACAD_REACTORS
330
2A
102
}
330
2A
100
AcDbVisualStyle
  2
Linepattern
 70
    14
 71
     2
 72
     2
 73
     0
 90
        0
 40
-0.6
 41
-30.0
 62
     5
 63
     7
 74
     1
 91
        4
 64
     7
 65
   257
 75
     7
175
     7
 42
1.0
 92
        8
 66
     7
 43
1.0
 76
     1
 77
     6
 78
     2
 67
     7
 79
     5
170
     0
171
     0
290
     0
174
     0
 93
        1
 44
0.0
173
     0
291
     1
 45
0.0
1001
ACAD
1000
AcDbSavedByObjectVersion
1070
     0
  0
VISUALSTYLE
  5
33
102
{ACAD_REACTORS
330
2A
102
}
330
2A
100
AcDbVisualStyle
  2
Realistic
 70
     8
 71
     2
 72
     2
 73
     0
 90
        0
 40
-0.6
 41
-30.0
 62
     5
 63
     7
 74
     1
 91
        0
 64
     7
 65
   257
 75
     1
175
     1
 42
1.0
 92
        8
 66
     8
 43
1.0
 76
     1
 77
     6
 78
     2
 67
     7
 79
     5
170
     0
171
     0
290
     0
174
     0
 93
       13
 44
0.0
173
     0
291
     0
 45
0.0
1001
ACAD
1000
AcDbSavedByObjectVersion
1070
     0
  0
VISUALSTYLE
  5
37
102
{ACAD_REACTORS
330
2A
102
}
330
2A
100
AcDbVisualStyle
  2
Thicken
 70
    13
 71
     2
 72
     2
 73
     0
 90
        0
 40
-0.6
 41
-30.0
 62
     5
 63
     7
 74
     1
 91
        4
 64
     7
 65
   257
 75
     1
175
     1
 42
1.0
 92
       12
 66
     7
 43
1.0
 76
     1
 77
     6
 78
     2
 67
     7
 79
     5
170
     0
171
     0
290
     0
174
     0
 93
        1
 44
0.0
173
     0
291
     1
 45
0.0
1001
ACAD
1000
AcDbSavedByObjectVersion
1070
     0
  0
DICTIONARYVAR
  5
264
102
{ACAD_REACTORS
330
263
102
}
330
263
100
DictionaryVariables
280
     0
  1
1:1
  0
DICTIONARYVAR
  5
268
102
{ACAD_REACTORS
330
263
102
}
330
263
100
DictionaryVariables
280
     0
  1
80.000000
  0
DICTIONARYVAR
  5
267
102
{ACAD_REACTORS
330
263
102
}
330
263
100
DictionaryVariables
280
     0
  1
5.000000
  0
ENDSEC
  0
EOF
