999
Converted by 3D Exploration 
999
XDimension Software, LLC
999
http://www.xdsoft.com/explorer/
0
SECTION
2
HEADER
9
$ACADVER
1
AC1008
9
$UCSORG
10
0.0
20
0.0
30
0.0
9
$UCSXDIR
10
1.0
20
0.0
30
0.0
9
$TILEMODE
70
1
9
$UCSYDIR
10
0.0
20
1.0
30
0.0
9
$EXTMIN
10
-35.000000
20
-35.000000
30
-35.000000
9
$EXTMAX
10
146.317993
20
45.404999
30
229.503006
0
ENDSEC
0
SECTION
2
TABLES
0
TABLE
2
LTYPE
70
1
0
LTYPE
2
CONTINUOUS
70
64
3
Solid line
72
65
73
0
40
0.0
0
ENDTAB
0
TABLE
2
LAYER
70
94
0
LAYER
2
OBJECT__0
70
0
62
253
6
CONTINUOUS
0
LAYER
2
OBJECT__1
70
0
62
253
6
CONTINUOUS
0
LAYER
2
OBJECT__3
70
0
62
253
6
CONTINUOUS
0
LAYER
2
OBJECT__4
70
0
62
253
6
CONTINUOUS
0
LAYER
2
OBJECT__5
70
0
62
253
6
CONTINUOUS
0
LAYER
2
OBJECT__6
70
0
62
253
6
CONTINUOUS
0
LAYER
2
OBJECT__7
70
0
62
253
6
CONTINUOUS
0
LAYER
2
OBJECT__8
70
0
62
253
6
CONTINUOUS
0
LAYER
2
OBJECT__9
70
0
62
253
6
CONTINUOUS
0
LAYER
2
OBJECT__10
70
0
62
253
6
CONTINUOUS
0
LAYER
2
OBJECT__11
70
0
62
253
6
CONTINUOUS
0
LAYER
2
OBJECT__13
70
0
62
253
6
CONTINUOUS
0
LAYER
2
OBJECT__14
70
0
62
253
6
CONTINUOUS
0
LAYER
2
OBJECT__15
70
0
62
253
6
CONTINUOUS
0
LAYER
2
OBJECT__16
70
0
62
253
6
CONTINUOUS
0
LAYER
2
OBJECT__17
70
0
62
253
6
CONTINUOUS
0
LAYER
2
OBJECT__19
70
0
62
253
6
CONTINUOUS
0
LAYER
2
OBJECT__20
70
0
62
253
6
CONTINUOUS
0
LAYER
2
OBJECT__22
70
0
62
253
6
CONTINUOUS
0
LAYER
2
OBJECT__23
70
0
62
253
6
CONTINUOUS
0
LAYER
2
OBJECT__24
70
0
62
253
6
CONTINUOUS
0
LAYER
2
OBJECT__25
70
0
62
253
6
CONTINUOUS
0
LAYER
2
OBJECT__26
70
0
62
253
6
CONTINUOUS
0
LAYER
2
OBJECT__27
70
0
62
253
6
CONTINUOUS
0
LAYER
2
OBJECT__28
70
0
62
253
6
CONTINUOUS
0
LAYER
2
OBJECT__29
70
0
62
253
6
CONTINUOUS
0
LAYER
2
OBJECT__30
70
0
62
253
6
CONTINUOUS
0
LAYER
2
OBJECT__31
70
0
62
253
6
CONTINUOUS
0
LAYER
2
OBJECT__32
70
0
62
253
6
CONTINUOUS
0
LAYER
2
OBJECT__33
70
0
62
253
6
CONTINUOUS
0
LAYER
2
OBJECT__34
70
0
62
253
6
CONTINUOUS
0
LAYER
2
OBJECT__35
70
0
62
253
6
CONTINUOUS
0
LAYER
2
OBJECT__36
70
0
62
253
6
CONTINUOUS
0
LAYER
2
OBJECT__37
70
0
62
253
6
CONTINUOUS
0
LAYER
2
OBJECT__38
70
0
62
253
6
CONTINUOUS
0
LAYER
2
OBJECT__39
70
0
62
253
6
CONTINUOUS
0
LAYER
2
OBJECT__40
70
0
62
253
6
CONTINUOUS
0
LAYER
2
OBJECT__41
70
0
62
253
6
CONTINUOUS
0
LAYER
2
OBJECT__42
70
0
62
253
6
CONTINUOUS
0
LAYER
2
OBJECT__43
70
0
62
253
6
CONTINUOUS
0
LAYER
2
OBJECT__44
70
0
62
253
6
CONTINUOUS
0
LAYER
2
OBJECT__45
70
0
62
253
6
CONTINUOUS
0
LAYER
2
OBJECT__46
70
0
62
253
6
CONTINUOUS
0
LAYER
2
OBJECT__47
70
0
62
253
6
CONTINUOUS
0
LAYER
2
OBJECT__48
70
0
62
253
6
CONTINUOUS
0
LAYER
2
OBJECT__49
70
0
62
253
6
CONTINUOUS
0
LAYER
2
OBJECT__50
70
0
62
253
6
CONTINUOUS
0
LAYER
2
OBJECT__51
70
0
62
253
6
CONTINUOUS
0
LAYER
2
OBJECT__52
70
0
62
253
6
CONTINUOUS
0
LAYER
2
OBJECT__53
70
0
62
253
6
CONTINUOUS
0
LAYER
2
OBJECT__54
70
0
62
253
6
CONTINUOUS
0
LAYER
2
OBJECT__55
70
0
62
253
6
CONTINUOUS
0
LAYER
2
OBJECT__56
70
0
62
253
6
CONTINUOUS
0
LAYER
2
OBJECT__57
70
0
62
253
6
CONTINUOUS
0
LAYER
2
OBJECT__58
70
0
62
253
6
CONTINUOUS
0
LAYER
2
OBJECT__59
70
0
62
253
6
CONTINUOUS
0
LAYER
2
OBJECT__60
70
0
62
253
6
CONTINUOUS
0
LAYER
2
OBJECT__61
70
0
62
253
6
CONTINUOUS
0
LAYER
2
OBJECT__62
70
0
62
253
6
CONTINUOUS
0
LAYER
2
OBJECT__64
70
0
62
253
6
CONTINUOUS
0
LAYER
2
OBJECT__65
70
0
62
253
6
CONTINUOUS
0
LAYER
2
OBJECT__67
70
0
62
253
6
CONTINUOUS
0
LAYER
2
OBJECT__68
70
0
62
253
6
CONTINUOUS
0
LAYER
2
OBJECT__69
70
0
62
253
6
CONTINUOUS
0
LAYER
2
OBJECT__70
70
0
62
253
6
CONTINUOUS
0
LAYER
2
OBJECT__71
70
0
62
253
6
CONTINUOUS
0
LAYER
2
OBJECT__72
70
0
62
253
6
CONTINUOUS
0
LAYER
2
OBJECT__73
70
0
62
253
6
CONTINUOUS
0
LAYER
2
OBJECT__74
70
0
62
253
6
CONTINUOUS
0
LAYER
2
OBJECT__75
70
0
62
253
6
CONTINUOUS
0
LAYER
2
OBJECT__76
70
0
62
253
6
CONTINUOUS
0
LAYER
2
OBJECT__77
70
0
62
253
6
CONTINUOUS
0
LAYER
2
OBJECT__78
70
0
62
253
6
CONTINUOUS
0
LAYER
2
OBJECT__79
70
0
62
253
6
CONTINUOUS
0
LAYER
2
OBJECT__80
70
0
62
253
6
CONTINUOUS
0
LAYER
2
OBJECT__82
70
0
62
253
6
CONTINUOUS
0
LAYER
2
OBJECT__83
70
0
62
253
6
CONTINUOUS
0
LAYER
2
OBJECT__84
70
0
62
253
6
CONTINUOUS
0
LAYER
2
OBJECT__85
70
0
62
253
6
CONTINUOUS
0
LAYER
2
OBJECT__86
70
0
62
253
6
CONTINUOUS
0
LAYER
2
OBJECT__87
70
0
62
253
6
CONTINUOUS
0
LAYER
2
OBJECT__88
70
0
62
253
6
CONTINUOUS
0
LAYER
2
OBJECT__89
70
0
62
253
6
CONTINUOUS
0
LAYER
2
OBJECT__90
70
0
62
253
6
CONTINUOUS
0
LAYER
2
OBJECT__91
70
0
62
253
6
CONTINUOUS
0
LAYER
2
OBJECT__92
70
0
62
253
6
CONTINUOUS
0
LAYER
2
OBJECT__93
70
0
62
253
6
CONTINUOUS
0
ENDTAB
0
TABLE
2
STYLE
70
1
0
STYLE
2
STANDARD
70
0
40
0.0
41
1.0
50
0.0
71
0
42
0.2
3
txt
4
1
0
ENDTAB
0
TABLE
2
UCS
70
0
0
ENDTAB
0
ENDSEC
0
SECTION
2
ENTITIES
0
POLYLINE
8
OBJECT__0
66
1
70
64
71
8
72
6
62
253
0
VERTEX
8
OBJECT__0
10
-10.500000
20
27.055000
30
28.311001
70
192
0
VERTEX
8
OBJECT__0
10
-13.836000
20
27.055000
30
42.926998
70
192
0
VERTEX
8
OBJECT__0
10
-17.996000
20
27.055000
30
37.710999
70
192
0
VERTEX
8
OBJECT__0
10
-7.164000
20
27.055000
30
42.926998
70
192
0
VERTEX
8
OBJECT__0
10
-4.489000
20
27.055000
30
31.205999
70
192
0
VERTEX
8
OBJECT__0
10
-10.500000
20
27.055000
30
43.688999
70
192
0
VERTEX
8
OBJECT__0
10
-3.004000
20
27.055000
30
37.710999
70
192
0
VERTEX
8
OBJECT__0
10
-16.511000
20
27.055000
30
31.205999
70
192
0
VERTEX
8
OBJECT__0
10
0
20
0
30
0
70
128
71
1
72
2
73
3
0
VERTEX
8
OBJECT__0
10
0
20
0
30
0
70
128
71
4
72
1
73
5
0
VERTEX
8
OBJECT__0
10
0
20
0
30
0
70
128
71
1
72
6
73
2
0
VERTEX
8
OBJECT__0
10
0
20
0
30
0
70
128
71
5
72
7
73
4
0
VERTEX
8
OBJECT__0
10
0
20
0
30
0
70
128
71
4
72
6
73
1
0
VERTEX
8
OBJECT__0
10
0
20
0
30
0
70
128
71
3
72
8
73
1
0
SEQEND
8
OBJECT__0
0
POLYLINE
8
OBJECT__1
66
1
70
64
71
29
72
29
62
253
0
VERTEX
8
OBJECT__1
10
-16.511000
20
27.055000
30
31.205999
70
192
0
VERTEX
8
OBJECT__1
10
-16.649000
20
44.896000
30
31.150999
70
192
0
VERTEX
8
OBJECT__1
10
-13.053000
20
44.896000
30
28.417999
70
192
0
VERTEX
8
OBJECT__1
10
-10.500000
20
27.055000
30
28.311001
70
192
0
VERTEX
8
OBJECT__1
10
-17.996000
20
27.055000
30
37.710999
70
192
0
VERTEX
8
OBJECT__1
10
-18.489000
20
44.896000
30
36.426998
70
192
0
VERTEX
8
OBJECT__1
10
-17.118999
20
44.896000
30
31.507999
70
192
0
VERTEX
8
OBJECT__1
10
-17.997999
20
44.896000
30
37.660999
70
192
0
VERTEX
8
OBJECT__1
10
-13.836000
20
27.055000
30
42.926998
70
192
0
VERTEX
8
OBJECT__1
10
-16.603001
20
44.896000
30
41.173000
70
192
0
VERTEX
8
OBJECT__1
10
-13.798000
20
44.896000
30
42.931999
70
192
0
VERTEX
8
OBJECT__1
10
-3.004000
20
27.055000
30
37.710999
70
192
0
VERTEX
8
OBJECT__1
10
-3.002000
20
44.896000
30
37.660999
70
192
0
VERTEX
8
OBJECT__1
10
-4.397000
20
44.896000
30
41.173000
70
192
0
VERTEX
8
OBJECT__1
10
-7.164000
20
27.055000
30
42.926998
70
192
0
VERTEX
8
OBJECT__1
10
-4.489000
20
27.055000
30
31.205999
70
192
0
VERTEX
8
OBJECT__1
10
-3.881000
20
44.896000
30
31.507999
70
192
0
VERTEX
8
OBJECT__1
10
-2.511000
20
44.896000
30
36.426998
70
192
0
VERTEX
8
OBJECT__1
10
-4.351000
20
44.896000
30
31.150999
70
192
0
VERTEX
8
OBJECT__1
10
-7.947000
20
44.896000
30
28.417999
70
192
0
VERTEX
8
OBJECT__1
10
-10.500000
20
44.896000
30
28.417999
70
192
0
VERTEX
8
OBJECT__1
10
-12.500000
20
35.250000
30
43.571999
70
192
0
VERTEX
8
OBJECT__1
10
-12.500000
20
33.904999
30
43.548000
70
192
0
VERTEX
8
OBJECT__1
10
-8.500000
20
33.904999
30
43.548000
70
192
0
VERTEX
8
OBJECT__1
10
-10.500000
20
27.055000
30
43.688999
70
192
0
VERTEX
8
OBJECT__1
10
-7.202000
20
44.896000
30
42.931999
70
192
0
VERTEX
8
OBJECT__1
10
-8.500000
20
44.896000
30
43.745998
70
192
0
VERTEX
8
OBJECT__1
10
-8.500000
20
35.250000
30
43.571999
70
192
0
VERTEX
8
OBJECT__1
10
-12.500000
20
44.896000
30
43.745998
70
192
0
VERTEX
8
OBJECT__1
10
0
20
0
30
0
70
128
71
1
72
2
73
3
0
VERTEX
8
OBJECT__1
10
0
20
0
30
0
70
128
71
3
72
4
73
1
0
VERTEX
8
OBJECT__1
10
0
20
0
30
0
70
128
71
1
72
5
73
6
0
VERTEX
8
OBJECT__1
10
0
20
0
30
0
70
128
71
6
72
7
73
1
0
VERTEX
8
OBJECT__1
10
0
20
0
30
0
70
128
71
5
72
8
73
6
0
VERTEX
8
OBJECT__1
10
0
20
0
30
0
70
128
71
5
72
9
73
10
0
VERTEX
8
OBJECT__1
10
0
20
0
30
0
70
128
71
9
72
11
73
10
0
VERTEX
8
OBJECT__1
10
0
20
0
30
0
70
128
71
12
72
13
73
14
0
VERTEX
8
OBJECT__1
10
0
20
0
30
0
70
128
71
14
72
15
73
12
0
VERTEX
8
OBJECT__1
10
0
20
0
30
0
70
128
71
16
72
17
73
18
0
VERTEX
8
OBJECT__1
10
0
20
0
30
0
70
128
71
16
72
19
73
17
0
VERTEX
8
OBJECT__1
10
0
20
0
30
0
70
128
71
18
72
12
73
16
0
VERTEX
8
OBJECT__1
10
0
20
0
30
0
70
128
71
16
72
4
73
20
0
VERTEX
8
OBJECT__1
10
0
20
0
30
0
70
128
71
4
72
21
73
20
0
VERTEX
8
OBJECT__1
10
0
20
0
30
0
70
128
71
11
72
9
73
22
0
VERTEX
8
OBJECT__1
10
0
20
0
30
0
70
128
71
9
72
23
73
22
0
VERTEX
8
OBJECT__1
10
0
20
0
30
0
70
128
71
24
72
23
73
25
0
VERTEX
8
OBJECT__1
10
0
20
0
30
0
70
128
71
23
72
9
73
25
0
VERTEX
8
OBJECT__1
10
0
20
0
30
0
70
128
71
25
72
15
73
24
0
VERTEX
8
OBJECT__1
10
0
20
0
30
0
70
128
71
26
72
27
73
28
0
VERTEX
8
OBJECT__1
10
0
20
0
30
0
70
128
71
28
72
15
73
26
0
VERTEX
8
OBJECT__1
10
0
20
0
30
0
70
128
71
28
72
24
73
15
0
VERTEX
8
OBJECT__1
10
0
20
0
30
0
70
128
71
22
72
29
73
11
0
VERTEX
8
OBJECT__1
10
0
20
0
30
0
70
128
71
20
72
19
73
16
0
VERTEX
8
OBJECT__1
10
0
20
0
30
0
70
128
71
18
72
13
73
12
0
VERTEX
8
OBJECT__1
10
0
20
0
30
0
70
128
71
14
72
26
73
15
0
VERTEX
8
OBJECT__1
10
0
20
0
30
0
70
128
71
10
72
8
73
5
0
VERTEX
8
OBJECT__1
10
0
20
0
30
0
70
128
71
7
72
2
73
1
0
VERTEX
8
OBJECT__1
10
0
20
0
30
0
70
128
71
3
72
21
73
4
0
SEQEND
8
OBJECT__1
0
POLYLINE
8
OBJECT__3
66
1
70
64
71
39
72
45
62
253
0
VERTEX
8
OBJECT__3
10
-16.493000
20
45.255001
30
41.080002
70
192
0
VERTEX
8
OBJECT__3
10
-16.221001
20
45.404999
30
40.849998
70
192
0
VERTEX
8
OBJECT__3
10
-17.989000
20
45.404999
30
36.401001
70
192
0
VERTEX
8
OBJECT__3
10
-18.344999
20
45.255001
30
36.419998
70
192
0
VERTEX
8
OBJECT__3
10
-16.705999
20
45.404999
30
31.788000
70
192
0
VERTEX
8
OBJECT__3
10
-17.000999
20
45.255001
30
31.587999
70
192
0
VERTEX
8
OBJECT__3
10
-12.894000
20
45.404999
30
28.892000
70
192
0
VERTEX
8
OBJECT__3
10
-13.008000
20
45.255001
30
28.554001
70
192
0
VERTEX
8
OBJECT__3
10
-8.106000
20
45.404999
30
28.892000
70
192
0
VERTEX
8
OBJECT__3
10
-7.992000
20
45.255001
30
28.554001
70
192
0
VERTEX
8
OBJECT__3
10
-4.294000
20
45.404999
30
31.788000
70
192
0
VERTEX
8
OBJECT__3
10
-2.655000
20
45.255001
30
36.419998
70
192
0
VERTEX
8
OBJECT__3
10
-3.999000
20
45.255001
30
31.587999
70
192
0
VERTEX
8
OBJECT__3
10
-4.507000
20
45.255001
30
41.080002
70
192
0
VERTEX
8
OBJECT__3
10
-3.011000
20
45.404999
30
36.401001
70
192
0
VERTEX
8
OBJECT__3
10
-17.997999
20
44.896000
30
37.660999
70
192
0
VERTEX
8
OBJECT__3
10
-18.489000
20
44.896000
30
36.426998
70
192
0
VERTEX
8
OBJECT__3
10
-13.053000
20
44.896000
30
28.417999
70
192
0
VERTEX
8
OBJECT__3
10
-16.649000
20
44.896000
30
31.150999
70
192
0
VERTEX
8
OBJECT__3
10
-10.500000
20
44.896000
30
28.417999
70
192
0
VERTEX
8
OBJECT__3
10
-7.947000
20
44.896000
30
28.417999
70
192
0
VERTEX
8
OBJECT__3
10
-4.351000
20
44.896000
30
31.150999
70
192
0
VERTEX
8
OBJECT__3
10
-3.881000
20
44.896000
30
31.507999
70
192
0
VERTEX
8
OBJECT__3
10
-4.397000
20
44.896000
30
41.173000
70
192
0
VERTEX
8
OBJECT__3
10
-3.002000
20
44.896000
30
37.660999
70
192
0
VERTEX
8
OBJECT__3
10
-4.779000
20
45.404999
30
40.849998
70
192
0
VERTEX
8
OBJECT__3
10
-8.500000
20
45.404999
30
43.228001
70
192
0
VERTEX
8
OBJECT__3
10
-8.500000
20
45.383999
30
43.376999
70
192
0
VERTEX
8
OBJECT__3
10
-8.500000
20
45.199001
30
43.516998
70
192
0
VERTEX
8
OBJECT__3
10
-7.202000
20
44.896000
30
42.931999
70
192
0
VERTEX
8
OBJECT__3
10
-8.500000
20
44.896000
30
43.745998
70
192
0
VERTEX
8
OBJECT__3
10
-16.603001
20
44.896000
30
41.173000
70
192
0
VERTEX
8
OBJECT__3
10
-13.798000
20
44.896000
30
42.931999
70
192
0
VERTEX
8
OBJECT__3
10
-12.500000
20
45.199001
30
43.516998
70
192
0
VERTEX
8
OBJECT__3
10
-12.500000
20
45.383999
30
43.376999
70
192
0
VERTEX
8
OBJECT__3
10
-12.500000
20
45.404999
30
43.228001
70
192
0
VERTEX
8
OBJECT__3
10
-12.500000
20
44.896000
30
43.745998
70
192
0
VERTEX
8
OBJECT__3
10
-2.511000
20
44.896000
30
36.426998
70
192
0
VERTEX
8
OBJECT__3
10
-17.118999
20
44.896000
30
31.507999
70
192
0
VERTEX
8
OBJECT__3
10
0
20
0
30
0
70
128
71
1
72
2
73
3
0
VERTEX
8
OBJECT__3
10
0
20
0
30
0
70
128
71
4
72
3
73
5
0
VERTEX
8
OBJECT__3
10
0
20
0
30
0
70
128
71
6
72
5
73
7
0
VERTEX
8
OBJECT__3
10
0
20
0
30
0
70
128
71
8
72
7
73
9
0
VERTEX
8
OBJECT__3
10
0
20
0
30
0
70
128
71
10
72
9
73
11
0
VERTEX
8
OBJECT__3
10
0
20
0
30
0
70
128
71
12
72
13
73
11
0
VERTEX
8
OBJECT__3
10
0
20
0
30
0
70
128
71
14
72
12
73
15
0
VERTEX
8
OBJECT__3
10
0
20
0
30
0
70
128
71
1
72
4
73
16
0
VERTEX
8
OBJECT__3
10
0
20
0
30
0
70
128
71
4
72
17
73
16
0
VERTEX
8
OBJECT__3
10
0
20
0
30
0
70
128
71
17
72
4
73
6
0
VERTEX
8
OBJECT__3
10
0
20
0
30
0
70
128
71
8
72
18
73
19
0
VERTEX
8
OBJECT__3
10
0
20
0
30
0
70
128
71
19
72
6
73
8
0
VERTEX
8
OBJECT__3
10
0
20
0
30
0
70
128
71
8
72
10
73
20
0
VERTEX
8
OBJECT__3
10
0
20
0
30
0
70
128
71
10
72
21
73
20
0
VERTEX
8
OBJECT__3
10
0
20
0
30
0
70
128
71
10
72
13
73
22
0
VERTEX
8
OBJECT__3
10
0
20
0
30
0
70
128
71
13
72
23
73
22
0
VERTEX
8
OBJECT__3
10
0
20
0
30
0
70
128
71
23
72
13
73
12
0
VERTEX
8
OBJECT__3
10
0
20
0
30
0
70
128
71
14
72
24
73
25
0
VERTEX
8
OBJECT__3
10
0
20
0
30
0
70
128
71
25
72
12
73
14
0
VERTEX
8
OBJECT__3
10
0
20
0
30
0
70
128
71
14
72
26
73
27
0
VERTEX
8
OBJECT__3
10
0
20
0
30
0
70
128
71
27
72
28
73
14
0
VERTEX
8
OBJECT__3
10
0
20
0
30
0
70
128
71
14
72
29
73
30
0
VERTEX
8
OBJECT__3
10
0
20
0
30
0
70
128
71
29
72
31
73
30
0
VERTEX
8
OBJECT__3
10
0
20
0
30
0
70
128
71
1
72
32
73
33
0
VERTEX
8
OBJECT__3
10
0
20
0
30
0
70
128
71
33
72
34
73
1
0
VERTEX
8
OBJECT__3
10
0
20
0
30
0
70
128
71
1
72
35
73
36
0
VERTEX
8
OBJECT__3
10
0
20
0
30
0
70
128
71
1
72
34
73
35
0
VERTEX
8
OBJECT__3
10
0
20
0
30
0
70
128
71
36
72
2
73
1
0
VERTEX
8
OBJECT__3
10
0
20
0
30
0
70
128
71
33
72
37
73
34
0
VERTEX
8
OBJECT__3
10
0
20
0
30
0
70
128
71
30
72
24
73
14
0
VERTEX
8
OBJECT__3
10
0
20
0
30
0
70
128
71
28
72
29
73
14
0
VERTEX
8
OBJECT__3
10
0
20
0
30
0
70
128
71
25
72
38
73
12
0
VERTEX
8
OBJECT__3
10
0
20
0
30
0
70
128
71
12
72
38
73
23
0
VERTEX
8
OBJECT__3
10
0
20
0
30
0
70
128
71
22
72
21
73
10
0
VERTEX
8
OBJECT__3
10
0
20
0
30
0
70
128
71
20
72
18
73
8
0
VERTEX
8
OBJECT__3
10
0
20
0
30
0
70
128
71
19
72
39
73
6
0
VERTEX
8
OBJECT__3
10
0
20
0
30
0
70
128
71
6
72
39
73
17
0
VERTEX
8
OBJECT__3
10
0
20
0
30
0
70
128
71
16
72
32
73
1
0
VERTEX
8
OBJECT__3
10
0
20
0
30
0
70
128
71
15
72
26
73
14
0
VERTEX
8
OBJECT__3
10
0
20
0
30
0
70
128
71
11
72
15
73
12
0
VERTEX
8
OBJECT__3
10
0
20
0
30
0
70
128
71
11
72
13
73
10
0
VERTEX
8
OBJECT__3
10
0
20
0
30
0
70
128
71
9
72
10
73
8
0
VERTEX
8
OBJECT__3
10
0
20
0
30
0
70
128
71
7
72
8
73
6
0
VERTEX
8
OBJECT__3
10
0
20
0
30
0
70
128
71
5
72
6
73
4
0
VERTEX
8
OBJECT__3
10
0
20
0
30
0
70
128
71
3
72
4
73
1
0
SEQEND
8
OBJECT__3
0
POLYLINE
8
OBJECT__4
66
1
70
64
71
12
72
10
62
253
0
VERTEX
8
OBJECT__4
10
-17.989000
20
45.404999
30
36.401001
70
192
0
VERTEX
8
OBJECT__4
10
-4.294000
20
45.404999
30
31.788000
70
192
0
VERTEX
8
OBJECT__4
10
-8.106000
20
45.404999
30
28.892000
70
192
0
VERTEX
8
OBJECT__4
10
-12.894000
20
45.404999
30
28.892000
70
192
0
VERTEX
8
OBJECT__4
10
-3.011000
20
45.404999
30
36.401001
70
192
0
VERTEX
8
OBJECT__4
10
-12.500000
20
45.404999
30
43.228001
70
192
0
VERTEX
8
OBJECT__4
10
-8.500000
20
45.404999
30
43.228001
70
192
0
VERTEX
8
OBJECT__4
10
-8.500000
20
45.404999
30
64.000000
70
192
0
VERTEX
8
OBJECT__4
10
-16.221001
20
45.404999
30
40.849998
70
192
0
VERTEX
8
OBJECT__4
10
-16.705999
20
45.404999
30
31.788000
70
192
0
VERTEX
8
OBJECT__4
10
-12.500000
20
45.404999
30
64.000000
70
192
0
VERTEX
8
OBJECT__4
10
-4.779000
20
45.404999
30
40.849998
70
192
0
VERTEX
8
OBJECT__4
10
0
20
0
30
0
70
128
71
1
72
2
73
3
0
VERTEX
8
OBJECT__4
10
0
20
0
30
0
70
128
71
3
72
4
73
1
0
VERTEX
8
OBJECT__4
10
0
20
0
30
0
70
128
71
5
72
6
73
7
0
VERTEX
8
OBJECT__4
10
0
20
0
30
0
70
128
71
8
72
7
73
6
0
VERTEX
8
OBJECT__4
10
0
20
0
30
0
70
128
71
2
72
9
73
6
0
VERTEX
8
OBJECT__4
10
0
20
0
30
0
70
128
71
4
72
10
73
1
0
VERTEX
8
OBJECT__4
10
0
20
0
30
0
70
128
71
6
72
11
73
8
0
VERTEX
8
OBJECT__4
10
0
20
0
30
0
70
128
71
1
72
9
73
2
0
VERTEX
8
OBJECT__4
10
0
20
0
30
0
70
128
71
6
72
5
73
2
0
VERTEX
8
OBJECT__4
10
0
20
0
30
0
70
128
71
7
72
12
73
5
0
SEQEND
8
OBJECT__4
0
POLYLINE
8
OBJECT__5
66
1
70
64
71
9
72
7
62
253
0
VERTEX
8
OBJECT__5
10
-8.500000
20
44.904999
30
64.000000
70
192
0
VERTEX
8
OBJECT__5
10
-8.500000
20
33.904999
30
63.807999
70
192
0
VERTEX
8
OBJECT__5
10
-8.500000
20
35.250000
30
43.571999
70
192
0
VERTEX
8
OBJECT__5
10
-8.500000
20
44.896000
30
43.745998
70
192
0
VERTEX
8
OBJECT__5
10
-8.500000
20
45.404999
30
64.000000
70
192
0
VERTEX
8
OBJECT__5
10
-8.500000
20
45.199001
30
43.516998
70
192
0
VERTEX
8
OBJECT__5
10
-8.500000
20
33.904999
30
43.548000
70
192
0
VERTEX
8
OBJECT__5
10
-8.500000
20
45.383999
30
43.376999
70
192
0
VERTEX
8
OBJECT__5
10
-8.500000
20
45.404999
30
43.228001
70
192
0
VERTEX
8
OBJECT__5
10
0
20
0
30
0
70
128
71
1
72
2
73
3
0
VERTEX
8
OBJECT__5
10
0
20
0
30
0
70
128
71
4
72
5
73
1
0
VERTEX
8
OBJECT__5
10
0
20
0
30
0
70
128
71
5
72
4
73
6
0
VERTEX
8
OBJECT__5
10
0
20
0
30
0
70
128
71
2
72
7
73
3
0
VERTEX
8
OBJECT__5
10
0
20
0
30
0
70
128
71
3
72
4
73
1
0
VERTEX
8
OBJECT__5
10
0
20
0
30
0
70
128
71
6
72
8
73
5
0
VERTEX
8
OBJECT__5
10
0
20
0
30
0
70
128
71
8
72
9
73
5
0
SEQEND
8
OBJECT__5
0
POLYLINE
8
OBJECT__6
66
1
70
64
71
9
72
7
62
253
0
VERTEX
8
OBJECT__6
10
-12.500000
20
33.904999
30
63.807999
70
192
0
VERTEX
8
OBJECT__6
10
-12.500000
20
44.896000
30
43.745998
70
192
0
VERTEX
8
OBJECT__6
10
-12.500000
20
35.250000
30
43.571999
70
192
0
VERTEX
8
OBJECT__6
10
-12.500000
20
45.383999
30
43.376999
70
192
0
VERTEX
8
OBJECT__6
10
-12.500000
20
45.199001
30
43.516998
70
192
0
VERTEX
8
OBJECT__6
10
-12.500000
20
45.404999
30
64.000000
70
192
0
VERTEX
8
OBJECT__6
10
-12.500000
20
45.404999
30
43.228001
70
192
0
VERTEX
8
OBJECT__6
10
-12.500000
20
44.904999
30
64.000000
70
192
0
VERTEX
8
OBJECT__6
10
-12.500000
20
33.904999
30
43.548000
70
192
0
VERTEX
8
OBJECT__6
10
0
20
0
30
0
70
128
71
1
72
2
73
3
0
VERTEX
8
OBJECT__6
10
0
20
0
30
0
70
128
71
1
72
4
73
5
0
VERTEX
8
OBJECT__6
10
0
20
0
30
0
70
128
71
6
72
7
73
4
0
VERTEX
8
OBJECT__6
10
0
20
0
30
0
70
128
71
5
72
2
73
1
0
VERTEX
8
OBJECT__6
10
0
20
0
30
0
70
128
71
4
72
8
73
6
0
VERTEX
8
OBJECT__6
10
0
20
0
30
0
70
128
71
4
72
1
73
8
0
VERTEX
8
OBJECT__6
10
0
20
0
30
0
70
128
71
3
72
9
73
1
0
SEQEND
8
OBJECT__6
0
POLYLINE
8
OBJECT__7
66
1
70
64
71
4
72
2
62
253
0
VERTEX
8
OBJECT__7
10
-12.500000
20
45.404999
30
64.000000
70
192
0
VERTEX
8
OBJECT__7
10
-12.500000
20
44.904999
30
64.000000
70
192
0
VERTEX
8
OBJECT__7
10
-8.500000
20
44.904999
30
64.000000
70
192
0
VERTEX
8
OBJECT__7
10
-8.500000
20
45.404999
30
64.000000
70
192
0
VERTEX
8
OBJECT__7
10
0
20
0
30
0
70
128
71
1
72
2
73
3
0
VERTEX
8
OBJECT__7
10
0
20
0
30
0
70
128
71
3
72
4
73
1
0
SEQEND
8
OBJECT__7
0
POLYLINE
8
OBJECT__8
66
1
70
64
71
4
72
2
62
253
0
VERTEX
8
OBJECT__8
10
-12.500000
20
44.904999
30
64.000000
70
192
0
VERTEX
8
OBJECT__8
10
-12.500000
20
33.904999
30
63.807999
70
192
0
VERTEX
8
OBJECT__8
10
-8.500000
20
33.904999
30
63.807999
70
192
0
VERTEX
8
OBJECT__8
10
-8.500000
20
44.904999
30
64.000000
70
192
0
VERTEX
8
OBJECT__8
10
0
20
0
30
0
70
128
71
1
72
2
73
3
0
VERTEX
8
OBJECT__8
10
0
20
0
30
0
70
128
71
3
72
4
73
1
0
SEQEND
8
OBJECT__8
0
POLYLINE
8
OBJECT__9
66
1
70
64
71
4
72
2
62
253
0
VERTEX
8
OBJECT__9
10
-12.500000
20
33.904999
30
63.807999
70
192
0
VERTEX
8
OBJECT__9
10
-12.500000
20
33.904999
30
43.548000
70
192
0
VERTEX
8
OBJECT__9
10
-8.500000
20
33.904999
30
43.548000
70
192
0
VERTEX
8
OBJECT__9
10
-8.500000
20
33.904999
30
63.807999
70
192
0
VERTEX
8
OBJECT__9
10
0
20
0
30
0
70
128
71
1
72
2
73
3
0
VERTEX
8
OBJECT__9
10
0
20
0
30
0
70
128
71
3
72
4
73
1
0
SEQEND
8
OBJECT__9
0
POLYLINE
8
OBJECT__10
66
1
70
64
71
18
72
18
62
253
0
VERTEX
8
OBJECT__10
10
35.000000
20
35.000000
30
0.000000
70
192
0
VERTEX
8
OBJECT__10
10
-35.000000
20
35.000000
30
0.000000
70
192
0
VERTEX
8
OBJECT__10
10
0.000000
20
24.268999
30
0.000000
70
192
0
VERTEX
8
OBJECT__10
10
-10.530000
20
21.865000
30
0.000000
70
192
0
VERTEX
8
OBJECT__10
10
-35.000000
20
-35.000000
30
0.000000
70
192
0
VERTEX
8
OBJECT__10
10
-23.660000
20
-5.400000
30
0.000000
70
192
0
VERTEX
8
OBJECT__10
10
-23.660000
20
5.400000
30
0.000000
70
192
0
VERTEX
8
OBJECT__10
10
-18.974001
20
15.131000
30
0.000000
70
192
0
VERTEX
8
OBJECT__10
10
0.000000
20
-24.268999
30
0.000000
70
192
0
VERTEX
8
OBJECT__10
10
-10.530000
20
-21.865000
30
0.000000
70
192
0
VERTEX
8
OBJECT__10
10
-18.974001
20
-15.131000
30
0.000000
70
192
0
VERTEX
8
OBJECT__10
10
35.000000
20
-35.000000
30
0.000000
70
192
0
VERTEX
8
OBJECT__10
10
10.530000
20
-21.865000
30
0.000000
70
192
0
VERTEX
8
OBJECT__10
10
23.660000
20
5.400000
30
0.000000
70
192
0
VERTEX
8
OBJECT__10
10
10.530000
20
21.865000
30
0.000000
70
192
0
VERTEX
8
OBJECT__10
10
18.974001
20
15.131000
30
0.000000
70
192
0
VERTEX
8
OBJECT__10
10
18.974001
20
-15.131000
30
0.000000
70
192
0
VERTEX
8
OBJECT__10
10
23.660000
20
-5.400000
30
0.000000
70
192
0
VERTEX
8
OBJECT__10
10
0
20
0
30
0
70
128
71
1
72
2
73
3
0
VERTEX
8
OBJECT__10
10
0
20
0
30
0
70
128
71
2
72
4
73
3
0
VERTEX
8
OBJECT__10
10
0
20
0
30
0
70
128
71
5
72
6
73
7
0
VERTEX
8
OBJECT__10
10
0
20
0
30
0
70
128
71
2
72
8
73
4
0
VERTEX
8
OBJECT__10
10
0
20
0
30
0
70
128
71
7
72
2
73
5
0
VERTEX
8
OBJECT__10
10
0
20
0
30
0
70
128
71
5
72
9
73
10
0
VERTEX
8
OBJECT__10
10
0
20
0
30
0
70
128
71
7
72
8
73
2
0
VERTEX
8
OBJECT__10
10
0
20
0
30
0
70
128
71
10
72
11
73
5
0
VERTEX
8
OBJECT__10
10
0
20
0
30
0
70
128
71
12
72
13
73
9
0
VERTEX
8
OBJECT__10
10
0
20
0
30
0
70
128
71
12
72
1
73
14
0
VERTEX
8
OBJECT__10
10
0
20
0
30
0
70
128
71
1
72
15
73
16
0
VERTEX
8
OBJECT__10
10
0
20
0
30
0
70
128
71
11
72
6
73
5
0
VERTEX
8
OBJECT__10
10
0
20
0
30
0
70
128
71
12
72
17
73
13
0
VERTEX
8
OBJECT__10
10
0
20
0
30
0
70
128
71
14
72
18
73
12
0
VERTEX
8
OBJECT__10
10
0
20
0
30
0
70
128
71
3
72
15
73
1
0
VERTEX
8
OBJECT__10
10
0
20
0
30
0
70
128
71
18
72
17
73
12
0
VERTEX
8
OBJECT__10
10
0
20
0
30
0
70
128
71
9
72
5
73
12
0
VERTEX
8
OBJECT__10
10
0
20
0
30
0
70
128
71
16
72
14
73
1
0
SEQEND
8
OBJECT__10
0
POLYLINE
8
OBJECT__11
66
1
70
64
71
4
72
2
62
253
0
VERTEX
8
OBJECT__11
10
35.000000
20
-35.000000
30
-10.000000
70
192
0
VERTEX
8
OBJECT__11
10
35.000000
20
35.000000
30
-10.000000
70
192
0
VERTEX
8
OBJECT__11
10
35.000000
20
35.000000
30
0.000000
70
192
0
VERTEX
8
OBJECT__11
10
35.000000
20
-35.000000
30
0.000000
70
192
0
VERTEX
8
OBJECT__11
10
0
20
0
30
0
70
128
71
1
72
2
73
3
0
VERTEX
8
OBJECT__11
10
0
20
0
30
0
70
128
71
3
72
4
73
1
0
SEQEND
8
OBJECT__11
0
POLYLINE
8
OBJECT__13
66
1
70
64
71
4
72
2
62
253
0
VERTEX
8
OBJECT__13
10
-35.000000
20
-35.000000
30
-10.000000
70
192
0
VERTEX
8
OBJECT__13
10
35.000000
20
-35.000000
30
-10.000000
70
192
0
VERTEX
8
OBJECT__13
10
35.000000
20
-35.000000
30
0.000000
70
192
0
VERTEX
8
OBJECT__13
10
-35.000000
20
-35.000000
30
0.000000
70
192
0
VERTEX
8
OBJECT__13
10
0
20
0
30
0
70
128
71
1
72
2
73
3
0
VERTEX
8
OBJECT__13
10
0
20
0
30
0
70
128
71
3
72
4
73
1
0
SEQEND
8
OBJECT__13
0
POLYLINE
8
OBJECT__14
66
1
70
64
71
4
72
2
62
253
0
VERTEX
8
OBJECT__14
10
-35.000000
20
-35.000000
30
-10.000000
70
192
0
VERTEX
8
OBJECT__14
10
-35.000000
20
-35.000000
30
0.000000
70
192
0
VERTEX
8
OBJECT__14
10
-35.000000
20
35.000000
30
0.000000
70
192
0
VERTEX
8
OBJECT__14
10
-35.000000
20
35.000000
30
-10.000000
70
192
0
VERTEX
8
OBJECT__14
10
0
20
0
30
0
70
128
71
1
72
2
73
3
0
VERTEX
8
OBJECT__14
10
0
20
0
30
0
70
128
71
3
72
4
73
1
0
SEQEND
8
OBJECT__14
0
POLYLINE
8
OBJECT__15
66
1
70
64
71
4
72
2
62
253
0
VERTEX
8
OBJECT__15
10
35.000000
20
35.000000
30
-10.000000
70
192
0
VERTEX
8
OBJECT__15
10
-35.000000
20
35.000000
30
-10.000000
70
192
0
VERTEX
8
OBJECT__15
10
-35.000000
20
35.000000
30
0.000000
70
192
0
VERTEX
8
OBJECT__15
10
35.000000
20
35.000000
30
0.000000
70
192
0
VERTEX
8
OBJECT__15
10
0
20
0
30
0
70
128
71
1
72
2
73
3
0
VERTEX
8
OBJECT__15
10
0
20
0
30
0
70
128
71
3
72
4
73
1
0
SEQEND
8
OBJECT__15
0
POLYLINE
8
OBJECT__16
66
1
70
64
71
4
72
2
62
253
0
VERTEX
8
OBJECT__16
10
35.000000
20
35.000000
30
-10.000000
70
192
0
VERTEX
8
OBJECT__16
10
35.000000
20
-35.000000
30
-10.000000
70
192
0
VERTEX
8
OBJECT__16
10
-35.000000
20
-35.000000
30
-10.000000
70
192
0
VERTEX
8
OBJECT__16
10
-35.000000
20
35.000000
30
-10.000000
70
192
0
VERTEX
8
OBJECT__16
10
0
20
0
30
0
70
128
71
1
72
2
73
3
0
VERTEX
8
OBJECT__16
10
0
20
0
30
0
70
128
71
3
72
4
73
1
0
SEQEND
8
OBJECT__16
0
POLYLINE
8
OBJECT__17
66
1
70
64
71
12
72
12
62
253
0
VERTEX
8
OBJECT__17
10
-4.500000
20
15.050000
30
36.000000
70
192
0
VERTEX
8
OBJECT__17
10
-7.500000
20
15.050000
30
30.804001
70
192
0
VERTEX
8
OBJECT__17
10
-7.500000
20
30.850000
30
30.804001
70
192
0
VERTEX
8
OBJECT__17
10
-4.500000
20
30.850000
30
36.000000
70
192
0
VERTEX
8
OBJECT__17
10
-13.500000
20
15.050000
30
30.804001
70
192
0
VERTEX
8
OBJECT__17
10
-13.500000
20
30.850000
30
30.804001
70
192
0
VERTEX
8
OBJECT__17
10
-16.500000
20
15.050000
30
36.000000
70
192
0
VERTEX
8
OBJECT__17
10
-16.500000
20
30.850000
30
36.000000
70
192
0
VERTEX
8
OBJECT__17
10
-13.500000
20
15.050000
30
41.195999
70
192
0
VERTEX
8
OBJECT__17
10
-13.500000
20
30.850000
30
41.195999
70
192
0
VERTEX
8
OBJECT__17
10
-7.500000
20
15.050000
30
41.195999
70
192
0
VERTEX
8
OBJECT__17
10
-7.500000
20
30.850000
30
41.195999
70
192
0
VERTEX
8
OBJECT__17
10
0
20
0
30
0
70
128
71
1
72
2
73
3
0
VERTEX
8
OBJECT__17
10
0
20
0
30
0
70
128
71
1
72
3
73
4
0
VERTEX
8
OBJECT__17
10
0
20
0
30
0
70
128
71
2
72
5
73
6
0
VERTEX
8
OBJECT__17
10
0
20
0
30
0
70
128
71
2
72
6
73
3
0
VERTEX
8
OBJECT__17
10
0
20
0
30
0
70
128
71
5
72
7
73
8
0
VERTEX
8
OBJECT__17
10
0
20
0
30
0
70
128
71
5
72
8
73
6
0
VERTEX
8
OBJECT__17
10
0
20
0
30
0
70
128
71
7
72
9
73
10
0
VERTEX
8
OBJECT__17
10
0
20
0
30
0
70
128
71
7
72
10
73
8
0
VERTEX
8
OBJECT__17
10
0
20
0
30
0
70
128
71
9
72
11
73
12
0
VERTEX
8
OBJECT__17
10
0
20
0
30
0
70
128
71
9
72
12
73
10
0
VERTEX
8
OBJECT__17
10
0
20
0
30
0
70
128
71
11
72
1
73
4
0
VERTEX
8
OBJECT__17
10
0
20
0
30
0
70
128
71
11
72
4
73
12
0
SEQEND
8
OBJECT__17
0
POLYLINE
8
OBJECT__19
66
1
70
64
71
6
72
4
62
253
0
VERTEX
8
OBJECT__19
10
-6.354000
20
14.854000
30
191.003006
70
192
0
VERTEX
8
OBJECT__19
10
-6.354000
20
14.854000
30
144.500000
70
192
0
VERTEX
8
OBJECT__19
10
-6.500000
20
14.500000
30
144.500000
70
192
0
VERTEX
8
OBJECT__19
10
-6.000000
20
15.000000
30
144.500000
70
192
0
VERTEX
8
OBJECT__19
10
-6.000000
20
15.000000
30
191.003006
70
192
0
VERTEX
8
OBJECT__19
10
-6.500000
20
14.500000
30
191.003006
70
192
0
VERTEX
8
OBJECT__19
10
0
20
0
30
0
70
128
71
1
72
2
73
3
0
VERTEX
8
OBJECT__19
10
0
20
0
30
0
70
128
71
4
72
2
73
1
0
VERTEX
8
OBJECT__19
10
0
20
0
30
0
70
128
71
1
72
5
73
4
0
VERTEX
8
OBJECT__19
10
0
20
0
30
0
70
128
71
3
72
6
73
1
0
SEQEND
8
OBJECT__19
0
POLYLINE
8
OBJECT__20
66
1
70
64
71
21
72
23
62
253
0
VERTEX
8
OBJECT__20
10
32.000000
20
14.854000
30
229.356003
70
192
0
VERTEX
8
OBJECT__20
10
32.000000
20
15.000000
30
229.003006
70
192
0
VERTEX
8
OBJECT__20
10
20.257000
20
15.000000
30
227.143005
70
192
0
VERTEX
8
OBJECT__20
10
20.148001
20
14.854000
30
227.479004
70
192
0
VERTEX
8
OBJECT__20
10
9.664000
20
15.000000
30
221.744995
70
192
0
VERTEX
8
OBJECT__20
10
9.456000
20
14.854000
30
222.031006
70
192
0
VERTEX
8
OBJECT__20
10
1.257000
20
15.000000
30
213.337997
70
192
0
VERTEX
8
OBJECT__20
10
0.971000
20
14.854000
30
213.546005
70
192
0
VERTEX
8
OBJECT__20
10
-4.140000
20
15.000000
30
202.744995
70
192
0
VERTEX
8
OBJECT__20
10
-4.476000
20
14.854000
30
202.854004
70
192
0
VERTEX
8
OBJECT__20
10
-6.000000
20
15.000000
30
191.003006
70
192
0
VERTEX
8
OBJECT__20
10
20.103001
20
14.500000
30
227.617996
70
192
0
VERTEX
8
OBJECT__20
10
32.000000
20
14.500000
30
229.503006
70
192
0
VERTEX
8
OBJECT__20
10
9.370000
20
14.500000
30
222.149994
70
192
0
VERTEX
8
OBJECT__20
10
17.427999
20
14.500000
30
226.255005
70
192
0
VERTEX
8
OBJECT__20
10
5.112000
20
14.500000
30
217.891006
70
192
0
VERTEX
8
OBJECT__20
10
0.853000
20
14.500000
30
213.632004
70
192
0
VERTEX
8
OBJECT__20
10
-3.253000
20
14.500000
30
205.574997
70
192
0
VERTEX
8
OBJECT__20
10
-4.616000
20
14.500000
30
202.899994
70
192
0
VERTEX
8
OBJECT__20
10
-6.500000
20
14.500000
30
191.003006
70
192
0
VERTEX
8
OBJECT__20
10
-6.354000
20
14.854000
30
191.003006
70
192
0
VERTEX
8
OBJECT__20
10
0
20
0
30
0
70
128
71
1
72
2
73
3
0
VERTEX
8
OBJECT__20
10
0
20
0
30
0
70
128
71
4
72
3
73
5
0
VERTEX
8
OBJECT__20
10
0
20
0
30
0
70
128
71
6
72
5
73
7
0
VERTEX
8
OBJECT__20
10
0
20
0
30
0
70
128
71
8
72
7
73
9
0
VERTEX
8
OBJECT__20
10
0
20
0
30
0
70
128
71
10
72
9
73
11
0
VERTEX
8
OBJECT__20
10
0
20
0
30
0
70
128
71
12
72
13
73
1
0
VERTEX
8
OBJECT__20
10
0
20
0
30
0
70
128
71
6
72
14
73
15
0
VERTEX
8
OBJECT__20
10
0
20
0
30
0
70
128
71
15
72
4
73
6
0
VERTEX
8
OBJECT__20
10
0
20
0
30
0
70
128
71
6
72
8
73
16
0
VERTEX
8
OBJECT__20
10
0
20
0
30
0
70
128
71
8
72
17
73
16
0
VERTEX
8
OBJECT__20
10
0
20
0
30
0
70
128
71
8
72
10
73
18
0
VERTEX
8
OBJECT__20
10
0
20
0
30
0
70
128
71
10
72
19
73
18
0
VERTEX
8
OBJECT__20
10
0
20
0
30
0
70
128
71
20
72
19
73
10
0
VERTEX
8
OBJECT__20
10
0
20
0
30
0
70
128
71
10
72
21
73
20
0
VERTEX
8
OBJECT__20
10
0
20
0
30
0
70
128
71
18
72
17
73
8
0
VERTEX
8
OBJECT__20
10
0
20
0
30
0
70
128
71
16
72
14
73
6
0
VERTEX
8
OBJECT__20
10
0
20
0
30
0
70
128
71
15
72
12
73
4
0
VERTEX
8
OBJECT__20
10
0
20
0
30
0
70
128
71
1
72
4
73
12
0
VERTEX
8
OBJECT__20
10
0
20
0
30
0
70
128
71
11
72
21
73
10
0
VERTEX
8
OBJECT__20
10
0
20
0
30
0
70
128
71
9
72
10
73
8
0
VERTEX
8
OBJECT__20
10
0
20
0
30
0
70
128
71
7
72
8
73
6
0
VERTEX
8
OBJECT__20
10
0
20
0
30
0
70
128
71
5
72
6
73
4
0
VERTEX
8
OBJECT__20
10
0
20
0
30
0
70
128
71
3
72
4
73
1
0
SEQEND
8
OBJECT__20
0
POLYLINE
8
OBJECT__22
66
1
70
64
71
4
72
2
62
253
0
VERTEX
8
OBJECT__22
10
-6.500000
20
-14.500000
30
191.003006
70
192
0
VERTEX
8
OBJECT__22
10
-6.500000
20
14.500000
30
191.003006
70
192
0
VERTEX
8
OBJECT__22
10
-6.500000
20
14.500000
30
144.500000
70
192
0
VERTEX
8
OBJECT__22
10
-6.500000
20
-14.500000
30
144.500000
70
192
0
VERTEX
8
OBJECT__22
10
0
20
0
30
0
70
128
71
1
72
2
73
3
0
VERTEX
8
OBJECT__22
10
0
20
0
30
0
70
128
71
3
72
4
73
1
0
SEQEND
8
OBJECT__22
0
POLYLINE
8
OBJECT__23
66
1
70
64
71
6
72
4
62
253
0
VERTEX
8
OBJECT__23
10
106.400002
20
14.500000
30
229.503006
70
192
0
VERTEX
8
OBJECT__23
10
106.400002
20
14.854000
30
229.356003
70
192
0
VERTEX
8
OBJECT__23
10
32.000000
20
14.854000
30
229.356003
70
192
0
VERTEX
8
OBJECT__23
10
106.400002
20
15.000000
30
229.003006
70
192
0
VERTEX
8
OBJECT__23
10
32.000000
20
15.000000
30
229.003006
70
192
0
VERTEX
8
OBJECT__23
10
32.000000
20
14.500000
30
229.503006
70
192
0
VERTEX
8
OBJECT__23
10
0
20
0
30
0
70
128
71
1
72
2
73
3
0
VERTEX
8
OBJECT__23
10
0
20
0
30
0
70
128
71
4
72
5
73
3
0
VERTEX
8
OBJECT__23
10
0
20
0
30
0
70
128
71
3
72
2
73
4
0
VERTEX
8
OBJECT__23
10
0
20
0
30
0
70
128
71
3
72
6
73
1
0
SEQEND
8
OBJECT__23
0
POLYLINE
8
OBJECT__24
66
1
70
64
71
18
72
16
62
253
0
VERTEX
8
OBJECT__24
10
17.427999
20
-14.500000
30
226.255005
70
192
0
VERTEX
8
OBJECT__24
10
20.103001
20
-14.500000
30
227.617996
70
192
0
VERTEX
8
OBJECT__24
10
20.103001
20
14.500000
30
227.617996
70
192
0
VERTEX
8
OBJECT__24
10
32.000000
20
-14.500000
30
229.503006
70
192
0
VERTEX
8
OBJECT__24
10
32.000000
20
14.500000
30
229.503006
70
192
0
VERTEX
8
OBJECT__24
10
9.370000
20
-14.500000
30
222.149994
70
192
0
VERTEX
8
OBJECT__24
10
9.370000
20
14.500000
30
222.149994
70
192
0
VERTEX
8
OBJECT__24
10
5.112000
20
14.500000
30
217.891006
70
192
0
VERTEX
8
OBJECT__24
10
17.427999
20
14.500000
30
226.255005
70
192
0
VERTEX
8
OBJECT__24
10
-3.253000
20
-14.500000
30
205.574997
70
192
0
VERTEX
8
OBJECT__24
10
0.853000
20
-14.500000
30
213.632004
70
192
0
VERTEX
8
OBJECT__24
10
0.853000
20
14.500000
30
213.632004
70
192
0
VERTEX
8
OBJECT__24
10
5.112000
20
-14.500000
30
217.891006
70
192
0
VERTEX
8
OBJECT__24
10
-4.616000
20
14.500000
30
202.899994
70
192
0
VERTEX
8
OBJECT__24
10
-6.500000
20
14.500000
30
191.003006
70
192
0
VERTEX
8
OBJECT__24
10
-6.500000
20
-14.500000
30
191.003006
70
192
0
VERTEX
8
OBJECT__24
10
-3.253000
20
14.500000
30
205.574997
70
192
0
VERTEX
8
OBJECT__24
10
-4.616000
20
-14.500000
30
202.899994
70
192
0
VERTEX
8
OBJECT__24
10
0
20
0
30
0
70
128
71
1
72
2
73
3
0
VERTEX
8
OBJECT__24
10
0
20
0
30
0
70
128
71
3
72
2
73
4
0
VERTEX
8
OBJECT__24
10
0
20
0
30
0
70
128
71
4
72
5
73
3
0
VERTEX
8
OBJECT__24
10
0
20
0
30
0
70
128
71
6
72
7
73
8
0
VERTEX
8
OBJECT__24
10
0
20
0
30
0
70
128
71
7
72
6
73
1
0
VERTEX
8
OBJECT__24
10
0
20
0
30
0
70
128
71
1
72
9
73
7
0
VERTEX
8
OBJECT__24
10
0
20
0
30
0
70
128
71
10
72
11
73
12
0
VERTEX
8
OBJECT__24
10
0
20
0
30
0
70
128
71
8
72
12
73
11
0
VERTEX
8
OBJECT__24
10
0
20
0
30
0
70
128
71
11
72
13
73
8
0
VERTEX
8
OBJECT__24
10
0
20
0
30
0
70
128
71
14
72
15
73
16
0
VERTEX
8
OBJECT__24
10
0
20
0
30
0
70
128
71
17
72
14
73
18
0
VERTEX
8
OBJECT__24
10
0
20
0
30
0
70
128
71
18
72
10
73
17
0
VERTEX
8
OBJECT__24
10
0
20
0
30
0
70
128
71
16
72
18
73
14
0
VERTEX
8
OBJECT__24
10
0
20
0
30
0
70
128
71
12
72
17
73
10
0
VERTEX
8
OBJECT__24
10
0
20
0
30
0
70
128
71
8
72
13
73
6
0
VERTEX
8
OBJECT__24
10
0
20
0
30
0
70
128
71
3
72
9
73
1
0
SEQEND
8
OBJECT__24
0
POLYLINE
8
OBJECT__25
66
1
70
64
71
6
72
4
62
253
0
VERTEX
8
OBJECT__25
10
-6.354000
20
-14.854000
30
191.003006
70
192
0
VERTEX
8
OBJECT__25
10
-6.354000
20
-14.854000
30
144.500000
70
192
0
VERTEX
8
OBJECT__25
10
-6.000000
20
-15.000000
30
144.500000
70
192
0
VERTEX
8
OBJECT__25
10
-6.500000
20
-14.500000
30
144.500000
70
192
0
VERTEX
8
OBJECT__25
10
-6.500000
20
-14.500000
30
191.003006
70
192
0
VERTEX
8
OBJECT__25
10
-6.000000
20
-15.000000
30
191.003006
70
192
0
VERTEX
8
OBJECT__25
10
0
20
0
30
0
70
128
71
1
72
2
73
3
0
VERTEX
8
OBJECT__25
10
0
20
0
30
0
70
128
71
4
72
2
73
1
0
VERTEX
8
OBJECT__25
10
0
20
0
30
0
70
128
71
1
72
5
73
4
0
VERTEX
8
OBJECT__25
10
0
20
0
30
0
70
128
71
3
72
6
73
1
0
SEQEND
8
OBJECT__25
0
POLYLINE
8
OBJECT__26
66
1
70
64
71
21
72
23
62
253
0
VERTEX
8
OBJECT__26
10
-6.354000
20
-14.854000
30
191.003006
70
192
0
VERTEX
8
OBJECT__26
10
-6.000000
20
-15.000000
30
191.003006
70
192
0
VERTEX
8
OBJECT__26
10
-4.140000
20
-15.000000
30
202.744995
70
192
0
VERTEX
8
OBJECT__26
10
-4.476000
20
-14.854000
30
202.854004
70
192
0
VERTEX
8
OBJECT__26
10
1.257000
20
-15.000000
30
213.337997
70
192
0
VERTEX
8
OBJECT__26
10
0.971000
20
-14.854000
30
213.546005
70
192
0
VERTEX
8
OBJECT__26
10
9.664000
20
-15.000000
30
221.744995
70
192
0
VERTEX
8
OBJECT__26
10
9.456000
20
-14.854000
30
222.031006
70
192
0
VERTEX
8
OBJECT__26
10
20.257000
20
-15.000000
30
227.143005
70
192
0
VERTEX
8
OBJECT__26
10
32.000000
20
-14.854000
30
229.356003
70
192
0
VERTEX
8
OBJECT__26
10
20.148001
20
-14.854000
30
227.479004
70
192
0
VERTEX
8
OBJECT__26
10
-4.616000
20
-14.500000
30
202.899994
70
192
0
VERTEX
8
OBJECT__26
10
-6.500000
20
-14.500000
30
191.003006
70
192
0
VERTEX
8
OBJECT__26
10
0.853000
20
-14.500000
30
213.632004
70
192
0
VERTEX
8
OBJECT__26
10
-3.253000
20
-14.500000
30
205.574997
70
192
0
VERTEX
8
OBJECT__26
10
9.370000
20
-14.500000
30
222.149994
70
192
0
VERTEX
8
OBJECT__26
10
5.112000
20
-14.500000
30
217.891006
70
192
0
VERTEX
8
OBJECT__26
10
17.427999
20
-14.500000
30
226.255005
70
192
0
VERTEX
8
OBJECT__26
10
20.103001
20
-14.500000
30
227.617996
70
192
0
VERTEX
8
OBJECT__26
10
32.000000
20
-14.500000
30
229.503006
70
192
0
VERTEX
8
OBJECT__26
10
32.000000
20
-15.000000
30
229.003006
70
192
0
VERTEX
8
OBJECT__26
10
0
20
0
30
0
70
128
71
1
72
2
73
3
0
VERTEX
8
OBJECT__26
10
0
20
0
30
0
70
128
71
4
72
3
73
5
0
VERTEX
8
OBJECT__26
10
0
20
0
30
0
70
128
71
6
72
5
73
7
0
VERTEX
8
OBJECT__26
10
0
20
0
30
0
70
128
71
8
72
7
73
9
0
VERTEX
8
OBJECT__26
10
0
20
0
30
0
70
128
71
10
72
11
73
9
0
VERTEX
8
OBJECT__26
10
0
20
0
30
0
70
128
71
12
72
13
73
1
0
VERTEX
8
OBJECT__26
10
0
20
0
30
0
70
128
71
6
72
14
73
15
0
VERTEX
8
OBJECT__26
10
0
20
0
30
0
70
128
71
15
72
4
73
6
0
VERTEX
8
OBJECT__26
10
0
20
0
30
0
70
128
71
8
72
16
73
17
0
VERTEX
8
OBJECT__26
10
0
20
0
30
0
70
128
71
17
72
6
73
8
0
VERTEX
8
OBJECT__26
10
0
20
0
30
0
70
128
71
8
72
11
73
18
0
VERTEX
8
OBJECT__26
10
0
20
0
30
0
70
128
71
11
72
19
73
18
0
VERTEX
8
OBJECT__26
10
0
20
0
30
0
70
128
71
19
72
11
73
10
0
VERTEX
8
OBJECT__26
10
0
20
0
30
0
70
128
71
10
72
20
73
19
0
VERTEX
8
OBJECT__26
10
0
20
0
30
0
70
128
71
18
72
16
73
8
0
VERTEX
8
OBJECT__26
10
0
20
0
30
0
70
128
71
17
72
14
73
6
0
VERTEX
8
OBJECT__26
10
0
20
0
30
0
70
128
71
15
72
12
73
4
0
VERTEX
8
OBJECT__26
10
0
20
0
30
0
70
128
71
1
72
4
73
12
0
VERTEX
8
OBJECT__26
10
0
20
0
30
0
70
128
71
9
72
21
73
10
0
VERTEX
8
OBJECT__26
10
0
20
0
30
0
70
128
71
9
72
11
73
8
0
VERTEX
8
OBJECT__26
10
0
20
0
30
0
70
128
71
7
72
8
73
6
0
VERTEX
8
OBJECT__26
10
0
20
0
30
0
70
128
71
5
72
6
73
4
0
VERTEX
8
OBJECT__26
10
0
20
0
30
0
70
128
71
3
72
4
73
1
0
SEQEND
8
OBJECT__26
0
POLYLINE
8
OBJECT__27
66
1
70
64
71
5
72
3
62
253
0
VERTEX
8
OBJECT__27
10
106.400002
20
-14.500000
30
229.503006
70
192
0
VERTEX
8
OBJECT__27
10
32.000000
20
-14.500000
30
229.503006
70
192
0
VERTEX
8
OBJECT__27
10
32.000000
20
-14.854000
30
229.356003
70
192
0
VERTEX
8
OBJECT__27
10
106.400002
20
-15.000000
30
229.003006
70
192
0
VERTEX
8
OBJECT__27
10
32.000000
20
-15.000000
30
229.003006
70
192
0
VERTEX
8
OBJECT__27
10
0
20
0
30
0
70
128
71
1
72
2
73
3
0
VERTEX
8
OBJECT__27
10
0
20
0
30
0
70
128
71
3
72
4
73
1
0
VERTEX
8
OBJECT__27
10
0
20
0
30
0
70
128
71
3
72
5
73
4
0
SEQEND
8
OBJECT__27
0
POLYLINE
8
OBJECT__28
66
1
70
64
71
4
72
2
62
253
0
VERTEX
8
OBJECT__28
10
106.400002
20
-14.500000
30
229.503006
70
192
0
VERTEX
8
OBJECT__28
10
106.400002
20
14.500000
30
229.503006
70
192
0
VERTEX
8
OBJECT__28
10
32.000000
20
14.500000
30
229.503006
70
192
0
VERTEX
8
OBJECT__28
10
32.000000
20
-14.500000
30
229.503006
70
192
0
VERTEX
8
OBJECT__28
10
0
20
0
30
0
70
128
71
1
72
2
73
3
0
VERTEX
8
OBJECT__28
10
0
20
0
30
0
70
128
71
3
72
4
73
1
0
SEQEND
8
OBJECT__28
0
POLYLINE
8
OBJECT__29
66
1
70
64
71
21
72
23
62
253
0
VERTEX
8
OBJECT__29
10
144.662994
20
14.854000
30
197.248993
70
192
0
VERTEX
8
OBJECT__29
10
144.315002
20
15.000000
30
197.188004
70
192
0
VERTEX
8
OBJECT__29
10
141.003998
20
15.000000
30
207.380005
70
192
0
VERTEX
8
OBJECT__29
10
141.320999
20
14.854000
30
207.535004
70
192
0
VERTEX
8
OBJECT__29
10
135.011002
20
15.000000
30
216.264008
70
192
0
VERTEX
8
OBJECT__29
10
135.274002
20
14.854000
30
216.501007
70
192
0
VERTEX
8
OBJECT__29
10
126.802002
20
15.000000
30
223.151993
70
192
0
VERTEX
8
OBJECT__29
10
126.988998
20
14.854000
30
223.451996
70
192
0
VERTEX
8
OBJECT__29
10
117.012001
20
15.000000
30
227.511002
70
192
0
VERTEX
8
OBJECT__29
10
117.109001
20
14.854000
30
227.850998
70
192
0
VERTEX
8
OBJECT__29
10
106.400002
20
15.000000
30
229.003006
70
192
0
VERTEX
8
OBJECT__29
10
141.453003
20
14.500000
30
207.598999
70
192
0
VERTEX
8
OBJECT__29
10
144.807999
20
14.500000
30
197.274994
70
192
0
VERTEX
8
OBJECT__29
10
135.382996
20
14.500000
30
216.598999
70
192
0
VERTEX
8
OBJECT__29
10
139.938995
20
14.500000
30
209.843002
70
192
0
VERTEX
8
OBJECT__29
10
127.067001
20
14.500000
30
223.576004
70
192
0
VERTEX
8
OBJECT__29
10
131.225006
20
14.500000
30
220.087997
70
192
0
VERTEX
8
OBJECT__29
10
119.623001
20
14.500000
30
226.891006
70
192
0
VERTEX
8
OBJECT__29
10
117.150002
20
14.500000
30
227.992004
70
192
0
VERTEX
8
OBJECT__29
10
106.400002
20
14.854000
30
229.356003
70
192
0
VERTEX
8
OBJECT__29
10
106.400002
20
14.500000
30
229.503006
70
192
0
VERTEX
8
OBJECT__29
10
0
20
0
30
0
70
128
71
1
72
2
73
3
0
VERTEX
8
OBJECT__29
10
0
20
0
30
0
70
128
71
4
72
3
73
5
0
VERTEX
8
OBJECT__29
10
0
20
0
30
0
70
128
71
6
72
5
73
7
0
VERTEX
8
OBJECT__29
10
0
20
0
30
0
70
128
71
8
72
7
73
9
0
VERTEX
8
OBJECT__29
10
0
20
0
30
0
70
128
71
10
72
9
73
11
0
VERTEX
8
OBJECT__29
10
0
20
0
30
0
70
128
71
12
72
13
73
1
0
VERTEX
8
OBJECT__29
10
0
20
0
30
0
70
128
71
6
72
14
73
15
0
VERTEX
8
OBJECT__29
10
0
20
0
30
0
70
128
71
15
72
4
73
6
0
VERTEX
8
OBJECT__29
10
0
20
0
30
0
70
128
71
8
72
16
73
17
0
VERTEX
8
OBJECT__29
10
0
20
0
30
0
70
128
71
17
72
6
73
8
0
VERTEX
8
OBJECT__29
10
0
20
0
30
0
70
128
71
8
72
10
73
18
0
VERTEX
8
OBJECT__29
10
0
20
0
30
0
70
128
71
10
72
19
73
18
0
VERTEX
8
OBJECT__29
10
0
20
0
30
0
70
128
71
19
72
10
73
20
0
VERTEX
8
OBJECT__29
10
0
20
0
30
0
70
128
71
20
72
21
73
19
0
VERTEX
8
OBJECT__29
10
0
20
0
30
0
70
128
71
18
72
16
73
8
0
VERTEX
8
OBJECT__29
10
0
20
0
30
0
70
128
71
17
72
14
73
6
0
VERTEX
8
OBJECT__29
10
0
20
0
30
0
70
128
71
15
72
12
73
4
0
VERTEX
8
OBJECT__29
10
0
20
0
30
0
70
128
71
1
72
4
73
12
0
VERTEX
8
OBJECT__29
10
0
20
0
30
0
70
128
71
11
72
20
73
10
0
VERTEX
8
OBJECT__29
10
0
20
0
30
0
70
128
71
9
72
10
73
8
0
VERTEX
8
OBJECT__29
10
0
20
0
30
0
70
128
71
7
72
8
73
6
0
VERTEX
8
OBJECT__29
10
0
20
0
30
0
70
128
71
5
72
6
73
4
0
VERTEX
8
OBJECT__29
10
0
20
0
30
0
70
128
71
3
72
4
73
1
0
SEQEND
8
OBJECT__29
0
POLYLINE
8
OBJECT__30
66
1
70
64
71
15
72
13
62
253
0
VERTEX
8
OBJECT__30
10
117.150002
20
-14.500000
30
227.992004
70
192
0
VERTEX
8
OBJECT__30
10
106.400002
20
-14.500000
30
229.503006
70
192
0
VERTEX
8
OBJECT__30
10
106.400002
20
-15.000000
30
229.003006
70
192
0
VERTEX
8
OBJECT__30
10
126.802002
20
-15.000000
30
223.151993
70
192
0
VERTEX
8
OBJECT__30
10
127.067001
20
-14.500000
30
223.576004
70
192
0
VERTEX
8
OBJECT__30
10
119.623001
20
-14.500000
30
226.891006
70
192
0
VERTEX
8
OBJECT__30
10
117.012001
20
-15.000000
30
227.511002
70
192
0
VERTEX
8
OBJECT__30
10
135.011002
20
-15.000000
30
216.264008
70
192
0
VERTEX
8
OBJECT__30
10
131.225006
20
-14.500000
30
220.087997
70
192
0
VERTEX
8
OBJECT__30
10
135.382996
20
-14.500000
30
216.598999
70
192
0
VERTEX
8
OBJECT__30
10
141.003998
20
-15.000000
30
207.380005
70
192
0
VERTEX
8
OBJECT__30
10
139.938995
20
-14.500000
30
209.843002
70
192
0
VERTEX
8
OBJECT__30
10
141.453003
20
-14.500000
30
207.598999
70
192
0
VERTEX
8
OBJECT__30
10
144.315002
20
-15.000000
30
197.188004
70
192
0
VERTEX
8
OBJECT__30
10
144.807999
20
-14.500000
30
197.274994
70
192
0
VERTEX
8
OBJECT__30
10
0
20
0
30
0
70
128
71
1
72
2
73
3
0
VERTEX
8
OBJECT__30
10
0
20
0
30
0
70
128
71
4
72
5
73
6
0
VERTEX
8
OBJECT__30
10
0
20
0
30
0
70
128
71
6
72
7
73
4
0
VERTEX
8
OBJECT__30
10
0
20
0
30
0
70
128
71
4
72
8
73
9
0
VERTEX
8
OBJECT__30
10
0
20
0
30
0
70
128
71
8
72
10
73
9
0
VERTEX
8
OBJECT__30
10
0
20
0
30
0
70
128
71
8
72
11
73
12
0
VERTEX
8
OBJECT__30
10
0
20
0
30
0
70
128
71
11
72
13
73
12
0
VERTEX
8
OBJECT__30
10
0
20
0
30
0
70
128
71
13
72
11
73
14
0
VERTEX
8
OBJECT__30
10
0
20
0
30
0
70
128
71
14
72
15
73
13
0
VERTEX
8
OBJECT__30
10
0
20
0
30
0
70
128
71
12
72
10
73
8
0
VERTEX
8
OBJECT__30
10
0
20
0
30
0
70
128
71
9
72
5
73
4
0
VERTEX
8
OBJECT__30
10
0
20
0
30
0
70
128
71
6
72
1
73
7
0
VERTEX
8
OBJECT__30
10
0
20
0
30
0
70
128
71
3
72
7
73
1
0
SEQEND
8
OBJECT__30
0
POLYLINE
8
OBJECT__31
66
1
70
64
71
18
72
16
62
253
0
VERTEX
8
OBJECT__31
10
144.807999
20
14.500000
30
197.274994
70
192
0
VERTEX
8
OBJECT__31
10
141.453003
20
14.500000
30
207.598999
70
192
0
VERTEX
8
OBJECT__31
10
141.453003
20
-14.500000
30
207.598999
70
192
0
VERTEX
8
OBJECT__31
10
139.938995
20
-14.500000
30
209.843002
70
192
0
VERTEX
8
OBJECT__31
10
139.938995
20
14.500000
30
209.843002
70
192
0
VERTEX
8
OBJECT__31
10
135.382996
20
14.500000
30
216.598999
70
192
0
VERTEX
8
OBJECT__31
10
135.382996
20
-14.500000
30
216.598999
70
192
0
VERTEX
8
OBJECT__31
10
131.225006
20
-14.500000
30
220.087997
70
192
0
VERTEX
8
OBJECT__31
10
131.225006
20
14.500000
30
220.087997
70
192
0
VERTEX
8
OBJECT__31
10
119.623001
20
-14.500000
30
226.891006
70
192
0
VERTEX
8
OBJECT__31
10
127.067001
20
-14.500000
30
223.576004
70
192
0
VERTEX
8
OBJECT__31
10
127.067001
20
14.500000
30
223.576004
70
192
0
VERTEX
8
OBJECT__31
10
119.623001
20
14.500000
30
226.891006
70
192
0
VERTEX
8
OBJECT__31
10
117.150002
20
14.500000
30
227.992004
70
192
0
VERTEX
8
OBJECT__31
10
117.150002
20
-14.500000
30
227.992004
70
192
0
VERTEX
8
OBJECT__31
10
106.400002
20
14.500000
30
229.503006
70
192
0
VERTEX
8
OBJECT__31
10
106.400002
20
-14.500000
30
229.503006
70
192
0
VERTEX
8
OBJECT__31
10
144.807999
20
-14.500000
30
197.274994
70
192
0
VERTEX
8
OBJECT__31
10
0
20
0
30
0
70
128
71
1
72
2
73
3
0
VERTEX
8
OBJECT__31
10
0
20
0
30
0
70
128
71
4
72
3
73
2
0
VERTEX
8
OBJECT__31
10
0
20
0
30
0
70
128
71
2
72
5
73
4
0
VERTEX
8
OBJECT__31
10
0
20
0
30
0
70
128
71
5
72
6
73
7
0
VERTEX
8
OBJECT__31
10
0
20
0
30
0
70
128
71
8
72
7
73
6
0
VERTEX
8
OBJECT__31
10
0
20
0
30
0
70
128
71
6
72
9
73
8
0
VERTEX
8
OBJECT__31
10
0
20
0
30
0
70
128
71
10
72
11
73
12
0
VERTEX
8
OBJECT__31
10
0
20
0
30
0
70
128
71
9
72
12
73
11
0
VERTEX
8
OBJECT__31
10
0
20
0
30
0
70
128
71
11
72
8
73
9
0
VERTEX
8
OBJECT__31
10
0
20
0
30
0
70
128
71
13
72
14
73
15
0
VERTEX
8
OBJECT__31
10
0
20
0
30
0
70
128
71
16
72
17
73
15
0
VERTEX
8
OBJECT__31
10
0
20
0
30
0
70
128
71
15
72
14
73
16
0
VERTEX
8
OBJECT__31
10
0
20
0
30
0
70
128
71
15
72
10
73
13
0
VERTEX
8
OBJECT__31
10
0
20
0
30
0
70
128
71
12
72
13
73
10
0
VERTEX
8
OBJECT__31
10
0
20
0
30
0
70
128
71
7
72
4
73
5
0
VERTEX
8
OBJECT__31
10
0
20
0
30
0
70
128
71
3
72
18
73
1
0
SEQEND
8
OBJECT__31
0
POLYLINE
8
OBJECT__32
66
1
70
64
71
6
72
4
62
253
0
VERTEX
8
OBJECT__32
10
146.317993
20
14.500000
30
188.707001
70
192
0
VERTEX
8
OBJECT__32
10
146.173996
20
14.854000
30
188.682007
70
192
0
VERTEX
8
OBJECT__32
10
144.662994
20
14.854000
30
197.248993
70
192
0
VERTEX
8
OBJECT__32
10
144.315002
20
15.000000
30
197.188004
70
192
0
VERTEX
8
OBJECT__32
10
145.826004
20
15.000000
30
188.619995
70
192
0
VERTEX
8
OBJECT__32
10
144.807999
20
14.500000
30
197.274994
70
192
0
VERTEX
8
OBJECT__32
10
0
20
0
30
0
70
128
71
1
72
2
73
3
0
VERTEX
8
OBJECT__32
10
0
20
0
30
0
70
128
71
4
72
3
73
2
0
VERTEX
8
OBJECT__32
10
0
20
0
30
0
70
128
71
2
72
5
73
4
0
VERTEX
8
OBJECT__32
10
0
20
0
30
0
70
128
71
3
72
6
73
1
0
SEQEND
8
OBJECT__32
0
POLYLINE
8
OBJECT__33
66
1
70
64
71
4
72
2
62
253
0
VERTEX
8
OBJECT__33
10
146.317993
20
-14.500000
30
188.707001
70
192
0
VERTEX
8
OBJECT__33
10
144.807999
20
-14.500000
30
197.274994
70
192
0
VERTEX
8
OBJECT__33
10
144.315002
20
-15.000000
30
197.188004
70
192
0
VERTEX
8
OBJECT__33
10
145.826004
20
-15.000000
30
188.619995
70
192
0
VERTEX
8
OBJECT__33
10
0
20
0
30
0
70
128
71
1
72
2
73
3
0
VERTEX
8
OBJECT__33
10
0
20
0
30
0
70
128
71
3
72
4
73
1
0
SEQEND
8
OBJECT__33
0
POLYLINE
8
OBJECT__34
66
1
70
64
71
4
72
2
62
253
0
VERTEX
8
OBJECT__34
10
146.317993
20
-14.500000
30
188.707001
70
192
0
VERTEX
8
OBJECT__34
10
146.317993
20
14.500000
30
188.707001
70
192
0
VERTEX
8
OBJECT__34
10
144.807999
20
14.500000
30
197.274994
70
192
0
VERTEX
8
OBJECT__34
10
144.807999
20
-14.500000
30
197.274994
70
192
0
VERTEX
8
OBJECT__34
10
0
20
0
30
0
70
128
71
1
72
2
73
3
0
VERTEX
8
OBJECT__34
10
0
20
0
30
0
70
128
71
3
72
4
73
1
0
SEQEND
8
OBJECT__34
0
POLYLINE
8
OBJECT__35
66
1
70
64
71
6
72
4
62
253
0
VERTEX
8
OBJECT__35
10
146.235001
20
-14.500000
30
188.332993
70
192
0
VERTEX
8
OBJECT__35
10
145.912994
20
-14.500000
30
188.128006
70
192
0
VERTEX
8
OBJECT__35
10
145.912994
20
14.500000
30
188.128006
70
192
0
VERTEX
8
OBJECT__35
10
146.235001
20
14.500000
30
188.332993
70
192
0
VERTEX
8
OBJECT__35
10
146.317993
20
14.500000
30
188.707001
70
192
0
VERTEX
8
OBJECT__35
10
146.317993
20
-14.500000
30
188.707001
70
192
0
VERTEX
8
OBJECT__35
10
0
20
0
30
0
70
128
71
1
72
2
73
3
0
VERTEX
8
OBJECT__35
10
0
20
0
30
0
70
128
71
1
72
4
73
5
0
VERTEX
8
OBJECT__35
10
0
20
0
30
0
70
128
71
5
72
6
73
1
0
VERTEX
8
OBJECT__35
10
0
20
0
30
0
70
128
71
3
72
4
73
1
0
SEQEND
8
OBJECT__35
0
POLYLINE
8
OBJECT__36
66
1
70
64
71
6
72
4
62
253
0
VERTEX
8
OBJECT__36
10
146.317993
20
-14.500000
30
188.707001
70
192
0
VERTEX
8
OBJECT__36
10
145.826004
20
-15.000000
30
188.619995
70
192
0
VERTEX
8
OBJECT__36
10
145.875000
20
-14.883000
30
188.341995
70
192
0
VERTEX
8
OBJECT__36
10
146.235001
20
-14.500000
30
188.332993
70
192
0
VERTEX
8
OBJECT__36
10
145.886993
20
-14.854000
30
188.272003
70
192
0
VERTEX
8
OBJECT__36
10
145.912994
20
-14.500000
30
188.128006
70
192
0
VERTEX
8
OBJECT__36
10
0
20
0
30
0
70
128
71
1
72
2
73
3
0
VERTEX
8
OBJECT__36
10
0
20
0
30
0
70
128
71
4
72
3
73
5
0
VERTEX
8
OBJECT__36
10
0
20
0
30
0
70
128
71
5
72
6
73
4
0
VERTEX
8
OBJECT__36
10
0
20
0
30
0
70
128
71
3
72
4
73
1
0
SEQEND
8
OBJECT__36
0
POLYLINE
8
OBJECT__37
66
1
70
64
71
8
72
6
62
253
0
VERTEX
8
OBJECT__37
10
133.613998
20
-15.000000
30
186.466995
70
192
0
VERTEX
8
OBJECT__37
10
133.675995
20
-14.854000
30
186.119003
70
192
0
VERTEX
8
OBJECT__37
10
145.875000
20
-14.883000
30
188.341995
70
192
0
VERTEX
8
OBJECT__37
10
145.886993
20
-14.854000
30
188.272003
70
192
0
VERTEX
8
OBJECT__37
10
133.675995
20
-14.847000
30
186.115997
70
192
0
VERTEX
8
OBJECT__37
10
145.912994
20
-14.500000
30
188.128006
70
192
0
VERTEX
8
OBJECT__37
10
133.701004
20
-14.500000
30
185.975006
70
192
0
VERTEX
8
OBJECT__37
10
145.826004
20
-15.000000
30
188.619995
70
192
0
VERTEX
8
OBJECT__37
10
0
20
0
30
0
70
128
71
1
72
2
73
3
0
VERTEX
8
OBJECT__37
10
0
20
0
30
0
70
128
71
2
72
4
73
3
0
VERTEX
8
OBJECT__37
10
0
20
0
30
0
70
128
71
4
72
2
73
5
0
VERTEX
8
OBJECT__37
10
0
20
0
30
0
70
128
71
5
72
6
73
4
0
VERTEX
8
OBJECT__37
10
0
20
0
30
0
70
128
71
5
72
7
73
6
0
VERTEX
8
OBJECT__37
10
0
20
0
30
0
70
128
71
3
72
8
73
1
0
SEQEND
8
OBJECT__37
0
POLYLINE
8
OBJECT__38
66
1
70
64
71
7
72
5
62
253
0
VERTEX
8
OBJECT__38
10
146.235001
20
14.500000
30
188.332993
70
192
0
VERTEX
8
OBJECT__38
10
145.912994
20
14.500000
30
188.128006
70
192
0
VERTEX
8
OBJECT__38
10
145.888000
20
14.852000
30
188.270004
70
192
0
VERTEX
8
OBJECT__38
10
146.173996
20
14.854000
30
188.682007
70
192
0
VERTEX
8
OBJECT__38
10
145.875000
20
14.882000
30
188.341995
70
192
0
VERTEX
8
OBJECT__38
10
145.826004
20
15.000000
30
188.619995
70
192
0
VERTEX
8
OBJECT__38
10
146.317993
20
14.500000
30
188.707001
70
192
0
VERTEX
8
OBJECT__38
10
0
20
0
30
0
70
128
71
1
72
2
73
3
0
VERTEX
8
OBJECT__38
10
0
20
0
30
0
70
128
71
4
72
1
73
5
0
VERTEX
8
OBJECT__38
10
0
20
0
30
0
70
128
71
5
72
6
73
4
0
VERTEX
8
OBJECT__38
10
0
20
0
30
0
70
128
71
4
72
7
73
1
0
VERTEX
8
OBJECT__38
10
0
20
0
30
0
70
128
71
3
72
5
73
1
0
SEQEND
8
OBJECT__38
0
POLYLINE
8
OBJECT__39
66
1
70
64
71
8
72
6
62
253
0
VERTEX
8
OBJECT__39
10
133.613998
20
15.000000
30
186.466995
70
192
0
VERTEX
8
OBJECT__39
10
145.826004
20
15.000000
30
188.619995
70
192
0
VERTEX
8
OBJECT__39
10
145.875000
20
14.882000
30
188.341995
70
192
0
VERTEX
8
OBJECT__39
10
133.675995
20
14.852000
30
186.117004
70
192
0
VERTEX
8
OBJECT__39
10
145.912994
20
14.500000
30
188.128006
70
192
0
VERTEX
8
OBJECT__39
10
133.701004
20
14.500000
30
185.975006
70
192
0
VERTEX
8
OBJECT__39
10
133.675995
20
14.848000
30
186.115997
70
192
0
VERTEX
8
OBJECT__39
10
145.888000
20
14.852000
30
188.270004
70
192
0
VERTEX
8
OBJECT__39
10
0
20
0
30
0
70
128
71
1
72
2
73
3
0
VERTEX
8
OBJECT__39
10
0
20
0
30
0
70
128
71
3
72
4
73
1
0
VERTEX
8
OBJECT__39
10
0
20
0
30
0
70
128
71
5
72
6
73
7
0
VERTEX
8
OBJECT__39
10
0
20
0
30
0
70
128
71
7
72
8
73
5
0
VERTEX
8
OBJECT__39
10
0
20
0
30
0
70
128
71
7
72
4
73
8
0
VERTEX
8
OBJECT__39
10
0
20
0
30
0
70
128
71
3
72
8
73
4
0
SEQEND
8
OBJECT__39
0
POLYLINE
8
OBJECT__40
66
1
70
64
71
4
72
2
62
253
0
VERTEX
8
OBJECT__40
10
133.701004
20
-14.500000
30
185.975006
70
192
0
VERTEX
8
OBJECT__40
10
133.701004
20
14.500000
30
185.975006
70
192
0
VERTEX
8
OBJECT__40
10
145.912994
20
14.500000
30
188.128006
70
192
0
VERTEX
8
OBJECT__40
10
145.912994
20
-14.500000
30
188.128006
70
192
0
VERTEX
8
OBJECT__40
10
0
20
0
30
0
70
128
71
1
72
2
73
3
0
VERTEX
8
OBJECT__40
10
0
20
0
30
0
70
128
71
3
72
4
73
1
0
SEQEND
8
OBJECT__40
0
POLYLINE
8
OBJECT__41
66
1
70
64
71
10
72
8
62
253
0
VERTEX
8
OBJECT__41
10
133.326996
20
14.500000
30
186.057007
70
192
0
VERTEX
8
OBJECT__41
10
133.613998
20
14.500000
30
185.966995
70
192
0
VERTEX
8
OBJECT__41
10
133.613998
20
-14.500000
30
185.966995
70
192
0
VERTEX
8
OBJECT__41
10
133.701004
20
14.500000
30
185.975006
70
192
0
VERTEX
8
OBJECT__41
10
133.701004
20
-14.500000
30
185.975006
70
192
0
VERTEX
8
OBJECT__41
10
133.121994
20
14.500000
30
186.380005
70
192
0
VERTEX
8
OBJECT__41
10
133.281998
20
14.500000
30
186.128998
70
192
0
VERTEX
8
OBJECT__41
10
133.281998
20
-14.500000
30
186.128998
70
192
0
VERTEX
8
OBJECT__41
10
133.326996
20
-14.500000
30
186.057007
70
192
0
VERTEX
8
OBJECT__41
10
133.121994
20
-14.500000
30
186.380005
70
192
0
VERTEX
8
OBJECT__41
10
0
20
0
30
0
70
128
71
1
72
2
73
3
0
VERTEX
8
OBJECT__41
10
0
20
0
30
0
70
128
71
4
72
5
73
3
0
VERTEX
8
OBJECT__41
10
0
20
0
30
0
70
128
71
3
72
2
73
4
0
VERTEX
8
OBJECT__41
10
0
20
0
30
0
70
128
71
6
72
7
73
8
0
VERTEX
8
OBJECT__41
10
0
20
0
30
0
70
128
71
9
72
8
73
7
0
VERTEX
8
OBJECT__41
10
0
20
0
30
0
70
128
71
7
72
1
73
9
0
VERTEX
8
OBJECT__41
10
0
20
0
30
0
70
128
71
8
72
10
73
6
0
VERTEX
8
OBJECT__41
10
0
20
0
30
0
70
128
71
3
72
9
73
1
0
SEQEND
8
OBJECT__41
0
POLYLINE
8
OBJECT__42
66
1
70
64
71
9
72
8
62
253
0
VERTEX
8
OBJECT__42
10
133.613998
20
-14.855000
30
186.115005
70
192
0
VERTEX
8
OBJECT__42
10
133.281998
20
-14.500000
30
186.128998
70
192
0
VERTEX
8
OBJECT__42
10
133.326996
20
-14.500000
30
186.057007
70
192
0
VERTEX
8
OBJECT__42
10
133.613998
20
-14.500000
30
185.966995
70
192
0
VERTEX
8
OBJECT__42
10
133.701004
20
-14.500000
30
185.975006
70
192
0
VERTEX
8
OBJECT__42
10
133.675995
20
-14.847000
30
186.115997
70
192
0
VERTEX
8
OBJECT__42
10
133.675995
20
-14.854000
30
186.119003
70
192
0
VERTEX
8
OBJECT__42
10
133.613998
20
-15.000000
30
186.466995
70
192
0
VERTEX
8
OBJECT__42
10
133.121994
20
-14.500000
30
186.380005
70
192
0
VERTEX
8
OBJECT__42
10
0
20
0
30
0
70
128
71
1
72
2
73
3
0
VERTEX
8
OBJECT__42
10
0
20
0
30
0
70
128
71
4
72
5
73
6
0
VERTEX
8
OBJECT__42
10
0
20
0
30
0
70
128
71
1
72
6
73
7
0
VERTEX
8
OBJECT__42
10
0
20
0
30
0
70
128
71
8
72
9
73
2
0
VERTEX
8
OBJECT__42
10
0
20
0
30
0
70
128
71
2
72
1
73
8
0
VERTEX
8
OBJECT__42
10
0
20
0
30
0
70
128
71
7
72
8
73
1
0
VERTEX
8
OBJECT__42
10
0
20
0
30
0
70
128
71
6
72
1
73
4
0
VERTEX
8
OBJECT__42
10
0
20
0
30
0
70
128
71
3
72
4
73
1
0
SEQEND
8
OBJECT__42
0
POLYLINE
8
OBJECT__43
66
1
70
64
71
5
72
3
62
253
0
VERTEX
8
OBJECT__43
10
133.121994
20
-14.500000
30
186.380005
70
192
0
VERTEX
8
OBJECT__43
10
133.613998
20
-15.000000
30
186.466995
70
192
0
VERTEX
8
OBJECT__43
10
131.673004
20
-14.854000
30
195.442993
70
192
0
VERTEX
8
OBJECT__43
10
132.020996
20
-15.000000
30
195.503998
70
192
0
VERTEX
8
OBJECT__43
10
131.528000
20
-14.500000
30
195.417007
70
192
0
VERTEX
8
OBJECT__43
10
0
20
0
30
0
70
128
71
1
72
2
73
3
0
VERTEX
8
OBJECT__43
10
0
20
0
30
0
70
128
71
2
72
4
73
3
0
VERTEX
8
OBJECT__43
10
0
20
0
30
0
70
128
71
3
72
5
73
1
0
SEQEND
8
OBJECT__43
0
POLYLINE
8
OBJECT__44
66
1
70
64
71
9
72
8
62
253
0
VERTEX
8
OBJECT__44
10
133.613998
20
14.855000
30
186.115005
70
192
0
VERTEX
8
OBJECT__44
10
133.613998
20
14.500000
30
185.966995
70
192
0
VERTEX
8
OBJECT__44
10
133.326996
20
14.500000
30
186.057007
70
192
0
VERTEX
8
OBJECT__44
10
133.613998
20
15.000000
30
186.466995
70
192
0
VERTEX
8
OBJECT__44
10
133.675995
20
14.852000
30
186.117004
70
192
0
VERTEX
8
OBJECT__44
10
133.675995
20
14.848000
30
186.115997
70
192
0
VERTEX
8
OBJECT__44
10
133.281998
20
14.500000
30
186.128998
70
192
0
VERTEX
8
OBJECT__44
10
133.121994
20
14.500000
30
186.380005
70
192
0
VERTEX
8
OBJECT__44
10
133.701004
20
14.500000
30
185.975006
70
192
0
VERTEX
8
OBJECT__44
10
0
20
0
30
0
70
128
71
1
72
2
73
3
0
VERTEX
8
OBJECT__44
10
0
20
0
30
0
70
128
71
1
72
4
73
5
0
VERTEX
8
OBJECT__44
10
0
20
0
30
0
70
128
71
2
72
1
73
6
0
VERTEX
8
OBJECT__44
10
0
20
0
30
0
70
128
71
4
72
1
73
7
0
VERTEX
8
OBJECT__44
10
0
20
0
30
0
70
128
71
7
72
8
73
4
0
VERTEX
8
OBJECT__44
10
0
20
0
30
0
70
128
71
6
72
9
73
2
0
VERTEX
8
OBJECT__44
10
0
20
0
30
0
70
128
71
5
72
6
73
1
0
VERTEX
8
OBJECT__44
10
0
20
0
30
0
70
128
71
3
72
7
73
1
0
SEQEND
8
OBJECT__44
0
POLYLINE
8
OBJECT__45
66
1
70
64
71
5
72
3
62
253
0
VERTEX
8
OBJECT__45
10
133.613998
20
15.000000
30
186.466995
70
192
0
VERTEX
8
OBJECT__45
10
133.121994
20
14.500000
30
186.380005
70
192
0
VERTEX
8
OBJECT__45
10
131.673004
20
14.854000
30
195.442993
70
192
0
VERTEX
8
OBJECT__45
10
131.528000
20
14.500000
30
195.417007
70
192
0
VERTEX
8
OBJECT__45
10
132.020996
20
15.000000
30
195.503998
70
192
0
VERTEX
8
OBJECT__45
10
0
20
0
30
0
70
128
71
1
72
2
73
3
0
VERTEX
8
OBJECT__45
10
0
20
0
30
0
70
128
71
2
72
4
73
3
0
VERTEX
8
OBJECT__45
10
0
20
0
30
0
70
128
71
3
72
5
73
1
0
SEQEND
8
OBJECT__45
0
POLYLINE
8
OBJECT__46
66
1
70
64
71
4
72
2
62
253
0
VERTEX
8
OBJECT__46
10
133.121994
20
-14.500000
30
186.380005
70
192
0
VERTEX
8
OBJECT__46
10
131.528000
20
-14.500000
30
195.417007
70
192
0
VERTEX
8
OBJECT__46
10
131.528000
20
14.500000
30
195.417007
70
192
0
VERTEX
8
OBJECT__46
10
133.121994
20
14.500000
30
186.380005
70
192
0
VERTEX
8
OBJECT__46
10
0
20
0
30
0
70
128
71
1
72
2
73
3
0
VERTEX
8
OBJECT__46
10
0
20
0
30
0
70
128
71
3
72
4
73
1
0
SEQEND
8
OBJECT__46
0
POLYLINE
8
OBJECT__47
66
1
70
64
71
17
72
18
62
253
0
VERTEX
8
OBJECT__47
10
106.400002
20
-14.854000
30
216.649002
70
192
0
VERTEX
8
OBJECT__47
10
106.400002
20
-14.500000
30
216.503006
70
192
0
VERTEX
8
OBJECT__47
10
115.126999
20
-14.500000
30
214.964005
70
192
0
VERTEX
8
OBJECT__47
10
122.894997
20
-14.854000
30
210.645004
70
192
0
VERTEX
8
OBJECT__47
10
115.177002
20
-14.854000
30
215.100998
70
192
0
VERTEX
8
OBJECT__47
10
117.679001
20
-14.500000
30
213.490005
70
192
0
VERTEX
8
OBJECT__47
10
122.801003
20
-14.500000
30
210.533005
70
192
0
VERTEX
8
OBJECT__47
10
126.602997
20
-14.500000
30
206.001999
70
192
0
VERTEX
8
OBJECT__47
10
128.623993
20
-14.854000
30
203.817993
70
192
0
VERTEX
8
OBJECT__47
10
128.496994
20
-14.500000
30
203.744995
70
192
0
VERTEX
8
OBJECT__47
10
131.528000
20
-14.500000
30
195.417007
70
192
0
VERTEX
8
OBJECT__47
10
106.400002
20
-15.000000
30
217.003006
70
192
0
VERTEX
8
OBJECT__47
10
123.123001
20
-15.000000
30
210.916000
70
192
0
VERTEX
8
OBJECT__47
10
115.297997
20
-15.000000
30
215.434006
70
192
0
VERTEX
8
OBJECT__47
10
128.929993
20
-15.000000
30
203.994995
70
192
0
VERTEX
8
OBJECT__47
10
132.020996
20
-15.000000
30
195.503998
70
192
0
VERTEX
8
OBJECT__47
10
131.673004
20
-14.854000
30
195.442993
70
192
0
VERTEX
8
OBJECT__47
10
0
20
0
30
0
70
128
71
1
72
2
73
3
0
VERTEX
8
OBJECT__47
10
0
20
0
30
0
70
128
71
4
72
5
73
6
0
VERTEX
8
OBJECT__47
10
0
20
0
30
0
70
128
71
5
72
3
73
6
0
VERTEX
8
OBJECT__47
10
0
20
0
30
0
70
128
71
4
72
7
73
8
0
VERTEX
8
OBJECT__47
10
0
20
0
30
0
70
128
71
8
72
9
73
4
0
VERTEX
8
OBJECT__47
10
0
20
0
30
0
70
128
71
9
72
10
73
11
0
VERTEX
8
OBJECT__47
10
0
20
0
30
0
70
128
71
12
72
1
73
5
0
VERTEX
8
OBJECT__47
10
0
20
0
30
0
70
128
71
13
72
14
73
5
0
VERTEX
8
OBJECT__47
10
0
20
0
30
0
70
128
71
15
72
13
73
4
0
VERTEX
8
OBJECT__47
10
0
20
0
30
0
70
128
71
16
72
15
73
9
0
VERTEX
8
OBJECT__47
10
0
20
0
30
0
70
128
71
9
72
17
73
16
0
VERTEX
8
OBJECT__47
10
0
20
0
30
0
70
128
71
4
72
9
73
15
0
VERTEX
8
OBJECT__47
10
0
20
0
30
0
70
128
71
5
72
4
73
13
0
VERTEX
8
OBJECT__47
10
0
20
0
30
0
70
128
71
5
72
14
73
12
0
VERTEX
8
OBJECT__47
10
0
20
0
30
0
70
128
71
11
72
17
73
9
0
VERTEX
8
OBJECT__47
10
0
20
0
30
0
70
128
71
8
72
10
73
9
0
VERTEX
8
OBJECT__47
10
0
20
0
30
0
70
128
71
6
72
7
73
4
0
VERTEX
8
OBJECT__47
10
0
20
0
30
0
70
128
71
3
72
5
73
1
0
SEQEND
8
OBJECT__47
0
POLYLINE
8
OBJECT__48
66
1
70
64
71
17
72
18
62
253
0
VERTEX
8
OBJECT__48
10
131.673004
20
14.854000
30
195.442993
70
192
0
VERTEX
8
OBJECT__48
10
131.528000
20
14.500000
30
195.417007
70
192
0
VERTEX
8
OBJECT__48
10
128.496994
20
14.500000
30
203.744995
70
192
0
VERTEX
8
OBJECT__48
10
122.894997
20
14.854000
30
210.645004
70
192
0
VERTEX
8
OBJECT__48
10
128.623993
20
14.854000
30
203.817993
70
192
0
VERTEX
8
OBJECT__48
10
126.602997
20
14.500000
30
206.001999
70
192
0
VERTEX
8
OBJECT__48
10
122.801003
20
14.500000
30
210.533005
70
192
0
VERTEX
8
OBJECT__48
10
117.679001
20
14.500000
30
213.490005
70
192
0
VERTEX
8
OBJECT__48
10
115.177002
20
14.854000
30
215.100998
70
192
0
VERTEX
8
OBJECT__48
10
115.126999
20
14.500000
30
214.964005
70
192
0
VERTEX
8
OBJECT__48
10
106.400002
20
14.500000
30
216.503006
70
192
0
VERTEX
8
OBJECT__48
10
128.929993
20
15.000000
30
203.994995
70
192
0
VERTEX
8
OBJECT__48
10
132.020996
20
15.000000
30
195.503998
70
192
0
VERTEX
8
OBJECT__48
10
123.123001
20
15.000000
30
210.916000
70
192
0
VERTEX
8
OBJECT__48
10
115.297997
20
15.000000
30
215.434006
70
192
0
VERTEX
8
OBJECT__48
10
106.400002
20
15.000000
30
217.003006
70
192
0
VERTEX
8
OBJECT__48
10
106.400002
20
14.854000
30
216.649002
70
192
0
VERTEX
8
OBJECT__48
10
0
20
0
30
0
70
128
71
1
72
2
73
3
0
VERTEX
8
OBJECT__48
10
0
20
0
30
0
70
128
71
4
72
5
73
6
0
VERTEX
8
OBJECT__48
10
0
20
0
30
0
70
128
71
5
72
3
73
6
0
VERTEX
8
OBJECT__48
10
0
20
0
30
0
70
128
71
4
72
7
73
8
0
VERTEX
8
OBJECT__48
10
0
20
0
30
0
70
128
71
8
72
9
73
4
0
VERTEX
8
OBJECT__48
10
0
20
0
30
0
70
128
71
9
72
10
73
11
0
VERTEX
8
OBJECT__48
10
0
20
0
30
0
70
128
71
12
72
13
73
1
0
VERTEX
8
OBJECT__48
10
0
20
0
30
0
70
128
71
14
72
12
73
5
0
VERTEX
8
OBJECT__48
10
0
20
0
30
0
70
128
71
15
72
14
73
4
0
VERTEX
8
OBJECT__48
10
0
20
0
30
0
70
128
71
16
72
15
73
9
0
VERTEX
8
OBJECT__48
10
0
20
0
30
0
70
128
71
9
72
17
73
16
0
VERTEX
8
OBJECT__48
10
0
20
0
30
0
70
128
71
4
72
9
73
15
0
VERTEX
8
OBJECT__48
10
0
20
0
30
0
70
128
71
5
72
4
73
14
0
VERTEX
8
OBJECT__48
10
0
20
0
30
0
70
128
71
1
72
5
73
12
0
VERTEX
8
OBJECT__48
10
0
20
0
30
0
70
128
71
11
72
17
73
9
0
VERTEX
8
OBJECT__48
10
0
20
0
30
0
70
128
71
8
72
10
73
9
0
VERTEX
8
OBJECT__48
10
0
20
0
30
0
70
128
71
6
72
7
73
4
0
VERTEX
8
OBJECT__48
10
0
20
0
30
0
70
128
71
3
72
5
73
1
0
SEQEND
8
OBJECT__48
0
POLYLINE
8
OBJECT__49
66
1
70
64
71
14
72
12
62
253
0
VERTEX
8
OBJECT__49
10
126.602997
20
-14.500000
30
206.001999
70
192
0
VERTEX
8
OBJECT__49
10
126.602997
20
14.500000
30
206.001999
70
192
0
VERTEX
8
OBJECT__49
10
128.496994
20
14.500000
30
203.744995
70
192
0
VERTEX
8
OBJECT__49
10
131.528000
20
14.500000
30
195.417007
70
192
0
VERTEX
8
OBJECT__49
10
131.528000
20
-14.500000
30
195.417007
70
192
0
VERTEX
8
OBJECT__49
10
128.496994
20
-14.500000
30
203.744995
70
192
0
VERTEX
8
OBJECT__49
10
117.679001
20
-14.500000
30
213.490005
70
192
0
VERTEX
8
OBJECT__49
10
117.679001
20
14.500000
30
213.490005
70
192
0
VERTEX
8
OBJECT__49
10
122.801003
20
14.500000
30
210.533005
70
192
0
VERTEX
8
OBJECT__49
10
122.801003
20
-14.500000
30
210.533005
70
192
0
VERTEX
8
OBJECT__49
10
115.126999
20
14.500000
30
214.964005
70
192
0
VERTEX
8
OBJECT__49
10
115.126999
20
-14.500000
30
214.964005
70
192
0
VERTEX
8
OBJECT__49
10
106.400002
20
-14.500000
30
216.503006
70
192
0
VERTEX
8
OBJECT__49
10
106.400002
20
14.500000
30
216.503006
70
192
0
VERTEX
8
OBJECT__49
10
0
20
0
30
0
70
128
71
1
72
2
73
3
0
VERTEX
8
OBJECT__49
10
0
20
0
30
0
70
128
71
4
72
5
73
6
0
VERTEX
8
OBJECT__49
10
0
20
0
30
0
70
128
71
6
72
3
73
4
0
VERTEX
8
OBJECT__49
10
0
20
0
30
0
70
128
71
7
72
8
73
9
0
VERTEX
8
OBJECT__49
10
0
20
0
30
0
70
128
71
2
72
1
73
10
0
VERTEX
8
OBJECT__49
10
0
20
0
30
0
70
128
71
10
72
9
73
2
0
VERTEX
8
OBJECT__49
10
0
20
0
30
0
70
128
71
11
72
12
73
13
0
VERTEX
8
OBJECT__49
10
0
20
0
30
0
70
128
71
7
72
12
73
11
0
VERTEX
8
OBJECT__49
10
0
20
0
30
0
70
128
71
11
72
8
73
7
0
VERTEX
8
OBJECT__49
10
0
20
0
30
0
70
128
71
13
72
14
73
11
0
VERTEX
8
OBJECT__49
10
0
20
0
30
0
70
128
71
9
72
10
73
7
0
VERTEX
8
OBJECT__49
10
0
20
0
30
0
70
128
71
3
72
6
73
1
0
SEQEND
8
OBJECT__49
0
POLYLINE
8
OBJECT__50
66
1
70
64
71
5
72
3
62
253
0
VERTEX
8
OBJECT__50
10
32.000000
20
-14.500000
30
216.503006
70
192
0
VERTEX
8
OBJECT__50
10
106.400002
20
-14.500000
30
216.503006
70
192
0
VERTEX
8
OBJECT__50
10
106.400002
20
-14.854000
30
216.649002
70
192
0
VERTEX
8
OBJECT__50
10
32.000000
20
-15.000000
30
217.003006
70
192
0
VERTEX
8
OBJECT__50
10
106.400002
20
-15.000000
30
217.003006
70
192
0
VERTEX
8
OBJECT__50
10
0
20
0
30
0
70
128
71
1
72
2
73
3
0
VERTEX
8
OBJECT__50
10
0
20
0
30
0
70
128
71
3
72
4
73
1
0
VERTEX
8
OBJECT__50
10
0
20
0
30
0
70
128
71
3
72
5
73
4
0
SEQEND
8
OBJECT__50
0
POLYLINE
8
OBJECT__51
66
1
70
64
71
27
72
25
62
253
0
VERTEX
8
OBJECT__51
10
106.400002
20
-15.000000
30
217.003006
70
192
0
VERTEX
8
OBJECT__51
10
106.400002
20
-15.000000
30
229.003006
70
192
0
VERTEX
8
OBJECT__51
10
32.000000
20
-15.000000
30
229.003006
70
192
0
VERTEX
8
OBJECT__51
10
20.257000
20
-15.000000
30
227.143005
70
192
0
VERTEX
8
OBJECT__51
10
23.966000
20
-15.000000
30
215.729996
70
192
0
VERTEX
8
OBJECT__51
10
32.000000
20
-15.000000
30
217.003006
70
192
0
VERTEX
8
OBJECT__51
10
117.012001
20
-15.000000
30
227.511002
70
192
0
VERTEX
8
OBJECT__51
10
1.257000
20
-15.000000
30
213.337997
70
192
0
VERTEX
8
OBJECT__51
10
10.966000
20
-15.000000
30
206.285004
70
192
0
VERTEX
8
OBJECT__51
10
16.718000
20
-15.000000
30
212.037003
70
192
0
VERTEX
8
OBJECT__51
10
-4.140000
20
-15.000000
30
202.744995
70
192
0
VERTEX
8
OBJECT__51
10
7.273000
20
-15.000000
30
199.037003
70
192
0
VERTEX
8
OBJECT__51
10
-6.000000
20
-15.000000
30
191.003006
70
192
0
VERTEX
8
OBJECT__51
10
6.000000
20
-15.000000
30
191.003006
70
192
0
VERTEX
8
OBJECT__51
10
6.000000
20
-15.000000
30
144.500000
70
192
0
VERTEX
8
OBJECT__51
10
9.664000
20
-15.000000
30
221.744995
70
192
0
VERTEX
8
OBJECT__51
10
-6.000000
20
-15.000000
30
144.500000
70
192
0
VERTEX
8
OBJECT__51
10
135.011002
20
-15.000000
30
216.264008
70
192
0
VERTEX
8
OBJECT__51
10
123.123001
20
-15.000000
30
210.916000
70
192
0
VERTEX
8
OBJECT__51
10
128.929993
20
-15.000000
30
203.994995
70
192
0
VERTEX
8
OBJECT__51
10
126.802002
20
-15.000000
30
223.151993
70
192
0
VERTEX
8
OBJECT__51
10
115.297997
20
-15.000000
30
215.434006
70
192
0
VERTEX
8
OBJECT__51
10
133.613998
20
-15.000000
30
186.466995
70
192
0
VERTEX
8
OBJECT__51
10
145.826004
20
-15.000000
30
188.619995
70
192
0
VERTEX
8
OBJECT__51
10
144.315002
20
-15.000000
30
197.188004
70
192
0
VERTEX
8
OBJECT__51
10
141.003998
20
-15.000000
30
207.380005
70
192
0
VERTEX
8
OBJECT__51
10
132.020996
20
-15.000000
30
195.503998
70
192
0
VERTEX
8
OBJECT__51
10
0
20
0
30
0
70
128
71
1
72
2
73
3
0
VERTEX
8
OBJECT__51
10
0
20
0
30
0
70
128
71
4
72
5
73
6
0
VERTEX
8
OBJECT__51
10
0
20
0
30
0
70
128
71
7
72
2
73
1
0
VERTEX
8
OBJECT__51
10
0
20
0
30
0
70
128
71
6
72
3
73
4
0
VERTEX
8
OBJECT__51
10
0
20
0
30
0
70
128
71
8
72
9
73
10
0
VERTEX
8
OBJECT__51
10
0
20
0
30
0
70
128
71
8
72
11
73
12
0
VERTEX
8
OBJECT__51
10
0
20
0
30
0
70
128
71
13
72
14
73
12
0
VERTEX
8
OBJECT__51
10
0
20
0
30
0
70
128
71
15
72
14
73
13
0
VERTEX
8
OBJECT__51
10
0
20
0
30
0
70
128
71
3
72
6
73
1
0
VERTEX
8
OBJECT__51
10
0
20
0
30
0
70
128
71
4
72
16
73
10
0
VERTEX
8
OBJECT__51
10
0
20
0
30
0
70
128
71
12
72
9
73
8
0
VERTEX
8
OBJECT__51
10
0
20
0
30
0
70
128
71
13
72
17
73
15
0
VERTEX
8
OBJECT__51
10
0
20
0
30
0
70
128
71
10
72
5
73
4
0
VERTEX
8
OBJECT__51
10
0
20
0
30
0
70
128
71
12
72
11
73
13
0
VERTEX
8
OBJECT__51
10
0
20
0
30
0
70
128
71
18
72
19
73
20
0
VERTEX
8
OBJECT__51
10
0
20
0
30
0
70
128
71
21
72
7
73
22
0
VERTEX
8
OBJECT__51
10
0
20
0
30
0
70
128
71
10
72
16
73
8
0
VERTEX
8
OBJECT__51
10
0
20
0
30
0
70
128
71
23
72
24
73
25
0
VERTEX
8
OBJECT__51
10
0
20
0
30
0
70
128
71
26
72
20
73
27
0
VERTEX
8
OBJECT__51
10
0
20
0
30
0
70
128
71
20
72
26
73
18
0
VERTEX
8
OBJECT__51
10
0
20
0
30
0
70
128
71
1
72
22
73
7
0
VERTEX
8
OBJECT__51
10
0
20
0
30
0
70
128
71
27
72
25
73
26
0
VERTEX
8
OBJECT__51
10
0
20
0
30
0
70
128
71
22
72
19
73
21
0
VERTEX
8
OBJECT__51
10
0
20
0
30
0
70
128
71
18
72
21
73
19
0
VERTEX
8
OBJECT__51
10
0
20
0
30
0
70
128
71
25
72
27
73
23
0
SEQEND
8
OBJECT__51
0
POLYLINE
8
OBJECT__52
66
1
70
64
71
15
72
13
62
253
0
VERTEX
8
OBJECT__52
10
7.273000
20
-15.000000
30
199.037003
70
192
0
VERTEX
8
OBJECT__52
10
6.250000
20
-14.750000
30
191.003006
70
192
0
VERTEX
8
OBJECT__52
10
6.500000
20
-14.500000
30
191.003006
70
192
0
VERTEX
8
OBJECT__52
10
6.000000
20
-15.000000
30
191.003006
70
192
0
VERTEX
8
OBJECT__52
10
7.748000
20
-14.500000
30
198.882996
70
192
0
VERTEX
8
OBJECT__52
10
10.165000
20
-14.500000
30
203.626007
70
192
0
VERTEX
8
OBJECT__52
10
10.966000
20
-15.000000
30
206.285004
70
192
0
VERTEX
8
OBJECT__52
10
11.370000
20
-14.500000
30
205.990997
70
192
0
VERTEX
8
OBJECT__52
10
17.011000
20
-14.500000
30
211.632996
70
192
0
VERTEX
8
OBJECT__52
10
23.966000
20
-15.000000
30
215.729996
70
192
0
VERTEX
8
OBJECT__52
10
16.718000
20
-15.000000
30
212.037003
70
192
0
VERTEX
8
OBJECT__52
10
19.377001
20
-14.500000
30
212.837997
70
192
0
VERTEX
8
OBJECT__52
10
24.120001
20
-14.500000
30
215.255005
70
192
0
VERTEX
8
OBJECT__52
10
32.000000
20
-14.500000
30
216.503006
70
192
0
VERTEX
8
OBJECT__52
10
32.000000
20
-15.000000
30
217.003006
70
192
0
VERTEX
8
OBJECT__52
10
0
20
0
30
0
70
128
71
1
72
2
73
3
0
VERTEX
8
OBJECT__52
10
0
20
0
30
0
70
128
71
1
72
4
73
2
0
VERTEX
8
OBJECT__52
10
0
20
0
30
0
70
128
71
1
72
5
73
6
0
VERTEX
8
OBJECT__52
10
0
20
0
30
0
70
128
71
6
72
7
73
1
0
VERTEX
8
OBJECT__52
10
0
20
0
30
0
70
128
71
7
72
8
73
9
0
VERTEX
8
OBJECT__52
10
0
20
0
30
0
70
128
71
10
72
11
73
12
0
VERTEX
8
OBJECT__52
10
0
20
0
30
0
70
128
71
11
72
9
73
12
0
VERTEX
8
OBJECT__52
10
0
20
0
30
0
70
128
71
10
72
13
73
14
0
VERTEX
8
OBJECT__52
10
0
20
0
30
0
70
128
71
14
72
15
73
10
0
VERTEX
8
OBJECT__52
10
0
20
0
30
0
70
128
71
12
72
13
73
10
0
VERTEX
8
OBJECT__52
10
0
20
0
30
0
70
128
71
9
72
11
73
7
0
VERTEX
8
OBJECT__52
10
0
20
0
30
0
70
128
71
6
72
8
73
7
0
VERTEX
8
OBJECT__52
10
0
20
0
30
0
70
128
71
3
72
5
73
1
0
SEQEND
8
OBJECT__52
0
POLYLINE
8
OBJECT__53
66
1
70
64
71
4
72
2
62
253
0
VERTEX
8
OBJECT__53
10
32.000000
20
-14.500000
30
216.503006
70
192
0
VERTEX
8
OBJECT__53
10
32.000000
20
14.500000
30
216.503006
70
192
0
VERTEX
8
OBJECT__53
10
106.400002
20
14.500000
30
216.503006
70
192
0
VERTEX
8
OBJECT__53
10
106.400002
20
-14.500000
30
216.503006
70
192
0
VERTEX
8
OBJECT__53
10
0
20
0
30
0
70
128
71
1
72
2
73
3
0
VERTEX
8
OBJECT__53
10
0
20
0
30
0
70
128
71
3
72
4
73
1
0
SEQEND
8
OBJECT__53
0
POLYLINE
8
OBJECT__54
66
1
70
64
71
5
72
3
62
253
0
VERTEX
8
OBJECT__54
10
32.000000
20
15.000000
30
217.003006
70
192
0
VERTEX
8
OBJECT__54
10
106.400002
20
15.000000
30
217.003006
70
192
0
VERTEX
8
OBJECT__54
10
106.400002
20
14.854000
30
216.649002
70
192
0
VERTEX
8
OBJECT__54
10
32.000000
20
14.500000
30
216.503006
70
192
0
VERTEX
8
OBJECT__54
10
106.400002
20
14.500000
30
216.503006
70
192
0
VERTEX
8
OBJECT__54
10
0
20
0
30
0
70
128
71
1
72
2
73
3
0
VERTEX
8
OBJECT__54
10
0
20
0
30
0
70
128
71
3
72
4
73
1
0
VERTEX
8
OBJECT__54
10
0
20
0
30
0
70
128
71
3
72
5
73
4
0
SEQEND
8
OBJECT__54
0
POLYLINE
8
OBJECT__55
66
1
70
64
71
27
72
25
62
253
0
VERTEX
8
OBJECT__55
10
6.000000
20
15.000000
30
144.500000
70
192
0
VERTEX
8
OBJECT__55
10
-6.000000
20
15.000000
30
144.500000
70
192
0
VERTEX
8
OBJECT__55
10
-6.000000
20
15.000000
30
191.003006
70
192
0
VERTEX
8
OBJECT__55
10
-4.140000
20
15.000000
30
202.744995
70
192
0
VERTEX
8
OBJECT__55
10
7.273000
20
15.000000
30
199.037003
70
192
0
VERTEX
8
OBJECT__55
10
6.000000
20
15.000000
30
191.003006
70
192
0
VERTEX
8
OBJECT__55
10
20.257000
20
15.000000
30
227.143005
70
192
0
VERTEX
8
OBJECT__55
10
32.000000
20
15.000000
30
229.003006
70
192
0
VERTEX
8
OBJECT__55
10
32.000000
20
15.000000
30
217.003006
70
192
0
VERTEX
8
OBJECT__55
10
106.400002
20
15.000000
30
217.003006
70
192
0
VERTEX
8
OBJECT__55
10
1.257000
20
15.000000
30
213.337997
70
192
0
VERTEX
8
OBJECT__55
10
10.966000
20
15.000000
30
206.285004
70
192
0
VERTEX
8
OBJECT__55
10
106.400002
20
15.000000
30
229.003006
70
192
0
VERTEX
8
OBJECT__55
10
117.012001
20
15.000000
30
227.511002
70
192
0
VERTEX
8
OBJECT__55
10
115.297997
20
15.000000
30
215.434006
70
192
0
VERTEX
8
OBJECT__55
10
135.011002
20
15.000000
30
216.264008
70
192
0
VERTEX
8
OBJECT__55
10
141.003998
20
15.000000
30
207.380005
70
192
0
VERTEX
8
OBJECT__55
10
128.929993
20
15.000000
30
203.994995
70
192
0
VERTEX
8
OBJECT__55
10
144.315002
20
15.000000
30
197.188004
70
192
0
VERTEX
8
OBJECT__55
10
132.020996
20
15.000000
30
195.503998
70
192
0
VERTEX
8
OBJECT__55
10
133.613998
20
15.000000
30
186.466995
70
192
0
VERTEX
8
OBJECT__55
10
9.664000
20
15.000000
30
221.744995
70
192
0
VERTEX
8
OBJECT__55
10
16.718000
20
15.000000
30
212.037003
70
192
0
VERTEX
8
OBJECT__55
10
23.966000
20
15.000000
30
215.729996
70
192
0
VERTEX
8
OBJECT__55
10
123.123001
20
15.000000
30
210.916000
70
192
0
VERTEX
8
OBJECT__55
10
126.802002
20
15.000000
30
223.151993
70
192
0
VERTEX
8
OBJECT__55
10
145.826004
20
15.000000
30
188.619995
70
192
0
VERTEX
8
OBJECT__55
10
0
20
0
30
0
70
128
71
1
72
2
73
3
0
VERTEX
8
OBJECT__55
10
0
20
0
30
0
70
128
71
4
72
5
73
6
0
VERTEX
8
OBJECT__55
10
0
20
0
30
0
70
128
71
7
72
8
73
9
0
VERTEX
8
OBJECT__55
10
0
20
0
30
0
70
128
71
10
72
9
73
8
0
VERTEX
8
OBJECT__55
10
0
20
0
30
0
70
128
71
6
72
3
73
4
0
VERTEX
8
OBJECT__55
10
0
20
0
30
0
70
128
71
4
72
11
73
12
0
VERTEX
8
OBJECT__55
10
0
20
0
30
0
70
128
71
8
72
13
73
10
0
VERTEX
8
OBJECT__55
10
0
20
0
30
0
70
128
71
14
72
15
73
10
0
VERTEX
8
OBJECT__55
10
0
20
0
30
0
70
128
71
16
72
17
73
18
0
VERTEX
8
OBJECT__55
10
0
20
0
30
0
70
128
71
17
72
19
73
20
0
VERTEX
8
OBJECT__55
10
0
20
0
30
0
70
128
71
21
72
20
73
19
0
VERTEX
8
OBJECT__55
10
0
20
0
30
0
70
128
71
12
72
5
73
4
0
VERTEX
8
OBJECT__55
10
0
20
0
30
0
70
128
71
11
72
22
73
23
0
VERTEX
8
OBJECT__55
10
0
20
0
30
0
70
128
71
7
72
24
73
23
0
VERTEX
8
OBJECT__55
10
0
20
0
30
0
70
128
71
10
72
13
73
14
0
VERTEX
8
OBJECT__55
10
0
20
0
30
0
70
128
71
25
72
26
73
16
0
VERTEX
8
OBJECT__55
10
0
20
0
30
0
70
128
71
19
72
27
73
21
0
VERTEX
8
OBJECT__55
10
0
20
0
30
0
70
128
71
23
72
12
73
11
0
VERTEX
8
OBJECT__55
10
0
20
0
30
0
70
128
71
9
72
24
73
7
0
VERTEX
8
OBJECT__55
10
0
20
0
30
0
70
128
71
26
72
25
73
15
0
VERTEX
8
OBJECT__55
10
0
20
0
30
0
70
128
71
20
72
18
73
17
0
VERTEX
8
OBJECT__55
10
0
20
0
30
0
70
128
71
23
72
22
73
7
0
VERTEX
8
OBJECT__55
10
0
20
0
30
0
70
128
71
18
72
25
73
16
0
VERTEX
8
OBJECT__55
10
0
20
0
30
0
70
128
71
15
72
14
73
26
0
VERTEX
8
OBJECT__55
10
0
20
0
30
0
70
128
71
3
72
6
73
1
0
SEQEND
8
OBJECT__55
0
POLYLINE
8
OBJECT__56
66
1
70
64
71
15
72
13
62
253
0
VERTEX
8
OBJECT__56
10
23.966000
20
15.000000
30
215.729996
70
192
0
VERTEX
8
OBJECT__56
10
32.000000
20
15.000000
30
217.003006
70
192
0
VERTEX
8
OBJECT__56
10
32.000000
20
14.500000
30
216.503006
70
192
0
VERTEX
8
OBJECT__56
10
24.120001
20
14.500000
30
215.255005
70
192
0
VERTEX
8
OBJECT__56
10
19.377001
20
14.500000
30
212.837997
70
192
0
VERTEX
8
OBJECT__56
10
16.718000
20
15.000000
30
212.037003
70
192
0
VERTEX
8
OBJECT__56
10
17.011000
20
14.500000
30
211.632996
70
192
0
VERTEX
8
OBJECT__56
10
11.370000
20
14.500000
30
205.990997
70
192
0
VERTEX
8
OBJECT__56
10
7.273000
20
15.000000
30
199.037003
70
192
0
VERTEX
8
OBJECT__56
10
10.966000
20
15.000000
30
206.285004
70
192
0
VERTEX
8
OBJECT__56
10
10.165000
20
14.500000
30
203.626007
70
192
0
VERTEX
8
OBJECT__56
10
6.250000
20
14.750000
30
191.003006
70
192
0
VERTEX
8
OBJECT__56
10
7.748000
20
14.500000
30
198.882996
70
192
0
VERTEX
8
OBJECT__56
10
6.500000
20
14.500000
30
191.003006
70
192
0
VERTEX
8
OBJECT__56
10
6.000000
20
15.000000
30
191.003006
70
192
0
VERTEX
8
OBJECT__56
10
0
20
0
30
0
70
128
71
1
72
2
73
3
0
VERTEX
8
OBJECT__56
10
0
20
0
30
0
70
128
71
1
72
4
73
5
0
VERTEX
8
OBJECT__56
10
0
20
0
30
0
70
128
71
5
72
6
73
1
0
VERTEX
8
OBJECT__56
10
0
20
0
30
0
70
128
71
6
72
7
73
8
0
VERTEX
8
OBJECT__56
10
0
20
0
30
0
70
128
71
9
72
10
73
11
0
VERTEX
8
OBJECT__56
10
0
20
0
30
0
70
128
71
10
72
8
73
11
0
VERTEX
8
OBJECT__56
10
0
20
0
30
0
70
128
71
12
72
9
73
13
0
VERTEX
8
OBJECT__56
10
0
20
0
30
0
70
128
71
13
72
14
73
12
0
VERTEX
8
OBJECT__56
10
0
20
0
30
0
70
128
71
12
72
15
73
9
0
VERTEX
8
OBJECT__56
10
0
20
0
30
0
70
128
71
11
72
13
73
9
0
VERTEX
8
OBJECT__56
10
0
20
0
30
0
70
128
71
8
72
10
73
6
0
VERTEX
8
OBJECT__56
10
0
20
0
30
0
70
128
71
5
72
7
73
6
0
VERTEX
8
OBJECT__56
10
0
20
0
30
0
70
128
71
3
72
4
73
1
0
SEQEND
8
OBJECT__56
0
POLYLINE
8
OBJECT__57
66
1
70
64
71
16
72
14
62
253
0
VERTEX
8
OBJECT__57
10
10.165000
20
-14.500000
30
203.626007
70
192
0
VERTEX
8
OBJECT__57
10
7.748000
20
-14.500000
30
198.882996
70
192
0
VERTEX
8
OBJECT__57
10
7.748000
20
14.500000
30
198.882996
70
192
0
VERTEX
8
OBJECT__57
10
6.500000
20
14.500000
30
191.003006
70
192
0
VERTEX
8
OBJECT__57
10
6.500000
20
-14.500000
30
191.003006
70
192
0
VERTEX
8
OBJECT__57
10
19.377001
20
14.500000
30
212.837997
70
192
0
VERTEX
8
OBJECT__57
10
19.377001
20
-14.500000
30
212.837997
70
192
0
VERTEX
8
OBJECT__57
10
17.011000
20
-14.500000
30
211.632996
70
192
0
VERTEX
8
OBJECT__57
10
17.011000
20
14.500000
30
211.632996
70
192
0
VERTEX
8
OBJECT__57
10
11.370000
20
-14.500000
30
205.990997
70
192
0
VERTEX
8
OBJECT__57
10
11.370000
20
14.500000
30
205.990997
70
192
0
VERTEX
8
OBJECT__57
10
10.165000
20
14.500000
30
203.626007
70
192
0
VERTEX
8
OBJECT__57
10
32.000000
20
-14.500000
30
216.503006
70
192
0
VERTEX
8
OBJECT__57
10
24.120001
20
-14.500000
30
215.255005
70
192
0
VERTEX
8
OBJECT__57
10
24.120001
20
14.500000
30
215.255005
70
192
0
VERTEX
8
OBJECT__57
10
32.000000
20
14.500000
30
216.503006
70
192
0
VERTEX
8
OBJECT__57
10
0
20
0
30
0
70
128
71
1
72
2
73
3
0
VERTEX
8
OBJECT__57
10
0
20
0
30
0
70
128
71
4
72
3
73
2
0
VERTEX
8
OBJECT__57
10
0
20
0
30
0
70
128
71
2
72
5
73
4
0
VERTEX
8
OBJECT__57
10
0
20
0
30
0
70
128
71
6
72
7
73
8
0
VERTEX
8
OBJECT__57
10
0
20
0
30
0
70
128
71
9
72
8
73
10
0
VERTEX
8
OBJECT__57
10
0
20
0
30
0
70
128
71
10
72
11
73
9
0
VERTEX
8
OBJECT__57
10
0
20
0
30
0
70
128
71
1
72
12
73
11
0
VERTEX
8
OBJECT__57
10
0
20
0
30
0
70
128
71
11
72
10
73
1
0
VERTEX
8
OBJECT__57
10
0
20
0
30
0
70
128
71
13
72
14
73
15
0
VERTEX
8
OBJECT__57
10
0
20
0
30
0
70
128
71
6
72
15
73
14
0
VERTEX
8
OBJECT__57
10
0
20
0
30
0
70
128
71
14
72
7
73
6
0
VERTEX
8
OBJECT__57
10
0
20
0
30
0
70
128
71
15
72
16
73
13
0
VERTEX
8
OBJECT__57
10
0
20
0
30
0
70
128
71
8
72
9
73
6
0
VERTEX
8
OBJECT__57
10
0
20
0
30
0
70
128
71
3
72
12
73
1
0
SEQEND
8
OBJECT__57
0
POLYLINE
8
OBJECT__58
66
1
70
64
71
6
72
4
62
253
0
VERTEX
8
OBJECT__58
10
6.500000
20
-14.500000
30
144.500000
70
192
0
VERTEX
8
OBJECT__58
10
6.500000
20
-14.500000
30
191.003006
70
192
0
VERTEX
8
OBJECT__58
10
6.250000
20
-14.750000
30
191.003006
70
192
0
VERTEX
8
OBJECT__58
10
6.000000
20
-15.000000
30
144.500000
70
192
0
VERTEX
8
OBJECT__58
10
6.354000
20
-14.854000
30
144.500000
70
192
0
VERTEX
8
OBJECT__58
10
6.000000
20
-15.000000
30
191.003006
70
192
0
VERTEX
8
OBJECT__58
10
0
20
0
30
0
70
128
71
1
72
2
73
3
0
VERTEX
8
OBJECT__58
10
0
20
0
30
0
70
128
71
4
72
5
73
3
0
VERTEX
8
OBJECT__58
10
0
20
0
30
0
70
128
71
3
72
6
73
4
0
VERTEX
8
OBJECT__58
10
0
20
0
30
0
70
128
71
3
72
5
73
1
0
SEQEND
8
OBJECT__58
0
POLYLINE
8
OBJECT__59
66
1
70
64
71
6
72
4
62
253
0
VERTEX
8
OBJECT__59
10
6.000000
20
15.000000
30
144.500000
70
192
0
VERTEX
8
OBJECT__59
10
6.000000
20
15.000000
30
191.003006
70
192
0
VERTEX
8
OBJECT__59
10
6.250000
20
14.750000
30
191.003006
70
192
0
VERTEX
8
OBJECT__59
10
6.500000
20
14.500000
30
144.500000
70
192
0
VERTEX
8
OBJECT__59
10
6.354000
20
14.854000
30
144.500000
70
192
0
VERTEX
8
OBJECT__59
10
6.500000
20
14.500000
30
191.003006
70
192
0
VERTEX
8
OBJECT__59
10
0
20
0
30
0
70
128
71
1
72
2
73
3
0
VERTEX
8
OBJECT__59
10
0
20
0
30
0
70
128
71
4
72
5
73
3
0
VERTEX
8
OBJECT__59
10
0
20
0
30
0
70
128
71
3
72
6
73
4
0
VERTEX
8
OBJECT__59
10
0
20
0
30
0
70
128
71
3
72
5
73
1
0
SEQEND
8
OBJECT__59
0
POLYLINE
8
OBJECT__60
66
1
70
64
71
4
72
2
62
253
0
VERTEX
8
OBJECT__60
10
6.500000
20
-14.500000
30
144.500000
70
192
0
VERTEX
8
OBJECT__60
10
6.500000
20
14.500000
30
144.500000
70
192
0
VERTEX
8
OBJECT__60
10
6.500000
20
14.500000
30
191.003006
70
192
0
VERTEX
8
OBJECT__60
10
6.500000
20
-14.500000
30
191.003006
70
192
0
VERTEX
8
OBJECT__60
10
0
20
0
30
0
70
128
71
1
72
2
73
3
0
VERTEX
8
OBJECT__60
10
0
20
0
30
0
70
128
71
3
72
4
73
1
0
SEQEND
8
OBJECT__60
0
POLYLINE
8
OBJECT__61
66
1
70
64
71
24
72
24
62
253
0
VERTEX
8
OBJECT__61
10
-22.517000
20
13.000000
30
44.000000
70
192
0
VERTEX
8
OBJECT__61
10
-22.517000
20
13.000000
30
0.000000
70
192
0
VERTEX
8
OBJECT__61
10
-26.000000
20
0.000000
30
0.000000
70
192
0
VERTEX
8
OBJECT__61
10
-13.000000
20
22.517000
30
44.000000
70
192
0
VERTEX
8
OBJECT__61
10
-13.000000
20
22.517000
30
0.000000
70
192
0
VERTEX
8
OBJECT__61
10
0.000000
20
26.000000
30
44.000000
70
192
0
VERTEX
8
OBJECT__61
10
0.000000
20
26.000000
30
0.000000
70
192
0
VERTEX
8
OBJECT__61
10
13.000000
20
22.517000
30
44.000000
70
192
0
VERTEX
8
OBJECT__61
10
13.000000
20
22.517000
30
0.000000
70
192
0
VERTEX
8
OBJECT__61
10
22.517000
20
13.000000
30
44.000000
70
192
0
VERTEX
8
OBJECT__61
10
22.517000
20
13.000000
30
0.000000
70
192
0
VERTEX
8
OBJECT__61
10
26.000000
20
0.000000
30
44.000000
70
192
0
VERTEX
8
OBJECT__61
10
26.000000
20
0.000000
30
0.000000
70
192
0
VERTEX
8
OBJECT__61
10
22.517000
20
-13.000000
30
44.000000
70
192
0
VERTEX
8
OBJECT__61
10
22.517000
20
-13.000000
30
0.000000
70
192
0
VERTEX
8
OBJECT__61
10
13.000000
20
-22.517000
30
44.000000
70
192
0
VERTEX
8
OBJECT__61
10
13.000000
20
-22.517000
30
0.000000
70
192
0
VERTEX
8
OBJECT__61
10
0.000000
20
-26.000000
30
44.000000
70
192
0
VERTEX
8
OBJECT__61
10
0.000000
20
-26.000000
30
0.000000
70
192
0
VERTEX
8
OBJECT__61
10
-13.000000
20
-22.517000
30
44.000000
70
192
0
VERTEX
8
OBJECT__61
10
-13.000000
20
-22.517000
30
0.000000
70
192
0
VERTEX
8
OBJECT__61
10
-22.517000
20
-13.000000
30
44.000000
70
192
0
VERTEX
8
OBJECT__61
10
-22.517000
20
-13.000000
30
0.000000
70
192
0
VERTEX
8
OBJECT__61
10
-26.000000
20
0.000000
30
44.000000
70
192
0
VERTEX
8
OBJECT__61
10
0
20
0
30
0
70
128
71
1
72
2
73
3
0
VERTEX
8
OBJECT__61
10
0
20
0
30
0
70
128
71
4
72
5
73
2
0
VERTEX
8
OBJECT__61
10
0
20
0
30
0
70
128
71
6
72
7
73
5
0
VERTEX
8
OBJECT__61
10
0
20
0
30
0
70
128
71
8
72
9
73
7
0
VERTEX
8
OBJECT__61
10
0
20
0
30
0
70
128
71
10
72
11
73
9
0
VERTEX
8
OBJECT__61
10
0
20
0
30
0
70
128
71
12
72
13
73
11
0
VERTEX
8
OBJECT__61
10
0
20
0
30
0
70
128
71
14
72
15
73
13
0
VERTEX
8
OBJECT__61
10
0
20
0
30
0
70
128
71
16
72
17
73
15
0
VERTEX
8
OBJECT__61
10
0
20
0
30
0
70
128
71
18
72
19
73
17
0
VERTEX
8
OBJECT__61
10
0
20
0
30
0
70
128
71
20
72
21
73
19
0
VERTEX
8
OBJECT__61
10
0
20
0
30
0
70
128
71
22
72
23
73
21
0
VERTEX
8
OBJECT__61
10
0
20
0
30
0
70
128
71
24
72
3
73
23
0
VERTEX
8
OBJECT__61
10
0
20
0
30
0
70
128
71
23
72
22
73
24
0
VERTEX
8
OBJECT__61
10
0
20
0
30
0
70
128
71
21
72
20
73
22
0
VERTEX
8
OBJECT__61
10
0
20
0
30
0
70
128
71
19
72
18
73
20
0
VERTEX
8
OBJECT__61
10
0
20
0
30
0
70
128
71
17
72
16
73
18
0
VERTEX
8
OBJECT__61
10
0
20
0
30
0
70
128
71
15
72
14
73
16
0
VERTEX
8
OBJECT__61
10
0
20
0
30
0
70
128
71
13
72
12
73
14
0
VERTEX
8
OBJECT__61
10
0
20
0
30
0
70
128
71
11
72
10
73
12
0
VERTEX
8
OBJECT__61
10
0
20
0
30
0
70
128
71
9
72
8
73
10
0
VERTEX
8
OBJECT__61
10
0
20
0
30
0
70
128
71
7
72
6
73
8
0
VERTEX
8
OBJECT__61
10
0
20
0
30
0
70
128
71
5
72
4
73
6
0
VERTEX
8
OBJECT__61
10
0
20
0
30
0
70
128
71
2
72
1
73
4
0
VERTEX
8
OBJECT__61
10
0
20
0
30
0
70
128
71
3
72
24
73
1
0
SEQEND
8
OBJECT__61
0
POLYLINE
8
OBJECT__62
66
1
70
64
71
26
72
26
62
253
0
VERTEX
8
OBJECT__62
10
26.000000
20
0.000000
30
44.000000
70
192
0
VERTEX
8
OBJECT__62
10
22.517000
20
13.000000
30
44.000000
70
192
0
VERTEX
8
OBJECT__62
10
21.511000
20
10.359000
30
44.000000
70
192
0
VERTEX
8
OBJECT__62
10
13.000000
20
22.517000
30
44.000000
70
192
0
VERTEX
8
OBJECT__62
10
14.886000
20
18.666000
30
44.000000
70
192
0
VERTEX
8
OBJECT__62
10
0.000000
20
26.000000
30
44.000000
70
192
0
VERTEX
8
OBJECT__62
10
5.313000
20
23.275999
30
44.000000
70
192
0
VERTEX
8
OBJECT__62
10
-13.000000
20
22.517000
30
44.000000
70
192
0
VERTEX
8
OBJECT__62
10
-14.886000
20
18.666000
30
44.000000
70
192
0
VERTEX
8
OBJECT__62
10
-5.313000
20
23.275999
30
44.000000
70
192
0
VERTEX
8
OBJECT__62
10
-22.517000
20
13.000000
30
44.000000
70
192
0
VERTEX
8
OBJECT__62
10
-21.511000
20
10.359000
30
44.000000
70
192
0
VERTEX
8
OBJECT__62
10
-26.000000
20
0.000000
30
44.000000
70
192
0
VERTEX
8
OBJECT__62
10
-23.875000
20
0.000000
30
44.000000
70
192
0
VERTEX
8
OBJECT__62
10
-22.517000
20
-13.000000
30
44.000000
70
192
0
VERTEX
8
OBJECT__62
10
-21.511000
20
-10.359000
30
44.000000
70
192
0
VERTEX
8
OBJECT__62
10
-13.000000
20
-22.517000
30
44.000000
70
192
0
VERTEX
8
OBJECT__62
10
0.000000
20
-26.000000
30
44.000000
70
192
0
VERTEX
8
OBJECT__62
10
-5.313000
20
-23.275999
30
44.000000
70
192
0
VERTEX
8
OBJECT__62
10
13.000000
20
-22.517000
30
44.000000
70
192
0
VERTEX
8
OBJECT__62
10
14.886000
20
-18.666000
30
44.000000
70
192
0
VERTEX
8
OBJECT__62
10
5.313000
20
-23.275999
30
44.000000
70
192
0
VERTEX
8
OBJECT__62
10
22.517000
20
-13.000000
30
44.000000
70
192
0
VERTEX
8
OBJECT__62
10
21.511000
20
-10.359000
30
44.000000
70
192
0
VERTEX
8
OBJECT__62
10
-14.886000
20
-18.666000
30
44.000000
70
192
0
VERTEX
8
OBJECT__62
10
23.875000
20
0.000000
30
44.000000
70
192
0
VERTEX
8
OBJECT__62
10
0
20
0
30
0
70
128
71
1
72
2
73
3
0
VERTEX
8
OBJECT__62
10
0
20
0
30
0
70
128
71
2
72
4
73
5
0
VERTEX
8
OBJECT__62
10
0
20
0
30
0
70
128
71
5
72
3
73
2
0
VERTEX
8
OBJECT__62
10
0
20
0
30
0
70
128
71
4
72
6
73
7
0
VERTEX
8
OBJECT__62
10
0
20
0
30
0
70
128
71
8
72
9
73
10
0
VERTEX
8
OBJECT__62
10
0
20
0
30
0
70
128
71
11
72
12
73
9
0
VERTEX
8
OBJECT__62
10
0
20
0
30
0
70
128
71
13
72
14
73
12
0
VERTEX
8
OBJECT__62
10
0
20
0
30
0
70
128
71
13
72
15
73
16
0
VERTEX
8
OBJECT__62
10
0
20
0
30
0
70
128
71
17
72
18
73
19
0
VERTEX
8
OBJECT__62
10
0
20
0
30
0
70
128
71
20
72
21
73
22
0
VERTEX
8
OBJECT__62
10
0
20
0
30
0
70
128
71
23
72
24
73
21
0
VERTEX
8
OBJECT__62
10
0
20
0
30
0
70
128
71
7
72
5
73
4
0
VERTEX
8
OBJECT__62
10
0
20
0
30
0
70
128
71
9
72
8
73
11
0
VERTEX
8
OBJECT__62
10
0
20
0
30
0
70
128
71
16
72
14
73
13
0
VERTEX
8
OBJECT__62
10
0
20
0
30
0
70
128
71
15
72
17
73
25
0
VERTEX
8
OBJECT__62
10
0
20
0
30
0
70
128
71
18
72
22
73
19
0
VERTEX
8
OBJECT__62
10
0
20
0
30
0
70
128
71
21
72
20
73
23
0
VERTEX
8
OBJECT__62
10
0
20
0
30
0
70
128
71
1
72
26
73
24
0
VERTEX
8
OBJECT__62
10
0
20
0
30
0
70
128
71
6
72
10
73
7
0
VERTEX
8
OBJECT__62
10
0
20
0
30
0
70
128
71
12
72
11
73
13
0
VERTEX
8
OBJECT__62
10
0
20
0
30
0
70
128
71
19
72
25
73
17
0
VERTEX
8
OBJECT__62
10
0
20
0
30
0
70
128
71
24
72
23
73
1
0
VERTEX
8
OBJECT__62
10
0
20
0
30
0
70
128
71
10
72
6
73
8
0
VERTEX
8
OBJECT__62
10
0
20
0
30
0
70
128
71
22
72
18
73
20
0
VERTEX
8
OBJECT__62
10
0
20
0
30
0
70
128
71
25
72
16
73
15
0
VERTEX
8
OBJECT__62
10
0
20
0
30
0
70
128
71
3
72
26
73
1
0
SEQEND
8
OBJECT__62
0
POLYLINE
8
OBJECT__64
66
1
70
64
71
14
72
12
62
253
0
VERTEX
8
OBJECT__64
10
12.769000
20
-22.530001
30
24.427000
70
192
0
VERTEX
8
OBJECT__64
10
12.769000
20
-22.530001
30
-0.027000
70
192
0
VERTEX
8
OBJECT__64
10
-0.400000
20
-25.740000
30
-0.027000
70
192
0
VERTEX
8
OBJECT__64
10
22.483000
20
-13.077000
30
24.427000
70
192
0
VERTEX
8
OBJECT__64
10
22.483000
20
-13.077000
30
-0.027000
70
192
0
VERTEX
8
OBJECT__64
10
26.049999
20
0.000000
30
-0.027000
70
192
0
VERTEX
8
OBJECT__64
10
22.483000
20
13.077000
30
24.427000
70
192
0
VERTEX
8
OBJECT__64
10
22.483000
20
13.077000
30
-0.027000
70
192
0
VERTEX
8
OBJECT__64
10
12.769000
20
22.530001
30
24.427000
70
192
0
VERTEX
8
OBJECT__64
10
12.769000
20
22.530001
30
-0.027000
70
192
0
VERTEX
8
OBJECT__64
10
-0.400000
20
25.740000
30
-0.027000
70
192
0
VERTEX
8
OBJECT__64
10
-0.400000
20
25.740000
30
24.427000
70
192
0
VERTEX
8
OBJECT__64
10
26.049999
20
0.000000
30
24.427000
70
192
0
VERTEX
8
OBJECT__64
10
-0.400000
20
-25.740000
30
24.427000
70
192
0
VERTEX
8
OBJECT__64
10
0
20
0
30
0
70
128
71
1
72
2
73
3
0
VERTEX
8
OBJECT__64
10
0
20
0
30
0
70
128
71
4
72
5
73
2
0
VERTEX
8
OBJECT__64
10
0
20
0
30
0
70
128
71
6
72
5
73
4
0
VERTEX
8
OBJECT__64
10
0
20
0
30
0
70
128
71
7
72
8
73
6
0
VERTEX
8
OBJECT__64
10
0
20
0
30
0
70
128
71
9
72
10
73
8
0
VERTEX
8
OBJECT__64
10
0
20
0
30
0
70
128
71
11
72
10
73
9
0
VERTEX
8
OBJECT__64
10
0
20
0
30
0
70
128
71
9
72
12
73
11
0
VERTEX
8
OBJECT__64
10
0
20
0
30
0
70
128
71
8
72
7
73
9
0
VERTEX
8
OBJECT__64
10
0
20
0
30
0
70
128
71
6
72
13
73
7
0
VERTEX
8
OBJECT__64
10
0
20
0
30
0
70
128
71
4
72
13
73
6
0
VERTEX
8
OBJECT__64
10
0
20
0
30
0
70
128
71
2
72
1
73
4
0
VERTEX
8
OBJECT__64
10
0
20
0
30
0
70
128
71
3
72
14
73
1
0
SEQEND
8
OBJECT__64
0
POLYLINE
8
OBJECT__65
66
1
70
64
71
25
72
23
62
253
0
VERTEX
8
OBJECT__65
10
-8.094000
20
24.782000
30
24.427000
70
192
0
VERTEX
8
OBJECT__65
10
-16.320000
20
23.104000
30
24.427000
70
192
0
VERTEX
8
OBJECT__65
10
-16.320000
20
22.603001
30
24.427000
70
192
0
VERTEX
8
OBJECT__65
10
-8.094000
20
-24.782000
30
24.427000
70
192
0
VERTEX
8
OBJECT__65
10
-15.154000
20
-21.577000
30
24.427000
70
192
0
VERTEX
8
OBJECT__65
10
-16.320000
20
-22.603001
30
24.427000
70
192
0
VERTEX
8
OBJECT__65
10
-15.762000
20
24.146000
30
24.427000
70
192
0
VERTEX
8
OBJECT__65
10
-16.320000
20
-23.105000
30
24.427000
70
192
0
VERTEX
8
OBJECT__65
10
-15.154000
20
21.577000
30
24.427000
70
192
0
VERTEX
8
OBJECT__65
10
-15.762000
20
-24.145000
30
24.427000
70
192
0
VERTEX
8
OBJECT__65
10
-2.811000
20
-28.833000
30
24.427000
70
192
0
VERTEX
8
OBJECT__65
10
28.469999
20
-6.887000
30
24.427000
70
192
0
VERTEX
8
OBJECT__65
10
26.049999
20
0.000000
30
24.427000
70
192
0
VERTEX
8
OBJECT__65
10
22.483000
20
-13.077000
30
24.427000
70
192
0
VERTEX
8
OBJECT__65
10
10.842000
20
27.016001
30
24.427000
70
192
0
VERTEX
8
OBJECT__65
10
-2.811000
20
28.833000
30
24.427000
70
192
0
VERTEX
8
OBJECT__65
10
-0.400000
20
25.740000
30
24.427000
70
192
0
VERTEX
8
OBJECT__65
10
-0.400000
20
-25.740000
30
24.427000
70
192
0
VERTEX
8
OBJECT__65
10
10.841000
20
-27.016001
30
24.427000
70
192
0
VERTEX
8
OBJECT__65
10
12.769000
20
-22.530001
30
24.427000
70
192
0
VERTEX
8
OBJECT__65
10
22.115999
20
-19.106001
30
24.427000
70
192
0
VERTEX
8
OBJECT__65
10
28.471001
20
6.886000
30
24.427000
70
192
0
VERTEX
8
OBJECT__65
10
22.117001
20
19.106001
30
24.427000
70
192
0
VERTEX
8
OBJECT__65
10
12.769000
20
22.530001
30
24.427000
70
192
0
VERTEX
8
OBJECT__65
10
22.483000
20
13.077000
30
24.427000
70
192
0
VERTEX
8
OBJECT__65
10
0
20
0
30
0
70
128
71
1
72
2
73
3
0
VERTEX
8
OBJECT__65
10
0
20
0
30
0
70
128
71
4
72
5
73
6
0
VERTEX
8
OBJECT__65
10
0
20
0
30
0
70
128
71
1
72
7
73
2
0
VERTEX
8
OBJECT__65
10
0
20
0
30
0
70
128
71
6
72
8
73
4
0
VERTEX
8
OBJECT__65
10
0
20
0
30
0
70
128
71
3
72
9
73
1
0
VERTEX
8
OBJECT__65
10
0
20
0
30
0
70
128
71
10
72
11
73
4
0
VERTEX
8
OBJECT__65
10
0
20
0
30
0
70
128
71
12
72
13
73
14
0
VERTEX
8
OBJECT__65
10
0
20
0
30
0
70
128
71
15
72
16
73
17
0
VERTEX
8
OBJECT__65
10
0
20
0
30
0
70
128
71
1
72
16
73
7
0
VERTEX
8
OBJECT__65
10
0
20
0
30
0
70
128
71
11
72
18
73
4
0
VERTEX
8
OBJECT__65
10
0
20
0
30
0
70
128
71
19
72
20
73
18
0
VERTEX
8
OBJECT__65
10
0
20
0
30
0
70
128
71
21
72
14
73
20
0
VERTEX
8
OBJECT__65
10
0
20
0
30
0
70
128
71
12
72
22
73
13
0
VERTEX
8
OBJECT__65
10
0
20
0
30
0
70
128
71
23
72
15
73
24
0
VERTEX
8
OBJECT__65
10
0
20
0
30
0
70
128
71
1
72
17
73
16
0
VERTEX
8
OBJECT__65
10
0
20
0
30
0
70
128
71
18
72
11
73
19
0
VERTEX
8
OBJECT__65
10
0
20
0
30
0
70
128
71
14
72
21
73
12
0
VERTEX
8
OBJECT__65
10
0
20
0
30
0
70
128
71
22
72
23
73
25
0
VERTEX
8
OBJECT__65
10
0
20
0
30
0
70
128
71
17
72
24
73
15
0
VERTEX
8
OBJECT__65
10
0
20
0
30
0
70
128
71
20
72
19
73
21
0
VERTEX
8
OBJECT__65
10
0
20
0
30
0
70
128
71
24
72
25
73
23
0
VERTEX
8
OBJECT__65
10
0
20
0
30
0
70
128
71
25
72
13
73
22
0
VERTEX
8
OBJECT__65
10
0
20
0
30
0
70
128
71
8
72
10
73
4
0
SEQEND
8
OBJECT__65
0
POLYLINE
8
OBJECT__67
66
1
70
64
71
6
72
4
62
253
0
VERTEX
8
OBJECT__67
10
-16.320000
20
-23.105000
30
24.427000
70
192
0
VERTEX
8
OBJECT__67
10
-16.320000
20
-23.105000
30
-0.027000
70
192
0
VERTEX
8
OBJECT__67
10
-15.762000
20
-24.145000
30
22.973000
70
192
0
VERTEX
8
OBJECT__67
10
-15.762000
20
-24.146000
30
1.427000
70
192
0
VERTEX
8
OBJECT__67
10
-15.762000
20
-24.145000
30
-0.027000
70
192
0
VERTEX
8
OBJECT__67
10
-15.762000
20
-24.145000
30
24.427000
70
192
0
VERTEX
8
OBJECT__67
10
0
20
0
30
0
70
128
71
1
72
2
73
3
0
VERTEX
8
OBJECT__67
10
0
20
0
30
0
70
128
71
2
72
5
73
4
0
VERTEX
8
OBJECT__67
10
0
20
0
30
0
70
128
71
4
72
3
73
2
0
VERTEX
8
OBJECT__67
10
0
20
0
30
0
70
128
71
3
72
6
73
1
0
SEQEND
8
OBJECT__67
0
POLYLINE
8
OBJECT__68
66
1
70
64
71
4
72
2
62
253
0
VERTEX
8
OBJECT__68
10
-16.320000
20
-23.105000
30
24.427000
70
192
0
VERTEX
8
OBJECT__68
10
-16.320000
20
-22.603001
30
24.427000
70
192
0
VERTEX
8
OBJECT__68
10
-16.320000
20
-22.603001
30
-0.027000
70
192
0
VERTEX
8
OBJECT__68
10
-16.320000
20
-23.105000
30
-0.027000
70
192
0
VERTEX
8
OBJECT__68
10
0
20
0
30
0
70
128
71
1
72
2
73
3
0
VERTEX
8
OBJECT__68
10
0
20
0
30
0
70
128
71
3
72
4
73
1
0
SEQEND
8
OBJECT__68
0
POLYLINE
8
OBJECT__69
66
1
70
64
71
4
72
2
62
253
0
VERTEX
8
OBJECT__69
10
-16.320000
20
22.603001
30
24.427000
70
192
0
VERTEX
8
OBJECT__69
10
-16.320000
20
23.104000
30
24.427000
70
192
0
VERTEX
8
OBJECT__69
10
-16.320000
20
23.104000
30
-0.027000
70
192
0
VERTEX
8
OBJECT__69
10
-16.320000
20
22.603001
30
-0.027000
70
192
0
VERTEX
8
OBJECT__69
10
0
20
0
30
0
70
128
71
1
72
2
73
3
0
VERTEX
8
OBJECT__69
10
0
20
0
30
0
70
128
71
3
72
4
73
1
0
SEQEND
8
OBJECT__69
0
POLYLINE
8
OBJECT__70
66
1
70
64
71
4
72
2
62
253
0
VERTEX
8
OBJECT__70
10
-16.320000
20
23.104000
30
24.427000
70
192
0
VERTEX
8
OBJECT__70
10
-15.762000
20
24.146000
30
24.427000
70
192
0
VERTEX
8
OBJECT__70
10
-15.762000
20
24.146000
30
-0.027000
70
192
0
VERTEX
8
OBJECT__70
10
-16.320000
20
23.104000
30
-0.027000
70
192
0
VERTEX
8
OBJECT__70
10
0
20
0
30
0
70
128
71
1
72
2
73
3
0
VERTEX
8
OBJECT__70
10
0
20
0
30
0
70
128
71
3
72
4
73
1
0
SEQEND
8
OBJECT__70
0
POLYLINE
8
OBJECT__71
66
1
70
64
71
4
72
2
62
253
0
VERTEX
8
OBJECT__71
10
-16.320000
20
-22.603001
30
24.427000
70
192
0
VERTEX
8
OBJECT__71
10
-15.154000
20
-21.577000
30
24.427000
70
192
0
VERTEX
8
OBJECT__71
10
-15.154000
20
-21.577000
30
-0.027000
70
192
0
VERTEX
8
OBJECT__71
10
-16.320000
20
-22.603001
30
-0.027000
70
192
0
VERTEX
8
OBJECT__71
10
0
20
0
30
0
70
128
71
1
72
2
73
3
0
VERTEX
8
OBJECT__71
10
0
20
0
30
0
70
128
71
3
72
4
73
1
0
SEQEND
8
OBJECT__71
0
POLYLINE
8
OBJECT__72
66
1
70
64
71
4
72
2
62
253
0
VERTEX
8
OBJECT__72
10
-15.154000
20
21.577000
30
24.427000
70
192
0
VERTEX
8
OBJECT__72
10
-16.320000
20
22.603001
30
24.427000
70
192
0
VERTEX
8
OBJECT__72
10
-16.320000
20
22.603001
30
-0.027000
70
192
0
VERTEX
8
OBJECT__72
10
-15.154000
20
21.577000
30
-0.027000
70
192
0
VERTEX
8
OBJECT__72
10
0
20
0
30
0
70
128
71
1
72
2
73
3
0
VERTEX
8
OBJECT__72
10
0
20
0
30
0
70
128
71
3
72
4
73
1
0
SEQEND
8
OBJECT__72
0
POLYLINE
8
OBJECT__73
66
1
70
64
71
58
72
58
62
253
0
VERTEX
8
OBJECT__73
10
-2.811000
20
28.833000
30
-0.027000
70
192
0
VERTEX
8
OBJECT__73
10
-2.813000
20
28.816000
30
1.427000
70
192
0
VERTEX
8
OBJECT__73
10
10.794000
20
27.035000
30
1.427000
70
192
0
VERTEX
8
OBJECT__73
10
10.842000
20
27.016001
30
-0.027000
70
192
0
VERTEX
8
OBJECT__73
10
10.835000
20
27.006001
30
1.427000
70
192
0
VERTEX
8
OBJECT__73
10
22.096001
20
19.129000
30
1.427000
70
192
0
VERTEX
8
OBJECT__73
10
22.117001
20
19.106001
30
-0.027000
70
192
0
VERTEX
8
OBJECT__73
10
22.110001
20
19.103001
30
1.427000
70
192
0
VERTEX
8
OBJECT__73
10
28.468000
20
6.896000
30
1.427000
70
192
0
VERTEX
8
OBJECT__73
10
28.471001
20
6.886000
30
-0.027000
70
192
0
VERTEX
8
OBJECT__73
10
28.469999
20
-6.887000
30
-0.027000
70
192
0
VERTEX
8
OBJECT__73
10
28.468000
20
6.886000
30
1.427000
70
192
0
VERTEX
8
OBJECT__73
10
22.115999
20
-19.106001
30
-0.027000
70
192
0
VERTEX
8
OBJECT__73
10
28.468000
20
-6.896000
30
1.427000
70
192
0
VERTEX
8
OBJECT__73
10
28.468000
20
-6.887000
30
1.427000
70
192
0
VERTEX
8
OBJECT__73
10
10.841000
20
-27.016001
30
-0.027000
70
192
0
VERTEX
8
OBJECT__73
10
22.096001
20
-19.129000
30
1.427000
70
192
0
VERTEX
8
OBJECT__73
10
22.110001
20
-19.103001
30
1.427000
70
192
0
VERTEX
8
OBJECT__73
10
-2.811000
20
-28.833000
30
-0.027000
70
192
0
VERTEX
8
OBJECT__73
10
10.794000
20
-27.035000
30
1.427000
70
192
0
VERTEX
8
OBJECT__73
10
10.834000
20
-27.006001
30
1.427000
70
192
0
VERTEX
8
OBJECT__73
10
-2.811000
20
-28.833000
30
24.427000
70
192
0
VERTEX
8
OBJECT__73
10
-15.762000
20
-24.145000
30
24.427000
70
192
0
VERTEX
8
OBJECT__73
10
-15.216000
20
-24.500000
30
22.973000
70
192
0
VERTEX
8
OBJECT__73
10
-2.882000
20
-28.825001
30
22.973000
70
192
0
VERTEX
8
OBJECT__73
10
-15.762000
20
-24.145000
30
-0.027000
70
192
0
VERTEX
8
OBJECT__73
10
-15.762000
20
-24.146000
30
1.427000
70
192
0
VERTEX
8
OBJECT__73
10
-15.216000
20
-24.500000
30
1.427000
70
192
0
VERTEX
8
OBJECT__73
10
-15.762000
20
-24.146000
30
22.973000
70
192
0
VERTEX
8
OBJECT__73
10
-2.882000
20
-28.825001
30
1.427000
70
192
0
VERTEX
8
OBJECT__73
10
-2.814000
20
-28.816000
30
1.427000
70
192
0
VERTEX
8
OBJECT__73
10
-2.814000
20
-28.816000
30
22.973000
70
192
0
VERTEX
8
OBJECT__73
10
10.794000
20
-27.035000
30
22.973000
70
192
0
VERTEX
8
OBJECT__73
10
10.841000
20
-27.016001
30
24.427000
70
192
0
VERTEX
8
OBJECT__73
10
10.834000
20
-27.006001
30
22.973000
70
192
0
VERTEX
8
OBJECT__73
10
22.096001
20
-19.129000
30
22.973000
70
192
0
VERTEX
8
OBJECT__73
10
22.115999
20
-19.106001
30
24.427000
70
192
0
VERTEX
8
OBJECT__73
10
22.110001
20
-19.103001
30
22.973000
70
192
0
VERTEX
8
OBJECT__73
10
28.468000
20
-6.896000
30
22.973000
70
192
0
VERTEX
8
OBJECT__73
10
28.469999
20
-6.887000
30
24.427000
70
192
0
VERTEX
8
OBJECT__73
10
28.468000
20
-6.887000
30
22.973000
70
192
0
VERTEX
8
OBJECT__73
10
28.468000
20
6.886000
30
22.973000
70
192
0
VERTEX
8
OBJECT__73
10
22.117001
20
19.106001
30
24.427000
70
192
0
VERTEX
8
OBJECT__73
10
28.471001
20
6.886000
30
24.427000
70
192
0
VERTEX
8
OBJECT__73
10
28.468000
20
6.896000
30
22.973000
70
192
0
VERTEX
8
OBJECT__73
10
10.842000
20
27.016001
30
24.427000
70
192
0
VERTEX
8
OBJECT__73
10
22.096001
20
19.129000
30
22.973000
70
192
0
VERTEX
8
OBJECT__73
10
22.110001
20
19.103001
30
22.973000
70
192
0
VERTEX
8
OBJECT__73
10
-2.811000
20
28.833000
30
24.427000
70
192
0
VERTEX
8
OBJECT__73
10
10.794000
20
27.035000
30
22.973000
70
192
0
VERTEX
8
OBJECT__73
10
10.835000
20
27.006001
30
22.973000
70
192
0
VERTEX
8
OBJECT__73
10
-15.762000
20
24.146000
30
-0.027000
70
192
0
VERTEX
8
OBJECT__73
10
-15.216000
20
24.500000
30
1.427000
70
192
0
VERTEX
8
OBJECT__73
10
-2.882000
20
28.825001
30
1.427000
70
192
0
VERTEX
8
OBJECT__73
10
-15.762000
20
24.146000
30
24.427000
70
192
0
VERTEX
8
OBJECT__73
10
-15.216000
20
24.500000
30
22.973000
70
192
0
VERTEX
8
OBJECT__73
10
-2.882000
20
28.825001
30
22.973000
70
192
0
VERTEX
8
OBJECT__73
10
-2.813000
20
28.816000
30
22.973000
70
192
0
VERTEX
8
OBJECT__73
10
0
20
0
30
0
70
128
71
1
72
2
73
3
0
VERTEX
8
OBJECT__73
10
0
20
0
30
0
70
128
71
3
72
4
73
1
0
VERTEX
8
OBJECT__73
10
0
20
0
30
0
70
128
71
4
72
5
73
6
0
VERTEX
8
OBJECT__73
10
0
20
0
30
0
70
128
71
6
72
7
73
4
0
VERTEX
8
OBJECT__73
10
0
20
0
30
0
70
128
71
7
72
8
73
9
0
VERTEX
8
OBJECT__73
10
0
20
0
30
0
70
128
71
9
72
10
73
7
0
VERTEX
8
OBJECT__73
10
0
20
0
30
0
70
128
71
11
72
10
73
12
0
VERTEX
8
OBJECT__73
10
0
20
0
30
0
70
128
71
13
72
11
73
14
0
VERTEX
8
OBJECT__73
10
0
20
0
30
0
70
128
71
11
72
15
73
14
0
VERTEX
8
OBJECT__73
10
0
20
0
30
0
70
128
71
16
72
13
73
17
0
VERTEX
8
OBJECT__73
10
0
20
0
30
0
70
128
71
13
72
18
73
17
0
VERTEX
8
OBJECT__73
10
0
20
0
30
0
70
128
71
19
72
16
73
20
0
VERTEX
8
OBJECT__73
10
0
20
0
30
0
70
128
71
16
72
21
73
20
0
VERTEX
8
OBJECT__73
10
0
20
0
30
0
70
128
71
22
72
23
73
24
0
VERTEX
8
OBJECT__73
10
0
20
0
30
0
70
128
71
24
72
25
73
22
0
VERTEX
8
OBJECT__73
10
0
20
0
30
0
70
128
71
26
72
19
73
27
0
VERTEX
8
OBJECT__73
10
0
20
0
30
0
70
128
71
28
72
24
73
29
0
VERTEX
8
OBJECT__73
10
0
20
0
30
0
70
128
71
19
72
30
73
28
0
VERTEX
8
OBJECT__73
10
0
20
0
30
0
70
128
71
19
72
31
73
30
0
VERTEX
8
OBJECT__73
10
0
20
0
30
0
70
128
71
28
72
27
73
19
0
VERTEX
8
OBJECT__73
10
0
20
0
30
0
70
128
71
29
72
27
73
28
0
VERTEX
8
OBJECT__73
10
0
20
0
30
0
70
128
71
29
72
24
73
23
0
VERTEX
8
OBJECT__73
10
0
20
0
30
0
70
128
71
22
72
32
73
33
0
VERTEX
8
OBJECT__73
10
0
20
0
30
0
70
128
71
33
72
34
73
22
0
VERTEX
8
OBJECT__73
10
0
20
0
30
0
70
128
71
34
72
35
73
36
0
VERTEX
8
OBJECT__73
10
0
20
0
30
0
70
128
71
36
72
37
73
34
0
VERTEX
8
OBJECT__73
10
0
20
0
30
0
70
128
71
37
72
38
73
39
0
VERTEX
8
OBJECT__73
10
0
20
0
30
0
70
128
71
39
72
40
73
37
0
VERTEX
8
OBJECT__73
10
0
20
0
30
0
70
128
71
40
72
41
73
42
0
VERTEX
8
OBJECT__73
10
0
20
0
30
0
70
128
71
43
72
44
73
45
0
VERTEX
8
OBJECT__73
10
0
20
0
30
0
70
128
71
44
72
42
73
45
0
VERTEX
8
OBJECT__73
10
0
20
0
30
0
70
128
71
46
72
43
73
47
0
VERTEX
8
OBJECT__73
10
0
20
0
30
0
70
128
71
43
72
48
73
47
0
VERTEX
8
OBJECT__73
10
0
20
0
30
0
70
128
71
49
72
46
73
50
0
VERTEX
8
OBJECT__73
10
0
20
0
30
0
70
128
71
46
72
51
73
50
0
VERTEX
8
OBJECT__73
10
0
20
0
30
0
70
128
71
1
72
52
73
53
0
VERTEX
8
OBJECT__73
10
0
20
0
30
0
70
128
71
53
72
54
73
1
0
VERTEX
8
OBJECT__73
10
0
20
0
30
0
70
128
71
55
72
56
73
53
0
VERTEX
8
OBJECT__73
10
0
20
0
30
0
70
128
71
53
72
52
73
55
0
VERTEX
8
OBJECT__73
10
0
20
0
30
0
70
128
71
49
72
57
73
56
0
VERTEX
8
OBJECT__73
10
0
20
0
30
0
70
128
71
49
72
58
73
57
0
VERTEX
8
OBJECT__73
10
0
20
0
30
0
70
128
71
56
72
55
73
49
0
VERTEX
8
OBJECT__73
10
0
20
0
30
0
70
128
71
54
72
2
73
1
0
VERTEX
8
OBJECT__73
10
0
20
0
30
0
70
128
71
50
72
58
73
49
0
VERTEX
8
OBJECT__73
10
0
20
0
30
0
70
128
71
47
72
51
73
46
0
VERTEX
8
OBJECT__73
10
0
20
0
30
0
70
128
71
45
72
48
73
43
0
VERTEX
8
OBJECT__73
10
0
20
0
30
0
70
128
71
42
72
44
73
40
0
VERTEX
8
OBJECT__73
10
0
20
0
30
0
70
128
71
39
72
41
73
40
0
VERTEX
8
OBJECT__73
10
0
20
0
30
0
70
128
71
36
72
38
73
37
0
VERTEX
8
OBJECT__73
10
0
20
0
30
0
70
128
71
33
72
35
73
34
0
VERTEX
8
OBJECT__73
10
0
20
0
30
0
70
128
71
25
72
32
73
22
0
VERTEX
8
OBJECT__73
10
0
20
0
30
0
70
128
71
20
72
31
73
19
0
VERTEX
8
OBJECT__73
10
0
20
0
30
0
70
128
71
17
72
21
73
16
0
VERTEX
8
OBJECT__73
10
0
20
0
30
0
70
128
71
14
72
18
73
13
0
VERTEX
8
OBJECT__73
10
0
20
0
30
0
70
128
71
12
72
15
73
11
0
VERTEX
8
OBJECT__73
10
0
20
0
30
0
70
128
71
9
72
12
73
10
0
VERTEX
8
OBJECT__73
10
0
20
0
30
0
70
128
71
6
72
8
73
7
0
VERTEX
8
OBJECT__73
10
0
20
0
30
0
70
128
71
3
72
5
73
4
0
SEQEND
8
OBJECT__73
0
POLYLINE
8
OBJECT__74
66
1
70
64
71
60
72
58
62
253
0
VERTEX
8
OBJECT__74
10
-2.813000
20
28.816000
30
1.427000
70
192
0
VERTEX
8
OBJECT__74
10
1.116000
20
27.160000
30
1.475000
70
192
0
VERTEX
8
OBJECT__74
10
4.889000
20
26.584000
30
1.480000
70
192
0
VERTEX
8
OBJECT__74
10
10.794000
20
27.035000
30
1.427000
70
192
0
VERTEX
8
OBJECT__74
10
-2.701000
20
27.094000
30
1.470000
70
192
0
VERTEX
8
OBJECT__74
10
0.341000
20
27.146000
30
1.474000
70
192
0
VERTEX
8
OBJECT__74
10
-2.882000
20
28.825001
30
1.427000
70
192
0
VERTEX
8
OBJECT__74
10
22.096001
20
19.129000
30
1.427000
70
192
0
VERTEX
8
OBJECT__74
10
10.835000
20
27.006001
30
1.427000
70
192
0
VERTEX
8
OBJECT__74
10
13.351000
20
23.103001
30
1.492000
70
192
0
VERTEX
8
OBJECT__74
10
9.981000
20
24.895000
30
1.487000
70
192
0
VERTEX
8
OBJECT__74
10
13.348000
20
23.104000
30
1.492000
70
192
0
VERTEX
8
OBJECT__74
10
17.597000
20
19.823999
30
1.498000
70
192
0
VERTEX
8
OBJECT__74
10
9.965000
20
24.900000
30
1.487000
70
192
0
VERTEX
8
OBJECT__74
10
28.468000
20
6.896000
30
1.427000
70
192
0
VERTEX
8
OBJECT__74
10
22.110001
20
19.103001
30
1.427000
70
192
0
VERTEX
8
OBJECT__74
10
23.105000
20
12.518000
30
1.505000
70
192
0
VERTEX
8
OBJECT__74
10
20.184000
20
17.017000
30
1.501000
70
192
0
VERTEX
8
OBJECT__74
10
22.680000
20
13.171000
30
1.505000
70
192
0
VERTEX
8
OBJECT__74
10
24.615999
20
9.013000
30
1.507000
70
192
0
VERTEX
8
OBJECT__74
10
19.962999
20
17.256001
30
1.501000
70
192
0
VERTEX
8
OBJECT__74
10
25.402000
20
-6.144000
30
1.509000
70
192
0
VERTEX
8
OBJECT__74
10
28.468000
20
-6.896000
30
1.427000
70
192
0
VERTEX
8
OBJECT__74
10
28.468000
20
-6.887000
30
1.427000
70
192
0
VERTEX
8
OBJECT__74
10
28.468000
20
6.886000
30
1.427000
70
192
0
VERTEX
8
OBJECT__74
10
26.149000
20
0.000000
30
1.510000
70
192
0
VERTEX
8
OBJECT__74
10
26.150000
20
-0.008000
30
1.510000
70
192
0
VERTEX
8
OBJECT__74
10
25.884001
20
3.800000
30
1.509000
70
192
0
VERTEX
8
OBJECT__74
10
25.318001
20
6.126000
30
1.508000
70
192
0
VERTEX
8
OBJECT__74
10
25.620001
20
-5.346000
30
1.509000
70
192
0
VERTEX
8
OBJECT__74
10
19.958000
20
-17.250000
30
1.501000
70
192
0
VERTEX
8
OBJECT__74
10
22.096001
20
-19.129000
30
1.427000
70
192
0
VERTEX
8
OBJECT__74
10
22.110001
20
-19.103001
30
1.427000
70
192
0
VERTEX
8
OBJECT__74
10
24.611000
20
-9.027000
30
1.507000
70
192
0
VERTEX
8
OBJECT__74
10
22.676001
20
-13.179000
30
1.505000
70
192
0
VERTEX
8
OBJECT__74
10
22.344999
20
-13.889000
30
1.504000
70
192
0
VERTEX
8
OBJECT__74
10
20.174000
20
-17.028999
30
1.501000
70
192
0
VERTEX
8
OBJECT__74
10
9.917000
20
-24.805000
30
1.487000
70
192
0
VERTEX
8
OBJECT__74
10
10.794000
20
-27.035000
30
1.427000
70
192
0
VERTEX
8
OBJECT__74
10
10.834000
20
-27.006001
30
1.427000
70
192
0
VERTEX
8
OBJECT__74
10
16.426001
20
-20.867001
30
1.496000
70
192
0
VERTEX
8
OBJECT__74
10
13.347000
20
-23.104000
30
1.492000
70
192
0
VERTEX
8
OBJECT__74
10
13.338000
20
-23.111000
30
1.492000
70
192
0
VERTEX
8
OBJECT__74
10
-2.700000
20
-27.138000
30
1.470000
70
192
0
VERTEX
8
OBJECT__74
10
-2.882000
20
-28.825001
30
1.427000
70
192
0
VERTEX
8
OBJECT__74
10
-2.814000
20
-28.816000
30
1.427000
70
192
0
VERTEX
8
OBJECT__74
10
4.874000
20
-26.587000
30
1.480000
70
192
0
VERTEX
8
OBJECT__74
10
0.331000
20
-27.146000
30
1.474000
70
192
0
VERTEX
8
OBJECT__74
10
8.531000
20
-25.490999
30
1.485000
70
192
0
VERTEX
8
OBJECT__74
10
-0.450000
20
-27.242001
30
1.473000
70
192
0
VERTEX
8
OBJECT__74
10
-14.942000
20
-24.500000
30
1.431000
70
192
0
VERTEX
8
OBJECT__74
10
-9.504000
20
-25.922001
30
1.461000
70
192
0
VERTEX
8
OBJECT__74
10
-13.029000
20
-24.500000
30
1.456000
70
192
0
VERTEX
8
OBJECT__74
10
-4.263000
20
-27.066000
30
1.468000
70
192
0
VERTEX
8
OBJECT__74
10
-14.942000
20
24.500000
30
1.431000
70
192
0
VERTEX
8
OBJECT__74
10
-13.029000
20
24.500000
30
1.456000
70
192
0
VERTEX
8
OBJECT__74
10
-7.999000
20
26.362000
30
1.463000
70
192
0
VERTEX
8
OBJECT__74
10
-15.216000
20
24.500000
30
1.427000
70
192
0
VERTEX
8
OBJECT__74
10
-4.248000
20
27.068001
30
1.468000
70
192
0
VERTEX
8
OBJECT__74
10
-15.216000
20
-24.500000
30
1.427000
70
192
0
VERTEX
8
OBJECT__74
10
0
20
0
30
0
70
128
71
1
72
2
73
3
0
VERTEX
8
OBJECT__74
10
0
20
0
30
0
70
128
71
3
72
4
73
1
0
VERTEX
8
OBJECT__74
10
0
20
0
30
0
70
128
71
5
72
6
73
1
0
VERTEX
8
OBJECT__74
10
0
20
0
30
0
70
128
71
1
72
7
73
5
0
VERTEX
8
OBJECT__74
10
0
20
0
30
0
70
128
71
6
72
2
73
1
0
VERTEX
8
OBJECT__74
10
0
20
0
30
0
70
128
71
8
72
9
73
10
0
VERTEX
8
OBJECT__74
10
0
20
0
30
0
70
128
71
9
72
11
73
12
0
VERTEX
8
OBJECT__74
10
0
20
0
30
0
70
128
71
12
72
10
73
9
0
VERTEX
8
OBJECT__74
10
0
20
0
30
0
70
128
71
10
72
13
73
8
0
VERTEX
8
OBJECT__74
10
0
20
0
30
0
70
128
71
14
72
11
73
9
0
VERTEX
8
OBJECT__74
10
0
20
0
30
0
70
128
71
9
72
4
73
14
0
VERTEX
8
OBJECT__74
10
0
20
0
30
0
70
128
71
15
72
16
73
17
0
VERTEX
8
OBJECT__74
10
0
20
0
30
0
70
128
71
16
72
18
73
19
0
VERTEX
8
OBJECT__74
10
0
20
0
30
0
70
128
71
19
72
17
73
16
0
VERTEX
8
OBJECT__74
10
0
20
0
30
0
70
128
71
17
72
20
73
15
0
VERTEX
8
OBJECT__74
10
0
20
0
30
0
70
128
71
21
72
18
73
16
0
VERTEX
8
OBJECT__74
10
0
20
0
30
0
70
128
71
16
72
8
73
21
0
VERTEX
8
OBJECT__74
10
0
20
0
30
0
70
128
71
22
72
23
73
24
0
VERTEX
8
OBJECT__74
10
0
20
0
30
0
70
128
71
25
72
26
73
27
0
VERTEX
8
OBJECT__74
10
0
20
0
30
0
70
128
71
25
72
28
73
26
0
VERTEX
8
OBJECT__74
10
0
20
0
30
0
70
128
71
27
72
24
73
25
0
VERTEX
8
OBJECT__74
10
0
20
0
30
0
70
128
71
29
72
28
73
25
0
VERTEX
8
OBJECT__74
10
0
20
0
30
0
70
128
71
25
72
15
73
29
0
VERTEX
8
OBJECT__74
10
0
20
0
30
0
70
128
71
27
72
30
73
24
0
VERTEX
8
OBJECT__74
10
0
20
0
30
0
70
128
71
31
72
32
73
33
0
VERTEX
8
OBJECT__74
10
0
20
0
30
0
70
128
71
23
72
34
73
35
0
VERTEX
8
OBJECT__74
10
0
20
0
30
0
70
128
71
35
72
33
73
23
0
VERTEX
8
OBJECT__74
10
0
20
0
30
0
70
128
71
35
72
36
73
33
0
VERTEX
8
OBJECT__74
10
0
20
0
30
0
70
128
71
23
72
22
73
34
0
VERTEX
8
OBJECT__74
10
0
20
0
30
0
70
128
71
36
72
37
73
33
0
VERTEX
8
OBJECT__74
10
0
20
0
30
0
70
128
71
38
72
39
73
40
0
VERTEX
8
OBJECT__74
10
0
20
0
30
0
70
128
71
40
72
32
73
41
0
VERTEX
8
OBJECT__74
10
0
20
0
30
0
70
128
71
41
72
42
73
40
0
VERTEX
8
OBJECT__74
10
0
20
0
30
0
70
128
71
32
72
31
73
41
0
VERTEX
8
OBJECT__74
10
0
20
0
30
0
70
128
71
42
72
43
73
40
0
VERTEX
8
OBJECT__74
10
0
20
0
30
0
70
128
71
44
72
45
73
46
0
VERTEX
8
OBJECT__74
10
0
20
0
30
0
70
128
71
46
72
39
73
47
0
VERTEX
8
OBJECT__74
10
0
20
0
30
0
70
128
71
47
72
48
73
46
0
VERTEX
8
OBJECT__74
10
0
20
0
30
0
70
128
71
39
72
49
73
47
0
VERTEX
8
OBJECT__74
10
0
20
0
30
0
70
128
71
48
72
50
73
46
0
VERTEX
8
OBJECT__74
10
0
20
0
30
0
70
128
71
39
72
38
73
49
0
VERTEX
8
OBJECT__74
10
0
20
0
30
0
70
128
71
51
72
45
73
52
0
VERTEX
8
OBJECT__74
10
0
20
0
30
0
70
128
71
52
72
53
73
51
0
VERTEX
8
OBJECT__74
10
0
20
0
30
0
70
128
71
45
72
54
73
52
0
VERTEX
8
OBJECT__74
10
0
20
0
30
0
70
128
71
45
72
44
73
54
0
VERTEX
8
OBJECT__74
10
0
20
0
30
0
70
128
71
55
72
56
73
57
0
VERTEX
8
OBJECT__74
10
0
20
0
30
0
70
128
71
7
72
58
73
55
0
VERTEX
8
OBJECT__74
10
0
20
0
30
0
70
128
71
57
72
7
73
55
0
VERTEX
8
OBJECT__74
10
0
20
0
30
0
70
128
71
57
72
59
73
7
0
VERTEX
8
OBJECT__74
10
0
20
0
30
0
70
128
71
59
72
5
73
7
0
VERTEX
8
OBJECT__74
10
0
20
0
30
0
70
128
71
51
72
60
73
45
0
VERTEX
8
OBJECT__74
10
0
20
0
30
0
70
128
71
46
72
50
73
44
0
VERTEX
8
OBJECT__74
10
0
20
0
30
0
70
128
71
40
72
43
73
38
0
VERTEX
8
OBJECT__74
10
0
20
0
30
0
70
128
71
33
72
37
73
31
0
VERTEX
8
OBJECT__74
10
0
20
0
30
0
70
128
71
24
72
30
73
22
0
VERTEX
8
OBJECT__74
10
0
20
0
30
0
70
128
71
20
72
29
73
15
0
VERTEX
8
OBJECT__74
10
0
20
0
30
0
70
128
71
13
72
21
73
8
0
VERTEX
8
OBJECT__74
10
0
20
0
30
0
70
128
71
3
72
14
73
4
0
SEQEND
8
OBJECT__74
0
POLYLINE
8
OBJECT__75
66
1
70
64
71
6
72
4
62
253
0
VERTEX
8
OBJECT__75
10
-14.942000
20
24.500000
30
1.431000
70
192
0
VERTEX
8
OBJECT__75
10
-14.942000
20
24.500000
30
22.969000
70
192
0
VERTEX
8
OBJECT__75
10
-13.029000
20
24.500000
30
22.944000
70
192
0
VERTEX
8
OBJECT__75
10
-15.216000
20
24.500000
30
22.973000
70
192
0
VERTEX
8
OBJECT__75
10
-13.029000
20
24.500000
30
1.456000
70
192
0
VERTEX
8
OBJECT__75
10
-15.216000
20
24.500000
30
1.427000
70
192
0
VERTEX
8
OBJECT__75
10
0
20
0
30
0
70
128
71
1
72
2
73
3
0
VERTEX
8
OBJECT__75
10
0
20
0
30
0
70
128
71
1
72
4
73
2
0
VERTEX
8
OBJECT__75
10
0
20
0
30
0
70
128
71
3
72
5
73
1
0
VERTEX
8
OBJECT__75
10
0
20
0
30
0
70
128
71
1
72
6
73
4
0
SEQEND
8
OBJECT__75
0
POLYLINE
8
OBJECT__76
66
1
70
64
71
80
72
78
62
253
0
VERTEX
8
OBJECT__76
10
-13.029000
20
24.500000
30
22.944000
70
192
0
VERTEX
8
OBJECT__76
10
-7.999000
20
26.362000
30
22.937000
70
192
0
VERTEX
8
OBJECT__76
10
-7.999000
20
26.362000
30
1.463000
70
192
0
VERTEX
8
OBJECT__76
10
-4.248000
20
27.068001
30
22.931999
70
192
0
VERTEX
8
OBJECT__76
10
-2.701000
20
27.094000
30
22.930000
70
192
0
VERTEX
8
OBJECT__76
10
-2.701000
20
27.094000
30
1.470000
70
192
0
VERTEX
8
OBJECT__76
10
-4.248000
20
27.068001
30
1.468000
70
192
0
VERTEX
8
OBJECT__76
10
0.341000
20
27.146000
30
22.926001
70
192
0
VERTEX
8
OBJECT__76
10
0.341000
20
27.146000
30
1.474000
70
192
0
VERTEX
8
OBJECT__76
10
1.116000
20
27.160000
30
22.924999
70
192
0
VERTEX
8
OBJECT__76
10
1.116000
20
27.160000
30
1.475000
70
192
0
VERTEX
8
OBJECT__76
10
4.889000
20
26.584000
30
22.920000
70
192
0
VERTEX
8
OBJECT__76
10
4.889000
20
26.584000
30
1.480000
70
192
0
VERTEX
8
OBJECT__76
10
9.965000
20
24.900000
30
22.913000
70
192
0
VERTEX
8
OBJECT__76
10
9.981000
20
24.895000
30
1.487000
70
192
0
VERTEX
8
OBJECT__76
10
9.965000
20
24.900000
30
1.487000
70
192
0
VERTEX
8
OBJECT__76
10
9.981000
20
24.895000
30
22.913000
70
192
0
VERTEX
8
OBJECT__76
10
13.348000
20
23.104000
30
1.492000
70
192
0
VERTEX
8
OBJECT__76
10
13.348000
20
23.104000
30
22.908001
70
192
0
VERTEX
8
OBJECT__76
10
20.184000
20
17.017000
30
1.501000
70
192
0
VERTEX
8
OBJECT__76
10
17.597000
20
19.823999
30
22.902000
70
192
0
VERTEX
8
OBJECT__76
10
19.962999
20
17.256001
30
22.899000
70
192
0
VERTEX
8
OBJECT__76
10
13.351000
20
23.103001
30
22.908001
70
192
0
VERTEX
8
OBJECT__76
10
13.351000
20
23.103001
30
1.492000
70
192
0
VERTEX
8
OBJECT__76
10
17.597000
20
19.823999
30
1.498000
70
192
0
VERTEX
8
OBJECT__76
10
19.962999
20
17.256001
30
1.501000
70
192
0
VERTEX
8
OBJECT__76
10
20.184000
20
17.017000
30
22.899000
70
192
0
VERTEX
8
OBJECT__76
10
22.680000
20
13.171000
30
22.895000
70
192
0
VERTEX
8
OBJECT__76
10
22.680000
20
13.171000
30
1.505000
70
192
0
VERTEX
8
OBJECT__76
10
23.105000
20
12.518000
30
22.895000
70
192
0
VERTEX
8
OBJECT__76
10
24.615999
20
9.013000
30
22.893000
70
192
0
VERTEX
8
OBJECT__76
10
25.318001
20
6.126000
30
22.892000
70
192
0
VERTEX
8
OBJECT__76
10
25.318001
20
6.126000
30
1.508000
70
192
0
VERTEX
8
OBJECT__76
10
25.884001
20
3.800000
30
22.891001
70
192
0
VERTEX
8
OBJECT__76
10
25.884001
20
3.800000
30
1.509000
70
192
0
VERTEX
8
OBJECT__76
10
23.105000
20
12.518000
30
1.505000
70
192
0
VERTEX
8
OBJECT__76
10
24.615999
20
9.013000
30
1.507000
70
192
0
VERTEX
8
OBJECT__76
10
26.149000
20
0.000000
30
22.889999
70
192
0
VERTEX
8
OBJECT__76
10
26.149000
20
0.000000
30
1.510000
70
192
0
VERTEX
8
OBJECT__76
10
26.150000
20
-0.008000
30
22.889999
70
192
0
VERTEX
8
OBJECT__76
10
26.150000
20
-0.008000
30
1.510000
70
192
0
VERTEX
8
OBJECT__76
10
25.620001
20
-5.346000
30
1.509000
70
192
0
VERTEX
8
OBJECT__76
10
22.676001
20
-13.179000
30
1.505000
70
192
0
VERTEX
8
OBJECT__76
10
24.611000
20
-9.027000
30
1.507000
70
192
0
VERTEX
8
OBJECT__76
10
24.611000
20
-9.027000
30
22.893000
70
192
0
VERTEX
8
OBJECT__76
10
25.402000
20
-6.144000
30
1.509000
70
192
0
VERTEX
8
OBJECT__76
10
25.402000
20
-6.144000
30
22.891001
70
192
0
VERTEX
8
OBJECT__76
10
25.620001
20
-5.346000
30
22.891001
70
192
0
VERTEX
8
OBJECT__76
10
22.676001
20
-13.179000
30
22.895000
70
192
0
VERTEX
8
OBJECT__76
10
20.174000
20
-17.028999
30
1.501000
70
192
0
VERTEX
8
OBJECT__76
10
22.344999
20
-13.889000
30
1.504000
70
192
0
VERTEX
8
OBJECT__76
10
22.344999
20
-13.889000
30
22.896000
70
192
0
VERTEX
8
OBJECT__76
10
16.426001
20
-20.867001
30
22.903999
70
192
0
VERTEX
8
OBJECT__76
10
16.426001
20
-20.867001
30
1.496000
70
192
0
VERTEX
8
OBJECT__76
10
19.958000
20
-17.250000
30
1.501000
70
192
0
VERTEX
8
OBJECT__76
10
19.958000
20
-17.250000
30
22.899000
70
192
0
VERTEX
8
OBJECT__76
10
20.174000
20
-17.028999
30
22.899000
70
192
0
VERTEX
8
OBJECT__76
10
13.347000
20
-23.104000
30
22.908001
70
192
0
VERTEX
8
OBJECT__76
10
13.347000
20
-23.104000
30
1.492000
70
192
0
VERTEX
8
OBJECT__76
10
0.331000
20
-27.146000
30
1.474000
70
192
0
VERTEX
8
OBJECT__76
10
4.874000
20
-26.587000
30
1.480000
70
192
0
VERTEX
8
OBJECT__76
10
4.874000
20
-26.587000
30
22.920000
70
192
0
VERTEX
8
OBJECT__76
10
8.531000
20
-25.490999
30
1.485000
70
192
0
VERTEX
8
OBJECT__76
10
8.531000
20
-25.490999
30
22.915001
70
192
0
VERTEX
8
OBJECT__76
10
9.917000
20
-24.805000
30
1.487000
70
192
0
VERTEX
8
OBJECT__76
10
13.338000
20
-23.111000
30
1.492000
70
192
0
VERTEX
8
OBJECT__76
10
13.338000
20
-23.111000
30
22.908001
70
192
0
VERTEX
8
OBJECT__76
10
9.917000
20
-24.805000
30
22.913000
70
192
0
VERTEX
8
OBJECT__76
10
-2.700000
20
-27.138000
30
1.470000
70
192
0
VERTEX
8
OBJECT__76
10
-0.450000
20
-27.242001
30
1.473000
70
192
0
VERTEX
8
OBJECT__76
10
-0.450000
20
-27.242001
30
22.927000
70
192
0
VERTEX
8
OBJECT__76
10
0.331000
20
-27.146000
30
22.926001
70
192
0
VERTEX
8
OBJECT__76
10
-9.504000
20
-25.922001
30
1.461000
70
192
0
VERTEX
8
OBJECT__76
10
-4.263000
20
-27.066000
30
1.468000
70
192
0
VERTEX
8
OBJECT__76
10
-4.263000
20
-27.066000
30
22.931999
70
192
0
VERTEX
8
OBJECT__76
10
-2.700000
20
-27.138000
30
22.930000
70
192
0
VERTEX
8
OBJECT__76
10
-13.029000
20
-24.500000
30
22.944000
70
192
0
VERTEX
8
OBJECT__76
10
-13.029000
20
-24.500000
30
1.456000
70
192
0
VERTEX
8
OBJECT__76
10
-9.504000
20
-25.922001
30
22.938999
70
192
0
VERTEX
8
OBJECT__76
10
-13.029000
20
24.500000
30
1.456000
70
192
0
VERTEX
8
OBJECT__76
10
0
20
0
30
0
70
128
71
1
72
2
73
3
0
VERTEX
8
OBJECT__76
10
0
20
0
30
0
70
128
71
4
72
5
73
6
0
VERTEX
8
OBJECT__76
10
0
20
0
30
0
70
128
71
3
72
2
73
4
0
VERTEX
8
OBJECT__76
10
0
20
0
30
0
70
128
71
4
72
7
73
3
0
VERTEX
8
OBJECT__76
10
0
20
0
30
0
70
128
71
6
72
7
73
4
0
VERTEX
8
OBJECT__76
10
0
20
0
30
0
70
128
71
5
72
8
73
9
0
VERTEX
8
OBJECT__76
10
0
20
0
30
0
70
128
71
9
72
6
73
5
0
VERTEX
8
OBJECT__76
10
0
20
0
30
0
70
128
71
8
72
10
73
11
0
VERTEX
8
OBJECT__76
10
0
20
0
30
0
70
128
71
10
72
12
73
13
0
VERTEX
8
OBJECT__76
10
0
20
0
30
0
70
128
71
14
72
15
73
16
0
VERTEX
8
OBJECT__76
10
0
20
0
30
0
70
128
71
16
72
12
73
14
0
VERTEX
8
OBJECT__76
10
0
20
0
30
0
70
128
71
16
72
13
73
12
0
VERTEX
8
OBJECT__76
10
0
20
0
30
0
70
128
71
13
72
11
73
10
0
VERTEX
8
OBJECT__76
10
0
20
0
30
0
70
128
71
15
72
14
73
17
0
VERTEX
8
OBJECT__76
10
0
20
0
30
0
70
128
71
17
72
18
73
15
0
VERTEX
8
OBJECT__76
10
0
20
0
30
0
70
128
71
17
72
19
73
18
0
VERTEX
8
OBJECT__76
10
0
20
0
30
0
70
128
71
20
72
21
73
22
0
VERTEX
8
OBJECT__76
10
0
20
0
30
0
70
128
71
20
72
23
73
21
0
VERTEX
8
OBJECT__76
10
0
20
0
30
0
70
128
71
24
72
19
73
23
0
VERTEX
8
OBJECT__76
10
0
20
0
30
0
70
128
71
23
72
25
73
24
0
VERTEX
8
OBJECT__76
10
0
20
0
30
0
70
128
71
23
72
20
73
26
0
VERTEX
8
OBJECT__76
10
0
20
0
30
0
70
128
71
26
72
25
73
23
0
VERTEX
8
OBJECT__76
10
0
20
0
30
0
70
128
71
24
72
18
73
19
0
VERTEX
8
OBJECT__76
10
0
20
0
30
0
70
128
71
22
72
27
73
20
0
VERTEX
8
OBJECT__76
10
0
20
0
30
0
70
128
71
20
72
27
73
28
0
VERTEX
8
OBJECT__76
10
0
20
0
30
0
70
128
71
28
72
29
73
20
0
VERTEX
8
OBJECT__76
10
0
20
0
30
0
70
128
71
29
72
28
73
30
0
VERTEX
8
OBJECT__76
10
0
20
0
30
0
70
128
71
31
72
32
73
33
0
VERTEX
8
OBJECT__76
10
0
20
0
30
0
70
128
71
32
72
34
73
35
0
VERTEX
8
OBJECT__76
10
0
20
0
30
0
70
128
71
35
72
33
73
32
0
VERTEX
8
OBJECT__76
10
0
20
0
30
0
70
128
71
36
72
30
73
31
0
VERTEX
8
OBJECT__76
10
0
20
0
30
0
70
128
71
31
72
37
73
36
0
VERTEX
8
OBJECT__76
10
0
20
0
30
0
70
128
71
35
72
34
73
38
0
VERTEX
8
OBJECT__76
10
0
20
0
30
0
70
128
71
38
72
39
73
35
0
VERTEX
8
OBJECT__76
10
0
20
0
30
0
70
128
71
33
72
37
73
31
0
VERTEX
8
OBJECT__76
10
0
20
0
30
0
70
128
71
38
72
40
73
41
0
VERTEX
8
OBJECT__76
10
0
20
0
30
0
70
128
71
42
72
41
73
40
0
VERTEX
8
OBJECT__76
10
0
20
0
30
0
70
128
71
43
72
44
73
45
0
VERTEX
8
OBJECT__76
10
0
20
0
30
0
70
128
71
45
72
44
73
46
0
VERTEX
8
OBJECT__76
10
0
20
0
30
0
70
128
71
47
72
46
73
42
0
VERTEX
8
OBJECT__76
10
0
20
0
30
0
70
128
71
42
72
48
73
47
0
VERTEX
8
OBJECT__76
10
0
20
0
30
0
70
128
71
46
72
47
73
45
0
VERTEX
8
OBJECT__76
10
0
20
0
30
0
70
128
71
45
72
49
73
43
0
VERTEX
8
OBJECT__76
10
0
20
0
30
0
70
128
71
40
72
48
73
42
0
VERTEX
8
OBJECT__76
10
0
20
0
30
0
70
128
71
50
72
51
73
52
0
VERTEX
8
OBJECT__76
10
0
20
0
30
0
70
128
71
53
72
54
73
55
0
VERTEX
8
OBJECT__76
10
0
20
0
30
0
70
128
71
56
72
55
73
50
0
VERTEX
8
OBJECT__76
10
0
20
0
30
0
70
128
71
50
72
57
73
56
0
VERTEX
8
OBJECT__76
10
0
20
0
30
0
70
128
71
55
72
56
73
53
0
VERTEX
8
OBJECT__76
10
0
20
0
30
0
70
128
71
58
72
59
73
54
0
VERTEX
8
OBJECT__76
10
0
20
0
30
0
70
128
71
54
72
53
73
58
0
VERTEX
8
OBJECT__76
10
0
20
0
30
0
70
128
71
52
72
51
73
43
0
VERTEX
8
OBJECT__76
10
0
20
0
30
0
70
128
71
43
72
49
73
52
0
VERTEX
8
OBJECT__76
10
0
20
0
30
0
70
128
71
60
72
61
73
62
0
VERTEX
8
OBJECT__76
10
0
20
0
30
0
70
128
71
62
72
61
73
63
0
VERTEX
8
OBJECT__76
10
0
20
0
30
0
70
128
71
63
72
64
73
62
0
VERTEX
8
OBJECT__76
10
0
20
0
30
0
70
128
71
65
72
66
73
67
0
VERTEX
8
OBJECT__76
10
0
20
0
30
0
70
128
71
64
72
63
73
65
0
VERTEX
8
OBJECT__76
10
0
20
0
30
0
70
128
71
65
72
68
73
64
0
VERTEX
8
OBJECT__76
10
0
20
0
30
0
70
128
71
67
72
68
73
65
0
VERTEX
8
OBJECT__76
10
0
20
0
30
0
70
128
71
67
72
66
73
59
0
VERTEX
8
OBJECT__76
10
0
20
0
30
0
70
128
71
59
72
58
73
67
0
VERTEX
8
OBJECT__76
10
0
20
0
30
0
70
128
71
69
72
70
73
71
0
VERTEX
8
OBJECT__76
10
0
20
0
30
0
70
128
71
70
72
60
73
72
0
VERTEX
8
OBJECT__76
10
0
20
0
30
0
70
128
71
72
72
71
73
70
0
VERTEX
8
OBJECT__76
10
0
20
0
30
0
70
128
71
73
72
74
73
75
0
VERTEX
8
OBJECT__76
10
0
20
0
30
0
70
128
71
75
72
74
73
69
0
VERTEX
8
OBJECT__76
10
0
20
0
30
0
70
128
71
69
72
76
73
75
0
VERTEX
8
OBJECT__76
10
0
20
0
30
0
70
128
71
77
72
78
73
73
0
VERTEX
8
OBJECT__76
10
0
20
0
30
0
70
128
71
73
72
79
73
77
0
VERTEX
8
OBJECT__76
10
0
20
0
30
0
70
128
71
75
72
79
73
73
0
VERTEX
8
OBJECT__76
10
0
20
0
30
0
70
128
71
71
72
76
73
69
0
VERTEX
8
OBJECT__76
10
0
20
0
30
0
70
128
71
62
72
72
73
60
0
VERTEX
8
OBJECT__76
10
0
20
0
30
0
70
128
71
52
72
57
73
50
0
VERTEX
8
OBJECT__76
10
0
20
0
30
0
70
128
71
41
72
39
73
38
0
VERTEX
8
OBJECT__76
10
0
20
0
30
0
70
128
71
30
72
36
73
29
0
VERTEX
8
OBJECT__76
10
0
20
0
30
0
70
128
71
11
72
9
73
8
0
VERTEX
8
OBJECT__76
10
0
20
0
30
0
70
128
71
3
72
80
73
1
0
SEQEND
8
OBJECT__76
0
POLYLINE
8
OBJECT__77
66
1
70
64
71
6
72
4
62
253
0
VERTEX
8
OBJECT__77
10
-14.942000
20
-24.500000
30
1.431000
70
192
0
VERTEX
8
OBJECT__77
10
-13.029000
20
-24.500000
30
1.456000
70
192
0
VERTEX
8
OBJECT__77
10
-13.029000
20
-24.500000
30
22.944000
70
192
0
VERTEX
8
OBJECT__77
10
-14.942000
20
-24.500000
30
22.969000
70
192
0
VERTEX
8
OBJECT__77
10
-15.216000
20
-24.500000
30
22.973000
70
192
0
VERTEX
8
OBJECT__77
10
-15.216000
20
-24.500000
30
1.427000
70
192
0
VERTEX
8
OBJECT__77
10
0
20
0
30
0
70
128
71
1
72
2
73
3
0
VERTEX
8
OBJECT__77
10
0
20
0
30
0
70
128
71
3
72
4
73
1
0
VERTEX
8
OBJECT__77
10
0
20
0
30
0
70
128
71
5
72
6
73
1
0
VERTEX
8
OBJECT__77
10
0
20
0
30
0
70
128
71
4
72
5
73
1
0
SEQEND
8
OBJECT__77
0
POLYLINE
8
OBJECT__78
66
1
70
64
71
60
72
58
62
253
0
VERTEX
8
OBJECT__78
10
-14.942000
20
-24.500000
30
22.969000
70
192
0
VERTEX
8
OBJECT__78
10
-13.029000
20
-24.500000
30
22.944000
70
192
0
VERTEX
8
OBJECT__78
10
-9.504000
20
-25.922001
30
22.938999
70
192
0
VERTEX
8
OBJECT__78
10
-2.882000
20
-28.825001
30
22.973000
70
192
0
VERTEX
8
OBJECT__78
10
-15.216000
20
-24.500000
30
22.973000
70
192
0
VERTEX
8
OBJECT__78
10
-4.263000
20
-27.066000
30
22.931999
70
192
0
VERTEX
8
OBJECT__78
10
-2.814000
20
-28.816000
30
22.973000
70
192
0
VERTEX
8
OBJECT__78
10
0.331000
20
-27.146000
30
22.926001
70
192
0
VERTEX
8
OBJECT__78
10
4.874000
20
-26.587000
30
22.920000
70
192
0
VERTEX
8
OBJECT__78
10
-0.450000
20
-27.242001
30
22.927000
70
192
0
VERTEX
8
OBJECT__78
10
-2.700000
20
-27.138000
30
22.930000
70
192
0
VERTEX
8
OBJECT__78
10
10.794000
20
-27.035000
30
22.973000
70
192
0
VERTEX
8
OBJECT__78
10
8.531000
20
-25.490999
30
22.915001
70
192
0
VERTEX
8
OBJECT__78
10
10.834000
20
-27.006001
30
22.973000
70
192
0
VERTEX
8
OBJECT__78
10
13.338000
20
-23.111000
30
22.908001
70
192
0
VERTEX
8
OBJECT__78
10
13.347000
20
-23.104000
30
22.908001
70
192
0
VERTEX
8
OBJECT__78
10
22.096001
20
-19.129000
30
22.973000
70
192
0
VERTEX
8
OBJECT__78
10
16.426001
20
-20.867001
30
22.903999
70
192
0
VERTEX
8
OBJECT__78
10
9.917000
20
-24.805000
30
22.913000
70
192
0
VERTEX
8
OBJECT__78
10
28.468000
20
-6.896000
30
22.973000
70
192
0
VERTEX
8
OBJECT__78
10
22.110001
20
-19.103001
30
22.973000
70
192
0
VERTEX
8
OBJECT__78
10
22.676001
20
-13.179000
30
22.895000
70
192
0
VERTEX
8
OBJECT__78
10
22.344999
20
-13.889000
30
22.896000
70
192
0
VERTEX
8
OBJECT__78
10
20.174000
20
-17.028999
30
22.899000
70
192
0
VERTEX
8
OBJECT__78
10
24.611000
20
-9.027000
30
22.893000
70
192
0
VERTEX
8
OBJECT__78
10
19.958000
20
-17.250000
30
22.899000
70
192
0
VERTEX
8
OBJECT__78
10
25.318001
20
6.126000
30
22.892000
70
192
0
VERTEX
8
OBJECT__78
10
28.468000
20
6.896000
30
22.973000
70
192
0
VERTEX
8
OBJECT__78
10
28.468000
20
6.886000
30
22.973000
70
192
0
VERTEX
8
OBJECT__78
10
28.468000
20
-6.887000
30
22.973000
70
192
0
VERTEX
8
OBJECT__78
10
26.150000
20
-0.008000
30
22.889999
70
192
0
VERTEX
8
OBJECT__78
10
26.149000
20
0.000000
30
22.889999
70
192
0
VERTEX
8
OBJECT__78
10
25.620001
20
-5.346000
30
22.891001
70
192
0
VERTEX
8
OBJECT__78
10
25.884001
20
3.800000
30
22.891001
70
192
0
VERTEX
8
OBJECT__78
10
25.402000
20
-6.144000
30
22.891001
70
192
0
VERTEX
8
OBJECT__78
10
19.962999
20
17.256001
30
22.899000
70
192
0
VERTEX
8
OBJECT__78
10
22.096001
20
19.129000
30
22.973000
70
192
0
VERTEX
8
OBJECT__78
10
22.110001
20
19.103001
30
22.973000
70
192
0
VERTEX
8
OBJECT__78
10
23.105000
20
12.518000
30
22.895000
70
192
0
VERTEX
8
OBJECT__78
10
22.680000
20
13.171000
30
22.895000
70
192
0
VERTEX
8
OBJECT__78
10
24.615999
20
9.013000
30
22.893000
70
192
0
VERTEX
8
OBJECT__78
10
20.184000
20
17.017000
30
22.899000
70
192
0
VERTEX
8
OBJECT__78
10
9.965000
20
24.900000
30
22.913000
70
192
0
VERTEX
8
OBJECT__78
10
10.794000
20
27.035000
30
22.973000
70
192
0
VERTEX
8
OBJECT__78
10
10.835000
20
27.006001
30
22.973000
70
192
0
VERTEX
8
OBJECT__78
10
13.351000
20
23.103001
30
22.908001
70
192
0
VERTEX
8
OBJECT__78
10
13.348000
20
23.104000
30
22.908001
70
192
0
VERTEX
8
OBJECT__78
10
17.597000
20
19.823999
30
22.902000
70
192
0
VERTEX
8
OBJECT__78
10
9.981000
20
24.895000
30
22.913000
70
192
0
VERTEX
8
OBJECT__78
10
-2.701000
20
27.094000
30
22.930000
70
192
0
VERTEX
8
OBJECT__78
10
-2.882000
20
28.825001
30
22.973000
70
192
0
VERTEX
8
OBJECT__78
10
-2.813000
20
28.816000
30
22.973000
70
192
0
VERTEX
8
OBJECT__78
10
1.116000
20
27.160000
30
22.924999
70
192
0
VERTEX
8
OBJECT__78
10
0.341000
20
27.146000
30
22.926001
70
192
0
VERTEX
8
OBJECT__78
10
4.889000
20
26.584000
30
22.920000
70
192
0
VERTEX
8
OBJECT__78
10
-14.942000
20
24.500000
30
22.969000
70
192
0
VERTEX
8
OBJECT__78
10
-7.999000
20
26.362000
30
22.937000
70
192
0
VERTEX
8
OBJECT__78
10
-13.029000
20
24.500000
30
22.944000
70
192
0
VERTEX
8
OBJECT__78
10
-4.248000
20
27.068001
30
22.931999
70
192
0
VERTEX
8
OBJECT__78
10
-15.216000
20
24.500000
30
22.973000
70
192
0
VERTEX
8
OBJECT__78
10
0
20
0
30
0
70
128
71
1
72
2
73
3
0
VERTEX
8
OBJECT__78
10
0
20
0
30
0
70
128
71
4
72
5
73
1
0
VERTEX
8
OBJECT__78
10
0
20
0
30
0
70
128
71
3
72
4
73
1
0
VERTEX
8
OBJECT__78
10
0
20
0
30
0
70
128
71
3
72
6
73
4
0
VERTEX
8
OBJECT__78
10
0
20
0
30
0
70
128
71
7
72
8
73
9
0
VERTEX
8
OBJECT__78
10
0
20
0
30
0
70
128
71
7
72
10
73
8
0
VERTEX
8
OBJECT__78
10
0
20
0
30
0
70
128
71
11
72
10
73
7
0
VERTEX
8
OBJECT__78
10
0
20
0
30
0
70
128
71
7
72
4
73
11
0
VERTEX
8
OBJECT__78
10
0
20
0
30
0
70
128
71
9
72
12
73
7
0
VERTEX
8
OBJECT__78
10
0
20
0
30
0
70
128
71
9
72
13
73
12
0
VERTEX
8
OBJECT__78
10
0
20
0
30
0
70
128
71
14
72
15
73
16
0
VERTEX
8
OBJECT__78
10
0
20
0
30
0
70
128
71
16
72
17
73
14
0
VERTEX
8
OBJECT__78
10
0
20
0
30
0
70
128
71
16
72
18
73
17
0
VERTEX
8
OBJECT__78
10
0
20
0
30
0
70
128
71
19
72
15
73
14
0
VERTEX
8
OBJECT__78
10
0
20
0
30
0
70
128
71
14
72
12
73
19
0
VERTEX
8
OBJECT__78
10
0
20
0
30
0
70
128
71
20
72
21
73
22
0
VERTEX
8
OBJECT__78
10
0
20
0
30
0
70
128
71
21
72
23
73
22
0
VERTEX
8
OBJECT__78
10
0
20
0
30
0
70
128
71
21
72
24
73
23
0
VERTEX
8
OBJECT__78
10
0
20
0
30
0
70
128
71
22
72
25
73
20
0
VERTEX
8
OBJECT__78
10
0
20
0
30
0
70
128
71
26
72
24
73
21
0
VERTEX
8
OBJECT__78
10
0
20
0
30
0
70
128
71
21
72
17
73
26
0
VERTEX
8
OBJECT__78
10
0
20
0
30
0
70
128
71
27
72
28
73
29
0
VERTEX
8
OBJECT__78
10
0
20
0
30
0
70
128
71
29
72
30
73
31
0
VERTEX
8
OBJECT__78
10
0
20
0
30
0
70
128
71
31
72
32
73
29
0
VERTEX
8
OBJECT__78
10
0
20
0
30
0
70
128
71
30
72
33
73
31
0
VERTEX
8
OBJECT__78
10
0
20
0
30
0
70
128
71
32
72
34
73
29
0
VERTEX
8
OBJECT__78
10
0
20
0
30
0
70
128
71
35
72
33
73
30
0
VERTEX
8
OBJECT__78
10
0
20
0
30
0
70
128
71
30
72
20
73
35
0
VERTEX
8
OBJECT__78
10
0
20
0
30
0
70
128
71
36
72
37
73
38
0
VERTEX
8
OBJECT__78
10
0
20
0
30
0
70
128
71
38
72
39
73
40
0
VERTEX
8
OBJECT__78
10
0
20
0
30
0
70
128
71
28
72
41
73
39
0
VERTEX
8
OBJECT__78
10
0
20
0
30
0
70
128
71
39
72
38
73
28
0
VERTEX
8
OBJECT__78
10
0
20
0
30
0
70
128
71
28
72
27
73
41
0
VERTEX
8
OBJECT__78
10
0
20
0
30
0
70
128
71
40
72
42
73
38
0
VERTEX
8
OBJECT__78
10
0
20
0
30
0
70
128
71
43
72
44
73
45
0
VERTEX
8
OBJECT__78
10
0
20
0
30
0
70
128
71
45
72
46
73
47
0
VERTEX
8
OBJECT__78
10
0
20
0
30
0
70
128
71
37
72
48
73
46
0
VERTEX
8
OBJECT__78
10
0
20
0
30
0
70
128
71
46
72
45
73
37
0
VERTEX
8
OBJECT__78
10
0
20
0
30
0
70
128
71
37
72
36
73
48
0
VERTEX
8
OBJECT__78
10
0
20
0
30
0
70
128
71
47
72
49
73
45
0
VERTEX
8
OBJECT__78
10
0
20
0
30
0
70
128
71
50
72
51
73
52
0
VERTEX
8
OBJECT__78
10
0
20
0
30
0
70
128
71
52
72
53
73
54
0
VERTEX
8
OBJECT__78
10
0
20
0
30
0
70
128
71
52
72
44
73
55
0
VERTEX
8
OBJECT__78
10
0
20
0
30
0
70
128
71
44
72
43
73
55
0
VERTEX
8
OBJECT__78
10
0
20
0
30
0
70
128
71
55
72
53
73
52
0
VERTEX
8
OBJECT__78
10
0
20
0
30
0
70
128
71
56
72
51
73
57
0
VERTEX
8
OBJECT__78
10
0
20
0
30
0
70
128
71
57
72
58
73
56
0
VERTEX
8
OBJECT__78
10
0
20
0
30
0
70
128
71
51
72
59
73
57
0
VERTEX
8
OBJECT__78
10
0
20
0
30
0
70
128
71
51
72
50
73
59
0
VERTEX
8
OBJECT__78
10
0
20
0
30
0
70
128
71
56
72
60
73
51
0
VERTEX
8
OBJECT__78
10
0
20
0
30
0
70
128
71
52
72
54
73
50
0
VERTEX
8
OBJECT__78
10
0
20
0
30
0
70
128
71
45
72
49
73
43
0
VERTEX
8
OBJECT__78
10
0
20
0
30
0
70
128
71
38
72
42
73
36
0
VERTEX
8
OBJECT__78
10
0
20
0
30
0
70
128
71
29
72
34
73
27
0
VERTEX
8
OBJECT__78
10
0
20
0
30
0
70
128
71
25
72
35
73
20
0
VERTEX
8
OBJECT__78
10
0
20
0
30
0
70
128
71
18
72
26
73
17
0
VERTEX
8
OBJECT__78
10
0
20
0
30
0
70
128
71
13
72
19
73
12
0
VERTEX
8
OBJECT__78
10
0
20
0
30
0
70
128
71
6
72
11
73
4
0
SEQEND
8
OBJECT__78
0
POLYLINE
8
OBJECT__79
66
1
70
64
71
18
72
18
62
253
0
VERTEX
8
OBJECT__79
10
-5.621000
20
5.621000
30
144.500000
70
192
0
VERTEX
8
OBJECT__79
10
-7.950000
20
0.000000
30
144.500000
70
192
0
VERTEX
8
OBJECT__79
10
-5.000000
20
2.500000
30
144.500000
70
192
0
VERTEX
8
OBJECT__79
10
-5.000000
20
-2.500000
30
144.500000
70
192
0
VERTEX
8
OBJECT__79
10
-5.621000
20
-5.621000
30
144.500000
70
192
0
VERTEX
8
OBJECT__79
10
-3.536000
20
-6.036000
30
144.500000
70
192
0
VERTEX
8
OBJECT__79
10
0.000000
20
7.950000
30
144.500000
70
192
0
VERTEX
8
OBJECT__79
10
-3.536000
20
6.036000
30
144.500000
70
192
0
VERTEX
8
OBJECT__79
10
0.000000
20
-7.950000
30
144.500000
70
192
0
VERTEX
8
OBJECT__79
10
0.000000
20
-7.500000
30
144.500000
70
192
0
VERTEX
8
OBJECT__79
10
0.000000
20
7.500000
30
144.500000
70
192
0
VERTEX
8
OBJECT__79
10
3.536000
20
6.036000
30
144.500000
70
192
0
VERTEX
8
OBJECT__79
10
5.621000
20
-5.621000
30
144.500000
70
192
0
VERTEX
8
OBJECT__79
10
3.536000
20
-6.036000
30
144.500000
70
192
0
VERTEX
8
OBJECT__79
10
7.950000
20
0.000000
30
144.500000
70
192
0
VERTEX
8
OBJECT__79
10
5.000000
20
-2.500000
30
144.500000
70
192
0
VERTEX
8
OBJECT__79
10
5.000000
20
2.500000
30
144.500000
70
192
0
VERTEX
8
OBJECT__79
10
5.621000
20
5.621000
30
144.500000
70
192
0
VERTEX
8
OBJECT__79
10
0
20
0
30
0
70
128
71
1
72
2
73
3
0
VERTEX
8
OBJECT__79
10
0
20
0
30
0
70
128
71
2
72
4
73
3
0
VERTEX
8
OBJECT__79
10
0
20
0
30
0
70
128
71
5
72
6
73
4
0
VERTEX
8
OBJECT__79
10
0
20
0
30
0
70
128
71
7
72
1
73
8
0
VERTEX
8
OBJECT__79
10
0
20
0
30
0
70
128
71
4
72
2
73
5
0
VERTEX
8
OBJECT__79
10
0
20
0
30
0
70
128
71
3
72
8
73
1
0
VERTEX
8
OBJECT__79
10
0
20
0
30
0
70
128
71
9
72
10
73
6
0
VERTEX
8
OBJECT__79
10
0
20
0
30
0
70
128
71
7
72
11
73
12
0
VERTEX
8
OBJECT__79
10
0
20
0
30
0
70
128
71
6
72
5
73
9
0
VERTEX
8
OBJECT__79
10
0
20
0
30
0
70
128
71
8
72
11
73
7
0
VERTEX
8
OBJECT__79
10
0
20
0
30
0
70
128
71
9
72
13
73
14
0
VERTEX
8
OBJECT__79
10
0
20
0
30
0
70
128
71
13
72
15
73
16
0
VERTEX
8
OBJECT__79
10
0
20
0
30
0
70
128
71
14
72
10
73
9
0
VERTEX
8
OBJECT__79
10
0
20
0
30
0
70
128
71
15
72
17
73
16
0
VERTEX
8
OBJECT__79
10
0
20
0
30
0
70
128
71
18
72
12
73
17
0
VERTEX
8
OBJECT__79
10
0
20
0
30
0
70
128
71
16
72
14
73
13
0
VERTEX
8
OBJECT__79
10
0
20
0
30
0
70
128
71
12
72
18
73
7
0
VERTEX
8
OBJECT__79
10
0
20
0
30
0
70
128
71
17
72
15
73
18
0
SEQEND
8
OBJECT__79
0
POLYLINE
8
OBJECT__80
66
1
70
64
71
56
72
56
62
253
0
VERTEX
8
OBJECT__80
10
5.621000
20
5.621000
30
144.500000
70
192
0
VERTEX
8
OBJECT__80
10
23.742001
20
9.850000
30
144.500000
70
192
0
VERTEX
8
OBJECT__80
10
23.604000
20
10.416000
30
144.500000
70
192
0
VERTEX
8
OBJECT__80
10
7.950000
20
0.000000
30
144.500000
70
192
0
VERTEX
8
OBJECT__80
10
24.944000
20
4.945000
30
144.500000
70
192
0
VERTEX
8
OBJECT__80
10
25.799999
20
0.000000
30
144.500000
70
192
0
VERTEX
8
OBJECT__80
10
25.746000
20
1.672000
30
144.500000
70
192
0
VERTEX
8
OBJECT__80
10
21.091000
20
14.086000
30
144.500000
70
192
0
VERTEX
8
OBJECT__80
10
0.000000
20
7.950000
30
144.500000
70
192
0
VERTEX
8
OBJECT__80
10
4.936000
20
24.959999
30
144.500000
70
192
0
VERTEX
8
OBJECT__80
10
2.353000
20
25.691999
30
144.500000
70
192
0
VERTEX
8
OBJECT__80
10
9.801000
20
23.580000
30
144.500000
70
192
0
VERTEX
8
OBJECT__80
10
14.145000
20
21.190001
30
144.500000
70
192
0
VERTEX
8
OBJECT__80
10
11.486000
20
23.101999
30
144.500000
70
192
0
VERTEX
8
OBJECT__80
10
18.243000
20
18.243000
30
144.500000
70
192
0
VERTEX
8
OBJECT__80
10
0.031000
20
25.475000
30
144.500000
70
192
0
VERTEX
8
OBJECT__80
10
-5.621000
20
5.621000
30
144.500000
70
192
0
VERTEX
8
OBJECT__80
10
-14.230000
20
21.243999
30
144.500000
70
192
0
VERTEX
8
OBJECT__80
10
-15.559000
20
20.580000
30
144.500000
70
192
0
VERTEX
8
OBJECT__80
10
-9.706000
20
23.500999
30
144.500000
70
192
0
VERTEX
8
OBJECT__80
10
-5.005000
20
25.003000
30
144.500000
70
192
0
VERTEX
8
OBJECT__80
10
-7.086000
20
24.808001
30
144.500000
70
192
0
VERTEX
8
OBJECT__80
10
-18.188000
20
18.183001
30
144.500000
70
192
0
VERTEX
8
OBJECT__80
10
-7.950000
20
0.000000
30
144.500000
70
192
0
VERTEX
8
OBJECT__80
10
-23.747999
20
9.819000
30
144.500000
70
192
0
VERTEX
8
OBJECT__80
10
-24.059999
20
9.314000
30
144.500000
70
192
0
VERTEX
8
OBJECT__80
10
-21.091000
20
14.110000
30
144.500000
70
192
0
VERTEX
8
OBJECT__80
10
-24.875000
20
4.953000
30
144.500000
70
192
0
VERTEX
8
OBJECT__80
10
-19.063000
20
17.385000
30
144.500000
70
192
0
VERTEX
8
OBJECT__80
10
-25.799999
20
0.000000
30
144.500000
70
192
0
VERTEX
8
OBJECT__80
10
-5.621000
20
-5.621000
30
144.500000
70
192
0
VERTEX
8
OBJECT__80
10
-23.742001
20
-9.850000
30
144.500000
70
192
0
VERTEX
8
OBJECT__80
10
-23.604000
20
-10.417000
30
144.500000
70
192
0
VERTEX
8
OBJECT__80
10
-24.944000
20
-4.945000
30
144.500000
70
192
0
VERTEX
8
OBJECT__80
10
-21.091000
20
-14.086000
30
144.500000
70
192
0
VERTEX
8
OBJECT__80
10
-25.746000
20
-1.671000
30
144.500000
70
192
0
VERTEX
8
OBJECT__80
10
0.000000
20
-7.950000
30
144.500000
70
192
0
VERTEX
8
OBJECT__80
10
-4.936000
20
-24.959999
30
144.500000
70
192
0
VERTEX
8
OBJECT__80
10
-2.359000
20
-25.691999
30
144.500000
70
192
0
VERTEX
8
OBJECT__80
10
-9.800000
20
-23.580000
30
144.500000
70
192
0
VERTEX
8
OBJECT__80
10
-14.146000
20
-21.190001
30
144.500000
70
192
0
VERTEX
8
OBJECT__80
10
-11.491000
20
-23.100000
30
144.500000
70
192
0
VERTEX
8
OBJECT__80
10
-18.243000
20
-18.243000
30
144.500000
70
192
0
VERTEX
8
OBJECT__80
10
5.621000
20
-5.621000
30
144.500000
70
192
0
VERTEX
8
OBJECT__80
10
14.230000
20
-21.243999
30
144.500000
70
192
0
VERTEX
8
OBJECT__80
10
15.555000
20
-20.584000
30
144.500000
70
192
0
VERTEX
8
OBJECT__80
10
9.706000
20
-23.500000
30
144.500000
70
192
0
VERTEX
8
OBJECT__80
10
5.005000
20
-25.003000
30
144.500000
70
192
0
VERTEX
8
OBJECT__80
10
7.081000
20
-24.809000
30
144.500000
70
192
0
VERTEX
8
OBJECT__80
10
-0.030000
20
-25.474001
30
144.500000
70
192
0
VERTEX
8
OBJECT__80
10
18.188000
20
-18.183001
30
144.500000
70
192
0
VERTEX
8
OBJECT__80
10
23.747999
20
-9.819000
30
144.500000
70
192
0
VERTEX
8
OBJECT__80
10
24.059999
20
-9.313000
30
144.500000
70
192
0
VERTEX
8
OBJECT__80
10
21.091000
20
-14.110000
30
144.500000
70
192
0
VERTEX
8
OBJECT__80
10
24.875000
20
-4.953000
30
144.500000
70
192
0
VERTEX
8
OBJECT__80
10
19.063999
20
-17.384001
30
144.500000
70
192
0
VERTEX
8
OBJECT__80
10
0
20
0
30
0
70
128
71
1
72
2
73
3
0
VERTEX
8
OBJECT__80
10
0
20
0
30
0
70
128
71
2
72
1
73
4
0
VERTEX
8
OBJECT__80
10
0
20
0
30
0
70
128
71
4
72
5
73
2
0
VERTEX
8
OBJECT__80
10
0
20
0
30
0
70
128
71
4
72
6
73
7
0
VERTEX
8
OBJECT__80
10
0
20
0
30
0
70
128
71
7
72
5
73
4
0
VERTEX
8
OBJECT__80
10
0
20
0
30
0
70
128
71
3
72
8
73
1
0
VERTEX
8
OBJECT__80
10
0
20
0
30
0
70
128
71
9
72
10
73
11
0
VERTEX
8
OBJECT__80
10
0
20
0
30
0
70
128
71
12
72
10
73
9
0
VERTEX
8
OBJECT__80
10
0
20
0
30
0
70
128
71
1
72
13
73
14
0
VERTEX
8
OBJECT__80
10
0
20
0
30
0
70
128
71
14
72
12
73
1
0
VERTEX
8
OBJECT__80
10
0
20
0
30
0
70
128
71
1
72
15
73
13
0
VERTEX
8
OBJECT__80
10
0
20
0
30
0
70
128
71
9
72
1
73
12
0
VERTEX
8
OBJECT__80
10
0
20
0
30
0
70
128
71
11
72
16
73
9
0
VERTEX
8
OBJECT__80
10
0
20
0
30
0
70
128
71
17
72
18
73
19
0
VERTEX
8
OBJECT__80
10
0
20
0
30
0
70
128
71
17
72
20
73
18
0
VERTEX
8
OBJECT__80
10
0
20
0
30
0
70
128
71
17
72
21
73
22
0
VERTEX
8
OBJECT__80
10
0
20
0
30
0
70
128
71
22
72
20
73
17
0
VERTEX
8
OBJECT__80
10
0
20
0
30
0
70
128
71
21
72
17
73
9
0
VERTEX
8
OBJECT__80
10
0
20
0
30
0
70
128
71
9
72
16
73
21
0
VERTEX
8
OBJECT__80
10
0
20
0
30
0
70
128
71
19
72
23
73
17
0
VERTEX
8
OBJECT__80
10
0
20
0
30
0
70
128
71
24
72
25
73
26
0
VERTEX
8
OBJECT__80
10
0
20
0
30
0
70
128
71
25
72
24
73
17
0
VERTEX
8
OBJECT__80
10
0
20
0
30
0
70
128
71
17
72
27
73
25
0
VERTEX
8
OBJECT__80
10
0
20
0
30
0
70
128
71
26
72
28
73
24
0
VERTEX
8
OBJECT__80
10
0
20
0
30
0
70
128
71
17
72
23
73
29
0
VERTEX
8
OBJECT__80
10
0
20
0
30
0
70
128
71
29
72
27
73
17
0
VERTEX
8
OBJECT__80
10
0
20
0
30
0
70
128
71
28
72
30
73
24
0
VERTEX
8
OBJECT__80
10
0
20
0
30
0
70
128
71
31
72
32
73
33
0
VERTEX
8
OBJECT__80
10
0
20
0
30
0
70
128
71
32
72
31
73
24
0
VERTEX
8
OBJECT__80
10
0
20
0
30
0
70
128
71
24
72
34
73
32
0
VERTEX
8
OBJECT__80
10
0
20
0
30
0
70
128
71
33
72
35
73
31
0
VERTEX
8
OBJECT__80
10
0
20
0
30
0
70
128
71
24
72
30
73
36
0
VERTEX
8
OBJECT__80
10
0
20
0
30
0
70
128
71
36
72
34
73
24
0
VERTEX
8
OBJECT__80
10
0
20
0
30
0
70
128
71
37
72
38
73
39
0
VERTEX
8
OBJECT__80
10
0
20
0
30
0
70
128
71
40
72
38
73
37
0
VERTEX
8
OBJECT__80
10
0
20
0
30
0
70
128
71
37
72
31
73
40
0
VERTEX
8
OBJECT__80
10
0
20
0
30
0
70
128
71
31
72
41
73
42
0
VERTEX
8
OBJECT__80
10
0
20
0
30
0
70
128
71
42
72
40
73
31
0
VERTEX
8
OBJECT__80
10
0
20
0
30
0
70
128
71
31
72
43
73
41
0
VERTEX
8
OBJECT__80
10
0
20
0
30
0
70
128
71
44
72
45
73
46
0
VERTEX
8
OBJECT__80
10
0
20
0
30
0
70
128
71
44
72
47
73
45
0
VERTEX
8
OBJECT__80
10
0
20
0
30
0
70
128
71
44
72
48
73
49
0
VERTEX
8
OBJECT__80
10
0
20
0
30
0
70
128
71
49
72
47
73
44
0
VERTEX
8
OBJECT__80
10
0
20
0
30
0
70
128
71
48
72
44
73
37
0
VERTEX
8
OBJECT__80
10
0
20
0
30
0
70
128
71
37
72
50
73
48
0
VERTEX
8
OBJECT__80
10
0
20
0
30
0
70
128
71
46
72
51
73
44
0
VERTEX
8
OBJECT__80
10
0
20
0
30
0
70
128
71
39
72
50
73
37
0
VERTEX
8
OBJECT__80
10
0
20
0
30
0
70
128
71
4
72
52
73
53
0
VERTEX
8
OBJECT__80
10
0
20
0
30
0
70
128
71
52
72
4
73
44
0
VERTEX
8
OBJECT__80
10
0
20
0
30
0
70
128
71
44
72
54
73
52
0
VERTEX
8
OBJECT__80
10
0
20
0
30
0
70
128
71
53
72
55
73
4
0
VERTEX
8
OBJECT__80
10
0
20
0
30
0
70
128
71
44
72
51
73
56
0
VERTEX
8
OBJECT__80
10
0
20
0
30
0
70
128
71
56
72
54
73
44
0
VERTEX
8
OBJECT__80
10
0
20
0
30
0
70
128
71
55
72
6
73
4
0
VERTEX
8
OBJECT__80
10
0
20
0
30
0
70
128
71
35
72
43
73
31
0
VERTEX
8
OBJECT__80
10
0
20
0
30
0
70
128
71
8
72
15
73
1
0
SEQEND
8
OBJECT__80
0
POLYLINE
8
OBJECT__82
66
1
70
64
71
50
72
48
62
253
0
VERTEX
8
OBJECT__82
10
-5.072000
20
-25.375999
30
144.300003
70
192
0
VERTEX
8
OBJECT__82
10
0.000000
20
-25.375999
30
144.300003
70
192
0
VERTEX
8
OBJECT__82
10
-2.359000
20
-25.691999
30
144.500000
70
192
0
VERTEX
8
OBJECT__82
10
-4.936000
20
-24.959999
30
144.500000
70
192
0
VERTEX
8
OBJECT__82
10
-0.030000
20
-25.474001
30
144.500000
70
192
0
VERTEX
8
OBJECT__82
10
25.799999
20
0.000000
30
144.500000
70
192
0
VERTEX
8
OBJECT__82
10
24.875000
20
-4.953000
30
144.500000
70
192
0
VERTEX
8
OBJECT__82
10
24.871000
20
-4.928000
30
144.300003
70
192
0
VERTEX
8
OBJECT__82
10
26.000000
20
0.000000
30
144.300003
70
192
0
VERTEX
8
OBJECT__82
10
25.941000
20
0.000000
30
144.440994
70
192
0
VERTEX
8
OBJECT__82
10
-21.091000
20
-14.086000
30
144.500000
70
192
0
VERTEX
8
OBJECT__82
10
-21.194000
20
-14.106000
30
144.300003
70
192
0
VERTEX
8
OBJECT__82
10
-18.014999
20
-18.090000
30
144.300003
70
192
0
VERTEX
8
OBJECT__82
10
-14.266000
20
-21.245001
30
144.300003
70
192
0
VERTEX
8
OBJECT__82
10
-9.675000
20
-23.448999
30
144.300003
70
192
0
VERTEX
8
OBJECT__82
10
-11.491000
20
-23.100000
30
144.500000
70
192
0
VERTEX
8
OBJECT__82
10
-14.146000
20
-21.190001
30
144.500000
70
192
0
VERTEX
8
OBJECT__82
10
-9.800000
20
-23.580000
30
144.500000
70
192
0
VERTEX
8
OBJECT__82
10
-5.664000
20
-25.375999
30
144.300003
70
192
0
VERTEX
8
OBJECT__82
10
-16.263000
20
-20.285999
30
144.300003
70
192
0
VERTEX
8
OBJECT__82
10
-18.243000
20
-18.243000
30
144.500000
70
192
0
VERTEX
8
OBJECT__82
10
-24.867001
20
-4.927000
30
144.300003
70
192
0
VERTEX
8
OBJECT__82
10
-23.728001
20
-9.882000
30
144.300003
70
192
0
VERTEX
8
OBJECT__82
10
-23.742001
20
-9.850000
30
144.500000
70
192
0
VERTEX
8
OBJECT__82
10
-23.389999
20
-11.354000
30
144.300003
70
192
0
VERTEX
8
OBJECT__82
10
-23.604000
20
-10.417000
30
144.500000
70
192
0
VERTEX
8
OBJECT__82
10
-25.746000
20
-1.671000
30
144.500000
70
192
0
VERTEX
8
OBJECT__82
10
-25.799999
20
0.000000
30
144.500000
70
192
0
VERTEX
8
OBJECT__82
10
-25.941000
20
0.000000
30
144.440994
70
192
0
VERTEX
8
OBJECT__82
10
-24.944000
20
-4.945000
30
144.500000
70
192
0
VERTEX
8
OBJECT__82
10
-26.000000
20
0.000000
30
144.300003
70
192
0
VERTEX
8
OBJECT__82
10
14.270000
20
-21.254000
30
144.300003
70
192
0
VERTEX
8
OBJECT__82
10
16.222000
20
-20.319000
30
144.300003
70
192
0
VERTEX
8
OBJECT__82
10
15.555000
20
-20.584000
30
144.500000
70
192
0
VERTEX
8
OBJECT__82
10
18.007000
20
-18.083000
30
144.300003
70
192
0
VERTEX
8
OBJECT__82
10
18.188000
20
-18.183001
30
144.500000
70
192
0
VERTEX
8
OBJECT__82
10
21.091000
20
-14.110000
30
144.500000
70
192
0
VERTEX
8
OBJECT__82
10
21.187000
20
-14.101000
30
144.300003
70
192
0
VERTEX
8
OBJECT__82
10
23.405001
20
-11.322000
30
144.300003
70
192
0
VERTEX
8
OBJECT__82
10
23.747999
20
-9.819000
30
144.500000
70
192
0
VERTEX
8
OBJECT__82
10
24.059999
20
-9.313000
30
144.500000
70
192
0
VERTEX
8
OBJECT__82
10
23.735001
20
-9.884000
30
144.300003
70
192
0
VERTEX
8
OBJECT__82
10
19.063999
20
-17.384001
30
144.500000
70
192
0
VERTEX
8
OBJECT__82
10
5.005000
20
-25.003000
30
144.500000
70
192
0
VERTEX
8
OBJECT__82
10
5.072000
20
-25.375999
30
144.300003
70
192
0
VERTEX
8
OBJECT__82
10
5.664000
20
-25.375999
30
144.300003
70
192
0
VERTEX
8
OBJECT__82
10
9.678000
20
-23.452999
30
144.300003
70
192
0
VERTEX
8
OBJECT__82
10
9.706000
20
-23.500000
30
144.500000
70
192
0
VERTEX
8
OBJECT__82
10
7.081000
20
-24.809000
30
144.500000
70
192
0
VERTEX
8
OBJECT__82
10
14.230000
20
-21.243999
30
144.500000
70
192
0
VERTEX
8
OBJECT__82
10
0
20
0
30
0
70
128
71
1
72
2
73
3
0
VERTEX
8
OBJECT__82
10
0
20
0
30
0
70
128
71
3
72
4
73
1
0
VERTEX
8
OBJECT__82
10
0
20
0
30
0
70
128
71
2
72
5
73
3
0
VERTEX
8
OBJECT__82
10
0
20
0
30
0
70
128
71
6
72
7
73
8
0
VERTEX
8
OBJECT__82
10
0
20
0
30
0
70
128
71
8
72
9
73
10
0
VERTEX
8
OBJECT__82
10
0
20
0
30
0
70
128
71
11
72
12
73
13
0
VERTEX
8
OBJECT__82
10
0
20
0
30
0
70
128
71
14
72
15
73
16
0
VERTEX
8
OBJECT__82
10
0
20
0
30
0
70
128
71
16
72
17
73
14
0
VERTEX
8
OBJECT__82
10
0
20
0
30
0
70
128
71
18
72
15
73
19
0
VERTEX
8
OBJECT__82
10
0
20
0
30
0
70
128
71
19
72
4
73
18
0
VERTEX
8
OBJECT__82
10
0
20
0
30
0
70
128
71
20
72
17
73
21
0
VERTEX
8
OBJECT__82
10
0
20
0
30
0
70
128
71
21
72
13
73
20
0
VERTEX
8
OBJECT__82
10
0
20
0
30
0
70
128
71
20
72
14
73
17
0
VERTEX
8
OBJECT__82
10
0
20
0
30
0
70
128
71
22
72
23
73
24
0
VERTEX
8
OBJECT__82
10
0
20
0
30
0
70
128
71
23
72
25
73
26
0
VERTEX
8
OBJECT__82
10
0
20
0
30
0
70
128
71
11
72
26
73
25
0
VERTEX
8
OBJECT__82
10
0
20
0
30
0
70
128
71
25
72
12
73
11
0
VERTEX
8
OBJECT__82
10
0
20
0
30
0
70
128
71
27
72
28
73
29
0
VERTEX
8
OBJECT__82
10
0
20
0
30
0
70
128
71
22
72
30
73
27
0
VERTEX
8
OBJECT__82
10
0
20
0
30
0
70
128
71
27
72
31
73
22
0
VERTEX
8
OBJECT__82
10
0
20
0
30
0
70
128
71
32
72
33
73
34
0
VERTEX
8
OBJECT__82
10
0
20
0
30
0
70
128
71
34
72
33
73
35
0
VERTEX
8
OBJECT__82
10
0
20
0
30
0
70
128
71
35
72
36
73
34
0
VERTEX
8
OBJECT__82
10
0
20
0
30
0
70
128
71
37
72
38
73
39
0
VERTEX
8
OBJECT__82
10
0
20
0
30
0
70
128
71
39
72
40
73
37
0
VERTEX
8
OBJECT__82
10
0
20
0
30
0
70
128
71
8
72
7
73
41
0
VERTEX
8
OBJECT__82
10
0
20
0
30
0
70
128
71
41
72
42
73
8
0
VERTEX
8
OBJECT__82
10
0
20
0
30
0
70
128
71
35
72
37
73
43
0
VERTEX
8
OBJECT__82
10
0
20
0
30
0
70
128
71
43
72
36
73
35
0
VERTEX
8
OBJECT__82
10
0
20
0
30
0
70
128
71
44
72
45
73
46
0
VERTEX
8
OBJECT__82
10
0
20
0
30
0
70
128
71
47
72
48
73
49
0
VERTEX
8
OBJECT__82
10
0
20
0
30
0
70
128
71
49
72
46
73
47
0
VERTEX
8
OBJECT__82
10
0
20
0
30
0
70
128
71
47
72
32
73
50
0
VERTEX
8
OBJECT__82
10
0
20
0
30
0
70
128
71
44
72
5
73
2
0
VERTEX
8
OBJECT__82
10
0
20
0
30
0
70
128
71
2
72
45
73
44
0
VERTEX
8
OBJECT__82
10
0
20
0
30
0
70
128
71
50
72
48
73
47
0
VERTEX
8
OBJECT__82
10
0
20
0
30
0
70
128
71
46
72
49
73
44
0
VERTEX
8
OBJECT__82
10
0
20
0
30
0
70
128
71
35
72
38
73
37
0
VERTEX
8
OBJECT__82
10
0
20
0
30
0
70
128
71
41
72
40
73
42
0
VERTEX
8
OBJECT__82
10
0
20
0
30
0
70
128
71
39
72
42
73
40
0
VERTEX
8
OBJECT__82
10
0
20
0
30
0
70
128
71
34
72
50
73
32
0
VERTEX
8
OBJECT__82
10
0
20
0
30
0
70
128
71
29
72
31
73
27
0
VERTEX
8
OBJECT__82
10
0
20
0
30
0
70
128
71
26
72
24
73
23
0
VERTEX
8
OBJECT__82
10
0
20
0
30
0
70
128
71
24
72
30
73
22
0
VERTEX
8
OBJECT__82
10
0
20
0
30
0
70
128
71
19
72
1
73
4
0
VERTEX
8
OBJECT__82
10
0
20
0
30
0
70
128
71
15
72
18
73
16
0
VERTEX
8
OBJECT__82
10
0
20
0
30
0
70
128
71
13
72
21
73
11
0
VERTEX
8
OBJECT__82
10
0
20
0
30
0
70
128
71
8
72
10
73
6
0
SEQEND
8
OBJECT__82
0
POLYLINE
8
OBJECT__83
66
1
70
64
71
52
72
50
62
253
0
VERTEX
8
OBJECT__83
10
5.072000
20
25.393000
30
144.300003
70
192
0
VERTEX
8
OBJECT__83
10
0.000000
20
25.393000
30
144.300003
70
192
0
VERTEX
8
OBJECT__83
10
2.353000
20
25.691999
30
144.500000
70
192
0
VERTEX
8
OBJECT__83
10
4.936000
20
24.959999
30
144.500000
70
192
0
VERTEX
8
OBJECT__83
10
0.031000
20
25.475000
30
144.500000
70
192
0
VERTEX
8
OBJECT__83
10
-24.875000
20
4.953000
30
144.500000
70
192
0
VERTEX
8
OBJECT__83
10
-25.013000
20
4.943000
30
144.300003
70
192
0
VERTEX
8
OBJECT__83
10
-25.966000
20
1.337000
30
144.300003
70
192
0
VERTEX
8
OBJECT__83
10
-25.799999
20
0.000000
30
144.500000
70
192
0
VERTEX
8
OBJECT__83
10
-26.000000
20
0.000000
30
144.300003
70
192
0
VERTEX
8
OBJECT__83
10
-25.941000
20
0.000000
30
144.440994
70
192
0
VERTEX
8
OBJECT__83
10
21.091000
20
14.086000
30
144.500000
70
192
0
VERTEX
8
OBJECT__83
10
21.261999
20
14.139000
30
144.300003
70
192
0
VERTEX
8
OBJECT__83
10
17.945000
20
18.007999
30
144.300003
70
192
0
VERTEX
8
OBJECT__83
10
18.243000
20
18.243000
30
144.500000
70
192
0
VERTEX
8
OBJECT__83
10
14.350000
20
21.409000
30
144.300003
70
192
0
VERTEX
8
OBJECT__83
10
9.719000
20
23.514000
30
144.300003
70
192
0
VERTEX
8
OBJECT__83
10
11.486000
20
23.101999
30
144.500000
70
192
0
VERTEX
8
OBJECT__83
10
14.145000
20
21.190001
30
144.500000
70
192
0
VERTEX
8
OBJECT__83
10
9.801000
20
23.580000
30
144.500000
70
192
0
VERTEX
8
OBJECT__83
10
5.587000
20
25.393000
30
144.300003
70
192
0
VERTEX
8
OBJECT__83
10
15.462000
20
20.903000
30
144.300003
70
192
0
VERTEX
8
OBJECT__83
10
25.024000
20
4.939000
30
144.300003
70
192
0
VERTEX
8
OBJECT__83
10
23.646999
20
9.845000
30
144.300003
70
192
0
VERTEX
8
OBJECT__83
10
23.742001
20
9.850000
30
144.500000
70
192
0
VERTEX
8
OBJECT__83
10
23.604000
20
10.416000
30
144.500000
70
192
0
VERTEX
8
OBJECT__83
10
23.016001
20
12.094000
30
144.300003
70
192
0
VERTEX
8
OBJECT__83
10
25.799999
20
0.000000
30
144.500000
70
192
0
VERTEX
8
OBJECT__83
10
25.941000
20
0.000000
30
144.440994
70
192
0
VERTEX
8
OBJECT__83
10
25.948000
20
1.644000
30
144.300003
70
192
0
VERTEX
8
OBJECT__83
10
25.746000
20
1.672000
30
144.500000
70
192
0
VERTEX
8
OBJECT__83
10
24.944000
20
4.945000
30
144.500000
70
192
0
VERTEX
8
OBJECT__83
10
-14.310000
20
21.329000
30
144.300003
70
192
0
VERTEX
8
OBJECT__83
10
-15.847000
20
20.613001
30
144.300003
70
192
0
VERTEX
8
OBJECT__83
10
-15.559000
20
20.580000
30
144.500000
70
192
0
VERTEX
8
OBJECT__83
10
-17.969999
20
18.042000
30
144.300003
70
192
0
VERTEX
8
OBJECT__83
10
-18.188000
20
18.183001
30
144.500000
70
192
0
VERTEX
8
OBJECT__83
10
-21.091000
20
14.110000
30
144.500000
70
192
0
VERTEX
8
OBJECT__83
10
-21.215000
20
14.112000
30
144.300003
70
192
0
VERTEX
8
OBJECT__83
10
-23.236000
20
11.665000
30
144.300003
70
192
0
VERTEX
8
OBJECT__83
10
-23.747999
20
9.819000
30
144.500000
70
192
0
VERTEX
8
OBJECT__83
10
-24.059999
20
9.314000
30
144.500000
70
192
0
VERTEX
8
OBJECT__83
10
-23.711000
20
9.868000
30
144.300003
70
192
0
VERTEX
8
OBJECT__83
10
-19.063000
20
17.385000
30
144.500000
70
192
0
VERTEX
8
OBJECT__83
10
-5.005000
20
25.003000
30
144.500000
70
192
0
VERTEX
8
OBJECT__83
10
-5.072000
20
25.393000
30
144.300003
70
192
0
VERTEX
8
OBJECT__83
10
-5.587000
20
25.393000
30
144.300003
70
192
0
VERTEX
8
OBJECT__83
10
-9.697000
20
23.478001
30
144.300003
70
192
0
VERTEX
8
OBJECT__83
10
-9.706000
20
23.500999
30
144.500000
70
192
0
VERTEX
8
OBJECT__83
10
-7.086000
20
24.808001
30
144.500000
70
192
0
VERTEX
8
OBJECT__83
10
-14.230000
20
21.243999
30
144.500000
70
192
0
VERTEX
8
OBJECT__83
10
26.000000
20
0.000000
30
144.300003
70
192
0
VERTEX
8
OBJECT__83
10
0
20
0
30
0
70
128
71
1
72
2
73
3
0
VERTEX
8
OBJECT__83
10
0
20
0
30
0
70
128
71
3
72
4
73
1
0
VERTEX
8
OBJECT__83
10
0
20
0
30
0
70
128
71
2
72
5
73
3
0
VERTEX
8
OBJECT__83
10
0
20
0
30
0
70
128
71
6
72
7
73
8
0
VERTEX
8
OBJECT__83
10
0
20
0
30
0
70
128
71
8
72
9
73
6
0
VERTEX
8
OBJECT__83
10
0
20
0
30
0
70
128
71
8
72
10
73
11
0
VERTEX
8
OBJECT__83
10
0
20
0
30
0
70
128
71
12
72
13
73
14
0
VERTEX
8
OBJECT__83
10
0
20
0
30
0
70
128
71
14
72
15
73
12
0
VERTEX
8
OBJECT__83
10
0
20
0
30
0
70
128
71
16
72
17
73
18
0
VERTEX
8
OBJECT__83
10
0
20
0
30
0
70
128
71
18
72
19
73
16
0
VERTEX
8
OBJECT__83
10
0
20
0
30
0
70
128
71
17
72
20
73
18
0
VERTEX
8
OBJECT__83
10
0
20
0
30
0
70
128
71
4
72
20
73
17
0
VERTEX
8
OBJECT__83
10
0
20
0
30
0
70
128
71
17
72
21
73
4
0
VERTEX
8
OBJECT__83
10
0
20
0
30
0
70
128
71
22
72
19
73
15
0
VERTEX
8
OBJECT__83
10
0
20
0
30
0
70
128
71
15
72
14
73
22
0
VERTEX
8
OBJECT__83
10
0
20
0
30
0
70
128
71
23
72
24
73
25
0
VERTEX
8
OBJECT__83
10
0
20
0
30
0
70
128
71
26
72
24
73
27
0
VERTEX
8
OBJECT__83
10
0
20
0
30
0
70
128
71
27
72
13
73
26
0
VERTEX
8
OBJECT__83
10
0
20
0
30
0
70
128
71
26
72
25
73
24
0
VERTEX
8
OBJECT__83
10
0
20
0
30
0
70
128
71
13
72
12
73
26
0
VERTEX
8
OBJECT__83
10
0
20
0
30
0
70
128
71
28
72
29
73
30
0
VERTEX
8
OBJECT__83
10
0
20
0
30
0
70
128
71
30
72
31
73
28
0
VERTEX
8
OBJECT__83
10
0
20
0
30
0
70
128
71
23
72
32
73
31
0
VERTEX
8
OBJECT__83
10
0
20
0
30
0
70
128
71
31
72
30
73
23
0
VERTEX
8
OBJECT__83
10
0
20
0
30
0
70
128
71
33
72
34
73
35
0
VERTEX
8
OBJECT__83
10
0
20
0
30
0
70
128
71
34
72
36
73
37
0
VERTEX
8
OBJECT__83
10
0
20
0
30
0
70
128
71
37
72
35
73
34
0
VERTEX
8
OBJECT__83
10
0
20
0
30
0
70
128
71
38
72
39
73
40
0
VERTEX
8
OBJECT__83
10
0
20
0
30
0
70
128
71
40
72
41
73
38
0
VERTEX
8
OBJECT__83
10
0
20
0
30
0
70
128
71
7
72
6
73
42
0
VERTEX
8
OBJECT__83
10
0
20
0
30
0
70
128
71
42
72
43
73
7
0
VERTEX
8
OBJECT__83
10
0
20
0
30
0
70
128
71
39
72
38
73
44
0
VERTEX
8
OBJECT__83
10
0
20
0
30
0
70
128
71
44
72
36
73
39
0
VERTEX
8
OBJECT__83
10
0
20
0
30
0
70
128
71
44
72
37
73
36
0
VERTEX
8
OBJECT__83
10
0
20
0
30
0
70
128
71
45
72
46
73
47
0
VERTEX
8
OBJECT__83
10
0
20
0
30
0
70
128
71
48
72
49
73
50
0
VERTEX
8
OBJECT__83
10
0
20
0
30
0
70
128
71
50
72
47
73
48
0
VERTEX
8
OBJECT__83
10
0
20
0
30
0
70
128
71
48
72
33
73
51
0
VERTEX
8
OBJECT__83
10
0
20
0
30
0
70
128
71
45
72
5
73
2
0
VERTEX
8
OBJECT__83
10
0
20
0
30
0
70
128
71
2
72
46
73
45
0
VERTEX
8
OBJECT__83
10
0
20
0
30
0
70
128
71
51
72
49
73
48
0
VERTEX
8
OBJECT__83
10
0
20
0
30
0
70
128
71
47
72
50
73
45
0
VERTEX
8
OBJECT__83
10
0
20
0
30
0
70
128
71
42
72
41
73
43
0
VERTEX
8
OBJECT__83
10
0
20
0
30
0
70
128
71
40
72
43
73
41
0
VERTEX
8
OBJECT__83
10
0
20
0
30
0
70
128
71
35
72
51
73
33
0
VERTEX
8
OBJECT__83
10
0
20
0
30
0
70
128
71
29
72
52
73
30
0
VERTEX
8
OBJECT__83
10
0
20
0
30
0
70
128
71
25
72
32
73
23
0
VERTEX
8
OBJECT__83
10
0
20
0
30
0
70
128
71
22
72
16
73
19
0
VERTEX
8
OBJECT__83
10
0
20
0
30
0
70
128
71
21
72
1
73
4
0
VERTEX
8
OBJECT__83
10
0
20
0
30
0
70
128
71
8
72
11
73
9
0
SEQEND
8
OBJECT__83
0
POLYLINE
8
OBJECT__84
66
1
70
64
71
83
72
81
62
253
0
VERTEX
8
OBJECT__84
10
-15.847000
20
20.613001
30
144.300003
70
192
0
VERTEX
8
OBJECT__84
10
-14.310000
20
21.329000
30
144.300003
70
192
0
VERTEX
8
OBJECT__84
10
-14.310000
20
21.329000
30
44.200001
70
192
0
VERTEX
8
OBJECT__84
10
-5.587000
20
25.393000
30
44.200001
70
192
0
VERTEX
8
OBJECT__84
10
-9.697000
20
23.478001
30
44.200001
70
192
0
VERTEX
8
OBJECT__84
10
-9.697000
20
23.478001
30
144.300003
70
192
0
VERTEX
8
OBJECT__84
10
-5.587000
20
25.393000
30
144.300003
70
192
0
VERTEX
8
OBJECT__84
10
-5.072000
20
25.393000
30
144.300003
70
192
0
VERTEX
8
OBJECT__84
10
-5.072000
20
25.393000
30
44.200001
70
192
0
VERTEX
8
OBJECT__84
10
0.000000
20
25.393000
30
144.300003
70
192
0
VERTEX
8
OBJECT__84
10
5.072000
20
25.393000
30
144.300003
70
192
0
VERTEX
8
OBJECT__84
10
5.072000
20
25.393000
30
44.200001
70
192
0
VERTEX
8
OBJECT__84
10
0.000000
20
25.393000
30
44.200001
70
192
0
VERTEX
8
OBJECT__84
10
5.587000
20
25.393000
30
44.200001
70
192
0
VERTEX
8
OBJECT__84
10
5.587000
20
25.393000
30
144.300003
70
192
0
VERTEX
8
OBJECT__84
10
9.719000
20
23.514000
30
144.300003
70
192
0
VERTEX
8
OBJECT__84
10
14.350000
20
21.409000
30
144.300003
70
192
0
VERTEX
8
OBJECT__84
10
14.350000
20
21.409000
30
44.200001
70
192
0
VERTEX
8
OBJECT__84
10
15.462000
20
20.903000
30
44.200001
70
192
0
VERTEX
8
OBJECT__84
10
15.462000
20
20.903000
30
144.300003
70
192
0
VERTEX
8
OBJECT__84
10
9.719000
20
23.514000
30
44.200001
70
192
0
VERTEX
8
OBJECT__84
10
23.016001
20
12.094000
30
44.200001
70
192
0
VERTEX
8
OBJECT__84
10
21.261999
20
14.139000
30
44.200001
70
192
0
VERTEX
8
OBJECT__84
10
21.261999
20
14.139000
30
144.300003
70
192
0
VERTEX
8
OBJECT__84
10
17.945000
20
18.007999
30
144.300003
70
192
0
VERTEX
8
OBJECT__84
10
17.945000
20
18.007999
30
44.200001
70
192
0
VERTEX
8
OBJECT__84
10
23.016001
20
12.094000
30
144.300003
70
192
0
VERTEX
8
OBJECT__84
10
23.646999
20
9.845000
30
144.300003
70
192
0
VERTEX
8
OBJECT__84
10
23.646999
20
9.845000
30
44.200001
70
192
0
VERTEX
8
OBJECT__84
10
25.024000
20
4.939000
30
144.300003
70
192
0
VERTEX
8
OBJECT__84
10
25.024000
20
4.939000
30
44.200001
70
192
0
VERTEX
8
OBJECT__84
10
25.948000
20
1.644000
30
44.200001
70
192
0
VERTEX
8
OBJECT__84
10
25.948000
20
1.644000
30
144.300003
70
192
0
VERTEX
8
OBJECT__84
10
26.000000
20
0.000000
30
144.300003
70
192
0
VERTEX
8
OBJECT__84
10
26.000000
20
0.000000
30
44.200001
70
192
0
VERTEX
8
OBJECT__84
10
-23.236000
20
11.665000
30
44.200001
70
192
0
VERTEX
8
OBJECT__84
10
-24.688999
20
8.153000
30
69.454002
70
192
0
VERTEX
8
OBJECT__84
10
-24.038000
20
9.793000
30
71.026001
70
192
0
VERTEX
8
OBJECT__84
10
-25.579000
20
4.662000
30
67.641998
70
192
0
VERTEX
8
OBJECT__84
10
-25.400999
20
5.361000
30
68.004997
70
192
0
VERTEX
8
OBJECT__84
10
-25.013000
20
4.943000
30
44.200001
70
192
0
VERTEX
8
OBJECT__84
10
-25.966000
20
1.337000
30
44.200001
70
192
0
VERTEX
8
OBJECT__84
10
-25.936001
20
1.334000
30
66.970001
70
192
0
VERTEX
8
OBJECT__84
10
-23.711000
20
9.868000
30
44.200001
70
192
0
VERTEX
8
OBJECT__84
10
-23.559000
20
11.000000
30
72.183998
70
192
0
VERTEX
8
OBJECT__84
10
-22.466999
20
13.086000
30
130.438004
70
192
0
VERTEX
8
OBJECT__84
10
-21.215000
20
14.112000
30
144.300003
70
192
0
VERTEX
8
OBJECT__84
10
-17.969999
20
18.042000
30
144.300003
70
192
0
VERTEX
8
OBJECT__84
10
-22.582001
20
12.867000
30
130.837997
70
192
0
VERTEX
8
OBJECT__84
10
-23.219999
20
11.659000
30
133.044998
70
192
0
VERTEX
8
OBJECT__84
10
-23.236000
20
11.665000
30
144.300003
70
192
0
VERTEX
8
OBJECT__84
10
-21.907000
20
14.003000
30
118.904999
70
192
0
VERTEX
8
OBJECT__84
10
-21.945000
20
13.944000
30
125.431999
70
192
0
VERTEX
8
OBJECT__84
10
-15.847000
20
20.613001
30
44.200001
70
192
0
VERTEX
8
OBJECT__84
10
-21.907000
20
14.003000
30
92.605003
70
192
0
VERTEX
8
OBJECT__84
10
-21.907000
20
14.003000
30
103.000000
70
192
0
VERTEX
8
OBJECT__84
10
-21.907000
20
14.003000
30
84.666000
70
192
0
VERTEX
8
OBJECT__84
10
-21.969000
20
13.906000
30
79.320000
70
192
0
VERTEX
8
OBJECT__84
10
-21.952000
20
13.932000
30
80.765999
70
192
0
VERTEX
8
OBJECT__84
10
-21.952999
20
13.931000
30
126.795998
70
192
0
VERTEX
8
OBJECT__84
10
-22.533001
20
12.972000
30
75.616997
70
192
0
VERTEX
8
OBJECT__84
10
-21.215000
20
14.112000
30
44.200001
70
192
0
VERTEX
8
OBJECT__84
10
-23.216999
20
11.657000
30
73.329002
70
192
0
VERTEX
8
OBJECT__84
10
-22.599001
20
12.844000
30
75.394997
70
192
0
VERTEX
8
OBJECT__84
10
-17.969999
20
18.042000
30
44.200001
70
192
0
VERTEX
8
OBJECT__84
10
-25.013000
20
4.943000
30
144.300003
70
192
0
VERTEX
8
OBJECT__84
10
-25.632999
20
4.353000
30
138.813004
70
192
0
VERTEX
8
OBJECT__84
10
-25.920000
20
1.333000
30
139.350998
70
192
0
VERTEX
8
OBJECT__84
10
-23.711000
20
9.868000
30
144.300003
70
192
0
VERTEX
8
OBJECT__84
10
-25.386999
20
5.386000
30
138.319000
70
192
0
VERTEX
8
OBJECT__84
10
-24.843000
20
7.668000
30
137.227997
70
192
0
VERTEX
8
OBJECT__84
10
-23.483999
20
11.158000
30
133.959000
70
192
0
VERTEX
8
OBJECT__84
10
-24.028999
20
9.906000
30
135.358994
70
192
0
VERTEX
8
OBJECT__84
10
-24.171000
20
9.580000
30
135.723999
70
192
0
VERTEX
8
OBJECT__84
10
-26.000000
20
0.007000
30
139.500000
70
192
0
VERTEX
8
OBJECT__84
10
-26.000000
20
0.000000
30
139.500000
70
192
0
VERTEX
8
OBJECT__84
10
-26.000000
20
0.000000
30
141.899994
70
192
0
VERTEX
8
OBJECT__84
10
-26.000000
20
0.000000
30
144.300003
70
192
0
VERTEX
8
OBJECT__84
10
-25.966000
20
1.337000
30
144.300003
70
192
0
VERTEX
8
OBJECT__84
10
-25.993999
20
0.556000
30
139.488998
70
192
0
VERTEX
8
OBJECT__84
10
-26.000000
20
0.000000
30
44.200001
70
192
0
VERTEX
8
OBJECT__84
10
-26.000000
20
0.000000
30
66.849998
70
192
0
VERTEX
8
OBJECT__84
10
-25.985001
20
0.876000
30
66.876999
70
192
0
VERTEX
8
OBJECT__84
10
0
20
0
30
0
70
128
71
1
72
2
73
3
0
VERTEX
8
OBJECT__84
10
0
20
0
30
0
70
128
71
4
72
5
73
6
0
VERTEX
8
OBJECT__84
10
0
20
0
30
0
70
128
71
2
72
6
73
5
0
VERTEX
8
OBJECT__84
10
0
20
0
30
0
70
128
71
5
72
3
73
2
0
VERTEX
8
OBJECT__84
10
0
20
0
30
0
70
128
71
6
72
7
73
4
0
VERTEX
8
OBJECT__84
10
0
20
0
30
0
70
128
71
7
72
8
73
9
0
VERTEX
8
OBJECT__84
10
0
20
0
30
0
70
128
71
10
72
11
73
12
0
VERTEX
8
OBJECT__84
10
0
20
0
30
0
70
128
71
13
72
9
73
8
0
VERTEX
8
OBJECT__84
10
0
20
0
30
0
70
128
71
8
72
10
73
13
0
VERTEX
8
OBJECT__84
10
0
20
0
30
0
70
128
71
12
72
13
73
10
0
VERTEX
8
OBJECT__84
10
0
20
0
30
0
70
128
71
14
72
12
73
11
0
VERTEX
8
OBJECT__84
10
0
20
0
30
0
70
128
71
11
72
15
73
14
0
VERTEX
8
OBJECT__84
10
0
20
0
30
0
70
128
71
16
72
17
73
18
0
VERTEX
8
OBJECT__84
10
0
20
0
30
0
70
128
71
19
72
18
73
17
0
VERTEX
8
OBJECT__84
10
0
20
0
30
0
70
128
71
17
72
20
73
19
0
VERTEX
8
OBJECT__84
10
0
20
0
30
0
70
128
71
15
72
16
73
21
0
VERTEX
8
OBJECT__84
10
0
20
0
30
0
70
128
71
21
72
14
73
15
0
VERTEX
8
OBJECT__84
10
0
20
0
30
0
70
128
71
22
72
23
73
24
0
VERTEX
8
OBJECT__84
10
0
20
0
30
0
70
128
71
25
72
24
73
23
0
VERTEX
8
OBJECT__84
10
0
20
0
30
0
70
128
71
23
72
26
73
25
0
VERTEX
8
OBJECT__84
10
0
20
0
30
0
70
128
71
20
72
25
73
26
0
VERTEX
8
OBJECT__84
10
0
20
0
30
0
70
128
71
26
72
19
73
20
0
VERTEX
8
OBJECT__84
10
0
20
0
30
0
70
128
71
27
72
28
73
29
0
VERTEX
8
OBJECT__84
10
0
20
0
30
0
70
128
71
28
72
30
73
31
0
VERTEX
8
OBJECT__84
10
0
20
0
30
0
70
128
71
31
72
29
73
28
0
VERTEX
8
OBJECT__84
10
0
20
0
30
0
70
128
71
32
72
31
73
30
0
VERTEX
8
OBJECT__84
10
0
20
0
30
0
70
128
71
30
72
33
73
32
0
VERTEX
8
OBJECT__84
10
0
20
0
30
0
70
128
71
33
72
34
73
35
0
VERTEX
8
OBJECT__84
10
0
20
0
30
0
70
128
71
36
72
37
73
38
0
VERTEX
8
OBJECT__84
10
0
20
0
30
0
70
128
71
36
72
39
73
40
0
VERTEX
8
OBJECT__84
10
0
20
0
30
0
70
128
71
40
72
37
73
36
0
VERTEX
8
OBJECT__84
10
0
20
0
30
0
70
128
71
41
72
42
73
43
0
VERTEX
8
OBJECT__84
10
0
20
0
30
0
70
128
71
39
72
44
73
41
0
VERTEX
8
OBJECT__84
10
0
20
0
30
0
70
128
71
39
72
36
73
44
0
VERTEX
8
OBJECT__84
10
0
20
0
30
0
70
128
71
43
72
39
73
41
0
VERTEX
8
OBJECT__84
10
0
20
0
30
0
70
128
71
38
72
45
73
36
0
VERTEX
8
OBJECT__84
10
0
20
0
30
0
70
128
71
46
72
47
73
48
0
VERTEX
8
OBJECT__84
10
0
20
0
30
0
70
128
71
47
72
49
73
50
0
VERTEX
8
OBJECT__84
10
0
20
0
30
0
70
128
71
47
72
46
73
49
0
VERTEX
8
OBJECT__84
10
0
20
0
30
0
70
128
71
50
72
51
73
47
0
VERTEX
8
OBJECT__84
10
0
20
0
30
0
70
128
71
1
72
52
73
53
0
VERTEX
8
OBJECT__84
10
0
20
0
30
0
70
128
71
1
72
54
73
55
0
VERTEX
8
OBJECT__84
10
0
20
0
30
0
70
128
71
55
72
56
73
1
0
VERTEX
8
OBJECT__84
10
0
20
0
30
0
70
128
71
54
72
57
73
55
0
VERTEX
8
OBJECT__84
10
0
20
0
30
0
70
128
71
56
72
52
73
1
0
VERTEX
8
OBJECT__84
10
0
20
0
30
0
70
128
71
54
72
58
73
59
0
VERTEX
8
OBJECT__84
10
0
20
0
30
0
70
128
71
59
72
57
73
54
0
VERTEX
8
OBJECT__84
10
0
20
0
30
0
70
128
71
53
72
60
73
1
0
VERTEX
8
OBJECT__84
10
0
20
0
30
0
70
128
71
54
72
61
73
58
0
VERTEX
8
OBJECT__84
10
0
20
0
30
0
70
128
71
62
72
36
73
63
0
VERTEX
8
OBJECT__84
10
0
20
0
30
0
70
128
71
64
72
65
73
62
0
VERTEX
8
OBJECT__84
10
0
20
0
30
0
70
128
71
64
72
54
73
65
0
VERTEX
8
OBJECT__84
10
0
20
0
30
0
70
128
71
63
72
64
73
62
0
VERTEX
8
OBJECT__84
10
0
20
0
30
0
70
128
71
64
72
61
73
54
0
VERTEX
8
OBJECT__84
10
0
20
0
30
0
70
128
71
60
72
46
73
1
0
VERTEX
8
OBJECT__84
10
0
20
0
30
0
70
128
71
66
72
67
73
68
0
VERTEX
8
OBJECT__84
10
0
20
0
30
0
70
128
71
69
72
70
73
67
0
VERTEX
8
OBJECT__84
10
0
20
0
30
0
70
128
71
69
72
71
73
70
0
VERTEX
8
OBJECT__84
10
0
20
0
30
0
70
128
71
67
72
66
73
69
0
VERTEX
8
OBJECT__84
10
0
20
0
30
0
70
128
71
51
72
72
73
73
0
VERTEX
8
OBJECT__84
10
0
20
0
30
0
70
128
71
73
72
74
73
51
0
VERTEX
8
OBJECT__84
10
0
20
0
30
0
70
128
71
74
72
71
73
51
0
VERTEX
8
OBJECT__84
10
0
20
0
30
0
70
128
71
51
72
50
73
72
0
VERTEX
8
OBJECT__84
10
0
20
0
30
0
70
128
71
69
72
51
73
71
0
VERTEX
8
OBJECT__84
10
0
20
0
30
0
70
128
71
75
72
76
73
77
0
VERTEX
8
OBJECT__84
10
0
20
0
30
0
70
128
71
78
72
79
73
80
0
VERTEX
8
OBJECT__84
10
0
20
0
30
0
70
128
71
80
72
75
73
78
0
VERTEX
8
OBJECT__84
10
0
20
0
30
0
70
128
71
79
72
68
73
80
0
VERTEX
8
OBJECT__84
10
0
20
0
30
0
70
128
71
42
72
81
73
82
0
VERTEX
8
OBJECT__84
10
0
20
0
30
0
70
128
71
82
72
83
73
42
0
VERTEX
8
OBJECT__84
10
0
20
0
30
0
70
128
71
83
72
43
73
42
0
VERTEX
8
OBJECT__84
10
0
20
0
30
0
70
128
71
77
72
78
73
75
0
VERTEX
8
OBJECT__84
10
0
20
0
30
0
70
128
71
68
72
79
73
66
0
VERTEX
8
OBJECT__84
10
0
20
0
30
0
70
128
71
48
72
1
73
46
0
VERTEX
8
OBJECT__84
10
0
20
0
30
0
70
128
71
45
72
63
73
36
0
VERTEX
8
OBJECT__84
10
0
20
0
30
0
70
128
71
35
72
32
73
33
0
VERTEX
8
OBJECT__84
10
0
20
0
30
0
70
128
71
29
72
22
73
27
0
VERTEX
8
OBJECT__84
10
0
20
0
30
0
70
128
71
24
72
27
73
22
0
VERTEX
8
OBJECT__84
10
0
20
0
30
0
70
128
71
18
72
21
73
16
0
VERTEX
8
OBJECT__84
10
0
20
0
30
0
70
128
71
9
72
4
73
7
0
VERTEX
8
OBJECT__84
10
0
20
0
30
0
70
128
71
3
72
54
73
1
0
SEQEND
8
OBJECT__84
0
POLYLINE
8
OBJECT__85
66
1
70
64
71
52
72
50
62
253
0
VERTEX
8
OBJECT__85
10
-5.072000
20
25.393000
30
44.200001
70
192
0
VERTEX
8
OBJECT__85
10
0.000000
20
25.393000
30
44.200001
70
192
0
VERTEX
8
OBJECT__85
10
-2.359000
20
25.691999
30
44.000000
70
192
0
VERTEX
8
OBJECT__85
10
-4.936000
20
24.959999
30
44.000000
70
192
0
VERTEX
8
OBJECT__85
10
-0.030000
20
25.474001
30
44.000000
70
192
0
VERTEX
8
OBJECT__85
10
24.875000
20
4.953000
30
44.000000
70
192
0
VERTEX
8
OBJECT__85
10
25.024000
20
4.939000
30
44.200001
70
192
0
VERTEX
8
OBJECT__85
10
25.948000
20
1.644000
30
44.200001
70
192
0
VERTEX
8
OBJECT__85
10
25.799999
20
0.000000
30
44.000000
70
192
0
VERTEX
8
OBJECT__85
10
26.000000
20
0.000000
30
44.200001
70
192
0
VERTEX
8
OBJECT__85
10
25.941000
20
0.000000
30
44.058998
70
192
0
VERTEX
8
OBJECT__85
10
-21.091000
20
14.086000
30
44.000000
70
192
0
VERTEX
8
OBJECT__85
10
-21.215000
20
14.112000
30
44.200001
70
192
0
VERTEX
8
OBJECT__85
10
-17.969999
20
18.042000
30
44.200001
70
192
0
VERTEX
8
OBJECT__85
10
-14.310000
20
21.329000
30
44.200001
70
192
0
VERTEX
8
OBJECT__85
10
-9.697000
20
23.478001
30
44.200001
70
192
0
VERTEX
8
OBJECT__85
10
-11.491000
20
23.100000
30
44.000000
70
192
0
VERTEX
8
OBJECT__85
10
-14.146000
20
21.190001
30
44.000000
70
192
0
VERTEX
8
OBJECT__85
10
-9.800000
20
23.580000
30
44.000000
70
192
0
VERTEX
8
OBJECT__85
10
-5.587000
20
25.393000
30
44.200001
70
192
0
VERTEX
8
OBJECT__85
10
-15.847000
20
20.613001
30
44.200001
70
192
0
VERTEX
8
OBJECT__85
10
-18.243000
20
18.243000
30
44.000000
70
192
0
VERTEX
8
OBJECT__85
10
-25.013000
20
4.943000
30
44.200001
70
192
0
VERTEX
8
OBJECT__85
10
-23.711000
20
9.868000
30
44.200001
70
192
0
VERTEX
8
OBJECT__85
10
-23.742001
20
9.850000
30
44.000000
70
192
0
VERTEX
8
OBJECT__85
10
-23.236000
20
11.665000
30
44.200001
70
192
0
VERTEX
8
OBJECT__85
10
-23.604000
20
10.417000
30
44.000000
70
192
0
VERTEX
8
OBJECT__85
10
14.230000
20
21.243999
30
44.000000
70
192
0
VERTEX
8
OBJECT__85
10
14.350000
20
21.409000
30
44.200001
70
192
0
VERTEX
8
OBJECT__85
10
15.462000
20
20.903000
30
44.200001
70
192
0
VERTEX
8
OBJECT__85
10
15.555000
20
20.584000
30
44.000000
70
192
0
VERTEX
8
OBJECT__85
10
17.945000
20
18.007999
30
44.200001
70
192
0
VERTEX
8
OBJECT__85
10
18.188000
20
18.183001
30
44.000000
70
192
0
VERTEX
8
OBJECT__85
10
23.747999
20
9.819000
30
44.000000
70
192
0
VERTEX
8
OBJECT__85
10
21.091000
20
14.110000
30
44.000000
70
192
0
VERTEX
8
OBJECT__85
10
23.016001
20
12.094000
30
44.200001
70
192
0
VERTEX
8
OBJECT__85
10
23.646999
20
9.845000
30
44.200001
70
192
0
VERTEX
8
OBJECT__85
10
21.261999
20
14.139000
30
44.200001
70
192
0
VERTEX
8
OBJECT__85
10
24.059999
20
9.313000
30
44.000000
70
192
0
VERTEX
8
OBJECT__85
10
19.063999
20
17.384001
30
44.000000
70
192
0
VERTEX
8
OBJECT__85
10
5.005000
20
25.003000
30
44.000000
70
192
0
VERTEX
8
OBJECT__85
10
5.072000
20
25.393000
30
44.200001
70
192
0
VERTEX
8
OBJECT__85
10
5.587000
20
25.393000
30
44.200001
70
192
0
VERTEX
8
OBJECT__85
10
9.719000
20
23.514000
30
44.200001
70
192
0
VERTEX
8
OBJECT__85
10
9.706000
20
23.500000
30
44.000000
70
192
0
VERTEX
8
OBJECT__85
10
7.081000
20
24.809000
30
44.000000
70
192
0
VERTEX
8
OBJECT__85
10
-25.799999
20
0.000000
30
44.000000
70
192
0
VERTEX
8
OBJECT__85
10
-25.941000
20
0.000000
30
44.058998
70
192
0
VERTEX
8
OBJECT__85
10
-25.966000
20
1.337000
30
44.200001
70
192
0
VERTEX
8
OBJECT__85
10
-25.746000
20
1.671000
30
44.000000
70
192
0
VERTEX
8
OBJECT__85
10
-24.944000
20
4.945000
30
44.000000
70
192
0
VERTEX
8
OBJECT__85
10
-26.000000
20
0.000000
30
44.200001
70
192
0
VERTEX
8
OBJECT__85
10
0
20
0
30
0
70
128
71
1
72
2
73
3
0
VERTEX
8
OBJECT__85
10
0
20
0
30
0
70
128
71
3
72
4
73
1
0
VERTEX
8
OBJECT__85
10
0
20
0
30
0
70
128
71
2
72
5
73
3
0
VERTEX
8
OBJECT__85
10
0
20
0
30
0
70
128
71
6
72
7
73
8
0
VERTEX
8
OBJECT__85
10
0
20
0
30
0
70
128
71
8
72
9
73
6
0
VERTEX
8
OBJECT__85
10
0
20
0
30
0
70
128
71
8
72
10
73
11
0
VERTEX
8
OBJECT__85
10
0
20
0
30
0
70
128
71
12
72
13
73
14
0
VERTEX
8
OBJECT__85
10
0
20
0
30
0
70
128
71
15
72
16
73
17
0
VERTEX
8
OBJECT__85
10
0
20
0
30
0
70
128
71
17
72
18
73
15
0
VERTEX
8
OBJECT__85
10
0
20
0
30
0
70
128
71
4
72
19
73
16
0
VERTEX
8
OBJECT__85
10
0
20
0
30
0
70
128
71
16
72
20
73
4
0
VERTEX
8
OBJECT__85
10
0
20
0
30
0
70
128
71
21
72
18
73
22
0
VERTEX
8
OBJECT__85
10
0
20
0
30
0
70
128
71
22
72
14
73
21
0
VERTEX
8
OBJECT__85
10
0
20
0
30
0
70
128
71
23
72
24
73
25
0
VERTEX
8
OBJECT__85
10
0
20
0
30
0
70
128
71
24
72
26
73
27
0
VERTEX
8
OBJECT__85
10
0
20
0
30
0
70
128
71
12
72
27
73
26
0
VERTEX
8
OBJECT__85
10
0
20
0
30
0
70
128
71
26
72
13
73
12
0
VERTEX
8
OBJECT__85
10
0
20
0
30
0
70
128
71
28
72
29
73
30
0
VERTEX
8
OBJECT__85
10
0
20
0
30
0
70
128
71
31
72
30
73
32
0
VERTEX
8
OBJECT__85
10
0
20
0
30
0
70
128
71
32
72
33
73
31
0
VERTEX
8
OBJECT__85
10
0
20
0
30
0
70
128
71
34
72
35
73
36
0
VERTEX
8
OBJECT__85
10
0
20
0
30
0
70
128
71
36
72
37
73
34
0
VERTEX
8
OBJECT__85
10
0
20
0
30
0
70
128
71
35
72
38
73
36
0
VERTEX
8
OBJECT__85
10
0
20
0
30
0
70
128
71
7
72
6
73
39
0
VERTEX
8
OBJECT__85
10
0
20
0
30
0
70
128
71
39
72
37
73
7
0
VERTEX
8
OBJECT__85
10
0
20
0
30
0
70
128
71
38
72
35
73
40
0
VERTEX
8
OBJECT__85
10
0
20
0
30
0
70
128
71
40
72
32
73
38
0
VERTEX
8
OBJECT__85
10
0
20
0
30
0
70
128
71
40
72
33
73
32
0
VERTEX
8
OBJECT__85
10
0
20
0
30
0
70
128
71
41
72
42
73
43
0
VERTEX
8
OBJECT__85
10
0
20
0
30
0
70
128
71
44
72
45
73
46
0
VERTEX
8
OBJECT__85
10
0
20
0
30
0
70
128
71
46
72
43
73
44
0
VERTEX
8
OBJECT__85
10
0
20
0
30
0
70
128
71
44
72
29
73
28
0
VERTEX
8
OBJECT__85
10
0
20
0
30
0
70
128
71
41
72
5
73
2
0
VERTEX
8
OBJECT__85
10
0
20
0
30
0
70
128
71
47
72
48
73
49
0
VERTEX
8
OBJECT__85
10
0
20
0
30
0
70
128
71
49
72
50
73
47
0
VERTEX
8
OBJECT__85
10
0
20
0
30
0
70
128
71
23
72
51
73
50
0
VERTEX
8
OBJECT__85
10
0
20
0
30
0
70
128
71
50
72
49
73
23
0
VERTEX
8
OBJECT__85
10
0
20
0
30
0
70
128
71
48
72
52
73
49
0
VERTEX
8
OBJECT__85
10
0
20
0
30
0
70
128
71
2
72
42
73
41
0
VERTEX
8
OBJECT__85
10
0
20
0
30
0
70
128
71
28
72
45
73
44
0
VERTEX
8
OBJECT__85
10
0
20
0
30
0
70
128
71
43
72
46
73
41
0
VERTEX
8
OBJECT__85
10
0
20
0
30
0
70
128
71
39
72
34
73
37
0
VERTEX
8
OBJECT__85
10
0
20
0
30
0
70
128
71
30
72
31
73
28
0
VERTEX
8
OBJECT__85
10
0
20
0
30
0
70
128
71
27
72
25
73
24
0
VERTEX
8
OBJECT__85
10
0
20
0
30
0
70
128
71
25
72
51
73
23
0
VERTEX
8
OBJECT__85
10
0
20
0
30
0
70
128
71
21
72
15
73
18
0
VERTEX
8
OBJECT__85
10
0
20
0
30
0
70
128
71
20
72
1
73
4
0
VERTEX
8
OBJECT__85
10
0
20
0
30
0
70
128
71
16
72
19
73
17
0
VERTEX
8
OBJECT__85
10
0
20
0
30
0
70
128
71
14
72
22
73
12
0
VERTEX
8
OBJECT__85
10
0
20
0
30
0
70
128
71
8
72
11
73
9
0
SEQEND
8
OBJECT__85
0
POLYLINE
8
OBJECT__86
66
1
70
64
71
50
72
48
62
253
0
VERTEX
8
OBJECT__86
10
4.992000
20
-24.951000
30
44.000000
70
192
0
VERTEX
8
OBJECT__86
10
5.072000
20
-25.375999
30
44.200001
70
192
0
VERTEX
8
OBJECT__86
10
0.000000
20
-25.375999
30
44.200001
70
192
0
VERTEX
8
OBJECT__86
10
-0.031000
20
-25.538000
30
44.000000
70
192
0
VERTEX
8
OBJECT__86
10
-25.799999
20
0.000000
30
44.000000
70
192
0
VERTEX
8
OBJECT__86
10
-25.195999
20
-5.020000
30
44.000000
70
192
0
VERTEX
8
OBJECT__86
10
-24.867001
20
-4.927000
30
44.200001
70
192
0
VERTEX
8
OBJECT__86
10
-26.000000
20
0.000000
30
44.200001
70
192
0
VERTEX
8
OBJECT__86
10
18.025000
20
-18.041000
30
44.000000
70
192
0
VERTEX
8
OBJECT__86
10
21.452000
20
-14.334000
30
44.000000
70
192
0
VERTEX
8
OBJECT__86
10
21.187000
20
-14.100000
30
44.200001
70
192
0
VERTEX
8
OBJECT__86
10
9.678000
20
-23.452999
30
44.200001
70
192
0
VERTEX
8
OBJECT__86
10
9.722000
20
-23.549000
30
44.000000
70
192
0
VERTEX
8
OBJECT__86
10
14.198000
20
-21.194000
30
44.000000
70
192
0
VERTEX
8
OBJECT__86
10
5.664000
20
-25.375999
30
44.200001
70
192
0
VERTEX
8
OBJECT__86
10
7.650000
20
-24.639999
30
44.000000
70
192
0
VERTEX
8
OBJECT__86
10
15.975000
20
-20.259001
30
44.000000
70
192
0
VERTEX
8
OBJECT__86
10
18.007000
20
-18.083000
30
44.200001
70
192
0
VERTEX
8
OBJECT__86
10
14.270000
20
-21.253000
30
44.200001
70
192
0
VERTEX
8
OBJECT__86
10
16.222000
20
-20.319000
30
44.200001
70
192
0
VERTEX
8
OBJECT__86
10
23.735001
20
-9.884000
30
44.200001
70
192
0
VERTEX
8
OBJECT__86
10
23.433001
20
-9.701000
30
44.000000
70
192
0
VERTEX
8
OBJECT__86
10
25.181999
20
-5.613000
30
44.000000
70
192
0
VERTEX
8
OBJECT__86
10
24.871000
20
-4.928000
30
44.200001
70
192
0
VERTEX
8
OBJECT__86
10
25.247000
20
-5.027000
30
44.000000
70
192
0
VERTEX
8
OBJECT__86
10
23.405001
20
-11.322000
30
44.200001
70
192
0
VERTEX
8
OBJECT__86
10
25.799999
20
0.000000
30
44.000000
70
192
0
VERTEX
8
OBJECT__86
10
26.000000
20
0.000000
30
44.200001
70
192
0
VERTEX
8
OBJECT__86
10
-14.760000
20
-21.160999
30
44.000000
70
192
0
VERTEX
8
OBJECT__86
10
-14.266000
20
-21.245001
30
44.200001
70
192
0
VERTEX
8
OBJECT__86
10
-16.263000
20
-20.285999
30
44.200001
70
192
0
VERTEX
8
OBJECT__86
10
-18.014999
20
-18.090000
30
44.200001
70
192
0
VERTEX
8
OBJECT__86
10
-14.297000
20
-21.370001
30
44.000000
70
192
0
VERTEX
8
OBJECT__86
10
-17.961000
20
-17.961000
30
44.000000
70
192
0
VERTEX
8
OBJECT__86
10
-23.447001
20
-9.698000
30
44.000000
70
192
0
VERTEX
8
OBJECT__86
10
-21.370001
20
-14.297000
30
44.000000
70
192
0
VERTEX
8
OBJECT__86
10
-21.194000
20
-14.106000
30
44.200001
70
192
0
VERTEX
8
OBJECT__86
10
-23.728001
20
-9.882000
30
44.200001
70
192
0
VERTEX
8
OBJECT__86
10
-23.389999
20
-11.354000
30
44.200001
70
192
0
VERTEX
8
OBJECT__86
10
-25.065001
20
-6.116000
30
44.000000
70
192
0
VERTEX
8
OBJECT__86
10
-21.160999
20
-14.760000
30
44.000000
70
192
0
VERTEX
8
OBJECT__86
10
-5.022000
20
-25.233999
30
44.000000
70
192
0
VERTEX
8
OBJECT__86
10
-5.072000
20
-25.375999
30
44.200001
70
192
0
VERTEX
8
OBJECT__86
10
-5.664000
20
-25.375999
30
44.200001
70
192
0
VERTEX
8
OBJECT__86
10
-9.675000
20
-23.448999
30
44.200001
70
192
0
VERTEX
8
OBJECT__86
10
-9.697000
20
-23.445999
30
44.000000
70
192
0
VERTEX
8
OBJECT__86
10
-6.110000
20
-25.066000
30
44.000000
70
192
0
VERTEX
8
OBJECT__86
10
-1.755000
20
-25.740000
30
44.000000
70
192
0
VERTEX
8
OBJECT__86
10
25.941000
20
0.000000
30
44.058998
70
192
0
VERTEX
8
OBJECT__86
10
-25.941000
20
0.000000
30
44.058998
70
192
0
VERTEX
8
OBJECT__86
10
0
20
0
30
0
70
128
71
1
72
2
73
3
0
VERTEX
8
OBJECT__86
10
0
20
0
30
0
70
128
71
3
72
4
73
1
0
VERTEX
8
OBJECT__86
10
0
20
0
30
0
70
128
71
5
72
6
73
7
0
VERTEX
8
OBJECT__86
10
0
20
0
30
0
70
128
71
7
72
8
73
5
0
VERTEX
8
OBJECT__86
10
0
20
0
30
0
70
128
71
9
72
10
73
11
0
VERTEX
8
OBJECT__86
10
0
20
0
30
0
70
128
71
12
72
13
73
14
0
VERTEX
8
OBJECT__86
10
0
20
0
30
0
70
128
71
15
72
1
73
16
0
VERTEX
8
OBJECT__86
10
0
20
0
30
0
70
128
71
16
72
12
73
15
0
VERTEX
8
OBJECT__86
10
0
20
0
30
0
70
128
71
16
72
13
73
12
0
VERTEX
8
OBJECT__86
10
0
20
0
30
0
70
128
71
15
72
2
73
1
0
VERTEX
8
OBJECT__86
10
0
20
0
30
0
70
128
71
17
72
9
73
18
0
VERTEX
8
OBJECT__86
10
0
20
0
30
0
70
128
71
19
72
14
73
17
0
VERTEX
8
OBJECT__86
10
0
20
0
30
0
70
128
71
17
72
20
73
19
0
VERTEX
8
OBJECT__86
10
0
20
0
30
0
70
128
71
21
72
22
73
23
0
VERTEX
8
OBJECT__86
10
0
20
0
30
0
70
128
71
23
72
24
73
21
0
VERTEX
8
OBJECT__86
10
0
20
0
30
0
70
128
71
23
72
25
73
24
0
VERTEX
8
OBJECT__86
10
0
20
0
30
0
70
128
71
26
72
11
73
10
0
VERTEX
8
OBJECT__86
10
0
20
0
30
0
70
128
71
10
72
22
73
26
0
VERTEX
8
OBJECT__86
10
0
20
0
30
0
70
128
71
27
72
28
73
24
0
VERTEX
8
OBJECT__86
10
0
20
0
30
0
70
128
71
24
72
25
73
27
0
VERTEX
8
OBJECT__86
10
0
20
0
30
0
70
128
71
29
72
30
73
31
0
VERTEX
8
OBJECT__86
10
0
20
0
30
0
70
128
71
31
72
32
73
29
0
VERTEX
8
OBJECT__86
10
0
20
0
30
0
70
128
71
29
72
33
73
30
0
VERTEX
8
OBJECT__86
10
0
20
0
30
0
70
128
71
32
72
34
73
29
0
VERTEX
8
OBJECT__86
10
0
20
0
30
0
70
128
71
35
72
36
73
37
0
VERTEX
8
OBJECT__86
10
0
20
0
30
0
70
128
71
37
72
38
73
35
0
VERTEX
8
OBJECT__86
10
0
20
0
30
0
70
128
71
37
72
39
73
38
0
VERTEX
8
OBJECT__86
10
0
20
0
30
0
70
128
71
38
72
7
73
40
0
VERTEX
8
OBJECT__86
10
0
20
0
30
0
70
128
71
40
72
35
73
38
0
VERTEX
8
OBJECT__86
10
0
20
0
30
0
70
128
71
32
72
37
73
41
0
VERTEX
8
OBJECT__86
10
0
20
0
30
0
70
128
71
41
72
34
73
32
0
VERTEX
8
OBJECT__86
10
0
20
0
30
0
70
128
71
42
72
43
73
44
0
VERTEX
8
OBJECT__86
10
0
20
0
30
0
70
128
71
45
72
46
73
47
0
VERTEX
8
OBJECT__86
10
0
20
0
30
0
70
128
71
47
72
44
73
45
0
VERTEX
8
OBJECT__86
10
0
20
0
30
0
70
128
71
45
72
30
73
33
0
VERTEX
8
OBJECT__86
10
0
20
0
30
0
70
128
71
43
72
42
73
48
0
VERTEX
8
OBJECT__86
10
0
20
0
30
0
70
128
71
48
72
3
73
43
0
VERTEX
8
OBJECT__86
10
0
20
0
30
0
70
128
71
48
72
4
73
3
0
VERTEX
8
OBJECT__86
10
0
20
0
30
0
70
128
71
33
72
46
73
45
0
VERTEX
8
OBJECT__86
10
0
20
0
30
0
70
128
71
44
72
47
73
42
0
VERTEX
8
OBJECT__86
10
0
20
0
30
0
70
128
71
37
72
36
73
41
0
VERTEX
8
OBJECT__86
10
0
20
0
30
0
70
128
71
7
72
6
73
40
0
VERTEX
8
OBJECT__86
10
0
20
0
30
0
70
128
71
27
72
49
73
28
0
VERTEX
8
OBJECT__86
10
0
20
0
30
0
70
128
71
22
72
21
73
26
0
VERTEX
8
OBJECT__86
10
0
20
0
30
0
70
128
71
18
72
20
73
17
0
VERTEX
8
OBJECT__86
10
0
20
0
30
0
70
128
71
14
72
19
73
12
0
VERTEX
8
OBJECT__86
10
0
20
0
30
0
70
128
71
11
72
18
73
9
0
VERTEX
8
OBJECT__86
10
0
20
0
30
0
70
128
71
8
72
50
73
5
0
SEQEND
8
OBJECT__86
0
POLYLINE
8
OBJECT__87
66
1
70
64
71
76
72
74
62
253
0
VERTEX
8
OBJECT__87
10
23.735001
20
-9.884000
30
44.200001
70
192
0
VERTEX
8
OBJECT__87
10
24.871000
20
-4.928000
30
44.200001
70
192
0
VERTEX
8
OBJECT__87
10
24.871000
20
-4.928000
30
144.300003
70
192
0
VERTEX
8
OBJECT__87
10
23.405001
20
-11.322000
30
44.200001
70
192
0
VERTEX
8
OBJECT__87
10
23.735001
20
-9.884000
30
144.300003
70
192
0
VERTEX
8
OBJECT__87
10
23.405001
20
-11.322000
30
144.300003
70
192
0
VERTEX
8
OBJECT__87
10
26.000000
20
0.000000
30
144.300003
70
192
0
VERTEX
8
OBJECT__87
10
26.000000
20
0.000000
30
44.200001
70
192
0
VERTEX
8
OBJECT__87
10
16.222000
20
-20.319000
30
44.200001
70
192
0
VERTEX
8
OBJECT__87
10
18.007000
20
-18.083000
30
44.200001
70
192
0
VERTEX
8
OBJECT__87
10
18.007000
20
-18.083000
30
144.300003
70
192
0
VERTEX
8
OBJECT__87
10
21.187000
20
-14.100000
30
44.200001
70
192
0
VERTEX
8
OBJECT__87
10
21.187000
20
-14.101000
30
144.300003
70
192
0
VERTEX
8
OBJECT__87
10
16.222000
20
-20.319000
30
144.300003
70
192
0
VERTEX
8
OBJECT__87
10
14.270000
20
-21.254000
30
144.300003
70
192
0
VERTEX
8
OBJECT__87
10
14.270000
20
-21.253000
30
44.200001
70
192
0
VERTEX
8
OBJECT__87
10
5.664000
20
-25.375999
30
44.200001
70
192
0
VERTEX
8
OBJECT__87
10
9.678000
20
-23.452999
30
44.200001
70
192
0
VERTEX
8
OBJECT__87
10
9.678000
20
-23.452999
30
144.300003
70
192
0
VERTEX
8
OBJECT__87
10
5.664000
20
-25.375999
30
144.300003
70
192
0
VERTEX
8
OBJECT__87
10
0.000000
20
-25.375999
30
144.300003
70
192
0
VERTEX
8
OBJECT__87
10
-5.072000
20
-25.375999
30
144.300003
70
192
0
VERTEX
8
OBJECT__87
10
-5.072000
20
-25.375999
30
44.200001
70
192
0
VERTEX
8
OBJECT__87
10
-5.664000
20
-25.375999
30
44.200001
70
192
0
VERTEX
8
OBJECT__87
10
-5.664000
20
-25.375999
30
144.300003
70
192
0
VERTEX
8
OBJECT__87
10
5.072000
20
-25.375999
30
144.300003
70
192
0
VERTEX
8
OBJECT__87
10
5.072000
20
-25.375999
30
44.200001
70
192
0
VERTEX
8
OBJECT__87
10
0.000000
20
-25.375999
30
44.200001
70
192
0
VERTEX
8
OBJECT__87
10
-14.266000
20
-21.245001
30
44.200001
70
192
0
VERTEX
8
OBJECT__87
10
-9.675000
20
-23.448999
30
44.200001
70
192
0
VERTEX
8
OBJECT__87
10
-9.675000
20
-23.448999
30
144.300003
70
192
0
VERTEX
8
OBJECT__87
10
-16.263000
20
-20.285999
30
44.200001
70
192
0
VERTEX
8
OBJECT__87
10
-14.266000
20
-21.245001
30
144.300003
70
192
0
VERTEX
8
OBJECT__87
10
-16.263000
20
-20.285999
30
144.300003
70
192
0
VERTEX
8
OBJECT__87
10
-23.389999
20
-11.354000
30
144.300003
70
192
0
VERTEX
8
OBJECT__87
10
-24.688999
20
-8.152000
30
136.897003
70
192
0
VERTEX
8
OBJECT__87
10
-24.011999
20
-9.858000
30
135.261993
70
192
0
VERTEX
8
OBJECT__87
10
-23.728001
20
-9.882000
30
144.300003
70
192
0
VERTEX
8
OBJECT__87
10
-24.867001
20
-4.927000
30
144.300003
70
192
0
VERTEX
8
OBJECT__87
10
-25.584999
20
-4.624000
30
138.722000
70
192
0
VERTEX
8
OBJECT__87
10
-25.386000
20
-5.409000
30
138.315994
70
192
0
VERTEX
8
OBJECT__87
10
-26.000000
20
0.000000
30
144.300003
70
192
0
VERTEX
8
OBJECT__87
10
-25.985001
20
-0.897000
30
139.472000
70
192
0
VERTEX
8
OBJECT__87
10
-26.000000
20
0.000000
30
141.899994
70
192
0
VERTEX
8
OBJECT__87
10
-26.000000
20
0.000000
30
139.500000
70
192
0
VERTEX
8
OBJECT__87
10
-26.000000
20
-0.007000
30
139.500000
70
192
0
VERTEX
8
OBJECT__87
10
-23.558001
20
-11.000000
30
134.166000
70
192
0
VERTEX
8
OBJECT__87
10
-22.934999
20
-12.247000
30
74.080002
70
192
0
VERTEX
8
OBJECT__87
10
-21.194000
20
-14.106000
30
44.200001
70
192
0
VERTEX
8
OBJECT__87
10
-18.014999
20
-18.090000
30
44.200001
70
192
0
VERTEX
8
OBJECT__87
10
-23.361000
20
-11.341000
30
72.872002
70
192
0
VERTEX
8
OBJECT__87
10
-23.389999
20
-11.354000
30
44.200001
70
192
0
VERTEX
8
OBJECT__87
10
-22.132999
20
-13.643000
30
77.775002
70
192
0
VERTEX
8
OBJECT__87
10
-22.648001
20
-12.747000
30
75.403000
70
192
0
VERTEX
8
OBJECT__87
10
-21.907000
20
-14.003000
30
81.566002
70
192
0
VERTEX
8
OBJECT__87
10
-21.955000
20
-13.927000
30
80.766998
70
192
0
VERTEX
8
OBJECT__87
10
-21.907000
20
-14.003000
30
98.222000
70
192
0
VERTEX
8
OBJECT__87
10
-21.907000
20
-14.003000
30
113.712997
70
192
0
VERTEX
8
OBJECT__87
10
-21.907000
20
-14.003000
30
103.000000
70
192
0
VERTEX
8
OBJECT__87
10
-21.907000
20
-14.003000
30
121.834000
70
192
0
VERTEX
8
OBJECT__87
10
-21.969000
20
-13.906000
30
127.028999
70
192
0
VERTEX
8
OBJECT__87
10
-21.950001
20
-13.936000
30
125.420998
70
192
0
VERTEX
8
OBJECT__87
10
-22.535000
20
-12.968000
30
130.744003
70
192
0
VERTEX
8
OBJECT__87
10
-21.194000
20
-14.106000
30
144.300003
70
192
0
VERTEX
8
OBJECT__87
10
-23.378000
20
-11.348000
30
133.561005
70
192
0
VERTEX
8
OBJECT__87
10
-22.566000
20
-12.909000
30
130.845993
70
192
0
VERTEX
8
OBJECT__87
10
-18.014999
20
-18.090000
30
144.300003
70
192
0
VERTEX
8
OBJECT__87
10
-24.867001
20
-4.927000
30
44.200001
70
192
0
VERTEX
8
OBJECT__87
10
-25.725000
20
-3.770000
30
67.362999
70
192
0
VERTEX
8
OBJECT__87
10
-26.000000
20
0.000000
30
66.849998
70
192
0
VERTEX
8
OBJECT__87
10
-26.000000
20
0.000000
30
44.200001
70
192
0
VERTEX
8
OBJECT__87
10
-25.391001
20
-5.357000
30
68.019997
70
192
0
VERTEX
8
OBJECT__87
10
-23.728001
20
-9.882000
30
44.200001
70
192
0
VERTEX
8
OBJECT__87
10
-25.061001
20
-6.923000
30
68.668999
70
192
0
VERTEX
8
OBJECT__87
10
-24.059999
20
-9.856000
30
70.892998
70
192
0
VERTEX
8
OBJECT__87
10
-24.056000
20
-9.864000
30
70.904999
70
192
0
VERTEX
8
OBJECT__87
10
0
20
0
30
0
70
128
71
1
72
2
73
3
0
VERTEX
8
OBJECT__87
10
0
20
0
30
0
70
128
71
4
72
1
73
5
0
VERTEX
8
OBJECT__87
10
0
20
0
30
0
70
128
71
5
72
6
73
4
0
VERTEX
8
OBJECT__87
10
0
20
0
30
0
70
128
71
7
72
3
73
2
0
VERTEX
8
OBJECT__87
10
0
20
0
30
0
70
128
71
2
72
8
73
7
0
VERTEX
8
OBJECT__87
10
0
20
0
30
0
70
128
71
9
72
10
73
11
0
VERTEX
8
OBJECT__87
10
0
20
0
30
0
70
128
71
10
72
12
73
13
0
VERTEX
8
OBJECT__87
10
0
20
0
30
0
70
128
71
13
72
11
73
10
0
VERTEX
8
OBJECT__87
10
0
20
0
30
0
70
128
71
6
72
13
73
12
0
VERTEX
8
OBJECT__87
10
0
20
0
30
0
70
128
71
12
72
4
73
6
0
VERTEX
8
OBJECT__87
10
0
20
0
30
0
70
128
71
14
72
15
73
16
0
VERTEX
8
OBJECT__87
10
0
20
0
30
0
70
128
71
17
72
18
73
19
0
VERTEX
8
OBJECT__87
10
0
20
0
30
0
70
128
71
18
72
16
73
15
0
VERTEX
8
OBJECT__87
10
0
20
0
30
0
70
128
71
15
72
19
73
18
0
VERTEX
8
OBJECT__87
10
0
20
0
30
0
70
128
71
19
72
20
73
17
0
VERTEX
8
OBJECT__87
10
0
20
0
30
0
70
128
71
21
72
22
73
23
0
VERTEX
8
OBJECT__87
10
0
20
0
30
0
70
128
71
24
72
23
73
22
0
VERTEX
8
OBJECT__87
10
0
20
0
30
0
70
128
71
22
72
25
73
24
0
VERTEX
8
OBJECT__87
10
0
20
0
30
0
70
128
71
20
72
26
73
27
0
VERTEX
8
OBJECT__87
10
0
20
0
30
0
70
128
71
28
72
27
73
26
0
VERTEX
8
OBJECT__87
10
0
20
0
30
0
70
128
71
26
72
21
73
28
0
VERTEX
8
OBJECT__87
10
0
20
0
30
0
70
128
71
27
72
17
73
20
0
VERTEX
8
OBJECT__87
10
0
20
0
30
0
70
128
71
29
72
30
73
31
0
VERTEX
8
OBJECT__87
10
0
20
0
30
0
70
128
71
32
72
29
73
33
0
VERTEX
8
OBJECT__87
10
0
20
0
30
0
70
128
71
33
72
34
73
32
0
VERTEX
8
OBJECT__87
10
0
20
0
30
0
70
128
71
25
72
31
73
30
0
VERTEX
8
OBJECT__87
10
0
20
0
30
0
70
128
71
30
72
24
73
25
0
VERTEX
8
OBJECT__87
10
0
20
0
30
0
70
128
71
35
72
36
73
37
0
VERTEX
8
OBJECT__87
10
0
20
0
30
0
70
128
71
36
72
35
73
38
0
VERTEX
8
OBJECT__87
10
0
20
0
30
0
70
128
71
38
72
39
73
40
0
VERTEX
8
OBJECT__87
10
0
20
0
30
0
70
128
71
40
72
41
73
38
0
VERTEX
8
OBJECT__87
10
0
20
0
30
0
70
128
71
39
72
42
73
43
0
VERTEX
8
OBJECT__87
10
0
20
0
30
0
70
128
71
44
72
45
73
46
0
VERTEX
8
OBJECT__87
10
0
20
0
30
0
70
128
71
46
72
43
73
44
0
VERTEX
8
OBJECT__87
10
0
20
0
30
0
70
128
71
43
72
42
73
44
0
VERTEX
8
OBJECT__87
10
0
20
0
30
0
70
128
71
43
72
40
73
39
0
VERTEX
8
OBJECT__87
10
0
20
0
30
0
70
128
71
38
72
41
73
36
0
VERTEX
8
OBJECT__87
10
0
20
0
30
0
70
128
71
37
72
47
73
35
0
VERTEX
8
OBJECT__87
10
0
20
0
30
0
70
128
71
48
72
49
73
50
0
VERTEX
8
OBJECT__87
10
0
20
0
30
0
70
128
71
49
72
48
73
51
0
VERTEX
8
OBJECT__87
10
0
20
0
30
0
70
128
71
51
72
52
73
49
0
VERTEX
8
OBJECT__87
10
0
20
0
30
0
70
128
71
32
72
53
73
54
0
VERTEX
8
OBJECT__87
10
0
20
0
30
0
70
128
71
54
72
48
73
32
0
VERTEX
8
OBJECT__87
10
0
20
0
30
0
70
128
71
32
72
55
73
56
0
VERTEX
8
OBJECT__87
10
0
20
0
30
0
70
128
71
32
72
34
73
57
0
VERTEX
8
OBJECT__87
10
0
20
0
30
0
70
128
71
34
72
58
73
59
0
VERTEX
8
OBJECT__87
10
0
20
0
30
0
70
128
71
34
72
60
73
58
0
VERTEX
8
OBJECT__87
10
0
20
0
30
0
70
128
71
59
72
57
73
34
0
VERTEX
8
OBJECT__87
10
0
20
0
30
0
70
128
71
34
72
61
73
62
0
VERTEX
8
OBJECT__87
10
0
20
0
30
0
70
128
71
62
72
60
73
34
0
VERTEX
8
OBJECT__87
10
0
20
0
30
0
70
128
71
57
72
55
73
32
0
VERTEX
8
OBJECT__87
10
0
20
0
30
0
70
128
71
34
72
63
73
61
0
VERTEX
8
OBJECT__87
10
0
20
0
30
0
70
128
71
64
72
35
73
65
0
VERTEX
8
OBJECT__87
10
0
20
0
30
0
70
128
71
66
72
67
73
64
0
VERTEX
8
OBJECT__87
10
0
20
0
30
0
70
128
71
66
72
34
73
67
0
VERTEX
8
OBJECT__87
10
0
20
0
30
0
70
128
71
65
72
66
73
64
0
VERTEX
8
OBJECT__87
10
0
20
0
30
0
70
128
71
66
72
63
73
34
0
VERTEX
8
OBJECT__87
10
0
20
0
30
0
70
128
71
56
72
53
73
32
0
VERTEX
8
OBJECT__87
10
0
20
0
30
0
70
128
71
68
72
69
73
70
0
VERTEX
8
OBJECT__87
10
0
20
0
30
0
70
128
71
70
72
71
73
68
0
VERTEX
8
OBJECT__87
10
0
20
0
30
0
70
128
71
72
72
69
73
73
0
VERTEX
8
OBJECT__87
10
0
20
0
30
0
70
128
71
52
72
74
73
72
0
VERTEX
8
OBJECT__87
10
0
20
0
30
0
70
128
71
52
72
75
73
74
0
VERTEX
8
OBJECT__87
10
0
20
0
30
0
70
128
71
73
72
52
73
72
0
VERTEX
8
OBJECT__87
10
0
20
0
30
0
70
128
71
52
72
51
73
76
0
VERTEX
8
OBJECT__87
10
0
20
0
30
0
70
128
71
76
72
75
73
52
0
VERTEX
8
OBJECT__87
10
0
20
0
30
0
70
128
71
68
72
73
73
69
0
VERTEX
8
OBJECT__87
10
0
20
0
30
0
70
128
71
50
72
32
73
48
0
VERTEX
8
OBJECT__87
10
0
20
0
30
0
70
128
71
47
72
65
73
35
0
VERTEX
8
OBJECT__87
10
0
20
0
30
0
70
128
71
31
72
33
73
29
0
VERTEX
8
OBJECT__87
10
0
20
0
30
0
70
128
71
23
72
28
73
21
0
VERTEX
8
OBJECT__87
10
0
20
0
30
0
70
128
71
16
72
9
73
14
0
VERTEX
8
OBJECT__87
10
0
20
0
30
0
70
128
71
11
72
14
73
9
0
VERTEX
8
OBJECT__87
10
0
20
0
30
0
70
128
71
3
72
5
73
1
0
SEQEND
8
OBJECT__87
0
POLYLINE
8
OBJECT__88
66
1
70
64
71
39
72
37
62
253
0
VERTEX
8
OBJECT__88
10
-24.843000
20
7.668000
30
137.227997
70
192
0
VERTEX
8
OBJECT__88
10
-25.951000
20
6.726000
30
136.093994
70
192
0
VERTEX
8
OBJECT__88
10
-26.229000
20
5.480000
30
136.679001
70
192
0
VERTEX
8
OBJECT__88
10
-25.386999
20
5.386000
30
138.319000
70
192
0
VERTEX
8
OBJECT__88
10
-24.171000
20
9.580000
30
135.723999
70
192
0
VERTEX
8
OBJECT__88
10
-25.051001
20
9.204000
30
133.912003
70
192
0
VERTEX
8
OBJECT__88
10
-24.028999
20
9.906000
30
135.358994
70
192
0
VERTEX
8
OBJECT__88
10
-21.945000
20
13.944000
30
125.431999
70
192
0
VERTEX
8
OBJECT__88
10
-21.907000
20
14.003000
30
118.904999
70
192
0
VERTEX
8
OBJECT__88
10
-23.377001
20
12.831000
30
120.603996
70
192
0
VERTEX
8
OBJECT__88
10
-23.399000
20
12.740000
30
123.761002
70
192
0
VERTEX
8
OBJECT__88
10
-23.150999
20
12.961000
30
103.000000
70
192
0
VERTEX
8
OBJECT__88
10
-23.393999
20
12.886000
30
103.000000
70
192
0
VERTEX
8
OBJECT__88
10
-23.391001
20
12.877000
30
111.475998
70
192
0
VERTEX
8
OBJECT__88
10
-21.907000
20
14.003000
30
103.000000
70
192
0
VERTEX
8
OBJECT__88
10
-26.209000
20
0.005000
30
138.718002
70
192
0
VERTEX
8
OBJECT__88
10
-26.000000
20
0.007000
30
139.500000
70
192
0
VERTEX
8
OBJECT__88
10
-25.993999
20
0.556000
30
139.488998
70
192
0
VERTEX
8
OBJECT__88
10
-26.000000
20
0.000000
30
139.500000
70
192
0
VERTEX
8
OBJECT__88
10
-25.920000
20
1.333000
30
139.350998
70
192
0
VERTEX
8
OBJECT__88
10
-26.000000
20
-0.007000
30
139.500000
70
192
0
VERTEX
8
OBJECT__88
10
-26.882000
20
1.437000
30
138.100006
70
192
0
VERTEX
8
OBJECT__88
10
-26.952000
20
0.525000
30
138.270996
70
192
0
VERTEX
8
OBJECT__88
10
-25.632999
20
4.353000
30
138.813004
70
192
0
VERTEX
8
OBJECT__88
10
-26.791000
20
2.628000
30
137.878006
70
192
0
VERTEX
8
OBJECT__88
10
-26.753000
20
3.130000
30
137.783997
70
192
0
VERTEX
8
OBJECT__88
10
-26.990999
20
0.016000
30
138.365997
70
192
0
VERTEX
8
OBJECT__88
10
-26.329000
20
5.030000
30
136.891006
70
192
0
VERTEX
8
OBJECT__88
10
-23.483999
20
11.158000
30
133.959000
70
192
0
VERTEX
8
OBJECT__88
10
-24.861000
20
9.728000
30
133.451996
70
192
0
VERTEX
8
OBJECT__88
10
-23.958000
20
11.643000
30
130.442993
70
192
0
VERTEX
8
OBJECT__88
10
-23.219999
20
11.659000
30
133.044998
70
192
0
VERTEX
8
OBJECT__88
10
-22.582001
20
12.867000
30
130.837997
70
192
0
VERTEX
8
OBJECT__88
10
-23.820999
20
11.898000
30
129.580994
70
192
0
VERTEX
8
OBJECT__88
10
-22.466999
20
13.086000
30
130.438004
70
192
0
VERTEX
8
OBJECT__88
10
-23.722000
20
12.085000
30
128.951004
70
192
0
VERTEX
8
OBJECT__88
10
-21.952999
20
13.931000
30
126.795998
70
192
0
VERTEX
8
OBJECT__88
10
-23.422001
20
12.645000
30
127.060997
70
192
0
VERTEX
8
OBJECT__88
10
-23.403999
20
12.721000
30
124.406998
70
192
0
VERTEX
8
OBJECT__88
10
0
20
0
30
0
70
128
71
1
72
2
73
3
0
VERTEX
8
OBJECT__88
10
0
20
0
30
0
70
128
71
3
72
4
73
1
0
VERTEX
8
OBJECT__88
10
0
20
0
30
0
70
128
71
2
72
1
73
5
0
VERTEX
8
OBJECT__88
10
0
20
0
30
0
70
128
71
5
72
6
73
2
0
VERTEX
8
OBJECT__88
10
0
20
0
30
0
70
128
71
5
72
7
73
6
0
VERTEX
8
OBJECT__88
10
0
20
0
30
0
70
128
71
8
72
9
73
10
0
VERTEX
8
OBJECT__88
10
0
20
0
30
0
70
128
71
10
72
11
73
8
0
VERTEX
8
OBJECT__88
10
0
20
0
30
0
70
128
71
12
72
13
73
14
0
VERTEX
8
OBJECT__88
10
0
20
0
30
0
70
128
71
12
72
10
73
9
0
VERTEX
8
OBJECT__88
10
0
20
0
30
0
70
128
71
9
72
15
73
12
0
VERTEX
8
OBJECT__88
10
0
20
0
30
0
70
128
71
14
72
10
73
12
0
VERTEX
8
OBJECT__88
10
0
20
0
30
0
70
128
71
16
72
17
73
18
0
VERTEX
8
OBJECT__88
10
0
20
0
30
0
70
128
71
16
72
19
73
17
0
VERTEX
8
OBJECT__88
10
0
20
0
30
0
70
128
71
18
72
20
73
16
0
VERTEX
8
OBJECT__88
10
0
20
0
30
0
70
128
71
16
72
21
73
19
0
VERTEX
8
OBJECT__88
10
0
20
0
30
0
70
128
71
16
72
22
73
23
0
VERTEX
8
OBJECT__88
10
0
20
0
30
0
70
128
71
24
72
25
73
22
0
VERTEX
8
OBJECT__88
10
0
20
0
30
0
70
128
71
22
72
16
73
24
0
VERTEX
8
OBJECT__88
10
0
20
0
30
0
70
128
71
24
72
26
73
25
0
VERTEX
8
OBJECT__88
10
0
20
0
30
0
70
128
71
23
72
27
73
16
0
VERTEX
8
OBJECT__88
10
0
20
0
30
0
70
128
71
28
72
26
73
24
0
VERTEX
8
OBJECT__88
10
0
20
0
30
0
70
128
71
24
72
4
73
28
0
VERTEX
8
OBJECT__88
10
0
20
0
30
0
70
128
71
7
72
29
73
30
0
VERTEX
8
OBJECT__88
10
0
20
0
30
0
70
128
71
31
72
30
73
32
0
VERTEX
8
OBJECT__88
10
0
20
0
30
0
70
128
71
30
72
29
73
32
0
VERTEX
8
OBJECT__88
10
0
20
0
30
0
70
128
71
32
72
33
73
31
0
VERTEX
8
OBJECT__88
10
0
20
0
30
0
70
128
71
33
72
34
73
31
0
VERTEX
8
OBJECT__88
10
0
20
0
30
0
70
128
71
35
72
36
73
34
0
VERTEX
8
OBJECT__88
10
0
20
0
30
0
70
128
71
37
72
38
73
36
0
VERTEX
8
OBJECT__88
10
0
20
0
30
0
70
128
71
36
72
35
73
37
0
VERTEX
8
OBJECT__88
10
0
20
0
30
0
70
128
71
38
72
37
73
8
0
VERTEX
8
OBJECT__88
10
0
20
0
30
0
70
128
71
8
72
39
73
38
0
VERTEX
8
OBJECT__88
10
0
20
0
30
0
70
128
71
34
72
33
73
35
0
VERTEX
8
OBJECT__88
10
0
20
0
30
0
70
128
71
30
72
6
73
7
0
VERTEX
8
OBJECT__88
10
0
20
0
30
0
70
128
71
20
72
24
73
16
0
VERTEX
8
OBJECT__88
10
0
20
0
30
0
70
128
71
11
72
39
73
8
0
VERTEX
8
OBJECT__88
10
0
20
0
30
0
70
128
71
3
72
28
73
4
0
SEQEND
8
OBJECT__88
0
POLYLINE
8
OBJECT__89
66
1
70
64
71
32
72
30
62
253
0
VERTEX
8
OBJECT__89
10
-25.386000
20
-5.409000
30
138.315994
70
192
0
VERTEX
8
OBJECT__89
10
-26.209000
20
0.005000
30
138.718002
70
192
0
VERTEX
8
OBJECT__89
10
-26.889999
20
-1.402000
30
138.115005
70
192
0
VERTEX
8
OBJECT__89
10
-26.990999
20
0.016000
30
138.365997
70
192
0
VERTEX
8
OBJECT__89
10
-26.780001
20
-2.936000
30
137.843002
70
192
0
VERTEX
8
OBJECT__89
10
-25.584999
20
-4.624000
30
138.722000
70
192
0
VERTEX
8
OBJECT__89
10
-25.985001
20
-0.897000
30
139.472000
70
192
0
VERTEX
8
OBJECT__89
10
-26.000000
20
-0.007000
30
139.500000
70
192
0
VERTEX
8
OBJECT__89
10
-24.011999
20
-9.858000
30
135.261993
70
192
0
VERTEX
8
OBJECT__89
10
-25.054001
20
-9.267000
30
133.970001
70
192
0
VERTEX
8
OBJECT__89
10
-24.896000
20
-9.610000
30
133.472000
70
192
0
VERTEX
8
OBJECT__89
10
-23.378000
20
-11.348000
30
133.561005
70
192
0
VERTEX
8
OBJECT__89
10
-23.558001
20
-11.000000
30
134.166000
70
192
0
VERTEX
8
OBJECT__89
10
-24.014999
20
-11.530000
30
130.681000
70
192
0
VERTEX
8
OBJECT__89
10
-22.566000
20
-12.909000
30
130.845993
70
192
0
VERTEX
8
OBJECT__89
10
-24.688999
20
-8.152000
30
136.897003
70
192
0
VERTEX
8
OBJECT__89
10
-26.232000
20
-5.490000
30
136.690002
70
192
0
VERTEX
8
OBJECT__89
10
-26.010000
20
-6.529000
30
136.220001
70
192
0
VERTEX
8
OBJECT__89
10
-26.330999
20
-5.031000
30
136.897003
70
192
0
VERTEX
8
OBJECT__89
10
-23.420000
20
-12.649000
30
127.030998
70
192
0
VERTEX
8
OBJECT__89
10
-23.400999
20
-12.726000
30
124.362999
70
192
0
VERTEX
8
OBJECT__89
10
-21.950001
20
-13.936000
30
125.420998
70
192
0
VERTEX
8
OBJECT__89
10
-21.969000
20
-13.906000
30
127.028999
70
192
0
VERTEX
8
OBJECT__89
10
-22.535000
20
-12.968000
30
130.744003
70
192
0
VERTEX
8
OBJECT__89
10
-23.732000
20
-12.063000
30
128.942001
70
192
0
VERTEX
8
OBJECT__89
10
-23.830000
20
-11.878000
30
129.546997
70
192
0
VERTEX
8
OBJECT__89
10
-23.393999
20
-12.886000
30
103.000000
70
192
0
VERTEX
8
OBJECT__89
10
-21.907000
20
-14.003000
30
103.000000
70
192
0
VERTEX
8
OBJECT__89
10
-21.907000
20
-14.003000
30
113.712997
70
192
0
VERTEX
8
OBJECT__89
10
-23.377001
20
-12.830000
30
120.797997
70
192
0
VERTEX
8
OBJECT__89
10
-21.907000
20
-14.003000
30
121.834000
70
192
0
VERTEX
8
OBJECT__89
10
-23.396999
20
-12.744000
30
123.761002
70
192
0
VERTEX
8
OBJECT__89
10
0
20
0
30
0
70
128
71
1
72
2
73
3
0
VERTEX
8
OBJECT__89
10
0
20
0
30
0
70
128
71
2
72
4
73
3
0
VERTEX
8
OBJECT__89
10
0
20
0
30
0
70
128
71
3
72
5
73
1
0
VERTEX
8
OBJECT__89
10
0
20
0
30
0
70
128
71
2
72
1
73
6
0
VERTEX
8
OBJECT__89
10
0
20
0
30
0
70
128
71
6
72
7
73
2
0
VERTEX
8
OBJECT__89
10
0
20
0
30
0
70
128
71
7
72
8
73
2
0
VERTEX
8
OBJECT__89
10
0
20
0
30
0
70
128
71
9
72
10
73
11
0
VERTEX
8
OBJECT__89
10
0
20
0
30
0
70
128
71
11
72
12
73
13
0
VERTEX
8
OBJECT__89
10
0
20
0
30
0
70
128
71
14
72
15
73
12
0
VERTEX
8
OBJECT__89
10
0
20
0
30
0
70
128
71
12
72
11
73
14
0
VERTEX
8
OBJECT__89
10
0
20
0
30
0
70
128
71
11
72
13
73
9
0
VERTEX
8
OBJECT__89
10
0
20
0
30
0
70
128
71
10
72
9
73
16
0
VERTEX
8
OBJECT__89
10
0
20
0
30
0
70
128
71
1
72
17
73
18
0
VERTEX
8
OBJECT__89
10
0
20
0
30
0
70
128
71
1
72
19
73
17
0
VERTEX
8
OBJECT__89
10
0
20
0
30
0
70
128
71
18
72
16
73
1
0
VERTEX
8
OBJECT__89
10
0
20
0
30
0
70
128
71
20
72
21
73
22
0
VERTEX
8
OBJECT__89
10
0
20
0
30
0
70
128
71
23
72
24
73
25
0
VERTEX
8
OBJECT__89
10
0
20
0
30
0
70
128
71
24
72
15
73
26
0
VERTEX
8
OBJECT__89
10
0
20
0
30
0
70
128
71
26
72
25
73
24
0
VERTEX
8
OBJECT__89
10
0
20
0
30
0
70
128
71
25
72
20
73
23
0
VERTEX
8
OBJECT__89
10
0
20
0
30
0
70
128
71
27
72
28
73
29
0
VERTEX
8
OBJECT__89
10
0
20
0
30
0
70
128
71
29
72
30
73
27
0
VERTEX
8
OBJECT__89
10
0
20
0
30
0
70
128
71
31
72
22
73
32
0
VERTEX
8
OBJECT__89
10
0
20
0
30
0
70
128
71
22
72
21
73
32
0
VERTEX
8
OBJECT__89
10
0
20
0
30
0
70
128
71
32
72
30
73
31
0
VERTEX
8
OBJECT__89
10
0
20
0
30
0
70
128
71
29
72
31
73
30
0
VERTEX
8
OBJECT__89
10
0
20
0
30
0
70
128
71
22
72
23
73
20
0
VERTEX
8
OBJECT__89
10
0
20
0
30
0
70
128
71
16
72
18
73
10
0
VERTEX
8
OBJECT__89
10
0
20
0
30
0
70
128
71
14
72
26
73
15
0
VERTEX
8
OBJECT__89
10
0
20
0
30
0
70
128
71
5
72
19
73
1
0
SEQEND
8
OBJECT__89
0
POLYLINE
8
OBJECT__90
66
1
70
64
71
34
72
32
62
253
0
VERTEX
8
OBJECT__90
10
-23.865999
20
11.821000
30
76.317001
70
192
0
VERTEX
8
OBJECT__90
10
-22.599001
20
12.844000
30
75.394997
70
192
0
VERTEX
8
OBJECT__90
10
-23.216999
20
11.657000
30
73.329002
70
192
0
VERTEX
8
OBJECT__90
10
-24.872000
20
9.701000
30
72.865997
70
192
0
VERTEX
8
OBJECT__90
10
-24.038000
20
9.793000
30
71.026001
70
192
0
VERTEX
8
OBJECT__90
10
-25.076000
20
9.138000
30
72.373001
70
192
0
VERTEX
8
OBJECT__90
10
-23.559000
20
11.000000
30
72.183998
70
192
0
VERTEX
8
OBJECT__90
10
-24.688999
20
8.153000
30
69.454002
70
192
0
VERTEX
8
OBJECT__90
10
-25.400999
20
5.361000
30
68.004997
70
192
0
VERTEX
8
OBJECT__90
10
-26.240000
20
5.438000
30
69.646004
70
192
0
VERTEX
8
OBJECT__90
10
-25.959000
20
6.701000
30
70.239998
70
192
0
VERTEX
8
OBJECT__90
10
-26.340000
20
4.992000
30
69.435997
70
192
0
VERTEX
8
OBJECT__90
10
-23.408001
20
12.671000
30
79.485001
70
192
0
VERTEX
8
OBJECT__90
10
-23.396000
20
12.732000
30
81.810997
70
192
0
VERTEX
8
OBJECT__90
10
-21.952000
20
13.932000
30
80.765999
70
192
0
VERTEX
8
OBJECT__90
10
-21.969000
20
13.906000
30
79.320000
70
192
0
VERTEX
8
OBJECT__90
10
-22.533001
20
12.972000
30
75.616997
70
192
0
VERTEX
8
OBJECT__90
10
-23.732000
20
12.071000
30
77.249001
70
192
0
VERTEX
8
OBJECT__90
10
-23.819000
20
11.909000
30
76.647003
70
192
0
VERTEX
8
OBJECT__90
10
-26.209000
20
0.000000
30
67.633003
70
192
0
VERTEX
8
OBJECT__90
10
-26.879000
20
1.453000
30
68.258003
70
192
0
VERTEX
8
OBJECT__90
10
-26.990999
20
0.000000
30
67.986000
70
192
0
VERTEX
8
OBJECT__90
10
-26.746000
20
3.170000
30
68.580002
70
192
0
VERTEX
8
OBJECT__90
10
-25.936001
20
1.334000
30
66.970001
70
192
0
VERTEX
8
OBJECT__90
10
-25.985001
20
0.876000
30
66.876999
70
192
0
VERTEX
8
OBJECT__90
10
-25.579000
20
4.662000
30
67.641998
70
192
0
VERTEX
8
OBJECT__90
10
-26.000000
20
0.000000
30
66.849998
70
192
0
VERTEX
8
OBJECT__90
10
-23.150999
20
12.961000
30
103.000000
70
192
0
VERTEX
8
OBJECT__90
10
-21.907000
20
14.003000
30
103.000000
70
192
0
VERTEX
8
OBJECT__90
10
-21.907000
20
14.003000
30
92.605003
70
192
0
VERTEX
8
OBJECT__90
10
-23.377001
20
12.830000
30
85.574997
70
192
0
VERTEX
8
OBJECT__90
10
-23.393999
20
12.886000
30
103.000000
70
192
0
VERTEX
8
OBJECT__90
10
-21.907000
20
14.003000
30
84.666000
70
192
0
VERTEX
8
OBJECT__90
10
-23.393000
20
12.747000
30
82.393997
70
192
0
VERTEX
8
OBJECT__90
10
0
20
0
30
0
70
128
71
1
72
2
73
3
0
VERTEX
8
OBJECT__90
10
0
20
0
30
0
70
128
71
3
72
4
73
1
0
VERTEX
8
OBJECT__90
10
0
20
0
30
0
70
128
71
5
72
6
73
4
0
VERTEX
8
OBJECT__90
10
0
20
0
30
0
70
128
71
4
72
7
73
5
0
VERTEX
8
OBJECT__90
10
0
20
0
30
0
70
128
71
3
72
7
73
4
0
VERTEX
8
OBJECT__90
10
0
20
0
30
0
70
128
71
6
72
5
73
8
0
VERTEX
8
OBJECT__90
10
0
20
0
30
0
70
128
71
9
72
10
73
11
0
VERTEX
8
OBJECT__90
10
0
20
0
30
0
70
128
71
9
72
12
73
10
0
VERTEX
8
OBJECT__90
10
0
20
0
30
0
70
128
71
11
72
8
73
9
0
VERTEX
8
OBJECT__90
10
0
20
0
30
0
70
128
71
13
72
14
73
15
0
VERTEX
8
OBJECT__90
10
0
20
0
30
0
70
128
71
16
72
17
73
18
0
VERTEX
8
OBJECT__90
10
0
20
0
30
0
70
128
71
17
72
2
73
19
0
VERTEX
8
OBJECT__90
10
0
20
0
30
0
70
128
71
19
72
18
73
17
0
VERTEX
8
OBJECT__90
10
0
20
0
30
0
70
128
71
18
72
13
73
16
0
VERTEX
8
OBJECT__90
10
0
20
0
30
0
70
128
71
9
72
20
73
21
0
VERTEX
8
OBJECT__90
10
0
20
0
30
0
70
128
71
20
72
22
73
21
0
VERTEX
8
OBJECT__90
10
0
20
0
30
0
70
128
71
21
72
23
73
9
0
VERTEX
8
OBJECT__90
10
0
20
0
30
0
70
128
71
20
72
24
73
25
0
VERTEX
8
OBJECT__90
10
0
20
0
30
0
70
128
71
20
72
9
73
26
0
VERTEX
8
OBJECT__90
10
0
20
0
30
0
70
128
71
26
72
24
73
20
0
VERTEX
8
OBJECT__90
10
0
20
0
30
0
70
128
71
25
72
27
73
20
0
VERTEX
8
OBJECT__90
10
0
20
0
30
0
70
128
71
28
72
29
73
30
0
VERTEX
8
OBJECT__90
10
0
20
0
30
0
70
128
71
31
72
32
73
28
0
VERTEX
8
OBJECT__90
10
0
20
0
30
0
70
128
71
30
72
31
73
28
0
VERTEX
8
OBJECT__90
10
0
20
0
30
0
70
128
71
33
72
15
73
34
0
VERTEX
8
OBJECT__90
10
0
20
0
30
0
70
128
71
15
72
14
73
34
0
VERTEX
8
OBJECT__90
10
0
20
0
30
0
70
128
71
34
72
31
73
33
0
VERTEX
8
OBJECT__90
10
0
20
0
30
0
70
128
71
30
72
33
73
31
0
VERTEX
8
OBJECT__90
10
0
20
0
30
0
70
128
71
23
72
12
73
9
0
VERTEX
8
OBJECT__90
10
0
20
0
30
0
70
128
71
15
72
16
73
13
0
VERTEX
8
OBJECT__90
10
0
20
0
30
0
70
128
71
8
72
11
73
6
0
VERTEX
8
OBJECT__90
10
0
20
0
30
0
70
128
71
1
72
19
73
2
0
SEQEND
8
OBJECT__90
0
POLYLINE
8
OBJECT__91
66
1
70
64
71
36
72
34
62
253
0
VERTEX
8
OBJECT__91
10
-22.648001
20
-12.747000
30
75.403000
70
192
0
VERTEX
8
OBJECT__91
10
-22.132999
20
-13.643000
30
77.775002
70
192
0
VERTEX
8
OBJECT__91
10
-23.726999
20
-12.080000
30
77.247002
70
192
0
VERTEX
8
OBJECT__91
10
-23.413000
20
-12.661000
30
79.408997
70
192
0
VERTEX
8
OBJECT__91
10
-21.955000
20
-13.927000
30
80.766998
70
192
0
VERTEX
8
OBJECT__91
10
-23.393999
20
-12.740000
30
81.792999
70
192
0
VERTEX
8
OBJECT__91
10
-24.056000
20
-9.864000
30
70.904999
70
192
0
VERTEX
8
OBJECT__91
10
-23.361000
20
-11.341000
30
72.872002
70
192
0
VERTEX
8
OBJECT__91
10
-24.725000
20
-10.040000
30
73.280998
70
192
0
VERTEX
8
OBJECT__91
10
-24.910000
20
-9.555000
30
72.815002
70
192
0
VERTEX
8
OBJECT__91
10
-22.934999
20
-12.247000
30
74.080002
70
192
0
VERTEX
8
OBJECT__91
10
-23.854000
20
-11.845000
30
76.373001
70
192
0
VERTEX
8
OBJECT__91
10
-23.816000
20
-11.916000
30
76.637001
70
192
0
VERTEX
8
OBJECT__91
10
-26.237000
20
-5.430000
30
69.664001
70
192
0
VERTEX
8
OBJECT__91
10
-25.391001
20
-5.357000
30
68.019997
70
192
0
VERTEX
8
OBJECT__91
10
-25.061001
20
-6.923000
30
68.668999
70
192
0
VERTEX
8
OBJECT__91
10
-25.768000
20
-7.315000
30
70.662003
70
192
0
VERTEX
8
OBJECT__91
10
-24.059999
20
-9.856000
30
70.892998
70
192
0
VERTEX
8
OBJECT__91
10
-25.083000
20
-9.103000
30
72.379997
70
192
0
VERTEX
8
OBJECT__91
10
-26.209000
20
0.000000
30
67.633003
70
192
0
VERTEX
8
OBJECT__91
10
-26.000000
20
0.000000
30
66.849998
70
192
0
VERTEX
8
OBJECT__91
10
-25.725000
20
-3.770000
30
67.362999
70
192
0
VERTEX
8
OBJECT__91
10
-26.982000
20
-0.578000
30
68.015999
70
192
0
VERTEX
8
OBJECT__91
10
-26.985001
20
-0.377000
30
68.005997
70
192
0
VERTEX
8
OBJECT__91
10
-26.754999
20
-2.762000
30
68.540001
70
192
0
VERTEX
8
OBJECT__91
10
-26.652000
20
-3.760000
30
68.778999
70
192
0
VERTEX
8
OBJECT__91
10
-26.922001
20
-1.153000
30
68.153999
70
192
0
VERTEX
8
OBJECT__91
10
-26.346001
20
-4.989000
30
69.430000
70
192
0
VERTEX
8
OBJECT__91
10
-26.990999
20
0.000000
30
67.986000
70
192
0
VERTEX
8
OBJECT__91
10
-21.907000
20
-14.003000
30
81.566002
70
192
0
VERTEX
8
OBJECT__91
10
-23.389000
20
-12.760000
30
82.394997
70
192
0
VERTEX
8
OBJECT__91
10
-23.374001
20
-12.821000
30
84.230003
70
192
0
VERTEX
8
OBJECT__91
10
-21.907000
20
-14.003000
30
98.222000
70
192
0
VERTEX
8
OBJECT__91
10
-23.386999
20
-12.863000
30
91.156998
70
192
0
VERTEX
8
OBJECT__91
10
-23.393999
20
-12.886000
30
103.000000
70
192
0
VERTEX
8
OBJECT__91
10
-21.907000
20
-14.003000
30
103.000000
70
192
0
VERTEX
8
OBJECT__91
10
0
20
0
30
0
70
128
71
1
72
2
73
3
0
VERTEX
8
OBJECT__91
10
0
20
0
30
0
70
128
71
2
72
4
73
3
0
VERTEX
8
OBJECT__91
10
0
20
0
30
0
70
128
71
5
72
6
73
4
0
VERTEX
8
OBJECT__91
10
0
20
0
30
0
70
128
71
4
72
2
73
5
0
VERTEX
8
OBJECT__91
10
0
20
0
30
0
70
128
71
7
72
8
73
9
0
VERTEX
8
OBJECT__91
10
0
20
0
30
0
70
128
71
9
72
10
73
7
0
VERTEX
8
OBJECT__91
10
0
20
0
30
0
70
128
71
9
72
8
73
11
0
VERTEX
8
OBJECT__91
10
0
20
0
30
0
70
128
71
11
72
12
73
9
0
VERTEX
8
OBJECT__91
10
0
20
0
30
0
70
128
71
11
72
1
73
12
0
VERTEX
8
OBJECT__91
10
0
20
0
30
0
70
128
71
1
72
13
73
12
0
VERTEX
8
OBJECT__91
10
0
20
0
30
0
70
128
71
14
72
15
73
16
0
VERTEX
8
OBJECT__91
10
0
20
0
30
0
70
128
71
16
72
17
73
14
0
VERTEX
8
OBJECT__91
10
0
20
0
30
0
70
128
71
18
72
19
73
17
0
VERTEX
8
OBJECT__91
10
0
20
0
30
0
70
128
71
17
72
16
73
18
0
VERTEX
8
OBJECT__91
10
0
20
0
30
0
70
128
71
18
72
7
73
19
0
VERTEX
8
OBJECT__91
10
0
20
0
30
0
70
128
71
20
72
21
73
22
0
VERTEX
8
OBJECT__91
10
0
20
0
30
0
70
128
71
20
72
23
73
24
0
VERTEX
8
OBJECT__91
10
0
20
0
30
0
70
128
71
20
72
15
73
25
0
VERTEX
8
OBJECT__91
10
0
20
0
30
0
70
128
71
15
72
26
73
25
0
VERTEX
8
OBJECT__91
10
0
20
0
30
0
70
128
71
25
72
27
73
20
0
VERTEX
8
OBJECT__91
10
0
20
0
30
0
70
128
71
15
72
28
73
26
0
VERTEX
8
OBJECT__91
10
0
20
0
30
0
70
128
71
27
72
23
73
20
0
VERTEX
8
OBJECT__91
10
0
20
0
30
0
70
128
71
24
72
29
73
20
0
VERTEX
8
OBJECT__91
10
0
20
0
30
0
70
128
71
30
72
31
73
6
0
VERTEX
8
OBJECT__91
10
0
20
0
30
0
70
128
71
30
72
32
73
31
0
VERTEX
8
OBJECT__91
10
0
20
0
30
0
70
128
71
30
72
33
73
34
0
VERTEX
8
OBJECT__91
10
0
20
0
30
0
70
128
71
35
72
34
73
33
0
VERTEX
8
OBJECT__91
10
0
20
0
30
0
70
128
71
33
72
36
73
35
0
VERTEX
8
OBJECT__91
10
0
20
0
30
0
70
128
71
34
72
32
73
30
0
VERTEX
8
OBJECT__91
10
0
20
0
30
0
70
128
71
6
72
5
73
30
0
VERTEX
8
OBJECT__91
10
0
20
0
30
0
70
128
71
22
72
15
73
20
0
VERTEX
8
OBJECT__91
10
0
20
0
30
0
70
128
71
14
72
28
73
15
0
VERTEX
8
OBJECT__91
10
0
20
0
30
0
70
128
71
10
72
19
73
7
0
VERTEX
8
OBJECT__91
10
0
20
0
30
0
70
128
71
3
72
13
73
1
0
SEQEND
8
OBJECT__91
0
POLYLINE
8
OBJECT__92
66
1
70
64
71
80
72
109
62
253
0
VERTEX
8
OBJECT__92
10
-30.167999
20
-5.700000
30
131.811996
70
192
0
VERTEX
8
OBJECT__92
10
-27.729000
20
-8.039000
30
132.570999
70
192
0
VERTEX
8
OBJECT__92
10
-27.658001
20
-4.790000
30
136.354996
70
192
0
VERTEX
8
OBJECT__92
10
-31.695999
20
-2.957000
30
131.356003
70
192
0
VERTEX
8
OBJECT__92
10
-29.184999
20
-3.391000
30
135.936005
70
192
0
VERTEX
8
OBJECT__92
10
-30.139000
20
-1.757000
30
135.684006
70
192
0
VERTEX
8
OBJECT__92
10
-28.108000
20
-2.002000
30
137.524002
70
192
0
VERTEX
8
OBJECT__92
10
-28.881001
20
0.000000
30
137.376999
70
192
0
VERTEX
8
OBJECT__92
10
-30.464001
20
0.000000
30
135.600006
70
192
0
VERTEX
8
OBJECT__92
10
-32.217999
20
0.000000
30
131.203995
70
192
0
VERTEX
8
OBJECT__92
10
-32.189999
20
-3.751000
30
126.670998
70
192
0
VERTEX
8
OBJECT__92
10
-30.309000
20
-7.213000
30
127.149002
70
192
0
VERTEX
8
OBJECT__92
10
-27.320999
20
-10.130000
30
127.946999
70
192
0
VERTEX
8
OBJECT__92
10
-27.108000
20
-10.779000
30
122.918999
70
192
0
VERTEX
8
OBJECT__92
10
-30.221001
20
-7.741000
30
122.275002
70
192
0
VERTEX
8
OBJECT__92
10
-32.833000
20
0.000000
30
126.512001
70
192
0
VERTEX
8
OBJECT__92
10
-32.195000
20
-4.045000
30
121.889000
70
192
0
VERTEX
8
OBJECT__92
10
-31.695999
20
2.956000
30
131.356003
70
192
0
VERTEX
8
OBJECT__92
10
-32.195000
20
4.044000
30
121.889000
70
192
0
VERTEX
8
OBJECT__92
10
-32.873001
20
0.000000
30
121.760002
70
192
0
VERTEX
8
OBJECT__92
10
-32.189999
20
3.750000
30
126.670998
70
192
0
VERTEX
8
OBJECT__92
10
-30.139000
20
1.757000
30
135.684006
70
192
0
VERTEX
8
OBJECT__92
10
-28.684999
20
1.037000
30
137.414001
70
192
0
VERTEX
8
OBJECT__92
10
-29.184999
20
3.391000
30
135.936005
70
192
0
VERTEX
8
OBJECT__92
10
-30.167999
20
5.699000
30
131.811996
70
192
0
VERTEX
8
OBJECT__92
10
-30.221001
20
7.741000
30
122.275002
70
192
0
VERTEX
8
OBJECT__92
10
-30.309000
20
7.213000
30
127.149002
70
192
0
VERTEX
8
OBJECT__92
10
-27.730000
20
8.039000
30
132.570999
70
192
0
VERTEX
8
OBJECT__92
10
-27.658001
20
4.790000
30
136.354996
70
192
0
VERTEX
8
OBJECT__92
10
-27.108000
20
10.779000
30
122.918999
70
192
0
VERTEX
8
OBJECT__92
10
-27.007999
20
11.107000
30
103.000000
70
192
0
VERTEX
8
OBJECT__92
10
-29.799000
20
8.568000
30
103.000000
70
192
0
VERTEX
8
OBJECT__92
10
-30.093000
20
8.079000
30
103.000000
70
192
0
VERTEX
8
OBJECT__92
10
-31.850000
20
5.144000
30
103.000000
70
192
0
VERTEX
8
OBJECT__92
10
-32.070999
20
4.253000
30
103.000000
70
192
0
VERTEX
8
OBJECT__92
10
-32.806999
20
1.291000
30
103.000000
70
192
0
VERTEX
8
OBJECT__92
10
-32.769001
20
0.003000
30
103.000000
70
192
0
VERTEX
8
OBJECT__92
10
-32.707001
20
-2.084000
30
103.000000
70
192
0
VERTEX
8
OBJECT__92
10
-32.028999
20
-4.233000
30
103.000000
70
192
0
VERTEX
8
OBJECT__92
10
-31.487000
20
-5.949000
30
103.000000
70
192
0
VERTEX
8
OBJECT__92
10
-30.056999
20
-8.047000
30
103.000000
70
192
0
VERTEX
8
OBJECT__92
10
-29.341999
20
-9.096000
30
103.000000
70
192
0
VERTEX
8
OBJECT__92
10
-26.951000
20
-11.036000
30
103.000000
70
192
0
VERTEX
8
OBJECT__92
10
-23.377001
20
-12.830000
30
120.797997
70
192
0
VERTEX
8
OBJECT__92
10
-26.224001
20
-11.626000
30
103.000000
70
192
0
VERTEX
8
OBJECT__92
10
-23.396999
20
-12.744000
30
123.761002
70
192
0
VERTEX
8
OBJECT__92
10
-23.393999
20
-12.886000
30
103.000000
70
192
0
VERTEX
8
OBJECT__92
10
-23.400999
20
-12.726000
30
124.362999
70
192
0
VERTEX
8
OBJECT__92
10
-23.420000
20
-12.649000
30
127.030998
70
192
0
VERTEX
8
OBJECT__92
10
-24.014999
20
-11.530000
30
130.681000
70
192
0
VERTEX
8
OBJECT__92
10
-24.896000
20
-9.610000
30
133.472000
70
192
0
VERTEX
8
OBJECT__92
10
-23.830000
20
-11.878000
30
129.546997
70
192
0
VERTEX
8
OBJECT__92
10
-23.732000
20
-12.063000
30
128.942001
70
192
0
VERTEX
8
OBJECT__92
10
-26.010000
20
-6.529000
30
136.220001
70
192
0
VERTEX
8
OBJECT__92
10
-25.054001
20
-9.267000
30
133.970001
70
192
0
VERTEX
8
OBJECT__92
10
-26.780001
20
-2.936000
30
137.843002
70
192
0
VERTEX
8
OBJECT__92
10
-26.889999
20
-1.402000
30
138.115005
70
192
0
VERTEX
8
OBJECT__92
10
-26.330999
20
-5.031000
30
136.897003
70
192
0
VERTEX
8
OBJECT__92
10
-26.232000
20
-5.490000
30
136.690002
70
192
0
VERTEX
8
OBJECT__92
10
-26.990999
20
0.016000
30
138.365997
70
192
0
VERTEX
8
OBJECT__92
10
-26.952000
20
0.525000
30
138.270996
70
192
0
VERTEX
8
OBJECT__92
10
-26.882000
20
1.437000
30
138.100006
70
192
0
VERTEX
8
OBJECT__92
10
-26.791000
20
2.628000
30
137.878006
70
192
0
VERTEX
8
OBJECT__92
10
-26.753000
20
3.130000
30
137.783997
70
192
0
VERTEX
8
OBJECT__92
10
-26.329000
20
5.030000
30
136.891006
70
192
0
VERTEX
8
OBJECT__92
10
-26.229000
20
5.480000
30
136.679001
70
192
0
VERTEX
8
OBJECT__92
10
-25.951000
20
6.726000
30
136.093994
70
192
0
VERTEX
8
OBJECT__92
10
-25.051001
20
9.204000
30
133.912003
70
192
0
VERTEX
8
OBJECT__92
10
-27.320999
20
10.130000
30
127.945999
70
192
0
VERTEX
8
OBJECT__92
10
-24.861000
20
9.728000
30
133.451996
70
192
0
VERTEX
8
OBJECT__92
10
-23.958000
20
11.643000
30
130.442993
70
192
0
VERTEX
8
OBJECT__92
10
-23.820999
20
11.898000
30
129.580994
70
192
0
VERTEX
8
OBJECT__92
10
-23.422001
20
12.645000
30
127.060997
70
192
0
VERTEX
8
OBJECT__92
10
-23.403999
20
12.721000
30
124.406998
70
192
0
VERTEX
8
OBJECT__92
10
-23.722000
20
12.085000
30
128.951004
70
192
0
VERTEX
8
OBJECT__92
10
-23.391001
20
12.877000
30
111.475998
70
192
0
VERTEX
8
OBJECT__92
10
-23.393999
20
12.886000
30
103.000000
70
192
0
VERTEX
8
OBJECT__92
10
-26.922001
20
11.186000
30
103.000000
70
192
0
VERTEX
8
OBJECT__92
10
-23.377001
20
12.831000
30
120.603996
70
192
0
VERTEX
8
OBJECT__92
10
-23.399000
20
12.740000
30
123.761002
70
192
0
VERTEX
8
OBJECT__92
10
0
20
0
30
0
70
128
71
1
72
2
73
3
0
VERTEX
8
OBJECT__92
10
0
20
0
30
0
70
128
71
4
72
1
73
5
0
VERTEX
8
OBJECT__92
10
0
20
0
30
0
70
128
71
6
72
5
73
7
0
VERTEX
8
OBJECT__92
10
0
20
0
30
0
70
128
71
8
72
9
73
6
0
VERTEX
8
OBJECT__92
10
0
20
0
30
0
70
128
71
10
72
4
73
6
0
VERTEX
8
OBJECT__92
10
0
20
0
30
0
70
128
71
11
72
12
73
1
0
VERTEX
8
OBJECT__92
10
0
20
0
30
0
70
128
71
12
72
13
73
2
0
VERTEX
8
OBJECT__92
10
0
20
0
30
0
70
128
71
14
72
13
73
12
0
VERTEX
8
OBJECT__92
10
0
20
0
30
0
70
128
71
15
72
12
73
11
0
VERTEX
8
OBJECT__92
10
0
20
0
30
0
70
128
71
16
72
11
73
4
0
VERTEX
8
OBJECT__92
10
0
20
0
30
0
70
128
71
17
72
11
73
16
0
VERTEX
8
OBJECT__92
10
0
20
0
30
0
70
128
71
16
72
10
73
18
0
VERTEX
8
OBJECT__92
10
0
20
0
30
0
70
128
71
19
72
20
73
16
0
VERTEX
8
OBJECT__92
10
0
20
0
30
0
70
128
71
16
72
21
73
19
0
VERTEX
8
OBJECT__92
10
0
20
0
30
0
70
128
71
10
72
9
73
22
0
VERTEX
8
OBJECT__92
10
0
20
0
30
0
70
128
71
9
72
8
73
23
0
VERTEX
8
OBJECT__92
10
0
20
0
30
0
70
128
71
18
72
22
73
24
0
VERTEX
8
OBJECT__92
10
0
20
0
30
0
70
128
71
21
72
18
73
25
0
VERTEX
8
OBJECT__92
10
0
20
0
30
0
70
128
71
26
72
19
73
21
0
VERTEX
8
OBJECT__92
10
0
20
0
30
0
70
128
71
27
72
25
73
28
0
VERTEX
8
OBJECT__92
10
0
20
0
30
0
70
128
71
25
72
24
73
29
0
VERTEX
8
OBJECT__92
10
0
20
0
30
0
70
128
71
30
72
26
73
27
0
VERTEX
8
OBJECT__92
10
0
20
0
30
0
70
128
71
31
72
32
73
26
0
VERTEX
8
OBJECT__92
10
0
20
0
30
0
70
128
71
26
72
30
73
31
0
VERTEX
8
OBJECT__92
10
0
20
0
30
0
70
128
71
32
72
33
73
26
0
VERTEX
8
OBJECT__92
10
0
20
0
30
0
70
128
71
26
72
33
73
34
0
VERTEX
8
OBJECT__92
10
0
20
0
30
0
70
128
71
34
72
19
73
26
0
VERTEX
8
OBJECT__92
10
0
20
0
30
0
70
128
71
34
72
35
73
19
0
VERTEX
8
OBJECT__92
10
0
20
0
30
0
70
128
71
20
72
36
73
37
0
VERTEX
8
OBJECT__92
10
0
20
0
30
0
70
128
71
19
72
35
73
36
0
VERTEX
8
OBJECT__92
10
0
20
0
30
0
70
128
71
36
72
20
73
19
0
VERTEX
8
OBJECT__92
10
0
20
0
30
0
70
128
71
20
72
37
73
38
0
VERTEX
8
OBJECT__92
10
0
20
0
30
0
70
128
71
38
72
17
73
20
0
VERTEX
8
OBJECT__92
10
0
20
0
30
0
70
128
71
15
72
39
73
40
0
VERTEX
8
OBJECT__92
10
0
20
0
30
0
70
128
71
39
72
15
73
17
0
VERTEX
8
OBJECT__92
10
0
20
0
30
0
70
128
71
40
72
41
73
15
0
VERTEX
8
OBJECT__92
10
0
20
0
30
0
70
128
71
14
72
41
73
42
0
VERTEX
8
OBJECT__92
10
0
20
0
30
0
70
128
71
41
72
14
73
15
0
VERTEX
8
OBJECT__92
10
0
20
0
30
0
70
128
71
42
72
43
73
14
0
VERTEX
8
OBJECT__92
10
0
20
0
30
0
70
128
71
44
72
43
73
45
0
VERTEX
8
OBJECT__92
10
0
20
0
30
0
70
128
71
44
72
14
73
43
0
VERTEX
8
OBJECT__92
10
0
20
0
30
0
70
128
71
44
72
46
73
14
0
VERTEX
8
OBJECT__92
10
0
20
0
30
0
70
128
71
45
72
47
73
44
0
VERTEX
8
OBJECT__92
10
0
20
0
30
0
70
128
71
13
72
14
73
48
0
VERTEX
8
OBJECT__92
10
0
20
0
30
0
70
128
71
48
72
49
73
13
0
VERTEX
8
OBJECT__92
10
0
20
0
30
0
70
128
71
14
72
46
73
48
0
VERTEX
8
OBJECT__92
10
0
20
0
30
0
70
128
71
13
72
50
73
51
0
VERTEX
8
OBJECT__92
10
0
20
0
30
0
70
128
71
13
72
52
73
50
0
VERTEX
8
OBJECT__92
10
0
20
0
30
0
70
128
71
13
72
53
73
52
0
VERTEX
8
OBJECT__92
10
0
20
0
30
0
70
128
71
3
72
2
73
54
0
VERTEX
8
OBJECT__92
10
0
20
0
30
0
70
128
71
2
72
51
73
55
0
VERTEX
8
OBJECT__92
10
0
20
0
30
0
70
128
71
55
72
54
73
2
0
VERTEX
8
OBJECT__92
10
0
20
0
30
0
70
128
71
56
72
57
73
7
0
VERTEX
8
OBJECT__92
10
0
20
0
30
0
70
128
71
56
72
5
73
3
0
VERTEX
8
OBJECT__92
10
0
20
0
30
0
70
128
71
3
72
58
73
56
0
VERTEX
8
OBJECT__92
10
0
20
0
30
0
70
128
71
3
72
59
73
58
0
VERTEX
8
OBJECT__92
10
0
20
0
30
0
70
128
71
8
72
7
73
57
0
VERTEX
8
OBJECT__92
10
0
20
0
30
0
70
128
71
8
72
60
73
61
0
VERTEX
8
OBJECT__92
10
0
20
0
30
0
70
128
71
62
72
24
73
23
0
VERTEX
8
OBJECT__92
10
0
20
0
30
0
70
128
71
24
72
22
73
23
0
VERTEX
8
OBJECT__92
10
0
20
0
30
0
70
128
71
24
72
62
73
63
0
VERTEX
8
OBJECT__92
10
0
20
0
30
0
70
128
71
29
72
63
73
64
0
VERTEX
8
OBJECT__92
10
0
20
0
30
0
70
128
71
64
72
65
73
29
0
VERTEX
8
OBJECT__92
10
0
20
0
30
0
70
128
71
29
72
66
73
67
0
VERTEX
8
OBJECT__92
10
0
20
0
30
0
70
128
71
67
72
28
73
29
0
VERTEX
8
OBJECT__92
10
0
20
0
30
0
70
128
71
67
72
68
73
28
0
VERTEX
8
OBJECT__92
10
0
20
0
30
0
70
128
71
69
72
28
73
70
0
VERTEX
8
OBJECT__92
10
0
20
0
30
0
70
128
71
70
72
71
73
69
0
VERTEX
8
OBJECT__92
10
0
20
0
30
0
70
128
71
71
72
72
73
69
0
VERTEX
8
OBJECT__92
10
0
20
0
30
0
70
128
71
69
72
73
73
74
0
VERTEX
8
OBJECT__92
10
0
20
0
30
0
70
128
71
69
72
75
73
73
0
VERTEX
8
OBJECT__92
10
0
20
0
30
0
70
128
71
74
72
30
73
69
0
VERTEX
8
OBJECT__92
10
0
20
0
30
0
70
128
71
76
72
77
73
78
0
VERTEX
8
OBJECT__92
10
0
20
0
30
0
70
128
71
30
72
79
73
76
0
VERTEX
8
OBJECT__92
10
0
20
0
30
0
70
128
71
30
72
80
73
79
0
VERTEX
8
OBJECT__92
10
0
20
0
30
0
70
128
71
76
72
31
73
30
0
VERTEX
8
OBJECT__92
10
0
20
0
30
0
70
128
71
78
72
31
73
76
0
VERTEX
8
OBJECT__92
10
0
20
0
30
0
70
128
71
74
72
80
73
30
0
VERTEX
8
OBJECT__92
10
0
20
0
30
0
70
128
71
72
72
75
73
69
0
VERTEX
8
OBJECT__92
10
0
20
0
30
0
70
128
71
68
72
70
73
28
0
VERTEX
8
OBJECT__92
10
0
20
0
30
0
70
128
71
65
72
66
73
29
0
VERTEX
8
OBJECT__92
10
0
20
0
30
0
70
128
71
63
72
29
73
24
0
VERTEX
8
OBJECT__92
10
0
20
0
30
0
70
128
71
23
72
61
73
62
0
VERTEX
8
OBJECT__92
10
0
20
0
30
0
70
128
71
61
72
23
73
8
0
VERTEX
8
OBJECT__92
10
0
20
0
30
0
70
128
71
57
72
60
73
8
0
VERTEX
8
OBJECT__92
10
0
20
0
30
0
70
128
71
7
72
5
73
56
0
VERTEX
8
OBJECT__92
10
0
20
0
30
0
70
128
71
54
72
59
73
3
0
VERTEX
8
OBJECT__92
10
0
20
0
30
0
70
128
71
51
72
2
73
13
0
VERTEX
8
OBJECT__92
10
0
20
0
30
0
70
128
71
49
72
53
73
13
0
VERTEX
8
OBJECT__92
10
0
20
0
30
0
70
128
71
38
72
39
73
17
0
VERTEX
8
OBJECT__92
10
0
20
0
30
0
70
128
71
27
72
69
73
30
0
VERTEX
8
OBJECT__92
10
0
20
0
30
0
70
128
71
29
72
28
73
25
0
VERTEX
8
OBJECT__92
10
0
20
0
30
0
70
128
71
28
72
69
73
27
0
VERTEX
8
OBJECT__92
10
0
20
0
30
0
70
128
71
21
72
27
73
26
0
VERTEX
8
OBJECT__92
10
0
20
0
30
0
70
128
71
25
72
27
73
21
0
VERTEX
8
OBJECT__92
10
0
20
0
30
0
70
128
71
24
72
25
73
18
0
VERTEX
8
OBJECT__92
10
0
20
0
30
0
70
128
71
23
72
22
73
9
0
VERTEX
8
OBJECT__92
10
0
20
0
30
0
70
128
71
22
72
18
73
10
0
VERTEX
8
OBJECT__92
10
0
20
0
30
0
70
128
71
18
72
21
73
16
0
VERTEX
8
OBJECT__92
10
0
20
0
30
0
70
128
71
16
72
20
73
17
0
VERTEX
8
OBJECT__92
10
0
20
0
30
0
70
128
71
4
72
10
73
16
0
VERTEX
8
OBJECT__92
10
0
20
0
30
0
70
128
71
11
72
17
73
15
0
VERTEX
8
OBJECT__92
10
0
20
0
30
0
70
128
71
12
72
15
73
14
0
VERTEX
8
OBJECT__92
10
0
20
0
30
0
70
128
71
2
72
1
73
12
0
VERTEX
8
OBJECT__92
10
0
20
0
30
0
70
128
71
1
72
4
73
11
0
VERTEX
8
OBJECT__92
10
0
20
0
30
0
70
128
71
6
72
9
73
10
0
VERTEX
8
OBJECT__92
10
0
20
0
30
0
70
128
71
7
72
8
73
6
0
VERTEX
8
OBJECT__92
10
0
20
0
30
0
70
128
71
5
72
6
73
4
0
VERTEX
8
OBJECT__92
10
0
20
0
30
0
70
128
71
3
72
5
73
1
0
SEQEND
8
OBJECT__92
0
POLYLINE
8
OBJECT__93
66
1
70
64
71
82
72
111
62
253
0
VERTEX
8
OBJECT__93
10
-32.196999
20
4.040000
30
84.283997
70
192
0
VERTEX
8
OBJECT__93
10
-32.186001
20
3.735000
30
79.550003
70
192
0
VERTEX
8
OBJECT__93
10
-32.827999
20
0.000000
30
79.709999
70
192
0
VERTEX
8
OBJECT__93
10
-32.196999
20
0.000000
30
75.061996
70
192
0
VERTEX
8
OBJECT__93
10
-31.677999
20
2.938000
30
74.911003
70
192
0
VERTEX
8
OBJECT__93
10
-30.118999
20
1.744000
30
70.632004
70
192
0
VERTEX
8
OBJECT__93
10
-27.111000
20
10.772000
30
83.245003
70
192
0
VERTEX
8
OBJECT__93
10
-27.333000
20
10.091000
30
78.271004
70
192
0
VERTEX
8
OBJECT__93
10
-30.311001
20
7.184000
30
79.070999
70
192
0
VERTEX
8
OBJECT__93
10
-30.223000
20
7.733000
30
83.894997
70
192
0
VERTEX
8
OBJECT__93
10
-30.158001
20
5.664000
30
74.457001
70
192
0
VERTEX
8
OBJECT__93
10
-27.733999
20
7.990000
30
73.700996
70
192
0
VERTEX
8
OBJECT__93
10
-27.653999
20
4.755000
30
69.967003
70
192
0
VERTEX
8
OBJECT__93
10
-29.171000
20
3.366000
30
70.383003
70
192
0
VERTEX
8
OBJECT__93
10
-28.099001
20
1.988000
30
68.817001
70
192
0
VERTEX
8
OBJECT__93
10
-28.865999
20
0.000000
30
68.962997
70
192
0
VERTEX
8
OBJECT__93
10
-30.441999
20
0.000000
30
70.714996
70
192
0
VERTEX
8
OBJECT__93
10
-30.223000
20
-7.733000
30
83.894997
70
192
0
VERTEX
8
OBJECT__93
10
-32.196999
20
-4.039000
30
84.283997
70
192
0
VERTEX
8
OBJECT__93
10
-32.186001
20
-3.735000
30
79.551003
70
192
0
VERTEX
8
OBJECT__93
10
-27.111000
20
-10.772000
30
83.245003
70
192
0
VERTEX
8
OBJECT__93
10
-30.311001
20
-7.184000
30
79.070999
70
192
0
VERTEX
8
OBJECT__93
10
-30.158001
20
-5.664000
30
74.458000
70
192
0
VERTEX
8
OBJECT__93
10
-27.733999
20
-7.990000
30
73.702003
70
192
0
VERTEX
8
OBJECT__93
10
-29.171000
20
-3.366000
30
70.383003
70
192
0
VERTEX
8
OBJECT__93
10
-27.653999
20
-4.755000
30
69.967003
70
192
0
VERTEX
8
OBJECT__93
10
-31.677999
20
-2.938000
30
74.911003
70
192
0
VERTEX
8
OBJECT__93
10
-30.118999
20
-1.744000
30
70.632004
70
192
0
VERTEX
8
OBJECT__93
10
-32.874001
20
0.000000
30
84.414001
70
192
0
VERTEX
8
OBJECT__93
10
-28.671000
20
-1.030000
30
68.926003
70
192
0
VERTEX
8
OBJECT__93
10
-23.396000
20
12.732000
30
81.810997
70
192
0
VERTEX
8
OBJECT__93
10
-23.408001
20
12.671000
30
79.485001
70
192
0
VERTEX
8
OBJECT__93
10
-23.393000
20
12.747000
30
82.393997
70
192
0
VERTEX
8
OBJECT__93
10
-23.865999
20
11.821000
30
76.317001
70
192
0
VERTEX
8
OBJECT__93
10
-24.872000
20
9.701000
30
72.865997
70
192
0
VERTEX
8
OBJECT__93
10
-23.819000
20
11.909000
30
76.647003
70
192
0
VERTEX
8
OBJECT__93
10
-23.732000
20
12.071000
30
77.249001
70
192
0
VERTEX
8
OBJECT__93
10
-25.959000
20
6.701000
30
70.239998
70
192
0
VERTEX
8
OBJECT__93
10
-25.076000
20
9.138000
30
72.373001
70
192
0
VERTEX
8
OBJECT__93
10
-26.746000
20
3.170000
30
68.580002
70
192
0
VERTEX
8
OBJECT__93
10
-26.879000
20
1.453000
30
68.258003
70
192
0
VERTEX
8
OBJECT__93
10
-26.340000
20
4.992000
30
69.435997
70
192
0
VERTEX
8
OBJECT__93
10
-26.240000
20
5.438000
30
69.646004
70
192
0
VERTEX
8
OBJECT__93
10
-26.990999
20
0.000000
30
67.986000
70
192
0
VERTEX
8
OBJECT__93
10
-26.985001
20
-0.377000
30
68.005997
70
192
0
VERTEX
8
OBJECT__93
10
-26.982000
20
-0.578000
30
68.015999
70
192
0
VERTEX
8
OBJECT__93
10
-26.922001
20
-1.153000
30
68.153999
70
192
0
VERTEX
8
OBJECT__93
10
-26.754999
20
-2.762000
30
68.540001
70
192
0
VERTEX
8
OBJECT__93
10
-26.652000
20
-3.760000
30
68.778999
70
192
0
VERTEX
8
OBJECT__93
10
-26.346001
20
-4.989000
30
69.430000
70
192
0
VERTEX
8
OBJECT__93
10
-26.237000
20
-5.430000
30
69.664001
70
192
0
VERTEX
8
OBJECT__93
10
-25.768000
20
-7.315000
30
70.662003
70
192
0
VERTEX
8
OBJECT__93
10
-25.083000
20
-9.103000
30
72.379997
70
192
0
VERTEX
8
OBJECT__93
10
-27.333000
20
-10.092000
30
78.271004
70
192
0
VERTEX
8
OBJECT__93
10
-24.725000
20
-10.040000
30
73.280998
70
192
0
VERTEX
8
OBJECT__93
10
-23.854000
20
-11.845000
30
76.373001
70
192
0
VERTEX
8
OBJECT__93
10
-24.910000
20
-9.555000
30
72.815002
70
192
0
VERTEX
8
OBJECT__93
10
-23.816000
20
-11.916000
30
76.637001
70
192
0
VERTEX
8
OBJECT__93
10
-23.413000
20
-12.661000
30
79.408997
70
192
0
VERTEX
8
OBJECT__93
10
-23.393999
20
-12.740000
30
81.792999
70
192
0
VERTEX
8
OBJECT__93
10
-23.726999
20
-12.080000
30
77.247002
70
192
0
VERTEX
8
OBJECT__93
10
-26.224001
20
-11.626000
30
103.000000
70
192
0
VERTEX
8
OBJECT__93
10
-23.386999
20
-12.863000
30
91.156998
70
192
0
VERTEX
8
OBJECT__93
10
-23.393999
20
-12.886000
30
103.000000
70
192
0
VERTEX
8
OBJECT__93
10
-23.389000
20
-12.760000
30
82.394997
70
192
0
VERTEX
8
OBJECT__93
10
-23.374001
20
-12.821000
30
84.230003
70
192
0
VERTEX
8
OBJECT__93
10
-26.951000
20
-11.036000
30
103.000000
70
192
0
VERTEX
8
OBJECT__93
10
-29.341999
20
-9.096000
30
103.000000
70
192
0
VERTEX
8
OBJECT__93
10
-30.056000
20
-8.048000
30
103.000000
70
192
0
VERTEX
8
OBJECT__93
10
-31.487000
20
-5.949000
30
103.000000
70
192
0
VERTEX
8
OBJECT__93
10
-32.028999
20
-4.233000
30
103.000000
70
192
0
VERTEX
8
OBJECT__93
10
-32.707001
20
-2.084000
30
103.000000
70
192
0
VERTEX
8
OBJECT__93
10
-32.769001
20
0.003000
30
103.000000
70
192
0
VERTEX
8
OBJECT__93
10
-32.806999
20
1.291000
30
103.000000
70
192
0
VERTEX
8
OBJECT__93
10
-32.071999
20
4.252000
30
103.000000
70
192
0
VERTEX
8
OBJECT__93
10
-31.850000
20
5.144000
30
103.000000
70
192
0
VERTEX
8
OBJECT__93
10
-30.093000
20
8.077000
30
103.000000
70
192
0
VERTEX
8
OBJECT__93
10
-27.007999
20
11.107000
30
103.000000
70
192
0
VERTEX
8
OBJECT__93
10
-29.799000
20
8.568000
30
103.000000
70
192
0
VERTEX
8
OBJECT__93
10
-26.922001
20
11.186000
30
103.000000
70
192
0
VERTEX
8
OBJECT__93
10
-23.393999
20
12.886000
30
103.000000
70
192
0
VERTEX
8
OBJECT__93
10
-23.377001
20
12.830000
30
85.574997
70
192
0
VERTEX
8
OBJECT__93
10
0
20
0
30
0
70
128
71
1
72
2
73
3
0
VERTEX
8
OBJECT__93
10
0
20
0
30
0
70
128
71
4
72
5
73
6
0
VERTEX
8
OBJECT__93
10
0
20
0
30
0
70
128
71
7
72
8
73
9
0
VERTEX
8
OBJECT__93
10
0
20
0
30
0
70
128
71
3
72
2
73
5
0
VERTEX
8
OBJECT__93
10
0
20
0
30
0
70
128
71
10
72
9
73
2
0
VERTEX
8
OBJECT__93
10
0
20
0
30
0
70
128
71
2
72
9
73
11
0
VERTEX
8
OBJECT__93
10
0
20
0
30
0
70
128
71
9
72
8
73
12
0
VERTEX
8
OBJECT__93
10
0
20
0
30
0
70
128
71
11
72
12
73
13
0
VERTEX
8
OBJECT__93
10
0
20
0
30
0
70
128
71
6
72
14
73
15
0
VERTEX
8
OBJECT__93
10
0
20
0
30
0
70
128
71
16
72
17
73
6
0
VERTEX
8
OBJECT__93
10
0
20
0
30
0
70
128
71
5
72
11
73
14
0
VERTEX
8
OBJECT__93
10
0
20
0
30
0
70
128
71
18
72
19
73
20
0
VERTEX
8
OBJECT__93
10
0
20
0
30
0
70
128
71
21
72
18
73
22
0
VERTEX
8
OBJECT__93
10
0
20
0
30
0
70
128
71
22
72
23
73
24
0
VERTEX
8
OBJECT__93
10
0
20
0
30
0
70
128
71
23
72
25
73
26
0
VERTEX
8
OBJECT__93
10
0
20
0
30
0
70
128
71
27
72
28
73
25
0
VERTEX
8
OBJECT__93
10
0
20
0
30
0
70
128
71
3
72
4
73
27
0
VERTEX
8
OBJECT__93
10
0
20
0
30
0
70
128
71
19
72
29
73
3
0
VERTEX
8
OBJECT__93
10
0
20
0
30
0
70
128
71
3
72
20
73
19
0
VERTEX
8
OBJECT__93
10
0
20
0
30
0
70
128
71
20
72
27
73
23
0
VERTEX
8
OBJECT__93
10
0
20
0
30
0
70
128
71
4
72
17
73
28
0
VERTEX
8
OBJECT__93
10
0
20
0
30
0
70
128
71
17
72
16
73
30
0
VERTEX
8
OBJECT__93
10
0
20
0
30
0
70
128
71
8
72
7
73
31
0
VERTEX
8
OBJECT__93
10
0
20
0
30
0
70
128
71
31
72
32
73
8
0
VERTEX
8
OBJECT__93
10
0
20
0
30
0
70
128
71
7
72
33
73
31
0
VERTEX
8
OBJECT__93
10
0
20
0
30
0
70
128
71
8
72
34
73
35
0
VERTEX
8
OBJECT__93
10
0
20
0
30
0
70
128
71
8
72
36
73
34
0
VERTEX
8
OBJECT__93
10
0
20
0
30
0
70
128
71
8
72
37
73
36
0
VERTEX
8
OBJECT__93
10
0
20
0
30
0
70
128
71
13
72
12
73
38
0
VERTEX
8
OBJECT__93
10
0
20
0
30
0
70
128
71
12
72
39
73
38
0
VERTEX
8
OBJECT__93
10
0
20
0
30
0
70
128
71
12
72
35
73
39
0
VERTEX
8
OBJECT__93
10
0
20
0
30
0
70
128
71
40
72
41
73
15
0
VERTEX
8
OBJECT__93
10
0
20
0
30
0
70
128
71
40
72
14
73
13
0
VERTEX
8
OBJECT__93
10
0
20
0
30
0
70
128
71
13
72
42
73
40
0
VERTEX
8
OBJECT__93
10
0
20
0
30
0
70
128
71
13
72
43
73
42
0
VERTEX
8
OBJECT__93
10
0
20
0
30
0
70
128
71
16
72
15
73
41
0
VERTEX
8
OBJECT__93
10
0
20
0
30
0
70
128
71
16
72
44
73
45
0
VERTEX
8
OBJECT__93
10
0
20
0
30
0
70
128
71
30
72
46
73
47
0
VERTEX
8
OBJECT__93
10
0
20
0
30
0
70
128
71
25
72
28
73
30
0
VERTEX
8
OBJECT__93
10
0
20
0
30
0
70
128
71
30
72
45
73
46
0
VERTEX
8
OBJECT__93
10
0
20
0
30
0
70
128
71
25
72
47
73
48
0
VERTEX
8
OBJECT__93
10
0
20
0
30
0
70
128
71
26
72
48
73
49
0
VERTEX
8
OBJECT__93
10
0
20
0
30
0
70
128
71
49
72
50
73
26
0
VERTEX
8
OBJECT__93
10
0
20
0
30
0
70
128
71
24
72
26
73
51
0
VERTEX
8
OBJECT__93
10
0
20
0
30
0
70
128
71
51
72
52
73
24
0
VERTEX
8
OBJECT__93
10
0
20
0
30
0
70
128
71
52
72
53
73
24
0
VERTEX
8
OBJECT__93
10
0
20
0
30
0
70
128
71
54
72
24
73
55
0
VERTEX
8
OBJECT__93
10
0
20
0
30
0
70
128
71
55
72
56
73
54
0
VERTEX
8
OBJECT__93
10
0
20
0
30
0
70
128
71
24
72
57
73
55
0
VERTEX
8
OBJECT__93
10
0
20
0
30
0
70
128
71
56
72
58
73
54
0
VERTEX
8
OBJECT__93
10
0
20
0
30
0
70
128
71
54
72
59
73
60
0
VERTEX
8
OBJECT__93
10
0
20
0
30
0
70
128
71
54
72
61
73
59
0
VERTEX
8
OBJECT__93
10
0
20
0
30
0
70
128
71
60
72
21
73
54
0
VERTEX
8
OBJECT__93
10
0
20
0
30
0
70
128
71
62
72
21
73
63
0
VERTEX
8
OBJECT__93
10
0
20
0
30
0
70
128
71
63
72
64
73
62
0
VERTEX
8
OBJECT__93
10
0
20
0
30
0
70
128
71
21
72
65
73
66
0
VERTEX
8
OBJECT__93
10
0
20
0
30
0
70
128
71
66
72
63
73
21
0
VERTEX
8
OBJECT__93
10
0
20
0
30
0
70
128
71
18
72
67
73
68
0
VERTEX
8
OBJECT__93
10
0
20
0
30
0
70
128
71
67
72
18
73
21
0
VERTEX
8
OBJECT__93
10
0
20
0
30
0
70
128
71
68
72
69
73
18
0
VERTEX
8
OBJECT__93
10
0
20
0
30
0
70
128
71
19
72
69
73
70
0
VERTEX
8
OBJECT__93
10
0
20
0
30
0
70
128
71
69
72
19
73
18
0
VERTEX
8
OBJECT__93
10
0
20
0
30
0
70
128
71
70
72
71
73
19
0
VERTEX
8
OBJECT__93
10
0
20
0
30
0
70
128
71
29
72
19
73
72
0
VERTEX
8
OBJECT__93
10
0
20
0
30
0
70
128
71
72
72
73
73
29
0
VERTEX
8
OBJECT__93
10
0
20
0
30
0
70
128
71
71
72
72
73
19
0
VERTEX
8
OBJECT__93
10
0
20
0
30
0
70
128
71
1
72
29
73
74
0
VERTEX
8
OBJECT__93
10
0
20
0
30
0
70
128
71
74
72
75
73
1
0
VERTEX
8
OBJECT__93
10
0
20
0
30
0
70
128
71
29
72
73
73
74
0
VERTEX
8
OBJECT__93
10
0
20
0
30
0
70
128
71
10
72
1
73
76
0
VERTEX
8
OBJECT__93
10
0
20
0
30
0
70
128
71
1
72
75
73
76
0
VERTEX
8
OBJECT__93
10
0
20
0
30
0
70
128
71
76
72
77
73
10
0
VERTEX
8
OBJECT__93
10
0
20
0
30
0
70
128
71
78
72
7
73
10
0
VERTEX
8
OBJECT__93
10
0
20
0
30
0
70
128
71
10
72
77
73
79
0
VERTEX
8
OBJECT__93
10
0
20
0
30
0
70
128
71
10
72
79
73
78
0
VERTEX
8
OBJECT__93
10
0
20
0
30
0
70
128
71
80
72
81
73
82
0
VERTEX
8
OBJECT__93
10
0
20
0
30
0
70
128
71
82
72
7
73
80
0
VERTEX
8
OBJECT__93
10
0
20
0
30
0
70
128
71
7
72
78
73
80
0
VERTEX
8
OBJECT__93
10
0
20
0
30
0
70
128
71
82
72
33
73
7
0
VERTEX
8
OBJECT__93
10
0
20
0
30
0
70
128
71
62
72
67
73
21
0
VERTEX
8
OBJECT__93
10
0
20
0
30
0
70
128
71
60
72
65
73
21
0
VERTEX
8
OBJECT__93
10
0
20
0
30
0
70
128
71
58
72
61
73
54
0
VERTEX
8
OBJECT__93
10
0
20
0
30
0
70
128
71
53
72
57
73
24
0
VERTEX
8
OBJECT__93
10
0
20
0
30
0
70
128
71
50
72
51
73
26
0
VERTEX
8
OBJECT__93
10
0
20
0
30
0
70
128
71
48
72
26
73
25
0
VERTEX
8
OBJECT__93
10
0
20
0
30
0
70
128
71
47
72
25
73
30
0
VERTEX
8
OBJECT__93
10
0
20
0
30
0
70
128
71
45
72
30
73
16
0
VERTEX
8
OBJECT__93
10
0
20
0
30
0
70
128
71
41
72
44
73
16
0
VERTEX
8
OBJECT__93
10
0
20
0
30
0
70
128
71
15
72
14
73
40
0
VERTEX
8
OBJECT__93
10
0
20
0
30
0
70
128
71
38
72
43
73
13
0
VERTEX
8
OBJECT__93
10
0
20
0
30
0
70
128
71
35
72
12
73
8
0
VERTEX
8
OBJECT__93
10
0
20
0
30
0
70
128
71
32
72
37
73
8
0
VERTEX
8
OBJECT__93
10
0
20
0
30
0
70
128
71
30
72
28
73
17
0
VERTEX
8
OBJECT__93
10
0
20
0
30
0
70
128
71
28
72
27
73
4
0
VERTEX
8
OBJECT__93
10
0
20
0
30
0
70
128
71
23
72
22
73
20
0
VERTEX
8
OBJECT__93
10
0
20
0
30
0
70
128
71
27
72
20
73
3
0
VERTEX
8
OBJECT__93
10
0
20
0
30
0
70
128
71
25
72
23
73
27
0
VERTEX
8
OBJECT__93
10
0
20
0
30
0
70
128
71
26
72
24
73
23
0
VERTEX
8
OBJECT__93
10
0
20
0
30
0
70
128
71
24
72
54
73
22
0
VERTEX
8
OBJECT__93
10
0
20
0
30
0
70
128
71
22
72
54
73
21
0
VERTEX
8
OBJECT__93
10
0
20
0
30
0
70
128
71
20
72
22
73
18
0
VERTEX
8
OBJECT__93
10
0
20
0
30
0
70
128
71
14
72
6
73
5
0
VERTEX
8
OBJECT__93
10
0
20
0
30
0
70
128
71
15
72
16
73
6
0
VERTEX
8
OBJECT__93
10
0
20
0
30
0
70
128
71
13
72
14
73
11
0
VERTEX
8
OBJECT__93
10
0
20
0
30
0
70
128
71
12
72
11
73
9
0
VERTEX
8
OBJECT__93
10
0
20
0
30
0
70
128
71
11
72
5
73
2
0
VERTEX
8
OBJECT__93
10
0
20
0
30
0
70
128
71
2
72
1
73
10
0
VERTEX
8
OBJECT__93
10
0
20
0
30
0
70
128
71
5
72
4
73
3
0
VERTEX
8
OBJECT__93
10
0
20
0
30
0
70
128
71
9
72
10
73
7
0
VERTEX
8
OBJECT__93
10
0
20
0
30
0
70
128
71
6
72
17
73
4
0
VERTEX
8
OBJECT__93
10
0
20
0
30
0
70
128
71
3
72
29
73
1
0
SEQEND
8
OBJECT__93
0
ENDSEC
0
EOF
