  0
SECTION
  2
HEADER
  9
$ACADVER
  1
AC1015
  9
$ACADMAINTVER
 70
     6
  9
$DWGCODEPAGE
  3
ANSI_1252
  9
$INSBASE
 10
0.0
 20
0.0
 30
0.0
  9
$EXTMIN
 10
0.0
 20
0.0
 30
0.0
  9
$EXTMAX
 10
1682.0
 20
2378.0
 30
0.0
  9
$LIMMIN
 10
0.0
 20
0.0
  9
$LIMMAX
 10
1682.0
 20
2378.0
  9
$ORTHOMODE
 70
     0
  9
$REGENMODE
 70
     1
  9
$FILLMODE
 70
     1
  9
$QTEXTMODE
 70
     0
  9
$MIRRTEXT
 70
     1
  9
$LTSCALE
 40
1.0
  9
$ATTMODE
 70
     1
  9
$TEXTSIZE
 40
2.5
  9
$TRACEWID
 40
1.0
  9
$TEXTSTYLE
  7
Standard
  9
$CLAYER
  8
0
  9
$CELTYPE
  6
ByLayer
  9
$CECOLOR
 62
   256
  9
$CELTSCALE
 40
1.0
  9
$DISPSILH
 70
     0
  9
$DIMSCALE
 40
1.0
  9
$DIMASZ
 40
2.5
  9
$DIMEXO
 40
0.625
  9
$DIMDLI
 40
3.75
  9
$DIMRND
 40
0.0
  9
$DIMDLE
 40
0.0
  9
$DIMEXE
 40
1.25
  9
$DIMTP
 40
0.0
  9
$DIMTM
 40
0.0
  9
$DIMTXT
 40
2.5
  9
$DIMCEN
 40
2.5
  9
$DIMTSZ
 40
0.0
  9
$DIMTOL
 70
     0
  9
$DIMLIM
 70
     0
  9
$DIMTIH
 70
     0
  9
$DIMTOH
 70
     0
  9
$DIMSE1
 70
     0
  9
$DIMSE2
 70
     0
  9
$DIMTAD
 70
     1
  9
$DIMZIN
 70
     8
  9
$DIMBLK
  1

  9
$DIMASO
 70
     1
  9
$DIMSHO
 70
     1
  9
$DIMPOST
  1

  9
$DIMAPOST
  1

  9
$DIMALT
 70
     0
  9
$DIMALTD
 70
     3
  9
$DIMALTF
 40
0.0393700787
  9
$DIMLFAC
 40
1.0
  9
$DIMTOFL
 70
     1
  9
$DIMTVP
 40
0.0
  9
$DIMTIX
 70
     0
  9
$DIMSOXD
 70
     0
  9
$DIMSAH
 70
     0
  9
$DIMBLK1
  1

  9
$DIMBLK2
  1

  9
$DIMSTYLE
  2
ISO-25
  9
$DIMCLRD
 70
     0
  9
$DIMCLRE
 70
     0
  9
$DIMCLRT
 70
     0
  9
$DIMTFAC
 40
1.0
  9
$DIMGAP
 40
0.625
  9
$DIMJUST
 70
     0
  9
$DIMSD1
 70
     0
  9
$DIMSD2
 70
     0
  9
$DIMTOLJ
 70
     0
  9
$DIMTZIN
 70
     8
  9
$DIMALTZ
 70
     0
  9
$DIMALTTZ
 70
     0
  9
$DIMUPT
 70
     0
  9
$DIMDEC
 70
     2
  9
$DIMTDEC
 70
     2
  9
$DIMALTU
 70
     2
  9
$DIMALTTD
 70
     3
  9
$DIMTXSTY
  7
Standard
  9
$DIMAUNIT
 70
     0
  9
$DIMADEC
 70
     0
  9
$DIMALTRND
 40
0.0
  9
$DIMAZIN
 70
     0
  9
$DIMDSEP
 70
    44
  9
$DIMATFIT
 70
     3
  9
$DIMFRAC
 70
     0
  9
$DIMLDRBLK
  1

  9
$DIMLUNIT
 70
     2
  9
$DIMLWD
 70
    -2
  9
$DIMLWE
 70
    -2
  9
$DIMTMOVE
 70
     0
  9
$LUNITS
 70
     2
  9
$LUPREC
 70
     4
  9
$SKETCHINC
 40
1.0
  9
$FILLETRAD
 40
10.0
  9
$AUNITS
 70
     0
  9
$AUPREC
 70
     0
  9
$MENU
  1
.
  9
$ELEVATION
 40
0.0
  9
$PELEVATION
 40
0.0
  9
$THICKNESS
 40
0.0
  9
$LIMCHECK
 70
     0
  9
$CHAMFERA
 40
10.0
  9
$CHAMFERB
 40
10.0
  9
$CHAMFERC
 40
20.0
  9
$CHAMFERD
 40
0.0
  9
$SKPOLY
 70
     0
  9
$TDCREATE
 40
2455463.58977338
  9
$TDUCREATE
 40
2455463.506440046
  9
$TDUPDATE
 40
2455463.589773391
  9
$TDUUPDATE
 40
2455463.506440058
  9
$TDINDWG
 40
0.0000000116
  9
$TDUSRTIMER
 40
0.0000000116
  9
$USRTIMER
 70
     1
  9
$ANGBASE
 50
0.0
  9
$ANGDIR
 70
     0
  9
$PDMODE
 70
     0
  9
$PDSIZE
 40
0.0
  9
$PLINEWID
 40
0.0
  9
$SPLFRAME
 70
     0
  9
$SPLINETYPE
 70
     6
  9
$SPLINESEGS
 70
     8
  9
$HANDSEED
  5
215
  9
$SURFTAB1
 70
     6
  9
$SURFTAB2
 70
     6
  9
$SURFTYPE
 70
     6
  9
$SURFU
 70
     6
  9
$SURFV
 70
     6
  9
$UCSBASE
  2

  9
$UCSNAME
  2

  9
$UCSORG
 10
0.0
 20
0.0
 30
0.0
  9
$UCSXDIR
 10
1.0
 20
0.0
 30
0.0
  9
$UCSYDIR
 10
0.0
 20
1.0
 30
0.0
  9
$UCSORTHOREF
  2

  9
$UCSORTHOVIEW
 70
     0
  9
$UCSORGTOP
 10
0.0
 20
0.0
 30
0.0
  9
$UCSORGBOTTOM
 10
0.0
 20
0.0
 30
0.0
  9
$UCSORGLEFT
 10
0.0
 20
0.0
 30
0.0
  9
$UCSORGRIGHT
 10
0.0
 20
0.0
 30
0.0
  9
$UCSORGFRONT
 10
0.0
 20
0.0
 30
0.0
  9
$UCSORGBACK
 10
0.0
 20
0.0
 30
0.0
  9
$PUCSBASE
  2

  9
$PUCSNAME
  2

  9
$PUCSORG
 10
0.0
 20
0.0
 30
0.0
  9
$PUCSXDIR
 10
1.0
 20
0.0
 30
0.0
  9
$PUCSYDIR
 10
0.0
 20
1.0
 30
0.0
  9
$PUCSORTHOREF
  2

  9
$PUCSORTHOVIEW
 70
     0
  9
$PUCSORGTOP
 10
0.0
 20
0.0
 30
0.0
  9
$PUCSORGBOTTOM
 10
0.0
 20
0.0
 30
0.0
  9
$PUCSORGLEFT
 10
0.0
 20
0.0
 30
0.0
  9
$PUCSORGRIGHT
 10
0.0
 20
0.0
 30
0.0
  9
$PUCSORGFRONT
 10
0.0
 20
0.0
 30
0.0
  9
$PUCSORGBACK
 10
0.0
 20
0.0
 30
0.0
  9
$USERI1
 70
     0
  9
$USERI2
 70
     0
  9
$USERI3
 70
     0
  9
$USERI4
 70
     0
  9
$USERI5
 70
     0
  9
$USERR1
 40
0.0
  9
$USERR2
 40
0.0
  9
$USERR3
 40
0.0
  9
$USERR4
 40
0.0
  9
$USERR5
 40
0.0
  9
$WORLDVIEW
 70
     1
  9
$SHADEDGE
 70
     3
  9
$SHADEDIF
 70
    70
  9
$TILEMODE
 70
     1
  9
$MAXACTVP
 70
    64
  9
$PINSBASE
 10
0.0
 20
0.0
 30
0.0
  9
$PLIMCHECK
 70
     0
  9
$PEXTMIN
 10
0.0
 20
0.0
 30
0.0
  9
$PEXTMAX
 10
1682.0
 20
2378.0
 30
0.0
  9
$PLIMMIN
 10
0.0
 20
0.0
  9
$PLIMMAX
 10
1682.0
 20
2378.0
  9
$UNITMODE
 70
     0
  9
$VISRETAIN
 70
     1
  9
$PLINEGEN
 70
     0
  9
$PSLTSCALE
 70
     1
  9
$TREEDEPTH
 70
  3020
  9
$CMLSTYLE
  2
Standard
  9
$CMLJUST
 70
     0
  9
$CMLSCALE
 40
20.0
  9
$PROXYGRAPHICS
 70
     1
  9
$MEASUREMENT
 70
     1
  9
$CELWEIGHT
370
    -1
  9
$ENDCAPS
280
     0
  9
$JOINSTYLE
280
     0
  9
$LWDISPLAY
290
     0
  9
$INSUNITS
 70
     4
  9
$HYPERLINKBASE
  1

  9
$STYLESHEET
  1

  9
$XEDIT
290
     1
  9
$CEPSNTYPE
380
     0
  9
$PSTYLEMODE
290
     1
  9
$FINGERPRINTGUID
  2
{FFEBA1D5-C443-481D-815D-FCBB2E9ECFF0}
  9
$VERSIONGUID
  2
{FAEB1C32-E019-11D5-929B-00C0DF256EC4}
  9
$EXTNAMES
290
     1
  9
$PSVPSCALE
 40
0.0
  9
$OLESTARTUP
290
     0
  0
ENDSEC
  0
SECTION
  2
CLASSES
  0
CLASS
  1
ACDBDICTIONARYWDFLT
  2
AcDbDictionaryWithDefault
  3
ObjectDBX Classes
 90
        0
280
     0
281
     0
  0
CLASS
  1
VISUALSTYLE
  2
AcDbVisualStyle
  3
ObjectDBX Classes
 90
     4095
280
     0
281
     0
  0
CLASS
  1
SCALE
  2
AcDbScale
  3
ObjectDBX Classes
 90
     1153
280
     0
281
     0
  0
CLASS
  1
DICTIONARYVAR
  2
AcDbDictionaryVar
  3
ObjectDBX Classes
 90
        0
280
     0
281
     0
  0
CLASS
  1
ACDBPLACEHOLDER
  2
AcDbPlaceHolder
  3
ObjectDBX Classes
 90
        0
280
     0
281
     0
  0
CLASS
  1
LAYOUT
  2
AcDbLayout
  3
ObjectDBX Classes
 90
        0
280
     0
281
     0
  0
ENDSEC
  0
SECTION
  2
TABLES
  0
TABLE
  2
VPORT
  5
8
330
0
100
AcDbSymbolTable
 70
     1
  0
VPORT
  5
29
330
8
100
AcDbSymbolTableRecord
100
AcDbViewportTableRecord
  2
*Active
 70
     0
 10
0.0
 20
0.0
 11
1.0
 21
1.0
 12
344.1869158879
 22
148.5
 13
0.0
 23
0.0
 14
10.0
 24
10.0
 15
10.0
 25
10.0
 16
0.0
 26
0.0
 36
1.0
 17
0.0
 27
0.0
 37
0.0
 40
297.0
 41
1.9729729729
 42
50.0
 43
0.0
 44
0.0
 50
0.0
 51
0.0
 71
     0
 72
   100
 73
     1
 74
     3
 75
     0
 76
     0
 77
     0
 78
     0
281
     0
 65
     1
110
0.0
120
0.0
130
0.0
111
1.0
121
0.0
131
0.0
112
0.0
122
1.0
132
0.0
 79
     0
146
0.0
  0
ENDTAB
  0
TABLE
  2
LTYPE
  5
5
330
0
100
AcDbSymbolTable
 70
     2
  0
LTYPE
  5
14
330
5
100
AcDbSymbolTableRecord
100
AcDbLinetypeTableRecord
  2
ByBlock
 70
     0
  3

 72
    65
 73
     0
 40
0.0
  0
LTYPE
  5
15
330
5
100
AcDbSymbolTableRecord
100
AcDbLinetypeTableRecord
  2
ByLayer
 70
     0
  3

 72
    65
 73
     0
 40
0.0
  0
LTYPE
  5
16
330
5
100
AcDbSymbolTableRecord
100
AcDbLinetypeTableRecord
  2
Continuous
 70
     0
  3
Solid line
 72
    65
 73
     0
 40
0.0
  0
LTYPE
  5
60
330
5
100
AcDbSymbolTableRecord
100
AcDbLinetypeTableRecord
  2
CENTER2
 70
     0
  3
Center (.5x) ___ _ ___ _ ___ _ ___ _ ___ _ ___
 72
    65
 73
     4
 40
28.575
 49
19.05
 74
     4
 75
     0
340
0
 46
0.0
 50
0.0
 44
0.0
 45
0.0
 49
-3.175
 74
     4
 75
     0
340
0
 46
0.0
 50
0.0
 44
0.0
 45
0.0
 49
3.175
 74
     4
 75
     0
340
0
 46
0.0
 50
0.0
 44
0.0
 45
0.0
 49
-3.175
 74
     4
 75
     0
340
0
 46
0.0
 50
0.0
 44
0.0
 45
0.0
  0
ENDTAB
  0
TABLE
  2
LAYER
  5
2
330
0
100
AcDbSymbolTable
 70
    11
  0
LAYER
  5
10
330
2
100
AcDbSymbolTableRecord
100
AcDbLayerTableRecord
  2
0
 70
     0
 62
     7
  6
Continuous
370
    -3
390
F
  0
LAYER
  5
5D
330
2
100
AcDbSymbolTableRecord
100
AcDbLayerTableRecord
  2
Default
 70
     0
 62
     7
  6
Continuous
370
    -3
390
F
  0
LAYER
  5
6B
330
2
100
AcDbSymbolTableRecord
100
AcDbLayerTableRecord
  2
17_02_51XX_SOCKE
 70
     0
 62
     7
  6
Continuous
370
    -3
390
F
  0
LAYER
  5
72
330
2
100
AcDbSymbolTableRecord
100
AcDbLayerTableRecord
  2
18_27_31XX_ANSCH
 70
     0
 62
     7
  6
Continuous
370
    -3
390
F
  0
LAYER
  5
75
330
2
100
AcDbSymbolTableRecord
100
AcDbLayerTableRecord
  2
$DDT_AUDIT_GENERATED_(75)
 70
     0
 62
     7
  6
Continuous
370
    -3
390
F
  0
LAYER
  5
12C
330
2
100
AcDbSymbolTableRecord
100
AcDbLayerTableRecord
  2
490040XXX_AUSLAU
 70
     0
 62
     7
  6
Continuous
370
    -3
390
F
  0
LAYER
  5
140
330
2
100
AcDbSymbolTableRecord
100
AcDbLayerTableRecord
  2
490037XXX_HEBEL_
 70
     0
 62
     7
  6
Continuous
370
    -3
390
F
  0
LAYER
  5
155
330
2
100
AcDbSymbolTableRecord
100
AcDbLayerTableRecord
  2
490038XXX_GEHÄUS
 70
     0
 62
     7
  6
Continuous
370
    -3
390
F
  0
LAYER
  5
162
330
2
100
AcDbSymbolTableRecord
100
AcDbLayerTableRecord
  2
67040XXX_IR-ELEK
 70
     0
 62
     7
  6
Continuous
370
    -3
390
F
  0
LAYER
  5
167
330
2
100
AcDbSymbolTableRecord
100
AcDbLayerTableRecord
  2
490041XXX_SOCKEL
 70
     0
 62
     7
  6
Continuous
370
    -3
390
F
  0
LAYER
  5
1B1
330
2
100
AcDbSymbolTableRecord
100
AcDbLayerTableRecord
  2
DV2_Standard
 70
     0
 62
     7
  6
Continuous
370
    -3
390
F
  0
ENDTAB
  0
TABLE
  2
STYLE
  5
3
330
0
100
AcDbSymbolTable
 70
     2
  0
STYLE
  5
11
330
3
100
AcDbSymbolTableRecord
100
AcDbTextStyleTableRecord
  2
Standard
 70
     0
 40
0.0
 41
1.0
 50
0.0
 71
     0
 42
2.5
  3
txt
  4

  0
STYLE
  5
204
330
3
100
AcDbSymbolTableRecord
100
AcDbTextStyleTableRecord
  2
SEACAD_seiso_ttf
 70
     0
 40
0.0
 41
1.0
 50
0.0
 71
     0
 42
0.2
  3
seiso.ttf
  4

  0
ENDTAB
  0
TABLE
  2
VIEW
  5
6
330
0
100
AcDbSymbolTable
 70
     0
  0
ENDTAB
  0
TABLE
  2
UCS
  5
7
330
0
100
AcDbSymbolTable
 70
     0
  0
ENDTAB
  0
TABLE
  2
APPID
  5
9
330
0
100
AcDbSymbolTable
 70
     1
  0
APPID
  5
12
330
9
100
AcDbSymbolTableRecord
100
AcDbRegAppTableRecord
  2
ACAD
 70
     0
  0
ENDTAB
  0
TABLE
  2
DIMSTYLE
  5
A
330
0
100
AcDbSymbolTable
 70
     1
100
AcDbDimStyleTable
  0
DIMSTYLE
105
27
330
A
100
AcDbSymbolTableRecord
100
AcDbDimStyleTableRecord
  2
ISO-25
 70
     0
 41
2.5
 42
0.625
 43
3.75
 44
1.25
 73
     0
 74
     0
 77
     1
 78
     8
140
2.5
141
2.5
143
0.0393700787
147
0.625
171
     3
172
     1
271
     2
272
     2
274
     3
278
    44
283
     0
284
     8
340
11
  0
ENDTAB
  0
TABLE
  2
BLOCK_RECORD
  5
1
330
0
100
AcDbSymbolTable
 70
     6
  0
BLOCK_RECORD
  5
1F
330
1
100
AcDbSymbolTableRecord
100
AcDbBlockTableRecord
  2
*Model_Space
340
22
  0
BLOCK_RECORD
  5
1B
330
1
100
AcDbSymbolTableRecord
100
AcDbBlockTableRecord
  2
*Paper_Space
340
1E
  0
BLOCK_RECORD
  5
5E
330
1
100
AcDbSymbolTableRecord
100
AcDbBlockTableRecord
  2
SEANNOT_GROUP
340
0
102
{BLKREFS
331
5F
102
}
  0
BLOCK_RECORD
  5
64
330
1
100
AcDbSymbolTableRecord
100
AcDbBlockTableRecord
  2
SEANNOT_GROUP1
340
0
102
{BLKREFS
331
65
102
}
  0
BLOCK_RECORD
  5
69
330
1
100
AcDbSymbolTableRecord
100
AcDbBlockTableRecord
  2
SE
340
0
102
{BLKREFS
331
6A
102
}
  0
BLOCK_RECORD
  5
174
330
1
100
AcDbSymbolTableRecord
100
AcDbBlockTableRecord
  2
SE1
340
0
102
{BLKREFS
331
175
102
}
  0
BLOCK_RECORD
  5
1B7
330
1
100
AcDbSymbolTableRecord
100
AcDbBlockTableRecord
  2
SE2
340
0
102
{BLKREFS
331
1B8
102
}
  0
ENDTAB
  0
ENDSEC
  0
SECTION
  2
BLOCKS
  0
BLOCK
  5
20
330
1F
100
AcDbEntity
  8
0
100
AcDbBlockBegin
  2
*Model_Space
 70
     0
 10
0.0
 20
0.0
 30
0.0
  3
*Model_Space
  1

  0
ENDBLK
  5
21
330
1F
100
AcDbEntity
  8
0
100
AcDbBlockEnd
  0
BLOCK
  5
1C
330
1B
100
AcDbEntity
 67
     1
  8
0
100
AcDbBlockBegin
  2
*Paper_Space
 70
     0
 10
0.0
 20
0.0
 30
0.0
  3
*Paper_Space
  1

  0
ENDBLK
  5
1D
330
1B
100
AcDbEntity
 67
     1
  8
0
100
AcDbBlockEnd
  0
BLOCK
  5
62
330
5E
100
AcDbEntity
  8
0
100
AcDbBlockBegin
  2
SEANNOT_GROUP
 70
     0
 10
0.0
 20
0.0
 30
0.0
  3
SEANNOT_GROUP
  1

  0
LINE
  5
61
330
5E
100
AcDbEntity
  8
Default
  6
CENTER2
 62
     7
100
AcDbLine
 10
41.35
 20
408.965091228
 30
0.0
 11
41.35
 21
655.4676603168
 31
0.0
  0
ENDBLK
  5
63
330
5E
100
AcDbEntity
  8
0
100
AcDbBlockEnd
  0
BLOCK
  5
67
330
64
100
AcDbEntity
  8
0
100
AcDbBlockBegin
  2
SEANNOT_GROUP1
 70
     0
 10
0.0
 20
0.0
 30
0.0
  3
SEANNOT_GROUP1
  1

  0
LINE
  5
66
330
64
100
AcDbEntity
  8
Default
  6
CENTER2
 62
     7
100
AcDbLine
 10
41.35
 20
291.1758367995
 30
0.0
 11
41.35
 21
102.85
 31
0.0
  0
ENDBLK
  5
68
330
64
100
AcDbEntity
  8
0
100
AcDbBlockEnd
  0
BLOCK
  5
172
330
69
100
AcDbEntity
  8
0
100
AcDbBlockBegin
  2
SE
 70
     0
 10
0.0
 20
0.0
 30
0.0
  3
SE
  1

  0
LINE
  5
6C
330
69
100
AcDbEntity
  8
17_02_51XX_SOCKE
  6
Continuous
 62
     7
100
AcDbLine
 10
67.35
 20
466.465091228
 30
0.0
 11
15.35
 21
466.465091228
 31
0.0
  0
CIRCLE
  5
6D
330
69
100
AcDbEntity
  8
17_02_51XX_SOCKE
  6
Continuous
 62
     7
100
AcDbCircle
 10
41.35
 20
437.465091228
 30
0.0
 40
5.250000000000001
  0
CIRCLE
  5
6E
330
69
100
AcDbEntity
  8
17_02_51XX_SOCKE
  6
Continuous
 62
     7
100
AcDbCircle
 10
41.35
 20
454.465091228
 30
0.0
 40
5.250000000000002
  0
LINE
  5
6F
330
69
100
AcDbEntity
  8
17_02_51XX_SOCKE
  6
Continuous
 62
     7
100
AcDbLine
 10
17.475
 20
466.665091228
 30
0.0
 11
17.475
 21
466.465091228
 31
0.0
  0
LINE
  5
70
330
69
100
AcDbEntity
  8
17_02_51XX_SOCKE
  6
Continuous
 62
     7
100
AcDbLine
 10
67.35
 20
422.465091228
 30
0.0
 11
67.35
 21
466.465091228
 31
0.0
  0
LINE
  5
71
330
69
100
AcDbEntity
  8
17_02_51XX_SOCKE
  6
Continuous
 62
     7
100
AcDbLine
 10
15.35
 20
466.465091228
 30
0.0
 11
15.35
 21
422.465091228
 31
0.0
  0
LINE
  5
73
330
69
100
AcDbEntity
  8
18_27_31XX_ANSCH
  6
Continuous
 62
     7
100
AcDbLine
 10
68.405
 20
464.465091228
 30
0.0
 11
67.35
 21
464.465091228
 31
0.0
  0
LINE
  5
74
330
69
100
AcDbEntity
  8
18_27_31XX_ANSCH
  6
Continuous
 62
     7
100
AcDbLine
 10
67.35
 20
452.465091228
 30
0.0
 11
68.405
 21
452.465091228
 31
0.0
  0
ELLIPSE
  5
76
330
69
100
AcDbEntity
  8
$DDT_AUDIT_GENERATED_(75)
  6
Continuous
 62
     7
100
AcDbEllipse
 10
49.3673076923
 20
610.1468909881
 30
0.0
 11
-0.09720002750467083
 21
0.09720002750476797
 31
0.0
210
0.0
220
0.0
230
0.9999999999999999
 40
0.8390996312
 41
0.715584993314076
 42
2.268928027593532
  0
ELLIPSE
  5
77
330
69
100
AcDbEntity
  8
$DDT_AUDIT_GENERATED_(75)
  6
Continuous
 62
     7
100
AcDbEllipse
 10
50.825
 20
610.1468909881
 30
0.0
 11
-0.09720002750471073
 21
-0.09720002750471246
 31
0.0
210
0.0
220
0.0
230
0.9999999999999998
 40
0.8390996312
 41
0.8726646259972739
 42
2.426007660268032
  0
ELLIPSE
  5
78
330
69
100
AcDbEntity
  8
$DDT_AUDIT_GENERATED_(75)
  6
Continuous
 62
     7
100
AcDbEllipse
 10
50.825
 20
610.1468909881
 30
0.0
 11
-0.09720002750467083
 21
0.09720002750476797
 31
0.0
210
0.0
220
0.0
230
0.9999999999999999
 40
0.8390996312
 41
0.715584993314076
 42
2.268928027593532
  0
SPLINE
  5
79
330
69
100
AcDbEntity
  8
$DDT_AUDIT_GENERATED_(75)
  6
Continuous
 62
     7
100
AcDbSpline
210
0.0
220
0.0
230
1.0
 70
     8
 71
     3
 72
    23
 73
    19
 74
     0
 42
0.0000000312489803
 43
0.0000000001
 40
0.443164047029208
 40
0.443164047029208
 40
0.443164047029208
 40
0.443164047029208
 40
0.5150935329446051
 40
0.5150935329446051
 40
0.5150935329446051
 40
0.6451320803445094
 40
0.6451320803445094
 40
0.6451320803445094
 40
0.7708115483239988
 40
0.7708115483239988
 40
0.7708115483239988
 40
0.8843556147277554
 40
0.8843556147277554
 40
0.8843556147277554
 40
0.9856732236423635
 40
0.9856732236423635
 40
0.9856732236423635
 40
1.0
 40
1.0
 40
1.0
 40
1.0
 10
52.52489334314158
 20
610.0200143176047
 30
0.0
 10
52.52959688882444
 20
610.0200141345788
 30
0.0
 10
52.53432737138997
 20
610.0209488350156
 30
0.0
 10
52.53895866826118
 20
610.0228086566817
 30
0.0
 10
52.54731368679742
 20
610.0261638388102
 30
0.0
 10
52.55558883732623
 20
610.0326495080495
 30
0.0
 10
52.563055878494
 20
610.0419062243334
 30
0.0
 10
52.57026448574298
 20
610.0508425661327
 30
0.0
 10
52.57694704330194
 20
610.0626784570319
 30
0.0
 10
52.58241145179992
 20
610.076481430273
 30
0.0
 10
52.58735282221507
 20
610.0889632210542
 30
0.0
 10
52.59145412549185
 20
610.1034730560119
 30
0.0
 10
52.59425928062858
 20
610.1186279163318
 30
0.0
 10
52.59676806778375
 20
610.1321816476071
 30
0.0
 10
52.59831695412699
 20
610.146665310289
 30
0.0
 10
52.59874151857938
 20
610.1607025824097
 30
0.0
 10
52.59880255113865
 20
610.1627204872009
 30
0.0
 10
52.59884125533122
 20
610.1647344570218
 30
0.0
 10
52.59885753994364
 20
610.1667402729131
 30
0.0
  0
ELLIPSE
  5
7A
330
69
100
AcDbEntity
  8
$DDT_AUDIT_GENERATED_(75)
  6
Continuous
 62
     7
100
AcDbEllipse
 10
49.3673076923
 20
610.1468909881
 30
0.0
 11
-0.09720002750467083
 21
-0.09720002750476797
 31
0.0
210
0.0
220
0.0
230
0.9999999999999999
 40
0.8390996312
 41
0.8726646259962134
 42
2.426007660275717
  0
ELLIPSE
  5
7B
330
69
100
AcDbEntity
  8
$DDT_AUDIT_GENERATED_(75)
  6
Continuous
 62
     7
100
AcDbEllipse
 10
50.1000028066
 20
675.1432817196
 30
0.0
 11
-1.161417569756073E-6
 21
-155.6313258849761
 31
0.0
210
0.0
220
0.0
230
1.0
 40
0.0176699464
 41
1.140100730764393
 42
1.140966215841628
  0
LINE
  5
7C
330
69
100
AcDbEntity
  8
$DDT_AUDIT_GENERATED_(75)
  6
Continuous
 62
     7
100
AcDbLine
 10
50.9518662991
 20
610.1667402729
 30
0.0
 11
50.9540294506
 21
610.2891600391
 31
0.0
  0
LINE
  5
7D
330
69
100
AcDbEntity
  8
$DDT_AUDIT_GENERATED_(75)
  6
Continuous
 62
     7
100
AcDbLine
 10
50.6959705494
 20
610.2891600391
 30
0.0
 11
50.6981337009
 21
610.1667402729
 31
0.0
  0
LINE
  5
7E
330
69
100
AcDbEntity
  8
$DDT_AUDIT_GENERATED_(75)
  6
Continuous
 62
     7
100
AcDbLine
 10
49.4941739914
 20
610.1667402729
 30
0.0
 11
49.4963371429
 21
610.2891600391
 31
0.0
  0
LINE
  5
7F
330
69
100
AcDbEntity
  8
$DDT_AUDIT_GENERATED_(75)
  6
Continuous
 62
     7
100
AcDbLine
 10
49.2382782417
 20
610.2891600391
 30
0.0
 11
49.2404413932
 21
610.1667402729
 31
0.0
  0
ELLIPSE
  5
80
330
69
100
AcDbEntity
  8
$DDT_AUDIT_GENERATED_(75)
  6
Continuous
 62
     7
100
AcDbEllipse
 10
47.9096153846
 20
610.4160456635
 30
0.0
 11
-0.0972000275047272
 21
-0.09720002750471246
 31
0.0
210
0.0
220
0.0
230
1.0
 40
0.8390996312
 41
0.8726646262208576
 42
2.426007660276194
  0
ELLIPSE
  5
81
330
69
100
AcDbEntity
  8
$DDT_AUDIT_GENERATED_(75)
  6
Continuous
 62
     7
100
AcDbEllipse
 10
49.3673076923
 20
610.4160456635
 30
0.0
 11
-0.0972000275047003
 21
-0.0972000275047402
 31
0.0
210
0.0
220
0.0
230
1.0
 40
0.8390996312
 41
0.8726646262211025
 42
2.426007660275898
  0
ELLIPSE
  5
82
330
69
100
AcDbEntity
  8
$DDT_AUDIT_GENERATED_(75)
  6
Continuous
 62
     7
100
AcDbEllipse
 10
50.825
 20
610.4160456635
 30
0.0
 11
-0.0972000275047645
 21
0.09720002750465695
 31
0.0
210
0.0
220
0.0
230
1.0
 40
0.8390996312
 41
0.715584993313146
 42
2.26892802759258
  0
ELLIPSE
  5
83
330
69
100
AcDbEntity
  8
$DDT_AUDIT_GENERATED_(75)
  6
Continuous
 62
     7
100
AcDbEllipse
 10
50.825
 20
610.4160456635
 30
0.0
 11
-0.09720002750479051
 21
-0.09720002750462917
 31
0.0
210
0.0
220
0.0
230
0.9999999999999998
 40
0.8390996312
 41
0.8726646259973422
 42
2.426007660269592
  0
LINE
  5
84
330
69
100
AcDbEntity
  8
$DDT_AUDIT_GENERATED_(75)
  6
Continuous
 62
     7
100
AcDbLine
 10
50.9518662991
 20
610.4358949483
 30
0.0
 11
50.953026368
 21
610.5015470109
 31
0.0
  0
LINE
  5
85
330
69
100
AcDbEntity
  8
$DDT_AUDIT_GENERATED_(75)
  6
Continuous
 62
     7
100
AcDbLine
 10
50.6969114637
 20
610.5050653172
 30
0.0
 11
50.6981337009
 21
610.4358949483
 31
0.0
  0
LINE
  5
86
330
69
100
AcDbEntity
  8
$DDT_AUDIT_GENERATED_(75)
  6
Continuous
 62
     7
100
AcDbLine
 10
48.0364816837
 20
610.4358949483
 30
0.0
 11
48.0377138423
 21
610.5056268011
 31
0.0
  0
ELLIPSE
  5
87
330
69
100
AcDbEntity
  8
$DDT_AUDIT_GENERATED_(75)
  6
Continuous
 62
     7
100
AcDbEllipse
 10
47.9096153846
 20
610.4160456635
 30
0.0
 11
-0.097200027504781
 21
0.09720002750465696
 31
0.0
210
0.0
220
0.0
230
1.0
 40
0.8390996312
 41
0.7155849933131166
 42
2.268928027368042
  0
LINE
  5
88
330
69
100
AcDbEntity
  8
$DDT_AUDIT_GENERATED_(75)
  6
Continuous
 62
     7
100
AcDbLine
 10
47.7815169269
 20
610.5056268011
 30
0.0
 11
47.7827490855
 21
610.4358949483
 31
0.0
  0
LINE
  5
89
330
69
100
AcDbEntity
  8
$DDT_AUDIT_GENERATED_(75)
  6
Continuous
 62
     7
100
AcDbLine
 10
49.4941739914
 20
610.4358949483
 30
0.0
 11
49.49540615
 21
610.5056268011
 31
0.0
  0
ELLIPSE
  5
8A
330
69
100
AcDbEntity
  8
$DDT_AUDIT_GENERATED_(75)
  6
Continuous
 62
     7
100
AcDbEllipse
 10
49.3673076923
 20
610.4160456635
 30
0.0
 11
-0.09720002750473328
 21
0.09720002750471246
 31
0.0
210
0.0
220
0.0
230
0.9999999999999998
 40
0.8390996312
 41
0.7155849933136635
 42
2.268928027369217
  0
LINE
  5
8B
330
69
100
AcDbEntity
  8
$DDT_AUDIT_GENERATED_(75)
  6
Continuous
 62
     7
100
AcDbLine
 10
49.2392092346
 20
610.5056268011
 30
0.0
 11
49.2404413932
 21
610.4358949483
 31
0.0
  0
LINE
  5
8C
330
69
100
AcDbEntity
  8
$DDT_AUDIT_GENERATED_(75)
  6
Continuous
 62
     7
100
AcDbLine
 10
48.907179677
 20
609.707638759
 30
0.0
 11
33.792820323
 21
609.707638759
 31
0.0
  0
LINE
  5
8D
330
69
100
AcDbEntity
  8
$DDT_AUDIT_GENERATED_(75)
  6
Continuous
 62
     7
100
AcDbLine
 10
52.85
 20
610.3327721986
 30
0.0
 11
52.85
 21
609.8986517544
 31
0.0
  0
ELLIPSE
  5
8E
330
69
100
AcDbEntity
  8
$DDT_AUDIT_GENERATED_(75)
  6
Continuous
 62
     7
100
AcDbEllipse
 10
50.1
 20
609.8986517544
 30
0.0
 11
2.749999999999999
 21
-2.775557561562891E-14
 31
0.0
210
0.0
220
0.0
230
1.0
 40
0.1736481777
 41
4.712388980384691
 42
6.283185307179586
  0
LINE
  5
8F
330
69
100
AcDbEntity
  8
$DDT_AUDIT_GENERATED_(75)
  6
Continuous
 62
     7
100
AcDbLine
 10
48.9349696821
 20
610.1667402729
 30
0.0
 11
48.933720786
 21
610.2891600391
 31
0.0
  0
ELLIPSE
  5
90
330
69
100
AcDbEntity
  8
$DDT_AUDIT_GENERATED_(75)
  6
Continuous
 62
     7
100
AcDbEllipse
 10
49.0082159741
 20
610.1468909881
 30
0.0
 11
0.0186053659267044
 21
-0.126456649509582
 31
0.0
210
0.0
220
0.0
230
0.9999999999999997
 40
0.5603141192
 41
4.473057214818613
 42
6.026400249092974
  0
LINE
  5
91
330
69
100
AcDbEntity
  8
$DDT_AUDIT_GENERATED_(75)
  6
Continuous
 62
     7
100
AcDbLine
 10
53.45
 20
610.2435691582
 30
0.0
 11
53.45
 21
610.1940940803
 31
0.0
  0
ELLIPSE
  5
92
330
69
100
AcDbEntity
  8
$DDT_AUDIT_GENERATED_(75)
  6
Continuous
 62
     7
100
AcDbEllipse
 10
50.1
 20
610.1940940803
 30
0.0
 11
3.349999999999999
 21
0.0
 31
0.0
210
0.0
220
0.0
230
1.0
 40
0.1736481777
 41
5.856754287528725
 42
6.283185307179586
  0
LINE
  5
93
330
69
100
AcDbEntity
  8
$DDT_AUDIT_GENERATED_(75)
  6
Continuous
 62
     7
100
AcDbLine
 10
53.15
 20
610.3327721986
 30
0.0
 11
53.15
 21
609.8986517544
 31
0.0
  0
ELLIPSE
  5
94
330
69
100
AcDbEntity
  8
$DDT_AUDIT_GENERATED_(75)
  6
Continuous
 62
     7
100
AcDbEllipse
 10
50.1
 20
609.8986517544
 30
0.0
 11
3.049999999999997
 21
0.0
 31
0.0
210
0.0
220
0.0
230
1.0
 40
0.1736481777
 41
4.71238898038469
 42
6.283185307179586
  0
LINE
  5
95
330
69
100
AcDbEntity
  8
$DDT_AUDIT_GENERATED_(75)
  6
Continuous
 62
     7
100
AcDbLine
 10
49.3673076923
 20
609.9139299352
 30
0.0
 11
49.0082159741
 21
610.0219330415
 31
0.0
  0
LINE
  5
96
330
69
100
AcDbEntity
  8
$DDT_AUDIT_GENERATED_(75)
  6
Continuous
 62
     7
100
AcDbLine
 10
50.9518662991
 20
609.9120681384
 30
0.0
 11
50.9518662991
 21
610.0200053637
 31
0.0
  0
LINE
  5
97
330
69
100
AcDbEntity
  8
$DDT_AUDIT_GENERATED_(75)
  6
Continuous
 62
     7
100
AcDbLine
 10
50.6981337009
 20
609.9000114204
 30
0.0
 11
50.6981337009
 21
610.0200053637
 31
0.0
  0
LINE
  5
98
330
69
100
AcDbEntity
  8
$DDT_AUDIT_GENERATED_(75)
  6
Continuous
 62
     7
100
AcDbLine
 10
49.8598076211
 20
609.4211192658
 30
0.0
 11
48.907179677
 21
609.707638759
 31
0.0
  0
LINE
  5
99
330
69
100
AcDbEntity
  8
$DDT_AUDIT_GENERATED_(75)
  6
Continuous
 62
     7
100
AcDbLine
 10
34.1392304845
 20
609.6034498524
 30
0.0
 11
48.5607695155
 21
609.6034498524
 31
0.0
  0
LINE
  5
9A
330
69
100
AcDbEntity
  8
$DDT_AUDIT_GENERATED_(75)
  6
Continuous
 62
     7
100
AcDbLine
 10
33.766279214
 20
610.2891600391
 30
0.0
 11
33.7650303179
 21
610.1667402729
 31
0.0
  0
ELLIPSE
  5
9B
330
69
100
AcDbEntity
  8
$DDT_AUDIT_GENERATED_(75)
  6
Continuous
 62
     7
100
AcDbEllipse
 10
33.6917840259
 20
610.1468909881
 30
0.0
 11
0.01860536592674257
 21
0.1264566495095543
 31
0.0
210
0.0
220
0.0
230
0.9999999999999998
 40
0.5603141192
 41
3.398377711675651
 42
4.951720745950086
  0
LINE
  5
9C
330
69
100
AcDbEntity
  8
$DDT_AUDIT_GENERATED_(75)
  6
Continuous
 62
     7
100
AcDbLine
 10
33.6917840259
 20
610.0219330415
 30
0.0
 11
33.3326923077
 21
609.9139299352
 31
0.0
  0
ELLIPSE
  5
9D
330
69
100
AcDbEntity
  8
$DDT_AUDIT_GENERATED_(75)
  6
Continuous
 62
     7
100
AcDbEllipse
 10
33.3326923077
 20
610.0388878819
 30
0.0
 11
0.09826517420546617
 21
0.1086094382237168
 31
0.0
210
0.0
220
0.0
230
1.0
 40
0.7391071595
 41
2.474077460632079
 42
4.027420495051388
  0
LINE
  5
9E
330
69
100
AcDbEntity
  8
$DDT_AUDIT_GENERATED_(75)
  6
Continuous
 62
     7
100
AcDbLine
 10
33.2058260086
 20
609.9985498096
 30
0.0
 11
33.2054436849
 21
610.0200053637
 31
0.0
  0
ELLIPSE
  5
9F
330
69
100
AcDbEntity
  8
$DDT_AUDIT_GENERATED_(75)
  6
Continuous
 62
     7
100
AcDbEllipse
 10
32.6
 20
610.1940940803
 30
0.0
 11
-3.349999999999999
 21
0.0
 31
0.0
210
0.0
220
0.0
230
1.0
 40
0.1736481777
 41
0.0
 42
0.4264310196508582
  0
ELLIPSE
  5
A0
330
69
100
AcDbEntity
  8
$DDT_AUDIT_GENERATED_(75)
  6
Continuous
 62
     7
100
AcDbEllipse
 10
32.6
 20
609.8986517544
 30
0.0
 11
2.74999999999998
 21
2.775557561562891E-14
 31
0.0
210
0.0
220
0.0
230
1.0
 40
0.1736481777
 41
3.141592653589793
 42
4.712388980384688
  0
LINE
  5
A1
330
69
100
AcDbEntity
  8
$DDT_AUDIT_GENERATED_(75)
  6
Continuous
 62
     7
100
AcDbLine
 10
29.85
 20
609.8986517544
 30
0.0
 11
29.85
 21
610.3327721986
 31
0.0
  0
LINE
  5
A2
330
69
100
AcDbEntity
  8
$DDT_AUDIT_GENERATED_(75)
  6
Continuous
 62
     7
100
AcDbLine
 10
29.55
 20
610.3327721986
 30
0.0
 11
29.55
 21
609.8986517544
 31
0.0
  0
ELLIPSE
  5
A3
330
69
100
AcDbEntity
  8
$DDT_AUDIT_GENERATED_(75)
  6
Continuous
 62
     7
100
AcDbEllipse
 10
32.6
 20
609.8986517544
 30
0.0
 11
-3.049999999999999
 21
0.0
 31
0.0
210
0.0
220
0.0
230
1.0
 40
0.1736481777
 41
0.0
 42
1.570796326794897
  0
LINE
  5
A4
330
69
100
AcDbEntity
  8
$DDT_AUDIT_GENERATED_(75)
  6
Continuous
 62
     7
100
AcDbLine
 10
32.6
 20
609.3690248125
 30
0.0
 11
33.3598076211
 21
609.3690248125
 31
0.0
  0
LINE
  5
A5
330
69
100
AcDbEntity
  8
$DDT_AUDIT_GENERATED_(75)
  6
Continuous
 62
     7
100
AcDbLine
 10
33.792820323
 20
609.707638759
 30
0.0
 11
32.8401923789
 21
609.4211192658
 31
0.0
  0
LINE
  5
A6
330
69
100
AcDbEntity
  8
$DDT_AUDIT_GENERATED_(75)
  6
Continuous
 62
     7
100
AcDbLine
 10
32.8401923789
 20
609.4211192658
 30
0.0
 11
32.6
 21
609.4211192658
 31
0.0
  0
LINE
  5
A7
330
69
100
AcDbEntity
  8
$DDT_AUDIT_GENERATED_(75)
  6
Continuous
 62
     7
100
AcDbLine
 10
32.0018662991
 20
609.9000114204
 30
0.0
 11
32.0018662991
 21
610.0200053637
 31
0.0
  0
ARC
  5
A8
330
69
100
AcDbEntity
  8
$DDT_AUDIT_GENERATED_(75)
  6
Continuous
 62
     7
100
AcDbCircle
 10
31.8823476002
 20
609.9020053535
 30
0.0
 40
0.1195353301590805
100
AcDbArc
 50
266.4759202371
 51
359.0442219321
  0
LINE
  5
A9
330
69
100
AcDbEntity
  8
$DDT_AUDIT_GENERATED_(75)
  6
Continuous
 62
     7
100
AcDbLine
 10
32.8401923789
 20
609.4211192658
 30
0.0
 11
32.8401923789
 21
610.0200053637
 31
0.0
  0
LINE
  5
AA
330
69
100
AcDbEntity
  8
$DDT_AUDIT_GENERATED_(75)
  6
Continuous
 62
     7
100
AcDbLine
 10
31.7481337009
 20
609.9120681384
 30
0.0
 11
31.7481337009
 21
610.0200053637
 31
0.0
  0
LINE
  5
AB
330
69
100
AcDbEntity
  8
$DDT_AUDIT_GENERATED_(75)
  6
Continuous
 62
     7
100
AcDbLine
 10
31.7462225238
 20
610.0200053641
 30
0.0
 11
31.7481337009
 21
609.9120681361
 31
0.0
  0
LINE
  5
AC
330
69
100
AcDbEntity
  8
$DDT_AUDIT_GENERATED_(75)
  6
Continuous
 62
     7
100
AcDbLine
 10
32.0018662992
 20
609.9000114217
 30
0.0
 11
32.0039945491
 21
610.0200053641
 31
0.0
  0
ARC
  5
AD
330
69
100
AcDbEntity
  8
$DDT_AUDIT_GENERATED_(75)
  6
Continuous
 62
     7
100
AcDbCircle
 10
31.8819490038
 20
609.9164010344
 30
0.0
 40
0.1338854334779444
100
AcDbArc
 50
181.8545707534
 51
267.0248625304
  0
LINE
  5
AE
330
69
100
AcDbEntity
  8
$DDT_AUDIT_GENERATED_(75)
  6
Continuous
 62
     7
100
AcDbLine
 10
34.1392304845
 20
609.6034498524
 30
0.0
 11
33.3598076211
 21
609.3690248125
 31
0.0
  0
ELLIPSE
  5
AF
330
69
100
AcDbEntity
  8
$DDT_AUDIT_GENERATED_(75)
  6
Continuous
 62
     7
100
AcDbEllipse
 10
36.2480769231
 20
610.4160456635
 30
0.0
 11
-0.09720002750473328
 21
-0.09720002750468471
 31
0.0
210
0.0
220
0.0
230
1.0
 40
0.8390996312
 41
0.8726646262206236
 42
2.426007660276414
  0
ELLIPSE
  5
B0
330
69
100
AcDbEntity
  8
$DDT_AUDIT_GENERATED_(75)
  6
Continuous
 62
     7
100
AcDbEllipse
 10
37.7057692308
 20
610.4160456635
 30
0.0
 11
-0.09720002750473371
 21
0.09720002750468471
 31
0.0
210
0.0
220
0.0
230
1.0
 40
0.8390996312
 41
0.7155849933134362
 42
2.268928027369213
  0
ELLIPSE
  5
B1
330
69
100
AcDbEntity
  8
$DDT_AUDIT_GENERATED_(75)
  6
Continuous
 62
     7
100
AcDbEllipse
 10
37.7057692308
 20
610.4160456635
 30
0.0
 11
-0.09720002750473197
 21
-0.09720002750468471
 31
0.0
210
0.0
220
0.0
230
1.0
 40
0.8390996312
 41
0.8726646262206125
 42
2.42600766027636
  0
ELLIPSE
  5
B2
330
69
100
AcDbEntity
  8
$DDT_AUDIT_GENERATED_(75)
  6
Continuous
 62
     7
100
AcDbEllipse
 10
39.1634615385
 20
610.4160456635
 30
0.0
 11
-0.09720002750473328
 21
0.09720002750468471
 31
0.0
210
0.0
220
0.0
230
1.0
 40
0.8390996312
 41
0.7155849933134353
 42
2.268928027369217
  0
ELLIPSE
  5
B3
330
69
100
AcDbEntity
  8
$DDT_AUDIT_GENERATED_(75)
  6
Continuous
 62
     7
100
AcDbEllipse
 10
39.1634615385
 20
610.4160456635
 30
0.0
 11
-0.09720002750473328
 21
-0.09720002750468471
 31
0.0
210
0.0
220
0.0
230
1.0
 40
0.8390996312
 41
0.8726646262206714
 42
2.426007660276414
  0
ELLIPSE
  5
B4
330
69
100
AcDbEntity
  8
$DDT_AUDIT_GENERATED_(75)
  6
Continuous
 62
     7
100
AcDbEllipse
 10
40.6211538462
 20
610.4160456635
 30
0.0
 11
-0.09720002750473358
 21
0.09720002750468469
 31
0.0
210
0.0
220
0.0
230
1.0
 40
0.8390996312
 41
0.7155849933134358
 42
2.268928027369215
  0
ELLIPSE
  5
B5
330
69
100
AcDbEntity
  8
$DDT_AUDIT_GENERATED_(75)
  6
Continuous
 62
     7
100
AcDbEllipse
 10
40.6211538462
 20
610.4160456635
 30
0.0
 11
-0.09720002750473283
 21
-0.09720002750468469
 31
0.0
210
0.0
220
0.0
230
1.0
 40
0.8390996312
 41
0.8726646262206198
 42
2.426007660276414
  0
ELLIPSE
  5
B6
330
69
100
AcDbEntity
  8
$DDT_AUDIT_GENERATED_(75)
  6
Continuous
 62
     7
100
AcDbEllipse
 10
42.0788461538
 20
610.4160456635
 30
0.0
 11
-0.09720002750473358
 21
0.09720002750468469
 31
0.0
210
0.0
220
0.0
230
1.0
 40
0.8390996312
 41
0.7155849933134358
 42
2.268928027367783
  0
ELLIPSE
  5
B7
330
69
100
AcDbEntity
  8
$DDT_AUDIT_GENERATED_(75)
  6
Continuous
 62
     7
100
AcDbEllipse
 10
42.0788461538
 20
610.4160456635
 30
0.0
 11
-0.09720002750473251
 21
-0.09720002750468471
 31
0.0
210
0.0
220
0.0
230
1.0
 40
0.8390996312
 41
0.8726646262220487
 42
2.426007660276359
  0
ELLIPSE
  5
B8
330
69
100
AcDbEntity
  8
$DDT_AUDIT_GENERATED_(75)
  6
Continuous
 62
     7
100
AcDbEllipse
 10
43.5365384615
 20
610.4160456635
 30
0.0
 11
-0.09720002750477924
 21
0.09720002750465695
 31
0.0
210
0.0
220
0.0
230
1.0
 40
0.8390996312
 41
0.7155849933131695
 42
2.268928027368105
  0
ELLIPSE
  5
B9
330
69
100
AcDbEntity
  8
$DDT_AUDIT_GENERATED_(75)
  6
Continuous
 62
     7
100
AcDbEllipse
 10
43.5365384615
 20
610.4160456635
 30
0.0
 11
-0.09720002750472634
 21
-0.09720002750471246
 31
0.0
210
0.0
220
0.0
230
0.9999999999999998
 40
0.8390996312
 41
0.8726646262208501
 42
2.426007660276196
  0
ELLIPSE
  5
BA
330
69
100
AcDbEntity
  8
$DDT_AUDIT_GENERATED_(75)
  6
Continuous
 62
     7
100
AcDbEllipse
 10
44.9942307692
 20
610.4160456635
 30
0.0
 11
-0.09720002750477924
 21
0.09720002750465695
 31
0.0
210
0.0
220
0.0
230
1.0
 40
0.8390996312
 41
0.7155849933131695
 42
2.268928027368105
  0
ELLIPSE
  5
BB
330
69
100
AcDbEntity
  8
$DDT_AUDIT_GENERATED_(75)
  6
Continuous
 62
     7
100
AcDbEllipse
 10
44.9942307692
 20
610.4160456635
 30
0.0
 11
-0.09720002750472634
 21
-0.09720002750471246
 31
0.0
210
0.0
220
0.0
230
0.9999999999999998
 40
0.8390996312
 41
0.8726646262208501
 42
2.42600766027614
  0
ELLIPSE
  5
BC
330
69
100
AcDbEntity
  8
$DDT_AUDIT_GENERATED_(75)
  6
Continuous
 62
     7
100
AcDbEllipse
 10
46.4519230769
 20
610.4160456635
 30
0.0
 11
-0.09720002750463959
 21
0.09720002750479571
 31
0.0
210
0.0
220
0.0
230
1.0
 40
0.8390996312
 41
0.7155849933152572
 42
2.268928027369549
  0
ELLIPSE
  5
BD
330
69
100
AcDbEntity
  8
$DDT_AUDIT_GENERATED_(75)
  6
Continuous
 62
     7
100
AcDbEllipse
 10
36.2480769231
 20
610.4160456635
 30
0.0
 11
-0.09720002750473328
 21
0.09720002750468471
 31
0.0
210
0.0
220
0.0
230
1.0
 40
0.8390996312
 41
0.7155849933134353
 42
2.268928027369217
  0
ELLIPSE
  5
BE
330
69
100
AcDbEntity
  8
$DDT_AUDIT_GENERATED_(75)
  6
Continuous
 62
     7
100
AcDbEllipse
 10
46.4519230769
 20
610.4160456635
 30
0.0
 11
-0.0972000275047272
 21
-0.09720002750471246
 31
0.0
210
0.0
220
0.0
230
1.0
 40
0.8390996312
 41
0.8726646262208576
 42
2.426007660276139
  0
LINE
  5
BF
330
69
100
AcDbEntity
  8
$DDT_AUDIT_GENERATED_(75)
  6
Continuous
 62
     7
100
AcDbLine
 10
36.3749432222
 20
610.4358949483
 30
0.0
 11
36.3761753808
 21
610.5056268011
 31
0.0
  0
LINE
  5
C0
330
69
100
AcDbEntity
  8
$DDT_AUDIT_GENERATED_(75)
  6
Continuous
 62
     7
100
AcDbLine
 10
37.5776707731
 20
610.5056268011
 30
0.0
 11
37.5789029316
 21
610.4358949483
 31
0.0
  0
LINE
  5
C1
330
69
100
AcDbEntity
  8
$DDT_AUDIT_GENERATED_(75)
  6
Continuous
 62
     7
100
AcDbLine
 10
37.8326355299
 20
610.4358949483
 30
0.0
 11
37.8338676885
 21
610.5056268011
 31
0.0
  0
LINE
  5
C2
330
69
100
AcDbEntity
  8
$DDT_AUDIT_GENERATED_(75)
  6
Continuous
 62
     7
100
AcDbLine
 10
39.0353630808
 20
610.5056268011
 30
0.0
 11
39.0365952393
 21
610.4358949483
 31
0.0
  0
LINE
  5
C3
330
69
100
AcDbEntity
  8
$DDT_AUDIT_GENERATED_(75)
  6
Continuous
 62
     7
100
AcDbLine
 10
39.2903278376
 20
610.4358949483
 30
0.0
 11
39.2915599961
 21
610.5056268011
 31
0.0
  0
LINE
  5
C4
330
69
100
AcDbEntity
  8
$DDT_AUDIT_GENERATED_(75)
  6
Continuous
 62
     7
100
AcDbLine
 10
40.4930553885
 20
610.5056268011
 30
0.0
 11
40.494287547
 21
610.4358949483
 31
0.0
  0
LINE
  5
C5
330
69
100
AcDbEntity
  8
$DDT_AUDIT_GENERATED_(75)
  6
Continuous
 62
     7
100
AcDbLine
 10
40.7480201453
 20
610.4358949483
 30
0.0
 11
40.7492523038
 21
610.5056268011
 31
0.0
  0
LINE
  5
C6
330
69
100
AcDbEntity
  8
$DDT_AUDIT_GENERATED_(75)
  6
Continuous
 62
     7
100
AcDbLine
 10
41.9507476962
 20
610.5056268011
 30
0.0
 11
41.9519798547
 21
610.4358949483
 31
0.0
  0
LINE
  5
C7
330
69
100
AcDbEntity
  8
$DDT_AUDIT_GENERATED_(75)
  6
Continuous
 62
     7
100
AcDbLine
 10
42.205712453
 20
610.4358949483
 30
0.0
 11
42.2069446115
 21
610.5056268011
 31
0.0
  0
LINE
  5
C8
330
69
100
AcDbEntity
  8
$DDT_AUDIT_GENERATED_(75)
  6
Continuous
 62
     7
100
AcDbLine
 10
43.4084400039
 20
610.5056268011
 30
0.0
 11
43.4096721624
 21
610.4358949483
 31
0.0
  0
LINE
  5
C9
330
69
100
AcDbEntity
  8
$DDT_AUDIT_GENERATED_(75)
  6
Continuous
 62
     7
100
AcDbLine
 10
43.6634047607
 20
610.4358949483
 30
0.0
 11
43.6646369192
 21
610.5056268011
 31
0.0
  0
LINE
  5
CA
330
69
100
AcDbEntity
  8
$DDT_AUDIT_GENERATED_(75)
  6
Continuous
 62
     7
100
AcDbLine
 10
44.8661323115
 20
610.5056268011
 30
0.0
 11
44.8673644701
 21
610.4358949483
 31
0.0
  0
LINE
  5
CB
330
69
100
AcDbEntity
  8
$DDT_AUDIT_GENERATED_(75)
  6
Continuous
 62
     7
100
AcDbLine
 10
45.1210970684
 20
610.4358949483
 30
0.0
 11
45.1223292269
 21
610.5056268011
 31
0.0
  0
LINE
  5
CC
330
69
100
AcDbEntity
  8
$DDT_AUDIT_GENERATED_(75)
  6
Continuous
 62
     7
100
AcDbLine
 10
46.3238246192
 20
610.5056268011
 30
0.0
 11
46.3250567778
 21
610.4358949483
 31
0.0
  0
LINE
  5
CD
330
69
100
AcDbEntity
  8
$DDT_AUDIT_GENERATED_(75)
  6
Continuous
 62
     7
100
AcDbLine
 10
36.1199784654
 20
610.5056268011
 30
0.0
 11
36.1212106239
 21
610.4358949483
 31
0.0
  0
ELLIPSE
  5
CE
330
69
100
AcDbEntity
  8
$DDT_AUDIT_GENERATED_(75)
  6
Continuous
 62
     7
100
AcDbEllipse
 10
47.9096153846
 20
610.1772794192
 30
0.0
 11
0.1268856244279661
 21
-9.084399898995343E-11
 31
0.0
210
0.0
220
0.0
230
1.0
 40
0.984807753
 41
4.712388981089765
 42
6.265732015360274
  0
ELLIPSE
  5
CF
330
69
100
AcDbEntity
  8
$DDT_AUDIT_GENERATED_(75)
  6
Continuous
 62
     7
100
AcDbEllipse
 10
47.9096153846
 20
610.1772794192
 30
0.0
 11
0.1268856244279141
 21
-2.775557561562891E-14
 31
0.0
210
0.0
220
0.0
230
1.0
 40
0.984807753
 41
3.159045946106929
 42
4.712388980384905
  0
LINE
  5
D0
330
69
100
AcDbEntity
  8
$DDT_AUDIT_GENERATED_(75)
  6
Continuous
 62
     7
100
AcDbLine
 10
47.7827490855
 20
610.1750986023
 30
0.0
 11
47.7807274221
 21
610.2891600391
 31
0.0
  0
LINE
  5
D1
330
69
100
AcDbEntity
  8
$DDT_AUDIT_GENERATED_(75)
  6
Continuous
 62
     7
100
AcDbLine
 10
48.0385033471
 20
610.2891600391
 30
0.0
 11
48.0364816837
 21
610.1750986024
 31
0.0
  0
ELLIPSE
  5
D2
330
69
100
AcDbEntity
  8
$DDT_AUDIT_GENERATED_(75)
  6
Continuous
 62
     7
100
AcDbEllipse
 10
46.4519230769
 20
610.1772794192
 30
0.0
 11
0.126885624427954
 21
-9.087175456556906E-11
 31
0.0
210
0.0
220
0.0
230
1.0
 40
0.984807753
 41
4.71238898108998
 42
6.265732015362768
  0
ELLIPSE
  5
D3
330
69
100
AcDbEntity
  8
$DDT_AUDIT_GENERATED_(75)
  6
Continuous
 62
     7
100
AcDbEllipse
 10
46.4519230769
 20
610.1772794192
 30
0.0
 11
-0.126885624427915
 21
0.0
 31
0.0
210
0.0
220
0.0
230
1.0
 40
0.984807753
 41
0.0174532925173397
 42
1.570796326794897
  0
LINE
  5
D4
330
69
100
AcDbEntity
  8
$DDT_AUDIT_GENERATED_(75)
  6
Continuous
 62
     7
100
AcDbLine
 10
46.3250567778
 20
610.1750986023
 30
0.0
 11
46.3230351144
 21
610.2891600391
 31
0.0
  0
LINE
  5
D5
330
69
100
AcDbEntity
  8
$DDT_AUDIT_GENERATED_(75)
  6
Continuous
 62
     7
100
AcDbLine
 10
46.5808110394
 20
610.2891600391
 30
0.0
 11
46.5787893761
 21
610.1750986024
 31
0.0
  0
ELLIPSE
  5
D6
330
69
100
AcDbEntity
  8
$DDT_AUDIT_GENERATED_(75)
  6
Continuous
 62
     7
100
AcDbEllipse
 10
44.9942307692
 20
610.1772794192
 30
0.0
 11
0.1268856244279644
 21
-8.995582057025331E-11
 31
0.0
210
0.0
220
0.0
230
1.0
 40
0.984807753
 41
4.712388981082871
 42
6.265732015357373
  0
ELLIPSE
  5
D7
330
69
100
AcDbEntity
  8
$DDT_AUDIT_GENERATED_(75)
  6
Continuous
 62
     7
100
AcDbEllipse
 10
44.9942307692
 20
610.1772794192
 30
0.0
 11
0.1268856244279141
 21
0.0
 31
0.0
210
0.0
220
0.0
230
1.0
 40
0.984807753
 41
3.159045946113144
 42
4.71238898038469
  0
LINE
  5
D8
330
69
100
AcDbEntity
  8
$DDT_AUDIT_GENERATED_(75)
  6
Continuous
 62
     7
100
AcDbLine
 10
44.8673644701
 20
610.1750986023
 30
0.0
 11
44.8653428067
 21
610.2891600391
 31
0.0
  0
LINE
  5
D9
330
69
100
AcDbEntity
  8
$DDT_AUDIT_GENERATED_(75)
  6
Continuous
 62
     7
100
AcDbLine
 10
45.1231187318
 20
610.2891600391
 30
0.0
 11
45.1210970684
 21
610.1750986024
 31
0.0
  0
ELLIPSE
  5
DA
330
69
100
AcDbEntity
  8
$DDT_AUDIT_GENERATED_(75)
  6
Continuous
 62
     7
100
AcDbEllipse
 10
43.5365384615
 20
610.1772794192
 30
0.0
 11
0.1268856244279631
 21
-8.995582057025331E-11
 31
0.0
210
0.0
220
0.0
230
1.0
 40
0.984807753
 41
4.712388981082871
 42
6.265732015357965
  0
ELLIPSE
  5
DB
330
69
100
AcDbEntity
  8
$DDT_AUDIT_GENERATED_(75)
  6
Continuous
 62
     7
100
AcDbEllipse
 10
43.5365384615
 20
610.1772794192
 30
0.0
 11
0.1268856244279141
 21
0.0
 31
0.0
210
0.0
220
0.0
230
1.0
 40
0.984807753
 41
3.159045946109932
 42
4.71238898038469
  0
LINE
  5
DC
330
69
100
AcDbEntity
  8
$DDT_AUDIT_GENERATED_(75)
  6
Continuous
 62
     7
100
AcDbLine
 10
43.4096721624
 20
610.1750986023
 30
0.0
 11
43.407650499
 21
610.2891600391
 31
0.0
  0
LINE
  5
DD
330
69
100
AcDbEntity
  8
$DDT_AUDIT_GENERATED_(75)
  6
Continuous
 62
     7
100
AcDbLine
 10
43.6654264241
 20
610.2891600391
 30
0.0
 11
43.6634047607
 21
610.1750986024
 31
0.0
  0
ELLIPSE
  5
DE
330
69
100
AcDbEntity
  8
$DDT_AUDIT_GENERATED_(75)
  6
Continuous
 62
     7
100
AcDbEllipse
 10
42.0788461538
 20
610.1772794192
 30
0.0
 11
0.1268856244279628
 21
-8.992806499463767E-11
 31
0.0
210
0.0
220
0.0
230
1.0
 40
0.984807753
 41
4.712388981082656
 42
6.265732015357901
  0
ELLIPSE
  5
DF
330
69
100
AcDbEntity
  8
$DDT_AUDIT_GENERATED_(75)
  6
Continuous
 62
     7
100
AcDbEllipse
 10
42.0788461538
 20
610.1772794192
 30
0.0
 11
-0.1268856244279134
 21
0.0
 31
0.0
210
0.0
220
0.0
230
1.0
 40
0.984807753
 41
0.0174532925198461
 42
1.570796326794897
  0
LINE
  5
E0
330
69
100
AcDbEntity
  8
$DDT_AUDIT_GENERATED_(75)
  6
Continuous
 62
     7
100
AcDbLine
 10
41.9519798547
 20
610.1750986023
 30
0.0
 11
41.9499581913
 21
610.2891600391
 31
0.0
  0
LINE
  5
E1
330
69
100
AcDbEntity
  8
$DDT_AUDIT_GENERATED_(75)
  6
Continuous
 62
     7
100
AcDbLine
 10
42.2077341164
 20
610.2891600391
 30
0.0
 11
42.205712453
 21
610.1750986024
 31
0.0
  0
ELLIPSE
  5
E2
330
69
100
AcDbEntity
  8
$DDT_AUDIT_GENERATED_(75)
  6
Continuous
 62
     7
100
AcDbEllipse
 10
40.6211538462
 20
610.1772794192
 30
0.0
 11
0.1268856244279636
 21
-9.087175456556906E-11
 31
0.0
210
0.0
220
0.0
230
1.0
 40
0.984807753
 41
4.71238898108998
 42
6.265732015364828
  0
ELLIPSE
  5
E3
330
69
100
AcDbEntity
  8
$DDT_AUDIT_GENERATED_(75)
  6
Continuous
 62
     7
100
AcDbEllipse
 10
40.6211538462
 20
610.1772794192
 30
0.0
 11
-0.1268856244279139
 21
0.0
 31
0.0
210
0.0
220
0.0
230
1.0
 40
0.984807753
 41
0.0174532925200433
 42
1.570796326794897
  0
LINE
  5
E4
330
69
100
AcDbEntity
  8
$DDT_AUDIT_GENERATED_(75)
  6
Continuous
 62
     7
100
AcDbLine
 10
40.494287547
 20
610.1750986023
 30
0.0
 11
40.4922658836
 21
610.2891600391
 31
0.0
  0
LINE
  5
E5
330
69
100
AcDbEntity
  8
$DDT_AUDIT_GENERATED_(75)
  6
Continuous
 62
     7
100
AcDbLine
 10
40.7500418087
 20
610.2891600391
 30
0.0
 11
40.7480201453
 21
610.1750986024
 31
0.0
  0
ELLIPSE
  5
E6
330
69
100
AcDbEntity
  8
$DDT_AUDIT_GENERATED_(75)
  6
Continuous
 62
     7
100
AcDbEllipse
 10
39.1634615385
 20
610.1772794192
 30
0.0
 11
0.1268856244279631
 21
-8.995582057025331E-11
 31
0.0
210
0.0
220
0.0
230
1.0
 40
0.984807753
 41
4.712388981082871
 42
6.265732015357965
  0
ELLIPSE
  5
E7
330
69
100
AcDbEntity
  8
$DDT_AUDIT_GENERATED_(75)
  6
Continuous
 62
     7
100
AcDbEllipse
 10
39.1634615385
 20
610.1772794192
 30
0.0
 11
-0.1268856244279141
 21
0.0
 31
0.0
210
0.0
220
0.0
230
1.0
 40
0.984807753
 41
0.0174532925201388
 42
1.570796326794897
  0
LINE
  5
E8
330
69
100
AcDbEntity
  8
$DDT_AUDIT_GENERATED_(75)
  6
Continuous
 62
     7
100
AcDbLine
 10
39.0365952393
 20
610.1750986023
 30
0.0
 11
39.0345735759
 21
610.2891600391
 31
0.0
  0
LINE
  5
E9
330
69
100
AcDbEntity
  8
$DDT_AUDIT_GENERATED_(75)
  6
Continuous
 62
     7
100
AcDbLine
 10
39.292349501
 20
610.2891600391
 30
0.0
 11
39.2903278376
 21
610.1750986024
 31
0.0
  0
ELLIPSE
  5
EA
330
69
100
AcDbEntity
  8
$DDT_AUDIT_GENERATED_(75)
  6
Continuous
 62
     7
100
AcDbEllipse
 10
37.7057692308
 20
610.1772794192
 30
0.0
 11
0.1268856244279592
 21
-9.089951014118469E-11
 31
0.0
210
0.0
220
0.0
230
1.0
 40
0.984807753
 41
4.712388981090196
 42
6.265732015367029
  0
ELLIPSE
  5
EB
330
69
100
AcDbEntity
  8
$DDT_AUDIT_GENERATED_(75)
  6
Continuous
 62
     7
100
AcDbEllipse
 10
37.7057692308
 20
610.1772794192
 30
0.0
 11
0.1268856244279141
 21
-2.775557561562891E-14
 31
0.0
210
0.0
220
0.0
230
1.0
 40
0.984807753
 41
3.159045946110142
 42
4.712388980384905
  0
LINE
  5
EC
330
69
100
AcDbEntity
  8
$DDT_AUDIT_GENERATED_(75)
  6
Continuous
 62
     7
100
AcDbLine
 10
37.5789029316
 20
610.1750986023
 30
0.0
 11
37.5768812682
 21
610.2891600391
 31
0.0
  0
LINE
  5
ED
330
69
100
AcDbEntity
  8
$DDT_AUDIT_GENERATED_(75)
  6
Continuous
 62
     7
100
AcDbLine
 10
37.8346571933
 20
610.2891600391
 30
0.0
 11
37.8326355299
 21
610.1750986024
 31
0.0
  0
ELLIPSE
  5
EE
330
69
100
AcDbEntity
  8
$DDT_AUDIT_GENERATED_(75)
  6
Continuous
 62
     7
100
AcDbEllipse
 10
36.2480769231
 20
610.1772794192
 30
0.0
 11
0.1268856244279635
 21
-8.992806499463768E-11
 31
0.0
210
0.0
220
0.0
230
1.0
 40
0.984807753
 41
4.712388981082656
 42
6.265732015357558
  0
ELLIPSE
  5
EF
330
69
100
AcDbEntity
  8
$DDT_AUDIT_GENERATED_(75)
  6
Continuous
 62
     7
100
AcDbEllipse
 10
36.2480769231
 20
610.1772794192
 30
0.0
 11
-0.126885624427915
 21
0.0
 31
0.0
210
0.0
220
0.0
230
1.0
 40
0.984807753
 41
0.0174532925173397
 42
1.570796326794897
  0
LINE
  5
F0
330
69
100
AcDbEntity
  8
$DDT_AUDIT_GENERATED_(75)
  6
Continuous
 62
     7
100
AcDbLine
 10
36.1212106239
 20
610.1750986023
 30
0.0
 11
36.1191889606
 21
610.2891600391
 31
0.0
  0
LINE
  5
F1
330
69
100
AcDbEntity
  8
$DDT_AUDIT_GENERATED_(75)
  6
Continuous
 62
     7
100
AcDbLine
 10
36.3769648856
 20
610.2891600391
 30
0.0
 11
36.3749432222
 21
610.1750986024
 31
0.0
  0
ELLIPSE
  5
F2
330
69
100
AcDbEntity
  8
$DDT_AUDIT_GENERATED_(75)
  6
Continuous
 62
     7
100
AcDbEllipse
 10
34.7903846154
 20
610.1772794192
 30
0.0
 11
0.1268856244279635
 21
-8.992806499463768E-11
 31
0.0
210
0.0
220
0.0
230
1.0
 40
0.984807753
 41
4.712388981082656
 42
6.265732015357558
  0
ELLIPSE
  5
F3
330
69
100
AcDbEntity
  8
$DDT_AUDIT_GENERATED_(75)
  6
Continuous
 62
     7
100
AcDbEllipse
 10
34.7903846154
 20
610.1772794192
 30
0.0
 11
0.1268856244279141
 21
-2.775557561562891E-14
 31
0.0
210
0.0
220
0.0
230
1.0
 40
0.984807753
 41
3.159045946110142
 42
4.712388980384905
  0
LINE
  5
F4
330
69
100
AcDbEntity
  8
$DDT_AUDIT_GENERATED_(75)
  6
Continuous
 62
     7
100
AcDbLine
 10
34.6635183163
 20
610.1750986023
 30
0.0
 11
34.6614966529
 21
610.2891600391
 31
0.0
  0
LINE
  5
F5
330
69
100
AcDbEntity
  8
$DDT_AUDIT_GENERATED_(75)
  6
Continuous
 62
     7
100
AcDbLine
 10
34.9192725779
 20
610.2891600391
 30
0.0
 11
34.9172509145
 21
610.1750986024
 31
0.0
  0
LINE
  5
F6
330
69
100
AcDbEntity
  8
$DDT_AUDIT_GENERATED_(75)
  6
Continuous
 62
     7
100
AcDbLine
 10
46.5787893761
 20
610.4358949483
 30
0.0
 11
46.5800215346
 21
610.5056268011
 31
0.0
  0
ELLIPSE
  5
F7
330
69
100
AcDbEntity
  8
$DDT_AUDIT_GENERATED_(75)
  6
Continuous
 62
     7
100
AcDbEllipse
 10
31.875
 20
610.4160456635
 30
0.0
 11
-0.09720002750472981
 21
0.09720002750471246
 31
0.0
210
0.0
220
0.0
230
1.0
 40
0.8390996312
 41
0.7155849933136583
 42
2.268928027369176
  0
ELLIPSE
  5
F8
330
69
100
AcDbEntity
  8
$DDT_AUDIT_GENERATED_(75)
  6
Continuous
 62
     7
100
AcDbEllipse
 10
31.875
 20
610.1468909881
 30
0.0
 11
-0.09720002750471245
 21
0.09720002750471245
 31
0.0
210
0.0
220
0.0
230
0.9999999999999998
 40
0.8390996312
 41
0.7155849933145221
 42
2.268928027592696
  0
ELLIPSE
  5
F9
330
69
100
AcDbEntity
  8
$DDT_AUDIT_GENERATED_(75)
  6
Continuous
 62
     7
100
AcDbEllipse
 10
31.875
 20
610.1468909881
 30
0.0
 11
-0.09720002750476624
 21
-0.09720002750465695
 31
0.0
210
0.0
220
0.0
230
1.0
 40
0.8390996312
 41
0.8726646259980393
 42
2.426007660276589
  0
ELLIPSE
  5
FA
330
69
100
AcDbEntity
  8
$DDT_AUDIT_GENERATED_(75)
  6
Continuous
 62
     7
100
AcDbEllipse
 10
33.3326923077
 20
610.1468909881
 30
0.0
 11
-0.09720002750463265
 21
0.0972000275047957
 31
0.0
210
0.0
220
0.0
230
1.0
 40
0.8390996312
 41
0.715584993314299
 42
2.268928027593719
  0
ELLIPSE
  5
FB
330
69
100
AcDbEntity
  8
$DDT_AUDIT_GENERATED_(75)
  6
Continuous
 62
     7
100
AcDbEllipse
 10
33.3326923077
 20
610.4160456635
 30
0.0
 11
-0.09720002750472981
 21
-0.09720002750471246
 31
0.0
210
0.0
220
0.0
230
1.0
 40
0.8390996312
 41
0.8726646262209278
 42
2.426007660276246
  0
ELLIPSE
  5
FC
330
69
100
AcDbEntity
  8
$DDT_AUDIT_GENERATED_(75)
  6
Continuous
 62
     7
100
AcDbEllipse
 10
34.7903846154
 20
610.4160456635
 30
0.0
 11
-0.09720002750471506
 21
0.09720002750471245
 31
0.0
210
0.0
220
0.0
230
1.0
 40
0.8390996312
 41
0.715584993313635
 42
2.268928027367704
  0
ELLIPSE
  5
FD
330
69
100
AcDbEntity
  8
$DDT_AUDIT_GENERATED_(75)
  6
Continuous
 62
     7
100
AcDbEllipse
 10
31.875
 20
610.4160456635
 30
0.0
 11
-0.09720002750468816
 21
-0.0972000275047402
 31
0.0
210
0.0
220
0.0
230
1.0
 40
0.8390996312
 41
0.87266462622126
 42
2.426007660275026
  0
ELLIPSE
  5
FE
330
69
100
AcDbEntity
  8
$DDT_AUDIT_GENERATED_(75)
  6
Continuous
 62
     7
100
AcDbEllipse
 10
33.3326923077
 20
610.4160456635
 30
0.0
 11
-0.0972000275046344
 21
0.09720002750479574
 31
0.0
210
0.0
220
0.0
230
1.0
 40
0.8390996312
 41
0.7155849933151935
 42
2.268928027369594
  0
ELLIPSE
  5
FF
330
69
100
AcDbEntity
  8
$DDT_AUDIT_GENERATED_(75)
  6
Continuous
 62
     7
100
AcDbEllipse
 10
33.3326923077
 20
610.1468909881
 30
0.0
 11
-0.09720002750462919
 21
-0.09720002750479573
 31
0.0
210
0.0
220
0.0
230
1.0
 40
0.8390996312
 41
0.872664625996045
 42
2.426007660275444
  0
SPLINE
  5
100
330
69
100
AcDbEntity
  8
$DDT_AUDIT_GENERATED_(75)
  6
Continuous
 62
     7
100
AcDbSpline
210
0.0
220
0.0
230
1.0
 70
     8
 71
     3
 72
    23
 73
    19
 74
     0
 42
0.0000000312188524
 43
0.0000000001
 40
0.0
 40
0.0
 40
0.0
 40
0.0
 40
0.094965890244392
 40
0.094965890244392
 40
0.094965890244392
 40
0.1897030580225768
 40
0.1897030580225768
 40
0.1897030580225768
 40
0.2878492317736343
 40
0.2878492317736343
 40
0.2878492317736343
 40
0.3947358584158457
 40
0.3947358584158457
 40
0.3947358584158457
 40
0.5124387384287263
 40
0.5124387384287263
 40
0.5124387384287263
 40
0.5556525801232529
 40
0.5556525801232529
 40
0.5556525801232529
 40
0.5556525801232529
 10
30.10114246005648
 20
610.1667402729131
 30
0.0
 10
30.10124870558187
 20
610.1536537493972
 30
0.0
 10
30.10233915191452
 20
610.1400590446531
 30
0.0
 10
30.10430994798084
 20
610.1271164519923
 30
0.0
 10
30.10627807684611
 20
610.1141913753479
 30
0.0
 10
30.10917218892122
 20
610.1015716155731
 30
0.0
 10
30.11275022933554
 20
610.0901758320477
 30
0.0
 10
30.11645907546206
 20
610.0783634423896
 30
0.0
 10
30.12099101352684
 20
610.0675660148812
 30
0.0
 10
30.12601562666082
 20
610.0584177885158
 30
0.0
 10
30.13148500638671
 20
610.0484597832972
 30
0.0
 10
30.13766884501624
 20
610.0402057530752
 30
0.0
 10
30.1441437122115
 20
610.0340531074517
 30
0.0
 10
30.15126618303572
 20
610.0272850861742
 30
0.0
 10
30.15891814130049
 20
610.0228832345746
 30
0.0
 10
30.1665615625624
 20
610.0210350860795
 30
0.0
 10
30.16936299442625
 20
610.0203577111309
 30
0.0
 10
30.17218929030034
 20
610.0200172700579
 30
0.0
 10
30.17501234955459
 20
610.0200140114664
 30
0.0
  0
ELLIPSE
  5
101
330
69
100
AcDbEntity
  8
$DDT_AUDIT_GENERATED_(75)
  6
Continuous
 62
     7
100
AcDbEllipse
 10
34.7903846154
 20
610.4160456635
 30
0.0
 11
-0.09720002750476883
 21
-0.09720002750465695
 31
0.0
210
0.0
220
0.0
230
1.0
 40
0.8390996312
 41
0.8726646262216463
 42
2.426007660276641
  0
LINE
  5
102
330
69
100
AcDbEntity
  8
$DDT_AUDIT_GENERATED_(75)
  6
Continuous
 62
     7
100
AcDbLine
 10
31.7469590149
 20
610.5023742424
 30
0.0
 11
31.7481337009
 21
610.4358949483
 31
0.0
  0
LINE
  5
103
330
69
100
AcDbEntity
  8
$DDT_AUDIT_GENERATED_(75)
  6
Continuous
 62
     7
100
AcDbLine
 10
31.7459705494
 20
610.2891600391
 30
0.0
 11
31.7481337009
 21
610.1667402729
 31
0.0
  0
ELLIPSE
  5
104
330
69
100
AcDbEntity
  8
$DDT_AUDIT_GENERATED_(75)
  6
Continuous
 62
     7
100
AcDbEllipse
 10
32.6000018705
 20
675.1434019272
 30
0.0
 11
-7.731711052644252E-7
 21
-155.6314960892362
 31
0.0
210
0.0
220
0.0
230
1.0
 40
0.0176699572
 41
-1.140965867286096
 42
-1.140100383026274
  0
LINE
  5
105
330
69
100
AcDbEntity
  8
$DDT_AUDIT_GENERATED_(75)
  6
Continuous
 62
     7
100
AcDbLine
 10
33.4595586068
 20
610.1667402729
 30
0.0
 11
33.4617217583
 21
610.2891600391
 31
0.0
  0
LINE
  5
106
330
69
100
AcDbEntity
  8
$DDT_AUDIT_GENERATED_(75)
  6
Continuous
 62
     7
100
AcDbLine
 10
34.9172509145
 20
610.4358949483
 30
0.0
 11
34.9184830731
 21
610.5056268011
 31
0.0
  0
LINE
  5
107
330
69
100
AcDbEntity
  8
$DDT_AUDIT_GENERATED_(75)
  6
Continuous
 62
     7
100
AcDbLine
 10
29.25
 20
610.2441731126
 30
0.0
 11
29.25
 21
610.1940940803
 31
0.0
  0
LINE
  5
108
330
69
100
AcDbEntity
  8
$DDT_AUDIT_GENERATED_(75)
  6
Continuous
 62
     7
100
AcDbLine
 10
32.0018662991
 20
610.1667402729
 30
0.0
 11
32.0040294506
 21
610.2891600391
 31
0.0
  0
LINE
  5
109
330
69
100
AcDbEntity
  8
$DDT_AUDIT_GENERATED_(75)
  6
Continuous
 62
     7
100
AcDbLine
 10
33.2036628571
 20
610.2891600391
 30
0.0
 11
33.2058260086
 21
610.1667402729
 31
0.0
  0
LINE
  5
10A
330
69
100
AcDbEntity
  8
$DDT_AUDIT_GENERATED_(75)
  6
Continuous
 62
     7
100
AcDbLine
 10
33.4595586068
 20
610.4358949483
 30
0.0
 11
33.4607907654
 21
610.5056268011
 31
0.0
  0
LINE
  5
10B
330
69
100
AcDbEntity
  8
$DDT_AUDIT_GENERATED_(75)
  6
Continuous
 62
     7
100
AcDbLine
 10
34.6622861577
 20
610.5056268011
 30
0.0
 11
34.6635183163
 21
610.4358949483
 31
0.0
  0
LINE
  5
10C
330
69
100
AcDbEntity
  8
$DDT_AUDIT_GENERATED_(75)
  6
Continuous
 62
     7
100
AcDbLine
 10
32.0018662991
 20
610.4358949483
 30
0.0
 11
32.0030826802
 21
610.504733904
 31
0.0
  0
LINE
  5
10D
330
69
100
AcDbEntity
  8
$DDT_AUDIT_GENERATED_(75)
  6
Continuous
 62
     7
100
AcDbLine
 10
33.20459385
 20
610.5056268011
 30
0.0
 11
33.2058260086
 21
610.4358949483
 31
0.0
  0
LINE
  5
10E
330
69
100
AcDbEntity
  8
$DDT_AUDIT_GENERATED_(75)
  6
Continuous
 62
     7
100
AcDbLine
 10
50.1
 20
609.3690248125
 30
0.0
 11
49.3401923789
 21
609.3690248125
 31
0.0
  0
LINE
  5
10F
330
69
100
AcDbEntity
  8
$DDT_AUDIT_GENERATED_(75)
  6
Continuous
 62
     7
100
AcDbLine
 10
50.1
 20
609.4211192658
 30
0.0
 11
49.8598076211
 21
609.4211192658
 31
0.0
  0
LINE
  5
110
330
69
100
AcDbEntity
  8
$DDT_AUDIT_GENERATED_(75)
  6
Continuous
 62
     7
100
AcDbLine
 10
50.9518662991
 20
609.912068137
 30
0.0
 11
50.9537774762
 21
610.0200053641
 31
0.0
  0
LINE
  5
111
330
69
100
AcDbEntity
  8
$DDT_AUDIT_GENERATED_(75)
  6
Continuous
 62
     7
100
AcDbLine
 10
49.8598076211
 20
610.0200053637
 30
0.0
 11
49.8598076211
 21
609.4211192658
 31
0.0
  0
LINE
  5
112
330
69
100
AcDbEntity
  8
$DDT_AUDIT_GENERATED_(75)
  6
Continuous
 62
     7
100
AcDbLine
 10
49.4945563151
 20
610.0200053637
 30
0.0
 11
49.4941739914
 21
609.9985498096
 31
0.0
  0
ELLIPSE
  5
113
330
69
100
AcDbEntity
  8
$DDT_AUDIT_GENERATED_(75)
  6
Continuous
 62
     7
100
AcDbEllipse
 10
49.3673076923
 20
610.0388878819
 30
0.0
 11
-0.09826517420547486
 21
0.1086094382236891
 31
0.0
210
0.0
220
0.0
230
1.0
 40
0.7391071595
 41
2.255764812075425
 42
3.8091078465472
  0
LINE
  5
114
330
69
100
AcDbEntity
  8
$DDT_AUDIT_GENERATED_(75)
  6
Continuous
 62
     7
100
AcDbLine
 10
50.6960054509
 20
610.0200053641
 30
0.0
 11
50.6981337008
 21
609.9000114224
 31
0.0
  0
SPLINE
  5
115
330
69
100
AcDbEntity
  8
$DDT_AUDIT_GENERATED_(75)
  6
Continuous
 62
     7
100
AcDbSpline
210
0.0
220
0.0
230
1.0
 70
     8
 71
     3
 72
    35
 73
    31
 74
     0
 42
0.0000000253892666
 43
0.0000000001
 40
0.0
 40
0.0
 40
0.0
 40
0.0
 40
0.1046847765140872
 40
0.1046847765140872
 40
0.1046847765140872
 40
0.2093071473766229
 40
0.2093071473766229
 40
0.2093071473766229
 40
0.3149115124464854
 40
0.3149115124464854
 40
0.3149115124464854
 40
0.4230228469561366
 40
0.4230228469561366
 40
0.4230228469561366
 40
0.4983686516439949
 40
0.4983686516439949
 40
0.4983686516439949
 40
0.61294954872734
 40
0.61294954872734
 40
0.61294954872734
 40
0.727600219724805
 40
0.727600219724805
 40
0.727600219724805
 40
0.8409049636571091
 40
0.8409049636571091
 40
0.8409049636571091
 40
0.949619529573423
 40
0.949619529573423
 40
0.949619529573423
 40
1.0
 40
1.0
 40
1.0
 40
1.0
 10
50.69813370086726
 20
609.9000114204009
 30
0.0
 10
50.69837701404328
 20
609.886293203884
 30
0.0
 10
50.70098949614738
 20
609.8725197093345
 30
0.0
 10
50.70573388139207
 20
609.8598385586245
 30
0.0
 10
50.71047669060086
 20
609.8471616204622
 30
0.0
 10
50.71747585087664
 20
609.8352301881247
 30
0.0
 10
50.72611709320561
 20
609.8249978416349
 30
0.0
 10
50.73484099545537
 20
609.8146676151275
 30
0.0
 10
50.74546737757195
 20
609.8057907335162
 30
0.0
 10
50.75710513076611
 20
609.7990287529495
 30
0.0
 10
50.76901787208639
 20
609.7921069937439
 30
0.0
 10
50.7823027874088
 20
609.7872141905199
 30
0.0
 10
50.79588801941788
 20
609.7846775313037
 30
0.0
 10
50.80542240943517
 20
609.7828972526681
 30
0.0
 10
50.81524944010272
 20
609.782233306693
 30
0.0
 10
50.82500000000007
 20
609.7826960582331
 30
0.0
 10
50.83971051956192
 20
609.7833942043555
 30
0.0
 10
50.85458782140698
 20
609.786708666892
 30
0.0
 10
50.86841013470126
 20
609.7923632841263
 30
0.0
 10
50.88223664819536
 20
609.7980196196346
 30
0.0
 10
50.89539866695908
 20
609.8061809651854
 30
0.0
 10
50.90675609517367
 20
609.8162098511604
 30
0.0
 10
50.91797473996547
 20
609.8261161879901
 30
0.0
 10
50.92775464624562
 20
609.8381433791347
 30
0.0
 10
50.93514362723646
 20
609.8512753887055
 30
0.0
 10
50.94223552130141
 20
609.8638794028249
 30
0.0
 10
50.94732508733796
 20
609.8778753992148
 30
0.0
 10
50.94988129011422
 20
609.8920142158813
 30
0.0
 10
50.95108062602248
 20
609.8986479581986
 30
0.0
 10
50.9517478765156
 20
609.9053800822643
 30
0.0
 10
50.95186629913282
 20
609.9120681383803
 30
0.0
  0
LINE
  5
116
330
69
100
AcDbEntity
  8
$DDT_AUDIT_GENERATED_(75)
  6
Continuous
 62
     7
100
AcDbLine
 10
49.3401923789
 20
609.3690248125
 30
0.0
 11
48.5607695155
 21
609.6034498524
 31
0.0
  0
LINE
  5
117
330
69
100
AcDbEntity
  8
$DDT_AUDIT_GENERATED_(75)
  6
Continuous
 62
     7
100
AcDbLine
 10
33.792820323
 20
610.2891600391
 30
0.0
 11
33.792820323
 21
609.707638759
 31
0.0
  0
LINE
  5
118
330
69
100
AcDbEntity
  8
$DDT_AUDIT_GENERATED_(75)
  6
Continuous
 62
     7
100
AcDbLine
 10
48.907179677
 20
610.2891600391
 30
0.0
 11
48.907179677
 21
609.707638759
 31
0.0
  0
LINE
  5
119
330
69
100
AcDbEntity
  8
$DDT_AUDIT_GENERATED_(75)
  6
Continuous
 62
     7
100
AcDbLine
 10
49.3893411497
 20
610.0200053637
 30
0.0
 11
50.8029665426
 21
610.0200053637
 31
0.0
  0
LINE
  5
11A
330
69
100
AcDbEntity
  8
$DDT_AUDIT_GENERATED_(75)
  6
Continuous
 62
     7
100
AcDbLine
 10
50.8470334574
 20
610.0200053637
 30
0.0
 11
52.5249376515
 21
610.0200053637
 31
0.0
  0
LINE
  5
11B
330
69
100
AcDbEntity
  8
$DDT_AUDIT_GENERATED_(75)
  6
Continuous
 62
     7
100
AcDbLine
 10
49.3893411497
 20
610.2891600391
 30
0.0
 11
50.8029665426
 21
610.2891600391
 31
0.0
  0
LINE
  5
11C
330
69
100
AcDbEntity
  8
$DDT_AUDIT_GENERATED_(75)
  6
Continuous
 62
     7
100
AcDbLine
 10
50.8470334574
 20
610.2891600391
 30
0.0
 11
52.85
 21
610.2891600391
 31
0.0
  0
LINE
  5
11D
330
69
100
AcDbEntity
  8
$DDT_AUDIT_GENERATED_(75)
  6
Continuous
 62
     7
100
AcDbLine
 10
47.931648842
 20
610.2891600391
 30
0.0
 11
49.3452742349
 21
610.2891600391
 31
0.0
  0
LINE
  5
11E
330
69
100
AcDbEntity
  8
$DDT_AUDIT_GENERATED_(75)
  6
Continuous
 62
     7
100
AcDbLine
 10
46.4739565343
 20
610.2891600391
 30
0.0
 11
47.8875819272
 21
610.2891600391
 31
0.0
  0
LINE
  5
11F
330
69
100
AcDbEntity
  8
$DDT_AUDIT_GENERATED_(75)
  6
Continuous
 62
     7
100
AcDbLine
 10
36.2701103805
 20
610.2891600391
 30
0.0
 11
37.6837357734
 21
610.2891600391
 31
0.0
  0
LINE
  5
120
330
69
100
AcDbEntity
  8
$DDT_AUDIT_GENERATED_(75)
  6
Continuous
 62
     7
100
AcDbLine
 10
37.7278026882
 20
610.2891600391
 30
0.0
 11
39.1414280811
 21
610.2891600391
 31
0.0
  0
LINE
  5
121
330
69
100
AcDbEntity
  8
$DDT_AUDIT_GENERATED_(75)
  6
Continuous
 62
     7
100
AcDbLine
 10
39.1854949959
 20
610.2891600391
 30
0.0
 11
40.5991203888
 21
610.2891600391
 31
0.0
  0
LINE
  5
122
330
69
100
AcDbEntity
  8
$DDT_AUDIT_GENERATED_(75)
  6
Continuous
 62
     7
100
AcDbLine
 10
40.6431873036
 20
610.2891600391
 30
0.0
 11
42.0568126964
 21
610.2891600391
 31
0.0
  0
LINE
  5
123
330
69
100
AcDbEntity
  8
$DDT_AUDIT_GENERATED_(75)
  6
Continuous
 62
     7
100
AcDbLine
 10
42.1008796112
 20
610.2891600391
 30
0.0
 11
43.5145050041
 21
610.2891600391
 31
0.0
  0
LINE
  5
124
330
69
100
AcDbEntity
  8
$DDT_AUDIT_GENERATED_(75)
  6
Continuous
 62
     7
100
AcDbLine
 10
43.5585719189
 20
610.2891600391
 30
0.0
 11
44.9721973118
 21
610.2891600391
 31
0.0
  0
LINE
  5
125
330
69
100
AcDbEntity
  8
$DDT_AUDIT_GENERATED_(75)
  6
Continuous
 62
     7
100
AcDbLine
 10
45.0162642266
 20
610.2891600391
 30
0.0
 11
46.4298896195
 21
610.2891600391
 31
0.0
  0
LINE
  5
126
330
69
100
AcDbEntity
  8
$DDT_AUDIT_GENERATED_(75)
  6
Continuous
 62
     7
100
AcDbLine
 10
34.8124180728
 20
610.2891600391
 30
0.0
 11
36.2260434657
 21
610.2891600391
 31
0.0
  0
LINE
  5
127
330
69
100
AcDbEntity
  8
$DDT_AUDIT_GENERATED_(75)
  6
Continuous
 62
     7
100
AcDbLine
 10
31.8970334574
 20
610.2891600391
 30
0.0
 11
33.3106588503
 21
610.2891600391
 31
0.0
  0
LINE
  5
128
330
69
100
AcDbEntity
  8
$DDT_AUDIT_GENERATED_(75)
  6
Continuous
 62
     7
100
AcDbLine
 10
29.85
 20
610.2891600391
 30
0.0
 11
31.8529665426
 21
610.2891600391
 31
0.0
  0
LINE
  5
129
330
69
100
AcDbEntity
  8
$DDT_AUDIT_GENERATED_(75)
  6
Continuous
 62
     7
100
AcDbLine
 10
30.1749665941
 20
610.0200053637
 30
0.0
 11
31.8529665426
 21
610.0200053637
 31
0.0
  0
LINE
  5
12A
330
69
100
AcDbEntity
  8
$DDT_AUDIT_GENERATED_(75)
  6
Continuous
 62
     7
100
AcDbLine
 10
31.8970334574
 20
610.0200053637
 30
0.0
 11
33.3106588503
 21
610.0200053637
 31
0.0
  0
LINE
  5
12B
330
69
100
AcDbEntity
  8
$DDT_AUDIT_GENERATED_(75)
  6
Continuous
 62
     7
100
AcDbLine
 10
33.3547257651
 20
610.2891600391
 30
0.0
 11
34.768351158
 21
610.2891600391
 31
0.0
  0
LINE
  5
12D
330
69
100
AcDbEntity
  8
490040XXX_AUSLAU
  6
Continuous
 62
     7
100
AcDbLine
 10
29.1
 20
610.2003699313
 30
0.0
 11
29.1
 21
610.0463729174
 31
0.0
  0
LINE
  5
12E
330
69
100
AcDbEntity
  8
490040XXX_AUSLAU
  6
Continuous
 62
     7
100
AcDbLine
 10
53.6
 20
610.0463729174
 30
0.0
 11
53.6
 21
610.2002479014
 31
0.0
  0
LINE
  5
12F
330
69
100
AcDbEntity
  8
490040XXX_AUSLAU
  6
Continuous
 62
     7
100
AcDbLine
 10
26.85
 20
651.9676603168
 30
0.0
 11
55.85
 21
651.9676603168
 31
0.0
  0
ARC
  5
130
330
69
100
AcDbEntity
  8
490040XXX_AUSLAU
  6
Continuous
 62
     7
100
AcDbCircle
 10
26.85
 20
651.4676603168
 30
0.0
 40
0.4999999999999987
100
AcDbArc
 50
90.0
 51
180.0
  0
LINE
  5
131
330
69
100
AcDbEntity
  8
490040XXX_AUSLAU
  6
Continuous
 62
     7
100
AcDbLine
 10
26.35
 20
651.4676603168
 30
0.0
 11
26.35
 21
619.653115157
 31
0.0
  0
LINE
  5
132
330
69
100
AcDbEntity
  8
490040XXX_AUSLAU
  6
Continuous
 62
     7
100
AcDbLine
 10
26.35
 20
619.653115157
 30
0.0
 11
26.35
 21
611.0852877058
 31
0.0
  0
LINE
  5
133
330
69
100
AcDbEntity
  8
490040XXX_AUSLAU
  6
Continuous
 62
     7
100
AcDbLine
 10
56.35
 20
611.085287952
 30
0.0
 11
56.35
 21
619.653115157
 31
0.0
  0
LINE
  5
134
330
69
100
AcDbEntity
  8
490040XXX_AUSLAU
  6
Continuous
 62
     7
100
AcDbLine
 10
56.35
 20
619.653115157
 30
0.0
 11
56.35
 21
651.4676603168
 31
0.0
  0
ARC
  5
135
330
69
100
AcDbEntity
  8
490040XXX_AUSLAU
  6
Continuous
 62
     7
100
AcDbCircle
 10
55.85
 20
651.4676603168
 30
0.0
 40
0.4999999999999987
100
AcDbArc
 50
0.0
 51
90.0
  0
LINE
  5
136
330
69
100
AcDbEntity
  8
490040XXX_AUSLAU
  6
Continuous
 62
     7
100
AcDbLine
 10
56.35
 20
611.085287952
 30
0.0
 11
56.35
 21
608.9320503027
 31
0.0
  0
LINE
  5
137
330
69
100
AcDbEntity
  8
490040XXX_AUSLAU
  6
Continuous
 62
     7
100
AcDbLine
 10
26.35
 20
611.0852877058
 30
0.0
 11
26.35
 21
608.9320505489
 31
0.0
  0
LINE
  5
138
330
69
100
AcDbEntity
  8
490040XXX_AUSLAU
  6
Continuous
 62
     7
100
AcDbLine
 10
26.35
 20
608.9320503027
 30
0.0
 11
26.35
 21
566.965091228
 31
0.0
  0
LINE
  5
139
330
69
100
AcDbEntity
  8
490040XXX_AUSLAU
  6
Continuous
 62
     7
100
AcDbLine
 10
56.35
 20
566.965091228
 30
0.0
 11
56.35
 21
608.9320503027
 31
0.0
  0
LINE
  5
13A
330
69
100
AcDbEntity
  8
490040XXX_AUSLAU
  6
Continuous
 62
     7
100
AcDbLine
 10
26.85
 20
608.4320503027
 30
0.0
 11
55.85
 21
608.4320503027
 31
0.0
  0
SPLINE
  5
13B
330
69
100
AcDbEntity
  8
490040XXX_AUSLAU
  6
Continuous
 62
     7
100
AcDbSpline
210
0.0
220
0.0
230
1.0
 70
     8
 71
     3
 72
    19
 73
    15
 74
     0
 42
0.0000000025636705
 43
0.0000000001
 40
0.0
 40
0.0
 40
0.0
 40
0.0
 40
0.042072460725841
 40
0.1221733857651669
 40
0.202204864517017
 40
0.2819992476477234
 40
0.3613963412303436
 40
0.4401685412937432
 40
0.5179690485057864
 40
0.5942446734599146
 40
0.6680975525388403
 40
0.7292263901439265
 40
0.7836727155621369
 40
0.8175117020858509
 40
0.8175117020858509
 40
0.8175117020858509
 40
0.8175117020858509
 10
50.60000000000002
 20
610.5056268011432
 30
0.0
 10
50.68547440266109
 20
610.5053791675094
 30
0.0
 10
50.89639995765209
 20
610.5045446683082
 30
0.0
 10
51.2770795676139
 20
610.4957998317059
 30
0.0
 10
51.70301041236954
 20
610.4762889601075
 30
0.0
 10
52.11257293579056
 20
610.4475509009675
 30
0.0
 10
52.4929414660461
 20
610.4104933737051
 30
0.0
 10
52.83763143109849
 20
610.3661772340624
 30
0.0
 10
53.13864719799797
 20
610.3162036052545
 30
0.0
 10
53.38845318266468
 20
610.2629543461765
 30
0.0
 10
53.57179892506093
 20
610.212264183688
 30
0.0
 10
53.68882116230904
 20
610.1700931153705
 30
0.0
 10
53.74177299736575
 20
610.1447654552724
 30
0.0
 10
53.75106507397783
 20
610.1386903002576
 30
0.0
 10
53.75105086338964
 20
610.138728970757
 30
0.0
  0
LINE
  5
13C
330
69
100
AcDbEntity
  8
490040XXX_AUSLAU
  6
Continuous
 62
     7
100
AcDbLine
 10
32.1
 20
610.5056268011
 30
0.0
 11
50.6
 21
610.5056268011
 31
0.0
  0
SPLINE
  5
13D
330
69
100
AcDbEntity
  8
490040XXX_AUSLAU
  6
Continuous
 62
     7
100
AcDbSpline
210
0.0
220
0.0
230
1.0
 70
     8
 71
     3
 72
    19
 73
    15
 74
     0
 42
0.0000000025636677
 43
0.0000000001
 40
0.1825012912233471
 40
0.1825012912233471
 40
0.1825012912233471
 40
0.1825012912233471
 40
0.2194115940279814
 40
0.2712161857147921
 40
0.330133289992296
 40
0.3955979197718449
 40
0.4661862266351534
 40
0.5403512878803278
 40
0.6168537491815782
 40
0.6948420191574037
 40
0.7737683091046613
 40
0.8532832647800207
 40
0.93315704217537
 40
1.0
 40
1.0
 40
1.0
 40
1.0
 10
28.94894748705411
 20
610.1387477613494
 30
0.0
 10
28.94892515618596
 20
610.1387050179135
 30
0.0
 10
28.95916005217012
 20
610.1453052297494
 30
0.0
 10
29.01268534392548
 20
610.170573116061
 30
0.0
 10
29.12097911839599
 20
610.2096767965509
 30
0.0
 10
29.28598718974222
 20
610.2562445911781
 30
0.0
 10
29.50851915093683
 20
610.3057690451134
 30
0.0
 10
29.78512141080446
 20
610.3543710837203
 30
0.0
 10
30.10964746130141
 20
610.3990486737533
 30
0.0
 10
30.47426740433855
 20
610.4376120520957
 30
0.0
 10
30.87198325734401
 20
610.4685971881582
 30
0.0
 10
31.29059859177746
 20
610.4907689109035
 30
0.0
 10
31.71217105224019
 20
610.5034787593759
 30
0.0
 10
31.96422862359519
 20
610.5050014486593
 30
0.0
 10
32.10000000000004
 20
610.5056268011434
 30
0.0
  0
ARC
  5
13E
330
69
100
AcDbEntity
  8
490040XXX_AUSLAU
  6
Continuous
 62
     7
100
AcDbCircle
 10
55.85
 20
608.9320503027
 30
0.0
 40
0.500000000000056
100
AcDbArc
 50
270.0
 51
360.0
  0
ARC
  5
13F
330
69
100
AcDbEntity
  8
490040XXX_AUSLAU
  6
Continuous
 62
     7
100
AcDbCircle
 10
26.85
 20
608.9320503027
 30
0.0
 40
0.4999999999996344
100
AcDbArc
 50
179.9999999999
 51
270.0
  0
LINE
  5
141
330
69
100
AcDbEntity
  8
490037XXX_HEBEL_
  6
Continuous
 62
     7
100
AcDbLine
 10
86.755
 20
465.8135954404
 30
0.0
 11
86.755
 21
450.965091228
 31
0.0
  0
LINE
  5
142
330
69
100
AcDbEntity
  8
490037XXX_HEBEL_
  6
Continuous
 62
     7
100
AcDbLine
 10
86.255
 20
485.965091228
 30
0.0
 11
86.255
 21
485.9651673804
 31
0.0
  0
LINE
  5
143
330
69
100
AcDbEntity
  8
490037XXX_HEBEL_
  6
Continuous
 62
     7
100
AcDbLine
 10
86.755
 20
485.965091228
 30
0.0
 11
86.755
 21
465.8135954404
 31
0.0
  0
LINE
  5
144
330
69
100
AcDbEntity
  8
490037XXX_HEBEL_
  6
Continuous
 62
     7
100
AcDbLine
 10
75.7462737968
 20
486.2816607298
 30
0.0
 11
86.255
 21
486.465091228
 31
0.0
  0
ARC
  5
145
330
69
100
AcDbEntity
  8
490037XXX_HEBEL_
  6
Continuous
 62
     7
100
AcDbCircle
 10
75.755
 20
485.7817368822
 30
0.0
 40
0.5000000000000059
100
AcDbArc
 50
91.0
 51
180.0
  0
SPLINE
  5
146
330
69
100
AcDbEntity
  8
490037XXX_HEBEL_
  6
Continuous
 62
     7
100
AcDbSpline
210
0.0
220
0.0
230
1.0
 70
     8
 71
     3
 72
    10
 73
     6
 74
     0
 42
0.0000000198561363
 43
0.0000000001
 40
0.0
 40
0.0
 40
0.0
 40
0.0
 40
0.5
 40
0.5
 40
1.0
 40
1.0
 40
1.0
 40
1.0
 10
86.25500000000002
 20
486.46509122798
 30
0.0
 10
86.25126055733439
 20
486.4650259557654
 30
0.0
 10
86.25263603265523
 20
486.4107326013252
 30
0.0
 10
86.25365709922312
 20
486.2263009634077
 30
0.0
 10
86.25453894307933
 20
486.0971979623381
 30
0.0
 10
86.25500000000002
 20
485.9651673804018
 30
0.0
  0
ARC
  5
147
330
69
100
AcDbEntity
  8
490037XXX_HEBEL_
  6
Continuous
 62
     7
100
AcDbCircle
 10
86.255
 20
485.965091228
 30
0.0
 40
0.5000000000000004
100
AcDbArc
 50
0.0
 51
90.0
  0
LINE
  5
148
330
69
100
AcDbEntity
  8
490037XXX_HEBEL_
  6
Continuous
 62
     7
100
AcDbLine
 10
68.405
 20
451.2679366045
 30
0.0
 11
68.405
 21
465.6622458515
 31
0.0
  0
LINE
  5
149
330
69
100
AcDbEntity
  8
490037XXX_HEBEL_
  6
Continuous
 62
     7
100
AcDbLine
 10
86.255
 20
466.5891132306
 30
0.0
 11
86.255
 21
485.965091228
 31
0.0
  0
LINE
  5
14A
330
69
100
AcDbEntity
  8
490037XXX_HEBEL_
  6
Continuous
 62
     7
100
AcDbLine
 10
75.255
 20
466.6594064104
 30
0.0
 11
75.255
 21
485.7817368822
 31
0.0
  0
LINE
  5
14B
330
69
100
AcDbEntity
  8
490037XXX_HEBEL_
  6
Continuous
 62
     7
100
AcDbLine
 10
86.255
 20
466.5891132306
 30
0.0
 11
86.2549999904
 21
466.5890927349
 31
0.0
  0
ARC
  5
14C
330
69
100
AcDbEntity
  8
490037XXX_HEBEL_
  6
Continuous
 62
     7
100
AcDbCircle
 10
136.9229371482
 20
466.4658340136
 30
0.0
 40
50.66808707225643
100
AcDbArc
 50
179.8606181545
 51
180.4010135899
  0
ARC
  5
14D
330
69
100
AcDbEntity
  8
490037XXX_HEBEL_
  6
Continuous
 62
     7
100
AcDbCircle
 10
78.1207177547
 20
442.9120693953
 30
0.0
 40
7.86272992617992
100
AcDbArc
 50
77.1009647544
 51
100.89882253
  0
LINE
  5
14E
330
69
100
AcDbEntity
  8
490037XXX_HEBEL_
  6
Continuous
 62
     7
100
AcDbLine
 10
74.7637262032
 20
466.2645864618
 30
0.0
 11
68.8962737968
 21
466.1621696991
 31
0.0
  0
LINE
  5
14F
330
69
100
AcDbEntity
  8
490037XXX_HEBEL_
  6
Continuous
 62
     7
100
AcDbLine
 10
79.862911287
 20
450.5765893875
 30
0.0
 11
86.2462737968
 21
450.4651673804
 31
0.0
  0
LINE
  5
150
330
69
100
AcDbEntity
  8
490037XXX_HEBEL_
  6
Continuous
 62
     7
100
AcDbLine
 10
68.8962737968
 20
450.7680127569
 30
0.0
 11
76.6486870414
 21
450.6326938804
 31
0.0
  0
ARC
  5
151
330
69
100
AcDbEntity
  8
490037XXX_HEBEL_
  6
Continuous
 62
     7
100
AcDbCircle
 10
86.255
 20
450.965091228
 30
0.0
 40
0.4999999999999989
100
AcDbArc
 50
269.0
 51
0.0
  0
ARC
  5
152
330
69
100
AcDbEntity
  8
490037XXX_HEBEL_
  6
Continuous
 62
     7
100
AcDbCircle
 10
68.905
 20
451.2679366045
 30
0.0
 40
0.5000000000000004
100
AcDbArc
 50
180.0
 51
269.0
  0
ARC
  5
153
330
69
100
AcDbEntity
  8
490037XXX_HEBEL_
  6
Continuous
 62
     7
100
AcDbCircle
 10
68.905
 20
465.6622458515
 30
0.0
 40
0.5000000000000064
100
AcDbArc
 50
91.0
 51
180.0
  0
ARC
  5
154
330
69
100
AcDbEntity
  8
490037XXX_HEBEL_
  6
Continuous
 62
     7
100
AcDbCircle
 10
74.755
 20
466.7645103093
 30
0.0
 40
0.5000000000000004
100
AcDbArc
 50
271.0
 51
0.0
  0
LINE
  5
156
330
69
100
AcDbEntity
  8
490038XXX_GEHÄUS
  6
Continuous
 62
     7
100
AcDbLine
 10
15.5499864154
 20
466.465091228
 30
0.0
 11
41.3499967135
 21
466.465091228
 31
0.0
  0
LINE
  5
157
330
69
100
AcDbEntity
  8
490038XXX_GEHÄUS
  6
Continuous
 62
     7
100
AcDbLine
 10
66.3956153132
 20
466.465091228
 30
0.0
 11
41.3499967135
 21
466.465091228
 31
0.0
  0
LINE
  5
158
330
69
100
AcDbEntity
  8
490038XXX_GEHÄUS
  6
Continuous
 62
     7
100
AcDbLine
 10
67.1500070327
 20
566.965091228
 30
0.0
 11
41.3499967221
 21
566.965091228
 31
0.0
  0
LINE
  5
159
330
69
100
AcDbEntity
  8
490038XXX_GEHÄUS
  6
Continuous
 62
     7
100
AcDbLine
 10
15.549988206
 20
566.965091228
 30
0.0
 11
41.3499967221
 21
566.965091228
 31
0.0
  0
ARC
  5
15A
330
69
100
AcDbEntity
  8
490038XXX_GEHÄUS
  6
Continuous
 62
     7
100
AcDbCircle
 10
17.6256966036
 20
480.1605548723
 30
0.0
 40
13.68363802103951
100
AcDbArc
 50
262.2796075633
 51
269.3615417138
  0
SPLINE
  5
15B
330
69
100
AcDbEntity
  8
490038XXX_GEHÄUS
  6
Continuous
 62
     7
100
AcDbSpline
210
0.0
220
0.0
230
1.0
 70
     8
 71
     3
 72
    28
 73
    24
 74
     0
 42
0.0000000099295283
 43
0.0000000001
 40
0.0
 40
0.0
 40
0.0
 40
0.0
 40
0.0699587804619698
 40
0.2311559149153405
 40
0.4156421968539928
 40
0.5680035673609761
 40
0.6911383205700609
 40
0.7879485956836451
 40
0.8613436717782758
 40
0.9142440195000893
 40
0.9422374934120871
 40
0.9616098355293263
 40
0.9736471100972135
 40
0.9773507273648643
 40
0.9797883082408404
 40
0.9806362404847989
 40
0.981323278792029
 40
0.981639217163028
 40
0.9819542679759873
 40
0.9826272565438444
 40
0.9843388258504303
 40
0.9866475162803523
 40
1.0
 40
1.0
 40
1.0
 40
1.0
 10
66.44340830406124
 20
466.4729381071315
 30
0.0
 10
66.48672051446947
 20
466.4732976092252
 30
0.0
 10
66.60798955752165
 20
466.4743358319501
 30
0.0
 10
66.79931811906242
 20
466.4774812005858
 30
0.0
 10
66.98570937726598
 20
466.4826780050817
 30
0.0
 10
67.11891125286415
 20
466.4903507809186
 30
0.0
 10
67.20211486771571
 20
466.4999625099003
 30
0.0
 10
67.25326341194302
 20
466.511618662439
 30
0.0
 10
67.28489051517089
 20
466.5252905553539
 30
0.0
 10
67.30424456710554
 20
466.5400581415983
 30
0.0
 10
67.31700054674278
 20
466.5551124300621
 30
0.0
 10
67.32556812193737
 20
466.568848796328
 30
0.0
 10
67.33182942265015
 20
466.5813469041157
 30
0.0
 10
67.33654231493823
 20
466.5931400475034
 30
0.0
 10
67.33897633931372
 20
466.599960099771
 30
0.0
 10
67.34087803252145
 20
466.6059469479912
 30
0.0
 10
67.34193730520273
 20
466.6095294521047
 30
0.0
 10
67.34270700548356
 20
466.6122898870531
 30
0.0
 10
67.34344320874834
 20
466.615030984588
 30
0.0
 10
67.34478669585232
 20
466.6203625668736
 30
0.0
 10
67.3462862195446
 20
466.6272924702248
 30
0.0
 10
67.34964606468333
 20
466.6462195915478
 30
0.0
 10
67.34999683118639
 20
466.6561497520752
 30
0.0
 10
67.35000530836139
 20
466.66509122798
 30
0.0
  0
LINE
  5
15C
330
69
100
AcDbEntity
  8
490038XXX_GEHÄUS
  6
Continuous
 62
     7
100
AcDbLine
 10
67.3499997427
 20
466.665091228
 30
0.0
 11
67.3499997427
 21
566.765091228
 31
0.0
  0
LINE
  5
15D
330
69
100
AcDbEntity
  8
490038XXX_GEHÄUS
  6
Continuous
 62
     7
100
AcDbLine
 10
15.3499937054
 20
566.767591228
 30
0.0
 11
15.3499937054
 21
466.662591228
 31
0.0
  0
SPLINE
  5
15E
330
69
100
AcDbEntity
  8
490038XXX_GEHÄUS
  6
Continuous
 62
     7
100
AcDbSpline
210
0.0
220
0.0
230
1.0
 70
     8
 71
     3
 72
    27
 73
    23
 74
     0
 42
0.0000000030350529
 43
0.0000000001
 40
0.0
 40
0.0
 40
0.0
 40
0.0
 40
0.1533048042566057
 40
0.3185611788890475
 40
0.4709911059823463
 40
0.6080443012909144
 40
0.7271801343797653
 40
0.8258638465536542
 40
0.9015685068720953
 40
0.9517774968234645
 40
0.9665414721929064
 40
0.9740093166998839
 40
0.9747158365598217
 40
0.9749045102715425
 40
0.9749376613017687
 40
0.9749667848085022
 40
0.9749934709239845
 40
0.975019764215183
 40
0.9750478031240517
 40
0.9750793802615244
 40
0.9751576673945078
 40
0.9752334215812538
 40
0.9752334215812538
 40
0.9752334215812538
 40
0.9752334215812538
 10
66.79727763500374
 20
566.8275706618508
 30
0.0
 10
66.69721401004533
 20
566.8338335403035
 30
0.0
 10
66.51862915941808
 20
566.8448325744207
 30
0.0
 10
66.10264640811826
 20
566.8632082483239
 30
0.0
 10
65.6487326224595
 20
566.8806905639694
 30
0.0
 10
65.17720434087664
 20
566.8966875641551
 30
0.0
 10
64.72346238365625
 20
566.9108944800716
 30
0.0
 10
64.31645775204463
 20
566.9228771084107
 30
0.0
 10
63.98363397214995
 20
566.9333244897484
 30
0.0
 10
63.76615525853722
 20
566.9399177311334
 30
0.0
 10
63.646534098208
 20
566.9459784691218
 30
0.0
 10
63.60818668390753
 20
566.947853704995
 30
0.0
 10
63.59110593682036
 20
566.9501376058917
 30
0.0
 10
63.58874238271582
 20
566.9506497314077
 30
0.0
 10
63.58803343368724
 20
566.9508677843718
 30
0.0
 10
63.58778138586072
 20
566.9509563328345
 30
0.0
 10
63.58756223766262
 20
566.9510459230459
 30
0.0
 10
63.58738020703325
 20
566.9511354624334
 30
0.0
 10
63.587237877475
 20
566.9512233592282
 30
0.0
 10
63.58708875274458
 20
566.9513469482315
 30
0.0
 10
63.58702541420852
 20
566.9514761084074
 30
0.0
 10
63.58703403679275
 20
566.951562728917
 30
0.0
 10
63.58704920830735
 20
566.9516015991775
 30
0.0
  0
SPLINE
  5
15F
330
69
100
AcDbEntity
  8
490038XXX_GEHÄUS
  6
Continuous
 62
     7
100
AcDbSpline
210
0.0
220
0.0
230
1.0
 70
     8
 71
     3
 72
    27
 73
    23
 74
     0
 42
0.0000000030676357
 43
0.0000000001
 40
0.0185655839297134
 40
0.0185655839297134
 40
0.0185655839297134
 40
0.0185655839297134
 40
0.018642477628724
 40
0.0187218301593422
 40
0.0187538375482123
 40
0.0187822602307336
 40
0.0188089164313151
 40
0.0188359744448036
 40
0.0188655066195549
 40
0.0188991242431554
 40
0.0190904513130959
 40
0.0198068469064809
 40
0.0273784673346048
 40
0.0525106996693304
 40
0.0932524242767165
 40
0.1700058899906143
 40
0.2700566950135877
 40
0.390843326283486
 40
0.5297964749460407
 40
0.6843390461472971
 40
0.8518842161764842
 40
1.0
 40
1.0
 40
1.0
 40
1.0
 10
19.11292835601143
 20
566.9516017439324
 30
0.0
 10
19.11294355084117
 20
566.9515628302398
 30
0.0
 10
19.11295215937374
 20
566.9514761650422
 30
0.0
 10
19.11288869010349
 20
566.9513469290143
 30
0.0
 10
19.112739476307
 20
566.9512233381578
 30
0.0
 10
19.11259708079613
 20
566.9511354387347
 30
0.0
 10
19.11241498551734
 20
566.9510458982982
 30
0.0
 10
19.11219578075563
 20
566.9509563099195
 30
0.0
 10
19.11194368167051
 20
566.9508677638539
 30
0.0
 10
19.11123461014433
 20
566.9506497155953
 30
0.0
 10
19.10887089703024
 20
566.9501376122234
 30
0.0
 10
19.09179019441535
 20
566.9478541297105
 30
0.0
 10
19.03662671963219
 20
566.9451218262567
 30
0.0
 10
18.9186588733885
 20
566.9396453039703
 30
0.0
 10
18.70123163874119
 20
566.9327328555094
 30
0.0
 10
18.38364407457401
 20
566.9229326547471
 30
0.0
 10
17.97649106544139
 20
566.9108741729937
 30
0.0
 10
17.52283538291111
 20
566.8966943889542
 30
0.0
 10
17.05123776061978
 20
566.8806879002107
 30
0.0
 10
16.59744630656193
 20
566.8632111513145
 30
0.0
 10
16.18695407415901
 20
566.845105423437
 30
0.0
 10
16.0121167308169
 20
566.8343480474539
 30
0.0
 10
15.91658527961817
 20
566.8283789441771
 30
0.0
  0
ARC
  5
160
330
69
100
AcDbEntity
  8
490038XXX_GEHÄUS
  6
Continuous
 62
     7
100
AcDbCircle
 10
61.35
 20
566.815091228
 30
0.0
 40
0.2500000000000002
100
AcDbArc
 50
180.0
 51
191.7485903451
  0
ARC
  5
161
330
69
100
AcDbEntity
  8
490038XXX_GEHÄUS
  6
Continuous
 62
     7
100
AcDbCircle
 10
21.35
 20
566.815091228
 30
0.0
 40
0.2500000000000002
100
AcDbArc
 50
270.0
 51
0.0
  0
CIRCLE
  5
163
330
69
100
AcDbEntity
  8
67040XXX_IR-ELEK
  6
Continuous
 62
     7
100
AcDbCircle
 10
41.3499927436
 20
437.4650941232
 30
0.0
 40
5.150011888542254
  0
CIRCLE
  5
164
330
69
100
AcDbEntity
  8
67040XXX_IR-ELEK
  6
Continuous
 62
     7
100
AcDbCircle
 10
41.3499968636
 20
454.4651004308
 30
0.0
 40
5.150016930041928
  0
ARC
  5
165
330
69
100
AcDbEntity
  8
67040XXX_IR-ELEK
  6
Continuous
 62
     7
100
AcDbCircle
 10
41.3499199197
 20
437.4650744551
 30
0.0
 40
5.125051764656569
100
AcDbArc
 50
352.0830853702
 51
352.8392735497
  0
ARC
  5
166
330
69
100
AcDbEntity
  8
67040XXX_IR-ELEK
  6
Continuous
 62
     7
100
AcDbCircle
 10
41.3499199197
 20
454.4650744551
 30
0.0
 40
5.125051764656579
100
AcDbArc
 50
352.0830855337
 51
352.8392735497
  0
LINE
  5
168
330
69
100
AcDbEntity
  8
490041XXX_SOCKEL
  6
Continuous
 62
     7
100
AcDbLine
 10
7.95
 20
412.465091228
 30
0.0
 11
6.35
 21
412.465091228
 31
0.0
  0
LINE
  5
169
330
69
100
AcDbEntity
  8
490041XXX_SOCKEL
  6
Continuous
 62
     7
100
AcDbLine
 10
6.35
 20
412.465091228
 30
0.0
 11
6.35
 21
421.965091228
 31
0.0
  0
LINE
  5
16A
330
69
100
AcDbEntity
  8
490041XXX_SOCKEL
  6
Continuous
 62
     7
100
AcDbLine
 10
74.75
 20
412.465091228
 30
0.0
 11
7.95
 21
412.465091228
 31
0.0
  0
LINE
  5
16B
330
69
100
AcDbEntity
  8
490041XXX_SOCKEL
  6
Continuous
 62
     7
100
AcDbLine
 10
76.35
 20
412.465091228
 30
0.0
 11
74.75
 21
412.465091228
 31
0.0
  0
LINE
  5
16C
330
69
100
AcDbEntity
  8
490041XXX_SOCKEL
  6
Continuous
 62
     7
100
AcDbLine
 10
74.75
 20
422.465091228
 30
0.0
 11
75.85
 21
422.465091228
 31
0.0
  0
LINE
  5
16D
330
69
100
AcDbEntity
  8
490041XXX_SOCKEL
  6
Continuous
 62
     7
100
AcDbLine
 10
6.85
 20
422.465091228
 30
0.0
 11
7.95
 21
422.465091228
 31
0.0
  0
LINE
  5
16E
330
69
100
AcDbEntity
  8
490041XXX_SOCKEL
  6
Continuous
 62
     7
100
AcDbLine
 10
7.95
 20
422.465091228
 30
0.0
 11
74.75
 21
422.465091228
 31
0.0
  0
LINE
  5
16F
330
69
100
AcDbEntity
  8
490041XXX_SOCKEL
  6
Continuous
 62
     7
100
AcDbLine
 10
76.35
 20
421.965091228
 30
0.0
 11
76.35
 21
412.465091228
 31
0.0
  0
ARC
  5
170
330
69
100
AcDbEntity
  8
490041XXX_SOCKEL
  6
Continuous
 62
     7
100
AcDbCircle
 10
6.85
 20
421.965091228
 30
0.0
 40
0.5000000000000004
100
AcDbArc
 50
90.0
 51
180.0
  0
ARC
  5
171
330
69
100
AcDbEntity
  8
490041XXX_SOCKEL
  6
Continuous
 62
     7
100
AcDbCircle
 10
75.85
 20
421.965091228
 30
0.0
 40
0.5000000000000004
100
AcDbArc
 50
0.0
 51
90.0
  0
ENDBLK
  5
173
330
69
100
AcDbEntity
  8
0
100
AcDbBlockEnd
  0
BLOCK
  5
1B5
330
174
100
AcDbEntity
  8
0
100
AcDbBlockBegin
  2
SE1
 70
     0
 10
0.0
 20
0.0
 30
0.0
  3
SE1
  1

  0
LINE
  5
176
330
174
100
AcDbEntity
  8
17_02_51XX_SOCKE
  6
Continuous
 62
     7
100
AcDbLine
 10
210.4813572255
 20
466.465091228
 30
0.0
 11
158.4813572255
 21
466.465091228
 31
0.0
  0
ARC
  5
177
330
174
100
AcDbEntity
  8
17_02_51XX_SOCKE
  6
Continuous
 62
     7
100
AcDbCircle
 10
235.9646923519
 20
437.4650912323
 30
0.0
 40
26.01851012491474
100
AcDbArc
 50
168.3589657542
 51
191.6410332921
  0
ARC
  5
178
330
174
100
AcDbEntity
  8
17_02_51XX_SOCKE
  6
Continuous
 62
     7
100
AcDbCircle
 10
235.9646923519
 20
454.4650912323
 30
0.0
 40
26.01851012491487
100
AcDbArc
 50
168.3589657542
 51
191.6410332921
  0
LINE
  5
179
330
174
100
AcDbEntity
  8
17_02_51XX_SOCKE
  6
Continuous
 62
     7
100
AcDbLine
 10
210.4813572255
 20
459.715091228
 30
0.0
 11
210.4813572255
 21
466.465091228
 31
0.0
  0
LINE
  5
17A
330
174
100
AcDbEntity
  8
17_02_51XX_SOCKE
  6
Continuous
 62
     7
100
AcDbLine
 10
210.4813572255
 20
442.715091228
 30
0.0
 11
210.4813572255
 21
449.2280525685
 31
0.0
  0
LINE
  5
17B
330
174
100
AcDbEntity
  8
17_02_51XX_SOCKE
  6
Continuous
 62
     7
100
AcDbLine
 10
210.4813572255
 20
422.465091228
 30
0.0
 11
210.4813572255
 21
432.2280525685
 31
0.0
  0
LINE
  5
17C
330
174
100
AcDbEntity
  8
17_02_51XX_SOCKE
  6
Continuous
 62
     7
100
AcDbLine
 10
158.4813572255
 20
466.465091228
 30
0.0
 11
158.4813572255
 21
422.465091228
 31
0.0
  0
ARC
  5
17D
330
174
100
AcDbEntity
  8
490040XXX_AUSLAU
  6
Continuous
 62
     7
100
AcDbCircle
 10
216.4813563884
 20
613.4676603168
 30
0.0
 40
38.50000000000006
100
AcDbArc
 50
90.0
 51
180.0
  0
ARC
  5
17E
330
174
100
AcDbEntity
  8
490040XXX_AUSLAU
  6
Continuous
 62
     7
100
AcDbCircle
 10
216.4813563884
 20
613.4676603168
 30
0.0
 40
25.50000000000002
100
AcDbArc
 50
90.0
 51
180.0
  0
LINE
  5
17F
330
174
100
AcDbEntity
  8
490040XXX_AUSLAU
  6
Continuous
 62
     7
100
AcDbLine
 10
216.4813563884
 20
651.9676603168
 30
0.0
 11
290.8813563884
 21
651.9676603168
 31
0.0
  0
LINE
  5
180
330
174
100
AcDbEntity
  8
490040XXX_AUSLAU
  6
Continuous
 62
     7
100
AcDbLine
 10
290.8813563884
 20
638.9676603168
 30
0.0
 11
216.4813563884
 21
638.9676603168
 31
0.0
  0
ARC
  5
181
330
174
100
AcDbEntity
  8
490040XXX_AUSLAU
  6
Continuous
 62
     7
100
AcDbCircle
 10
290.8813563884
 20
612.9676603168
 30
0.0
 40
39.00000000000004
100
AcDbArc
 50
10.0
 51
90.0
  0
LINE
  5
182
330
174
100
AcDbEntity
  8
490040XXX_AUSLAU
  6
Continuous
 62
     7
100
AcDbLine
 10
329.2888587559
 20
619.7399392458
 30
0.0
 11
330.7995979016
 21
611.1721117946
 31
0.0
  0
LINE
  5
183
330
174
100
AcDbEntity
  8
490040XXX_AUSLAU
  6
Continuous
 62
     7
100
AcDbLine
 10
330.3940181139
 20
610.5928838293
 30
0.0
 11
318.1824022227
 21
608.4396464696
 31
0.0
  0
ARC
  5
184
330
174
100
AcDbEntity
  8
490040XXX_AUSLAU
  6
Continuous
 62
     7
100
AcDbCircle
 10
330.3071940251
 20
611.0852877058
 30
0.0
 40
0.5000000000000233
100
AcDbArc
 50
280.0000000001
 51
10.0000000001
  0
ARC
  5
185
330
174
100
AcDbEntity
  8
490040XXX_AUSLAU
  6
Continuous
 62
     7
100
AcDbCircle
 10
318.0955778877
 20
608.9320503027
 30
0.0
 40
0.5000000000055556
100
AcDbArc
 50
190.0000000017
 51
280.0000286472
  0
LINE
  5
186
330
174
100
AcDbEntity
  8
490040XXX_AUSLAU
  6
Continuous
 62
     7
100
AcDbLine
 10
317.6031740112
 20
608.8452262139
 30
0.0
 11
316.0096565297
 21
617.8825129362
 31
0.0
  0
ARC
  5
187
330
174
100
AcDbEntity
  8
490040XXX_AUSLAU
  6
Continuous
 62
     7
100
AcDbCircle
 10
290.8813563884
 20
613.4517156419
 30
0.0
 40
25.51594467490903
100
AcDbArc
 50
10.0
 51
90.0
  0
LINE
  5
188
330
174
100
AcDbEntity
  8
490040XXX_AUSLAU
  6
Continuous
 62
     7
100
AcDbLine
 10
177.9813563884
 20
566.965091228
 30
0.0
 11
177.9813563884
 21
613.4676603168
 31
0.0
  0
LINE
  5
189
330
174
100
AcDbEntity
  8
490040XXX_AUSLAU
  6
Continuous
 62
     7
100
AcDbLine
 10
190.9813563884
 20
566.965091228
 30
0.0
 11
190.9813563884
 21
613.4676603168
 31
0.0
  0
ARC
  5
18A
330
174
100
AcDbEntity
  8
490038XXX_GEHÄUS
  6
Continuous
 62
     7
100
AcDbCircle
 10
158.6813519834
 20
466.6650867001
 30
0.0
 40
0.1999955532625496
100
AcDbArc
 50
226.8895744179
 51
270.0
  0
LINE
  5
18B
330
174
100
AcDbEntity
  8
490038XXX_GEHÄUS
  6
Continuous
 62
     7
100
AcDbLine
 10
159.8672074786
 20
466.465091228
 30
0.0
 11
210.2813624676
 21
466.465091228
 31
0.0
  0
SPLINE
  5
18C
330
174
100
AcDbEntity
  8
490038XXX_GEHÄUS
  6
Continuous
 62
     7
100
AcDbSpline
210
0.0
220
0.0
230
1.0
 70
    12
 71
     2
 72
     6
 73
     3
 74
     0
 42
0.0000000301129864
 43
0.0000000001
 40
0.0
 40
0.0
 40
0.0
 40
0.5062463573819054
 40
0.5062463573819054
 40
0.5062463573819054
 10
210.2813624676094
 20
466.46509122798
 30
0.0
 41
1.0
 10
210.3654202808968
 20
466.46509122798
 30
0.0
 41
0.8517238748345024
 10
210.4242398237401
 20
466.5251410186137
 30
0.0
 41
0.8535762461724781
  0
SPLINE
  5
18D
330
174
100
AcDbEntity
  8
490038XXX_GEHÄUS
  6
Continuous
 62
     7
100
AcDbSpline
210
0.0
220
0.0
230
1.0
 70
    12
 71
     5
 72
    12
 73
     6
 74
     0
 42
0.0000000054500169
 43
0.0000000001
 40
0.0
 40
0.0
 40
0.0
 40
0.0
 40
0.0
 40
0.0
 40
1.0
 40
1.0
 40
1.0
 40
1.0
 40
1.0
 40
1.0
 10
157.4908005417488
 20
490.4510982461296
 30
0.0
 41
1.0
 10
157.8524156889668
 20
490.3535074347162
 30
0.0
 41
1.0
 10
158.2248485627923
 20
490.2960008773184
 30
0.0
 41
1.0
 10
158.4813624775674
 20
490.0280198410213
 30
0.0
 41
1.0
 10
158.4813624695934
 20
489.6717721868468
 30
0.0
 41
1.0
 10
158.4813594492843
 20
489.3155245360718
 30
0.0
 41
1.0
  0
SPLINE
  5
18E
330
174
100
AcDbEntity
  8
490038XXX_GEHÄUS
  6
Continuous
 62
     7
100
AcDbSpline
210
0.0
220
0.0
230
1.0
 70
    12
 71
     5
 72
    12
 73
     6
 74
     0
 42
0.0000000054523048
 43
0.0000000001
 40
0.0
 40
0.0
 40
0.0
 40
0.0
 40
0.0
 40
0.0
 40
1.0
 40
1.0
 40
1.0
 40
1.0
 40
1.0
 40
1.0
 10
158.4815200637354
 20
561.9650743326549
 30
0.0
 41
1.0
 10
158.4815866374469
 20
561.6088981745224
 30
0.0
 41
1.0
 10
158.4815752692194
 20
561.2527220180795
 30
0.0
 41
1.0
 10
158.2243976574499
 20
560.9860821842954
 30
0.0
 41
1.0
 10
157.8519896488267
 20
560.92878155436
 30
0.0
 41
1.0
 10
157.4905113343272
 20
560.8309288504042
 30
0.0
 41
1.0
  0
LINE
  5
18F
330
174
100
AcDbEntity
  8
490038XXX_GEHÄUS
  6
Continuous
 62
     7
100
AcDbLine
 10
158.4813564302
 20
561.9650911848
 30
0.0
 11
158.4813574084
 21
561.9650743327
 31
0.0
  0
LINE
  5
190
330
174
100
AcDbEntity
  8
490038XXX_GEHÄUS
  6
Continuous
 62
     7
100
AcDbLine
 10
158.4813564302
 20
566.765091228
 30
0.0
 11
158.4813588452
 21
561.9650911848
 31
0.0
  0
LINE
  5
191
330
174
100
AcDbEntity
  8
490038XXX_GEHÄUS
  6
Continuous
 62
     7
100
AcDbLine
 10
210.4813624676
 20
466.665091228
 30
0.0
 11
210.4813624676
 21
566.765091228
 31
0.0
  0
LINE
  5
192
330
174
100
AcDbEntity
  8
490038XXX_GEHÄUS
  6
Continuous
 62
     7
100
AcDbLine
 10
158.4813594493
 20
489.3155245361
 30
0.0
 11
158.4813564302
 21
466.665091228
 31
0.0
  0
LINE
  5
193
330
174
100
AcDbEntity
  8
490038XXX_GEHÄUS
  6
Continuous
 62
     7
100
AcDbLine
 10
210.2813624676
 20
566.965091228
 30
0.0
 11
158.6813519834
 21
566.965091228
 31
0.0
  0
ARC
  5
194
330
174
100
AcDbEntity
  8
490038XXX_GEHÄUS
  6
Continuous
 62
     7
100
AcDbCircle
 10
158.6813519834
 20
566.7650957559
 30
0.0
 40
0.1999954720416919
100
AcDbArc
 50
89.9999999997
 51
135.77294054
  0
SPLINE
  5
195
330
174
100
AcDbEntity
  8
490038XXX_GEHÄUS
  6
Continuous
 62
     7
100
AcDbSpline
210
0.0
220
0.0
230
1.0
 70
    12
 71
     2
 72
     6
 73
     3
 74
     0
 42
0.0000000303860723
 43
0.0000000001
 40
0.5201251493830646
 40
0.5201251493830646
 40
0.5201251493830646
 40
1.0
 40
1.0
 40
1.0
 10
210.4179909204818
 20
566.9111482917053
 30
0.0
 41
0.8537906467755472
 10
210.3603254290398
 20
566.96509122798
 30
0.0
 41
0.8594479103751511
 10
210.2813624676094
 20
566.96509122798
 30
0.0
 41
1.0
  0
LINE
  5
196
330
174
100
AcDbEntity
  8
490038XXX_GEHÄUS
  6
Continuous
 62
     7
100
AcDbLine
 10
210.4451866357
 20
466.6403825077
 30
0.0
 11
210.4500120405
 21
466.665091228
 31
0.0
  0
SPLINE
  5
197
330
174
100
AcDbEntity
  8
490038XXX_GEHÄUS
  6
Continuous
 62
     7
100
AcDbSpline
210
0.0
220
0.0
230
1.0
 70
     8
 71
     3
 72
     8
 73
     4
 74
     0
 42
0.0000000687746299
 43
0.0000000001
 40
0.3016859730879123
 40
0.3016859730879123
 40
0.3016859730879123
 40
0.3016859730879123
 40
1.0
 40
1.0
 40
1.0
 40
1.0
 10
158.5015687874387
 20
466.6125141080647
 30
0.0
 10
158.500516504789
 20
466.5836433493888
 30
0.0
 10
158.513305688655
 20
466.5540266809285
 30
0.0
 10
158.5399363390367
 20
466.5236641026841
 30
0.0
  0
SPLINE
  5
198
330
174
100
AcDbEntity
  8
490038XXX_GEHÄUS
  6
Continuous
 62
     7
100
AcDbSpline
210
0.0
220
0.0
230
1.0
 70
     8
 71
     3
 72
     8
 73
     4
 74
     0
 42
0.0000000592439696
 43
0.0000000001
 40
0.0
 40
0.0
 40
0.0
 40
0.0
 40
0.0846403480811951
 40
0.0846403480811951
 40
0.0846403480811951
 40
0.0846403480811951
 10
210.4226644028141
 20
466.5235505514747
 30
0.0
 10
210.4258993736856
 20
466.5272322586061
 30
0.0
 10
210.4289306485974
 20
466.5309031353087
 30
0.0
 10
210.4317582275495
 20
466.5345631815821
 30
0.0
  0
SPLINE
  5
199
330
174
100
AcDbEntity
  8
490038XXX_GEHÄUS
  6
Continuous
 62
     7
100
AcDbSpline
210
0.0
220
0.0
230
1.0
 70
     8
 71
     3
 72
    28
 73
    24
 74
     0
 42
0.0000000002686887
 43
0.0000000001
 40
0.0
 40
0.0
 40
0.0
 40
0.0
 40
0.1045183222391423
 40
0.2025680739705577
 40
0.2881286834381664
 40
0.3612333426234802
 40
0.4217690440761094
 40
0.4708849068616497
 40
0.5133710218190007
 40
0.5497678044018154
 40
0.5833922346657909
 40
0.626346733381761
 40
0.6779761525872352
 40
0.7283836086717929
 40
0.7604662730218481
 40
0.7919521098297939
 40
0.8308346111272947
 40
0.8663222725776271
 40
0.9071893205618892
 40
0.9299503662664614
 40
0.9542445643640945
 40
0.9796445978334329
 40
1.0
 40
1.0
 40
1.0
 40
1.0
 10
151.6113232877571
 20
525.4650912364878
 30
0.0
 10
151.6112928445389
 20
524.0400226872855
 30
0.0
 10
151.6111719010646
 20
521.7153075022153
 30
0.0
 10
151.6117776805718
 20
518.074580635159
 30
0.0
 10
151.6111767955888
 20
514.9080370320132
 30
0.0
 10
151.6096128387422
 20
512.1877392162919
 30
0.0
 10
151.6149257628319
 20
509.9231262895397
 30
0.0
 10
151.61518459283
 20
508.0372178670806
 30
0.0
 10
151.6037273632783
 20
506.4507239242236
 30
0.0
 10
151.5965093585928
 20
505.0561868536164
 30
0.0
 10
151.6046090724092
 20
503.6558229370997
 30
0.0
 10
151.6453868545868
 20
502.0670111828975
 30
0.0
 10
151.7724915112213
 20
500.27305636162
 30
0.0
 10
152.0232647681829
 20
498.6272699811692
 30
0.0
 10
152.3431935203747
 20
497.2503379210818
 30
0.0
 10
152.7060011352268
 20
496.0326859472271
 30
0.0
 10
153.1642079200405
 20
494.8014688835512
 30
0.0
 10
153.7913586661498
 20
493.5150502447866
 30
0.0
 10
154.4921216380181
 20
492.4969963015535
 30
0.0
 10
155.2520596248468
 20
491.7096738604097
 30
0.0
 10
155.9530369973742
 20
491.1537339156483
 30
0.0
 10
156.7219201877007
 20
490.6972034713373
 30
0.0
 10
157.230081832503
 20
490.5457486391353
 30
0.0
 10
157.4967557177165
 20
490.4688553500184
 30
0.0
  0
SPLINE
  5
19A
330
174
100
AcDbEntity
  8
490038XXX_GEHÄUS
  6
Continuous
 62
     7
100
AcDbSpline
210
0.0
220
0.0
230
1.0
 70
     8
 71
     3
 72
    25
 73
    21
 74
     0
 42
0.000000000266054
 43
0.0000000001
 40
0.0
 40
0.0
 40
0.0
 40
0.0
 40
0.0340741811978573
 40
0.073311505972231
 40
0.1104870215510936
 40
0.1457462220171256
 40
0.1902317529731997
 40
0.2315302005753632
 40
0.2696416773033558
 40
0.338170098209471
 40
0.4037467948538362
 40
0.4671888543568788
 40
0.5133099397928922
 40
0.558184273402854
 40
0.6080081305458499
 40
0.6677505305904197
 40
0.737458224745641
 40
0.8171387345756542
 40
0.9066102279644401
 40
1.0
 40
1.0
 40
1.0
 40
1.0
 10
157.5021565669729
 20
560.8013735364945
 30
0.0
 10
157.0562194310237
 20
560.6564455762161
 30
0.0
 10
156.2400397897686
 20
560.3787426308858
 30
0.0
 10
155.119914645156
 20
559.4857329521636
 30
0.0
 10
154.2136593251186
 20
558.4259076495193
 30
0.0
 10
153.4656849426339
 20
557.1595696323336
 30
0.0
 10
152.8778887752339
 20
555.7611745725665
 30
0.0
 10
152.4041761198549
 20
554.2836966861172
 30
0.0
 10
151.9761217367312
 20
552.4814872153203
 30
0.0
 10
151.6945409833173
 20
550.3400819062806
 30
0.0
 10
151.5984613852594
 20
547.8692968980213
 30
0.0
 10
151.5964963986525
 20
545.6781939323391
 30
0.0
 10
151.6129152268929
 20
543.7462356163321
 30
0.0
 10
151.6158594119324
 20
541.9846012816773
 30
0.0
 10
151.6115748408895
 20
540.052404732098
 30
0.0
 10
151.6098175014141
 20
537.8103674699611
 30
0.0
 10
151.611943537862
 20
535.1908894579794
 30
0.0
 10
151.6113419477979
 20
532.2175259842546
 30
0.0
 10
151.611334010784
 20
528.8688925418462
 30
0.0
 10
151.6113102173121
 20
526.7502328654278
 30
0.0
 10
151.611317138904
 20
525.4650912369109
 30
0.0
  0
LINE
  5
19B
330
174
100
AcDbEntity
  8
490038XXX_GEHÄUS
  6
Continuous
 62
     7
100
AcDbLine
 10
158.510305191
 20
566.7836078402
 30
0.0
 11
158.5126833117
 21
566.765091228
 31
0.0
  0
SPLINE
  5
19C
330
174
100
AcDbEntity
  8
490038XXX_GEHÄUS
  6
Continuous
 62
     7
100
AcDbSpline
210
0.0
220
0.0
230
1.0
 70
     8
 71
     3
 72
     8
 73
     4
 74
     0
 42
0.0000000704169843
 43
0.0000000001
 40
0.0
 40
0.0
 40
0.0
 40
0.0
 40
0.790688054028193
 40
0.790688054028193
 40
0.790688054028193
 40
0.790688054028193
 10
158.5399363390365
 20
566.9065183532763
 30
0.0
 10
158.5100601055774
 20
566.8721044126862
 30
0.0
 10
158.4976316442588
 20
566.8392871209589
 30
0.0
 10
158.5026509550809
 20
566.8080664780946
 30
0.0
  0
SPLINE
  5
19D
330
174
100
AcDbEntity
  8
490038XXX_GEHÄUS
  6
Continuous
 62
     7
100
AcDbSpline
210
0.0
220
0.0
230
1.0
 70
     8
 71
     3
 72
     8
 73
     4
 74
     0
 42
0.000000070336896
 43
0.0000000001
 40
0.2094186975544871
 40
0.2094186975544871
 40
0.2094186975544871
 40
0.2094186975544871
 40
1.0
 40
1.0
 40
1.0
 40
1.0
 10
210.4600599490904
 20
566.8081154922979
 30
0.0
 10
210.4650684940765
 20
566.8393690926953
 30
0.0
 10
210.4526033119843
 20
566.8722078967578
 30
0.0
 10
210.4226644028138
 20
566.9066319044856
 30
0.0
  0
LINE
  5
19E
330
174
100
AcDbEntity
  8
490038XXX_GEHÄUS
  6
Continuous
 62
     7
100
AcDbLine
 10
210.45003005
 20
566.765091228
 30
0.0
 11
210.4524014992
 21
566.7836126927
 31
0.0
  0
ARC
  5
19F
330
174
100
AcDbEntity
  8
67040XXX_IR-ELEK
  6
Continuous
 62
     7
100
AcDbCircle
 10
235.5968680825
 20
437.4649677667
 30
0.0
 40
25.59453297170867
100
AcDbArc
 50
168.9074597756
 51
191.0926527883
  0
ARC
  5
1A0
330
174
100
AcDbEntity
  8
67040XXX_IR-ELEK
  6
Continuous
 62
     7
100
AcDbCircle
 10
235.5968680825
 20
454.4649677667
 30
0.0
 40
25.59453297170636
100
AcDbArc
 50
168.9074597756
 51
191.0926527883
  0
LINE
  5
1A1
330
174
100
AcDbEntity
  8
67040XXX_IR-ELEK
  6
Continuous
 62
     7
100
AcDbLine
 10
210.4813572255
 20
432.5448367659
 30
0.0
 11
210.4813572255
 21
442.3806554967
 31
0.0
  0
LINE
  5
1A2
330
174
100
AcDbEntity
  8
67040XXX_IR-ELEK
  6
Continuous
 62
     7
100
AcDbLine
 10
210.4813572255
 20
449.5448367659
 30
0.0
 11
210.4813572255
 21
459.3806554967
 31
0.0
  0
ARC
  5
1A3
330
174
100
AcDbEntity
  8
67040XXX_IR-ELEK
  6
Continuous
 62
     7
100
AcDbCircle
 10
210.2845657979
 20
432.5371278409
 30
0.0
 40
0.1941633855570007
100
AcDbArc
 50
323.5604763743
 51
346.5563856526
  0
SPLINE
  5
1A4
330
174
100
AcDbEntity
  8
67040XXX_IR-ELEK
  6
Continuous
 62
     7
100
AcDbSpline
210
0.0
220
0.0
230
1.0
 70
     8
 71
     3
 72
     9
 73
     5
 74
     0
 42
0.0000000380062908
 43
0.0000000001
 40
0.0
 40
0.0
 40
0.0
 40
0.0
 40
0.1253966760967536
 40
0.2872710213265793
 40
0.2872710213265793
 40
0.2872710213265793
 40
0.2872710213265793
 10
210.4726517354374
 20
442.4383172016126
 30
0.0
 10
210.4698478457672
 20
442.4498761458465
 30
0.0
 10
210.4640213432033
 20
442.4724637397179
 30
0.0
 10
210.4511277754394
 20
442.4947815556454
 30
0.0
 10
210.4424608547554
 20
442.5065176344832
 30
0.0
  0
ARC
  5
1A5
330
174
100
AcDbEntity
  8
67040XXX_IR-ELEK
  6
Continuous
 62
     7
100
AcDbCircle
 10
210.2845657974
 20
449.5371278412
 30
0.0
 40
0.1941633861826508
100
AcDbArc
 50
323.5604764343
 51
346.5563856027
  0
SPLINE
  5
1A6
330
174
100
AcDbEntity
  8
67040XXX_IR-ELEK
  6
Continuous
 62
     7
100
AcDbSpline
210
0.0
220
0.0
230
1.0
 70
     8
 71
     3
 72
     9
 73
     5
 74
     0
 42
0.0000000380062909
 43
0.0000000001
 40
0.0
 40
0.0
 40
0.0
 40
0.0
 40
0.1253966139795448
 40
0.2872710272118018
 40
0.2872710272118018
 40
0.2872710272118018
 40
0.2872710272118018
 10
210.4726517350227
 20
459.4383172015871
 30
0.0
 10
210.4698478475182
 20
459.4498761400462
 30
0.0
 10
210.464021346488
 20
459.4724637344258
 30
0.0
 10
210.4511277786646
 20
459.494781551695
 30
0.0
 10
210.4424608540925
 20
459.5065176354434
 30
0.0
  0
LINE
  5
1A7
330
174
100
AcDbEntity
  8
490041XXX_SOCKEL
  6
Continuous
 62
     7
100
AcDbLine
 10
151.0813572255
 20
412.465091228
 30
0.0
 11
149.4813572255
 21
412.465091228
 31
0.0
  0
LINE
  5
1A8
330
174
100
AcDbEntity
  8
490041XXX_SOCKEL
  6
Continuous
 62
     7
100
AcDbLine
 10
149.4813572255
 20
412.465091228
 30
0.0
 11
149.4813572255
 21
421.965091228
 31
0.0
  0
LINE
  5
1A9
330
174
100
AcDbEntity
  8
490041XXX_SOCKEL
  6
Continuous
 62
     7
100
AcDbLine
 10
217.8813572255
 20
412.465091228
 30
0.0
 11
151.0813572255
 21
412.465091228
 31
0.0
  0
LINE
  5
1AA
330
174
100
AcDbEntity
  8
490041XXX_SOCKEL
  6
Continuous
 62
     7
100
AcDbLine
 10
219.4813572255
 20
412.465091228
 30
0.0
 11
217.8813572255
 21
412.465091228
 31
0.0
  0
LINE
  5
1AB
330
174
100
AcDbEntity
  8
490041XXX_SOCKEL
  6
Continuous
 62
     7
100
AcDbLine
 10
149.9813572255
 20
422.465091228
 30
0.0
 11
151.0813572255
 21
422.465091228
 31
0.0
  0
LINE
  5
1AC
330
174
100
AcDbEntity
  8
490041XXX_SOCKEL
  6
Continuous
 62
     7
100
AcDbLine
 10
151.0813572255
 20
422.465091228
 30
0.0
 11
217.8813572255
 21
422.465091228
 31
0.0
  0
LINE
  5
1AD
330
174
100
AcDbEntity
  8
490041XXX_SOCKEL
  6
Continuous
 62
     7
100
AcDbLine
 10
217.8813572255
 20
422.465091228
 30
0.0
 11
218.9813572255
 21
422.465091228
 31
0.0
  0
LINE
  5
1AE
330
174
100
AcDbEntity
  8
490041XXX_SOCKEL
  6
Continuous
 62
     7
100
AcDbLine
 10
219.4813572255
 20
421.965091228
 30
0.0
 11
219.4813572255
 21
412.465091228
 31
0.0
  0
ARC
  5
1AF
330
174
100
AcDbEntity
  8
490041XXX_SOCKEL
  6
Continuous
 62
     7
100
AcDbCircle
 10
149.9813572255
 20
421.965091228
 30
0.0
 40
0.5000000000000004
100
AcDbArc
 50
90.0
 51
180.0
  0
ARC
  5
1B0
330
174
100
AcDbEntity
  8
490041XXX_SOCKEL
  6
Continuous
 62
     7
100
AcDbCircle
 10
218.9813572255
 20
421.965091228
 30
0.0
 40
0.5000000000000004
100
AcDbArc
 50
0.0
 51
90.0
  0
LINE
  5
1B2
330
174
100
AcDbEntity
  8
DV2_Standard
  6
Continuous
 62
     7
100
AcDbLine
 10
162.0746937244
 20
501.2932028475
 30
0.0
 11
162.0746937244
 21
546.9281425211
 31
0.0
  0
SPLINE
  5
1B3
330
174
100
AcDbEntity
  8
DV2_Standard
  6
Continuous
 62
     7
100
AcDbSpline
210
0.0
220
0.0
230
1.0
 70
     8
 71
     3
 72
    10
 73
     6
 74
     0
 42
0.0000000006618234
 43
0.0000000001
 40
0.0
 40
0.0
 40
0.0
 40
0.0
 40
0.2477181571722651
 40
0.6644093918676945
 40
1.0
 40
1.0
 40
1.0
 40
1.0
 10
162.0746937243702
 20
546.9281425210901
 30
0.0
 10
162.0764790967463
 20
548.2867459592525
 30
0.0
 10
162.0193127333322
 20
551.3522433119219
 30
0.0
 10
161.0820211254374
 20
556.6035978180817
 30
0.0
 10
159.1876681771374
 20
559.558812778777
 30
0.0
 10
158.1801833764874
 20
561.0991239358858
 30
0.0
  0
SPLINE
  5
1B4
330
174
100
AcDbEntity
  8
DV2_Standard
  6
Continuous
 62
     7
100
AcDbSpline
210
0.0
220
0.0
230
1.0
 70
     8
 71
     3
 72
    10
 73
     6
 74
     0
 42
0.0000000008281125
 43
0.0000000001
 40
0.0
 40
0.0
 40
0.0
 40
0.0
 40
0.2602636560547299
 40
0.6910881403341237
 40
1.0
 40
1.0
 40
1.0
 40
1.0
 10
162.0746937243702
 20
501.2932028475381
 30
0.0
 10
161.9892538829913
 20
500.1499523490052
 30
0.0
 10
161.7838247307151
 20
497.5778202922242
 30
0.0
 10
160.28042521296
 20
493.5961690852202
 30
0.0
 10
159.0111022603521
 20
491.1767907521937
 30
0.0
 10
158.3565647434137
 20
489.98382546581
 30
0.0
  0
ENDBLK
  5
1B6
330
174
100
AcDbEntity
  8
0
100
AcDbBlockEnd
  0
BLOCK
  5
202
330
1B7
100
AcDbEntity
  8
0
100
AcDbBlockBegin
  2
SE2
 70
     0
 10
0.0
 20
0.0
 30
0.0
  3
SE2
  1

  0
LINE
  5
1B9
330
1B7
100
AcDbEntity
  8
18_27_31XX_ANSCH
  6
Continuous
 62
     7
100
AcDbLine
 10
68.405
 20
269.1758367995
 30
0.0
 11
61.4435312974
 21
269.1758367995
 31
0.0
  0
LINE
  5
1BA
330
1B7
100
AcDbEntity
  8
18_27_31XX_ANSCH
  6
Continuous
 62
     7
100
AcDbLine
 10
66.9576160546
 20
257.1758367995
 30
0.0
 11
68.405
 21
257.1758367995
 31
0.0
  0
LINE
  5
1BB
330
1B7
100
AcDbEntity
  8
490040XXX_AUSLAU
  6
Continuous
 62
     7
100
AcDbLine
 10
55.85
 20
259.1758376367
 30
0.0
 11
26.85
 21
259.1758376367
 31
0.0
  0
LINE
  5
1BC
330
1B7
100
AcDbEntity
  8
490040XXX_AUSLAU
  6
Continuous
 62
     7
100
AcDbLine
 10
26.35
 20
258.6758376367
 30
0.0
 11
26.35
 21
220.6758376367
 31
0.0
  0
ARC
  5
1BD
330
1B7
100
AcDbEntity
  8
490040XXX_AUSLAU
  6
Continuous
 62
     7
100
AcDbCircle
 10
26.85
 20
258.6758376367
 30
0.0
 40
0.4999999999999996
100
AcDbArc
 50
90.0
 51
180.0
  0
LINE
  5
1BE
330
1B7
100
AcDbEntity
  8
490040XXX_AUSLAU
  6
Continuous
 62
     7
100
AcDbLine
 10
26.35
 20
220.6758376367
 30
0.0
 11
26.35
 21
146.2758376367
 31
0.0
  0
LINE
  5
1BF
330
1B7
100
AcDbEntity
  8
490040XXX_AUSLAU
  6
Continuous
 62
     7
100
AcDbLine
 10
26.35
 20
146.2758376367
 30
0.0
 11
26.35
 21
108.3607391457
 31
0.0
  0
LINE
  5
1C0
330
1B7
100
AcDbEntity
  8
490040XXX_AUSLAU
  6
Continuous
 62
     7
100
AcDbLine
 10
26.35
 20
108.3607391457
 30
0.0
 11
26.35
 21
106.85
 31
0.0
  0
LINE
  5
1C1
330
1B7
100
AcDbEntity
  8
490040XXX_AUSLAU
  6
Continuous
 62
     7
100
AcDbLine
 10
56.35
 20
106.8500000434
 30
0.0
 11
56.35
 21
108.3607391457
 31
0.0
  0
LINE
  5
1C2
330
1B7
100
AcDbEntity
  8
490040XXX_AUSLAU
  6
Continuous
 62
     7
100
AcDbLine
 10
56.35
 20
108.3607391457
 30
0.0
 11
56.35
 21
146.2758376367
 31
0.0
  0
LINE
  5
1C3
330
1B7
100
AcDbEntity
  8
490040XXX_AUSLAU
  6
Continuous
 62
     7
100
AcDbLine
 10
56.35
 20
146.2758376367
 30
0.0
 11
56.35
 21
220.6758376367
 31
0.0
  0
LINE
  5
1C4
330
1B7
100
AcDbEntity
  8
490040XXX_AUSLAU
  6
Continuous
 62
     7
100
AcDbLine
 10
56.35
 20
220.6758376367
 30
0.0
 11
56.35
 21
258.6758376367
 31
0.0
  0
ARC
  5
1C5
330
1B7
100
AcDbEntity
  8
490040XXX_AUSLAU
  6
Continuous
 62
     7
100
AcDbCircle
 10
55.85
 20
258.6758376367
 30
0.0
 40
0.4999999999999987
100
AcDbArc
 50
0.0
 51
90.0
  0
LINE
  5
1C6
330
1B7
100
AcDbEntity
  8
490040XXX_AUSLAU
  6
Continuous
 62
     7
100
AcDbLine
 10
26.85
 20
106.35
 30
0.0
 11
55.85
 21
106.35
 31
0.0
  0
ARC
  5
1C7
330
1B7
100
AcDbEntity
  8
490040XXX_AUSLAU
  6
Continuous
 62
     7
100
AcDbCircle
 10
55.85
 20
106.85
 30
0.0
 40
0.5000000000018601
100
AcDbArc
 50
270.0
 51
359.9999999997
  0
ARC
  5
1C8
330
1B7
100
AcDbEntity
  8
490040XXX_AUSLAU
  6
Continuous
 62
     7
100
AcDbCircle
 10
26.85
 20
106.85
 30
0.0
 40
0.5000000000029824
100
AcDbArc
 50
180.0000000025
 51
269.9999999997
  0
LINE
  5
1C9
330
1B7
100
AcDbEntity
  8
490037XXX_HEBEL_
  6
Continuous
 62
     7
100
AcDbLine
 10
86.755
 20
270.6758367995
 30
0.0
 11
86.755
 21
264.6756654033
 31
0.0
  0
LINE
  5
1CA
330
1B7
100
AcDbEntity
  8
490037XXX_HEBEL_
  6
Continuous
 62
     7
100
AcDbLine
 10
86.755
 20
261.6760081958
 30
0.0
 11
86.755
 21
255.6758367995
 31
0.0
  0
LINE
  5
1CB
330
1B7
100
AcDbEntity
  8
490037XXX_HEBEL_
  6
Continuous
 62
     7
100
AcDbLine
 10
86.2680884742
 20
261.1761795333
 30
0.0
 11
86.255
 21
261.1758367995
 31
0.0
  0
LINE
  5
1CC
330
1B7
100
AcDbEntity
  8
490037XXX_HEBEL_
  6
Continuous
 62
     7
100
AcDbLine
 10
86.755
 20
264.6756654033
 30
0.0
 11
86.755
 21
261.6760081958
 31
0.0
  0
LINE
  5
1CD
330
1B7
100
AcDbEntity
  8
490037XXX_HEBEL_
  6
Continuous
 62
     7
100
AcDbLine
 10
86.255
 20
261.1758367995
 30
0.0
 11
75.7462737968
 21
261.3592672977
 31
0.0
  0
LINE
  5
1CE
330
1B7
100
AcDbEntity
  8
490037XXX_HEBEL_
  6
Continuous
 62
     7
100
AcDbLine
 10
86.255
 20
261.6757606471
 30
0.0
 11
86.255
 21
261.6760081958
 31
0.0
  0
LINE
  5
1CF
330
1B7
100
AcDbEntity
  8
490037XXX_HEBEL_
  6
Continuous
 62
     7
100
AcDbLine
 10
86.255
 20
261.6760081958
 30
0.0
 11
86.255
 21
264.6756654033
 31
0.0
  0
LINE
  5
1D0
330
1B7
100
AcDbEntity
  8
490037XXX_HEBEL_
  6
Continuous
 62
     7
100
AcDbLine
 10
86.255
 20
264.6756654033
 30
0.0
 11
86.255
 21
264.675912952
 31
0.0
  0
LINE
  5
1D1
330
1B7
100
AcDbEntity
  8
490037XXX_HEBEL_
  6
Continuous
 62
     7
100
AcDbLine
 10
86.255
 20
265.1758367995
 30
0.0
 11
86.2680884742
 21
265.1754940658
 31
0.0
  0
LINE
  5
1D2
330
1B7
100
AcDbEntity
  8
490037XXX_HEBEL_
  6
Continuous
 62
     7
100
AcDbLine
 10
75.255
 20
261.8591911453
 30
0.0
 11
75.255
 21
264.4924824538
 31
0.0
  0
LINE
  5
1D3
330
1B7
100
AcDbEntity
  8
490037XXX_HEBEL_
  6
Continuous
 62
     7
100
AcDbLine
 10
75.7462737968
 20
264.9924063013
 30
0.0
 11
86.255
 21
265.1758367995
 31
0.0
  0
ARC
  5
1D4
330
1B7
100
AcDbEntity
  8
490037XXX_HEBEL_
  6
Continuous
 62
     7
100
AcDbCircle
 10
75.755
 20
264.4924824538
 30
0.0
 40
0.5000000000000007
100
AcDbArc
 50
91.0
 51
180.0
  0
ARC
  5
1D5
330
1B7
100
AcDbEntity
  8
490037XXX_HEBEL_
  6
Continuous
 62
     7
100
AcDbCircle
 10
75.755
 20
261.8591911453
 30
0.0
 40
0.5000000000000004
100
AcDbArc
 50
180.0
 51
269.0
  0
SPLINE
  5
1D6
330
1B7
100
AcDbEntity
  8
490037XXX_HEBEL_
  6
Continuous
 62
     7
100
AcDbSpline
210
0.0
220
0.0
230
1.0
 70
     8
 71
     3
 72
    10
 73
     6
 74
     0
 42
0.0000000199821273
 43
0.0000000001
 40
0.0
 40
0.0
 40
0.0
 40
0.0
 40
0.5
 40
0.5
 40
1.0
 40
1.0
 40
1.0
 40
1.0
 10
86.25500000000002
 20
265.1758367995343
 30
0.0
 10
86.25453894466948
 20
265.1758287517836
 30
0.0
 10
86.25365498203314
 20
265.1214949227984
 30
0.0
 10
86.25263537011732
 20
264.937035435071
 30
0.0
 10
86.25126046471223
 20
264.8078993608903
 30
0.0
 10
86.25500000000002
 20
264.6759129519561
 30
0.0
  0
ARC
  5
1D7
330
1B7
100
AcDbEntity
  8
490037XXX_HEBEL_
  6
Continuous
 62
     7
100
AcDbCircle
 10
86.255
 20
264.6756654033
 30
0.0
 40
0.5000000000000004
100
AcDbArc
 50
0.0
 51
88.5
  0
ARC
  5
1D8
330
1B7
100
AcDbEntity
  8
490037XXX_HEBEL_
  6
Continuous
 62
     7
100
AcDbCircle
 10
100.2117877217
 20
261.4257987233
 30
0.0
 40
13.95902591410561
100
AcDbArc
 50
178.9739592963
 51
181.0260407037
  0
ARC
  5
1D9
330
1B7
100
AcDbEntity
  8
490037XXX_HEBEL_
  6
Continuous
 62
     7
100
AcDbCircle
 10
86.255
 20
261.6760081958
 30
0.0
 40
0.5000000000000004
100
AcDbArc
 50
271.5
 51
0.0
  0
LINE
  5
1DA
330
1B7
100
AcDbEntity
  8
490037XXX_HEBEL_
  6
Continuous
 62
     7
100
AcDbLine
 10
68.405
 20
270.372991423
 30
0.0
 11
68.405
 21
255.978682176
 31
0.0
  0
SPLINE
  5
1DB
330
1B7
100
AcDbEntity
  8
490037XXX_HEBEL_
  6
Continuous
 62
     7
100
AcDbSpline
210
0.0
220
0.0
230
1.0
 70
     8
 71
     3
 72
    10
 73
     6
 74
     0
 42
0.000000028316658
 43
0.0000000001
 40
0.0
 40
0.0
 40
0.0
 40
0.0
 40
0.5
 40
0.5
 40
1.0
 40
1.0
 40
1.0
 40
1.0
 10
86.25500000000002
 20
265.1758367995343
 30
0.0
 10
86.25489950717233
 20
265.1758394310316
 30
0.0
 10
86.25495210435771
 20
265.2103306056022
 30
0.0
 10
86.2553421076496
 20
265.3365831440415
 30
0.0
 10
86.2556806376577
 20
265.428094302817
 30
0.0
 10
86.25609108697036
 20
265.5288858181508
 30
0.0
  0
SPLINE
  5
1DC
330
1B7
100
AcDbEntity
  8
490037XXX_HEBEL_
  6
Continuous
 62
     7
100
AcDbSpline
210
0.0
220
0.0
230
1.0
 70
     8
 71
     3
 72
    10
 73
     6
 74
     0
 42
0.000000028316658
 43
0.0000000001
 40
0.0
 40
0.0
 40
0.0
 40
0.0
 40
0.4999999999999983
 40
0.4999999999999983
 40
1.0
 40
1.0
 40
1.0
 40
1.0
 10
86.25500000000002
 20
261.1758367995343
 30
0.0
 10
86.25489950717233
 20
261.175834168037
 30
0.0
 10
86.25495210435771
 20
261.1413429934664
 30
0.0
 10
86.25534210764954
 20
261.0150904550271
 30
0.0
 10
86.25568063765462
 20
260.9235792962516
 30
0.0
 10
86.25609108697036
 20
260.8227877809178
 30
0.0
  0
LINE
  5
1DD
330
1B7
100
AcDbEntity
  8
490037XXX_HEBEL_
  6
Continuous
 62
     7
100
AcDbLine
 10
86.2462737968
 20
271.1757606471
 30
0.0
 11
68.8962737968
 21
270.8729152706
 31
0.0
  0
LINE
  5
1DE
330
1B7
100
AcDbEntity
  8
490037XXX_HEBEL_
  6
Continuous
 62
     7
100
AcDbLine
 10
68.8962737968
 20
255.4787583285
 30
0.0
 11
86.2462737968
 21
255.175912952
 31
0.0
  0
ARC
  5
1DF
330
1B7
100
AcDbEntity
  8
490037XXX_HEBEL_
  6
Continuous
 62
     7
100
AcDbCircle
 10
86.255
 20
255.6758367995
 30
0.0
 40
0.4999999999999989
100
AcDbArc
 50
269.0
 51
0.0
  0
ARC
  5
1E0
330
1B7
100
AcDbEntity
  8
490037XXX_HEBEL_
  6
Continuous
 62
     7
100
AcDbCircle
 10
86.255
 20
270.6758367995
 30
0.0
 40
0.5000000000000004
100
AcDbArc
 50
0.0
 51
91.0
  0
ARC
  5
1E1
330
1B7
100
AcDbEntity
  8
490037XXX_HEBEL_
  6
Continuous
 62
     7
100
AcDbCircle
 10
68.905
 20
255.978682176
 30
0.0
 40
0.5000000000000004
100
AcDbArc
 50
180.0
 51
269.0
  0
ARC
  5
1E2
330
1B7
100
AcDbEntity
  8
490037XXX_HEBEL_
  6
Continuous
 62
     7
100
AcDbCircle
 10
68.905
 20
270.372991423
 30
0.0
 40
0.5000000000000029
100
AcDbArc
 50
91.0
 51
180.0
  0
SPLINE
  5
1E3
330
1B7
100
AcDbEntity
  8
490038XXX_GEHÄUS
  6
Continuous
 62
     7
100
AcDbSpline
210
0.0
220
0.0
230
1.0
 70
     8
 71
     3
 72
     9
 73
     5
 74
     0
 42
0.0000000051696633
 43
0.0000000001
 40
0.8099254696690663
 40
0.8099254696690663
 40
0.8099254696690663
 40
0.8099254696690663
 40
0.8459094838293859
 40
1.0
 40
1.0
 40
1.0
 40
1.0
 10
27.6563828869077
 20
274.7820671161622
 30
0.0
 10
27.63708240501559
 20
274.7691873893053
 30
0.0
 10
27.53472328683847
 20
274.7017625085406
 30
0.0
 10
27.43120451998736
 20
274.6361725676138
 30
0.0
 10
27.34728160351464
 20
274.5829986324817
 30
0.0
  0
SPLINE
  5
1E4
330
1B7
100
AcDbEntity
  8
490038XXX_GEHÄUS
  6
Continuous
 62
     7
100
AcDbSpline
210
0.0
220
0.0
230
1.0
 70
     8
 71
     3
 72
     9
 73
     5
 74
     0
 42
0.0000000051695794
 43
0.0000000001
 40
0.0
 40
0.0
 40
0.0
 40
0.0
 40
0.1540208620082329
 40
0.2045713841258534
 40
0.2045713841258534
 40
0.2045713841258534
 40
0.2045713841258534
 10
55.35269119478904
 20
274.5830118315063
 30
0.0
 10
55.26880198245293
 20
274.6361670336383
 30
0.0
 10
55.15737985393712
 20
274.7067680751591
 30
0.0
 10
55.04732175133852
 20
274.7794802701741
 30
0.0
 10
55.02030690076121
 20
274.7977171256973
 30
0.0
  0
ARC
  5
1E5
330
1B7
100
AcDbEntity
  8
490038XXX_GEHÄUS
  6
Continuous
 62
     7
100
AcDbCircle
 10
41.3500063949
 20
272.0471075615
 30
0.0
 40
13.49928500836111
100
AcDbArc
 50
17.3365250424
 51
19.1125313774
  0
ARC
  5
1E6
330
1B7
100
AcDbEntity
  8
490038XXX_GEHÄUS
  6
Continuous
 62
     7
100
AcDbCircle
 10
41.3500063949
 20
272.0471075615
 30
0.0
 40
13.49928500836111
100
AcDbArc
 50
161.1287769628
 51
162.6636449895
  0
ARC
  5
1E7
330
1B7
100
AcDbEntity
  8
490038XXX_GEHÄUS
  6
Continuous
 62
     7
100
AcDbCircle
 10
41.3487415157
 20
252.6791289891
 30
0.0
 40
25.99654563644052
100
AcDbArc
 50
122.5814857933
 51
122.5876542532
  0
ARC
  5
1E8
330
1B7
100
AcDbEntity
  8
490038XXX_GEHÄUS
  6
Continuous
 62
     7
100
AcDbCircle
 10
40.9903963965
 20
253.4956908851
 30
0.0
 40
26.17368260939207
100
AcDbArc
 50
59.5956896242
 51
59.6015248638
  0
SPLINE
  5
1E9
330
1B7
100
AcDbEntity
  8
490038XXX_GEHÄUS
  6
Continuous
 62
     7
100
AcDbSpline
210
0.0
220
0.0
230
1.0
 70
    12
 71
     2
 72
     8
 73
     5
 74
     0
 42
0.0000000001015492
 43
0.0000000001
 40
0.0
 40
0.0
 40
0.0
 40
0.5
 40
0.5
 40
0.8014345029009979
 40
0.8014345029009979
 40
0.8014345029009979
 10
41.35001173228646
 20
278.6758375948312
 30
0.0
 41
1.0
 10
67.35000724735785
 20
278.6758225866103
 30
0.0
 41
0.7071068832221891
 10
67.34999974274604
 20
252.6758270715357
 30
0.0
 41
1.0
 10
67.34999585755091
 20
239.2154300521727
 30
0.0
 41
0.8234238178819132
 10
56.35877450873588
 20
231.445272963655
 30
0.0
 41
0.8597522504875127
  0
SPLINE
  5
1EA
330
1B7
100
AcDbEntity
  8
490038XXX_GEHÄUS
  6
Continuous
 62
     7
100
AcDbSpline
210
0.0
220
0.0
230
1.0
 70
    12
 71
     2
 72
    12
 73
     9
 74
     0
 42
0.0000000001165474
 43
0.0000000001
 40
0.1952314712728345
 40
0.1952314712728345
 40
0.1952314712728345
 40
0.2500000000000002
 40
0.2500000000000002
 40
0.4999999999999995
 40
0.4999999999999995
 40
0.7499999999999997
 40
0.7499999999999997
 40
1.0
 40
1.0
 40
1.0
 10
26.34282963291728
 20
231.4441343882194
 30
0.0
 41
0.973954512883842
 10
24.53266135842072
 20
232.7236125985373
 30
0.0
 41
0.9833239699096978
 10
22.96521562504174
 20
234.2910587844027
 30
0.0
 41
1.0
 10
15.34999059686306
 20
241.9062860109261
 30
0.0
 41
0.923879504900637
 10
15.34999370537654
 20
252.6758420807637
 30
0.0
 41
1.0
 10
15.34999681389003
 20
263.4453981506012
 30
0.0
 41
0.923879504900637
 10
22.96522623817014
 20
271.060620981022
 30
0.0
 41
1.0
 10
30.58045566245024
 20
278.6758438114428
 30
0.0
 41
0.923879504900637
 10
41.35001173228646
 20
278.6758375948312
 30
0.0
 41
1.0
  0
ARC
  5
1EB
330
1B7
100
AcDbEntity
  8
490038XXX_GEHÄUS
  6
Continuous
 62
     7
100
AcDbCircle
 10
41.35
 20
252.6758367995
 30
0.0
 40
20.25
100
AcDbArc
 50
317.7945535963
 51
360.0
  0
ARC
  5
1EC
330
1B7
100
AcDbEntity
  8
490038XXX_GEHÄUS
  6
Continuous
 62
     7
100
AcDbCircle
 10
41.35
 20
252.6758367995
 30
0.0
 40
20.25
100
AcDbArc
 50
0.0
 51
222.2054464037
  0
ARC
  5
1ED
330
1B7
100
AcDbEntity
  8
490038XXX_GEHÄUS
  6
Continuous
 62
     7
100
AcDbCircle
 10
41.35
 20
252.6758367995
 30
0.0
 40
19.75
100
AcDbArc
 50
319.419581344
 51
360.0
  0
ARC
  5
1EE
330
1B7
100
AcDbEntity
  8
490038XXX_GEHÄUS
  6
Continuous
 62
     7
100
AcDbCircle
 10
41.35
 20
252.6758367995
 30
0.0
 40
19.75
100
AcDbArc
 50
0.0
 51
220.580418656
  0
SPLINE
  5
1EF
330
1B7
100
AcDbEntity
  8
490038XXX_GEHÄUS
  6
Continuous
 62
     7
100
AcDbSpline
210
0.0
220
0.0
230
1.0
 70
     8
 71
     3
 72
    11
 73
     7
 74
     0
 42
0.0000000064744878
 43
0.0000000001
 40
0.0099450049000825
 40
0.0099450049000825
 40
0.0099450049000825
 40
0.0099450049000825
 40
0.2503941109529837
 40
0.4947159214677797
 40
0.7423592842410662
 40
1.0
 40
1.0
 40
1.0
 40
1.0
 10
28.46267620356637
 20
276.0487861492385
 30
0.0
 10
28.41489712043833
 20
275.8922192167391
 30
0.0
 10
28.32968049250383
 20
275.6276055970906
 30
0.0
 10
28.18765081998396
 20
275.2712197365446
 30
0.0
 10
27.98017769031447
 20
275.0130701576667
 30
0.0
 10
27.79246344996814
 20
274.8758014441166
 30
0.0
 10
27.67724734508846
 20
274.7961152575659
 30
0.0
  0
SPLINE
  5
1F0
330
1B7
100
AcDbEntity
  8
490038XXX_GEHÄUS
  6
Continuous
 62
     7
100
AcDbSpline
210
0.0
220
0.0
230
1.0
 70
     8
 71
     3
 72
    10
 73
     6
 74
     0
 42
0.0000000070463452
 43
0.0000000001
 40
0.0
 40
0.0
 40
0.0
 40
0.0
 40
0.2462280026004187
 40
0.499576324957125
 40
0.7147279841219688
 40
0.7147279841219688
 40
0.7147279841219688
 40
0.7147279841219688
 10
54.99945958876139
 20
274.8137264096945
 30
0.0
 10
54.89256870121914
 20
274.8880994019681
 30
0.0
 10
54.71195570706226
 20
275.0207392574604
 30
0.0
 10
54.5213772198167
 20
275.2606868666979
 30
0.0
 10
54.42929987852806
 20
275.4808545761435
 30
0.0
 10
54.3894104389973
 20
275.5886619697791
 30
0.0
  0
SPLINE
  5
1F1
330
1B7
100
AcDbEntity
  8
490038XXX_GEHÄUS
  6
Continuous
 62
     7
100
AcDbSpline
210
0.0
220
0.0
230
1.0
 70
     8
 71
     3
 72
    13
 73
     9
 74
     0
 42
0.0000000072892904
 43
0.0000000001
 40
0.0
 40
0.0
 40
0.0
 40
0.0
 40
0.158262765235765
 40
0.3175793079781992
 40
0.4826626115944418
 40
0.651901683974751
 40
0.8256782370157124
 40
1.0
 40
1.0
 40
1.0
 40
1.0
 10
28.4681540878314
 20
276.0686959536004
 30
0.0
 10
28.4382254228085
 20
275.9649493207984
 30
0.0
 10
28.38754439842392
 20
275.7921398613837
 30
0.0
 10
28.30309981333468
 20
275.5205806795678
 30
0.0
 10
28.21721559434807
 20
275.3084358797657
 30
0.0
 10
28.12219847155036
 20
275.1359540145431
 30
0.0
 10
28.00230777343367
 20
275.0066131892257
 30
0.0
 10
27.90111938973654
 20
274.9350235386099
 30
0.0
 10
27.84042141604622
 20
274.8938940190957
 30
0.0
  0
SPLINE
  5
1F2
330
1B7
100
AcDbEntity
  8
490038XXX_GEHÄUS
  6
Continuous
 62
     7
100
AcDbSpline
210
0.0
220
0.0
230
1.0
 70
     8
 71
     3
 72
    12
 73
     8
 74
     0
 42
0.0000000370006047
 43
0.0000000001
 40
0.0
 40
0.0
 40
0.0
 40
0.0
 40
0.0814668971535119
 40
0.1594058939242768
 40
0.2270849375288015
 40
0.289365049109881
 40
0.3395906773633275
 40
0.3395906773633275
 40
0.3395906773633275
 40
0.3395906773633275
 10
27.9123736679513
 20
274.9420053067826
 30
0.0
 10
27.90089988519368
 20
274.9342009740524
 30
0.0
 10
27.88308809726799
 20
274.9220202173287
 30
0.0
 10
27.85703101192129
 20
274.904092026939
 30
0.0
 10
27.85198169555086
 20
274.8993827913779
 30
0.0
 10
27.8395999604182
 20
274.8914106607068
 30
0.0
 10
27.83735575135142
 20
274.8897938761658
 30
0.0
 10
27.83715570412885
 20
274.8895714248668
 30
0.0
  0
ARC
  5
1F3
330
1B7
100
AcDbEntity
  8
490038XXX_GEHÄUS
  6
Continuous
 62
     7
100
AcDbCircle
 10
54.2543669218
 20
273.624977054
 30
0.0
 40
1.400672085535393
100
AcDbArc
 50
53.2678061744
 51
56.8518583791
  0
SPLINE
  5
1F4
330
1B7
100
AcDbEntity
  8
490038XXX_GEHÄUS
  6
Continuous
 62
     7
100
AcDbSpline
210
0.0
220
0.0
230
1.0
 70
     8
 71
     3
 72
    14
 73
    10
 74
     0
 42
0.0000000072989231
 43
0.0000000001
 40
0.0
 40
0.0
 40
0.0
 40
0.0
 40
0.1458988517670304
 40
0.2926334157714761
 40
0.4051157764417818
 40
0.5168223715046989
 40
0.6808487292617698
 40
0.8411506035200451
 40
1.0
 40
1.0
 40
1.0
 40
1.0
 10
54.85902869919216
 20
274.893593923039
 30
0.0
 10
54.80779831095847
 20
274.9284940710426
 30
0.0
 10
54.72186574166182
 20
274.9888436333139
 30
0.0
 10
54.62271137090003
 20
275.0865777468979
 30
0.0
 10
54.54478234690008
 20
275.1957460808881
 30
0.0
 10
54.47298290961893
 20
275.3303242345715
 30
0.0
 10
54.39618327513433
 20
275.5232823490061
 30
0.0
 10
54.3127138100466
 20
275.7910385737018
 30
0.0
 10
54.26180710558799
 20
275.9646854039231
 30
0.0
 10
54.23184086726309
 20
276.0685303843709
 30
0.0
  0
LINE
  5
1F5
330
1B7
100
AcDbEntity
  8
490038XXX_GEHÄUS
  6
Continuous
 62
     7
100
AcDbLine
 10
55.3442725981
 20
274.5883409505
 30
0.0
 11
55.3520692499
 21
274.583409336
 31
0.0
  0
ARC
  5
1F6
330
1B7
100
AcDbEntity
  8
490038XXX_GEHÄUS
  6
Continuous
 62
     7
100
AcDbCircle
 10
64.7189746177
 20
289.6805642195
 30
0.0
 40
17.76682980036472
100
AcDbArc
 50
236.4139291246
 51
237.9307430972
  0
ARC
  5
1F7
330
1B7
100
AcDbEntity
  8
490038XXX_GEHÄUS
  6
Continuous
 62
     7
100
AcDbCircle
 10
41.3495779833
 20
272.0518213209
 30
0.0
 40
13.48474273599641
100
AcDbArc
 50
17.3159972394
 51
162.6819582468
  0
LINE
  5
1F8
330
1B7
100
AcDbEntity
  8
490041XXX_SOCKEL
  6
Continuous
 62
     7
100
AcDbLine
 10
74.75
 20
217.6758367995
 30
0.0
 11
56.35
 21
217.6758367995
 31
0.0
  0
LINE
  5
1F9
330
1B7
100
AcDbEntity
  8
490041XXX_SOCKEL
  6
Continuous
 62
     7
100
AcDbLine
 10
26.35
 20
217.6758367995
 30
0.0
 11
7.95
 21
217.6758367995
 31
0.0
  0
ARC
  5
1FA
330
1B7
100
AcDbEntity
  8
490041XXX_SOCKEL
  6
Continuous
 62
     7
100
AcDbCircle
 10
7.95
 20
219.2758367995
 30
0.0
 40
1.599999999999997
100
AcDbArc
 50
180.0
 51
270.0
  0
ARC
  5
1FB
330
1B7
100
AcDbEntity
  8
490041XXX_SOCKEL
  6
Continuous
 62
     7
100
AcDbCircle
 10
74.75
 20
219.2758367995
 30
0.0
 40
1.599999999999997
100
AcDbArc
 50
270.0
 51
0.0
  0
LINE
  5
1FC
330
1B7
100
AcDbEntity
  8
490041XXX_SOCKEL
  6
Continuous
 62
     7
100
AcDbLine
 10
6.35
 20
219.2758367995
 30
0.0
 11
6.35
 21
286.0758367995
 31
0.0
  0
LINE
  5
1FD
330
1B7
100
AcDbEntity
  8
490041XXX_SOCKEL
  6
Continuous
 62
     7
100
AcDbLine
 10
76.35
 20
286.0758367995
 30
0.0
 11
76.35
 21
271.0030205454
 31
0.0
  0
LINE
  5
1FE
330
1B7
100
AcDbEntity
  8
490041XXX_SOCKEL
  6
Continuous
 62
     7
100
AcDbLine
 10
76.35
 20
255.3486530536
 30
0.0
 11
76.35
 21
219.2758367995
 31
0.0
  0
ARC
  5
1FF
330
1B7
100
AcDbEntity
  8
490041XXX_SOCKEL
  6
Continuous
 62
     7
100
AcDbCircle
 10
7.95
 20
286.0758367995
 30
0.0
 40
1.599999999999997
100
AcDbArc
 50
90.0
 51
180.0
  0
ARC
  5
200
330
1B7
100
AcDbEntity
  8
490041XXX_SOCKEL
  6
Continuous
 62
     7
100
AcDbCircle
 10
74.75
 20
286.0758367995
 30
0.0
 40
1.599999999999997
100
AcDbArc
 50
0.0
 51
90.0
  0
LINE
  5
201
330
1B7
100
AcDbEntity
  8
490041XXX_SOCKEL
  6
Continuous
 62
     7
100
AcDbLine
 10
7.95
 20
287.6758367995
 30
0.0
 11
74.75
 21
287.6758367995
 31
0.0
  0
ENDBLK
  5
203
330
1B7
100
AcDbEntity
  8
0
100
AcDbBlockEnd
  0
ENDSEC
  0
SECTION
  2
ENTITIES
  0
INSERT
  5
5F
330
1F
100
AcDbEntity
  8
Default
100
AcDbBlockReference
  2
SEANNOT_GROUP
 10
0.0
 20
0.0
 30
0.0
  0
INSERT
  5
65
330
1F
100
AcDbEntity
  8
Default
100
AcDbBlockReference
  2
SEANNOT_GROUP1
 10
0.0
 20
0.0
 30
0.0
  0
INSERT
  5
6A
330
1F
100
AcDbEntity
  8
Default
100
AcDbBlockReference
  2
SE
 10
0.0
 20
0.0
 30
0.0
  0
INSERT
  5
175
330
1F
100
AcDbEntity
  8
Default
100
AcDbBlockReference
  2
SE1
 10
0.0
 20
0.0
 30
0.0
  0
INSERT
  5
1B8
330
1F
100
AcDbEntity
  8
Default
100
AcDbBlockReference
  2
SE2
 10
0.0
 20
0.0
 30
0.0
  0
TEXT
  5
205
330
1F
100
AcDbEntity
  8
Default
  6
Continuous
 62
     7
100
AcDbText
 10
5.9362635081
 20
53.4225120485
 30
0.0
 40
10.0
  1
Grohe AG^J
  7
SEACAD_seiso_ttf
 11
5.9362635081
 21
63.4225120485
 31
0.0
100
AcDbText
 73
     3
  0
TEXT
  5
206
330
1F
100
AcDbEntity
  8
Default
  6
Continuous
 62
     7
100
AcDbText
 10
5.9362635081
 20
37.0588756849
 30
0.0
 40
10.0
  1
 
  7
SEACAD_seiso_ttf
 11
5.9362635081
 21
47.0588756849
 31
0.0
100
AcDbText
 73
     3
  0
TEXT
  5
207
330
1F
100
AcDbEntity
  8
Default
  6
Continuous
 62
     7
100
AcDbText
 10
5.9362635081
 20
20.6952393213
 30
0.0
 40
10.0
  1
ecn: 
  7
SEACAD_seiso_ttf
 11
5.9362635081
 21
30.6952393213
 31
0.0
100
AcDbText
 73
     3
  0
TEXT
  5
208
330
1F
100
AcDbEntity
  8
Default
  6
Continuous
 62
     7
100
AcDbText
 10
5.9362635081
 20
4.3316029576
 30
0.0
 40
10.0
  1
unit: mm
  7
SEACAD_seiso_ttf
 11
5.9362635081
 21
14.3316029576
 31
0.0
100
AcDbText
 73
     3
  0
LINE
  5
209
330
1F
100
AcDbEntity
  8
Default
  6
Continuous
 62
     7
100
AcDbLine
 10
0.0
 20
0.0
 30
0.0
 11
100.0
 21
0.0
 31
0.0
  0
LINE
  5
20A
330
1F
100
AcDbEntity
  8
Default
  6
Continuous
 62
     7
100
AcDbLine
 10
0.0
 20
0.0
 30
0.0
 11
0.0
 21
100.0
 31
0.0
  0
TEXT
  5
20B
330
1F
100
AcDbEntity
  8
Default
  6
Continuous
 62
     7
100
AcDbText
 10
24.3923665681
 20
-18.2375342018
 30
0.0
 40
10.0
  1
100 mm
  7
SEACAD_seiso_ttf
 11
24.3923665681
 21
-8.2375342018
 31
0.0
100
AcDbText
 73
     3
  0
TEXT
  5
20C
330
1F
100
AcDbEntity
  8
Default
  6
Continuous
 62
     7
100
AcDbText
 10
-7.6150308803
 20
24.6231930421
 30
0.0
 40
10.0
  1
100 mm
 50
90.0
  7
SEACAD_seiso_ttf
 11
-17.6150308803
 21
24.6231930421
 31
0.0
100
AcDbText
 73
     3
  0
TEXT
  5
20D
330
1F
100
AcDbEntity
  8
Default
  6
Continuous
 62
     7
100
AcDbText
 10
28.4878128572
 20
20.0907663715
 30
0.0
 40
10.0
  1
215205
  7
SEACAD_seiso_ttf
 11
28.4878128572
 21
30.0907663715
 31
0.0
100
AcDbText
 73
     3
  0
TEXT
  5
20E
330
1F
100
AcDbEntity
  8
Default
  6
Continuous
 62
     7
100
AcDbText
 10
5.9012241913
 20
36.7242780188
 30
0.0
 40
10.0
  1
36095000
  7
SEACAD_seiso_ttf
 11
5.9012241913
 21
46.7242780188
 31
0.0
100
AcDbText
 73
     3
  0
ENDSEC
  0
SECTION
  2
OBJECTS
  0
DICTIONARY
  5
C
330
0
100
AcDbDictionary
281
     1
  3
ACAD_GROUP
350
D
  3
ACAD_LAYOUT
350
1A
  3
ACAD_MLEADERSTYLE
350
212
  3
ACAD_MLINESTYLE
350
17
  3
ACAD_PLOTSETTINGS
350
19
  3
ACAD_PLOTSTYLENAME
350
E
  3
ACAD_SCALELIST
350
3B
  3
ACAD_TABLESTYLE
350
211
  3
ACAD_VISUALSTYLE
350
2A
  3
AcDbVariableDictionary
350
20F
  0
DICTIONARY
  5
D
102
{ACAD_REACTORS
330
C
102
}
330
C
100
AcDbDictionary
281
     1
  0
DICTIONARY
  5
1A
102
{ACAD_REACTORS
330
C
102
}
330
C
100
AcDbDictionary
281
     1
  3
Layout1
350
1E
  3
Model
350
22
  0
DICTIONARY
  5
212
102
{ACAD_REACTORS
330
C
102
}
330
C
100
AcDbDictionary
281
     1
  0
DICTIONARY
  5
17
102
{ACAD_REACTORS
330
C
102
}
330
C
100
AcDbDictionary
281
     1
  3
Standard
350
18
  0
DICTIONARY
  5
19
102
{ACAD_REACTORS
330
C
102
}
330
C
100
AcDbDictionary
281
     1
  0
ACDBDICTIONARYWDFLT
  5
E
102
{ACAD_REACTORS
330
C
102
}
330
C
100
AcDbDictionary
281
     1
  3
Normal
350
F
100
AcDbDictionaryWithDefault
340
F
  0
DICTIONARY
  5
3B
102
{ACAD_REACTORS
330
C
102
}
330
C
100
AcDbDictionary
281
     1
  3
A0
350
3C
  3
A1
350
3D
  3
A2
350
3E
  3
A3
350
3F
  3
A4
350
40
  3
A5
350
41
  3
A6
350
42
  3
A7
350
43
  3
A8
350
44
  3
A9
350
45
  3
B0
350
46
  3
B1
350
47
  3
B2
350
48
  3
B3
350
49
  3
B4
350
4A
  3
B5
350
4B
  3
B6
350
4C
  3
B7
350
4D
  3
B8
350
4E
  3
B9
350
4F
  3
C0
350
50
  3
C1
350
51
  3
C2
350
52
  3
C3
350
53
  3
C4
350
54
  3
C5
350
55
  3
C6
350
56
  3
C7
350
57
  3
C8
350
58
  3
C9
350
59
  3
D0
350
5A
  3
D1
350
5B
  3
D2
350
5C
  0
DICTIONARY
  5
211
102
{ACAD_REACTORS
330
C
102
}
330
C
100
AcDbDictionary
281
     1
  0
DICTIONARY
  5
2A
102
{ACAD_REACTORS
330
C
102
}
330
C
100
AcDbDictionary
281
     1
  3
2dWireframe
350
2F
  3
3D Hidden
350
31
  3
3dWireframe
350
30
  3
Basic
350
32
  3
Brighten
350
36
  3
ColorChange
350
3A
  3
Conceptual
350
34
  3
Dim
350
35
  3
Facepattern
350
39
  3
Flat
350
2B
  3
FlatWithEdges
350
2C
  3
Gouraud
350
2D
  3
GouraudWithEdges
350
2E
  3
Linepattern
350
38
  3
Realistic
350
33
  3
Thicken
350
37
  0
DICTIONARY
  5
20F
102
{ACAD_REACTORS
330
C
102
}
330
C
100
AcDbDictionary
281
     1
  3
CANNOSCALE
350
210
  3
PSOLHEIGHT
350
214
  3
PSOLWIDTH
350
213
  0
LAYOUT
  5
1E
102
{ACAD_REACTORS
330
1A
102
}
330
1A
100
AcDbPlotSettings
  1

  2
none_device
  4

  6

 40
0.0
 41
0.0
 42
0.0
 43
0.0
 44
0.0
 45
0.0
 46
0.0
 47
0.0
 48
0.0
 49
0.0
140
0.0
141
0.0
142
1.0
143
1.0
 70
   688
 72
     0
 73
     0
 74
     5
  7

 75
    16
147
1.0
148
0.0
149
0.0
100
AcDbLayout
  1
Layout1
 70
     1
 71
     1
 10
0.0
 20
0.0
 11
1682.0
 21
2378.0
 12
0.0
 22
0.0
 32
0.0
 14
0.0
 24
0.0
 34
0.0
 15
1682.0
 25
2378.0
 35
0.0
146
0.0
 13
0.0
 23
0.0
 33
0.0
 16
1.0
 26
0.0
 36
0.0
 17
0.0
 27
1.0
 37
0.0
 76
     0
330
1B
  0
LAYOUT
  5
22
102
{ACAD_REACTORS
330
1A
102
}
330
1A
100
AcDbPlotSettings
  1

  2
none_device
  4

  6

 40
0.0
 41
0.0
 42
0.0
 43
0.0
 44
0.0
 45
0.0
 46
0.0
 47
0.0
 48
0.0
 49
0.0
140
0.0
141
0.0
142
1.0
143
1.0
 70
  1712
 72
     0
 73
     0
 74
     0
  7

 75
     0
147
1.0
148
0.0
149
0.0
100
AcDbLayout
  1
Model
 70
     1
 71
     0
 10
0.0
 20
0.0
 11
1682.0
 21
2378.0
 12
0.0
 22
0.0
 32
0.0
 14
0.0
 24
0.0
 34
0.0
 15
1682.0
 25
2378.0
 35
0.0
146
0.0
 13
0.0
 23
0.0
 33
0.0
 16
1.0
 26
0.0
 36
0.0
 17
0.0
 27
1.0
 37
0.0
 76
     0
330
1F
331
29
  0
MLINESTYLE
  5
18
102
{ACAD_REACTORS
330
17
102
}
330
17
100
AcDbMlineStyle
  2
Standard
 70
     0
  3

 62
   256
 51
90.0
 52
90.0
 71
     2
 49
0.5
 62
   256
  6
BYLAYER
 49
-0.5
 62
   256
  6
BYLAYER
  0
ACDBPLACEHOLDER
  5
F
102
{ACAD_REACTORS
330
E
102
}
330
E
  0
SCALE
  5
3C
102
{ACAD_REACTORS
330
3B
102
}
330
3B
100
AcDbScale
 70
     0
300
1:1
140
1.0
141
1.0
290
     1
  0
SCALE
  5
3D
102
{ACAD_REACTORS
330
3B
102
}
330
3B
100
AcDbScale
 70
     0
300
1:2
140
1.0
141
2.0
290
     0
  0
SCALE
  5
3E
102
{ACAD_REACTORS
330
3B
102
}
330
3B
100
AcDbScale
 70
     0
300
1:4
140
1.0
141
4.0
290
     0
  0
SCALE
  5
3F
102
{ACAD_REACTORS
330
3B
102
}
330
3B
100
AcDbScale
 70
     0
300
1:5
140
1.0
141
5.0
290
     0
  0
SCALE
  5
40
102
{ACAD_REACTORS
330
3B
102
}
330
3B
100
AcDbScale
 70
     0
300
1:8
140
1.0
141
8.0
290
     0
  0
SCALE
  5
41
102
{ACAD_REACTORS
330
3B
102
}
330
3B
100
AcDbScale
 70
     0
300
1:10
140
1.0
141
10.0
290
     0
  0
SCALE
  5
42
102
{ACAD_REACTORS
330
3B
102
}
330
3B
100
AcDbScale
 70
     0
300
1:16
140
1.0
141
16.0
290
     0
  0
SCALE
  5
43
102
{ACAD_REACTORS
330
3B
102
}
330
3B
100
AcDbScale
 70
     0
300
1:20
140
1.0
141
20.0
290
     0
  0
SCALE
  5
44
102
{ACAD_REACTORS
330
3B
102
}
330
3B
100
AcDbScale
 70
     0
300
1:30
140
1.0
141
30.0
290
     0
  0
SCALE
  5
45
102
{ACAD_REACTORS
330
3B
102
}
330
3B
100
AcDbScale
 70
     0
300
1:40
140
1.0
141
40.0
290
     0
  0
SCALE
  5
46
102
{ACAD_REACTORS
330
3B
102
}
330
3B
100
AcDbScale
 70
     0
300
1:50
140
1.0
141
50.0
290
     0
  0
SCALE
  5
47
102
{ACAD_REACTORS
330
3B
102
}
330
3B
100
AcDbScale
 70
     0
300
1:100
140
1.0
141
100.0
290
     0
  0
SCALE
  5
48
102
{ACAD_REACTORS
330
3B
102
}
330
3B
100
AcDbScale
 70
     0
300
2:1
140
2.0
141
1.0
290
     0
  0
SCALE
  5
49
102
{ACAD_REACTORS
330
3B
102
}
330
3B
100
AcDbScale
 70
     0
300
4:1
140
4.0
141
1.0
290
     0
  0
SCALE
  5
4A
102
{ACAD_REACTORS
330
3B
102
}
330
3B
100
AcDbScale
 70
     0
300
8:1
140
8.0
141
1.0
290
     0
  0
SCALE
  5
4B
102
{ACAD_REACTORS
330
3B
102
}
330
3B
100
AcDbScale
 70
     0
300
10:1
140
10.0
141
1.0
290
     0
  0
SCALE
  5
4C
102
{ACAD_REACTORS
330
3B
102
}
330
3B
100
AcDbScale
 70
     0
300
100:1
140
100.0
141
1.0
290
     0
  0
SCALE
  5
4D
102
{ACAD_REACTORS
330
3B
102
}
330
3B
100
AcDbScale
 70
     0
300
1/128" = 1'-0"
140
0.0078125
141
12.0
290
     0
  0
SCALE
  5
4E
102
{ACAD_REACTORS
330
3B
102
}
330
3B
100
AcDbScale
 70
     0
300
1/64" = 1'-0"
140
0.015625
141
12.0
290
     0
  0
SCALE
  5
4F
102
{ACAD_REACTORS
330
3B
102
}
330
3B
100
AcDbScale
 70
     0
300
1/32" = 1'-0"
140
0.03125
141
12.0
290
     0
  0
SCALE
  5
50
102
{ACAD_REACTORS
330
3B
102
}
330
3B
100
AcDbScale
 70
     0
300
1/16" = 1'-0"
140
0.0625
141
12.0
290
     0
  0
SCALE
  5
51
102
{ACAD_REACTORS
330
3B
102
}
330
3B
100
AcDbScale
 70
     0
300
3/32" = 1'-0"
140
0.09375
141
12.0
290
     0
  0
SCALE
  5
52
102
{ACAD_REACTORS
330
3B
102
}
330
3B
100
AcDbScale
 70
     0
300
1/8" = 1'-0"
140
0.125
141
12.0
290
     0
  0
SCALE
  5
53
102
{ACAD_REACTORS
330
3B
102
}
330
3B
100
AcDbScale
 70
     0
300
3/16" = 1'-0"
140
0.1875
141
12.0
290
     0
  0
SCALE
  5
54
102
{ACAD_REACTORS
330
3B
102
}
330
3B
100
AcDbScale
 70
     0
300
1/4" = 1'-0"
140
0.25
141
12.0
290
     0
  0
SCALE
  5
55
102
{ACAD_REACTORS
330
3B
102
}
330
3B
100
AcDbScale
 70
     0
300
3/8" = 1'-0"
140
0.375
141
12.0
290
     0
  0
SCALE
  5
56
102
{ACAD_REACTORS
330
3B
102
}
330
3B
100
AcDbScale
 70
     0
300
1/2" = 1'-0"
140
0.5
141
12.0
290
     0
  0
SCALE
  5
57
102
{ACAD_REACTORS
330
3B
102
}
330
3B
100
AcDbScale
 70
     0
300
3/4" = 1'-0"
140
0.75
141
12.0
290
     0
  0
SCALE
  5
58
102
{ACAD_REACTORS
330
3B
102
}
330
3B
100
AcDbScale
 70
     0
300
1" = 1'-0"
140
1.0
141
12.0
290
     0
  0
SCALE
  5
59
102
{ACAD_REACTORS
330
3B
102
}
330
3B
100
AcDbScale
 70
     0
300
1-1/2" = 1'-0"
140
1.5
141
12.0
290
     0
  0
SCALE
  5
5A
102
{ACAD_REACTORS
330
3B
102
}
330
3B
100
AcDbScale
 70
     0
300
3" = 1'-0"
140
3.0
141
12.0
290
     0
  0
SCALE
  5
5B
102
{ACAD_REACTORS
330
3B
102
}
330
3B
100
AcDbScale
 70
     0
300
6" = 1'-0"
140
6.0
141
12.0
290
     0
  0
SCALE
  5
5C
102
{ACAD_REACTORS
330
3B
102
}
330
3B
100
AcDbScale
 70
     0
300
1'-0" = 1'-0"
140
12.0
141
12.0
290
     0
  0
VISUALSTYLE
  5
2F
102
{ACAD_REACTORS
330
2A
102
}
330
2A
100
AcDbVisualStyle
  2
2dWireframe
 70
     4
 71
     0
 72
     2
 73
     0
 90
        0
 40
-0.6
 41
-30.0
 62
     5
 63
     7
 74
     1
 91
        4
 64
     7
 65
   257
 75
     1
175
     1
 42
1.0
 92
        0
 66
   257
 43
1.0
 76
     1
 77
     6
 78
     2
 67
     7
 79
     5
170
     0
171
     0
290
     0
174
     0
 93
        1
 44
0.0
173
     0
291
     0
 45
0.0
1001
ACAD
1000
AcDbSavedByObjectVersion
1070
     0
  0
VISUALSTYLE
  5
31
102
{ACAD_REACTORS
330
2A
102
}
330
2A
100
AcDbVisualStyle
  2
3D Hidden
 70
     6
 71
     1
 72
     2
 73
     2
 90
        0
 40
-0.6
 41
-30.0
 62
     5
 63
     7
 74
     2
 91
        2
 64
     7
 65
   257
 75
     2
175
     1
 42
40.0
 92
        0
 66
   257
 43
1.0
 76
     1
 77
     6
 78
     2
 67
     7
 79
     3
170
     0
171
     0
290
     0
174
     0
 93
        1
 44
0.0
173
     0
291
     0
 45
0.0
1001
ACAD
1000
AcDbSavedByObjectVersion
1070
     0
  0
VISUALSTYLE
  5
30
102
{ACAD_REACTORS
330
2A
102
}
330
2A
100
AcDbVisualStyle
  2
3dWireframe
 70
     5
 71
     0
 72
     2
 73
     0
 90
        0
 40
-0.6
 41
-30.0
 62
     5
 63
     7
 74
     1
 91
        4
 64
     7
 65
   257
 75
     1
175
     1
 42
1.0
 92
        0
 66
   257
 43
1.0
 76
     1
 77
     6
 78
     2
 67
     7
 79
     5
170
     0
171
     0
290
     0
174
     0
 93
        1
 44
0.0
173
     0
291
     0
 45
0.0
1001
ACAD
1000
AcDbSavedByObjectVersion
1070
     0
  0
VISUALSTYLE
  5
32
102
{ACAD_REACTORS
330
2A
102
}
330
2A
100
AcDbVisualStyle
  2
Basic
 70
     7
 71
     1
 72
     0
 73
     1
 90
        0
 40
-0.6
 41
-30.0
 62
     5
 63
     7
 74
     0
 91
        4
 64
     7
 65
   257
 75
     1
175
     1
 42
1.0
 92
        8
 66
     7
 43
1.0
 76
     1
 77
     6
 78
     2
 67
     7
 79
     5
170
     0
171
     0
290
     0
174
     0
 93
        1
 44
0.0
173
     0
291
     1
 45
0.0
1001
ACAD
1000
AcDbSavedByObjectVersion
1070
     0
  0
VISUALSTYLE
  5
36
102
{ACAD_REACTORS
330
2A
102
}
330
2A
100
AcDbVisualStyle
  2
Brighten
 70
    12
 71
     2
 72
     2
 73
     0
 90
        0
 40
-0.6
 41
-30.0
 62
     5
 63
     7
 74
     1
 91
        4
 64
     7
 65
   257
 75
     1
175
     1
 42
1.0
 92
        8
 66
     7
 43
1.0
 76
     1
 77
     6
 78
     2
 67
     7
 79
     5
170
     0
171
     0
290
     0
174
     0
 93
        1
 44
50.0
173
     0
291
     1
 45
0.0
1001
ACAD
1000
AcDbSavedByObjectVersion
1070
     0
  0
VISUALSTYLE
  5
3A
102
{ACAD_REACTORS
330
2A
102
}
330
2A
100
AcDbVisualStyle
  2
ColorChange
 70
    16
 71
     2
 72
     2
 73
     3
 90
        0
 40
-0.6
 41
-30.0
 62
     5
 63
     8
 74
     1
 91
        4
 64
     7
 65
   257
 75
     1
175
     1
 42
1.0
 92
        8
 66
     8
 43
1.0
 76
     1
 77
     6
 78
     2
 67
     7
 79
     5
170
     0
171
     0
290
     0
174
     0
 93
        1
 44
0.0
173
     0
291
     1
 45
0.0
1001
ACAD
1000
AcDbSavedByObjectVersion
1070
     0
  0
VISUALSTYLE
  5
34
102
{ACAD_REACTORS
330
2A
102
}
330
2A
100
AcDbVisualStyle
  2
Conceptual
 70
     9
 71
     3
 72
     2
 73
     0
 90
        0
 40
-0.6
 41
-30.0
 62
     5
 63
     7
 74
     2
 91
        2
 64
     7
 65
   257
 75
     1
175
     1
 42
40.0
 92
        8
 66
     7
 43
1.0
 76
     1
 77
     6
 78
     2
 67
     7
 79
     3
170
     0
171
     0
290
     0
174
     0
 93
        1
 44
0.0
173
     0
291
     0
 45
0.0
1001
ACAD
1000
AcDbSavedByObjectVersion
1070
     0
  0
VISUALSTYLE
  5
35
102
{ACAD_REACTORS
330
2A
102
}
330
2A
100
AcDbVisualStyle
  2
Dim
 70
    11
 71
     2
 72
     2
 73
     0
 90
        0
 40
-0.6
 41
-30.0
 62
     5
 63
     7
 74
     1
 91
        4
 64
     7
 65
   257
 75
     1
175
     1
 42
1.0
 92
        8
 66
     7
 43
1.0
 76
     1
 77
     6
 78
     2
 67
     7
 79
     5
170
     0
171
     0
290
     0
174
     0
 93
        1
 44
-50.0
173
     0
291
     1
 45
0.0
1001
ACAD
1000
AcDbSavedByObjectVersion
1070
     0
  0
VISUALSTYLE
  5
39
102
{ACAD_REACTORS
330
2A
102
}
330
2A
100
AcDbVisualStyle
  2
Facepattern
 70
    15
 71
     2
 72
     2
 73
     0
 90
        0
 40
-0.6
 41
-30.0
 62
     5
 63
     7
 74
     1
 91
        4
 64
     7
 65
   257
 75
     1
175
     1
 42
1.0
 92
        8
 66
     7
 43
1.0
 76
     1
 77
     6
 78
     2
 67
     7
 79
     5
170
     0
171
     0
290
     0
174
     0
 93
        1
 44
0.0
173
     0
291
     1
 45
0.0
1001
ACAD
1000
AcDbSavedByObjectVersion
1070
     0
  0
VISUALSTYLE
  5
2B
102
{ACAD_REACTORS
330
2A
102
}
330
2A
100
AcDbVisualStyle
  2
Flat
 70
     0
 71
     2
 72
     1
 73
     1
 90
        2
 40
-0.6
 41
30.0
 62
     5
 63
     7
 74
     0
 91
        4
 64
     7
 65
   257
 75
     1
175
     1
 42
1.0
 92
        8
 66
     7
 43
1.0
 76
     1
 77
     6
 78
     2
 67
     7
 79
     5
170
     0
171
     0
290
     0
174
     0
 93
       13
 44
0.0
173
     0
291
     1
 45
0.0
1001
ACAD
1000
AcDbSavedByObjectVersion
1070
     0
  0
VISUALSTYLE
  5
2C
102
{ACAD_REACTORS
330
2A
102
}
330
2A
100
AcDbVisualStyle
  2
FlatWithEdges
 70
     1
 71
     2
 72
     1
 73
     1
 90
        2
 40
-0.6
 41
30.0
 62
     5
 63
     7
 74
     1
 91
        4
 64
     7
 65
   257
 75
     1
175
     1
 42
1.0
 92
        0
 66
   257
 43
1.0
 76
     1
 77
     6
 78
     2
 67
     7
 79
     5
170
     0
171
     0
290
     0
174
     0
 93
       13
 44
0.0
173
     0
291
     1
 45
0.0
1001
ACAD
1000
AcDbSavedByObjectVersion
1070
     0
  0
VISUALSTYLE
  5
2D
102
{ACAD_REACTORS
330
2A
102
}
330
2A
100
AcDbVisualStyle
  2
Gouraud
 70
     2
 71
     2
 72
     2
 73
     1
 90
        2
 40
-0.6
 41
30.0
 62
     5
 63
     7
 74
     0
 91
        4
 64
     7
 65
   257
 75
     1
175
     1
 42
1.0
 92
        0
 66
     7
 43
1.0
 76
     1
 77
     6
 78
     2
 67
     7
 79
     5
170
     0
171
     0
290
     0
174
     0
 93
       13
 44
0.0
173
     0
291
     1
 45
0.0
1001
ACAD
1000
AcDbSavedByObjectVersion
1070
     0
  0
VISUALSTYLE
  5
2E
102
{ACAD_REACTORS
330
2A
102
}
330
2A
100
AcDbVisualStyle
  2
GouraudWithEdges
 70
     3
 71
     2
 72
     2
 73
     1
 90
        2
 40
-0.6
 41
30.0
 62
     5
 63
     7
 74
     1
 91
        4
 64
     7
 65
   257
 75
     1
175
     1
 42
1.0
 92
        0
 66
   257
 43
1.0
 76
     1
 77
     6
 78
     2
 67
     7
 79
     5
170
     0
171
     0
290
     0
174
     0
 93
       13
 44
0.0
173
     0
291
     1
 45
0.0
1001
ACAD
1000
AcDbSavedByObjectVersion
1070
     0
  0
VISUALSTYLE
  5
38
102
{ACAD_REACTORS
330
2A
102
}
330
2A
100
AcDbVisualStyle
  2
Linepattern
 70
    14
 71
     2
 72
     2
 73
     0
 90
        0
 40
-0.6
 41
-30.0
 62
     5
 63
     7
 74
     1
 91
        4
 64
     7
 65
   257
 75
     7
175
     7
 42
1.0
 92
        8
 66
     7
 43
1.0
 76
     1
 77
     6
 78
     2
 67
     7
 79
     5
170
     0
171
     0
290
     0
174
     0
 93
        1
 44
0.0
173
     0
291
     1
 45
0.0
1001
ACAD
1000
AcDbSavedByObjectVersion
1070
     0
  0
VISUALSTYLE
  5
33
102
{ACAD_REACTORS
330
2A
102
}
330
2A
100
AcDbVisualStyle
  2
Realistic
 70
     8
 71
     2
 72
     2
 73
     0
 90
        0
 40
-0.6
 41
-30.0
 62
     5
 63
     7
 74
     1
 91
        0
 64
     7
 65
   257
 75
     1
175
     1
 42
1.0
 92
        8
 66
     8
 43
1.0
 76
     1
 77
     6
 78
     2
 67
     7
 79
     5
170
     0
171
     0
290
     0
174
     0
 93
       13
 44
0.0
173
     0
291
     0
 45
0.0
1001
ACAD
1000
AcDbSavedByObjectVersion
1070
     0
  0
VISUALSTYLE
  5
37
102
{ACAD_REACTORS
330
2A
102
}
330
2A
100
AcDbVisualStyle
  2
Thicken
 70
    13
 71
     2
 72
     2
 73
     0
 90
        0
 40
-0.6
 41
-30.0
 62
     5
 63
     7
 74
     1
 91
        4
 64
     7
 65
   257
 75
     1
175
     1
 42
1.0
 92
       12
 66
     7
 43
1.0
 76
     1
 77
     6
 78
     2
 67
     7
 79
     5
170
     0
171
     0
290
     0
174
     0
 93
        1
 44
0.0
173
     0
291
     1
 45
0.0
1001
ACAD
1000
AcDbSavedByObjectVersion
1070
     0
  0
DICTIONARYVAR
  5
210
102
{ACAD_REACTORS
330
20F
102
}
330
20F
100
DictionaryVariables
280
     0
  1
1:1
  0
DICTIONARYVAR
  5
214
102
{ACAD_REACTORS
330
20F
102
}
330
20F
100
DictionaryVariables
280
     0
  1
80.000000
  0
DICTIONARYVAR
  5
213
102
{ACAD_REACTORS
330
20F
102
}
330
20F
100
DictionaryVariables
280
     0
  1
5.000000
  0
ENDSEC
  0
EOF
