999
Converted by 3D Exploration 
999
XDimension Software, LLC
999
http://www.xdsoft.com/explorer/
0
SECTION
2
HEADER
9
$ACADVER
1
AC1008
9
$UCSORG
10
0.0
20
0.0
30
0.0
9
$UCSXDIR
10
1.0
20
0.0
30
0.0
9
$TILEMODE
70
1
9
$UCSYDIR
10
0.0
20
1.0
30
0.0
9
$EXTMIN
10
-26.323000
20
-94.015999
30
-94.015999
9
$EXTMAX
10
238.781998
20
101.574997
30
406.686005
0
ENDSEC
0
SECTION
2
TABLES
0
TABLE
2
LTYPE
70
1
0
LTYPE
2
CONTINUOUS
70
64
3
Solid line
72
65
73
0
40
0.0
0
ENDTAB
0
TABLE
2
LAYER
70
77
0
LAYER
2
OBJECT__0
70
0
62
253
6
CONTINUOUS
0
LAYER
2
OBJECT__2
70
0
62
253
6
CONTINUOUS
0
LAYER
2
OBJECT__4
70
0
62
253
6
CONTINUOUS
0
LAYER
2
OBJECT__5
70
0
62
253
6
CONTINUOUS
0
LAYER
2
OBJECT__7
70
0
62
253
6
CONTINUOUS
0
LAYER
2
OBJECT__8
70
0
62
253
6
CONTINUOUS
0
LAYER
2
OBJECT__9
70
0
62
253
6
CONTINUOUS
0
LAYER
2
OBJECT__10
70
0
62
253
6
CONTINUOUS
0
LAYER
2
OBJECT__11
70
0
62
253
6
CONTINUOUS
0
LAYER
2
OBJECT__12
70
0
62
253
6
CONTINUOUS
0
LAYER
2
OBJECT__13
70
0
62
253
6
CONTINUOUS
0
LAYER
2
OBJECT__14
70
0
62
253
6
CONTINUOUS
0
LAYER
2
OBJECT__15
70
0
62
253
6
CONTINUOUS
0
LAYER
2
OBJECT__16
70
0
62
253
6
CONTINUOUS
0
LAYER
2
OBJECT__18
70
0
62
253
6
CONTINUOUS
0
LAYER
2
OBJECT__19
70
0
62
253
6
CONTINUOUS
0
LAYER
2
OBJECT__20
70
0
62
253
6
CONTINUOUS
0
LAYER
2
OBJECT__21
70
0
62
253
6
CONTINUOUS
0
LAYER
2
OBJECT__22
70
0
62
253
6
CONTINUOUS
0
LAYER
2
OBJECT__24
70
0
62
253
6
CONTINUOUS
0
LAYER
2
OBJECT__25
70
0
62
253
6
CONTINUOUS
0
LAYER
2
OBJECT__26
70
0
62
253
6
CONTINUOUS
0
LAYER
2
OBJECT__28
70
0
62
253
6
CONTINUOUS
0
LAYER
2
OBJECT__29
70
0
62
253
6
CONTINUOUS
0
LAYER
2
OBJECT__30
70
0
62
253
6
CONTINUOUS
0
LAYER
2
OBJECT__32
70
0
62
253
6
CONTINUOUS
0
LAYER
2
OBJECT__33
70
0
62
253
6
CONTINUOUS
0
LAYER
2
OBJECT__34
70
0
62
253
6
CONTINUOUS
0
LAYER
2
OBJECT__35
70
0
62
253
6
CONTINUOUS
0
LAYER
2
OBJECT__37
70
0
62
253
6
CONTINUOUS
0
LAYER
2
OBJECT__38
70
0
62
253
6
CONTINUOUS
0
LAYER
2
OBJECT__39
70
0
62
253
6
CONTINUOUS
0
LAYER
2
OBJECT__40
70
0
62
253
6
CONTINUOUS
0
LAYER
2
OBJECT__41
70
0
62
253
6
CONTINUOUS
0
LAYER
2
OBJECT__42
70
0
62
253
6
CONTINUOUS
0
LAYER
2
OBJECT__43
70
0
62
253
6
CONTINUOUS
0
LAYER
2
OBJECT__44
70
0
62
253
6
CONTINUOUS
0
LAYER
2
OBJECT__45
70
0
62
253
6
CONTINUOUS
0
LAYER
2
OBJECT__46
70
0
62
253
6
CONTINUOUS
0
LAYER
2
OBJECT__47
70
0
62
253
6
CONTINUOUS
0
LAYER
2
OBJECT__48
70
0
62
253
6
CONTINUOUS
0
LAYER
2
OBJECT__49
70
0
62
253
6
CONTINUOUS
0
LAYER
2
OBJECT__50
70
0
62
253
6
CONTINUOUS
0
LAYER
2
OBJECT__51
70
0
62
253
6
CONTINUOUS
0
LAYER
2
OBJECT__52
70
0
62
253
6
CONTINUOUS
0
LAYER
2
OBJECT__53
70
0
62
253
6
CONTINUOUS
0
LAYER
2
OBJECT__54
70
0
62
253
6
CONTINUOUS
0
LAYER
2
OBJECT__55
70
0
62
253
6
CONTINUOUS
0
LAYER
2
OBJECT__56
70
0
62
253
6
CONTINUOUS
0
LAYER
2
OBJECT__57
70
0
62
253
6
CONTINUOUS
0
LAYER
2
OBJECT__59
70
0
62
253
6
CONTINUOUS
0
LAYER
2
OBJECT__60
70
0
62
253
6
CONTINUOUS
0
LAYER
2
OBJECT__61
70
0
62
253
6
CONTINUOUS
0
LAYER
2
OBJECT__62
70
0
62
253
6
CONTINUOUS
0
LAYER
2
OBJECT__63
70
0
62
253
6
CONTINUOUS
0
LAYER
2
OBJECT__64
70
0
62
253
6
CONTINUOUS
0
LAYER
2
OBJECT__65
70
0
62
253
6
CONTINUOUS
0
LAYER
2
OBJECT__66
70
0
62
253
6
CONTINUOUS
0
LAYER
2
OBJECT__67
70
0
62
253
6
CONTINUOUS
0
LAYER
2
OBJECT__68
70
0
62
253
6
CONTINUOUS
0
LAYER
2
OBJECT__69
70
0
62
253
6
CONTINUOUS
0
LAYER
2
OBJECT__70
70
0
62
253
6
CONTINUOUS
0
LAYER
2
OBJECT__71
70
0
62
253
6
CONTINUOUS
0
LAYER
2
OBJECT__72
70
0
62
253
6
CONTINUOUS
0
LAYER
2
OBJECT__73
70
0
62
253
6
CONTINUOUS
0
LAYER
2
OBJECT__75
70
0
62
253
6
CONTINUOUS
0
LAYER
2
OBJECT__76
70
0
62
253
6
CONTINUOUS
0
ENDTAB
0
TABLE
2
STYLE
70
1
0
STYLE
2
STANDARD
70
0
40
0.0
41
1.0
50
0.0
71
0
42
0.2
3
txt
4
1
0
ENDTAB
0
TABLE
2
UCS
70
0
0
ENDTAB
0
ENDSEC
0
SECTION
2
ENTITIES
0
POLYLINE
8
OBJECT__0
66
1
70
64
71
20
72
20
62
253
0
VERTEX
8
OBJECT__0
10
0.000000
20
20.750000
30
146.449997
70
192
0
VERTEX
8
OBJECT__0
10
-12.197000
20
16.787001
30
146.449997
70
192
0
VERTEX
8
OBJECT__0
10
-12.197000
20
16.787001
30
146.949997
70
192
0
VERTEX
8
OBJECT__0
10
0.000000
20
20.750000
30
146.949997
70
192
0
VERTEX
8
OBJECT__0
10
-19.733999
20
6.412000
30
146.449997
70
192
0
VERTEX
8
OBJECT__0
10
-19.733999
20
6.412000
30
146.949997
70
192
0
VERTEX
8
OBJECT__0
10
-19.733999
20
-6.412000
30
146.449997
70
192
0
VERTEX
8
OBJECT__0
10
-19.733999
20
-6.412000
30
146.949997
70
192
0
VERTEX
8
OBJECT__0
10
-12.197000
20
-16.787001
30
146.449997
70
192
0
VERTEX
8
OBJECT__0
10
-12.197000
20
-16.787001
30
146.949997
70
192
0
VERTEX
8
OBJECT__0
10
0.000000
20
-20.750000
30
146.449997
70
192
0
VERTEX
8
OBJECT__0
10
0.000000
20
-20.750000
30
146.949997
70
192
0
VERTEX
8
OBJECT__0
10
12.197000
20
-16.787001
30
146.449997
70
192
0
VERTEX
8
OBJECT__0
10
12.197000
20
-16.787001
30
146.949997
70
192
0
VERTEX
8
OBJECT__0
10
19.733999
20
-6.412000
30
146.449997
70
192
0
VERTEX
8
OBJECT__0
10
19.733999
20
-6.412000
30
146.949997
70
192
0
VERTEX
8
OBJECT__0
10
19.733999
20
6.412000
30
146.449997
70
192
0
VERTEX
8
OBJECT__0
10
19.733999
20
6.412000
30
146.949997
70
192
0
VERTEX
8
OBJECT__0
10
12.197000
20
16.787001
30
146.449997
70
192
0
VERTEX
8
OBJECT__0
10
12.197000
20
16.787001
30
146.949997
70
192
0
VERTEX
8
OBJECT__0
10
0
20
0
30
0
70
128
71
1
72
2
73
3
0
VERTEX
8
OBJECT__0
10
0
20
0
30
0
70
128
71
1
72
3
73
4
0
VERTEX
8
OBJECT__0
10
0
20
0
30
0
70
128
71
2
72
5
73
6
0
VERTEX
8
OBJECT__0
10
0
20
0
30
0
70
128
71
2
72
6
73
3
0
VERTEX
8
OBJECT__0
10
0
20
0
30
0
70
128
71
5
72
7
73
8
0
VERTEX
8
OBJECT__0
10
0
20
0
30
0
70
128
71
5
72
8
73
6
0
VERTEX
8
OBJECT__0
10
0
20
0
30
0
70
128
71
7
72
9
73
10
0
VERTEX
8
OBJECT__0
10
0
20
0
30
0
70
128
71
7
72
10
73
8
0
VERTEX
8
OBJECT__0
10
0
20
0
30
0
70
128
71
9
72
11
73
12
0
VERTEX
8
OBJECT__0
10
0
20
0
30
0
70
128
71
9
72
12
73
10
0
VERTEX
8
OBJECT__0
10
0
20
0
30
0
70
128
71
11
72
13
73
14
0
VERTEX
8
OBJECT__0
10
0
20
0
30
0
70
128
71
11
72
14
73
12
0
VERTEX
8
OBJECT__0
10
0
20
0
30
0
70
128
71
13
72
15
73
16
0
VERTEX
8
OBJECT__0
10
0
20
0
30
0
70
128
71
13
72
16
73
14
0
VERTEX
8
OBJECT__0
10
0
20
0
30
0
70
128
71
15
72
17
73
18
0
VERTEX
8
OBJECT__0
10
0
20
0
30
0
70
128
71
15
72
18
73
16
0
VERTEX
8
OBJECT__0
10
0
20
0
30
0
70
128
71
17
72
19
73
20
0
VERTEX
8
OBJECT__0
10
0
20
0
30
0
70
128
71
17
72
20
73
18
0
VERTEX
8
OBJECT__0
10
0
20
0
30
0
70
128
71
19
72
1
73
4
0
VERTEX
8
OBJECT__0
10
0
20
0
30
0
70
128
71
19
72
4
73
20
0
SEQEND
8
OBJECT__0
0
POLYLINE
8
OBJECT__2
66
1
70
64
71
36
72
48
62
253
0
VERTEX
8
OBJECT__2
10
0.000000
20
77.949997
30
69.892998
70
192
0
VERTEX
8
OBJECT__2
10
7.029000
20
77.949997
30
71.776001
70
192
0
VERTEX
8
OBJECT__2
10
9.179000
20
72.932999
30
68.052002
70
192
0
VERTEX
8
OBJECT__2
10
0.000000
20
72.932999
30
65.593002
70
192
0
VERTEX
8
OBJECT__2
10
12.174000
20
77.949997
30
76.920998
70
192
0
VERTEX
8
OBJECT__2
10
15.898000
20
72.932999
30
74.771004
70
192
0
VERTEX
8
OBJECT__2
10
14.057000
20
77.949997
30
83.949997
70
192
0
VERTEX
8
OBJECT__2
10
18.357000
20
72.932999
30
83.949997
70
192
0
VERTEX
8
OBJECT__2
10
12.174000
20
77.949997
30
90.977997
70
192
0
VERTEX
8
OBJECT__2
10
15.898000
20
72.932999
30
93.128998
70
192
0
VERTEX
8
OBJECT__2
10
7.029000
20
77.949997
30
96.124001
70
192
0
VERTEX
8
OBJECT__2
10
9.179000
20
72.932999
30
99.848000
70
192
0
VERTEX
8
OBJECT__2
10
0.000000
20
77.949997
30
98.007004
70
192
0
VERTEX
8
OBJECT__2
10
0.000000
20
72.932999
30
102.306999
70
192
0
VERTEX
8
OBJECT__2
10
-7.029000
20
77.949997
30
96.124001
70
192
0
VERTEX
8
OBJECT__2
10
-9.179000
20
72.932999
30
99.848000
70
192
0
VERTEX
8
OBJECT__2
10
-12.174000
20
77.949997
30
90.977997
70
192
0
VERTEX
8
OBJECT__2
10
-15.898000
20
72.932999
30
93.128998
70
192
0
VERTEX
8
OBJECT__2
10
-14.057000
20
77.949997
30
83.949997
70
192
0
VERTEX
8
OBJECT__2
10
-18.357000
20
72.932999
30
83.949997
70
192
0
VERTEX
8
OBJECT__2
10
-12.174000
20
77.949997
30
76.920998
70
192
0
VERTEX
8
OBJECT__2
10
-15.898000
20
72.932999
30
74.771004
70
192
0
VERTEX
8
OBJECT__2
10
-7.029000
20
77.949997
30
71.776001
70
192
0
VERTEX
8
OBJECT__2
10
-9.179000
20
72.932999
30
68.052002
70
192
0
VERTEX
8
OBJECT__2
10
10.470000
20
66.849998
30
65.816002
70
192
0
VERTEX
8
OBJECT__2
10
0.000000
20
66.849998
30
63.009998
70
192
0
VERTEX
8
OBJECT__2
10
18.134001
20
66.849998
30
73.480003
70
192
0
VERTEX
8
OBJECT__2
10
20.940001
20
66.849998
30
83.949997
70
192
0
VERTEX
8
OBJECT__2
10
18.134001
20
66.849998
30
94.419998
70
192
0
VERTEX
8
OBJECT__2
10
10.470000
20
66.849998
30
102.084000
70
192
0
VERTEX
8
OBJECT__2
10
0.000000
20
66.849998
30
104.889999
70
192
0
VERTEX
8
OBJECT__2
10
-10.470000
20
66.849998
30
102.084000
70
192
0
VERTEX
8
OBJECT__2
10
-18.134001
20
66.849998
30
94.419998
70
192
0
VERTEX
8
OBJECT__2
10
-20.940001
20
66.849998
30
83.949997
70
192
0
VERTEX
8
OBJECT__2
10
-18.134001
20
66.849998
30
73.480003
70
192
0
VERTEX
8
OBJECT__2
10
-10.470000
20
66.849998
30
65.816002
70
192
0
VERTEX
8
OBJECT__2
10
0
20
0
30
0
70
128
71
1
72
2
73
3
0
VERTEX
8
OBJECT__2
10
0
20
0
30
0
70
128
71
1
72
3
73
4
0
VERTEX
8
OBJECT__2
10
0
20
0
30
0
70
128
71
2
72
5
73
6
0
VERTEX
8
OBJECT__2
10
0
20
0
30
0
70
128
71
2
72
6
73
3
0
VERTEX
8
OBJECT__2
10
0
20
0
30
0
70
128
71
5
72
7
73
8
0
VERTEX
8
OBJECT__2
10
0
20
0
30
0
70
128
71
5
72
8
73
6
0
VERTEX
8
OBJECT__2
10
0
20
0
30
0
70
128
71
7
72
9
73
10
0
VERTEX
8
OBJECT__2
10
0
20
0
30
0
70
128
71
7
72
10
73
8
0
VERTEX
8
OBJECT__2
10
0
20
0
30
0
70
128
71
9
72
11
73
12
0
VERTEX
8
OBJECT__2
10
0
20
0
30
0
70
128
71
9
72
12
73
10
0
VERTEX
8
OBJECT__2
10
0
20
0
30
0
70
128
71
11
72
13
73
14
0
VERTEX
8
OBJECT__2
10
0
20
0
30
0
70
128
71
11
72
14
73
12
0
VERTEX
8
OBJECT__2
10
0
20
0
30
0
70
128
71
13
72
15
73
16
0
VERTEX
8
OBJECT__2
10
0
20
0
30
0
70
128
71
13
72
16
73
14
0
VERTEX
8
OBJECT__2
10
0
20
0
30
0
70
128
71
15
72
17
73
18
0
VERTEX
8
OBJECT__2
10
0
20
0
30
0
70
128
71
15
72
18
73
16
0
VERTEX
8
OBJECT__2
10
0
20
0
30
0
70
128
71
17
72
19
73
20
0
VERTEX
8
OBJECT__2
10
0
20
0
30
0
70
128
71
17
72
20
73
18
0
VERTEX
8
OBJECT__2
10
0
20
0
30
0
70
128
71
19
72
21
73
22
0
VERTEX
8
OBJECT__2
10
0
20
0
30
0
70
128
71
19
72
22
73
20
0
VERTEX
8
OBJECT__2
10
0
20
0
30
0
70
128
71
21
72
23
73
24
0
VERTEX
8
OBJECT__2
10
0
20
0
30
0
70
128
71
21
72
24
73
22
0
VERTEX
8
OBJECT__2
10
0
20
0
30
0
70
128
71
23
72
1
73
4
0
VERTEX
8
OBJECT__2
10
0
20
0
30
0
70
128
71
23
72
4
73
24
0
VERTEX
8
OBJECT__2
10
0
20
0
30
0
70
128
71
4
72
3
73
25
0
VERTEX
8
OBJECT__2
10
0
20
0
30
0
70
128
71
4
72
25
73
26
0
VERTEX
8
OBJECT__2
10
0
20
0
30
0
70
128
71
3
72
6
73
27
0
VERTEX
8
OBJECT__2
10
0
20
0
30
0
70
128
71
3
72
27
73
25
0
VERTEX
8
OBJECT__2
10
0
20
0
30
0
70
128
71
6
72
8
73
28
0
VERTEX
8
OBJECT__2
10
0
20
0
30
0
70
128
71
6
72
28
73
27
0
VERTEX
8
OBJECT__2
10
0
20
0
30
0
70
128
71
8
72
10
73
29
0
VERTEX
8
OBJECT__2
10
0
20
0
30
0
70
128
71
8
72
29
73
28
0
VERTEX
8
OBJECT__2
10
0
20
0
30
0
70
128
71
10
72
12
73
30
0
VERTEX
8
OBJECT__2
10
0
20
0
30
0
70
128
71
10
72
30
73
29
0
VERTEX
8
OBJECT__2
10
0
20
0
30
0
70
128
71
12
72
14
73
31
0
VERTEX
8
OBJECT__2
10
0
20
0
30
0
70
128
71
12
72
31
73
30
0
VERTEX
8
OBJECT__2
10
0
20
0
30
0
70
128
71
14
72
16
73
32
0
VERTEX
8
OBJECT__2
10
0
20
0
30
0
70
128
71
14
72
32
73
31
0
VERTEX
8
OBJECT__2
10
0
20
0
30
0
70
128
71
16
72
18
73
33
0
VERTEX
8
OBJECT__2
10
0
20
0
30
0
70
128
71
16
72
33
73
32
0
VERTEX
8
OBJECT__2
10
0
20
0
30
0
70
128
71
18
72
20
73
34
0
VERTEX
8
OBJECT__2
10
0
20
0
30
0
70
128
71
18
72
34
73
33
0
VERTEX
8
OBJECT__2
10
0
20
0
30
0
70
128
71
20
72
22
73
35
0
VERTEX
8
OBJECT__2
10
0
20
0
30
0
70
128
71
20
72
35
73
34
0
VERTEX
8
OBJECT__2
10
0
20
0
30
0
70
128
71
22
72
24
73
36
0
VERTEX
8
OBJECT__2
10
0
20
0
30
0
70
128
71
22
72
36
73
35
0
VERTEX
8
OBJECT__2
10
0
20
0
30
0
70
128
71
24
72
4
73
26
0
VERTEX
8
OBJECT__2
10
0
20
0
30
0
70
128
71
24
72
26
73
36
0
SEQEND
8
OBJECT__2
0
POLYLINE
8
OBJECT__4
66
1
70
64
71
20
72
20
62
253
0
VERTEX
8
OBJECT__4
10
-16.469999
20
67.000000
30
97.769997
70
192
0
VERTEX
8
OBJECT__4
10
-16.087000
20
66.500000
30
97.447998
70
192
0
VERTEX
8
OBJECT__4
10
-21.000000
20
66.500000
30
83.949997
70
192
0
VERTEX
8
OBJECT__4
10
-3.733000
20
67.000000
30
105.123001
70
192
0
VERTEX
8
OBJECT__4
10
-3.647000
20
66.500000
30
104.630997
70
192
0
VERTEX
8
OBJECT__4
10
10.750000
20
67.000000
30
102.569000
70
192
0
VERTEX
8
OBJECT__4
10
10.500000
20
66.500000
30
102.136002
70
192
0
VERTEX
8
OBJECT__4
10
20.202999
20
67.000000
30
91.303001
70
192
0
VERTEX
8
OBJECT__4
10
19.733999
20
66.500000
30
91.132004
70
192
0
VERTEX
8
OBJECT__4
10
21.500000
20
67.000000
30
83.949997
70
192
0
VERTEX
8
OBJECT__4
10
21.000000
20
66.500000
30
83.949997
70
192
0
VERTEX
8
OBJECT__4
10
20.202999
20
67.000000
30
76.596001
70
192
0
VERTEX
8
OBJECT__4
10
19.733999
20
66.500000
30
76.766998
70
192
0
VERTEX
8
OBJECT__4
10
10.750000
20
67.000000
30
65.330002
70
192
0
VERTEX
8
OBJECT__4
10
10.500000
20
66.500000
30
65.763000
70
192
0
VERTEX
8
OBJECT__4
10
-3.733000
20
67.000000
30
62.777000
70
192
0
VERTEX
8
OBJECT__4
10
-3.647000
20
66.500000
30
63.269001
70
192
0
VERTEX
8
OBJECT__4
10
-16.469999
20
67.000000
30
70.129997
70
192
0
VERTEX
8
OBJECT__4
10
-16.087000
20
66.500000
30
70.450996
70
192
0
VERTEX
8
OBJECT__4
10
-21.500000
20
67.000000
30
83.949997
70
192
0
VERTEX
8
OBJECT__4
10
0
20
0
30
0
70
128
71
1
72
2
73
3
0
VERTEX
8
OBJECT__4
10
0
20
0
30
0
70
128
71
4
72
5
73
2
0
VERTEX
8
OBJECT__4
10
0
20
0
30
0
70
128
71
6
72
7
73
5
0
VERTEX
8
OBJECT__4
10
0
20
0
30
0
70
128
71
8
72
9
73
7
0
VERTEX
8
OBJECT__4
10
0
20
0
30
0
70
128
71
8
72
10
73
11
0
VERTEX
8
OBJECT__4
10
0
20
0
30
0
70
128
71
12
72
13
73
11
0
VERTEX
8
OBJECT__4
10
0
20
0
30
0
70
128
71
11
72
10
73
12
0
VERTEX
8
OBJECT__4
10
0
20
0
30
0
70
128
71
14
72
15
73
13
0
VERTEX
8
OBJECT__4
10
0
20
0
30
0
70
128
71
14
72
16
73
17
0
VERTEX
8
OBJECT__4
10
0
20
0
30
0
70
128
71
16
72
18
73
19
0
VERTEX
8
OBJECT__4
10
0
20
0
30
0
70
128
71
18
72
20
73
3
0
VERTEX
8
OBJECT__4
10
0
20
0
30
0
70
128
71
3
72
19
73
18
0
VERTEX
8
OBJECT__4
10
0
20
0
30
0
70
128
71
19
72
17
73
16
0
VERTEX
8
OBJECT__4
10
0
20
0
30
0
70
128
71
17
72
15
73
14
0
VERTEX
8
OBJECT__4
10
0
20
0
30
0
70
128
71
13
72
12
73
14
0
VERTEX
8
OBJECT__4
10
0
20
0
30
0
70
128
71
11
72
9
73
8
0
VERTEX
8
OBJECT__4
10
0
20
0
30
0
70
128
71
7
72
6
73
8
0
VERTEX
8
OBJECT__4
10
0
20
0
30
0
70
128
71
5
72
4
73
6
0
VERTEX
8
OBJECT__4
10
0
20
0
30
0
70
128
71
2
72
1
73
4
0
VERTEX
8
OBJECT__4
10
0
20
0
30
0
70
128
71
3
72
20
73
1
0
SEQEND
8
OBJECT__4
0
POLYLINE
8
OBJECT__5
66
1
70
64
71
20
72
20
62
253
0
VERTEX
8
OBJECT__5
10
24.000000
20
67.000000
30
83.949997
70
192
0
VERTEX
8
OBJECT__5
10
21.500000
20
67.000000
30
83.949997
70
192
0
VERTEX
8
OBJECT__5
10
20.202999
20
67.000000
30
91.303001
70
192
0
VERTEX
8
OBJECT__5
10
22.552999
20
67.000000
30
75.740997
70
192
0
VERTEX
8
OBJECT__5
10
20.202999
20
67.000000
30
76.596001
70
192
0
VERTEX
8
OBJECT__5
10
12.000000
20
67.000000
30
63.165001
70
192
0
VERTEX
8
OBJECT__5
10
10.750000
20
67.000000
30
65.330002
70
192
0
VERTEX
8
OBJECT__5
10
22.552999
20
67.000000
30
92.157997
70
192
0
VERTEX
8
OBJECT__5
10
10.750000
20
67.000000
30
102.569000
70
192
0
VERTEX
8
OBJECT__5
10
-4.168000
20
67.000000
30
60.314999
70
192
0
VERTEX
8
OBJECT__5
10
-3.733000
20
67.000000
30
62.777000
70
192
0
VERTEX
8
OBJECT__5
10
-18.385000
20
67.000000
30
68.523003
70
192
0
VERTEX
8
OBJECT__5
10
-16.469999
20
67.000000
30
70.129997
70
192
0
VERTEX
8
OBJECT__5
10
-18.385000
20
67.000000
30
99.376999
70
192
0
VERTEX
8
OBJECT__5
10
-16.469999
20
67.000000
30
97.769997
70
192
0
VERTEX
8
OBJECT__5
10
-21.500000
20
67.000000
30
83.949997
70
192
0
VERTEX
8
OBJECT__5
10
-4.168000
20
67.000000
30
107.584999
70
192
0
VERTEX
8
OBJECT__5
10
-3.733000
20
67.000000
30
105.123001
70
192
0
VERTEX
8
OBJECT__5
10
12.000000
20
67.000000
30
104.735001
70
192
0
VERTEX
8
OBJECT__5
10
-24.000000
20
67.000000
30
83.949997
70
192
0
VERTEX
8
OBJECT__5
10
0
20
0
30
0
70
128
71
1
72
2
73
3
0
VERTEX
8
OBJECT__5
10
0
20
0
30
0
70
128
71
4
72
5
73
2
0
VERTEX
8
OBJECT__5
10
0
20
0
30
0
70
128
71
2
72
1
73
4
0
VERTEX
8
OBJECT__5
10
0
20
0
30
0
70
128
71
4
72
6
73
7
0
VERTEX
8
OBJECT__5
10
0
20
0
30
0
70
128
71
8
72
3
73
9
0
VERTEX
8
OBJECT__5
10
0
20
0
30
0
70
128
71
7
72
5
73
4
0
VERTEX
8
OBJECT__5
10
0
20
0
30
0
70
128
71
10
72
11
73
7
0
VERTEX
8
OBJECT__5
10
0
20
0
30
0
70
128
71
12
72
13
73
11
0
VERTEX
8
OBJECT__5
10
0
20
0
30
0
70
128
71
14
72
15
73
16
0
VERTEX
8
OBJECT__5
10
0
20
0
30
0
70
128
71
17
72
18
73
15
0
VERTEX
8
OBJECT__5
10
0
20
0
30
0
70
128
71
3
72
8
73
1
0
VERTEX
8
OBJECT__5
10
0
20
0
30
0
70
128
71
11
72
10
73
12
0
VERTEX
8
OBJECT__5
10
0
20
0
30
0
70
128
71
15
72
14
73
17
0
VERTEX
8
OBJECT__5
10
0
20
0
30
0
70
128
71
17
72
19
73
9
0
VERTEX
8
OBJECT__5
10
0
20
0
30
0
70
128
71
7
72
6
73
10
0
VERTEX
8
OBJECT__5
10
0
20
0
30
0
70
128
71
20
72
16
73
13
0
VERTEX
8
OBJECT__5
10
0
20
0
30
0
70
128
71
9
72
18
73
17
0
VERTEX
8
OBJECT__5
10
0
20
0
30
0
70
128
71
13
72
12
73
20
0
VERTEX
8
OBJECT__5
10
0
20
0
30
0
70
128
71
9
72
19
73
8
0
VERTEX
8
OBJECT__5
10
0
20
0
30
0
70
128
71
16
72
20
73
14
0
SEQEND
8
OBJECT__5
0
POLYLINE
8
OBJECT__7
66
1
70
64
71
114
72
118
62
253
0
VERTEX
8
OBJECT__7
10
22.552999
20
-36.000000
30
92.157997
70
192
0
VERTEX
8
OBJECT__7
10
22.552999
20
-36.000000
30
75.740997
70
192
0
VERTEX
8
OBJECT__7
10
24.000000
20
67.000000
30
83.949997
70
192
0
VERTEX
8
OBJECT__7
10
22.552999
20
67.000000
30
75.740997
70
192
0
VERTEX
8
OBJECT__7
10
-18.385000
20
-36.000000
30
99.376999
70
192
0
VERTEX
8
OBJECT__7
10
-11.480000
20
-17.584000
30
105.026001
70
192
0
VERTEX
8
OBJECT__7
10
-13.391000
20
-15.960000
30
103.717003
70
192
0
VERTEX
8
OBJECT__7
10
-15.506000
20
-14.162000
30
102.268997
70
192
0
VERTEX
8
OBJECT__7
10
-8.884000
20
-19.028000
30
106.245003
70
192
0
VERTEX
8
OBJECT__7
10
-16.797001
20
-12.603000
30
101.092003
70
192
0
VERTEX
8
OBJECT__7
10
-4.168000
20
-36.000000
30
107.584999
70
192
0
VERTEX
8
OBJECT__7
10
-4.150000
20
-20.506001
30
107.521004
70
192
0
VERTEX
8
OBJECT__7
10
-24.000000
20
67.000000
30
83.949997
70
192
0
VERTEX
8
OBJECT__7
10
-19.721001
20
7.218000
30
97.627998
70
192
0
VERTEX
8
OBJECT__7
10
-18.336000
20
9.947000
30
99.336998
70
192
0
VERTEX
8
OBJECT__7
10
-20.534000
20
4.399000
30
96.374001
70
192
0
VERTEX
8
OBJECT__7
10
-24.000000
20
-36.000000
30
83.949997
70
192
0
VERTEX
8
OBJECT__7
10
-20.988001
20
0.714000
30
95.591003
70
192
0
VERTEX
8
OBJECT__7
10
-19.555000
20
-7.655000
30
97.863998
70
192
0
VERTEX
8
OBJECT__7
10
-20.625000
20
-3.632000
30
96.198997
70
192
0
VERTEX
8
OBJECT__7
10
-18.313999
20
-9.882000
30
99.316002
70
192
0
VERTEX
8
OBJECT__7
10
-20.774000
20
-3.076000
30
95.969002
70
192
0
VERTEX
8
OBJECT__7
10
-18.385000
20
67.000000
30
99.376999
70
192
0
VERTEX
8
OBJECT__7
10
-7.172000
20
19.690001
30
106.813004
70
192
0
VERTEX
8
OBJECT__7
10
-4.141000
20
20.440001
30
107.462997
70
192
0
VERTEX
8
OBJECT__7
10
-7.544000
20
19.598000
30
106.734001
70
192
0
VERTEX
8
OBJECT__7
10
-17.474001
20
11.647000
30
100.401001
70
192
0
VERTEX
8
OBJECT__7
10
-16.304001
20
13.236000
30
101.561996
70
192
0
VERTEX
8
OBJECT__7
10
-18.083000
20
10.447000
30
99.650002
70
192
0
VERTEX
8
OBJECT__7
10
-12.211000
20
17.084999
30
104.611000
70
192
0
VERTEX
8
OBJECT__7
10
12.000000
20
67.000000
30
104.735001
70
192
0
VERTEX
8
OBJECT__7
10
8.782000
20
19.076000
30
106.285004
70
192
0
VERTEX
8
OBJECT__7
10
9.904000
20
18.518000
30
105.810997
70
192
0
VERTEX
8
OBJECT__7
10
3.383000
20
20.726000
30
107.709999
70
192
0
VERTEX
8
OBJECT__7
10
7.135000
20
19.579000
30
106.720001
70
192
0
VERTEX
8
OBJECT__7
10
-4.168000
20
67.000000
30
107.584999
70
192
0
VERTEX
8
OBJECT__7
10
-1.667000
20
20.934000
30
107.891998
70
192
0
VERTEX
8
OBJECT__7
10
-2.461000
20
20.855000
30
107.822998
70
192
0
VERTEX
8
OBJECT__7
10
13.389000
20
-15.950000
30
103.708000
70
192
0
VERTEX
8
OBJECT__7
10
11.943000
20
-17.104000
30
104.646004
70
192
0
VERTEX
8
OBJECT__7
10
15.146000
20
-14.547000
30
102.567001
70
192
0
VERTEX
8
OBJECT__7
10
16.266001
20
-13.283000
30
101.597000
70
192
0
VERTEX
8
OBJECT__7
10
19.162001
20
-8.593000
30
98.401001
70
192
0
VERTEX
8
OBJECT__7
10
19.801001
20
-6.994000
30
97.511002
70
192
0
VERTEX
8
OBJECT__7
10
20.764999
20
-3.131000
30
95.983002
70
192
0
VERTEX
8
OBJECT__7
10
20.639000
20
-3.636000
30
96.182999
70
192
0
VERTEX
8
OBJECT__7
10
22.552999
20
67.000000
30
92.157997
70
192
0
VERTEX
8
OBJECT__7
10
20.996000
20
0.434000
30
95.577003
70
192
0
VERTEX
8
OBJECT__7
10
15.856000
20
13.769000
30
101.966003
70
192
0
VERTEX
8
OBJECT__7
10
18.047001
20
10.410000
30
99.629997
70
192
0
VERTEX
8
OBJECT__7
10
11.934000
20
17.076000
30
104.622002
70
192
0
VERTEX
8
OBJECT__7
10
14.218000
20
15.455000
30
103.285004
70
192
0
VERTEX
8
OBJECT__7
10
18.992001
20
8.961000
30
98.623001
70
192
0
VERTEX
8
OBJECT__7
10
20.624001
20
3.954000
30
96.223000
70
192
0
VERTEX
8
OBJECT__7
10
12.000000
20
-36.000000
30
104.735001
70
192
0
VERTEX
8
OBJECT__7
10
5.019000
20
-20.391001
30
107.418999
70
192
0
VERTEX
8
OBJECT__7
10
0.000000
20
-21.000000
30
107.949997
70
192
0
VERTEX
8
OBJECT__7
10
5.768000
20
-20.191999
30
107.247002
70
192
0
VERTEX
8
OBJECT__7
10
10.838000
20
-17.987000
30
105.363998
70
192
0
VERTEX
8
OBJECT__7
10
-3.523000
20
-20.702000
30
107.690002
70
192
0
VERTEX
8
OBJECT__7
10
-4.168000
20
67.000000
30
60.314999
70
192
0
VERTEX
8
OBJECT__7
10
0.202000
20
20.999001
30
59.951000
70
192
0
VERTEX
8
OBJECT__7
10
-1.076000
20
20.972000
30
59.973999
70
192
0
VERTEX
8
OBJECT__7
10
12.000000
20
67.000000
30
63.165001
70
192
0
VERTEX
8
OBJECT__7
10
3.624000
20
20.517000
30
60.370998
70
192
0
VERTEX
8
OBJECT__7
10
5.605000
20
20.238001
30
60.613998
70
192
0
VERTEX
8
OBJECT__7
10
11.934000
20
17.080000
30
63.272999
70
192
0
VERTEX
8
OBJECT__7
10
10.393000
20
18.247999
30
62.317001
70
192
0
VERTEX
8
OBJECT__7
10
-18.385000
20
67.000000
30
68.523003
70
192
0
VERTEX
8
OBJECT__7
10
-13.065000
20
16.441000
30
63.818001
70
192
0
VERTEX
8
OBJECT__7
10
-16.874001
20
12.501000
30
66.883003
70
192
0
VERTEX
8
OBJECT__7
10
-6.782000
20
19.875000
30
60.928001
70
192
0
VERTEX
8
OBJECT__7
10
-10.454000
20
18.091999
30
62.443001
70
192
0
VERTEX
8
OBJECT__7
10
-6.034000
20
20.114000
30
60.721001
70
192
0
VERTEX
8
OBJECT__7
10
-4.149000
20
20.441000
30
60.437000
70
192
0
VERTEX
8
OBJECT__7
10
-11.423000
20
17.621000
30
62.842999
70
192
0
VERTEX
8
OBJECT__7
10
-17.716999
20
11.275000
30
67.760002
70
192
0
VERTEX
8
OBJECT__7
10
-19.705000
20
-7.169000
30
70.274002
70
192
0
VERTEX
8
OBJECT__7
10
-18.334000
20
-9.932000
30
68.564003
70
192
0
VERTEX
8
OBJECT__7
10
-19.823000
20
-6.930000
30
70.420998
70
192
0
VERTEX
8
OBJECT__7
10
-20.238001
20
-5.605000
30
71.050003
70
192
0
VERTEX
8
OBJECT__7
10
-20.917000
20
-1.866000
30
72.181999
70
192
0
VERTEX
8
OBJECT__7
10
-20.891001
20
2.135000
30
72.136002
70
192
0
VERTEX
8
OBJECT__7
10
-18.340000
20
9.940000
30
68.558998
70
192
0
VERTEX
8
OBJECT__7
10
-19.646000
20
7.142000
30
70.234001
70
192
0
VERTEX
8
OBJECT__7
10
-20.018999
20
6.342000
30
70.712997
70
192
0
VERTEX
8
OBJECT__7
10
-4.168000
20
-36.000000
30
60.314999
70
192
0
VERTEX
8
OBJECT__7
10
-18.385000
20
-36.000000
30
68.523003
70
192
0
VERTEX
8
OBJECT__7
10
-7.588000
20
-19.580999
30
61.181000
70
192
0
VERTEX
8
OBJECT__7
10
-12.252000
20
-17.055000
30
63.313000
70
192
0
VERTEX
8
OBJECT__7
10
-10.423000
20
-18.046000
30
62.477001
70
192
0
VERTEX
8
OBJECT__7
10
-17.509001
20
-11.594000
30
67.536003
70
192
0
VERTEX
8
OBJECT__7
10
-16.337999
20
-13.193000
30
66.370003
70
192
0
VERTEX
8
OBJECT__7
10
12.000000
20
-36.000000
30
63.165001
70
192
0
VERTEX
8
OBJECT__7
10
8.722000
20
-19.103001
30
61.591000
70
192
0
VERTEX
8
OBJECT__7
10
9.833000
20
-18.556000
30
62.056999
70
192
0
VERTEX
8
OBJECT__7
10
3.324000
20
-20.735001
30
60.181000
70
192
0
VERTEX
8
OBJECT__7
10
3.635000
20
-20.641001
30
60.262001
70
192
0
VERTEX
8
OBJECT__7
10
-1.728000
20
-20.929001
30
60.012001
70
192
0
VERTEX
8
OBJECT__7
10
-2.511000
20
-20.849001
30
60.082001
70
192
0
VERTEX
8
OBJECT__7
10
-4.142000
20
-20.441999
30
60.435001
70
192
0
VERTEX
8
OBJECT__7
10
14.760000
20
14.938000
30
65.025002
70
192
0
VERTEX
8
OBJECT__7
10
15.857000
20
13.767000
30
65.934998
70
192
0
VERTEX
8
OBJECT__7
10
18.944000
20
9.063000
30
69.213997
70
192
0
VERTEX
8
OBJECT__7
10
16.049999
20
13.474000
30
66.139999
70
192
0
VERTEX
8
OBJECT__7
10
19.513000
20
7.761000
30
69.976997
70
192
0
VERTEX
8
OBJECT__7
10
20.693001
20
3.581000
30
71.792000
70
192
0
VERTEX
8
OBJECT__7
10
21.000000
20
0.000000
30
72.331001
70
192
0
VERTEX
8
OBJECT__7
10
15.811000
20
-13.821000
30
65.893997
70
192
0
VERTEX
8
OBJECT__7
10
16.042000
20
-13.469000
30
66.139999
70
192
0
VERTEX
8
OBJECT__7
10
11.934000
20
-17.076000
30
63.278000
70
192
0
VERTEX
8
OBJECT__7
10
14.156000
20
-15.511000
30
64.570000
70
192
0
VERTEX
8
OBJECT__7
10
18.959999
20
-9.028000
30
69.236000
70
192
0
VERTEX
8
OBJECT__7
10
20.622000
20
-3.967000
30
71.672997
70
192
0
VERTEX
8
OBJECT__7
10
0
20
0
30
0
70
128
71
1
72
2
73
3
0
VERTEX
8
OBJECT__7
10
0
20
0
30
0
70
128
71
2
72
4
73
3
0
VERTEX
8
OBJECT__7
10
0
20
0
30
0
70
128
71
5
72
6
73
7
0
VERTEX
8
OBJECT__7
10
0
20
0
30
0
70
128
71
7
72
8
73
5
0
VERTEX
8
OBJECT__7
10
0
20
0
30
0
70
128
71
5
72
9
73
6
0
VERTEX
8
OBJECT__7
10
0
20
0
30
0
70
128
71
8
72
10
73
5
0
VERTEX
8
OBJECT__7
10
0
20
0
30
0
70
128
71
11
72
12
73
9
0
VERTEX
8
OBJECT__7
10
0
20
0
30
0
70
128
71
9
72
5
73
11
0
VERTEX
8
OBJECT__7
10
0
20
0
30
0
70
128
71
13
72
14
73
15
0
VERTEX
8
OBJECT__7
10
0
20
0
30
0
70
128
71
13
72
16
73
14
0
VERTEX
8
OBJECT__7
10
0
20
0
30
0
70
128
71
13
72
17
73
18
0
VERTEX
8
OBJECT__7
10
0
20
0
30
0
70
128
71
18
72
16
73
13
0
VERTEX
8
OBJECT__7
10
0
20
0
30
0
70
128
71
17
72
19
73
20
0
VERTEX
8
OBJECT__7
10
0
20
0
30
0
70
128
71
17
72
5
73
21
0
VERTEX
8
OBJECT__7
10
0
20
0
30
0
70
128
71
21
72
19
73
17
0
VERTEX
8
OBJECT__7
10
0
20
0
30
0
70
128
71
20
72
22
73
17
0
VERTEX
8
OBJECT__7
10
0
20
0
30
0
70
128
71
22
72
18
73
17
0
VERTEX
8
OBJECT__7
10
0
20
0
30
0
70
128
71
23
72
24
73
25
0
VERTEX
8
OBJECT__7
10
0
20
0
30
0
70
128
71
23
72
26
73
24
0
VERTEX
8
OBJECT__7
10
0
20
0
30
0
70
128
71
23
72
27
73
28
0
VERTEX
8
OBJECT__7
10
0
20
0
30
0
70
128
71
23
72
15
73
29
0
VERTEX
8
OBJECT__7
10
0
20
0
30
0
70
128
71
29
72
27
73
23
0
VERTEX
8
OBJECT__7
10
0
20
0
30
0
70
128
71
28
72
30
73
23
0
VERTEX
8
OBJECT__7
10
0
20
0
30
0
70
128
71
30
72
26
73
23
0
VERTEX
8
OBJECT__7
10
0
20
0
30
0
70
128
71
31
72
32
73
33
0
VERTEX
8
OBJECT__7
10
0
20
0
30
0
70
128
71
31
72
34
73
35
0
VERTEX
8
OBJECT__7
10
0
20
0
30
0
70
128
71
35
72
32
73
31
0
VERTEX
8
OBJECT__7
10
0
20
0
30
0
70
128
71
36
72
37
73
34
0
VERTEX
8
OBJECT__7
10
0
20
0
30
0
70
128
71
36
72
38
73
37
0
VERTEX
8
OBJECT__7
10
0
20
0
30
0
70
128
71
36
72
25
73
38
0
VERTEX
8
OBJECT__7
10
0
20
0
30
0
70
128
71
34
72
31
73
36
0
VERTEX
8
OBJECT__7
10
0
20
0
30
0
70
128
71
1
72
39
73
40
0
VERTEX
8
OBJECT__7
10
0
20
0
30
0
70
128
71
1
72
41
73
39
0
VERTEX
8
OBJECT__7
10
0
20
0
30
0
70
128
71
1
72
42
73
41
0
VERTEX
8
OBJECT__7
10
0
20
0
30
0
70
128
71
1
72
43
73
42
0
VERTEX
8
OBJECT__7
10
0
20
0
30
0
70
128
71
1
72
44
73
43
0
VERTEX
8
OBJECT__7
10
0
20
0
30
0
70
128
71
1
72
45
73
46
0
VERTEX
8
OBJECT__7
10
0
20
0
30
0
70
128
71
46
72
44
73
1
0
VERTEX
8
OBJECT__7
10
0
20
0
30
0
70
128
71
1
72
47
73
48
0
VERTEX
8
OBJECT__7
10
0
20
0
30
0
70
128
71
48
72
45
73
1
0
VERTEX
8
OBJECT__7
10
0
20
0
30
0
70
128
71
47
72
49
73
50
0
VERTEX
8
OBJECT__7
10
0
20
0
30
0
70
128
71
47
72
31
73
51
0
VERTEX
8
OBJECT__7
10
0
20
0
30
0
70
128
71
51
72
52
73
47
0
VERTEX
8
OBJECT__7
10
0
20
0
30
0
70
128
71
52
72
49
73
47
0
VERTEX
8
OBJECT__7
10
0
20
0
30
0
70
128
71
50
72
53
73
47
0
VERTEX
8
OBJECT__7
10
0
20
0
30
0
70
128
71
53
72
54
73
47
0
VERTEX
8
OBJECT__7
10
0
20
0
30
0
70
128
71
54
72
48
73
47
0
VERTEX
8
OBJECT__7
10
0
20
0
30
0
70
128
71
55
72
56
73
57
0
VERTEX
8
OBJECT__7
10
0
20
0
30
0
70
128
71
55
72
58
73
56
0
VERTEX
8
OBJECT__7
10
0
20
0
30
0
70
128
71
55
72
59
73
58
0
VERTEX
8
OBJECT__7
10
0
20
0
30
0
70
128
71
57
72
11
73
55
0
VERTEX
8
OBJECT__7
10
0
20
0
30
0
70
128
71
57
72
60
73
11
0
VERTEX
8
OBJECT__7
10
0
20
0
30
0
70
128
71
55
72
40
73
59
0
VERTEX
8
OBJECT__7
10
0
20
0
30
0
70
128
71
61
72
62
73
63
0
VERTEX
8
OBJECT__7
10
0
20
0
30
0
70
128
71
64
72
65
73
62
0
VERTEX
8
OBJECT__7
10
0
20
0
30
0
70
128
71
64
72
66
73
65
0
VERTEX
8
OBJECT__7
10
0
20
0
30
0
70
128
71
62
72
61
73
64
0
VERTEX
8
OBJECT__7
10
0
20
0
30
0
70
128
71
64
72
67
73
68
0
VERTEX
8
OBJECT__7
10
0
20
0
30
0
70
128
71
68
72
66
73
64
0
VERTEX
8
OBJECT__7
10
0
20
0
30
0
70
128
71
69
72
70
73
71
0
VERTEX
8
OBJECT__7
10
0
20
0
30
0
70
128
71
69
72
72
73
73
0
VERTEX
8
OBJECT__7
10
0
20
0
30
0
70
128
71
69
72
74
73
72
0
VERTEX
8
OBJECT__7
10
0
20
0
30
0
70
128
71
69
72
61
73
75
0
VERTEX
8
OBJECT__7
10
0
20
0
30
0
70
128
71
75
72
74
73
69
0
VERTEX
8
OBJECT__7
10
0
20
0
30
0
70
128
71
73
72
76
73
69
0
VERTEX
8
OBJECT__7
10
0
20
0
30
0
70
128
71
76
72
70
73
69
0
VERTEX
8
OBJECT__7
10
0
20
0
30
0
70
128
71
71
72
77
73
69
0
VERTEX
8
OBJECT__7
10
0
20
0
30
0
70
128
71
17
72
78
73
79
0
VERTEX
8
OBJECT__7
10
0
20
0
30
0
70
128
71
17
72
80
73
78
0
VERTEX
8
OBJECT__7
10
0
20
0
30
0
70
128
71
17
72
81
73
80
0
VERTEX
8
OBJECT__7
10
0
20
0
30
0
70
128
71
17
72
82
73
81
0
VERTEX
8
OBJECT__7
10
0
20
0
30
0
70
128
71
17
72
13
73
83
0
VERTEX
8
OBJECT__7
10
0
20
0
30
0
70
128
71
83
72
82
73
17
0
VERTEX
8
OBJECT__7
10
0
20
0
30
0
70
128
71
13
72
69
73
84
0
VERTEX
8
OBJECT__7
10
0
20
0
30
0
70
128
71
84
72
85
73
13
0
VERTEX
8
OBJECT__7
10
0
20
0
30
0
70
128
71
85
72
86
73
13
0
VERTEX
8
OBJECT__7
10
0
20
0
30
0
70
128
71
86
72
83
73
13
0
VERTEX
8
OBJECT__7
10
0
20
0
30
0
70
128
71
87
72
88
73
89
0
VERTEX
8
OBJECT__7
10
0
20
0
30
0
70
128
71
88
72
90
73
91
0
VERTEX
8
OBJECT__7
10
0
20
0
30
0
70
128
71
88
72
92
73
93
0
VERTEX
8
OBJECT__7
10
0
20
0
30
0
70
128
71
88
72
79
73
92
0
VERTEX
8
OBJECT__7
10
0
20
0
30
0
70
128
71
93
72
90
73
88
0
VERTEX
8
OBJECT__7
10
0
20
0
30
0
70
128
71
91
72
89
73
88
0
VERTEX
8
OBJECT__7
10
0
20
0
30
0
70
128
71
94
72
95
73
96
0
VERTEX
8
OBJECT__7
10
0
20
0
30
0
70
128
71
94
72
97
73
98
0
VERTEX
8
OBJECT__7
10
0
20
0
30
0
70
128
71
98
72
95
73
94
0
VERTEX
8
OBJECT__7
10
0
20
0
30
0
70
128
71
87
72
99
73
97
0
VERTEX
8
OBJECT__7
10
0
20
0
30
0
70
128
71
87
72
100
73
99
0
VERTEX
8
OBJECT__7
10
0
20
0
30
0
70
128
71
87
72
101
73
100
0
VERTEX
8
OBJECT__7
10
0
20
0
30
0
70
128
71
97
72
94
73
87
0
VERTEX
8
OBJECT__7
10
0
20
0
30
0
70
128
71
4
72
102
73
67
0
VERTEX
8
OBJECT__7
10
0
20
0
30
0
70
128
71
4
72
103
73
102
0
VERTEX
8
OBJECT__7
10
0
20
0
30
0
70
128
71
4
72
104
73
105
0
VERTEX
8
OBJECT__7
10
0
20
0
30
0
70
128
71
105
72
103
73
4
0
VERTEX
8
OBJECT__7
10
0
20
0
30
0
70
128
71
4
72
106
73
104
0
VERTEX
8
OBJECT__7
10
0
20
0
30
0
70
128
71
4
72
107
73
106
0
VERTEX
8
OBJECT__7
10
0
20
0
30
0
70
128
71
4
72
2
73
108
0
VERTEX
8
OBJECT__7
10
0
20
0
30
0
70
128
71
108
72
107
73
4
0
VERTEX
8
OBJECT__7
10
0
20
0
30
0
70
128
71
2
72
109
73
110
0
VERTEX
8
OBJECT__7
10
0
20
0
30
0
70
128
71
2
72
94
73
111
0
VERTEX
8
OBJECT__7
10
0
20
0
30
0
70
128
71
111
72
112
73
2
0
VERTEX
8
OBJECT__7
10
0
20
0
30
0
70
128
71
112
72
109
73
2
0
VERTEX
8
OBJECT__7
10
0
20
0
30
0
70
128
71
110
72
113
73
2
0
VERTEX
8
OBJECT__7
10
0
20
0
30
0
70
128
71
113
72
114
73
2
0
VERTEX
8
OBJECT__7
10
0
20
0
30
0
70
128
71
114
72
108
73
2
0
VERTEX
8
OBJECT__7
10
0
20
0
30
0
70
128
71
67
72
64
73
4
0
VERTEX
8
OBJECT__7
10
0
20
0
30
0
70
128
71
96
72
111
73
94
0
VERTEX
8
OBJECT__7
10
0
20
0
30
0
70
128
71
89
72
101
73
87
0
VERTEX
8
OBJECT__7
10
0
20
0
30
0
70
128
71
79
72
88
73
17
0
VERTEX
8
OBJECT__7
10
0
20
0
30
0
70
128
71
77
72
84
73
69
0
VERTEX
8
OBJECT__7
10
0
20
0
30
0
70
128
71
63
72
75
73
61
0
VERTEX
8
OBJECT__7
10
0
20
0
30
0
70
128
71
60
72
12
73
11
0
VERTEX
8
OBJECT__7
10
0
20
0
30
0
70
128
71
40
72
55
73
1
0
VERTEX
8
OBJECT__7
10
0
20
0
30
0
70
128
71
33
72
51
73
31
0
VERTEX
8
OBJECT__7
10
0
20
0
30
0
70
128
71
25
72
36
73
23
0
VERTEX
8
OBJECT__7
10
0
20
0
30
0
70
128
71
15
72
23
73
13
0
VERTEX
8
OBJECT__7
10
0
20
0
30
0
70
128
71
10
72
21
73
5
0
VERTEX
8
OBJECT__7
10
0
20
0
30
0
70
128
71
3
72
47
73
1
0
SEQEND
8
OBJECT__7
0
POLYLINE
8
OBJECT__8
66
1
70
64
71
57
72
57
62
253
0
VERTEX
8
OBJECT__8
10
21.000000
20
0.000000
30
4.250000
70
192
0
VERTEX
8
OBJECT__8
10
18.959999
20
-9.028000
30
69.236000
70
192
0
VERTEX
8
OBJECT__8
10
16.042000
20
-13.469000
30
66.139999
70
192
0
VERTEX
8
OBJECT__8
10
21.000000
20
0.000000
30
72.331001
70
192
0
VERTEX
8
OBJECT__8
10
20.622000
20
-3.967000
30
71.672997
70
192
0
VERTEX
8
OBJECT__8
10
16.087000
20
-13.499000
30
4.250000
70
192
0
VERTEX
8
OBJECT__8
10
8.722000
20
-19.103001
30
61.591000
70
192
0
VERTEX
8
OBJECT__8
10
3.635000
20
-20.641001
30
60.262001
70
192
0
VERTEX
8
OBJECT__8
10
14.156000
20
-15.511000
30
64.570000
70
192
0
VERTEX
8
OBJECT__8
10
11.934000
20
-17.076000
30
63.278000
70
192
0
VERTEX
8
OBJECT__8
10
15.811000
20
-13.821000
30
65.893997
70
192
0
VERTEX
8
OBJECT__8
10
9.833000
20
-18.556000
30
62.056999
70
192
0
VERTEX
8
OBJECT__8
10
-10.500000
20
-18.187000
30
4.250000
70
192
0
VERTEX
8
OBJECT__8
10
-2.511000
20
-20.849001
30
60.082001
70
192
0
VERTEX
8
OBJECT__8
10
-4.142000
20
-20.441999
30
60.435001
70
192
0
VERTEX
8
OBJECT__8
10
3.647000
20
-20.681000
30
4.250000
70
192
0
VERTEX
8
OBJECT__8
10
-1.728000
20
-20.929001
30
60.012001
70
192
0
VERTEX
8
OBJECT__8
10
3.324000
20
-20.735001
30
60.181000
70
192
0
VERTEX
8
OBJECT__8
10
-7.588000
20
-19.580999
30
61.181000
70
192
0
VERTEX
8
OBJECT__8
10
-19.733999
20
-7.182000
30
4.250000
70
192
0
VERTEX
8
OBJECT__8
10
-16.337999
20
-13.193000
30
66.370003
70
192
0
VERTEX
8
OBJECT__8
10
-17.509001
20
-11.594000
30
67.536003
70
192
0
VERTEX
8
OBJECT__8
10
-18.334000
20
-9.932000
30
68.564003
70
192
0
VERTEX
8
OBJECT__8
10
-12.252000
20
-17.055000
30
63.313000
70
192
0
VERTEX
8
OBJECT__8
10
-10.423000
20
-18.046000
30
62.477001
70
192
0
VERTEX
8
OBJECT__8
10
-19.733999
20
7.182000
30
4.250000
70
192
0
VERTEX
8
OBJECT__8
10
-20.917000
20
-1.866000
30
72.181999
70
192
0
VERTEX
8
OBJECT__8
10
-20.891001
20
2.135000
30
72.136002
70
192
0
VERTEX
8
OBJECT__8
10
-20.238001
20
-5.605000
30
71.050003
70
192
0
VERTEX
8
OBJECT__8
10
-20.018999
20
6.342000
30
70.712997
70
192
0
VERTEX
8
OBJECT__8
10
-19.823000
20
-6.930000
30
70.420998
70
192
0
VERTEX
8
OBJECT__8
10
-19.705000
20
-7.169000
30
70.274002
70
192
0
VERTEX
8
OBJECT__8
10
-11.423000
20
17.621000
30
62.842999
70
192
0
VERTEX
8
OBJECT__8
10
-10.454000
20
18.091999
30
62.443001
70
192
0
VERTEX
8
OBJECT__8
10
-18.340000
20
9.940000
30
68.558998
70
192
0
VERTEX
8
OBJECT__8
10
-17.716999
20
11.275000
30
67.760002
70
192
0
VERTEX
8
OBJECT__8
10
-19.646000
20
7.142000
30
70.234001
70
192
0
VERTEX
8
OBJECT__8
10
-16.874001
20
12.501000
30
66.883003
70
192
0
VERTEX
8
OBJECT__8
10
-13.065000
20
16.441000
30
63.818001
70
192
0
VERTEX
8
OBJECT__8
10
3.647000
20
20.681000
30
4.250000
70
192
0
VERTEX
8
OBJECT__8
10
-10.500000
20
18.187000
30
4.250000
70
192
0
VERTEX
8
OBJECT__8
10
-1.076000
20
20.972000
30
59.973999
70
192
0
VERTEX
8
OBJECT__8
10
-6.034000
20
20.114000
30
60.721001
70
192
0
VERTEX
8
OBJECT__8
10
-4.149000
20
20.441000
30
60.437000
70
192
0
VERTEX
8
OBJECT__8
10
-6.782000
20
19.875000
30
60.928001
70
192
0
VERTEX
8
OBJECT__8
10
0.202000
20
20.999001
30
59.951000
70
192
0
VERTEX
8
OBJECT__8
10
16.087000
20
13.499000
30
4.250000
70
192
0
VERTEX
8
OBJECT__8
10
14.760000
20
14.938000
30
65.025002
70
192
0
VERTEX
8
OBJECT__8
10
15.857000
20
13.767000
30
65.934998
70
192
0
VERTEX
8
OBJECT__8
10
10.393000
20
18.247999
30
62.317001
70
192
0
VERTEX
8
OBJECT__8
10
11.934000
20
17.080000
30
63.272999
70
192
0
VERTEX
8
OBJECT__8
10
5.605000
20
20.238001
30
60.613998
70
192
0
VERTEX
8
OBJECT__8
10
3.624000
20
20.517000
30
60.370998
70
192
0
VERTEX
8
OBJECT__8
10
19.513000
20
7.761000
30
69.976997
70
192
0
VERTEX
8
OBJECT__8
10
20.693001
20
3.581000
30
71.792000
70
192
0
VERTEX
8
OBJECT__8
10
18.944000
20
9.063000
30
69.213997
70
192
0
VERTEX
8
OBJECT__8
10
16.049999
20
13.474000
30
66.139999
70
192
0
VERTEX
8
OBJECT__8
10
0
20
0
30
0
70
128
71
1
72
2
73
3
0
VERTEX
8
OBJECT__8
10
0
20
0
30
0
70
128
71
1
72
4
73
5
0
VERTEX
8
OBJECT__8
10
0
20
0
30
0
70
128
71
5
72
2
73
1
0
VERTEX
8
OBJECT__8
10
0
20
0
30
0
70
128
71
6
72
7
73
8
0
VERTEX
8
OBJECT__8
10
0
20
0
30
0
70
128
71
6
72
9
73
10
0
VERTEX
8
OBJECT__8
10
0
20
0
30
0
70
128
71
6
72
3
73
11
0
VERTEX
8
OBJECT__8
10
0
20
0
30
0
70
128
71
11
72
9
73
6
0
VERTEX
8
OBJECT__8
10
0
20
0
30
0
70
128
71
10
72
12
73
6
0
VERTEX
8
OBJECT__8
10
0
20
0
30
0
70
128
71
12
72
7
73
6
0
VERTEX
8
OBJECT__8
10
0
20
0
30
0
70
128
71
13
72
14
73
15
0
VERTEX
8
OBJECT__8
10
0
20
0
30
0
70
128
71
13
72
16
73
17
0
VERTEX
8
OBJECT__8
10
0
20
0
30
0
70
128
71
17
72
14
73
13
0
VERTEX
8
OBJECT__8
10
0
20
0
30
0
70
128
71
16
72
18
73
17
0
VERTEX
8
OBJECT__8
10
0
20
0
30
0
70
128
71
15
72
19
73
13
0
VERTEX
8
OBJECT__8
10
0
20
0
30
0
70
128
71
16
72
8
73
18
0
VERTEX
8
OBJECT__8
10
0
20
0
30
0
70
128
71
20
72
21
73
22
0
VERTEX
8
OBJECT__8
10
0
20
0
30
0
70
128
71
22
72
23
73
20
0
VERTEX
8
OBJECT__8
10
0
20
0
30
0
70
128
71
20
72
24
73
21
0
VERTEX
8
OBJECT__8
10
0
20
0
30
0
70
128
71
20
72
13
73
25
0
VERTEX
8
OBJECT__8
10
0
20
0
30
0
70
128
71
25
72
24
73
20
0
VERTEX
8
OBJECT__8
10
0
20
0
30
0
70
128
71
26
72
27
73
28
0
VERTEX
8
OBJECT__8
10
0
20
0
30
0
70
128
71
26
72
29
73
27
0
VERTEX
8
OBJECT__8
10
0
20
0
30
0
70
128
71
28
72
30
73
26
0
VERTEX
8
OBJECT__8
10
0
20
0
30
0
70
128
71
26
72
31
73
29
0
VERTEX
8
OBJECT__8
10
0
20
0
30
0
70
128
71
26
72
20
73
32
0
VERTEX
8
OBJECT__8
10
0
20
0
30
0
70
128
71
32
72
31
73
26
0
VERTEX
8
OBJECT__8
10
0
20
0
30
0
70
128
71
26
72
33
73
34
0
VERTEX
8
OBJECT__8
10
0
20
0
30
0
70
128
71
26
72
35
73
36
0
VERTEX
8
OBJECT__8
10
0
20
0
30
0
70
128
71
26
72
37
73
35
0
VERTEX
8
OBJECT__8
10
0
20
0
30
0
70
128
71
36
72
38
73
26
0
VERTEX
8
OBJECT__8
10
0
20
0
30
0
70
128
71
38
72
39
73
26
0
VERTEX
8
OBJECT__8
10
0
20
0
30
0
70
128
71
39
72
33
73
26
0
VERTEX
8
OBJECT__8
10
0
20
0
30
0
70
128
71
40
72
41
73
42
0
VERTEX
8
OBJECT__8
10
0
20
0
30
0
70
128
71
41
72
43
73
44
0
VERTEX
8
OBJECT__8
10
0
20
0
30
0
70
128
71
41
72
34
73
45
0
VERTEX
8
OBJECT__8
10
0
20
0
30
0
70
128
71
45
72
43
73
41
0
VERTEX
8
OBJECT__8
10
0
20
0
30
0
70
128
71
44
72
42
73
41
0
VERTEX
8
OBJECT__8
10
0
20
0
30
0
70
128
71
42
72
46
73
40
0
VERTEX
8
OBJECT__8
10
0
20
0
30
0
70
128
71
47
72
48
73
49
0
VERTEX
8
OBJECT__8
10
0
20
0
30
0
70
128
71
47
72
50
73
51
0
VERTEX
8
OBJECT__8
10
0
20
0
30
0
70
128
71
51
72
48
73
47
0
VERTEX
8
OBJECT__8
10
0
20
0
30
0
70
128
71
47
72
52
73
50
0
VERTEX
8
OBJECT__8
10
0
20
0
30
0
70
128
71
47
72
40
73
53
0
VERTEX
8
OBJECT__8
10
0
20
0
30
0
70
128
71
53
72
52
73
47
0
VERTEX
8
OBJECT__8
10
0
20
0
30
0
70
128
71
1
72
54
73
55
0
VERTEX
8
OBJECT__8
10
0
20
0
30
0
70
128
71
1
72
56
73
54
0
VERTEX
8
OBJECT__8
10
0
20
0
30
0
70
128
71
1
72
47
73
57
0
VERTEX
8
OBJECT__8
10
0
20
0
30
0
70
128
71
57
72
56
73
1
0
VERTEX
8
OBJECT__8
10
0
20
0
30
0
70
128
71
55
72
4
73
1
0
VERTEX
8
OBJECT__8
10
0
20
0
30
0
70
128
71
49
72
57
73
47
0
VERTEX
8
OBJECT__8
10
0
20
0
30
0
70
128
71
46
72
53
73
40
0
VERTEX
8
OBJECT__8
10
0
20
0
30
0
70
128
71
34
72
41
73
26
0
VERTEX
8
OBJECT__8
10
0
20
0
30
0
70
128
71
30
72
37
73
26
0
VERTEX
8
OBJECT__8
10
0
20
0
30
0
70
128
71
23
72
32
73
20
0
VERTEX
8
OBJECT__8
10
0
20
0
30
0
70
128
71
19
72
25
73
13
0
VERTEX
8
OBJECT__8
10
0
20
0
30
0
70
128
71
8
72
16
73
6
0
VERTEX
8
OBJECT__8
10
0
20
0
30
0
70
128
71
3
72
6
73
1
0
SEQEND
8
OBJECT__8
0
POLYLINE
8
OBJECT__9
66
1
70
64
71
56
72
56
62
253
0
VERTEX
8
OBJECT__9
10
13.499000
20
-16.087000
30
146.449997
70
192
0
VERTEX
8
OBJECT__9
10
10.838000
20
-17.987000
30
105.363998
70
192
0
VERTEX
8
OBJECT__9
10
11.943000
20
-17.104000
30
104.646004
70
192
0
VERTEX
8
OBJECT__9
10
5.019000
20
-20.391001
30
107.418999
70
192
0
VERTEX
8
OBJECT__9
10
5.768000
20
-20.191999
30
107.247002
70
192
0
VERTEX
8
OBJECT__9
10
0.000000
20
-21.000000
30
146.449997
70
192
0
VERTEX
8
OBJECT__9
10
0.000000
20
-21.000000
30
107.949997
70
192
0
VERTEX
8
OBJECT__9
10
20.681000
20
-3.647000
30
146.449997
70
192
0
VERTEX
8
OBJECT__9
10
19.162001
20
-8.593000
30
98.401001
70
192
0
VERTEX
8
OBJECT__9
10
19.801001
20
-6.994000
30
97.511002
70
192
0
VERTEX
8
OBJECT__9
10
16.266001
20
-13.283000
30
101.597000
70
192
0
VERTEX
8
OBJECT__9
10
15.146000
20
-14.547000
30
102.567001
70
192
0
VERTEX
8
OBJECT__9
10
13.389000
20
-15.950000
30
103.708000
70
192
0
VERTEX
8
OBJECT__9
10
18.992001
20
8.961000
30
98.623001
70
192
0
VERTEX
8
OBJECT__9
10
18.047001
20
10.410000
30
99.629997
70
192
0
VERTEX
8
OBJECT__9
10
20.764999
20
-3.131000
30
95.983002
70
192
0
VERTEX
8
OBJECT__9
10
20.996000
20
0.434000
30
95.577003
70
192
0
VERTEX
8
OBJECT__9
10
20.639000
20
-3.636000
30
96.182999
70
192
0
VERTEX
8
OBJECT__9
10
20.624001
20
3.954000
30
96.223000
70
192
0
VERTEX
8
OBJECT__9
10
18.187000
20
10.500000
30
146.449997
70
192
0
VERTEX
8
OBJECT__9
10
8.782000
20
19.076000
30
106.285004
70
192
0
VERTEX
8
OBJECT__9
10
7.135000
20
19.579000
30
106.720001
70
192
0
VERTEX
8
OBJECT__9
10
14.218000
20
15.455000
30
103.285004
70
192
0
VERTEX
8
OBJECT__9
10
11.934000
20
17.076000
30
104.622002
70
192
0
VERTEX
8
OBJECT__9
10
15.856000
20
13.769000
30
101.966003
70
192
0
VERTEX
8
OBJECT__9
10
9.904000
20
18.518000
30
105.810997
70
192
0
VERTEX
8
OBJECT__9
10
-7.182000
20
19.733999
30
146.449997
70
192
0
VERTEX
8
OBJECT__9
10
-2.461000
20
20.855000
30
107.822998
70
192
0
VERTEX
8
OBJECT__9
10
-4.141000
20
20.440001
30
107.462997
70
192
0
VERTEX
8
OBJECT__9
10
7.182000
20
19.733999
30
146.449997
70
192
0
VERTEX
8
OBJECT__9
10
3.383000
20
20.726000
30
107.709999
70
192
0
VERTEX
8
OBJECT__9
10
-1.667000
20
20.934000
30
107.891998
70
192
0
VERTEX
8
OBJECT__9
10
-18.187000
20
10.500000
30
146.449997
70
192
0
VERTEX
8
OBJECT__9
10
-16.304001
20
13.236000
30
101.561996
70
192
0
VERTEX
8
OBJECT__9
10
-17.474001
20
11.647000
30
100.401001
70
192
0
VERTEX
8
OBJECT__9
10
-12.211000
20
17.084999
30
104.611000
70
192
0
VERTEX
8
OBJECT__9
10
-7.544000
20
19.598000
30
106.734001
70
192
0
VERTEX
8
OBJECT__9
10
-7.172000
20
19.690001
30
106.813004
70
192
0
VERTEX
8
OBJECT__9
10
-20.681000
20
-3.647000
30
146.449997
70
192
0
VERTEX
8
OBJECT__9
10
-20.534000
20
4.399000
30
96.374001
70
192
0
VERTEX
8
OBJECT__9
10
-20.988001
20
0.714000
30
95.591003
70
192
0
VERTEX
8
OBJECT__9
10
-20.774000
20
-3.076000
30
95.969002
70
192
0
VERTEX
8
OBJECT__9
10
-19.721001
20
7.218000
30
97.627998
70
192
0
VERTEX
8
OBJECT__9
10
-18.336000
20
9.947000
30
99.336998
70
192
0
VERTEX
8
OBJECT__9
10
-18.083000
20
10.447000
30
99.650002
70
192
0
VERTEX
8
OBJECT__9
10
-15.506000
20
-14.162000
30
102.268997
70
192
0
VERTEX
8
OBJECT__9
10
-13.391000
20
-15.960000
30
103.717003
70
192
0
VERTEX
8
OBJECT__9
10
-18.313999
20
-9.882000
30
99.316002
70
192
0
VERTEX
8
OBJECT__9
10
-16.797001
20
-12.603000
30
101.092003
70
192
0
VERTEX
8
OBJECT__9
10
-20.625000
20
-3.632000
30
96.198997
70
192
0
VERTEX
8
OBJECT__9
10
-19.555000
20
-7.655000
30
97.863998
70
192
0
VERTEX
8
OBJECT__9
10
-13.499000
20
-16.087000
30
146.449997
70
192
0
VERTEX
8
OBJECT__9
10
-3.523000
20
-20.702000
30
107.690002
70
192
0
VERTEX
8
OBJECT__9
10
-8.884000
20
-19.028000
30
106.245003
70
192
0
VERTEX
8
OBJECT__9
10
-4.150000
20
-20.506001
30
107.521004
70
192
0
VERTEX
8
OBJECT__9
10
-11.480000
20
-17.584000
30
105.026001
70
192
0
VERTEX
8
OBJECT__9
10
0
20
0
30
0
70
128
71
1
72
2
73
3
0
VERTEX
8
OBJECT__9
10
0
20
0
30
0
70
128
71
1
72
4
73
5
0
VERTEX
8
OBJECT__9
10
0
20
0
30
0
70
128
71
6
72
7
73
4
0
VERTEX
8
OBJECT__9
10
0
20
0
30
0
70
128
71
4
72
1
73
6
0
VERTEX
8
OBJECT__9
10
0
20
0
30
0
70
128
71
5
72
2
73
1
0
VERTEX
8
OBJECT__9
10
0
20
0
30
0
70
128
71
8
72
9
73
10
0
VERTEX
8
OBJECT__9
10
0
20
0
30
0
70
128
71
8
72
11
73
9
0
VERTEX
8
OBJECT__9
10
0
20
0
30
0
70
128
71
8
72
12
73
11
0
VERTEX
8
OBJECT__9
10
0
20
0
30
0
70
128
71
8
72
1
73
13
0
VERTEX
8
OBJECT__9
10
0
20
0
30
0
70
128
71
13
72
12
73
8
0
VERTEX
8
OBJECT__9
10
0
20
0
30
0
70
128
71
8
72
14
73
15
0
VERTEX
8
OBJECT__9
10
0
20
0
30
0
70
128
71
8
72
16
73
17
0
VERTEX
8
OBJECT__9
10
0
20
0
30
0
70
128
71
8
72
18
73
16
0
VERTEX
8
OBJECT__9
10
0
20
0
30
0
70
128
71
17
72
19
73
8
0
VERTEX
8
OBJECT__9
10
0
20
0
30
0
70
128
71
19
72
14
73
8
0
VERTEX
8
OBJECT__9
10
0
20
0
30
0
70
128
71
20
72
21
73
22
0
VERTEX
8
OBJECT__9
10
0
20
0
30
0
70
128
71
20
72
23
73
24
0
VERTEX
8
OBJECT__9
10
0
20
0
30
0
70
128
71
20
72
15
73
25
0
VERTEX
8
OBJECT__9
10
0
20
0
30
0
70
128
71
25
72
23
73
20
0
VERTEX
8
OBJECT__9
10
0
20
0
30
0
70
128
71
24
72
26
73
20
0
VERTEX
8
OBJECT__9
10
0
20
0
30
0
70
128
71
26
72
21
73
20
0
VERTEX
8
OBJECT__9
10
0
20
0
30
0
70
128
71
27
72
28
73
29
0
VERTEX
8
OBJECT__9
10
0
20
0
30
0
70
128
71
30
72
31
73
32
0
VERTEX
8
OBJECT__9
10
0
20
0
30
0
70
128
71
32
72
27
73
30
0
VERTEX
8
OBJECT__9
10
0
20
0
30
0
70
128
71
32
72
28
73
27
0
VERTEX
8
OBJECT__9
10
0
20
0
30
0
70
128
71
30
72
22
73
31
0
VERTEX
8
OBJECT__9
10
0
20
0
30
0
70
128
71
33
72
34
73
35
0
VERTEX
8
OBJECT__9
10
0
20
0
30
0
70
128
71
33
72
36
73
34
0
VERTEX
8
OBJECT__9
10
0
20
0
30
0
70
128
71
33
72
37
73
36
0
VERTEX
8
OBJECT__9
10
0
20
0
30
0
70
128
71
33
72
27
73
38
0
VERTEX
8
OBJECT__9
10
0
20
0
30
0
70
128
71
38
72
37
73
33
0
VERTEX
8
OBJECT__9
10
0
20
0
30
0
70
128
71
39
72
40
73
41
0
VERTEX
8
OBJECT__9
10
0
20
0
30
0
70
128
71
41
72
42
73
39
0
VERTEX
8
OBJECT__9
10
0
20
0
30
0
70
128
71
39
72
43
73
40
0
VERTEX
8
OBJECT__9
10
0
20
0
30
0
70
128
71
39
72
44
73
43
0
VERTEX
8
OBJECT__9
10
0
20
0
30
0
70
128
71
39
72
33
73
45
0
VERTEX
8
OBJECT__9
10
0
20
0
30
0
70
128
71
45
72
44
73
39
0
VERTEX
8
OBJECT__9
10
0
20
0
30
0
70
128
71
39
72
46
73
47
0
VERTEX
8
OBJECT__9
10
0
20
0
30
0
70
128
71
39
72
48
73
49
0
VERTEX
8
OBJECT__9
10
0
20
0
30
0
70
128
71
39
72
50
73
51
0
VERTEX
8
OBJECT__9
10
0
20
0
30
0
70
128
71
51
72
48
73
39
0
VERTEX
8
OBJECT__9
10
0
20
0
30
0
70
128
71
49
72
46
73
39
0
VERTEX
8
OBJECT__9
10
0
20
0
30
0
70
128
71
6
72
52
73
53
0
VERTEX
8
OBJECT__9
10
0
20
0
30
0
70
128
71
52
72
54
73
55
0
VERTEX
8
OBJECT__9
10
0
20
0
30
0
70
128
71
52
72
47
73
56
0
VERTEX
8
OBJECT__9
10
0
20
0
30
0
70
128
71
56
72
54
73
52
0
VERTEX
8
OBJECT__9
10
0
20
0
30
0
70
128
71
55
72
53
73
52
0
VERTEX
8
OBJECT__9
10
0
20
0
30
0
70
128
71
53
72
7
73
6
0
VERTEX
8
OBJECT__9
10
0
20
0
30
0
70
128
71
47
72
52
73
39
0
VERTEX
8
OBJECT__9
10
0
20
0
30
0
70
128
71
42
72
50
73
39
0
VERTEX
8
OBJECT__9
10
0
20
0
30
0
70
128
71
35
72
45
73
33
0
VERTEX
8
OBJECT__9
10
0
20
0
30
0
70
128
71
29
72
38
73
27
0
VERTEX
8
OBJECT__9
10
0
20
0
30
0
70
128
71
22
72
30
73
20
0
VERTEX
8
OBJECT__9
10
0
20
0
30
0
70
128
71
15
72
20
73
8
0
VERTEX
8
OBJECT__9
10
0
20
0
30
0
70
128
71
10
72
18
73
8
0
VERTEX
8
OBJECT__9
10
0
20
0
30
0
70
128
71
3
72
13
73
1
0
SEQEND
8
OBJECT__9
0
POLYLINE
8
OBJECT__10
66
1
70
64
71
19
72
19
62
253
0
VERTEX
8
OBJECT__10
10
18.187000
20
10.500000
30
146.449997
70
192
0
VERTEX
8
OBJECT__10
10
7.182000
20
19.733999
30
146.449997
70
192
0
VERTEX
8
OBJECT__10
10
11.227000
20
15.452000
30
146.449997
70
192
0
VERTEX
8
OBJECT__10
10
0.000000
20
19.100000
30
146.449997
70
192
0
VERTEX
8
OBJECT__10
10
-7.182000
20
19.733999
30
146.449997
70
192
0
VERTEX
8
OBJECT__10
10
-11.227000
20
15.452000
30
146.449997
70
192
0
VERTEX
8
OBJECT__10
10
-18.187000
20
10.500000
30
146.449997
70
192
0
VERTEX
8
OBJECT__10
10
-18.165001
20
5.902000
30
146.449997
70
192
0
VERTEX
8
OBJECT__10
10
0.000000
20
-21.000000
30
146.449997
70
192
0
VERTEX
8
OBJECT__10
10
0.000000
20
-19.100000
30
146.449997
70
192
0
VERTEX
8
OBJECT__10
10
-11.227000
20
-15.452000
30
146.449997
70
192
0
VERTEX
8
OBJECT__10
10
13.499000
20
-16.087000
30
146.449997
70
192
0
VERTEX
8
OBJECT__10
10
11.227000
20
-15.452000
30
146.449997
70
192
0
VERTEX
8
OBJECT__10
10
-20.681000
20
-3.647000
30
146.449997
70
192
0
VERTEX
8
OBJECT__10
10
-18.165001
20
-5.902000
30
146.449997
70
192
0
VERTEX
8
OBJECT__10
10
20.681000
20
-3.647000
30
146.449997
70
192
0
VERTEX
8
OBJECT__10
10
18.165001
20
-5.902000
30
146.449997
70
192
0
VERTEX
8
OBJECT__10
10
-13.499000
20
-16.087000
30
146.449997
70
192
0
VERTEX
8
OBJECT__10
10
18.165001
20
5.902000
30
146.449997
70
192
0
VERTEX
8
OBJECT__10
10
0
20
0
30
0
70
128
71
1
72
2
73
3
0
VERTEX
8
OBJECT__10
10
0
20
0
30
0
70
128
71
2
72
4
73
3
0
VERTEX
8
OBJECT__10
10
0
20
0
30
0
70
128
71
5
72
6
73
4
0
VERTEX
8
OBJECT__10
10
0
20
0
30
0
70
128
71
4
72
2
73
5
0
VERTEX
8
OBJECT__10
10
0
20
0
30
0
70
128
71
7
72
8
73
6
0
VERTEX
8
OBJECT__10
10
0
20
0
30
0
70
128
71
9
72
10
73
11
0
VERTEX
8
OBJECT__10
10
0
20
0
30
0
70
128
71
9
72
12
73
13
0
VERTEX
8
OBJECT__10
10
0
20
0
30
0
70
128
71
6
72
5
73
7
0
VERTEX
8
OBJECT__10
10
0
20
0
30
0
70
128
71
14
72
15
73
8
0
VERTEX
8
OBJECT__10
10
0
20
0
30
0
70
128
71
13
72
10
73
9
0
VERTEX
8
OBJECT__10
10
0
20
0
30
0
70
128
71
12
72
16
73
17
0
VERTEX
8
OBJECT__10
10
0
20
0
30
0
70
128
71
8
72
7
73
14
0
VERTEX
8
OBJECT__10
10
0
20
0
30
0
70
128
71
18
72
11
73
15
0
VERTEX
8
OBJECT__10
10
0
20
0
30
0
70
128
71
17
72
13
73
12
0
VERTEX
8
OBJECT__10
10
0
20
0
30
0
70
128
71
16
72
1
73
19
0
VERTEX
8
OBJECT__10
10
0
20
0
30
0
70
128
71
15
72
14
73
18
0
VERTEX
8
OBJECT__10
10
0
20
0
30
0
70
128
71
19
72
17
73
16
0
VERTEX
8
OBJECT__10
10
0
20
0
30
0
70
128
71
11
72
18
73
9
0
VERTEX
8
OBJECT__10
10
0
20
0
30
0
70
128
71
3
72
19
73
1
0
SEQEND
8
OBJECT__10
0
POLYLINE
8
OBJECT__11
66
1
70
64
71
24
72
24
62
253
0
VERTEX
8
OBJECT__11
10
-18.385000
20
-36.000000
30
99.376999
70
192
0
VERTEX
8
OBJECT__11
10
-18.288000
20
-36.000000
30
84.719002
70
192
0
VERTEX
8
OBJECT__11
10
-16.934000
20
-36.000000
30
85.447998
70
192
0
VERTEX
8
OBJECT__11
10
-4.168000
20
-36.000000
30
107.584999
70
192
0
VERTEX
8
OBJECT__11
10
-11.479000
20
-36.000000
30
96.488998
70
192
0
VERTEX
8
OBJECT__11
10
-24.000000
20
-36.000000
30
83.949997
70
192
0
VERTEX
8
OBJECT__11
10
11.479000
20
-36.000000
30
96.488998
70
192
0
VERTEX
8
OBJECT__11
10
16.934000
20
-36.000000
30
85.447998
70
192
0
VERTEX
8
OBJECT__11
10
17.000000
20
-36.000000
30
85.449997
70
192
0
VERTEX
8
OBJECT__11
10
12.000000
20
-36.000000
30
104.735001
70
192
0
VERTEX
8
OBJECT__11
10
0.000000
20
-36.000000
30
100.949997
70
192
0
VERTEX
8
OBJECT__11
10
-18.385000
20
-36.000000
30
68.523003
70
192
0
VERTEX
8
OBJECT__11
10
-11.479000
20
-36.000000
30
71.410004
70
192
0
VERTEX
8
OBJECT__11
10
-16.934000
20
-36.000000
30
82.450996
70
192
0
VERTEX
8
OBJECT__11
10
-4.168000
20
-36.000000
30
60.314999
70
192
0
VERTEX
8
OBJECT__11
10
0.000000
20
-36.000000
30
66.949997
70
192
0
VERTEX
8
OBJECT__11
10
12.000000
20
-36.000000
30
63.165001
70
192
0
VERTEX
8
OBJECT__11
10
11.479000
20
-36.000000
30
71.410004
70
192
0
VERTEX
8
OBJECT__11
10
22.552999
20
-36.000000
30
92.157997
70
192
0
VERTEX
8
OBJECT__11
10
-18.288000
20
-36.000000
30
83.181000
70
192
0
VERTEX
8
OBJECT__11
10
22.552999
20
-36.000000
30
75.740997
70
192
0
VERTEX
8
OBJECT__11
10
17.000000
20
-36.000000
30
82.449997
70
192
0
VERTEX
8
OBJECT__11
10
16.934000
20
-36.000000
30
82.450996
70
192
0
VERTEX
8
OBJECT__11
10
18.500000
20
-36.000000
30
83.949997
70
192
0
VERTEX
8
OBJECT__11
10
0
20
0
30
0
70
128
71
1
72
2
73
3
0
VERTEX
8
OBJECT__11
10
0
20
0
30
0
70
128
71
4
72
1
73
5
0
VERTEX
8
OBJECT__11
10
0
20
0
30
0
70
128
71
1
72
6
73
2
0
VERTEX
8
OBJECT__11
10
0
20
0
30
0
70
128
71
7
72
8
73
9
0
VERTEX
8
OBJECT__11
10
0
20
0
30
0
70
128
71
10
72
4
73
11
0
VERTEX
8
OBJECT__11
10
0
20
0
30
0
70
128
71
3
72
5
73
1
0
VERTEX
8
OBJECT__11
10
0
20
0
30
0
70
128
71
12
72
13
73
14
0
VERTEX
8
OBJECT__11
10
0
20
0
30
0
70
128
71
15
72
16
73
13
0
VERTEX
8
OBJECT__11
10
0
20
0
30
0
70
128
71
17
72
18
73
16
0
VERTEX
8
OBJECT__11
10
0
20
0
30
0
70
128
71
19
72
10
73
7
0
VERTEX
8
OBJECT__11
10
0
20
0
30
0
70
128
71
5
72
11
73
4
0
VERTEX
8
OBJECT__11
10
0
20
0
30
0
70
128
71
14
72
20
73
12
0
VERTEX
8
OBJECT__11
10
0
20
0
30
0
70
128
71
16
72
15
73
17
0
VERTEX
8
OBJECT__11
10
0
20
0
30
0
70
128
71
18
72
21
73
22
0
VERTEX
8
OBJECT__11
10
0
20
0
30
0
70
128
71
11
72
7
73
10
0
VERTEX
8
OBJECT__11
10
0
20
0
30
0
70
128
71
13
72
12
73
15
0
VERTEX
8
OBJECT__11
10
0
20
0
30
0
70
128
71
22
72
23
73
18
0
VERTEX
8
OBJECT__11
10
0
20
0
30
0
70
128
71
9
72
19
73
7
0
VERTEX
8
OBJECT__11
10
0
20
0
30
0
70
128
71
18
72
17
73
21
0
VERTEX
8
OBJECT__11
10
0
20
0
30
0
70
128
71
6
72
20
73
2
0
VERTEX
8
OBJECT__11
10
0
20
0
30
0
70
128
71
21
72
24
73
22
0
VERTEX
8
OBJECT__11
10
0
20
0
30
0
70
128
71
20
72
6
73
12
0
VERTEX
8
OBJECT__11
10
0
20
0
30
0
70
128
71
9
72
24
73
19
0
VERTEX
8
OBJECT__11
10
0
20
0
30
0
70
128
71
24
72
21
73
19
0
SEQEND
8
OBJECT__11
0
POLYLINE
8
OBJECT__12
66
1
70
64
71
12
72
12
62
253
0
VERTEX
8
OBJECT__12
10
17.000000
20
-6.000000
30
85.449997
70
192
0
VERTEX
8
OBJECT__12
10
18.500000
20
-6.000000
30
83.949997
70
192
0
VERTEX
8
OBJECT__12
10
18.500000
20
-36.000000
30
83.949997
70
192
0
VERTEX
8
OBJECT__12
10
17.000000
20
-6.000000
30
82.449997
70
192
0
VERTEX
8
OBJECT__12
10
15.500000
20
-6.000000
30
83.949997
70
192
0
VERTEX
8
OBJECT__12
10
16.934000
20
-11.000000
30
85.447998
70
192
0
VERTEX
8
OBJECT__12
10
17.000000
20
-36.000000
30
85.449997
70
192
0
VERTEX
8
OBJECT__12
10
16.934000
20
-36.000000
30
85.447998
70
192
0
VERTEX
8
OBJECT__12
10
17.000000
20
-36.000000
30
82.449997
70
192
0
VERTEX
8
OBJECT__12
10
16.934000
20
-11.000000
30
82.450996
70
192
0
VERTEX
8
OBJECT__12
10
15.500000
20
-11.000000
30
83.949997
70
192
0
VERTEX
8
OBJECT__12
10
16.934000
20
-36.000000
30
82.450996
70
192
0
VERTEX
8
OBJECT__12
10
0
20
0
30
0
70
128
71
1
72
2
73
3
0
VERTEX
8
OBJECT__12
10
0
20
0
30
0
70
128
71
3
72
2
73
4
0
VERTEX
8
OBJECT__12
10
0
20
0
30
0
70
128
71
5
72
1
73
6
0
VERTEX
8
OBJECT__12
10
0
20
0
30
0
70
128
71
7
72
8
73
6
0
VERTEX
8
OBJECT__12
10
0
20
0
30
0
70
128
71
6
72
1
73
7
0
VERTEX
8
OBJECT__12
10
0
20
0
30
0
70
128
71
9
72
4
73
10
0
VERTEX
8
OBJECT__12
10
0
20
0
30
0
70
128
71
5
72
11
73
10
0
VERTEX
8
OBJECT__12
10
0
20
0
30
0
70
128
71
10
72
4
73
5
0
VERTEX
8
OBJECT__12
10
0
20
0
30
0
70
128
71
10
72
12
73
9
0
VERTEX
8
OBJECT__12
10
0
20
0
30
0
70
128
71
6
72
11
73
5
0
VERTEX
8
OBJECT__12
10
0
20
0
30
0
70
128
71
4
72
9
73
3
0
VERTEX
8
OBJECT__12
10
0
20
0
30
0
70
128
71
3
72
7
73
1
0
SEQEND
8
OBJECT__12
0
POLYLINE
8
OBJECT__13
66
1
70
64
71
17
72
15
62
253
0
VERTEX
8
OBJECT__13
10
16.934000
20
-36.000000
30
82.450996
70
192
0
VERTEX
8
OBJECT__13
10
11.619000
20
-11.000000
30
71.540001
70
192
0
VERTEX
8
OBJECT__13
10
11.464000
20
-11.120000
30
71.431000
70
192
0
VERTEX
8
OBJECT__13
10
16.934000
20
-11.000000
30
82.450996
70
192
0
VERTEX
8
OBJECT__13
10
0.000000
20
-36.000000
30
66.949997
70
192
0
VERTEX
8
OBJECT__13
10
11.479000
20
-36.000000
30
71.410004
70
192
0
VERTEX
8
OBJECT__13
10
3.678000
20
-15.572000
30
67.352997
70
192
0
VERTEX
8
OBJECT__13
10
7.692000
20
-14.030000
30
68.789001
70
192
0
VERTEX
8
OBJECT__13
10
-11.479000
20
-36.000000
30
71.410004
70
192
0
VERTEX
8
OBJECT__13
10
-4.726000
20
-15.286000
30
67.620003
70
192
0
VERTEX
8
OBJECT__13
10
-8.219000
20
-13.727000
30
69.069000
70
192
0
VERTEX
8
OBJECT__13
10
-0.848000
20
-15.978000
30
66.971001
70
192
0
VERTEX
8
OBJECT__13
10
-0.008000
20
-15.902000
30
67.042000
70
192
0
VERTEX
8
OBJECT__13
10
-16.934000
20
-36.000000
30
82.450996
70
192
0
VERTEX
8
OBJECT__13
10
-11.465000
20
-11.123000
30
71.429001
70
192
0
VERTEX
8
OBJECT__13
10
-11.619000
20
-11.000000
30
71.540001
70
192
0
VERTEX
8
OBJECT__13
10
-16.934000
20
-11.000000
30
82.450996
70
192
0
VERTEX
8
OBJECT__13
10
0
20
0
30
0
70
128
71
1
72
2
73
3
0
VERTEX
8
OBJECT__13
10
0
20
0
30
0
70
128
71
1
72
4
73
2
0
VERTEX
8
OBJECT__13
10
0
20
0
30
0
70
128
71
5
72
6
73
7
0
VERTEX
8
OBJECT__13
10
0
20
0
30
0
70
128
71
6
72
3
73
8
0
VERTEX
8
OBJECT__13
10
0
20
0
30
0
70
128
71
8
72
7
73
6
0
VERTEX
8
OBJECT__13
10
0
20
0
30
0
70
128
71
9
72
10
73
11
0
VERTEX
8
OBJECT__13
10
0
20
0
30
0
70
128
71
9
72
5
73
12
0
VERTEX
8
OBJECT__13
10
0
20
0
30
0
70
128
71
12
72
10
73
9
0
VERTEX
8
OBJECT__13
10
0
20
0
30
0
70
128
71
5
72
13
73
12
0
VERTEX
8
OBJECT__13
10
0
20
0
30
0
70
128
71
14
72
9
73
15
0
VERTEX
8
OBJECT__13
10
0
20
0
30
0
70
128
71
15
72
16
73
14
0
VERTEX
8
OBJECT__13
10
0
20
0
30
0
70
128
71
16
72
17
73
14
0
VERTEX
8
OBJECT__13
10
0
20
0
30
0
70
128
71
11
72
15
73
9
0
VERTEX
8
OBJECT__13
10
0
20
0
30
0
70
128
71
7
72
13
73
5
0
VERTEX
8
OBJECT__13
10
0
20
0
30
0
70
128
71
3
72
6
73
1
0
SEQEND
8
OBJECT__13
0
POLYLINE
8
OBJECT__14
66
1
70
64
71
10
72
8
62
253
0
VERTEX
8
OBJECT__14
10
11.479000
20
-11.000000
30
96.488998
70
192
0
VERTEX
8
OBJECT__14
10
16.934000
20
-11.000000
30
85.447998
70
192
0
VERTEX
8
OBJECT__14
10
16.934000
20
-36.000000
30
85.447998
70
192
0
VERTEX
8
OBJECT__14
10
0.000000
20
-11.000000
30
100.949997
70
192
0
VERTEX
8
OBJECT__14
10
11.479000
20
-36.000000
30
96.488998
70
192
0
VERTEX
8
OBJECT__14
10
-11.479000
20
-11.000000
30
96.488998
70
192
0
VERTEX
8
OBJECT__14
10
0.000000
20
-36.000000
30
100.949997
70
192
0
VERTEX
8
OBJECT__14
10
-16.934000
20
-11.000000
30
85.447998
70
192
0
VERTEX
8
OBJECT__14
10
-11.479000
20
-36.000000
30
96.488998
70
192
0
VERTEX
8
OBJECT__14
10
-16.934000
20
-36.000000
30
85.447998
70
192
0
VERTEX
8
OBJECT__14
10
0
20
0
30
0
70
128
71
1
72
2
73
3
0
VERTEX
8
OBJECT__14
10
0
20
0
30
0
70
128
71
4
72
1
73
5
0
VERTEX
8
OBJECT__14
10
0
20
0
30
0
70
128
71
6
72
4
73
7
0
VERTEX
8
OBJECT__14
10
0
20
0
30
0
70
128
71
8
72
6
73
9
0
VERTEX
8
OBJECT__14
10
0
20
0
30
0
70
128
71
9
72
10
73
8
0
VERTEX
8
OBJECT__14
10
0
20
0
30
0
70
128
71
7
72
9
73
6
0
VERTEX
8
OBJECT__14
10
0
20
0
30
0
70
128
71
5
72
7
73
4
0
VERTEX
8
OBJECT__14
10
0
20
0
30
0
70
128
71
3
72
5
73
1
0
SEQEND
8
OBJECT__14
0
POLYLINE
8
OBJECT__15
66
1
70
64
71
24
72
24
62
253
0
VERTEX
8
OBJECT__15
10
16.809000
20
13.405000
30
4.250000
70
192
0
VERTEX
8
OBJECT__15
10
9.329000
20
19.371000
30
4.250000
70
192
0
VERTEX
8
OBJECT__15
10
10.051000
20
13.834000
30
4.250000
70
192
0
VERTEX
8
OBJECT__15
10
0.000000
20
17.100000
30
4.250000
70
192
0
VERTEX
8
OBJECT__15
10
0.000000
20
21.500000
30
4.250000
70
192
0
VERTEX
8
OBJECT__15
10
-9.329000
20
19.371000
30
4.250000
70
192
0
VERTEX
8
OBJECT__15
10
-16.809000
20
13.405000
30
4.250000
70
192
0
VERTEX
8
OBJECT__15
10
-20.961000
20
4.784000
30
4.250000
70
192
0
VERTEX
8
OBJECT__15
10
-16.263000
20
5.284000
30
4.250000
70
192
0
VERTEX
8
OBJECT__15
10
-10.051000
20
13.834000
30
4.250000
70
192
0
VERTEX
8
OBJECT__15
10
-16.809000
20
-13.405000
30
4.250000
70
192
0
VERTEX
8
OBJECT__15
10
-10.051000
20
-13.834000
30
4.250000
70
192
0
VERTEX
8
OBJECT__15
10
-16.263000
20
-5.284000
30
4.250000
70
192
0
VERTEX
8
OBJECT__15
10
-20.961000
20
-4.784000
30
4.250000
70
192
0
VERTEX
8
OBJECT__15
10
0.000000
20
-17.100000
30
4.250000
70
192
0
VERTEX
8
OBJECT__15
10
-9.329000
20
-19.371000
30
4.250000
70
192
0
VERTEX
8
OBJECT__15
10
16.809000
20
-13.405000
30
4.250000
70
192
0
VERTEX
8
OBJECT__15
10
20.961000
20
-4.784000
30
4.250000
70
192
0
VERTEX
8
OBJECT__15
10
16.263000
20
-5.284000
30
4.250000
70
192
0
VERTEX
8
OBJECT__15
10
0.000000
20
-21.500000
30
4.250000
70
192
0
VERTEX
8
OBJECT__15
10
9.329000
20
-19.371000
30
4.250000
70
192
0
VERTEX
8
OBJECT__15
10
10.051000
20
-13.834000
30
4.250000
70
192
0
VERTEX
8
OBJECT__15
10
16.263000
20
5.284000
30
4.250000
70
192
0
VERTEX
8
OBJECT__15
10
20.961000
20
4.784000
30
4.250000
70
192
0
VERTEX
8
OBJECT__15
10
0
20
0
30
0
70
128
71
1
72
2
73
3
0
VERTEX
8
OBJECT__15
10
0
20
0
30
0
70
128
71
4
72
3
73
2
0
VERTEX
8
OBJECT__15
10
0
20
0
30
0
70
128
71
2
72
5
73
4
0
VERTEX
8
OBJECT__15
10
0
20
0
30
0
70
128
71
4
72
5
73
6
0
VERTEX
8
OBJECT__15
10
0
20
0
30
0
70
128
71
7
72
8
73
9
0
VERTEX
8
OBJECT__15
10
0
20
0
30
0
70
128
71
6
72
10
73
4
0
VERTEX
8
OBJECT__15
10
0
20
0
30
0
70
128
71
10
72
6
73
7
0
VERTEX
8
OBJECT__15
10
0
20
0
30
0
70
128
71
11
72
12
73
13
0
VERTEX
8
OBJECT__15
10
0
20
0
30
0
70
128
71
9
72
10
73
7
0
VERTEX
8
OBJECT__15
10
0
20
0
30
0
70
128
71
13
72
9
73
8
0
VERTEX
8
OBJECT__15
10
0
20
0
30
0
70
128
71
13
72
14
73
11
0
VERTEX
8
OBJECT__15
10
0
20
0
30
0
70
128
71
15
72
12
73
16
0
VERTEX
8
OBJECT__15
10
0
20
0
30
0
70
128
71
17
72
18
73
19
0
VERTEX
8
OBJECT__15
10
0
20
0
30
0
70
128
71
8
72
14
73
13
0
VERTEX
8
OBJECT__15
10
0
20
0
30
0
70
128
71
16
72
20
73
15
0
VERTEX
8
OBJECT__15
10
0
20
0
30
0
70
128
71
15
72
20
73
21
0
VERTEX
8
OBJECT__15
10
0
20
0
30
0
70
128
71
22
72
21
73
17
0
VERTEX
8
OBJECT__15
10
0
20
0
30
0
70
128
71
11
72
16
73
12
0
VERTEX
8
OBJECT__15
10
0
20
0
30
0
70
128
71
19
72
22
73
17
0
VERTEX
8
OBJECT__15
10
0
20
0
30
0
70
128
71
21
72
22
73
15
0
VERTEX
8
OBJECT__15
10
0
20
0
30
0
70
128
71
23
72
19
73
18
0
VERTEX
8
OBJECT__15
10
0
20
0
30
0
70
128
71
18
72
24
73
23
0
VERTEX
8
OBJECT__15
10
0
20
0
30
0
70
128
71
3
72
23
73
1
0
VERTEX
8
OBJECT__15
10
0
20
0
30
0
70
128
71
23
72
24
73
1
0
SEQEND
8
OBJECT__15
0
POLYLINE
8
OBJECT__16
66
1
70
64
71
28
72
28
62
253
0
VERTEX
8
OBJECT__16
10
0.000000
20
26.576000
30
3.598000
70
192
0
VERTEX
8
OBJECT__16
10
0.000000
20
21.500000
30
4.250000
70
192
0
VERTEX
8
OBJECT__16
10
9.329000
20
19.371000
30
4.250000
70
192
0
VERTEX
8
OBJECT__16
10
11.531000
20
23.945000
30
3.598000
70
192
0
VERTEX
8
OBJECT__16
10
16.809000
20
13.405000
30
4.250000
70
192
0
VERTEX
8
OBJECT__16
10
20.778000
20
16.570000
30
3.598000
70
192
0
VERTEX
8
OBJECT__16
10
20.961000
20
4.784000
30
4.250000
70
192
0
VERTEX
8
OBJECT__16
10
25.910000
20
-5.914000
30
3.598000
70
192
0
VERTEX
8
OBJECT__16
10
25.910000
20
5.914000
30
3.598000
70
192
0
VERTEX
8
OBJECT__16
10
20.778000
20
-16.570000
30
3.598000
70
192
0
VERTEX
8
OBJECT__16
10
20.961000
20
-4.784000
30
4.250000
70
192
0
VERTEX
8
OBJECT__16
10
11.531000
20
-23.945000
30
3.598000
70
192
0
VERTEX
8
OBJECT__16
10
16.809000
20
-13.405000
30
4.250000
70
192
0
VERTEX
8
OBJECT__16
10
9.329000
20
-19.371000
30
4.250000
70
192
0
VERTEX
8
OBJECT__16
10
0.000000
20
-21.500000
30
4.250000
70
192
0
VERTEX
8
OBJECT__16
10
-11.531000
20
-23.945000
30
3.598000
70
192
0
VERTEX
8
OBJECT__16
10
0.000000
20
-26.576000
30
3.598000
70
192
0
VERTEX
8
OBJECT__16
10
-20.778000
20
-16.570000
30
3.598000
70
192
0
VERTEX
8
OBJECT__16
10
-9.329000
20
-19.371000
30
4.250000
70
192
0
VERTEX
8
OBJECT__16
10
-16.809000
20
-13.405000
30
4.250000
70
192
0
VERTEX
8
OBJECT__16
10
-20.961000
20
-4.784000
30
4.250000
70
192
0
VERTEX
8
OBJECT__16
10
-25.910000
20
-5.914000
30
3.598000
70
192
0
VERTEX
8
OBJECT__16
10
-20.961000
20
4.784000
30
4.250000
70
192
0
VERTEX
8
OBJECT__16
10
-20.778000
20
16.570000
30
3.598000
70
192
0
VERTEX
8
OBJECT__16
10
-25.910000
20
5.914000
30
3.598000
70
192
0
VERTEX
8
OBJECT__16
10
-11.531000
20
23.945000
30
3.598000
70
192
0
VERTEX
8
OBJECT__16
10
-16.809000
20
13.405000
30
4.250000
70
192
0
VERTEX
8
OBJECT__16
10
-9.329000
20
19.371000
30
4.250000
70
192
0
VERTEX
8
OBJECT__16
10
0
20
0
30
0
70
128
71
1
72
2
73
3
0
VERTEX
8
OBJECT__16
10
0
20
0
30
0
70
128
71
4
72
3
73
5
0
VERTEX
8
OBJECT__16
10
0
20
0
30
0
70
128
71
6
72
5
73
7
0
VERTEX
8
OBJECT__16
10
0
20
0
30
0
70
128
71
8
72
9
73
7
0
VERTEX
8
OBJECT__16
10
0
20
0
30
0
70
128
71
10
72
8
73
11
0
VERTEX
8
OBJECT__16
10
0
20
0
30
0
70
128
71
12
72
10
73
13
0
VERTEX
8
OBJECT__16
10
0
20
0
30
0
70
128
71
12
72
14
73
15
0
VERTEX
8
OBJECT__16
10
0
20
0
30
0
70
128
71
16
72
17
73
15
0
VERTEX
8
OBJECT__16
10
0
20
0
30
0
70
128
71
18
72
16
73
19
0
VERTEX
8
OBJECT__16
10
0
20
0
30
0
70
128
71
18
72
20
73
21
0
VERTEX
8
OBJECT__16
10
0
20
0
30
0
70
128
71
22
72
21
73
23
0
VERTEX
8
OBJECT__16
10
0
20
0
30
0
70
128
71
24
72
25
73
23
0
VERTEX
8
OBJECT__16
10
0
20
0
30
0
70
128
71
26
72
24
73
27
0
VERTEX
8
OBJECT__16
10
0
20
0
30
0
70
128
71
1
72
26
73
28
0
VERTEX
8
OBJECT__16
10
0
20
0
30
0
70
128
71
28
72
2
73
1
0
VERTEX
8
OBJECT__16
10
0
20
0
30
0
70
128
71
27
72
28
73
26
0
VERTEX
8
OBJECT__16
10
0
20
0
30
0
70
128
71
23
72
27
73
24
0
VERTEX
8
OBJECT__16
10
0
20
0
30
0
70
128
71
23
72
25
73
22
0
VERTEX
8
OBJECT__16
10
0
20
0
30
0
70
128
71
21
72
22
73
18
0
VERTEX
8
OBJECT__16
10
0
20
0
30
0
70
128
71
19
72
20
73
18
0
VERTEX
8
OBJECT__16
10
0
20
0
30
0
70
128
71
15
72
19
73
16
0
VERTEX
8
OBJECT__16
10
0
20
0
30
0
70
128
71
15
72
17
73
12
0
VERTEX
8
OBJECT__16
10
0
20
0
30
0
70
128
71
13
72
14
73
12
0
VERTEX
8
OBJECT__16
10
0
20
0
30
0
70
128
71
11
72
13
73
10
0
VERTEX
8
OBJECT__16
10
0
20
0
30
0
70
128
71
7
72
11
73
8
0
VERTEX
8
OBJECT__16
10
0
20
0
30
0
70
128
71
7
72
9
73
6
0
VERTEX
8
OBJECT__16
10
0
20
0
30
0
70
128
71
5
72
6
73
4
0
VERTEX
8
OBJECT__16
10
0
20
0
30
0
70
128
71
3
72
4
73
1
0
SEQEND
8
OBJECT__16
0
POLYLINE
8
OBJECT__18
66
1
70
64
71
36
72
36
62
253
0
VERTEX
8
OBJECT__18
10
11.715000
20
24.326000
30
3.103000
70
192
0
VERTEX
8
OBJECT__18
10
0.000000
20
27.000000
30
3.103000
70
192
0
VERTEX
8
OBJECT__18
10
0.000000
20
26.576000
30
3.598000
70
192
0
VERTEX
8
OBJECT__18
10
20.778000
20
16.570000
30
3.598000
70
192
0
VERTEX
8
OBJECT__18
10
21.108999
20
16.834000
30
3.103000
70
192
0
VERTEX
8
OBJECT__18
10
15.465000
20
21.334999
30
3.103000
70
192
0
VERTEX
8
OBJECT__18
10
11.531000
20
23.945000
30
3.598000
70
192
0
VERTEX
8
OBJECT__18
10
25.910000
20
5.914000
30
3.598000
70
192
0
VERTEX
8
OBJECT__18
10
25.289000
20
8.156000
30
3.103000
70
192
0
VERTEX
8
OBJECT__18
10
26.323000
20
6.008000
30
3.103000
70
192
0
VERTEX
8
OBJECT__18
10
26.323000
20
-6.008000
30
3.103000
70
192
0
VERTEX
8
OBJECT__18
10
20.778000
20
-16.570000
30
3.598000
70
192
0
VERTEX
8
OBJECT__18
10
21.108999
20
-16.834000
30
3.103000
70
192
0
VERTEX
8
OBJECT__18
10
25.289000
20
-8.156000
30
3.103000
70
192
0
VERTEX
8
OBJECT__18
10
25.910000
20
-5.914000
30
3.598000
70
192
0
VERTEX
8
OBJECT__18
10
11.531000
20
-23.945000
30
3.598000
70
192
0
VERTEX
8
OBJECT__18
10
15.465000
20
-21.334999
30
3.103000
70
192
0
VERTEX
8
OBJECT__18
10
11.715000
20
-24.326000
30
3.103000
70
192
0
VERTEX
8
OBJECT__18
10
0.000000
20
-26.576000
30
3.598000
70
192
0
VERTEX
8
OBJECT__18
10
0.000000
20
-27.000000
30
3.103000
70
192
0
VERTEX
8
OBJECT__18
10
-11.531000
20
-23.945000
30
3.598000
70
192
0
VERTEX
8
OBJECT__18
10
-20.778000
20
-16.570000
30
3.598000
70
192
0
VERTEX
8
OBJECT__18
10
-21.108999
20
-16.834000
30
3.103000
70
192
0
VERTEX
8
OBJECT__18
10
-15.465000
20
-21.334999
30
3.103000
70
192
0
VERTEX
8
OBJECT__18
10
-25.910000
20
-5.914000
30
3.598000
70
192
0
VERTEX
8
OBJECT__18
10
-25.289000
20
-8.156000
30
3.103000
70
192
0
VERTEX
8
OBJECT__18
10
-26.323000
20
-6.008000
30
3.103000
70
192
0
VERTEX
8
OBJECT__18
10
-25.910000
20
5.914000
30
3.598000
70
192
0
VERTEX
8
OBJECT__18
10
-20.778000
20
16.570000
30
3.598000
70
192
0
VERTEX
8
OBJECT__18
10
-21.108999
20
16.834000
30
3.103000
70
192
0
VERTEX
8
OBJECT__18
10
-25.289000
20
8.156000
30
3.103000
70
192
0
VERTEX
8
OBJECT__18
10
-11.531000
20
23.945000
30
3.598000
70
192
0
VERTEX
8
OBJECT__18
10
-15.465000
20
21.334999
30
3.103000
70
192
0
VERTEX
8
OBJECT__18
10
-11.715000
20
24.326000
30
3.103000
70
192
0
VERTEX
8
OBJECT__18
10
-26.323000
20
6.008000
30
3.103000
70
192
0
VERTEX
8
OBJECT__18
10
-11.715000
20
-24.326000
30
3.103000
70
192
0
VERTEX
8
OBJECT__18
10
0
20
0
30
0
70
128
71
1
72
2
73
3
0
VERTEX
8
OBJECT__18
10
0
20
0
30
0
70
128
71
4
72
5
73
6
0
VERTEX
8
OBJECT__18
10
0
20
0
30
0
70
128
71
6
72
7
73
4
0
VERTEX
8
OBJECT__18
10
0
20
0
30
0
70
128
71
4
72
8
73
9
0
VERTEX
8
OBJECT__18
10
0
20
0
30
0
70
128
71
8
72
10
73
9
0
VERTEX
8
OBJECT__18
10
0
20
0
30
0
70
128
71
11
72
10
73
8
0
VERTEX
8
OBJECT__18
10
0
20
0
30
0
70
128
71
12
72
13
73
14
0
VERTEX
8
OBJECT__18
10
0
20
0
30
0
70
128
71
14
72
15
73
12
0
VERTEX
8
OBJECT__18
10
0
20
0
30
0
70
128
71
12
72
16
73
17
0
VERTEX
8
OBJECT__18
10
0
20
0
30
0
70
128
71
16
72
18
73
17
0
VERTEX
8
OBJECT__18
10
0
20
0
30
0
70
128
71
18
72
16
73
19
0
VERTEX
8
OBJECT__18
10
0
20
0
30
0
70
128
71
20
72
19
73
21
0
VERTEX
8
OBJECT__18
10
0
20
0
30
0
70
128
71
22
72
23
73
24
0
VERTEX
8
OBJECT__18
10
0
20
0
30
0
70
128
71
24
72
21
73
22
0
VERTEX
8
OBJECT__18
10
0
20
0
30
0
70
128
71
22
72
25
73
26
0
VERTEX
8
OBJECT__18
10
0
20
0
30
0
70
128
71
25
72
27
73
26
0
VERTEX
8
OBJECT__18
10
0
20
0
30
0
70
128
71
27
72
25
73
28
0
VERTEX
8
OBJECT__18
10
0
20
0
30
0
70
128
71
29
72
30
73
31
0
VERTEX
8
OBJECT__18
10
0
20
0
30
0
70
128
71
31
72
28
73
29
0
VERTEX
8
OBJECT__18
10
0
20
0
30
0
70
128
71
29
72
32
73
33
0
VERTEX
8
OBJECT__18
10
0
20
0
30
0
70
128
71
32
72
34
73
33
0
VERTEX
8
OBJECT__18
10
0
20
0
30
0
70
128
71
2
72
34
73
32
0
VERTEX
8
OBJECT__18
10
0
20
0
30
0
70
128
71
32
72
3
73
2
0
VERTEX
8
OBJECT__18
10
0
20
0
30
0
70
128
71
33
72
30
73
29
0
VERTEX
8
OBJECT__18
10
0
20
0
30
0
70
128
71
31
72
35
73
28
0
VERTEX
8
OBJECT__18
10
0
20
0
30
0
70
128
71
28
72
35
73
27
0
VERTEX
8
OBJECT__18
10
0
20
0
30
0
70
128
71
26
72
23
73
22
0
VERTEX
8
OBJECT__18
10
0
20
0
30
0
70
128
71
24
72
36
73
21
0
VERTEX
8
OBJECT__18
10
0
20
0
30
0
70
128
71
21
72
36
73
20
0
VERTEX
8
OBJECT__18
10
0
20
0
30
0
70
128
71
19
72
20
73
18
0
VERTEX
8
OBJECT__18
10
0
20
0
30
0
70
128
71
17
72
13
73
12
0
VERTEX
8
OBJECT__18
10
0
20
0
30
0
70
128
71
14
72
11
73
15
0
VERTEX
8
OBJECT__18
10
0
20
0
30
0
70
128
71
8
72
15
73
11
0
VERTEX
8
OBJECT__18
10
0
20
0
30
0
70
128
71
9
72
5
73
4
0
VERTEX
8
OBJECT__18
10
0
20
0
30
0
70
128
71
6
72
1
73
7
0
VERTEX
8
OBJECT__18
10
0
20
0
30
0
70
128
71
3
72
7
73
1
0
SEQEND
8
OBJECT__18
0
POLYLINE
8
OBJECT__19
66
1
70
64
71
32
72
32
62
253
0
VERTEX
8
OBJECT__19
10
0.000000
20
-27.000000
30
0.000000
70
192
0
VERTEX
8
OBJECT__19
10
0.000000
20
-27.000000
30
3.103000
70
192
0
VERTEX
8
OBJECT__19
10
-11.715000
20
-24.326000
30
3.103000
70
192
0
VERTEX
8
OBJECT__19
10
-15.870000
20
-21.843000
30
0.000000
70
192
0
VERTEX
8
OBJECT__19
10
-25.679001
20
-8.343000
30
0.000000
70
192
0
VERTEX
8
OBJECT__19
10
-21.108999
20
-16.834000
30
3.103000
70
192
0
VERTEX
8
OBJECT__19
10
-15.465000
20
-21.334999
30
3.103000
70
192
0
VERTEX
8
OBJECT__19
10
-26.323000
20
-6.008000
30
3.103000
70
192
0
VERTEX
8
OBJECT__19
10
-26.323000
20
6.008000
30
3.103000
70
192
0
VERTEX
8
OBJECT__19
10
-25.679001
20
8.343000
30
0.000000
70
192
0
VERTEX
8
OBJECT__19
10
-25.289000
20
-8.156000
30
3.103000
70
192
0
VERTEX
8
OBJECT__19
10
-25.289000
20
8.156000
30
3.103000
70
192
0
VERTEX
8
OBJECT__19
10
-21.108999
20
16.834000
30
3.103000
70
192
0
VERTEX
8
OBJECT__19
10
-15.870000
20
21.843000
30
0.000000
70
192
0
VERTEX
8
OBJECT__19
10
0.000000
20
27.000000
30
0.000000
70
192
0
VERTEX
8
OBJECT__19
10
-11.715000
20
24.326000
30
3.103000
70
192
0
VERTEX
8
OBJECT__19
10
-15.465000
20
21.334999
30
3.103000
70
192
0
VERTEX
8
OBJECT__19
10
0.000000
20
27.000000
30
3.103000
70
192
0
VERTEX
8
OBJECT__19
10
11.715000
20
24.326000
30
3.103000
70
192
0
VERTEX
8
OBJECT__19
10
15.870000
20
21.843000
30
0.000000
70
192
0
VERTEX
8
OBJECT__19
10
25.679001
20
8.343000
30
0.000000
70
192
0
VERTEX
8
OBJECT__19
10
21.108999
20
16.834000
30
3.103000
70
192
0
VERTEX
8
OBJECT__19
10
15.465000
20
21.334999
30
3.103000
70
192
0
VERTEX
8
OBJECT__19
10
25.679001
20
-8.343000
30
0.000000
70
192
0
VERTEX
8
OBJECT__19
10
26.323000
20
6.008000
30
3.103000
70
192
0
VERTEX
8
OBJECT__19
10
26.323000
20
-6.008000
30
3.103000
70
192
0
VERTEX
8
OBJECT__19
10
25.289000
20
8.156000
30
3.103000
70
192
0
VERTEX
8
OBJECT__19
10
25.289000
20
-8.156000
30
3.103000
70
192
0
VERTEX
8
OBJECT__19
10
21.108999
20
-16.834000
30
3.103000
70
192
0
VERTEX
8
OBJECT__19
10
15.870000
20
-21.843000
30
0.000000
70
192
0
VERTEX
8
OBJECT__19
10
11.715000
20
-24.326000
30
3.103000
70
192
0
VERTEX
8
OBJECT__19
10
15.465000
20
-21.334999
30
3.103000
70
192
0
VERTEX
8
OBJECT__19
10
0
20
0
30
0
70
128
71
1
72
2
73
3
0
VERTEX
8
OBJECT__19
10
0
20
0
30
0
70
128
71
3
72
4
73
1
0
VERTEX
8
OBJECT__19
10
0
20
0
30
0
70
128
71
5
72
4
73
6
0
VERTEX
8
OBJECT__19
10
0
20
0
30
0
70
128
71
4
72
7
73
6
0
VERTEX
8
OBJECT__19
10
0
20
0
30
0
70
128
71
5
72
8
73
9
0
VERTEX
8
OBJECT__19
10
0
20
0
30
0
70
128
71
9
72
10
73
5
0
VERTEX
8
OBJECT__19
10
0
20
0
30
0
70
128
71
5
72
11
73
8
0
VERTEX
8
OBJECT__19
10
0
20
0
30
0
70
128
71
10
72
12
73
13
0
VERTEX
8
OBJECT__19
10
0
20
0
30
0
70
128
71
13
72
14
73
10
0
VERTEX
8
OBJECT__19
10
0
20
0
30
0
70
128
71
15
72
14
73
16
0
VERTEX
8
OBJECT__19
10
0
20
0
30
0
70
128
71
14
72
17
73
16
0
VERTEX
8
OBJECT__19
10
0
20
0
30
0
70
128
71
15
72
18
73
19
0
VERTEX
8
OBJECT__19
10
0
20
0
30
0
70
128
71
19
72
20
73
15
0
VERTEX
8
OBJECT__19
10
0
20
0
30
0
70
128
71
21
72
20
73
22
0
VERTEX
8
OBJECT__19
10
0
20
0
30
0
70
128
71
20
72
23
73
22
0
VERTEX
8
OBJECT__19
10
0
20
0
30
0
70
128
71
24
72
21
73
25
0
VERTEX
8
OBJECT__19
10
0
20
0
30
0
70
128
71
25
72
26
73
24
0
VERTEX
8
OBJECT__19
10
0
20
0
30
0
70
128
71
21
72
27
73
25
0
VERTEX
8
OBJECT__19
10
0
20
0
30
0
70
128
71
24
72
28
73
29
0
VERTEX
8
OBJECT__19
10
0
20
0
30
0
70
128
71
29
72
30
73
24
0
VERTEX
8
OBJECT__19
10
0
20
0
30
0
70
128
71
1
72
30
73
31
0
VERTEX
8
OBJECT__19
10
0
20
0
30
0
70
128
71
30
72
32
73
31
0
VERTEX
8
OBJECT__19
10
0
20
0
30
0
70
128
71
31
72
2
73
1
0
VERTEX
8
OBJECT__19
10
0
20
0
30
0
70
128
71
29
72
32
73
30
0
VERTEX
8
OBJECT__19
10
0
20
0
30
0
70
128
71
26
72
28
73
24
0
VERTEX
8
OBJECT__19
10
0
20
0
30
0
70
128
71
22
72
27
73
21
0
VERTEX
8
OBJECT__19
10
0
20
0
30
0
70
128
71
19
72
23
73
20
0
VERTEX
8
OBJECT__19
10
0
20
0
30
0
70
128
71
16
72
18
73
15
0
VERTEX
8
OBJECT__19
10
0
20
0
30
0
70
128
71
13
72
17
73
14
0
VERTEX
8
OBJECT__19
10
0
20
0
30
0
70
128
71
9
72
12
73
10
0
VERTEX
8
OBJECT__19
10
0
20
0
30
0
70
128
71
6
72
11
73
5
0
VERTEX
8
OBJECT__19
10
0
20
0
30
0
70
128
71
3
72
7
73
4
0
SEQEND
8
OBJECT__19
0
POLYLINE
8
OBJECT__20
66
1
70
64
71
10
72
8
62
253
0
VERTEX
8
OBJECT__20
10
-25.679001
20
-8.343000
30
0.000000
70
192
0
VERTEX
8
OBJECT__20
10
15.870000
20
-21.843000
30
0.000000
70
192
0
VERTEX
8
OBJECT__20
10
0.000000
20
-27.000000
30
0.000000
70
192
0
VERTEX
8
OBJECT__20
10
0.000000
20
27.000000
30
0.000000
70
192
0
VERTEX
8
OBJECT__20
10
15.870000
20
21.843000
30
0.000000
70
192
0
VERTEX
8
OBJECT__20
10
-25.679001
20
8.343000
30
0.000000
70
192
0
VERTEX
8
OBJECT__20
10
25.679001
20
-8.343000
30
0.000000
70
192
0
VERTEX
8
OBJECT__20
10
-15.870000
20
21.843000
30
0.000000
70
192
0
VERTEX
8
OBJECT__20
10
25.679001
20
8.343000
30
0.000000
70
192
0
VERTEX
8
OBJECT__20
10
-15.870000
20
-21.843000
30
0.000000
70
192
0
VERTEX
8
OBJECT__20
10
0
20
0
30
0
70
128
71
1
72
2
73
3
0
VERTEX
8
OBJECT__20
10
0
20
0
30
0
70
128
71
1
72
4
73
5
0
VERTEX
8
OBJECT__20
10
0
20
0
30
0
70
128
71
4
72
1
73
6
0
VERTEX
8
OBJECT__20
10
0
20
0
30
0
70
128
71
1
72
7
73
2
0
VERTEX
8
OBJECT__20
10
0
20
0
30
0
70
128
71
6
72
8
73
4
0
VERTEX
8
OBJECT__20
10
0
20
0
30
0
70
128
71
1
72
9
73
7
0
VERTEX
8
OBJECT__20
10
0
20
0
30
0
70
128
71
3
72
10
73
1
0
VERTEX
8
OBJECT__20
10
0
20
0
30
0
70
128
71
5
72
9
73
1
0
SEQEND
8
OBJECT__20
0
POLYLINE
8
OBJECT__21
66
1
70
64
71
43
72
41
62
253
0
VERTEX
8
OBJECT__21
10
-21.000000
20
0.000000
30
141.399994
70
192
0
VERTEX
8
OBJECT__21
10
-16.795000
20
3.709000
30
141.399994
70
192
0
VERTEX
8
OBJECT__21
10
-17.368999
20
4.654000
30
141.399994
70
192
0
VERTEX
8
OBJECT__21
10
-9.112000
20
-14.900000
30
141.399994
70
192
0
VERTEX
8
OBJECT__21
10
-5.400000
20
-20.294001
30
141.399994
70
192
0
VERTEX
8
OBJECT__21
10
-5.400000
20
-19.600000
30
141.399994
70
192
0
VERTEX
8
OBJECT__21
10
-16.795000
20
-3.709000
30
141.399994
70
192
0
VERTEX
8
OBJECT__21
10
-17.563000
20
-4.706000
30
141.399994
70
192
0
VERTEX
8
OBJECT__21
10
-17.368999
20
-4.654000
30
141.399994
70
192
0
VERTEX
8
OBJECT__21
10
-11.072000
20
-14.900000
30
141.399994
70
192
0
VERTEX
8
OBJECT__21
10
-12.375000
20
-14.418000
30
141.399994
70
192
0
VERTEX
8
OBJECT__21
10
-8.163000
20
-15.140000
30
141.399994
70
192
0
VERTEX
8
OBJECT__21
10
-16.649000
20
-12.798000
30
141.399994
70
192
0
VERTEX
8
OBJECT__21
10
-18.118999
20
-5.720000
30
141.399994
70
192
0
VERTEX
8
OBJECT__21
10
0.000000
20
-17.200001
30
141.399994
70
192
0
VERTEX
8
OBJECT__21
10
-4.771000
20
-17.874001
30
141.399994
70
192
0
VERTEX
8
OBJECT__21
10
0.518000
20
-18.493000
30
141.399994
70
192
0
VERTEX
8
OBJECT__21
10
1.146000
20
-17.837000
30
141.399994
70
192
0
VERTEX
8
OBJECT__21
10
0.500000
20
-17.200001
30
141.399994
70
192
0
VERTEX
8
OBJECT__21
10
-4.900000
20
-19.600000
30
141.399994
70
192
0
VERTEX
8
OBJECT__21
10
-4.900000
20
-19.540001
30
141.399994
70
192
0
VERTEX
8
OBJECT__21
10
-5.400000
20
20.294001
30
141.399994
70
192
0
VERTEX
8
OBJECT__21
10
-16.649000
20
12.798000
30
141.399994
70
192
0
VERTEX
8
OBJECT__21
10
-12.375000
20
14.418000
30
141.399994
70
192
0
VERTEX
8
OBJECT__21
10
-18.118999
20
5.720000
30
141.399994
70
192
0
VERTEX
8
OBJECT__21
10
-17.563000
20
4.706000
30
141.399994
70
192
0
VERTEX
8
OBJECT__21
10
-5.353000
20
-18.569000
30
141.399994
70
192
0
VERTEX
8
OBJECT__21
10
-18.056999
20
-5.094000
30
141.399994
70
192
0
VERTEX
8
OBJECT__21
10
-5.400000
20
19.600000
30
141.399994
70
192
0
VERTEX
8
OBJECT__21
10
-5.353000
20
18.569000
30
141.399994
70
192
0
VERTEX
8
OBJECT__21
10
-11.072000
20
14.900000
30
141.399994
70
192
0
VERTEX
8
OBJECT__21
10
-9.112000
20
14.900000
30
141.399994
70
192
0
VERTEX
8
OBJECT__21
10
0.518000
20
18.493000
30
141.399994
70
192
0
VERTEX
8
OBJECT__21
10
0.000000
20
17.200001
30
141.399994
70
192
0
VERTEX
8
OBJECT__21
10
0.500000
20
17.200001
30
141.399994
70
192
0
VERTEX
8
OBJECT__21
10
-4.771000
20
17.874001
30
141.399994
70
192
0
VERTEX
8
OBJECT__21
10
-5.283000
20
-18.035999
30
141.399994
70
192
0
VERTEX
8
OBJECT__21
10
-18.056999
20
5.094000
30
141.399994
70
192
0
VERTEX
8
OBJECT__21
10
-4.900000
20
19.540001
30
141.399994
70
192
0
VERTEX
8
OBJECT__21
10
-5.283000
20
18.035999
30
141.399994
70
192
0
VERTEX
8
OBJECT__21
10
-8.163000
20
15.140000
30
141.399994
70
192
0
VERTEX
8
OBJECT__21
10
1.146000
20
17.837000
30
141.399994
70
192
0
VERTEX
8
OBJECT__21
10
-4.900000
20
19.600000
30
141.399994
70
192
0
VERTEX
8
OBJECT__21
10
0
20
0
30
0
70
128
71
1
72
2
73
3
0
VERTEX
8
OBJECT__21
10
0
20
0
30
0
70
128
71
4
72
5
73
6
0
VERTEX
8
OBJECT__21
10
0
20
0
30
0
70
128
71
1
72
7
73
2
0
VERTEX
8
OBJECT__21
10
0
20
0
30
0
70
128
71
1
72
8
73
9
0
VERTEX
8
OBJECT__21
10
0
20
0
30
0
70
128
71
5
72
10
73
11
0
VERTEX
8
OBJECT__21
10
0
20
0
30
0
70
128
71
6
72
12
73
4
0
VERTEX
8
OBJECT__21
10
0
20
0
30
0
70
128
71
9
72
7
73
1
0
VERTEX
8
OBJECT__21
10
0
20
0
30
0
70
128
71
13
72
11
73
14
0
VERTEX
8
OBJECT__21
10
0
20
0
30
0
70
128
71
4
72
10
73
5
0
VERTEX
8
OBJECT__21
10
0
20
0
30
0
70
128
71
15
72
12
73
16
0
VERTEX
8
OBJECT__21
10
0
20
0
30
0
70
128
71
17
72
18
73
19
0
VERTEX
8
OBJECT__21
10
0
20
0
30
0
70
128
71
6
72
20
73
21
0
VERTEX
8
OBJECT__21
10
0
20
0
30
0
70
128
71
22
72
23
73
24
0
VERTEX
8
OBJECT__21
10
0
20
0
30
0
70
128
71
23
72
1
73
25
0
VERTEX
8
OBJECT__21
10
0
20
0
30
0
70
128
71
3
72
26
73
1
0
VERTEX
8
OBJECT__21
10
0
20
0
30
0
70
128
71
11
72
13
73
5
0
VERTEX
8
OBJECT__21
10
0
20
0
30
0
70
128
71
19
72
15
73
17
0
VERTEX
8
OBJECT__21
10
0
20
0
30
0
70
128
71
21
72
27
73
6
0
VERTEX
8
OBJECT__21
10
0
20
0
30
0
70
128
71
25
72
24
73
23
0
VERTEX
8
OBJECT__21
10
0
20
0
30
0
70
128
71
1
72
28
73
8
0
VERTEX
8
OBJECT__21
10
0
20
0
30
0
70
128
71
14
72
1
73
13
0
VERTEX
8
OBJECT__21
10
0
20
0
30
0
70
128
71
29
72
24
73
30
0
VERTEX
8
OBJECT__21
10
0
20
0
30
0
70
128
71
30
72
31
73
32
0
VERTEX
8
OBJECT__21
10
0
20
0
30
0
70
128
71
33
72
34
73
35
0
VERTEX
8
OBJECT__21
10
0
20
0
30
0
70
128
71
34
72
33
73
36
0
VERTEX
8
OBJECT__21
10
0
20
0
30
0
70
128
71
12
72
37
73
16
0
VERTEX
8
OBJECT__21
10
0
20
0
30
0
70
128
71
27
72
12
73
6
0
VERTEX
8
OBJECT__21
10
0
20
0
30
0
70
128
71
1
72
38
73
25
0
VERTEX
8
OBJECT__21
10
0
20
0
30
0
70
128
71
14
72
28
73
1
0
VERTEX
8
OBJECT__21
10
0
20
0
30
0
70
128
71
30
72
39
73
29
0
VERTEX
8
OBJECT__21
10
0
20
0
30
0
70
128
71
30
72
24
73
31
0
VERTEX
8
OBJECT__21
10
0
20
0
30
0
70
128
71
40
72
32
73
41
0
VERTEX
8
OBJECT__21
10
0
20
0
30
0
70
128
71
36
72
41
73
34
0
VERTEX
8
OBJECT__21
10
0
20
0
30
0
70
128
71
27
72
37
73
12
0
VERTEX
8
OBJECT__21
10
0
20
0
30
0
70
128
71
26
72
38
73
1
0
VERTEX
8
OBJECT__21
10
0
20
0
30
0
70
128
71
32
72
40
73
30
0
VERTEX
8
OBJECT__21
10
0
20
0
30
0
70
128
71
35
72
42
73
33
0
VERTEX
8
OBJECT__21
10
0
20
0
30
0
70
128
71
24
72
29
73
22
0
VERTEX
8
OBJECT__21
10
0
20
0
30
0
70
128
71
41
72
36
73
40
0
VERTEX
8
OBJECT__21
10
0
20
0
30
0
70
128
71
39
72
43
73
29
0
VERTEX
8
OBJECT__21
10
0
20
0
30
0
70
128
71
16
72
17
73
15
0
SEQEND
8
OBJECT__21
0
POLYLINE
8
OBJECT__22
66
1
70
64
71
10
72
8
62
253
0
VERTEX
8
OBJECT__22
10
-5.400000
20
20.294001
30
139.899994
70
192
0
VERTEX
8
OBJECT__22
10
-16.649000
20
12.798000
30
139.899994
70
192
0
VERTEX
8
OBJECT__22
10
-16.649000
20
12.798000
30
141.399994
70
192
0
VERTEX
8
OBJECT__22
10
-21.000000
20
0.000000
30
141.399994
70
192
0
VERTEX
8
OBJECT__22
10
-16.649000
20
-12.798000
30
141.399994
70
192
0
VERTEX
8
OBJECT__22
10
-21.000000
20
0.000000
30
139.899994
70
192
0
VERTEX
8
OBJECT__22
10
-5.400000
20
-20.294001
30
139.899994
70
192
0
VERTEX
8
OBJECT__22
10
-5.400000
20
-20.294001
30
141.399994
70
192
0
VERTEX
8
OBJECT__22
10
-16.649000
20
-12.798000
30
139.899994
70
192
0
VERTEX
8
OBJECT__22
10
-5.400000
20
20.294001
30
141.399994
70
192
0
VERTEX
8
OBJECT__22
10
0
20
0
30
0
70
128
71
1
72
2
73
3
0
VERTEX
8
OBJECT__22
10
0
20
0
30
0
70
128
71
4
72
3
73
2
0
VERTEX
8
OBJECT__22
10
0
20
0
30
0
70
128
71
5
72
4
73
6
0
VERTEX
8
OBJECT__22
10
0
20
0
30
0
70
128
71
7
72
8
73
5
0
VERTEX
8
OBJECT__22
10
0
20
0
30
0
70
128
71
5
72
9
73
7
0
VERTEX
8
OBJECT__22
10
0
20
0
30
0
70
128
71
6
72
9
73
5
0
VERTEX
8
OBJECT__22
10
0
20
0
30
0
70
128
71
2
72
6
73
4
0
VERTEX
8
OBJECT__22
10
0
20
0
30
0
70
128
71
3
72
10
73
1
0
SEQEND
8
OBJECT__22
0
POLYLINE
8
OBJECT__24
66
1
70
64
71
43
72
41
62
253
0
VERTEX
8
OBJECT__24
10
-21.000000
20
0.000000
30
139.899994
70
192
0
VERTEX
8
OBJECT__24
10
-16.795000
20
-3.709000
30
139.899994
70
192
0
VERTEX
8
OBJECT__24
10
-17.368999
20
-4.654000
30
139.899994
70
192
0
VERTEX
8
OBJECT__24
10
-16.795000
20
3.709000
30
139.899994
70
192
0
VERTEX
8
OBJECT__24
10
-17.563000
20
4.706000
30
139.899994
70
192
0
VERTEX
8
OBJECT__24
10
-17.368999
20
4.654000
30
139.899994
70
192
0
VERTEX
8
OBJECT__24
10
-9.112000
20
14.900000
30
139.899994
70
192
0
VERTEX
8
OBJECT__24
10
-5.400000
20
20.294001
30
139.899994
70
192
0
VERTEX
8
OBJECT__24
10
-5.400000
20
19.600000
30
139.899994
70
192
0
VERTEX
8
OBJECT__24
10
-5.400000
20
-20.294001
30
139.899994
70
192
0
VERTEX
8
OBJECT__24
10
-16.649000
20
-12.798000
30
139.899994
70
192
0
VERTEX
8
OBJECT__24
10
-12.375000
20
-14.418000
30
139.899994
70
192
0
VERTEX
8
OBJECT__24
10
-18.118999
20
-5.720000
30
139.899994
70
192
0
VERTEX
8
OBJECT__24
10
-11.072000
20
14.900000
30
139.899994
70
192
0
VERTEX
8
OBJECT__24
10
-12.375000
20
14.418000
30
139.899994
70
192
0
VERTEX
8
OBJECT__24
10
-8.163000
20
15.140000
30
139.899994
70
192
0
VERTEX
8
OBJECT__24
10
-18.056999
20
5.094000
30
139.899994
70
192
0
VERTEX
8
OBJECT__24
10
-16.649000
20
12.798000
30
139.899994
70
192
0
VERTEX
8
OBJECT__24
10
-18.118999
20
5.720000
30
139.899994
70
192
0
VERTEX
8
OBJECT__24
10
-5.400000
20
-19.600000
30
139.899994
70
192
0
VERTEX
8
OBJECT__24
10
-5.353000
20
-18.569000
30
139.899994
70
192
0
VERTEX
8
OBJECT__24
10
-11.072000
20
-14.900000
30
139.899994
70
192
0
VERTEX
8
OBJECT__24
10
-9.112000
20
-14.900000
30
139.899994
70
192
0
VERTEX
8
OBJECT__24
10
0.518000
20
-18.493000
30
139.899994
70
192
0
VERTEX
8
OBJECT__24
10
0.000000
20
-17.200001
30
139.899994
70
192
0
VERTEX
8
OBJECT__24
10
0.500000
20
-17.200001
30
139.899994
70
192
0
VERTEX
8
OBJECT__24
10
-4.771000
20
-17.874001
30
139.899994
70
192
0
VERTEX
8
OBJECT__24
10
0.000000
20
17.200001
30
139.899994
70
192
0
VERTEX
8
OBJECT__24
10
-4.771000
20
17.874001
30
139.899994
70
192
0
VERTEX
8
OBJECT__24
10
0.518000
20
18.493000
30
139.899994
70
192
0
VERTEX
8
OBJECT__24
10
1.146000
20
17.837000
30
139.899994
70
192
0
VERTEX
8
OBJECT__24
10
0.500000
20
17.200001
30
139.899994
70
192
0
VERTEX
8
OBJECT__24
10
-4.900000
20
19.600000
30
139.899994
70
192
0
VERTEX
8
OBJECT__24
10
-4.900000
20
19.540001
30
139.899994
70
192
0
VERTEX
8
OBJECT__24
10
-18.056999
20
-5.094000
30
139.899994
70
192
0
VERTEX
8
OBJECT__24
10
-17.563000
20
-4.706000
30
139.899994
70
192
0
VERTEX
8
OBJECT__24
10
-4.900000
20
-19.540001
30
139.899994
70
192
0
VERTEX
8
OBJECT__24
10
-5.283000
20
-18.035999
30
139.899994
70
192
0
VERTEX
8
OBJECT__24
10
-8.163000
20
-15.140000
30
139.899994
70
192
0
VERTEX
8
OBJECT__24
10
-5.353000
20
18.569000
30
139.899994
70
192
0
VERTEX
8
OBJECT__24
10
1.146000
20
-17.837000
30
139.899994
70
192
0
VERTEX
8
OBJECT__24
10
-5.283000
20
18.035999
30
139.899994
70
192
0
VERTEX
8
OBJECT__24
10
-4.900000
20
-19.600000
30
139.899994
70
192
0
VERTEX
8
OBJECT__24
10
0
20
0
30
0
70
128
71
1
72
2
73
3
0
VERTEX
8
OBJECT__24
10
0
20
0
30
0
70
128
71
1
72
4
73
2
0
VERTEX
8
OBJECT__24
10
0
20
0
30
0
70
128
71
1
72
5
73
6
0
VERTEX
8
OBJECT__24
10
0
20
0
30
0
70
128
71
7
72
8
73
9
0
VERTEX
8
OBJECT__24
10
0
20
0
30
0
70
128
71
10
72
11
73
12
0
VERTEX
8
OBJECT__24
10
0
20
0
30
0
70
128
71
11
72
1
73
13
0
VERTEX
8
OBJECT__24
10
0
20
0
30
0
70
128
71
6
72
4
73
1
0
VERTEX
8
OBJECT__24
10
0
20
0
30
0
70
128
71
8
72
14
73
15
0
VERTEX
8
OBJECT__24
10
0
20
0
30
0
70
128
71
9
72
16
73
7
0
VERTEX
8
OBJECT__24
10
0
20
0
30
0
70
128
71
13
72
12
73
11
0
VERTEX
8
OBJECT__24
10
0
20
0
30
0
70
128
71
1
72
17
73
5
0
VERTEX
8
OBJECT__24
10
0
20
0
30
0
70
128
71
18
72
15
73
19
0
VERTEX
8
OBJECT__24
10
0
20
0
30
0
70
128
71
7
72
14
73
8
0
VERTEX
8
OBJECT__24
10
0
20
0
30
0
70
128
71
20
72
12
73
21
0
VERTEX
8
OBJECT__24
10
0
20
0
30
0
70
128
71
21
72
22
73
23
0
VERTEX
8
OBJECT__24
10
0
20
0
30
0
70
128
71
24
72
25
73
26
0
VERTEX
8
OBJECT__24
10
0
20
0
30
0
70
128
71
25
72
24
73
27
0
VERTEX
8
OBJECT__24
10
0
20
0
30
0
70
128
71
28
72
16
73
29
0
VERTEX
8
OBJECT__24
10
0
20
0
30
0
70
128
71
30
72
31
73
32
0
VERTEX
8
OBJECT__24
10
0
20
0
30
0
70
128
71
9
72
33
73
34
0
VERTEX
8
OBJECT__24
10
0
20
0
30
0
70
128
71
1
72
35
73
13
0
VERTEX
8
OBJECT__24
10
0
20
0
30
0
70
128
71
3
72
36
73
1
0
VERTEX
8
OBJECT__24
10
0
20
0
30
0
70
128
71
15
72
18
73
8
0
VERTEX
8
OBJECT__24
10
0
20
0
30
0
70
128
71
21
72
37
73
20
0
VERTEX
8
OBJECT__24
10
0
20
0
30
0
70
128
71
21
72
12
73
22
0
VERTEX
8
OBJECT__24
10
0
20
0
30
0
70
128
71
38
72
23
73
39
0
VERTEX
8
OBJECT__24
10
0
20
0
30
0
70
128
71
27
72
39
73
25
0
VERTEX
8
OBJECT__24
10
0
20
0
30
0
70
128
71
32
72
28
73
30
0
VERTEX
8
OBJECT__24
10
0
20
0
30
0
70
128
71
34
72
40
73
9
0
VERTEX
8
OBJECT__24
10
0
20
0
30
0
70
128
71
36
72
35
73
1
0
VERTEX
8
OBJECT__24
10
0
20
0
30
0
70
128
71
19
72
1
73
18
0
VERTEX
8
OBJECT__24
10
0
20
0
30
0
70
128
71
23
72
38
73
21
0
VERTEX
8
OBJECT__24
10
0
20
0
30
0
70
128
71
26
72
41
73
24
0
VERTEX
8
OBJECT__24
10
0
20
0
30
0
70
128
71
16
72
42
73
29
0
VERTEX
8
OBJECT__24
10
0
20
0
30
0
70
128
71
40
72
16
73
9
0
VERTEX
8
OBJECT__24
10
0
20
0
30
0
70
128
71
19
72
17
73
1
0
VERTEX
8
OBJECT__24
10
0
20
0
30
0
70
128
71
39
72
27
73
38
0
VERTEX
8
OBJECT__24
10
0
20
0
30
0
70
128
71
40
72
42
73
16
0
VERTEX
8
OBJECT__24
10
0
20
0
30
0
70
128
71
37
72
43
73
20
0
VERTEX
8
OBJECT__24
10
0
20
0
30
0
70
128
71
12
72
20
73
10
0
VERTEX
8
OBJECT__24
10
0
20
0
30
0
70
128
71
29
72
30
73
28
0
SEQEND
8
OBJECT__24
0
POLYLINE
8
OBJECT__25
66
1
70
64
71
18
72
18
62
253
0
VERTEX
8
OBJECT__25
10
-13.499000
20
16.087000
30
149.699997
70
192
0
VERTEX
8
OBJECT__25
10
-20.681000
20
3.647000
30
149.699997
70
192
0
VERTEX
8
OBJECT__25
10
-13.541000
20
2.388000
30
149.699997
70
192
0
VERTEX
8
OBJECT__25
10
-18.187000
20
-10.500000
30
149.699997
70
192
0
VERTEX
8
OBJECT__25
10
-11.908000
20
-6.875000
30
149.699997
70
192
0
VERTEX
8
OBJECT__25
10
-7.182000
20
-19.733999
30
149.699997
70
192
0
VERTEX
8
OBJECT__25
10
-4.703000
20
-12.921000
30
149.699997
70
192
0
VERTEX
8
OBJECT__25
10
7.182000
20
-19.733999
30
149.699997
70
192
0
VERTEX
8
OBJECT__25
10
4.703000
20
-12.921000
30
149.699997
70
192
0
VERTEX
8
OBJECT__25
10
0.000000
20
21.000000
30
149.699997
70
192
0
VERTEX
8
OBJECT__25
10
-8.838000
20
10.533000
30
149.699997
70
192
0
VERTEX
8
OBJECT__25
10
18.187000
20
-10.500000
30
149.699997
70
192
0
VERTEX
8
OBJECT__25
10
11.908000
20
-6.875000
30
149.699997
70
192
0
VERTEX
8
OBJECT__25
10
20.681000
20
3.647000
30
149.699997
70
192
0
VERTEX
8
OBJECT__25
10
13.499000
20
16.087000
30
149.699997
70
192
0
VERTEX
8
OBJECT__25
10
8.838000
20
10.533000
30
149.699997
70
192
0
VERTEX
8
OBJECT__25
10
0.000000
20
13.750000
30
149.699997
70
192
0
VERTEX
8
OBJECT__25
10
13.541000
20
2.388000
30
149.699997
70
192
0
VERTEX
8
OBJECT__25
10
0
20
0
30
0
70
128
71
1
72
2
73
3
0
VERTEX
8
OBJECT__25
10
0
20
0
30
0
70
128
71
2
72
4
73
5
0
VERTEX
8
OBJECT__25
10
0
20
0
30
0
70
128
71
4
72
6
73
7
0
VERTEX
8
OBJECT__25
10
0
20
0
30
0
70
128
71
6
72
8
73
9
0
VERTEX
8
OBJECT__25
10
0
20
0
30
0
70
128
71
10
72
1
73
11
0
VERTEX
8
OBJECT__25
10
0
20
0
30
0
70
128
71
5
72
3
73
2
0
VERTEX
8
OBJECT__25
10
0
20
0
30
0
70
128
71
9
72
7
73
6
0
VERTEX
8
OBJECT__25
10
0
20
0
30
0
70
128
71
8
72
12
73
13
0
VERTEX
8
OBJECT__25
10
0
20
0
30
0
70
128
71
3
72
11
73
1
0
VERTEX
8
OBJECT__25
10
0
20
0
30
0
70
128
71
13
72
9
73
8
0
VERTEX
8
OBJECT__25
10
0
20
0
30
0
70
128
71
14
72
15
73
16
0
VERTEX
8
OBJECT__25
10
0
20
0
30
0
70
128
71
15
72
10
73
17
0
VERTEX
8
OBJECT__25
10
0
20
0
30
0
70
128
71
7
72
5
73
4
0
VERTEX
8
OBJECT__25
10
0
20
0
30
0
70
128
71
14
72
18
73
13
0
VERTEX
8
OBJECT__25
10
0
20
0
30
0
70
128
71
17
72
16
73
15
0
VERTEX
8
OBJECT__25
10
0
20
0
30
0
70
128
71
13
72
12
73
14
0
VERTEX
8
OBJECT__25
10
0
20
0
30
0
70
128
71
11
72
17
73
10
0
VERTEX
8
OBJECT__25
10
0
20
0
30
0
70
128
71
16
72
18
73
14
0
SEQEND
8
OBJECT__25
0
POLYLINE
8
OBJECT__26
66
1
70
64
71
18
72
18
62
253
0
VERTEX
8
OBJECT__26
10
13.499000
20
16.087000
30
149.699997
70
192
0
VERTEX
8
OBJECT__26
10
13.499000
20
16.087000
30
146.949997
70
192
0
VERTEX
8
OBJECT__26
10
0.000000
20
21.000000
30
146.949997
70
192
0
VERTEX
8
OBJECT__26
10
20.681000
20
3.647000
30
149.699997
70
192
0
VERTEX
8
OBJECT__26
10
20.681000
20
3.647000
30
146.949997
70
192
0
VERTEX
8
OBJECT__26
10
18.187000
20
-10.500000
30
149.699997
70
192
0
VERTEX
8
OBJECT__26
10
18.187000
20
-10.500000
30
146.949997
70
192
0
VERTEX
8
OBJECT__26
10
7.182000
20
-19.733999
30
149.699997
70
192
0
VERTEX
8
OBJECT__26
10
7.182000
20
-19.733999
30
146.949997
70
192
0
VERTEX
8
OBJECT__26
10
-7.182000
20
-19.733999
30
146.949997
70
192
0
VERTEX
8
OBJECT__26
10
-18.187000
20
-10.500000
30
146.949997
70
192
0
VERTEX
8
OBJECT__26
10
-7.182000
20
-19.733999
30
149.699997
70
192
0
VERTEX
8
OBJECT__26
10
-20.681000
20
3.647000
30
149.699997
70
192
0
VERTEX
8
OBJECT__26
10
-20.681000
20
3.647000
30
146.949997
70
192
0
VERTEX
8
OBJECT__26
10
-13.499000
20
16.087000
30
149.699997
70
192
0
VERTEX
8
OBJECT__26
10
-13.499000
20
16.087000
30
146.949997
70
192
0
VERTEX
8
OBJECT__26
10
0.000000
20
21.000000
30
149.699997
70
192
0
VERTEX
8
OBJECT__26
10
-18.187000
20
-10.500000
30
149.699997
70
192
0
VERTEX
8
OBJECT__26
10
0
20
0
30
0
70
128
71
1
72
2
73
3
0
VERTEX
8
OBJECT__26
10
0
20
0
30
0
70
128
71
4
72
5
73
2
0
VERTEX
8
OBJECT__26
10
0
20
0
30
0
70
128
71
6
72
7
73
5
0
VERTEX
8
OBJECT__26
10
0
20
0
30
0
70
128
71
6
72
8
73
9
0
VERTEX
8
OBJECT__26
10
0
20
0
30
0
70
128
71
10
72
9
73
8
0
VERTEX
8
OBJECT__26
10
0
20
0
30
0
70
128
71
11
72
10
73
12
0
VERTEX
8
OBJECT__26
10
0
20
0
30
0
70
128
71
13
72
14
73
11
0
VERTEX
8
OBJECT__26
10
0
20
0
30
0
70
128
71
15
72
16
73
14
0
VERTEX
8
OBJECT__26
10
0
20
0
30
0
70
128
71
16
72
15
73
17
0
VERTEX
8
OBJECT__26
10
0
20
0
30
0
70
128
71
17
72
3
73
16
0
VERTEX
8
OBJECT__26
10
0
20
0
30
0
70
128
71
14
72
13
73
15
0
VERTEX
8
OBJECT__26
10
0
20
0
30
0
70
128
71
11
72
18
73
13
0
VERTEX
8
OBJECT__26
10
0
20
0
30
0
70
128
71
12
72
18
73
11
0
VERTEX
8
OBJECT__26
10
0
20
0
30
0
70
128
71
8
72
12
73
10
0
VERTEX
8
OBJECT__26
10
0
20
0
30
0
70
128
71
9
72
7
73
6
0
VERTEX
8
OBJECT__26
10
0
20
0
30
0
70
128
71
5
72
4
73
6
0
VERTEX
8
OBJECT__26
10
0
20
0
30
0
70
128
71
2
72
1
73
4
0
VERTEX
8
OBJECT__26
10
0
20
0
30
0
70
128
71
3
72
17
73
1
0
SEQEND
8
OBJECT__26
0
POLYLINE
8
OBJECT__28
66
1
70
64
71
39
72
43
62
253
0
VERTEX
8
OBJECT__28
10
-17.059999
20
3.900000
30
146.949997
70
192
0
VERTEX
8
OBJECT__28
10
-15.564000
20
8.000000
30
146.949997
70
192
0
VERTEX
8
OBJECT__28
10
-13.972000
20
8.000000
30
146.949997
70
192
0
VERTEX
8
OBJECT__28
10
-5.525000
20
15.122000
30
146.949997
70
192
0
VERTEX
8
OBJECT__28
10
-4.693000
20
10.772000
30
146.949997
70
192
0
VERTEX
8
OBJECT__28
10
-11.084000
20
3.900000
30
146.949997
70
192
0
VERTEX
8
OBJECT__28
10
17.059999
20
3.900000
30
146.949997
70
192
0
VERTEX
8
OBJECT__28
10
11.084000
20
3.900000
30
146.949997
70
192
0
VERTEX
8
OBJECT__28
10
13.972000
20
8.000000
30
146.949997
70
192
0
VERTEX
8
OBJECT__28
10
-20.681000
20
3.647000
30
146.949997
70
192
0
VERTEX
8
OBJECT__28
10
5.525000
20
15.122000
30
146.949997
70
192
0
VERTEX
8
OBJECT__28
10
4.693000
20
10.772000
30
146.949997
70
192
0
VERTEX
8
OBJECT__28
10
15.564000
20
8.000000
30
146.949997
70
192
0
VERTEX
8
OBJECT__28
10
20.681000
20
3.647000
30
146.949997
70
192
0
VERTEX
8
OBJECT__28
10
13.972000
20
-8.000000
30
146.949997
70
192
0
VERTEX
8
OBJECT__28
10
5.525000
20
-15.122000
30
146.949997
70
192
0
VERTEX
8
OBJECT__28
10
4.693000
20
-10.772000
30
146.949997
70
192
0
VERTEX
8
OBJECT__28
10
17.059999
20
-3.900000
30
146.949997
70
192
0
VERTEX
8
OBJECT__28
10
15.564000
20
-8.000000
30
146.949997
70
192
0
VERTEX
8
OBJECT__28
10
-17.059999
20
-3.900000
30
146.949997
70
192
0
VERTEX
8
OBJECT__28
10
11.084000
20
-3.900000
30
146.949997
70
192
0
VERTEX
8
OBJECT__28
10
-5.525000
20
-15.122000
30
146.949997
70
192
0
VERTEX
8
OBJECT__28
10
-4.693000
20
-10.772000
30
146.949997
70
192
0
VERTEX
8
OBJECT__28
10
-11.084000
20
-3.900000
30
146.949997
70
192
0
VERTEX
8
OBJECT__28
10
-13.972000
20
-8.000000
30
146.949997
70
192
0
VERTEX
8
OBJECT__28
10
18.187000
20
-10.500000
30
146.949997
70
192
0
VERTEX
8
OBJECT__28
10
7.182000
20
-19.733999
30
146.949997
70
192
0
VERTEX
8
OBJECT__28
10
9.117000
20
-14.937000
30
146.949997
70
192
0
VERTEX
8
OBJECT__28
10
-7.182000
20
-19.733999
30
146.949997
70
192
0
VERTEX
8
OBJECT__28
10
0.000000
20
-17.500000
30
146.949997
70
192
0
VERTEX
8
OBJECT__28
10
0.000000
20
21.000000
30
146.949997
70
192
0
VERTEX
8
OBJECT__28
10
13.499000
20
16.087000
30
146.949997
70
192
0
VERTEX
8
OBJECT__28
10
9.117000
20
14.937000
30
146.949997
70
192
0
VERTEX
8
OBJECT__28
10
-9.117000
20
-14.937000
30
146.949997
70
192
0
VERTEX
8
OBJECT__28
10
-18.187000
20
-10.500000
30
146.949997
70
192
0
VERTEX
8
OBJECT__28
10
-15.564000
20
-8.000000
30
146.949997
70
192
0
VERTEX
8
OBJECT__28
10
0.000000
20
17.500000
30
146.949997
70
192
0
VERTEX
8
OBJECT__28
10
-9.117000
20
14.937000
30
146.949997
70
192
0
VERTEX
8
OBJECT__28
10
-13.499000
20
16.087000
30
146.949997
70
192
0
VERTEX
8
OBJECT__28
10
0
20
0
30
0
70
128
71
1
72
2
73
3
0
VERTEX
8
OBJECT__28
10
0
20
0
30
0
70
128
71
3
72
4
73
5
0
VERTEX
8
OBJECT__28
10
0
20
0
30
0
70
128
71
3
72
6
73
1
0
VERTEX
8
OBJECT__28
10
0
20
0
30
0
70
128
71
7
72
8
73
9
0
VERTEX
8
OBJECT__28
10
0
20
0
30
0
70
128
71
1
72
10
73
2
0
VERTEX
8
OBJECT__28
10
0
20
0
30
0
70
128
71
11
72
12
73
5
0
VERTEX
8
OBJECT__28
10
0
20
0
30
0
70
128
71
13
72
14
73
7
0
VERTEX
8
OBJECT__28
10
0
20
0
30
0
70
128
71
9
72
8
73
12
0
VERTEX
8
OBJECT__28
10
0
20
0
30
0
70
128
71
5
72
4
73
11
0
VERTEX
8
OBJECT__28
10
0
20
0
30
0
70
128
71
12
72
11
73
9
0
VERTEX
8
OBJECT__28
10
0
20
0
30
0
70
128
71
15
72
16
73
17
0
VERTEX
8
OBJECT__28
10
0
20
0
30
0
70
128
71
18
72
19
73
15
0
VERTEX
8
OBJECT__28
10
0
20
0
30
0
70
128
71
10
72
1
73
20
0
VERTEX
8
OBJECT__28
10
0
20
0
30
0
70
128
71
9
72
13
73
7
0
VERTEX
8
OBJECT__28
10
0
20
0
30
0
70
128
71
15
72
21
73
18
0
VERTEX
8
OBJECT__28
10
0
20
0
30
0
70
128
71
16
72
22
73
23
0
VERTEX
8
OBJECT__28
10
0
20
0
30
0
70
128
71
20
72
24
73
25
0
VERTEX
8
OBJECT__28
10
0
20
0
30
0
70
128
71
25
72
24
73
23
0
VERTEX
8
OBJECT__28
10
0
20
0
30
0
70
128
71
26
72
27
73
28
0
VERTEX
8
OBJECT__28
10
0
20
0
30
0
70
128
71
27
72
29
73
30
0
VERTEX
8
OBJECT__28
10
0
20
0
30
0
70
128
71
31
72
32
73
33
0
VERTEX
8
OBJECT__28
10
0
20
0
30
0
70
128
71
32
72
14
73
13
0
VERTEX
8
OBJECT__28
10
0
20
0
30
0
70
128
71
5
72
6
73
3
0
VERTEX
8
OBJECT__28
10
0
20
0
30
0
70
128
71
14
72
19
73
18
0
VERTEX
8
OBJECT__28
10
0
20
0
30
0
70
128
71
23
72
17
73
16
0
VERTEX
8
OBJECT__28
10
0
20
0
30
0
70
128
71
23
72
22
73
25
0
VERTEX
8
OBJECT__28
10
0
20
0
30
0
70
128
71
28
72
19
73
26
0
VERTEX
8
OBJECT__28
10
0
20
0
30
0
70
128
71
29
72
34
73
30
0
VERTEX
8
OBJECT__28
10
0
20
0
30
0
70
128
71
35
72
36
73
34
0
VERTEX
8
OBJECT__28
10
0
20
0
30
0
70
128
71
31
72
37
73
38
0
VERTEX
8
OBJECT__28
10
0
20
0
30
0
70
128
71
13
72
33
73
32
0
VERTEX
8
OBJECT__28
10
0
20
0
30
0
70
128
71
18
72
7
73
14
0
VERTEX
8
OBJECT__28
10
0
20
0
30
0
70
128
71
25
72
36
73
20
0
VERTEX
8
OBJECT__28
10
0
20
0
30
0
70
128
71
30
72
28
73
27
0
VERTEX
8
OBJECT__28
10
0
20
0
30
0
70
128
71
35
72
20
73
36
0
VERTEX
8
OBJECT__28
10
0
20
0
30
0
70
128
71
39
72
38
73
2
0
VERTEX
8
OBJECT__28
10
0
20
0
30
0
70
128
71
33
72
37
73
31
0
VERTEX
8
OBJECT__28
10
0
20
0
30
0
70
128
71
17
72
21
73
15
0
VERTEX
8
OBJECT__28
10
0
20
0
30
0
70
128
71
34
72
29
73
35
0
VERTEX
8
OBJECT__28
10
0
20
0
30
0
70
128
71
38
72
39
73
31
0
VERTEX
8
OBJECT__28
10
0
20
0
30
0
70
128
71
19
72
14
73
26
0
VERTEX
8
OBJECT__28
10
0
20
0
30
0
70
128
71
20
72
35
73
10
0
VERTEX
8
OBJECT__28
10
0
20
0
30
0
70
128
71
2
72
10
73
39
0
SEQEND
8
OBJECT__28
0
POLYLINE
8
OBJECT__29
66
1
70
64
71
7
72
5
62
253
0
VERTEX
8
OBJECT__29
10
228.210007
20
14.624000
30
264.010010
70
192
0
VERTEX
8
OBJECT__29
10
238.348007
20
6.508000
30
264.895996
70
192
0
VERTEX
8
OBJECT__29
10
238.348007
20
-6.508000
30
264.895996
70
192
0
VERTEX
8
OBJECT__29
10
228.210007
20
-14.624000
30
264.010010
70
192
0
VERTEX
8
OBJECT__29
10
215.569000
20
-11.727000
30
262.903992
70
192
0
VERTEX
8
OBJECT__29
10
209.942001
20
0.000000
30
262.411011
70
192
0
VERTEX
8
OBJECT__29
10
215.569000
20
11.727000
30
262.903992
70
192
0
VERTEX
8
OBJECT__29
10
0
20
0
30
0
70
128
71
1
72
2
73
3
0
VERTEX
8
OBJECT__29
10
0
20
0
30
0
70
128
71
3
72
4
73
1
0
VERTEX
8
OBJECT__29
10
0
20
0
30
0
70
128
71
5
72
6
73
7
0
VERTEX
8
OBJECT__29
10
0
20
0
30
0
70
128
71
7
72
1
73
5
0
VERTEX
8
OBJECT__29
10
0
20
0
30
0
70
128
71
4
72
5
73
1
0
SEQEND
8
OBJECT__29
0
POLYLINE
8
OBJECT__30
66
1
70
64
71
23
72
23
62
253
0
VERTEX
8
OBJECT__30
10
209.942001
20
0.000000
30
262.411011
70
192
0
VERTEX
8
OBJECT__30
10
215.569000
20
-11.727000
30
262.903992
70
192
0
VERTEX
8
OBJECT__30
10
210.487000
20
-8.817000
30
289.059998
70
192
0
VERTEX
8
OBJECT__30
10
213.679993
20
-11.146000
30
289.339996
70
192
0
VERTEX
8
OBJECT__30
10
228.210007
20
-14.624000
30
264.010010
70
192
0
VERTEX
8
OBJECT__30
10
225.901001
20
-14.266000
30
290.408997
70
192
0
VERTEX
8
OBJECT__30
10
217.957993
20
-14.266000
30
289.713989
70
192
0
VERTEX
8
OBJECT__30
10
238.348007
20
-6.508000
30
264.895996
70
192
0
VERTEX
8
OBJECT__30
10
234.664993
20
-8.817000
30
291.174988
70
192
0
VERTEX
8
OBJECT__30
10
235.472000
20
-6.323000
30
291.246002
70
192
0
VERTEX
8
OBJECT__30
10
227.192993
20
-14.266000
30
290.522003
70
192
0
VERTEX
8
OBJECT__30
10
238.348007
20
6.508000
30
264.895996
70
192
0
VERTEX
8
OBJECT__30
10
237.518997
20
0.000000
30
291.424988
70
192
0
VERTEX
8
OBJECT__30
10
235.472000
20
6.323000
30
291.246002
70
192
0
VERTEX
8
OBJECT__30
10
228.210007
20
14.624000
30
264.010010
70
192
0
VERTEX
8
OBJECT__30
10
227.192993
20
14.266000
30
290.522003
70
192
0
VERTEX
8
OBJECT__30
10
234.664993
20
8.817000
30
291.174988
70
192
0
VERTEX
8
OBJECT__30
10
225.901001
20
14.266000
30
290.408997
70
192
0
VERTEX
8
OBJECT__30
10
215.569000
20
11.727000
30
262.903992
70
192
0
VERTEX
8
OBJECT__30
10
217.957993
20
14.266000
30
289.713989
70
192
0
VERTEX
8
OBJECT__30
10
213.679993
20
11.146000
30
289.339996
70
192
0
VERTEX
8
OBJECT__30
10
207.632996
20
0.000000
30
288.809998
70
192
0
VERTEX
8
OBJECT__30
10
210.487000
20
8.817000
30
289.059998
70
192
0
VERTEX
8
OBJECT__30
10
0
20
0
30
0
70
128
71
1
72
2
73
3
0
VERTEX
8
OBJECT__30
10
0
20
0
30
0
70
128
71
2
72
4
73
3
0
VERTEX
8
OBJECT__30
10
0
20
0
30
0
70
128
71
5
72
6
73
7
0
VERTEX
8
OBJECT__30
10
0
20
0
30
0
70
128
71
7
72
2
73
5
0
VERTEX
8
OBJECT__30
10
0
20
0
30
0
70
128
71
5
72
8
73
9
0
VERTEX
8
OBJECT__30
10
0
20
0
30
0
70
128
71
8
72
10
73
9
0
VERTEX
8
OBJECT__30
10
0
20
0
30
0
70
128
71
9
72
11
73
5
0
VERTEX
8
OBJECT__30
10
0
20
0
30
0
70
128
71
8
72
12
73
13
0
VERTEX
8
OBJECT__30
10
0
20
0
30
0
70
128
71
12
72
14
73
13
0
VERTEX
8
OBJECT__30
10
0
20
0
30
0
70
128
71
15
72
16
73
17
0
VERTEX
8
OBJECT__30
10
0
20
0
30
0
70
128
71
17
72
12
73
15
0
VERTEX
8
OBJECT__30
10
0
20
0
30
0
70
128
71
15
72
18
73
16
0
VERTEX
8
OBJECT__30
10
0
20
0
30
0
70
128
71
15
72
19
73
20
0
VERTEX
8
OBJECT__30
10
0
20
0
30
0
70
128
71
19
72
21
73
20
0
VERTEX
8
OBJECT__30
10
0
20
0
30
0
70
128
71
1
72
22
73
23
0
VERTEX
8
OBJECT__30
10
0
20
0
30
0
70
128
71
23
72
19
73
1
0
VERTEX
8
OBJECT__30
10
0
20
0
30
0
70
128
71
23
72
21
73
19
0
VERTEX
8
OBJECT__30
10
0
20
0
30
0
70
128
71
20
72
18
73
15
0
VERTEX
8
OBJECT__30
10
0
20
0
30
0
70
128
71
17
72
14
73
12
0
VERTEX
8
OBJECT__30
10
0
20
0
30
0
70
128
71
13
72
10
73
8
0
VERTEX
8
OBJECT__30
10
0
20
0
30
0
70
128
71
11
72
6
73
5
0
VERTEX
8
OBJECT__30
10
0
20
0
30
0
70
128
71
7
72
4
73
2
0
VERTEX
8
OBJECT__30
10
0
20
0
30
0
70
128
71
3
72
22
73
1
0
SEQEND
8
OBJECT__30
0
POLYLINE
8
OBJECT__32
66
1
70
64
71
173
72
313
62
253
0
VERTEX
8
OBJECT__32
10
210.487000
20
8.817000
30
289.059998
70
192
0
VERTEX
8
OBJECT__32
10
207.632996
20
0.000000
30
288.809998
70
192
0
VERTEX
8
OBJECT__32
10
203.945999
20
0.000000
30
308.075989
70
192
0
VERTEX
8
OBJECT__32
10
196.438995
20
0.000000
30
326.199005
70
192
0
VERTEX
8
OBJECT__32
10
198.960999
20
8.817000
30
327.558014
70
192
0
VERTEX
8
OBJECT__32
10
185.423004
20
0.000000
30
342.428986
70
192
0
VERTEX
8
OBJECT__32
10
187.617996
20
8.817000
30
344.269989
70
192
0
VERTEX
8
OBJECT__32
10
171.352997
20
0.000000
30
356.096008
70
192
0
VERTEX
8
OBJECT__32
10
173.130005
20
8.817000
30
358.342987
70
192
0
VERTEX
8
OBJECT__32
10
154.809006
20
0.000000
30
366.635010
70
192
0
VERTEX
8
OBJECT__32
10
156.095001
20
8.817000
30
369.195007
70
192
0
VERTEX
8
OBJECT__32
10
136.475998
20
0.000000
30
373.612000
70
192
0
VERTEX
8
OBJECT__32
10
137.216995
20
8.817000
30
376.378998
70
192
0
VERTEX
8
OBJECT__32
10
117.111000
20
0.000000
30
376.737000
70
192
0
VERTEX
8
OBJECT__32
10
117.278000
20
8.817000
30
379.596985
70
192
0
VERTEX
8
OBJECT__32
10
97.514000
20
0.000000
30
375.881012
70
192
0
VERTEX
8
OBJECT__32
10
97.098999
20
8.817000
30
378.716003
70
192
0
VERTEX
8
OBJECT__32
10
78.495003
20
0.000000
30
371.079987
70
192
0
VERTEX
8
OBJECT__32
10
77.514999
20
8.817000
30
373.772003
70
192
0
VERTEX
8
OBJECT__32
10
60.840000
20
0.000000
30
362.532990
70
192
0
VERTEX
8
OBJECT__32
10
59.335999
20
8.817000
30
364.971008
70
192
0
VERTEX
8
OBJECT__32
10
45.278000
20
0.000000
30
350.591003
70
192
0
VERTEX
8
OBJECT__32
10
43.312000
20
8.817000
30
352.674988
70
192
0
VERTEX
8
OBJECT__32
10
32.452000
20
0.000000
30
335.750000
70
192
0
VERTEX
8
OBJECT__32
10
30.105000
20
8.817000
30
337.393005
70
192
0
VERTEX
8
OBJECT__32
10
22.892000
20
0.000000
30
318.622009
70
192
0
VERTEX
8
OBJECT__32
10
20.261999
20
8.817000
30
319.756012
70
192
0
VERTEX
8
OBJECT__32
10
16.993999
20
0.000000
30
299.914001
70
192
0
VERTEX
8
OBJECT__32
10
14.188000
20
8.817000
30
300.493011
70
192
0
VERTEX
8
OBJECT__32
10
15.000000
20
0.000000
30
280.399994
70
192
0
VERTEX
8
OBJECT__32
10
206.690002
20
8.817000
30
308.898010
70
192
0
VERTEX
8
OBJECT__32
10
213.875000
20
14.266000
30
311.049011
70
192
0
VERTEX
8
OBJECT__32
10
213.679993
20
11.146000
30
289.339996
70
192
0
VERTEX
8
OBJECT__32
10
217.957993
20
14.266000
30
289.713989
70
192
0
VERTEX
8
OBJECT__32
10
205.561996
20
14.266000
30
331.118011
70
192
0
VERTEX
8
OBJECT__32
10
193.363007
20
14.266000
30
349.091003
70
192
0
VERTEX
8
OBJECT__32
10
177.781006
20
14.266000
30
364.226013
70
192
0
VERTEX
8
OBJECT__32
10
159.460999
20
14.266000
30
375.898010
70
192
0
VERTEX
8
OBJECT__32
10
139.158997
20
14.266000
30
383.622986
70
192
0
VERTEX
8
OBJECT__32
10
117.713997
20
14.266000
30
387.084015
70
192
0
VERTEX
8
OBJECT__32
10
96.012001
20
14.266000
30
386.135986
70
192
0
VERTEX
8
OBJECT__32
10
74.949997
20
14.266000
30
380.820007
70
192
0
VERTEX
8
OBJECT__32
10
55.398998
20
14.266000
30
371.354004
70
192
0
VERTEX
8
OBJECT__32
10
38.165001
20
14.266000
30
358.131012
70
192
0
VERTEX
8
OBJECT__32
10
23.962000
20
14.266000
30
341.695007
70
192
0
VERTEX
8
OBJECT__32
10
13.375000
20
14.266000
30
322.726990
70
192
0
VERTEX
8
OBJECT__32
10
6.843000
20
14.266000
30
302.010010
70
192
0
VERTEX
8
OBJECT__32
10
11.614000
20
9.196000
30
280.399994
70
192
0
VERTEX
8
OBJECT__32
10
12.135000
20
8.817000
30
280.399994
70
192
0
VERTEX
8
OBJECT__32
10
225.901001
20
14.266000
30
290.408997
70
192
0
VERTEX
8
OBJECT__32
10
222.755997
20
14.266000
30
313.708008
70
192
0
VERTEX
8
OBJECT__32
10
227.192993
20
14.266000
30
290.522003
70
192
0
VERTEX
8
OBJECT__32
10
213.722000
20
14.266000
30
335.518005
70
192
0
VERTEX
8
OBJECT__32
10
200.464996
20
14.266000
30
355.049988
70
192
0
VERTEX
8
OBJECT__32
10
183.531006
20
14.266000
30
371.497986
70
192
0
VERTEX
8
OBJECT__32
10
163.621002
20
14.266000
30
384.182007
70
192
0
VERTEX
8
OBJECT__32
10
141.557999
20
14.266000
30
392.578003
70
192
0
VERTEX
8
OBJECT__32
10
118.252998
20
14.266000
30
396.338989
70
192
0
VERTEX
8
OBJECT__32
10
94.667999
20
14.266000
30
395.308990
70
192
0
VERTEX
8
OBJECT__32
10
71.778999
20
14.266000
30
389.531006
70
192
0
VERTEX
8
OBJECT__32
10
50.532001
20
14.266000
30
379.244995
70
192
0
VERTEX
8
OBJECT__32
10
31.802999
20
14.266000
30
364.873993
70
192
0
VERTEX
8
OBJECT__32
10
16.368000
20
14.266000
30
347.011993
70
192
0
VERTEX
8
OBJECT__32
10
4.863000
20
14.266000
30
326.398987
70
192
0
VERTEX
8
OBJECT__32
10
-2.236000
20
14.266000
30
303.885010
70
192
0
VERTEX
8
OBJECT__32
10
0.000000
20
14.266000
30
280.399994
70
192
0
VERTEX
8
OBJECT__32
10
4.635000
20
14.266000
30
280.399994
70
192
0
VERTEX
8
OBJECT__32
10
229.940994
20
8.817000
30
315.859009
70
192
0
VERTEX
8
OBJECT__32
10
234.664993
20
8.817000
30
291.174988
70
192
0
VERTEX
8
OBJECT__32
10
220.324005
20
8.817000
30
339.076996
70
192
0
VERTEX
8
OBJECT__32
10
206.210007
20
8.817000
30
359.871002
70
192
0
VERTEX
8
OBJECT__32
10
188.182999
20
8.817000
30
377.381012
70
192
0
VERTEX
8
OBJECT__32
10
166.987000
20
8.817000
30
390.884003
70
192
0
VERTEX
8
OBJECT__32
10
143.498993
20
8.817000
30
399.821991
70
192
0
VERTEX
8
OBJECT__32
10
118.689003
20
8.817000
30
403.825989
70
192
0
VERTEX
8
OBJECT__32
10
93.581001
20
8.817000
30
402.730011
70
192
0
VERTEX
8
OBJECT__32
10
69.213997
20
8.817000
30
396.579010
70
192
0
VERTEX
8
OBJECT__32
10
46.594002
20
8.817000
30
385.627991
70
192
0
VERTEX
8
OBJECT__32
10
26.656000
20
8.817000
30
370.329010
70
192
0
VERTEX
8
OBJECT__32
10
10.224000
20
8.817000
30
351.313995
70
192
0
VERTEX
8
OBJECT__32
10
-2.024000
20
8.817000
30
329.368988
70
192
0
VERTEX
8
OBJECT__32
10
-9.581000
20
8.817000
30
305.401001
70
192
0
VERTEX
8
OBJECT__32
10
-11.614000
20
9.196000
30
280.399994
70
192
0
VERTEX
8
OBJECT__32
10
-4.635000
20
14.266000
30
280.399994
70
192
0
VERTEX
8
OBJECT__32
10
232.686005
20
0.000000
30
316.681000
70
192
0
VERTEX
8
OBJECT__32
10
237.518997
20
0.000000
30
291.424988
70
192
0
VERTEX
8
OBJECT__32
10
235.472000
20
6.323000
30
291.246002
70
192
0
VERTEX
8
OBJECT__32
10
222.845001
20
0.000000
30
340.437012
70
192
0
VERTEX
8
OBJECT__32
10
208.404999
20
0.000000
30
361.713013
70
192
0
VERTEX
8
OBJECT__32
10
189.960007
20
0.000000
30
379.628998
70
192
0
VERTEX
8
OBJECT__32
10
168.272995
20
0.000000
30
393.444000
70
192
0
VERTEX
8
OBJECT__32
10
144.240997
20
0.000000
30
402.589996
70
192
0
VERTEX
8
OBJECT__32
10
118.855003
20
0.000000
30
406.686005
70
192
0
VERTEX
8
OBJECT__32
10
93.166000
20
0.000000
30
405.563995
70
192
0
VERTEX
8
OBJECT__32
10
68.234001
20
0.000000
30
399.270996
70
192
0
VERTEX
8
OBJECT__32
10
45.090000
20
0.000000
30
388.066010
70
192
0
VERTEX
8
OBJECT__32
10
24.690001
20
0.000000
30
372.412994
70
192
0
VERTEX
8
OBJECT__32
10
7.877000
20
0.000000
30
352.957001
70
192
0
VERTEX
8
OBJECT__32
10
-4.654000
20
0.000000
30
330.503998
70
192
0
VERTEX
8
OBJECT__32
10
-12.387000
20
0.000000
30
305.980011
70
192
0
VERTEX
8
OBJECT__32
10
-15.000000
20
0.000000
30
280.399994
70
192
0
VERTEX
8
OBJECT__32
10
229.940994
20
-8.817000
30
315.859009
70
192
0
VERTEX
8
OBJECT__32
10
235.472000
20
-6.323000
30
291.246002
70
192
0
VERTEX
8
OBJECT__32
10
234.664993
20
-8.817000
30
291.174988
70
192
0
VERTEX
8
OBJECT__32
10
220.324005
20
-8.817000
30
339.076996
70
192
0
VERTEX
8
OBJECT__32
10
206.210007
20
-8.817000
30
359.871002
70
192
0
VERTEX
8
OBJECT__32
10
188.182999
20
-8.817000
30
377.381012
70
192
0
VERTEX
8
OBJECT__32
10
166.987000
20
-8.817000
30
390.884003
70
192
0
VERTEX
8
OBJECT__32
10
143.498993
20
-8.817000
30
399.821991
70
192
0
VERTEX
8
OBJECT__32
10
118.689003
20
-8.817000
30
403.825989
70
192
0
VERTEX
8
OBJECT__32
10
93.581001
20
-8.817000
30
402.730011
70
192
0
VERTEX
8
OBJECT__32
10
69.213997
20
-8.817000
30
396.579010
70
192
0
VERTEX
8
OBJECT__32
10
46.594002
20
-8.817000
30
385.627991
70
192
0
VERTEX
8
OBJECT__32
10
26.656000
20
-8.817000
30
370.329010
70
192
0
VERTEX
8
OBJECT__32
10
10.224000
20
-8.817000
30
351.313995
70
192
0
VERTEX
8
OBJECT__32
10
-2.024000
20
-8.817000
30
329.368988
70
192
0
VERTEX
8
OBJECT__32
10
-9.581000
20
-8.817000
30
305.401001
70
192
0
VERTEX
8
OBJECT__32
10
-13.983000
20
-3.130000
30
280.399994
70
192
0
VERTEX
8
OBJECT__32
10
222.755997
20
-14.266000
30
313.708008
70
192
0
VERTEX
8
OBJECT__32
10
227.192993
20
-14.266000
30
290.522003
70
192
0
VERTEX
8
OBJECT__32
10
213.722000
20
-14.266000
30
335.518005
70
192
0
VERTEX
8
OBJECT__32
10
200.464996
20
-14.266000
30
355.049988
70
192
0
VERTEX
8
OBJECT__32
10
183.531006
20
-14.266000
30
371.497986
70
192
0
VERTEX
8
OBJECT__32
10
163.621002
20
-14.266000
30
384.182007
70
192
0
VERTEX
8
OBJECT__32
10
141.557999
20
-14.266000
30
392.578003
70
192
0
VERTEX
8
OBJECT__32
10
118.252998
20
-14.266000
30
396.338989
70
192
0
VERTEX
8
OBJECT__32
10
94.667999
20
-14.266000
30
395.308990
70
192
0
VERTEX
8
OBJECT__32
10
71.778999
20
-14.266000
30
389.531006
70
192
0
VERTEX
8
OBJECT__32
10
50.532001
20
-14.266000
30
379.244995
70
192
0
VERTEX
8
OBJECT__32
10
31.802999
20
-14.266000
30
364.873993
70
192
0
VERTEX
8
OBJECT__32
10
16.368000
20
-14.266000
30
347.011993
70
192
0
VERTEX
8
OBJECT__32
10
4.863000
20
-14.266000
30
326.398987
70
192
0
VERTEX
8
OBJECT__32
10
-2.236000
20
-14.266000
30
303.885010
70
192
0
VERTEX
8
OBJECT__32
10
-12.135000
20
-8.817000
30
280.399994
70
192
0
VERTEX
8
OBJECT__32
10
-6.218000
20
-13.116000
30
280.399994
70
192
0
VERTEX
8
OBJECT__32
10
225.901001
20
-14.266000
30
290.408997
70
192
0
VERTEX
8
OBJECT__32
10
213.875000
20
-14.266000
30
311.049011
70
192
0
VERTEX
8
OBJECT__32
10
217.957993
20
-14.266000
30
289.713989
70
192
0
VERTEX
8
OBJECT__32
10
205.561996
20
-14.266000
30
331.118011
70
192
0
VERTEX
8
OBJECT__32
10
193.363007
20
-14.266000
30
349.091003
70
192
0
VERTEX
8
OBJECT__32
10
177.781006
20
-14.266000
30
364.226013
70
192
0
VERTEX
8
OBJECT__32
10
159.460999
20
-14.266000
30
375.898010
70
192
0
VERTEX
8
OBJECT__32
10
139.158997
20
-14.266000
30
383.622986
70
192
0
VERTEX
8
OBJECT__32
10
117.713997
20
-14.266000
30
387.084015
70
192
0
VERTEX
8
OBJECT__32
10
96.012001
20
-14.266000
30
386.135986
70
192
0
VERTEX
8
OBJECT__32
10
74.949997
20
-14.266000
30
380.820007
70
192
0
VERTEX
8
OBJECT__32
10
55.398998
20
-14.266000
30
371.354004
70
192
0
VERTEX
8
OBJECT__32
10
38.165001
20
-14.266000
30
358.131012
70
192
0
VERTEX
8
OBJECT__32
10
23.962000
20
-14.266000
30
341.695007
70
192
0
VERTEX
8
OBJECT__32
10
13.375000
20
-14.266000
30
322.726990
70
192
0
VERTEX
8
OBJECT__32
10
6.843000
20
-14.266000
30
302.010010
70
192
0
VERTEX
8
OBJECT__32
10
-4.635000
20
-14.266000
30
280.399994
70
192
0
VERTEX
8
OBJECT__32
10
4.635000
20
-14.266000
30
280.399994
70
192
0
VERTEX
8
OBJECT__32
10
206.690002
20
-8.817000
30
308.898010
70
192
0
VERTEX
8
OBJECT__32
10
210.487000
20
-8.817000
30
289.059998
70
192
0
VERTEX
8
OBJECT__32
10
213.679993
20
-11.146000
30
289.339996
70
192
0
VERTEX
8
OBJECT__32
10
198.960999
20
-8.817000
30
327.558014
70
192
0
VERTEX
8
OBJECT__32
10
187.617996
20
-8.817000
30
344.269989
70
192
0
VERTEX
8
OBJECT__32
10
173.130005
20
-8.817000
30
358.342987
70
192
0
VERTEX
8
OBJECT__32
10
156.095001
20
-8.817000
30
369.195007
70
192
0
VERTEX
8
OBJECT__32
10
137.216995
20
-8.817000
30
376.378998
70
192
0
VERTEX
8
OBJECT__32
10
117.278000
20
-8.817000
30
379.596985
70
192
0
VERTEX
8
OBJECT__32
10
97.098999
20
-8.817000
30
378.716003
70
192
0
VERTEX
8
OBJECT__32
10
77.514999
20
-8.817000
30
373.772003
70
192
0
VERTEX
8
OBJECT__32
10
59.335999
20
-8.817000
30
364.971008
70
192
0
VERTEX
8
OBJECT__32
10
43.312000
20
-8.817000
30
352.674988
70
192
0
VERTEX
8
OBJECT__32
10
30.105000
20
-8.817000
30
337.393005
70
192
0
VERTEX
8
OBJECT__32
10
20.261999
20
-8.817000
30
319.756012
70
192
0
VERTEX
8
OBJECT__32
10
14.188000
20
-8.817000
30
300.493011
70
192
0
VERTEX
8
OBJECT__32
10
6.218000
20
-13.116000
30
280.399994
70
192
0
VERTEX
8
OBJECT__32
10
12.135000
20
-8.817000
30
280.399994
70
192
0
VERTEX
8
OBJECT__32
10
13.983000
20
-3.130000
30
280.399994
70
192
0
VERTEX
8
OBJECT__32
10
-12.135000
20
8.817000
30
280.399994
70
192
0
VERTEX
8
OBJECT__32
10
0
20
0
30
0
70
128
71
1
72
2
73
3
0
VERTEX
8
OBJECT__32
10
0
20
0
30
0
70
128
71
3
72
4
73
5
0
VERTEX
8
OBJECT__32
10
0
20
0
30
0
70
128
71
4
72
6
73
7
0
VERTEX
8
OBJECT__32
10
0
20
0
30
0
70
128
71
6
72
8
73
9
0
VERTEX
8
OBJECT__32
10
0
20
0
30
0
70
128
71
8
72
10
73
11
0
VERTEX
8
OBJECT__32
10
0
20
0
30
0
70
128
71
10
72
12
73
13
0
VERTEX
8
OBJECT__32
10
0
20
0
30
0
70
128
71
12
72
14
73
15
0
VERTEX
8
OBJECT__32
10
0
20
0
30
0
70
128
71
14
72
16
73
17
0
VERTEX
8
OBJECT__32
10
0
20
0
30
0
70
128
71
16
72
18
73
19
0
VERTEX
8
OBJECT__32
10
0
20
0
30
0
70
128
71
18
72
20
73
21
0
VERTEX
8
OBJECT__32
10
0
20
0
30
0
70
128
71
20
72
22
73
23
0
VERTEX
8
OBJECT__32
10
0
20
0
30
0
70
128
71
22
72
24
73
25
0
VERTEX
8
OBJECT__32
10
0
20
0
30
0
70
128
71
24
72
26
73
27
0
VERTEX
8
OBJECT__32
10
0
20
0
30
0
70
128
71
26
72
28
73
29
0
VERTEX
8
OBJECT__32
10
0
20
0
30
0
70
128
71
29
72
28
73
30
0
VERTEX
8
OBJECT__32
10
0
20
0
30
0
70
128
71
31
72
32
73
33
0
VERTEX
8
OBJECT__32
10
0
20
0
30
0
70
128
71
32
72
34
73
33
0
VERTEX
8
OBJECT__32
10
0
20
0
30
0
70
128
71
31
72
5
73
35
0
VERTEX
8
OBJECT__32
10
0
20
0
30
0
70
128
71
5
72
7
73
36
0
VERTEX
8
OBJECT__32
10
0
20
0
30
0
70
128
71
7
72
9
73
37
0
VERTEX
8
OBJECT__32
10
0
20
0
30
0
70
128
71
9
72
11
73
38
0
VERTEX
8
OBJECT__32
10
0
20
0
30
0
70
128
71
11
72
13
73
39
0
VERTEX
8
OBJECT__32
10
0
20
0
30
0
70
128
71
13
72
15
73
40
0
VERTEX
8
OBJECT__32
10
0
20
0
30
0
70
128
71
15
72
17
73
41
0
VERTEX
8
OBJECT__32
10
0
20
0
30
0
70
128
71
17
72
19
73
42
0
VERTEX
8
OBJECT__32
10
0
20
0
30
0
70
128
71
19
72
21
73
43
0
VERTEX
8
OBJECT__32
10
0
20
0
30
0
70
128
71
21
72
23
73
44
0
VERTEX
8
OBJECT__32
10
0
20
0
30
0
70
128
71
23
72
25
73
45
0
VERTEX
8
OBJECT__32
10
0
20
0
30
0
70
128
71
25
72
27
73
46
0
VERTEX
8
OBJECT__32
10
0
20
0
30
0
70
128
71
27
72
29
73
47
0
VERTEX
8
OBJECT__32
10
0
20
0
30
0
70
128
71
47
72
29
73
48
0
VERTEX
8
OBJECT__32
10
0
20
0
30
0
70
128
71
29
72
49
73
48
0
VERTEX
8
OBJECT__32
10
0
20
0
30
0
70
128
71
50
72
34
73
32
0
VERTEX
8
OBJECT__32
10
0
20
0
30
0
70
128
71
51
72
52
73
50
0
VERTEX
8
OBJECT__32
10
0
20
0
30
0
70
128
71
32
72
35
73
53
0
VERTEX
8
OBJECT__32
10
0
20
0
30
0
70
128
71
35
72
36
73
54
0
VERTEX
8
OBJECT__32
10
0
20
0
30
0
70
128
71
36
72
37
73
55
0
VERTEX
8
OBJECT__32
10
0
20
0
30
0
70
128
71
37
72
38
73
56
0
VERTEX
8
OBJECT__32
10
0
20
0
30
0
70
128
71
38
72
39
73
57
0
VERTEX
8
OBJECT__32
10
0
20
0
30
0
70
128
71
39
72
40
73
58
0
VERTEX
8
OBJECT__32
10
0
20
0
30
0
70
128
71
40
72
41
73
59
0
VERTEX
8
OBJECT__32
10
0
20
0
30
0
70
128
71
41
72
42
73
60
0
VERTEX
8
OBJECT__32
10
0
20
0
30
0
70
128
71
42
72
43
73
61
0
VERTEX
8
OBJECT__32
10
0
20
0
30
0
70
128
71
43
72
44
73
62
0
VERTEX
8
OBJECT__32
10
0
20
0
30
0
70
128
71
44
72
45
73
63
0
VERTEX
8
OBJECT__32
10
0
20
0
30
0
70
128
71
45
72
46
73
64
0
VERTEX
8
OBJECT__32
10
0
20
0
30
0
70
128
71
46
72
47
73
65
0
VERTEX
8
OBJECT__32
10
0
20
0
30
0
70
128
71
66
72
65
73
47
0
VERTEX
8
OBJECT__32
10
0
20
0
30
0
70
128
71
47
72
67
73
66
0
VERTEX
8
OBJECT__32
10
0
20
0
30
0
70
128
71
68
72
69
73
52
0
VERTEX
8
OBJECT__32
10
0
20
0
30
0
70
128
71
51
72
53
73
70
0
VERTEX
8
OBJECT__32
10
0
20
0
30
0
70
128
71
53
72
54
73
71
0
VERTEX
8
OBJECT__32
10
0
20
0
30
0
70
128
71
54
72
55
73
72
0
VERTEX
8
OBJECT__32
10
0
20
0
30
0
70
128
71
55
72
56
73
73
0
VERTEX
8
OBJECT__32
10
0
20
0
30
0
70
128
71
56
72
57
73
74
0
VERTEX
8
OBJECT__32
10
0
20
0
30
0
70
128
71
57
72
58
73
75
0
VERTEX
8
OBJECT__32
10
0
20
0
30
0
70
128
71
58
72
59
73
76
0
VERTEX
8
OBJECT__32
10
0
20
0
30
0
70
128
71
59
72
60
73
77
0
VERTEX
8
OBJECT__32
10
0
20
0
30
0
70
128
71
60
72
61
73
78
0
VERTEX
8
OBJECT__32
10
0
20
0
30
0
70
128
71
61
72
62
73
79
0
VERTEX
8
OBJECT__32
10
0
20
0
30
0
70
128
71
62
72
63
73
80
0
VERTEX
8
OBJECT__32
10
0
20
0
30
0
70
128
71
63
72
64
73
81
0
VERTEX
8
OBJECT__32
10
0
20
0
30
0
70
128
71
64
72
65
73
82
0
VERTEX
8
OBJECT__32
10
0
20
0
30
0
70
128
71
83
72
82
73
65
0
VERTEX
8
OBJECT__32
10
0
20
0
30
0
70
128
71
65
72
84
73
83
0
VERTEX
8
OBJECT__32
10
0
20
0
30
0
70
128
71
85
72
86
73
87
0
VERTEX
8
OBJECT__32
10
0
20
0
30
0
70
128
71
87
72
68
73
85
0
VERTEX
8
OBJECT__32
10
0
20
0
30
0
70
128
71
68
72
70
73
88
0
VERTEX
8
OBJECT__32
10
0
20
0
30
0
70
128
71
70
72
71
73
89
0
VERTEX
8
OBJECT__32
10
0
20
0
30
0
70
128
71
71
72
72
73
90
0
VERTEX
8
OBJECT__32
10
0
20
0
30
0
70
128
71
72
72
73
73
91
0
VERTEX
8
OBJECT__32
10
0
20
0
30
0
70
128
71
73
72
74
73
92
0
VERTEX
8
OBJECT__32
10
0
20
0
30
0
70
128
71
74
72
75
73
93
0
VERTEX
8
OBJECT__32
10
0
20
0
30
0
70
128
71
75
72
76
73
94
0
VERTEX
8
OBJECT__32
10
0
20
0
30
0
70
128
71
76
72
77
73
95
0
VERTEX
8
OBJECT__32
10
0
20
0
30
0
70
128
71
77
72
78
73
96
0
VERTEX
8
OBJECT__32
10
0
20
0
30
0
70
128
71
78
72
79
73
97
0
VERTEX
8
OBJECT__32
10
0
20
0
30
0
70
128
71
79
72
80
73
98
0
VERTEX
8
OBJECT__32
10
0
20
0
30
0
70
128
71
80
72
81
73
99
0
VERTEX
8
OBJECT__32
10
0
20
0
30
0
70
128
71
81
72
82
73
100
0
VERTEX
8
OBJECT__32
10
0
20
0
30
0
70
128
71
101
72
100
73
82
0
VERTEX
8
OBJECT__32
10
0
20
0
30
0
70
128
71
85
72
102
73
103
0
VERTEX
8
OBJECT__32
10
0
20
0
30
0
70
128
71
102
72
104
73
103
0
VERTEX
8
OBJECT__32
10
0
20
0
30
0
70
128
71
85
72
88
73
105
0
VERTEX
8
OBJECT__32
10
0
20
0
30
0
70
128
71
88
72
89
73
106
0
VERTEX
8
OBJECT__32
10
0
20
0
30
0
70
128
71
89
72
90
73
107
0
VERTEX
8
OBJECT__32
10
0
20
0
30
0
70
128
71
90
72
91
73
108
0
VERTEX
8
OBJECT__32
10
0
20
0
30
0
70
128
71
91
72
92
73
109
0
VERTEX
8
OBJECT__32
10
0
20
0
30
0
70
128
71
92
72
93
73
110
0
VERTEX
8
OBJECT__32
10
0
20
0
30
0
70
128
71
93
72
94
73
111
0
VERTEX
8
OBJECT__32
10
0
20
0
30
0
70
128
71
94
72
95
73
112
0
VERTEX
8
OBJECT__32
10
0
20
0
30
0
70
128
71
95
72
96
73
113
0
VERTEX
8
OBJECT__32
10
0
20
0
30
0
70
128
71
96
72
97
73
114
0
VERTEX
8
OBJECT__32
10
0
20
0
30
0
70
128
71
97
72
98
73
115
0
VERTEX
8
OBJECT__32
10
0
20
0
30
0
70
128
71
98
72
99
73
116
0
VERTEX
8
OBJECT__32
10
0
20
0
30
0
70
128
71
99
72
100
73
117
0
VERTEX
8
OBJECT__32
10
0
20
0
30
0
70
128
71
117
72
100
73
118
0
VERTEX
8
OBJECT__32
10
0
20
0
30
0
70
128
71
100
72
101
73
118
0
VERTEX
8
OBJECT__32
10
0
20
0
30
0
70
128
71
102
72
119
73
120
0
VERTEX
8
OBJECT__32
10
0
20
0
30
0
70
128
71
102
72
105
73
121
0
VERTEX
8
OBJECT__32
10
0
20
0
30
0
70
128
71
105
72
106
73
122
0
VERTEX
8
OBJECT__32
10
0
20
0
30
0
70
128
71
106
72
107
73
123
0
VERTEX
8
OBJECT__32
10
0
20
0
30
0
70
128
71
107
72
108
73
124
0
VERTEX
8
OBJECT__32
10
0
20
0
30
0
70
128
71
108
72
109
73
125
0
VERTEX
8
OBJECT__32
10
0
20
0
30
0
70
128
71
109
72
110
73
126
0
VERTEX
8
OBJECT__32
10
0
20
0
30
0
70
128
71
110
72
111
73
127
0
VERTEX
8
OBJECT__32
10
0
20
0
30
0
70
128
71
111
72
112
73
128
0
VERTEX
8
OBJECT__32
10
0
20
0
30
0
70
128
71
112
72
113
73
129
0
VERTEX
8
OBJECT__32
10
0
20
0
30
0
70
128
71
113
72
114
73
130
0
VERTEX
8
OBJECT__32
10
0
20
0
30
0
70
128
71
114
72
115
73
131
0
VERTEX
8
OBJECT__32
10
0
20
0
30
0
70
128
71
115
72
116
73
132
0
VERTEX
8
OBJECT__32
10
0
20
0
30
0
70
128
71
116
72
117
73
133
0
VERTEX
8
OBJECT__32
10
0
20
0
30
0
70
128
71
117
72
134
73
135
0
VERTEX
8
OBJECT__32
10
0
20
0
30
0
70
128
71
135
72
133
73
117
0
VERTEX
8
OBJECT__32
10
0
20
0
30
0
70
128
71
136
72
119
73
137
0
VERTEX
8
OBJECT__32
10
0
20
0
30
0
70
128
71
137
72
138
73
136
0
VERTEX
8
OBJECT__32
10
0
20
0
30
0
70
128
71
119
72
121
73
139
0
VERTEX
8
OBJECT__32
10
0
20
0
30
0
70
128
71
121
72
122
73
140
0
VERTEX
8
OBJECT__32
10
0
20
0
30
0
70
128
71
122
72
123
73
141
0
VERTEX
8
OBJECT__32
10
0
20
0
30
0
70
128
71
123
72
124
73
142
0
VERTEX
8
OBJECT__32
10
0
20
0
30
0
70
128
71
124
72
125
73
143
0
VERTEX
8
OBJECT__32
10
0
20
0
30
0
70
128
71
125
72
126
73
144
0
VERTEX
8
OBJECT__32
10
0
20
0
30
0
70
128
71
126
72
127
73
145
0
VERTEX
8
OBJECT__32
10
0
20
0
30
0
70
128
71
127
72
128
73
146
0
VERTEX
8
OBJECT__32
10
0
20
0
30
0
70
128
71
128
72
129
73
147
0
VERTEX
8
OBJECT__32
10
0
20
0
30
0
70
128
71
129
72
130
73
148
0
VERTEX
8
OBJECT__32
10
0
20
0
30
0
70
128
71
130
72
131
73
149
0
VERTEX
8
OBJECT__32
10
0
20
0
30
0
70
128
71
131
72
132
73
150
0
VERTEX
8
OBJECT__32
10
0
20
0
30
0
70
128
71
132
72
133
73
151
0
VERTEX
8
OBJECT__32
10
0
20
0
30
0
70
128
71
133
72
152
73
153
0
VERTEX
8
OBJECT__32
10
0
20
0
30
0
70
128
71
154
72
155
73
156
0
VERTEX
8
OBJECT__32
10
0
20
0
30
0
70
128
71
156
72
137
73
154
0
VERTEX
8
OBJECT__32
10
0
20
0
30
0
70
128
71
137
72
139
73
157
0
VERTEX
8
OBJECT__32
10
0
20
0
30
0
70
128
71
139
72
140
73
158
0
VERTEX
8
OBJECT__32
10
0
20
0
30
0
70
128
71
140
72
141
73
159
0
VERTEX
8
OBJECT__32
10
0
20
0
30
0
70
128
71
141
72
142
73
160
0
VERTEX
8
OBJECT__32
10
0
20
0
30
0
70
128
71
142
72
143
73
161
0
VERTEX
8
OBJECT__32
10
0
20
0
30
0
70
128
71
143
72
144
73
162
0
VERTEX
8
OBJECT__32
10
0
20
0
30
0
70
128
71
144
72
145
73
163
0
VERTEX
8
OBJECT__32
10
0
20
0
30
0
70
128
71
145
72
146
73
164
0
VERTEX
8
OBJECT__32
10
0
20
0
30
0
70
128
71
146
72
147
73
165
0
VERTEX
8
OBJECT__32
10
0
20
0
30
0
70
128
71
147
72
148
73
166
0
VERTEX
8
OBJECT__32
10
0
20
0
30
0
70
128
71
148
72
149
73
167
0
VERTEX
8
OBJECT__32
10
0
20
0
30
0
70
128
71
149
72
150
73
168
0
VERTEX
8
OBJECT__32
10
0
20
0
30
0
70
128
71
150
72
151
73
169
0
VERTEX
8
OBJECT__32
10
0
20
0
30
0
70
128
71
151
72
170
73
171
0
VERTEX
8
OBJECT__32
10
0
20
0
30
0
70
128
71
151
72
153
73
170
0
VERTEX
8
OBJECT__32
10
0
20
0
30
0
70
128
71
155
72
154
73
3
0
VERTEX
8
OBJECT__32
10
0
20
0
30
0
70
128
71
154
72
157
73
4
0
VERTEX
8
OBJECT__32
10
0
20
0
30
0
70
128
71
157
72
158
73
6
0
VERTEX
8
OBJECT__32
10
0
20
0
30
0
70
128
71
158
72
159
73
8
0
VERTEX
8
OBJECT__32
10
0
20
0
30
0
70
128
71
159
72
160
73
10
0
VERTEX
8
OBJECT__32
10
0
20
0
30
0
70
128
71
160
72
161
73
12
0
VERTEX
8
OBJECT__32
10
0
20
0
30
0
70
128
71
161
72
162
73
14
0
VERTEX
8
OBJECT__32
10
0
20
0
30
0
70
128
71
162
72
163
73
16
0
VERTEX
8
OBJECT__32
10
0
20
0
30
0
70
128
71
163
72
164
73
18
0
VERTEX
8
OBJECT__32
10
0
20
0
30
0
70
128
71
164
72
165
73
20
0
VERTEX
8
OBJECT__32
10
0
20
0
30
0
70
128
71
165
72
166
73
22
0
VERTEX
8
OBJECT__32
10
0
20
0
30
0
70
128
71
166
72
167
73
24
0
VERTEX
8
OBJECT__32
10
0
20
0
30
0
70
128
71
167
72
168
73
26
0
VERTEX
8
OBJECT__32
10
0
20
0
30
0
70
128
71
168
72
169
73
28
0
VERTEX
8
OBJECT__32
10
0
20
0
30
0
70
128
71
169
72
171
73
172
0
VERTEX
8
OBJECT__32
10
0
20
0
30
0
70
128
71
172
72
28
73
169
0
VERTEX
8
OBJECT__32
10
0
20
0
30
0
70
128
71
172
72
30
73
28
0
VERTEX
8
OBJECT__32
10
0
20
0
30
0
70
128
71
28
72
26
73
168
0
VERTEX
8
OBJECT__32
10
0
20
0
30
0
70
128
71
26
72
24
73
167
0
VERTEX
8
OBJECT__32
10
0
20
0
30
0
70
128
71
24
72
22
73
166
0
VERTEX
8
OBJECT__32
10
0
20
0
30
0
70
128
71
22
72
20
73
165
0
VERTEX
8
OBJECT__32
10
0
20
0
30
0
70
128
71
20
72
18
73
164
0
VERTEX
8
OBJECT__32
10
0
20
0
30
0
70
128
71
18
72
16
73
163
0
VERTEX
8
OBJECT__32
10
0
20
0
30
0
70
128
71
16
72
14
73
162
0
VERTEX
8
OBJECT__32
10
0
20
0
30
0
70
128
71
14
72
12
73
161
0
VERTEX
8
OBJECT__32
10
0
20
0
30
0
70
128
71
12
72
10
73
160
0
VERTEX
8
OBJECT__32
10
0
20
0
30
0
70
128
71
10
72
8
73
159
0
VERTEX
8
OBJECT__32
10
0
20
0
30
0
70
128
71
8
72
6
73
158
0
VERTEX
8
OBJECT__32
10
0
20
0
30
0
70
128
71
6
72
4
73
157
0
VERTEX
8
OBJECT__32
10
0
20
0
30
0
70
128
71
4
72
3
73
154
0
VERTEX
8
OBJECT__32
10
0
20
0
30
0
70
128
71
3
72
2
73
155
0
VERTEX
8
OBJECT__32
10
0
20
0
30
0
70
128
71
171
72
169
73
151
0
VERTEX
8
OBJECT__32
10
0
20
0
30
0
70
128
71
169
72
168
73
150
0
VERTEX
8
OBJECT__32
10
0
20
0
30
0
70
128
71
168
72
167
73
149
0
VERTEX
8
OBJECT__32
10
0
20
0
30
0
70
128
71
167
72
166
73
148
0
VERTEX
8
OBJECT__32
10
0
20
0
30
0
70
128
71
166
72
165
73
147
0
VERTEX
8
OBJECT__32
10
0
20
0
30
0
70
128
71
165
72
164
73
146
0
VERTEX
8
OBJECT__32
10
0
20
0
30
0
70
128
71
164
72
163
73
145
0
VERTEX
8
OBJECT__32
10
0
20
0
30
0
70
128
71
163
72
162
73
144
0
VERTEX
8
OBJECT__32
10
0
20
0
30
0
70
128
71
162
72
161
73
143
0
VERTEX
8
OBJECT__32
10
0
20
0
30
0
70
128
71
161
72
160
73
142
0
VERTEX
8
OBJECT__32
10
0
20
0
30
0
70
128
71
160
72
159
73
141
0
VERTEX
8
OBJECT__32
10
0
20
0
30
0
70
128
71
159
72
158
73
140
0
VERTEX
8
OBJECT__32
10
0
20
0
30
0
70
128
71
158
72
157
73
139
0
VERTEX
8
OBJECT__32
10
0
20
0
30
0
70
128
71
157
72
154
73
137
0
VERTEX
8
OBJECT__32
10
0
20
0
30
0
70
128
71
156
72
138
73
137
0
VERTEX
8
OBJECT__32
10
0
20
0
30
0
70
128
71
153
72
151
73
133
0
VERTEX
8
OBJECT__32
10
0
20
0
30
0
70
128
71
151
72
150
73
132
0
VERTEX
8
OBJECT__32
10
0
20
0
30
0
70
128
71
150
72
149
73
131
0
VERTEX
8
OBJECT__32
10
0
20
0
30
0
70
128
71
149
72
148
73
130
0
VERTEX
8
OBJECT__32
10
0
20
0
30
0
70
128
71
148
72
147
73
129
0
VERTEX
8
OBJECT__32
10
0
20
0
30
0
70
128
71
147
72
146
73
128
0
VERTEX
8
OBJECT__32
10
0
20
0
30
0
70
128
71
146
72
145
73
127
0
VERTEX
8
OBJECT__32
10
0
20
0
30
0
70
128
71
145
72
144
73
126
0
VERTEX
8
OBJECT__32
10
0
20
0
30
0
70
128
71
144
72
143
73
125
0
VERTEX
8
OBJECT__32
10
0
20
0
30
0
70
128
71
143
72
142
73
124
0
VERTEX
8
OBJECT__32
10
0
20
0
30
0
70
128
71
142
72
141
73
123
0
VERTEX
8
OBJECT__32
10
0
20
0
30
0
70
128
71
141
72
140
73
122
0
VERTEX
8
OBJECT__32
10
0
20
0
30
0
70
128
71
140
72
139
73
121
0
VERTEX
8
OBJECT__32
10
0
20
0
30
0
70
128
71
139
72
137
73
119
0
VERTEX
8
OBJECT__32
10
0
20
0
30
0
70
128
71
136
72
120
73
119
0
VERTEX
8
OBJECT__32
10
0
20
0
30
0
70
128
71
135
72
152
73
133
0
VERTEX
8
OBJECT__32
10
0
20
0
30
0
70
128
71
133
72
132
73
116
0
VERTEX
8
OBJECT__32
10
0
20
0
30
0
70
128
71
132
72
131
73
115
0
VERTEX
8
OBJECT__32
10
0
20
0
30
0
70
128
71
131
72
130
73
114
0
VERTEX
8
OBJECT__32
10
0
20
0
30
0
70
128
71
130
72
129
73
113
0
VERTEX
8
OBJECT__32
10
0
20
0
30
0
70
128
71
129
72
128
73
112
0
VERTEX
8
OBJECT__32
10
0
20
0
30
0
70
128
71
128
72
127
73
111
0
VERTEX
8
OBJECT__32
10
0
20
0
30
0
70
128
71
127
72
126
73
110
0
VERTEX
8
OBJECT__32
10
0
20
0
30
0
70
128
71
126
72
125
73
109
0
VERTEX
8
OBJECT__32
10
0
20
0
30
0
70
128
71
125
72
124
73
108
0
VERTEX
8
OBJECT__32
10
0
20
0
30
0
70
128
71
124
72
123
73
107
0
VERTEX
8
OBJECT__32
10
0
20
0
30
0
70
128
71
123
72
122
73
106
0
VERTEX
8
OBJECT__32
10
0
20
0
30
0
70
128
71
122
72
121
73
105
0
VERTEX
8
OBJECT__32
10
0
20
0
30
0
70
128
71
121
72
119
73
102
0
VERTEX
8
OBJECT__32
10
0
20
0
30
0
70
128
71
120
72
104
73
102
0
VERTEX
8
OBJECT__32
10
0
20
0
30
0
70
128
71
118
72
134
73
117
0
VERTEX
8
OBJECT__32
10
0
20
0
30
0
70
128
71
117
72
116
73
99
0
VERTEX
8
OBJECT__32
10
0
20
0
30
0
70
128
71
116
72
115
73
98
0
VERTEX
8
OBJECT__32
10
0
20
0
30
0
70
128
71
115
72
114
73
97
0
VERTEX
8
OBJECT__32
10
0
20
0
30
0
70
128
71
114
72
113
73
96
0
VERTEX
8
OBJECT__32
10
0
20
0
30
0
70
128
71
113
72
112
73
95
0
VERTEX
8
OBJECT__32
10
0
20
0
30
0
70
128
71
112
72
111
73
94
0
VERTEX
8
OBJECT__32
10
0
20
0
30
0
70
128
71
111
72
110
73
93
0
VERTEX
8
OBJECT__32
10
0
20
0
30
0
70
128
71
110
72
109
73
92
0
VERTEX
8
OBJECT__32
10
0
20
0
30
0
70
128
71
109
72
108
73
91
0
VERTEX
8
OBJECT__32
10
0
20
0
30
0
70
128
71
108
72
107
73
90
0
VERTEX
8
OBJECT__32
10
0
20
0
30
0
70
128
71
107
72
106
73
89
0
VERTEX
8
OBJECT__32
10
0
20
0
30
0
70
128
71
106
72
105
73
88
0
VERTEX
8
OBJECT__32
10
0
20
0
30
0
70
128
71
105
72
102
73
85
0
VERTEX
8
OBJECT__32
10
0
20
0
30
0
70
128
71
103
72
86
73
85
0
VERTEX
8
OBJECT__32
10
0
20
0
30
0
70
128
71
82
72
173
73
101
0
VERTEX
8
OBJECT__32
10
0
20
0
30
0
70
128
71
100
72
99
73
81
0
VERTEX
8
OBJECT__32
10
0
20
0
30
0
70
128
71
99
72
98
73
80
0
VERTEX
8
OBJECT__32
10
0
20
0
30
0
70
128
71
98
72
97
73
79
0
VERTEX
8
OBJECT__32
10
0
20
0
30
0
70
128
71
97
72
96
73
78
0
VERTEX
8
OBJECT__32
10
0
20
0
30
0
70
128
71
96
72
95
73
77
0
VERTEX
8
OBJECT__32
10
0
20
0
30
0
70
128
71
95
72
94
73
76
0
VERTEX
8
OBJECT__32
10
0
20
0
30
0
70
128
71
94
72
93
73
75
0
VERTEX
8
OBJECT__32
10
0
20
0
30
0
70
128
71
93
72
92
73
74
0
VERTEX
8
OBJECT__32
10
0
20
0
30
0
70
128
71
92
72
91
73
73
0
VERTEX
8
OBJECT__32
10
0
20
0
30
0
70
128
71
91
72
90
73
72
0
VERTEX
8
OBJECT__32
10
0
20
0
30
0
70
128
71
90
72
89
73
71
0
VERTEX
8
OBJECT__32
10
0
20
0
30
0
70
128
71
89
72
88
73
70
0
VERTEX
8
OBJECT__32
10
0
20
0
30
0
70
128
71
88
72
85
73
68
0
VERTEX
8
OBJECT__32
10
0
20
0
30
0
70
128
71
87
72
69
73
68
0
VERTEX
8
OBJECT__32
10
0
20
0
30
0
70
128
71
83
72
173
73
82
0
VERTEX
8
OBJECT__32
10
0
20
0
30
0
70
128
71
82
72
81
73
64
0
VERTEX
8
OBJECT__32
10
0
20
0
30
0
70
128
71
81
72
80
73
63
0
VERTEX
8
OBJECT__32
10
0
20
0
30
0
70
128
71
80
72
79
73
62
0
VERTEX
8
OBJECT__32
10
0
20
0
30
0
70
128
71
79
72
78
73
61
0
VERTEX
8
OBJECT__32
10
0
20
0
30
0
70
128
71
78
72
77
73
60
0
VERTEX
8
OBJECT__32
10
0
20
0
30
0
70
128
71
77
72
76
73
59
0
VERTEX
8
OBJECT__32
10
0
20
0
30
0
70
128
71
76
72
75
73
58
0
VERTEX
8
OBJECT__32
10
0
20
0
30
0
70
128
71
75
72
74
73
57
0
VERTEX
8
OBJECT__32
10
0
20
0
30
0
70
128
71
74
72
73
73
56
0
VERTEX
8
OBJECT__32
10
0
20
0
30
0
70
128
71
73
72
72
73
55
0
VERTEX
8
OBJECT__32
10
0
20
0
30
0
70
128
71
72
72
71
73
54
0
VERTEX
8
OBJECT__32
10
0
20
0
30
0
70
128
71
71
72
70
73
53
0
VERTEX
8
OBJECT__32
10
0
20
0
30
0
70
128
71
70
72
68
73
51
0
VERTEX
8
OBJECT__32
10
0
20
0
30
0
70
128
71
52
72
51
73
68
0
VERTEX
8
OBJECT__32
10
0
20
0
30
0
70
128
71
66
72
84
73
65
0
VERTEX
8
OBJECT__32
10
0
20
0
30
0
70
128
71
65
72
64
73
46
0
VERTEX
8
OBJECT__32
10
0
20
0
30
0
70
128
71
64
72
63
73
45
0
VERTEX
8
OBJECT__32
10
0
20
0
30
0
70
128
71
63
72
62
73
44
0
VERTEX
8
OBJECT__32
10
0
20
0
30
0
70
128
71
62
72
61
73
43
0
VERTEX
8
OBJECT__32
10
0
20
0
30
0
70
128
71
61
72
60
73
42
0
VERTEX
8
OBJECT__32
10
0
20
0
30
0
70
128
71
60
72
59
73
41
0
VERTEX
8
OBJECT__32
10
0
20
0
30
0
70
128
71
59
72
58
73
40
0
VERTEX
8
OBJECT__32
10
0
20
0
30
0
70
128
71
58
72
57
73
39
0
VERTEX
8
OBJECT__32
10
0
20
0
30
0
70
128
71
57
72
56
73
38
0
VERTEX
8
OBJECT__32
10
0
20
0
30
0
70
128
71
56
72
55
73
37
0
VERTEX
8
OBJECT__32
10
0
20
0
30
0
70
128
71
55
72
54
73
36
0
VERTEX
8
OBJECT__32
10
0
20
0
30
0
70
128
71
54
72
53
73
35
0
VERTEX
8
OBJECT__32
10
0
20
0
30
0
70
128
71
53
72
51
73
32
0
VERTEX
8
OBJECT__32
10
0
20
0
30
0
70
128
71
32
72
51
73
50
0
VERTEX
8
OBJECT__32
10
0
20
0
30
0
70
128
71
48
72
67
73
47
0
VERTEX
8
OBJECT__32
10
0
20
0
30
0
70
128
71
47
72
46
73
27
0
VERTEX
8
OBJECT__32
10
0
20
0
30
0
70
128
71
46
72
45
73
25
0
VERTEX
8
OBJECT__32
10
0
20
0
30
0
70
128
71
45
72
44
73
23
0
VERTEX
8
OBJECT__32
10
0
20
0
30
0
70
128
71
44
72
43
73
21
0
VERTEX
8
OBJECT__32
10
0
20
0
30
0
70
128
71
43
72
42
73
19
0
VERTEX
8
OBJECT__32
10
0
20
0
30
0
70
128
71
42
72
41
73
17
0
VERTEX
8
OBJECT__32
10
0
20
0
30
0
70
128
71
41
72
40
73
15
0
VERTEX
8
OBJECT__32
10
0
20
0
30
0
70
128
71
40
72
39
73
13
0
VERTEX
8
OBJECT__32
10
0
20
0
30
0
70
128
71
39
72
38
73
11
0
VERTEX
8
OBJECT__32
10
0
20
0
30
0
70
128
71
38
72
37
73
9
0
VERTEX
8
OBJECT__32
10
0
20
0
30
0
70
128
71
37
72
36
73
7
0
VERTEX
8
OBJECT__32
10
0
20
0
30
0
70
128
71
36
72
35
73
5
0
VERTEX
8
OBJECT__32
10
0
20
0
30
0
70
128
71
35
72
32
73
31
0
VERTEX
8
OBJECT__32
10
0
20
0
30
0
70
128
71
33
72
1
73
31
0
VERTEX
8
OBJECT__32
10
0
20
0
30
0
70
128
71
30
72
49
73
29
0
VERTEX
8
OBJECT__32
10
0
20
0
30
0
70
128
71
29
72
27
73
26
0
VERTEX
8
OBJECT__32
10
0
20
0
30
0
70
128
71
27
72
25
73
24
0
VERTEX
8
OBJECT__32
10
0
20
0
30
0
70
128
71
25
72
23
73
22
0
VERTEX
8
OBJECT__32
10
0
20
0
30
0
70
128
71
23
72
21
73
20
0
VERTEX
8
OBJECT__32
10
0
20
0
30
0
70
128
71
21
72
19
73
18
0
VERTEX
8
OBJECT__32
10
0
20
0
30
0
70
128
71
19
72
17
73
16
0
VERTEX
8
OBJECT__32
10
0
20
0
30
0
70
128
71
17
72
15
73
14
0
VERTEX
8
OBJECT__32
10
0
20
0
30
0
70
128
71
15
72
13
73
12
0
VERTEX
8
OBJECT__32
10
0
20
0
30
0
70
128
71
13
72
11
73
10
0
VERTEX
8
OBJECT__32
10
0
20
0
30
0
70
128
71
11
72
9
73
8
0
VERTEX
8
OBJECT__32
10
0
20
0
30
0
70
128
71
9
72
7
73
6
0
VERTEX
8
OBJECT__32
10
0
20
0
30
0
70
128
71
7
72
5
73
4
0
VERTEX
8
OBJECT__32
10
0
20
0
30
0
70
128
71
5
72
31
73
3
0
VERTEX
8
OBJECT__32
10
0
20
0
30
0
70
128
71
3
72
31
73
1
0
SEQEND
8
OBJECT__32
0
POLYLINE
8
OBJECT__33
66
1
70
64
71
25
72
25
62
253
0
VERTEX
8
OBJECT__33
10
11.727000
20
9.352000
30
149.699997
70
192
0
VERTEX
8
OBJECT__33
10
0.000000
20
15.000000
30
149.699997
70
192
0
VERTEX
8
OBJECT__33
10
4.635000
20
14.266000
30
280.399994
70
192
0
VERTEX
8
OBJECT__33
10
0.000000
20
14.266000
30
280.399994
70
192
0
VERTEX
8
OBJECT__33
10
14.624000
20
-3.338000
30
149.699997
70
192
0
VERTEX
8
OBJECT__33
10
12.135000
20
8.817000
30
280.399994
70
192
0
VERTEX
8
OBJECT__33
10
15.000000
20
0.000000
30
280.399994
70
192
0
VERTEX
8
OBJECT__33
10
11.614000
20
9.196000
30
280.399994
70
192
0
VERTEX
8
OBJECT__33
10
15.000000
20
0.000000
30
149.699997
70
192
0
VERTEX
8
OBJECT__33
10
13.983000
20
-3.130000
30
280.399994
70
192
0
VERTEX
8
OBJECT__33
10
6.508000
20
-13.515000
30
149.699997
70
192
0
VERTEX
8
OBJECT__33
10
12.135000
20
-8.817000
30
280.399994
70
192
0
VERTEX
8
OBJECT__33
10
4.635000
20
-14.266000
30
280.399994
70
192
0
VERTEX
8
OBJECT__33
10
-4.635000
20
-14.266000
30
280.399994
70
192
0
VERTEX
8
OBJECT__33
10
-6.508000
20
-13.515000
30
149.699997
70
192
0
VERTEX
8
OBJECT__33
10
6.218000
20
-13.116000
30
280.399994
70
192
0
VERTEX
8
OBJECT__33
10
-6.218000
20
-13.116000
30
280.399994
70
192
0
VERTEX
8
OBJECT__33
10
-12.135000
20
-8.817000
30
280.399994
70
192
0
VERTEX
8
OBJECT__33
10
-14.624000
20
-3.338000
30
149.699997
70
192
0
VERTEX
8
OBJECT__33
10
-11.727000
20
9.352000
30
149.699997
70
192
0
VERTEX
8
OBJECT__33
10
-15.000000
20
0.000000
30
280.399994
70
192
0
VERTEX
8
OBJECT__33
10
-12.135000
20
8.817000
30
280.399994
70
192
0
VERTEX
8
OBJECT__33
10
-13.983000
20
-3.130000
30
280.399994
70
192
0
VERTEX
8
OBJECT__33
10
-11.614000
20
9.196000
30
280.399994
70
192
0
VERTEX
8
OBJECT__33
10
-4.635000
20
14.266000
30
280.399994
70
192
0
VERTEX
8
OBJECT__33
10
0
20
0
30
0
70
128
71
1
72
2
73
3
0
VERTEX
8
OBJECT__33
10
0
20
0
30
0
70
128
71
2
72
4
73
3
0
VERTEX
8
OBJECT__33
10
0
20
0
30
0
70
128
71
5
72
6
73
7
0
VERTEX
8
OBJECT__33
10
0
20
0
30
0
70
128
71
1
72
8
73
6
0
VERTEX
8
OBJECT__33
10
0
20
0
30
0
70
128
71
6
72
5
73
9
0
VERTEX
8
OBJECT__33
10
0
20
0
30
0
70
128
71
6
72
9
73
1
0
VERTEX
8
OBJECT__33
10
0
20
0
30
0
70
128
71
7
72
10
73
5
0
VERTEX
8
OBJECT__33
10
0
20
0
30
0
70
128
71
11
72
5
73
12
0
VERTEX
8
OBJECT__33
10
0
20
0
30
0
70
128
71
5
72
10
73
12
0
VERTEX
8
OBJECT__33
10
0
20
0
30
0
70
128
71
11
72
13
73
14
0
VERTEX
8
OBJECT__33
10
0
20
0
30
0
70
128
71
14
72
15
73
11
0
VERTEX
8
OBJECT__33
10
0
20
0
30
0
70
128
71
11
72
16
73
13
0
VERTEX
8
OBJECT__33
10
0
20
0
30
0
70
128
71
15
72
17
73
18
0
VERTEX
8
OBJECT__33
10
0
20
0
30
0
70
128
71
18
72
19
73
15
0
VERTEX
8
OBJECT__33
10
0
20
0
30
0
70
128
71
20
72
19
73
21
0
VERTEX
8
OBJECT__33
10
0
20
0
30
0
70
128
71
21
72
22
73
20
0
VERTEX
8
OBJECT__33
10
0
20
0
30
0
70
128
71
19
72
23
73
21
0
VERTEX
8
OBJECT__33
10
0
20
0
30
0
70
128
71
20
72
24
73
25
0
VERTEX
8
OBJECT__33
10
0
20
0
30
0
70
128
71
25
72
2
73
20
0
VERTEX
8
OBJECT__33
10
0
20
0
30
0
70
128
71
25
72
4
73
2
0
VERTEX
8
OBJECT__33
10
0
20
0
30
0
70
128
71
22
72
24
73
20
0
VERTEX
8
OBJECT__33
10
0
20
0
30
0
70
128
71
18
72
23
73
19
0
VERTEX
8
OBJECT__33
10
0
20
0
30
0
70
128
71
14
72
17
73
15
0
VERTEX
8
OBJECT__33
10
0
20
0
30
0
70
128
71
12
72
16
73
11
0
VERTEX
8
OBJECT__33
10
0
20
0
30
0
70
128
71
3
72
8
73
1
0
SEQEND
8
OBJECT__33
0
POLYLINE
8
OBJECT__34
66
1
70
64
71
7
72
5
62
253
0
VERTEX
8
OBJECT__34
10
-4.754000
20
85.694000
30
96.091003
70
192
0
VERTEX
8
OBJECT__34
10
4.767000
20
85.694000
30
96.091003
70
192
0
VERTEX
8
OBJECT__34
10
4.324000
20
77.492996
30
93.808998
70
192
0
VERTEX
8
OBJECT__34
10
-4.324000
20
77.492996
30
93.808998
70
192
0
VERTEX
8
OBJECT__34
10
-4.734000
20
77.386002
30
93.779999
70
192
0
VERTEX
8
OBJECT__34
10
5.035000
20
77.206001
30
93.731003
70
192
0
VERTEX
8
OBJECT__34
10
-5.036000
20
77.206001
30
93.730003
70
192
0
VERTEX
8
OBJECT__34
10
0
20
0
30
0
70
128
71
1
72
2
73
3
0
VERTEX
8
OBJECT__34
10
0
20
0
30
0
70
128
71
3
72
4
73
1
0
VERTEX
8
OBJECT__34
10
0
20
0
30
0
70
128
71
4
72
5
73
1
0
VERTEX
8
OBJECT__34
10
0
20
0
30
0
70
128
71
2
72
6
73
3
0
VERTEX
8
OBJECT__34
10
0
20
0
30
0
70
128
71
5
72
7
73
1
0
SEQEND
8
OBJECT__34
0
POLYLINE
8
OBJECT__35
66
1
70
64
71
10
72
8
62
253
0
VERTEX
8
OBJECT__35
10
0.000000
20
101.574997
30
61.022999
70
192
0
VERTEX
8
OBJECT__35
10
8.209000
20
100.356003
30
107.558998
70
192
0
VERTEX
8
OBJECT__35
10
20.785000
20
100.632004
30
97.010002
70
192
0
VERTEX
8
OBJECT__35
10
-23.635000
20
101.055000
30
80.848000
70
192
0
VERTEX
8
OBJECT__35
10
-20.785000
20
100.632004
30
97.010002
70
192
0
VERTEX
8
OBJECT__35
10
23.635000
20
101.055000
30
80.848000
70
192
0
VERTEX
8
OBJECT__35
10
-15.427000
20
101.428001
30
66.636002
70
192
0
VERTEX
8
OBJECT__35
10
0.000000
20
100.318001
30
109.005997
70
192
0
VERTEX
8
OBJECT__35
10
-8.208000
20
100.356003
30
107.558998
70
192
0
VERTEX
8
OBJECT__35
10
15.427000
20
101.428001
30
66.636002
70
192
0
VERTEX
8
OBJECT__35
10
0
20
0
30
0
70
128
71
1
72
2
73
3
0
VERTEX
8
OBJECT__35
10
0
20
0
30
0
70
128
71
1
72
4
73
5
0
VERTEX
8
OBJECT__35
10
0
20
0
30
0
70
128
71
3
72
6
73
1
0
VERTEX
8
OBJECT__35
10
0
20
0
30
0
70
128
71
1
72
7
73
4
0
VERTEX
8
OBJECT__35
10
0
20
0
30
0
70
128
71
1
72
8
73
2
0
VERTEX
8
OBJECT__35
10
0
20
0
30
0
70
128
71
5
72
9
73
1
0
VERTEX
8
OBJECT__35
10
0
20
0
30
0
70
128
71
9
72
8
73
1
0
VERTEX
8
OBJECT__35
10
0
20
0
30
0
70
128
71
6
72
10
73
1
0
SEQEND
8
OBJECT__35
0
POLYLINE
8
OBJECT__37
66
1
70
64
71
41
72
43
62
253
0
VERTEX
8
OBJECT__37
10
8.209000
20
68.366997
30
106.722000
70
192
0
VERTEX
8
OBJECT__37
10
20.785000
20
68.642998
30
96.172997
70
192
0
VERTEX
8
OBJECT__37
10
20.785000
20
100.632004
30
97.010002
70
192
0
VERTEX
8
OBJECT__37
10
2.145000
20
75.953003
30
108.272003
70
192
0
VERTEX
8
OBJECT__37
10
-1.711000
20
75.712997
30
108.301003
70
192
0
VERTEX
8
OBJECT__37
10
4.000000
20
79.334000
30
108.121002
70
192
0
VERTEX
8
OBJECT__37
10
2.152000
20
75.964996
30
108.272003
70
192
0
VERTEX
8
OBJECT__37
10
8.209000
20
100.356003
30
107.558998
70
192
0
VERTEX
8
OBJECT__37
10
4.000000
20
89.331001
30
108.383003
70
192
0
VERTEX
8
OBJECT__37
10
3.972000
20
89.804001
30
108.400002
70
192
0
VERTEX
8
OBJECT__37
10
1.711000
20
92.938004
30
108.751999
70
192
0
VERTEX
8
OBJECT__37
10
1.994000
20
92.544998
30
108.708000
70
192
0
VERTEX
8
OBJECT__37
10
0.000000
20
100.318001
30
109.005997
70
192
0
VERTEX
8
OBJECT__37
10
-8.208000
20
100.356003
30
107.558998
70
192
0
VERTEX
8
OBJECT__37
10
-2.145000
20
92.698997
30
108.710999
70
192
0
VERTEX
8
OBJECT__37
10
-4.000000
20
89.331001
30
108.386002
70
192
0
VERTEX
8
OBJECT__37
10
-2.162000
20
92.668999
30
108.708000
70
192
0
VERTEX
8
OBJECT__37
10
-8.208000
20
68.366997
30
106.722000
70
192
0
VERTEX
8
OBJECT__37
10
-4.000000
20
79.334000
30
108.125000
70
192
0
VERTEX
8
OBJECT__37
10
-3.972000
20
78.860001
30
108.112999
70
192
0
VERTEX
8
OBJECT__37
10
-2.023000
20
76.146004
30
108.275002
70
192
0
VERTEX
8
OBJECT__37
10
-20.785000
20
100.632004
30
97.010002
70
192
0
VERTEX
8
OBJECT__37
10
-20.785000
20
68.642998
30
96.172997
70
192
0
VERTEX
8
OBJECT__37
10
23.900999
20
68.900002
30
86.348999
70
192
0
VERTEX
8
OBJECT__37
10
22.806999
20
72.931999
30
80.258003
70
192
0
VERTEX
8
OBJECT__37
10
23.635000
20
101.055000
30
80.848000
70
192
0
VERTEX
8
OBJECT__37
10
21.709000
20
76.974998
30
74.150002
70
192
0
VERTEX
8
OBJECT__37
10
15.043000
20
82.063004
30
66.462997
70
192
0
VERTEX
8
OBJECT__37
10
15.427000
20
101.428001
30
66.636002
70
192
0
VERTEX
8
OBJECT__37
10
13.535000
20
83.213997
30
64.723999
70
192
0
VERTEX
8
OBJECT__37
10
1.632000
20
85.899002
30
60.667999
70
192
0
VERTEX
8
OBJECT__37
10
0.000000
20
101.574997
30
61.022999
70
192
0
VERTEX
8
OBJECT__37
10
0.073000
20
85.695999
30
60.973999
70
192
0
VERTEX
8
OBJECT__37
10
-10.721000
20
84.289001
30
63.098999
70
192
0
VERTEX
8
OBJECT__37
10
-15.427000
20
101.428001
30
66.636002
70
192
0
VERTEX
8
OBJECT__37
10
-23.635000
20
101.055000
30
80.848000
70
192
0
VERTEX
8
OBJECT__37
10
-14.875000
20
81.876999
30
66.744003
70
192
0
VERTEX
8
OBJECT__37
10
-20.120001
20
78.830002
30
71.348000
70
192
0
VERTEX
8
OBJECT__37
10
-23.975000
20
71.024002
30
83.140999
70
192
0
VERTEX
8
OBJECT__37
10
-23.900999
20
68.900002
30
86.348999
70
192
0
VERTEX
8
OBJECT__37
10
-23.044001
20
72.907997
30
80.293999
70
192
0
VERTEX
8
OBJECT__37
10
0
20
0
30
0
70
128
71
1
72
2
73
3
0
VERTEX
8
OBJECT__37
10
0
20
0
30
0
70
128
71
1
72
4
73
5
0
VERTEX
8
OBJECT__37
10
0
20
0
30
0
70
128
71
1
72
6
73
7
0
VERTEX
8
OBJECT__37
10
0
20
0
30
0
70
128
71
8
72
9
73
6
0
VERTEX
8
OBJECT__37
10
0
20
0
30
0
70
128
71
8
72
10
73
9
0
VERTEX
8
OBJECT__37
10
0
20
0
30
0
70
128
71
6
72
1
73
8
0
VERTEX
8
OBJECT__37
10
0
20
0
30
0
70
128
71
8
72
11
73
12
0
VERTEX
8
OBJECT__37
10
0
20
0
30
0
70
128
71
12
72
10
73
8
0
VERTEX
8
OBJECT__37
10
0
20
0
30
0
70
128
71
7
72
4
73
1
0
VERTEX
8
OBJECT__37
10
0
20
0
30
0
70
128
71
13
72
14
73
15
0
VERTEX
8
OBJECT__37
10
0
20
0
30
0
70
128
71
11
72
8
73
13
0
VERTEX
8
OBJECT__37
10
0
20
0
30
0
70
128
71
14
72
16
73
17
0
VERTEX
8
OBJECT__37
10
0
20
0
30
0
70
128
71
18
72
19
73
16
0
VERTEX
8
OBJECT__37
10
0
20
0
30
0
70
128
71
18
72
20
73
19
0
VERTEX
8
OBJECT__37
10
0
20
0
30
0
70
128
71
16
72
14
73
18
0
VERTEX
8
OBJECT__37
10
0
20
0
30
0
70
128
71
18
72
5
73
21
0
VERTEX
8
OBJECT__37
10
0
20
0
30
0
70
128
71
21
72
20
73
18
0
VERTEX
8
OBJECT__37
10
0
20
0
30
0
70
128
71
17
72
15
73
14
0
VERTEX
8
OBJECT__37
10
0
20
0
30
0
70
128
71
15
72
11
73
13
0
VERTEX
8
OBJECT__37
10
0
20
0
30
0
70
128
71
22
72
23
73
18
0
VERTEX
8
OBJECT__37
10
0
20
0
30
0
70
128
71
3
72
24
73
25
0
VERTEX
8
OBJECT__37
10
0
20
0
30
0
70
128
71
3
72
2
73
24
0
VERTEX
8
OBJECT__37
10
0
20
0
30
0
70
128
71
26
72
27
73
28
0
VERTEX
8
OBJECT__37
10
0
20
0
30
0
70
128
71
26
72
25
73
27
0
VERTEX
8
OBJECT__37
10
0
20
0
30
0
70
128
71
29
72
30
73
31
0
VERTEX
8
OBJECT__37
10
0
20
0
30
0
70
128
71
29
72
28
73
30
0
VERTEX
8
OBJECT__37
10
0
20
0
30
0
70
128
71
31
72
32
73
29
0
VERTEX
8
OBJECT__37
10
0
20
0
30
0
70
128
71
32
72
33
73
34
0
VERTEX
8
OBJECT__37
10
0
20
0
30
0
70
128
71
34
72
35
73
32
0
VERTEX
8
OBJECT__37
10
0
20
0
30
0
70
128
71
36
72
35
73
37
0
VERTEX
8
OBJECT__37
10
0
20
0
30
0
70
128
71
37
72
38
73
36
0
VERTEX
8
OBJECT__37
10
0
20
0
30
0
70
128
71
22
72
39
73
40
0
VERTEX
8
OBJECT__37
10
0
20
0
30
0
70
128
71
22
72
36
73
41
0
VERTEX
8
OBJECT__37
10
0
20
0
30
0
70
128
71
41
72
39
73
22
0
VERTEX
8
OBJECT__37
10
0
20
0
30
0
70
128
71
40
72
23
73
22
0
VERTEX
8
OBJECT__37
10
0
20
0
30
0
70
128
71
38
72
41
73
36
0
VERTEX
8
OBJECT__37
10
0
20
0
30
0
70
128
71
34
72
37
73
35
0
VERTEX
8
OBJECT__37
10
0
20
0
30
0
70
128
71
31
72
33
73
32
0
VERTEX
8
OBJECT__37
10
0
20
0
30
0
70
128
71
28
72
29
73
26
0
VERTEX
8
OBJECT__37
10
0
20
0
30
0
70
128
71
25
72
26
73
3
0
VERTEX
8
OBJECT__37
10
0
20
0
30
0
70
128
71
18
72
14
73
22
0
VERTEX
8
OBJECT__37
10
0
20
0
30
0
70
128
71
5
72
18
73
1
0
VERTEX
8
OBJECT__37
10
0
20
0
30
0
70
128
71
3
72
8
73
1
0
SEQEND
8
OBJECT__37
0
POLYLINE
8
OBJECT__38
66
1
70
64
71
19
72
17
62
253
0
VERTEX
8
OBJECT__38
10
-2.162000
20
92.668999
30
108.708000
70
192
0
VERTEX
8
OBJECT__38
10
-3.499000
20
89.553001
30
173.949005
70
192
0
VERTEX
8
OBJECT__38
10
-2.119000
20
90.865997
30
174.102005
70
192
0
VERTEX
8
OBJECT__38
10
-4.000000
20
89.331001
30
108.386002
70
192
0
VERTEX
8
OBJECT__38
10
-4.000000
20
87.616997
30
173.835999
70
192
0
VERTEX
8
OBJECT__38
10
-3.731000
20
88.655998
30
173.897003
70
192
0
VERTEX
8
OBJECT__38
10
-2.100000
20
90.883003
30
174.104004
70
192
0
VERTEX
8
OBJECT__38
10
1.711000
20
92.938004
30
108.751999
70
192
0
VERTEX
8
OBJECT__38
10
-2.145000
20
92.698997
30
108.710999
70
192
0
VERTEX
8
OBJECT__38
10
2.061000
20
90.775002
30
174.091003
70
192
0
VERTEX
8
OBJECT__38
10
1.994000
20
92.544998
30
108.708000
70
192
0
VERTEX
8
OBJECT__38
10
0.552000
20
91.478996
30
174.182999
70
192
0
VERTEX
8
OBJECT__38
10
0.855000
20
91.515999
30
174.188995
70
192
0
VERTEX
8
OBJECT__38
10
-1.771000
20
91.196999
30
174.141006
70
192
0
VERTEX
8
OBJECT__38
10
4.000000
20
87.617996
30
173.835999
70
192
0
VERTEX
8
OBJECT__38
10
4.000000
20
89.331001
30
108.383003
70
192
0
VERTEX
8
OBJECT__38
10
3.972000
20
89.804001
30
108.400002
70
192
0
VERTEX
8
OBJECT__38
10
3.108000
20
90.130997
30
174.005997
70
192
0
VERTEX
8
OBJECT__38
10
2.989000
20
90.204002
30
174.016006
70
192
0
VERTEX
8
OBJECT__38
10
0
20
0
30
0
70
128
71
1
72
2
73
3
0
VERTEX
8
OBJECT__38
10
0
20
0
30
0
70
128
71
1
72
4
73
5
0
VERTEX
8
OBJECT__38
10
0
20
0
30
0
70
128
71
5
72
6
73
1
0
VERTEX
8
OBJECT__38
10
0
20
0
30
0
70
128
71
6
72
2
73
1
0
VERTEX
8
OBJECT__38
10
0
20
0
30
0
70
128
71
7
72
8
73
9
0
VERTEX
8
OBJECT__38
10
0
20
0
30
0
70
128
71
10
72
11
73
8
0
VERTEX
8
OBJECT__38
10
0
20
0
30
0
70
128
71
8
72
12
73
13
0
VERTEX
8
OBJECT__38
10
0
20
0
30
0
70
128
71
8
72
7
73
14
0
VERTEX
8
OBJECT__38
10
0
20
0
30
0
70
128
71
14
72
12
73
8
0
VERTEX
8
OBJECT__38
10
0
20
0
30
0
70
128
71
8
72
13
73
10
0
VERTEX
8
OBJECT__38
10
0
20
0
30
0
70
128
71
9
72
1
73
7
0
VERTEX
8
OBJECT__38
10
0
20
0
30
0
70
128
71
15
72
16
73
17
0
VERTEX
8
OBJECT__38
10
0
20
0
30
0
70
128
71
11
72
18
73
15
0
VERTEX
8
OBJECT__38
10
0
20
0
30
0
70
128
71
11
72
10
73
19
0
VERTEX
8
OBJECT__38
10
0
20
0
30
0
70
128
71
19
72
18
73
11
0
VERTEX
8
OBJECT__38
10
0
20
0
30
0
70
128
71
15
72
17
73
11
0
VERTEX
8
OBJECT__38
10
0
20
0
30
0
70
128
71
3
72
7
73
1
0
SEQEND
8
OBJECT__38
0
POLYLINE
8
OBJECT__39
66
1
70
64
71
4
72
2
62
253
0
VERTEX
8
OBJECT__39
10
-4.000000
20
79.334000
30
108.125000
70
192
0
VERTEX
8
OBJECT__39
10
-4.000000
20
77.620003
30
173.574005
70
192
0
VERTEX
8
OBJECT__39
10
-4.000000
20
87.616997
30
173.835999
70
192
0
VERTEX
8
OBJECT__39
10
-4.000000
20
89.331001
30
108.386002
70
192
0
VERTEX
8
OBJECT__39
10
0
20
0
30
0
70
128
71
1
72
2
73
3
0
VERTEX
8
OBJECT__39
10
0
20
0
30
0
70
128
71
3
72
4
73
1
0
SEQEND
8
OBJECT__39
0
POLYLINE
8
OBJECT__40
66
1
70
64
71
19
72
17
62
253
0
VERTEX
8
OBJECT__40
10
2.152000
20
75.964996
30
108.272003
70
192
0
VERTEX
8
OBJECT__40
10
3.509000
20
75.697998
30
173.585007
70
192
0
VERTEX
8
OBJECT__40
10
2.114000
20
74.365997
30
173.669998
70
192
0
VERTEX
8
OBJECT__40
10
4.000000
20
79.334000
30
108.121002
70
192
0
VERTEX
8
OBJECT__40
10
4.000000
20
77.620003
30
173.574005
70
192
0
VERTEX
8
OBJECT__40
10
3.734000
20
76.578003
30
173.580002
70
192
0
VERTEX
8
OBJECT__40
10
2.079000
20
74.332001
30
173.671997
70
192
0
VERTEX
8
OBJECT__40
10
-1.711000
20
75.712997
30
108.301003
70
192
0
VERTEX
8
OBJECT__40
10
2.145000
20
75.953003
30
108.272003
70
192
0
VERTEX
8
OBJECT__40
10
-2.103000
20
74.480003
30
173.662003
70
192
0
VERTEX
8
OBJECT__40
10
-2.023000
20
76.146004
30
108.275002
70
192
0
VERTEX
8
OBJECT__40
10
-0.552000
20
73.750000
30
173.718002
70
192
0
VERTEX
8
OBJECT__40
10
-0.877000
20
73.711998
30
173.722000
70
192
0
VERTEX
8
OBJECT__40
10
1.752000
20
74.019997
30
173.692001
70
192
0
VERTEX
8
OBJECT__40
10
-4.000000
20
77.620003
30
173.574005
70
192
0
VERTEX
8
OBJECT__40
10
-3.972000
20
78.860001
30
108.112999
70
192
0
VERTEX
8
OBJECT__40
10
-4.000000
20
79.334000
30
108.125000
70
192
0
VERTEX
8
OBJECT__40
10
-2.985000
20
75.031998
30
173.617996
70
192
0
VERTEX
8
OBJECT__40
10
-3.123000
20
75.117996
30
173.612000
70
192
0
VERTEX
8
OBJECT__40
10
0
20
0
30
0
70
128
71
1
72
2
73
3
0
VERTEX
8
OBJECT__40
10
0
20
0
30
0
70
128
71
1
72
4
73
5
0
VERTEX
8
OBJECT__40
10
0
20
0
30
0
70
128
71
5
72
6
73
1
0
VERTEX
8
OBJECT__40
10
0
20
0
30
0
70
128
71
6
72
2
73
1
0
VERTEX
8
OBJECT__40
10
0
20
0
30
0
70
128
71
7
72
8
73
9
0
VERTEX
8
OBJECT__40
10
0
20
0
30
0
70
128
71
10
72
11
73
8
0
VERTEX
8
OBJECT__40
10
0
20
0
30
0
70
128
71
8
72
12
73
13
0
VERTEX
8
OBJECT__40
10
0
20
0
30
0
70
128
71
8
72
7
73
14
0
VERTEX
8
OBJECT__40
10
0
20
0
30
0
70
128
71
14
72
12
73
8
0
VERTEX
8
OBJECT__40
10
0
20
0
30
0
70
128
71
8
72
13
73
10
0
VERTEX
8
OBJECT__40
10
0
20
0
30
0
70
128
71
9
72
1
73
7
0
VERTEX
8
OBJECT__40
10
0
20
0
30
0
70
128
71
15
72
16
73
11
0
VERTEX
8
OBJECT__40
10
0
20
0
30
0
70
128
71
15
72
17
73
16
0
VERTEX
8
OBJECT__40
10
0
20
0
30
0
70
128
71
11
72
10
73
18
0
VERTEX
8
OBJECT__40
10
0
20
0
30
0
70
128
71
18
72
19
73
11
0
VERTEX
8
OBJECT__40
10
0
20
0
30
0
70
128
71
11
72
19
73
15
0
VERTEX
8
OBJECT__40
10
0
20
0
30
0
70
128
71
3
72
7
73
1
0
SEQEND
8
OBJECT__40
0
POLYLINE
8
OBJECT__41
66
1
70
64
71
5
72
3
62
253
0
VERTEX
8
OBJECT__41
10
4.000000
20
79.334000
30
108.121002
70
192
0
VERTEX
8
OBJECT__41
10
4.000000
20
89.331001
30
108.383003
70
192
0
VERTEX
8
OBJECT__41
10
4.000000
20
85.031998
30
173.768997
70
192
0
VERTEX
8
OBJECT__41
10
4.000000
20
87.616997
30
173.835999
70
192
0
VERTEX
8
OBJECT__41
10
4.000000
20
77.620003
30
173.574005
70
192
0
VERTEX
8
OBJECT__41
10
0
20
0
30
0
70
128
71
1
72
2
73
3
0
VERTEX
8
OBJECT__41
10
0
20
0
30
0
70
128
71
2
72
4
73
3
0
VERTEX
8
OBJECT__41
10
0
20
0
30
0
70
128
71
3
72
5
73
1
0
SEQEND
8
OBJECT__41
0
POLYLINE
8
OBJECT__42
66
1
70
64
71
47
72
49
62
253
0
VERTEX
8
OBJECT__42
10
3.277000
20
76.685997
30
174.087006
70
192
0
VERTEX
8
OBJECT__42
10
3.734000
20
76.578003
30
173.580002
70
192
0
VERTEX
8
OBJECT__42
10
4.000000
20
77.620003
30
173.574005
70
192
0
VERTEX
8
OBJECT__42
10
3.574000
20
87.600998
30
174.330002
70
192
0
VERTEX
8
OBJECT__42
10
4.000000
20
85.031998
30
173.768997
70
192
0
VERTEX
8
OBJECT__42
10
4.000000
20
87.616997
30
173.835999
70
192
0
VERTEX
8
OBJECT__42
10
3.574000
20
79.711998
30
174.123993
70
192
0
VERTEX
8
OBJECT__42
10
-3.739000
20
88.634003
30
174.210007
70
192
0
VERTEX
8
OBJECT__42
10
-3.879000
20
77.612000
30
173.899994
70
192
0
VERTEX
8
OBJECT__42
10
-3.574000
20
82.811996
30
174.205002
70
192
0
VERTEX
8
OBJECT__42
10
-3.574000
20
77.607002
30
174.069000
70
192
0
VERTEX
8
OBJECT__42
10
3.509000
20
75.697998
30
173.585007
70
192
0
VERTEX
8
OBJECT__42
10
3.218000
20
76.082001
30
174.080002
70
192
0
VERTEX
8
OBJECT__42
10
1.853000
20
74.802002
30
174.179001
70
192
0
VERTEX
8
OBJECT__42
10
-1.092000
20
74.268997
30
174.223999
70
192
0
VERTEX
8
OBJECT__42
10
-2.592000
20
75.431999
30
174.123993
70
192
0
VERTEX
8
OBJECT__42
10
-2.103000
20
74.480003
30
173.662003
70
192
0
VERTEX
8
OBJECT__42
10
-2.985000
20
75.031998
30
173.617996
70
192
0
VERTEX
8
OBJECT__42
10
-0.491000
20
74.296997
30
174.220993
70
192
0
VERTEX
8
OBJECT__42
10
-0.877000
20
73.711998
30
173.722000
70
192
0
VERTEX
8
OBJECT__42
10
-0.552000
20
73.750000
30
173.718002
70
192
0
VERTEX
8
OBJECT__42
10
1.752000
20
74.019997
30
173.692001
70
192
0
VERTEX
8
OBJECT__42
10
1.409000
20
74.386002
30
174.210999
70
192
0
VERTEX
8
OBJECT__42
10
2.079000
20
74.332001
30
173.671997
70
192
0
VERTEX
8
OBJECT__42
10
2.114000
20
74.365997
30
173.669998
70
192
0
VERTEX
8
OBJECT__42
10
-3.123000
20
75.117996
30
173.612000
70
192
0
VERTEX
8
OBJECT__42
10
-3.058000
20
75.792999
30
174.093002
70
192
0
VERTEX
8
OBJECT__42
10
-2.119000
20
90.865997
30
174.102005
70
192
0
VERTEX
8
OBJECT__42
10
-3.444000
20
88.539001
30
174.373993
70
192
0
VERTEX
8
OBJECT__42
10
-3.499000
20
89.553001
30
173.949005
70
192
0
VERTEX
8
OBJECT__42
10
-3.731000
20
88.655998
30
173.897003
70
192
0
VERTEX
8
OBJECT__42
10
-1.987000
20
90.507004
30
174.591995
70
192
0
VERTEX
8
OBJECT__42
10
-4.000000
20
87.616997
30
173.835999
70
192
0
VERTEX
8
OBJECT__42
10
0.478000
20
91.055000
30
174.682999
70
192
0
VERTEX
8
OBJECT__42
10
2.668000
20
89.929001
30
174.509995
70
192
0
VERTEX
8
OBJECT__42
10
2.061000
20
90.775002
30
174.091003
70
192
0
VERTEX
8
OBJECT__42
10
0.855000
20
91.515999
30
174.188995
70
192
0
VERTEX
8
OBJECT__42
10
2.989000
20
90.204002
30
174.016006
70
192
0
VERTEX
8
OBJECT__42
10
0.552000
20
91.478996
30
174.182999
70
192
0
VERTEX
8
OBJECT__42
10
0.453000
20
91.067001
30
174.684998
70
192
0
VERTEX
8
OBJECT__42
10
-1.771000
20
91.196999
30
174.141006
70
192
0
VERTEX
8
OBJECT__42
10
-1.964000
20
90.512001
30
174.593002
70
192
0
VERTEX
8
OBJECT__42
10
-2.100000
20
90.883003
30
174.104004
70
192
0
VERTEX
8
OBJECT__42
10
3.108000
20
90.130997
30
174.005997
70
192
0
VERTEX
8
OBJECT__42
10
2.681000
20
89.897003
30
174.507996
70
192
0
VERTEX
8
OBJECT__42
10
3.574000
20
87.653000
30
174.332001
70
192
0
VERTEX
8
OBJECT__42
10
-4.000000
20
77.620003
30
173.574005
70
192
0
VERTEX
8
OBJECT__42
10
0
20
0
30
0
70
128
71
1
72
2
73
3
0
VERTEX
8
OBJECT__42
10
0
20
0
30
0
70
128
71
4
72
5
73
6
0
VERTEX
8
OBJECT__42
10
0
20
0
30
0
70
128
71
7
72
3
73
5
0
VERTEX
8
OBJECT__42
10
0
20
0
30
0
70
128
71
5
72
4
73
7
0
VERTEX
8
OBJECT__42
10
0
20
0
30
0
70
128
71
8
72
9
73
10
0
VERTEX
8
OBJECT__42
10
0
20
0
30
0
70
128
71
9
72
11
73
10
0
VERTEX
8
OBJECT__42
10
0
20
0
30
0
70
128
71
12
72
13
73
14
0
VERTEX
8
OBJECT__42
10
0
20
0
30
0
70
128
71
2
72
1
73
13
0
VERTEX
8
OBJECT__42
10
0
20
0
30
0
70
128
71
13
72
12
73
2
0
VERTEX
8
OBJECT__42
10
0
20
0
30
0
70
128
71
15
72
16
73
17
0
VERTEX
8
OBJECT__42
10
0
20
0
30
0
70
128
71
16
72
18
73
17
0
VERTEX
8
OBJECT__42
10
0
20
0
30
0
70
128
71
19
72
15
73
20
0
VERTEX
8
OBJECT__42
10
0
20
0
30
0
70
128
71
20
72
21
73
19
0
VERTEX
8
OBJECT__42
10
0
20
0
30
0
70
128
71
21
72
22
73
23
0
VERTEX
8
OBJECT__42
10
0
20
0
30
0
70
128
71
23
72
22
73
24
0
VERTEX
8
OBJECT__42
10
0
20
0
30
0
70
128
71
24
72
14
73
23
0
VERTEX
8
OBJECT__42
10
0
20
0
30
0
70
128
71
24
72
25
73
14
0
VERTEX
8
OBJECT__42
10
0
20
0
30
0
70
128
71
9
72
26
73
27
0
VERTEX
8
OBJECT__42
10
0
20
0
30
0
70
128
71
27
72
11
73
9
0
VERTEX
8
OBJECT__42
10
0
20
0
30
0
70
128
71
16
72
27
73
26
0
VERTEX
8
OBJECT__42
10
0
20
0
30
0
70
128
71
26
72
18
73
16
0
VERTEX
8
OBJECT__42
10
0
20
0
30
0
70
128
71
28
72
8
73
29
0
VERTEX
8
OBJECT__42
10
0
20
0
30
0
70
128
71
8
72
28
73
30
0
VERTEX
8
OBJECT__42
10
0
20
0
30
0
70
128
71
30
72
31
73
8
0
VERTEX
8
OBJECT__42
10
0
20
0
30
0
70
128
71
29
72
32
73
28
0
VERTEX
8
OBJECT__42
10
0
20
0
30
0
70
128
71
9
72
8
73
33
0
VERTEX
8
OBJECT__42
10
0
20
0
30
0
70
128
71
8
72
31
73
33
0
VERTEX
8
OBJECT__42
10
0
20
0
30
0
70
128
71
34
72
35
73
36
0
VERTEX
8
OBJECT__42
10
0
20
0
30
0
70
128
71
36
72
37
73
34
0
VERTEX
8
OBJECT__42
10
0
20
0
30
0
70
128
71
35
72
38
73
36
0
VERTEX
8
OBJECT__42
10
0
20
0
30
0
70
128
71
37
72
39
73
34
0
VERTEX
8
OBJECT__42
10
0
20
0
30
0
70
128
71
40
72
39
73
41
0
VERTEX
8
OBJECT__42
10
0
20
0
30
0
70
128
71
41
72
42
73
40
0
VERTEX
8
OBJECT__42
10
0
20
0
30
0
70
128
71
41
72
43
73
42
0
VERTEX
8
OBJECT__42
10
0
20
0
30
0
70
128
71
43
72
28
73
42
0
VERTEX
8
OBJECT__42
10
0
20
0
30
0
70
128
71
44
72
45
73
46
0
VERTEX
8
OBJECT__42
10
0
20
0
30
0
70
128
71
46
72
6
73
44
0
VERTEX
8
OBJECT__42
10
0
20
0
30
0
70
128
71
44
72
38
73
45
0
VERTEX
8
OBJECT__42
10
0
20
0
30
0
70
128
71
46
72
4
73
6
0
VERTEX
8
OBJECT__42
10
0
20
0
30
0
70
128
71
40
72
34
73
39
0
VERTEX
8
OBJECT__42
10
0
20
0
30
0
70
128
71
35
72
45
73
38
0
VERTEX
8
OBJECT__42
10
0
20
0
30
0
70
128
71
33
72
47
73
9
0
VERTEX
8
OBJECT__42
10
0
20
0
30
0
70
128
71
32
72
42
73
28
0
VERTEX
8
OBJECT__42
10
0
20
0
30
0
70
128
71
9
72
47
73
26
0
VERTEX
8
OBJECT__42
10
0
20
0
30
0
70
128
71
23
72
19
73
21
0
VERTEX
8
OBJECT__42
10
0
20
0
30
0
70
128
71
17
72
20
73
15
0
VERTEX
8
OBJECT__42
10
0
20
0
30
0
70
128
71
14
72
25
73
12
0
VERTEX
8
OBJECT__42
10
0
20
0
30
0
70
128
71
10
72
29
73
8
0
VERTEX
8
OBJECT__42
10
0
20
0
30
0
70
128
71
3
72
7
73
1
0
SEQEND
8
OBJECT__42
0
POLYLINE
8
OBJECT__43
66
1
70
64
71
22
72
22
62
253
0
VERTEX
8
OBJECT__43
10
-1.554000
20
86.931000
30
174.529999
70
192
0
VERTEX
8
OBJECT__43
10
-1.964000
20
90.512001
30
174.593002
70
192
0
VERTEX
8
OBJECT__43
10
-1.987000
20
90.507004
30
174.591995
70
192
0
VERTEX
8
OBJECT__43
10
0.478000
20
91.055000
30
174.682999
70
192
0
VERTEX
8
OBJECT__43
10
0.453000
20
91.067001
30
174.684998
70
192
0
VERTEX
8
OBJECT__43
10
-3.444000
20
88.539001
30
174.373993
70
192
0
VERTEX
8
OBJECT__43
10
-3.574000
20
82.811996
30
174.205002
70
192
0
VERTEX
8
OBJECT__43
10
2.681000
20
89.897003
30
174.507996
70
192
0
VERTEX
8
OBJECT__43
10
2.668000
20
89.929001
30
174.509995
70
192
0
VERTEX
8
OBJECT__43
10
3.574000
20
87.600998
30
174.330002
70
192
0
VERTEX
8
OBJECT__43
10
3.574000
20
87.653000
30
174.332001
70
192
0
VERTEX
8
OBJECT__43
10
1.397000
20
75.489998
30
174.240005
70
192
0
VERTEX
8
OBJECT__43
10
3.277000
20
76.685997
30
174.087006
70
192
0
VERTEX
8
OBJECT__43
10
3.574000
20
79.711998
30
174.123993
70
192
0
VERTEX
8
OBJECT__43
10
-0.491000
20
74.296997
30
174.220993
70
192
0
VERTEX
8
OBJECT__43
10
1.853000
20
74.802002
30
174.179001
70
192
0
VERTEX
8
OBJECT__43
10
3.218000
20
76.082001
30
174.080002
70
192
0
VERTEX
8
OBJECT__43
10
1.409000
20
74.386002
30
174.210999
70
192
0
VERTEX
8
OBJECT__43
10
-2.592000
20
75.431999
30
174.123993
70
192
0
VERTEX
8
OBJECT__43
10
-1.092000
20
74.268997
30
174.223999
70
192
0
VERTEX
8
OBJECT__43
10
-3.574000
20
77.607002
30
174.069000
70
192
0
VERTEX
8
OBJECT__43
10
-3.058000
20
75.792999
30
174.093002
70
192
0
VERTEX
8
OBJECT__43
10
0
20
0
30
0
70
128
71
1
72
2
73
3
0
VERTEX
8
OBJECT__43
10
0
20
0
30
0
70
128
71
1
72
4
73
5
0
VERTEX
8
OBJECT__43
10
0
20
0
30
0
70
128
71
5
72
2
73
1
0
VERTEX
8
OBJECT__43
10
0
20
0
30
0
70
128
71
6
72
7
73
1
0
VERTEX
8
OBJECT__43
10
0
20
0
30
0
70
128
71
1
72
8
73
9
0
VERTEX
8
OBJECT__43
10
0
20
0
30
0
70
128
71
1
72
10
73
11
0
VERTEX
8
OBJECT__43
10
0
20
0
30
0
70
128
71
11
72
8
73
1
0
VERTEX
8
OBJECT__43
10
0
20
0
30
0
70
128
71
12
72
13
73
14
0
VERTEX
8
OBJECT__43
10
0
20
0
30
0
70
128
71
14
72
1
73
12
0
VERTEX
8
OBJECT__43
10
0
20
0
30
0
70
128
71
1
72
15
73
12
0
VERTEX
8
OBJECT__43
10
0
20
0
30
0
70
128
71
14
72
10
73
1
0
VERTEX
8
OBJECT__43
10
0
20
0
30
0
70
128
71
12
72
16
73
17
0
VERTEX
8
OBJECT__43
10
0
20
0
30
0
70
128
71
12
72
15
73
18
0
VERTEX
8
OBJECT__43
10
0
20
0
30
0
70
128
71
18
72
16
73
12
0
VERTEX
8
OBJECT__43
10
0
20
0
30
0
70
128
71
17
72
13
73
12
0
VERTEX
8
OBJECT__43
10
0
20
0
30
0
70
128
71
1
72
19
73
20
0
VERTEX
8
OBJECT__43
10
0
20
0
30
0
70
128
71
19
72
1
73
21
0
VERTEX
8
OBJECT__43
10
0
20
0
30
0
70
128
71
1
72
7
73
21
0
VERTEX
8
OBJECT__43
10
0
20
0
30
0
70
128
71
21
72
22
73
19
0
VERTEX
8
OBJECT__43
10
0
20
0
30
0
70
128
71
20
72
15
73
1
0
VERTEX
8
OBJECT__43
10
0
20
0
30
0
70
128
71
9
72
4
73
1
0
VERTEX
8
OBJECT__43
10
0
20
0
30
0
70
128
71
3
72
6
73
1
0
SEQEND
8
OBJECT__43
0
POLYLINE
8
OBJECT__44
66
1
70
64
71
12
72
10
62
253
0
VERTEX
8
OBJECT__44
10
21.656000
20
68.900002
30
86.348999
70
192
0
VERTEX
8
OBJECT__44
10
23.900999
20
68.900002
30
86.348999
70
192
0
VERTEX
8
OBJECT__44
10
20.785000
20
68.642998
30
96.172997
70
192
0
VERTEX
8
OBJECT__44
10
8.209000
20
68.366997
30
106.722000
70
192
0
VERTEX
8
OBJECT__44
10
6.466000
20
68.413002
30
104.950996
70
192
0
VERTEX
8
OBJECT__44
10
17.115000
20
68.605003
30
97.616997
70
192
0
VERTEX
8
OBJECT__44
10
-8.208000
20
68.366997
30
106.722000
70
192
0
VERTEX
8
OBJECT__44
10
-6.466000
20
68.413002
30
104.950996
70
192
0
VERTEX
8
OBJECT__44
10
-20.785000
20
68.642998
30
96.172997
70
192
0
VERTEX
8
OBJECT__44
10
-17.115000
20
68.605003
30
97.616997
70
192
0
VERTEX
8
OBJECT__44
10
-21.656000
20
68.900002
30
86.348999
70
192
0
VERTEX
8
OBJECT__44
10
-23.900999
20
68.900002
30
86.348999
70
192
0
VERTEX
8
OBJECT__44
10
0
20
0
30
0
70
128
71
1
72
2
73
3
0
VERTEX
8
OBJECT__44
10
0
20
0
30
0
70
128
71
4
72
5
73
6
0
VERTEX
8
OBJECT__44
10
0
20
0
30
0
70
128
71
6
72
3
73
4
0
VERTEX
8
OBJECT__44
10
0
20
0
30
0
70
128
71
7
72
8
73
5
0
VERTEX
8
OBJECT__44
10
0
20
0
30
0
70
128
71
7
72
9
73
10
0
VERTEX
8
OBJECT__44
10
0
20
0
30
0
70
128
71
11
72
10
73
9
0
VERTEX
8
OBJECT__44
10
0
20
0
30
0
70
128
71
5
72
4
73
7
0
VERTEX
8
OBJECT__44
10
0
20
0
30
0
70
128
71
9
72
12
73
11
0
VERTEX
8
OBJECT__44
10
0
20
0
30
0
70
128
71
10
72
8
73
7
0
VERTEX
8
OBJECT__44
10
0
20
0
30
0
70
128
71
3
72
6
73
1
0
SEQEND
8
OBJECT__44
0
POLYLINE
8
OBJECT__45
66
1
70
64
71
36
72
34
62
253
0
VERTEX
8
OBJECT__45
10
23.900999
20
68.900002
30
86.348999
70
192
0
VERTEX
8
OBJECT__45
10
21.656000
20
68.900002
30
86.348999
70
192
0
VERTEX
8
OBJECT__45
10
21.596001
20
69.181999
30
85.924004
70
192
0
VERTEX
8
OBJECT__45
10
18.419001
20
73.496002
30
79.405998
70
192
0
VERTEX
8
OBJECT__45
10
21.709000
20
76.974998
30
74.150002
70
192
0
VERTEX
8
OBJECT__45
10
22.806999
20
72.931999
30
80.258003
70
192
0
VERTEX
8
OBJECT__45
10
21.563999
20
69.274002
30
85.783997
70
192
0
VERTEX
8
OBJECT__45
10
21.143999
20
70.098999
30
84.538002
70
192
0
VERTEX
8
OBJECT__45
10
21.586000
20
69.217003
30
85.871002
70
192
0
VERTEX
8
OBJECT__45
10
17.860001
20
73.990997
30
78.657997
70
192
0
VERTEX
8
OBJECT__45
10
13.804000
20
76.643997
30
74.649002
70
192
0
VERTEX
8
OBJECT__45
10
-23.900999
20
68.900002
30
86.348999
70
192
0
VERTEX
8
OBJECT__45
10
-21.586000
20
69.217003
30
85.871002
70
192
0
VERTEX
8
OBJECT__45
10
-21.596001
20
69.181999
30
85.924004
70
192
0
VERTEX
8
OBJECT__45
10
-23.975000
20
71.024002
30
83.140999
70
192
0
VERTEX
8
OBJECT__45
10
-19.197001
20
72.724998
30
80.570999
70
192
0
VERTEX
8
OBJECT__45
10
-21.563999
20
69.274002
30
85.783997
70
192
0
VERTEX
8
OBJECT__45
10
8.311000
20
78.685997
30
71.565002
70
192
0
VERTEX
8
OBJECT__45
10
13.535000
20
83.213997
30
64.723999
70
192
0
VERTEX
8
OBJECT__45
10
15.043000
20
82.063004
30
66.462997
70
192
0
VERTEX
8
OBJECT__45
10
-20.120001
20
78.830002
30
71.348000
70
192
0
VERTEX
8
OBJECT__45
10
-14.875000
20
81.876999
30
66.744003
70
192
0
VERTEX
8
OBJECT__45
10
-12.144000
20
77.406998
30
73.497002
70
192
0
VERTEX
8
OBJECT__45
10
13.240000
20
76.919998
30
74.233002
70
192
0
VERTEX
8
OBJECT__45
10
-23.044001
20
72.907997
30
80.293999
70
192
0
VERTEX
8
OBJECT__45
10
-17.635000
20
74.178001
30
78.375000
70
192
0
VERTEX
8
OBJECT__45
10
-13.590000
20
76.750999
30
74.487999
70
192
0
VERTEX
8
OBJECT__45
10
-7.150000
20
78.961998
30
71.148003
70
192
0
VERTEX
8
OBJECT__45
10
1.632000
20
85.899002
30
60.667999
70
192
0
VERTEX
8
OBJECT__45
10
7.523000
20
78.877998
30
71.274002
70
192
0
VERTEX
8
OBJECT__45
10
-10.721000
20
84.289001
30
63.098999
70
192
0
VERTEX
8
OBJECT__45
10
2.098000
20
79.655998
30
70.098000
70
192
0
VERTEX
8
OBJECT__45
10
0.615000
20
79.714996
30
70.010002
70
192
0
VERTEX
8
OBJECT__45
10
0.073000
20
85.695999
30
60.973999
70
192
0
VERTEX
8
OBJECT__45
10
-4.904000
20
79.369003
30
70.532997
70
192
0
VERTEX
8
OBJECT__45
10
-21.656000
20
68.900002
30
86.348999
70
192
0
VERTEX
8
OBJECT__45
10
0
20
0
30
0
70
128
71
1
72
2
73
3
0
VERTEX
8
OBJECT__45
10
0
20
0
30
0
70
128
71
4
72
5
73
6
0
VERTEX
8
OBJECT__45
10
0
20
0
30
0
70
128
71
1
72
7
73
8
0
VERTEX
8
OBJECT__45
10
0
20
0
30
0
70
128
71
3
72
9
73
1
0
VERTEX
8
OBJECT__45
10
0
20
0
30
0
70
128
71
6
72
8
73
4
0
VERTEX
8
OBJECT__45
10
0
20
0
30
0
70
128
71
9
72
7
73
1
0
VERTEX
8
OBJECT__45
10
0
20
0
30
0
70
128
71
5
72
10
73
11
0
VERTEX
8
OBJECT__45
10
0
20
0
30
0
70
128
71
8
72
6
73
1
0
VERTEX
8
OBJECT__45
10
0
20
0
30
0
70
128
71
4
72
10
73
5
0
VERTEX
8
OBJECT__45
10
0
20
0
30
0
70
128
71
12
72
13
73
14
0
VERTEX
8
OBJECT__45
10
0
20
0
30
0
70
128
71
15
72
16
73
17
0
VERTEX
8
OBJECT__45
10
0
20
0
30
0
70
128
71
18
72
19
73
20
0
VERTEX
8
OBJECT__45
10
0
20
0
30
0
70
128
71
11
72
20
73
5
0
VERTEX
8
OBJECT__45
10
0
20
0
30
0
70
128
71
12
72
17
73
13
0
VERTEX
8
OBJECT__45
10
0
20
0
30
0
70
128
71
17
72
12
73
15
0
VERTEX
8
OBJECT__45
10
0
20
0
30
0
70
128
71
21
72
22
73
23
0
VERTEX
8
OBJECT__45
10
0
20
0
30
0
70
128
71
11
72
24
73
20
0
VERTEX
8
OBJECT__45
10
0
20
0
30
0
70
128
71
15
72
25
73
16
0
VERTEX
8
OBJECT__45
10
0
20
0
30
0
70
128
71
25
72
21
73
26
0
VERTEX
8
OBJECT__45
10
0
20
0
30
0
70
128
71
23
72
27
73
21
0
VERTEX
8
OBJECT__45
10
0
20
0
30
0
70
128
71
28
72
23
73
22
0
VERTEX
8
OBJECT__45
10
0
20
0
30
0
70
128
71
29
72
19
73
30
0
VERTEX
8
OBJECT__45
10
0
20
0
30
0
70
128
71
20
72
24
73
18
0
VERTEX
8
OBJECT__45
10
0
20
0
30
0
70
128
71
26
72
16
73
25
0
VERTEX
8
OBJECT__45
10
0
20
0
30
0
70
128
71
22
72
31
73
28
0
VERTEX
8
OBJECT__45
10
0
20
0
30
0
70
128
71
32
72
33
73
34
0
VERTEX
8
OBJECT__45
10
0
20
0
30
0
70
128
71
18
72
30
73
19
0
VERTEX
8
OBJECT__45
10
0
20
0
30
0
70
128
71
27
72
26
73
21
0
VERTEX
8
OBJECT__45
10
0
20
0
30
0
70
128
71
34
72
33
73
35
0
VERTEX
8
OBJECT__45
10
0
20
0
30
0
70
128
71
30
72
32
73
29
0
VERTEX
8
OBJECT__45
10
0
20
0
30
0
70
128
71
31
72
35
73
28
0
VERTEX
8
OBJECT__45
10
0
20
0
30
0
70
128
71
34
72
29
73
32
0
VERTEX
8
OBJECT__45
10
0
20
0
30
0
70
128
71
35
72
31
73
34
0
VERTEX
8
OBJECT__45
10
0
20
0
30
0
70
128
71
14
72
36
73
12
0
SEQEND
8
OBJECT__45
0
POLYLINE
8
OBJECT__46
66
1
70
64
71
17
72
15
62
253
0
VERTEX
8
OBJECT__46
10
6.466000
20
68.413002
30
104.950996
70
192
0
VERTEX
8
OBJECT__46
10
6.239000
20
70.531998
30
104.277000
70
192
0
VERTEX
8
OBJECT__46
10
14.014000
20
70.671997
30
98.921997
70
192
0
VERTEX
8
OBJECT__46
10
17.115000
20
68.605003
30
97.616997
70
192
0
VERTEX
8
OBJECT__46
10
-6.466000
20
68.413002
30
104.950996
70
192
0
VERTEX
8
OBJECT__46
10
-6.239000
20
70.531998
30
104.277000
70
192
0
VERTEX
8
OBJECT__46
10
0.000000
20
70.531998
30
104.277000
70
192
0
VERTEX
8
OBJECT__46
10
-17.115000
20
68.605003
30
97.616997
70
192
0
VERTEX
8
OBJECT__46
10
-14.014000
20
70.671997
30
98.921997
70
192
0
VERTEX
8
OBJECT__46
10
-16.514000
20
70.717003
30
97.199997
70
192
0
VERTEX
8
OBJECT__46
10
-21.596001
20
69.182999
30
85.924004
70
192
0
VERTEX
8
OBJECT__46
10
-20.927999
20
71.011002
30
85.971001
70
192
0
VERTEX
8
OBJECT__46
10
-21.656000
20
68.900002
30
86.348999
70
192
0
VERTEX
8
OBJECT__46
10
21.596001
20
69.182999
30
85.924004
70
192
0
VERTEX
8
OBJECT__46
10
21.656000
20
68.900002
30
86.348999
70
192
0
VERTEX
8
OBJECT__46
10
16.514000
20
70.717003
30
97.199997
70
192
0
VERTEX
8
OBJECT__46
10
20.927999
20
71.011002
30
85.971001
70
192
0
VERTEX
8
OBJECT__46
10
0
20
0
30
0
70
128
71
1
72
2
73
3
0
VERTEX
8
OBJECT__46
10
0
20
0
30
0
70
128
71
3
72
4
73
1
0
VERTEX
8
OBJECT__46
10
0
20
0
30
0
70
128
71
5
72
6
73
7
0
VERTEX
8
OBJECT__46
10
0
20
0
30
0
70
128
71
7
72
1
73
5
0
VERTEX
8
OBJECT__46
10
0
20
0
30
0
70
128
71
5
72
8
73
9
0
VERTEX
8
OBJECT__46
10
0
20
0
30
0
70
128
71
8
72
10
73
9
0
VERTEX
8
OBJECT__46
10
0
20
0
30
0
70
128
71
8
72
11
73
12
0
VERTEX
8
OBJECT__46
10
0
20
0
30
0
70
128
71
11
72
8
73
13
0
VERTEX
8
OBJECT__46
10
0
20
0
30
0
70
128
71
4
72
16
73
17
0
VERTEX
8
OBJECT__46
10
0
20
0
30
0
70
128
71
17
72
14
73
4
0
VERTEX
8
OBJECT__46
10
0
20
0
30
0
70
128
71
15
72
4
73
14
0
VERTEX
8
OBJECT__46
10
0
20
0
30
0
70
128
71
12
72
10
73
8
0
VERTEX
8
OBJECT__46
10
0
20
0
30
0
70
128
71
9
72
6
73
5
0
VERTEX
8
OBJECT__46
10
0
20
0
30
0
70
128
71
7
72
2
73
1
0
VERTEX
8
OBJECT__46
10
0
20
0
30
0
70
128
71
3
72
16
73
4
0
SEQEND
8
OBJECT__46
0
POLYLINE
8
OBJECT__47
66
1
70
64
71
22
72
20
62
253
0
VERTEX
8
OBJECT__47
10
20.934000
20
71.013000
30
85.898003
70
192
0
VERTEX
8
OBJECT__47
10
20.941000
20
70.982002
30
85.823997
70
192
0
VERTEX
8
OBJECT__47
10
20.937000
20
70.995003
30
85.860001
70
192
0
VERTEX
8
OBJECT__47
10
20.667999
20
78.538002
30
86.121002
70
192
0
VERTEX
8
OBJECT__47
10
20.927999
20
71.011002
30
85.971001
70
192
0
VERTEX
8
OBJECT__47
10
16.514000
20
70.717003
30
97.199997
70
192
0
VERTEX
8
OBJECT__47
10
13.768000
20
97.565002
30
99.521004
70
192
0
VERTEX
8
OBJECT__47
10
19.983000
20
97.901001
30
86.695999
70
192
0
VERTEX
8
OBJECT__47
10
14.014000
20
70.671997
30
98.921997
70
192
0
VERTEX
8
OBJECT__47
10
6.239000
20
70.531998
30
104.277000
70
192
0
VERTEX
8
OBJECT__47
10
0.000000
20
97.421997
30
104.989998
70
192
0
VERTEX
8
OBJECT__47
10
-13.768000
20
97.565002
30
99.521004
70
192
0
VERTEX
8
OBJECT__47
10
-6.239000
20
70.531998
30
104.277000
70
192
0
VERTEX
8
OBJECT__47
10
0.000000
20
70.531998
30
104.277000
70
192
0
VERTEX
8
OBJECT__47
10
-14.014000
20
70.671997
30
98.921997
70
192
0
VERTEX
8
OBJECT__47
10
-20.667999
20
78.538002
30
86.121002
70
192
0
VERTEX
8
OBJECT__47
10
-16.514000
20
70.717003
30
97.199997
70
192
0
VERTEX
8
OBJECT__47
10
-20.927999
20
71.011002
30
85.971001
70
192
0
VERTEX
8
OBJECT__47
10
-20.934000
20
71.013000
30
85.898003
70
192
0
VERTEX
8
OBJECT__47
10
-20.938000
20
70.991997
30
85.851997
70
192
0
VERTEX
8
OBJECT__47
10
-20.941000
20
70.982002
30
85.823997
70
192
0
VERTEX
8
OBJECT__47
10
-19.983000
20
97.901001
30
86.695999
70
192
0
VERTEX
8
OBJECT__47
10
0
20
0
30
0
70
128
71
1
72
2
73
3
0
VERTEX
8
OBJECT__47
10
0
20
0
30
0
70
128
71
4
72
5
73
6
0
VERTEX
8
OBJECT__47
10
0
20
0
30
0
70
128
71
4
72
1
73
5
0
VERTEX
8
OBJECT__47
10
0
20
0
30
0
70
128
71
7
72
8
73
4
0
VERTEX
8
OBJECT__47
10
0
20
0
30
0
70
128
71
4
72
9
73
7
0
VERTEX
8
OBJECT__47
10
0
20
0
30
0
70
128
71
6
72
9
73
4
0
VERTEX
8
OBJECT__47
10
0
20
0
30
0
70
128
71
7
72
9
73
10
0
VERTEX
8
OBJECT__47
10
0
20
0
30
0
70
128
71
10
72
11
73
7
0
VERTEX
8
OBJECT__47
10
0
20
0
30
0
70
128
71
12
72
11
73
13
0
VERTEX
8
OBJECT__47
10
0
20
0
30
0
70
128
71
11
72
14
73
13
0
VERTEX
8
OBJECT__47
10
0
20
0
30
0
70
128
71
12
72
15
73
16
0
VERTEX
8
OBJECT__47
10
0
20
0
30
0
70
128
71
16
72
15
73
17
0
VERTEX
8
OBJECT__47
10
0
20
0
30
0
70
128
71
17
72
18
73
16
0
VERTEX
8
OBJECT__47
10
0
20
0
30
0
70
128
71
18
72
19
73
16
0
VERTEX
8
OBJECT__47
10
0
20
0
30
0
70
128
71
19
72
18
73
20
0
VERTEX
8
OBJECT__47
10
0
20
0
30
0
70
128
71
20
72
21
73
19
0
VERTEX
8
OBJECT__47
10
0
20
0
30
0
70
128
71
16
72
22
73
12
0
VERTEX
8
OBJECT__47
10
0
20
0
30
0
70
128
71
13
72
15
73
12
0
VERTEX
8
OBJECT__47
10
0
20
0
30
0
70
128
71
10
72
14
73
11
0
VERTEX
8
OBJECT__47
10
0
20
0
30
0
70
128
71
3
72
5
73
1
0
SEQEND
8
OBJECT__47
0
POLYLINE
8
OBJECT__48
66
1
70
64
71
52
72
50
62
253
0
VERTEX
8
OBJECT__48
10
18.232000
20
98.001999
30
82.846001
70
192
0
VERTEX
8
OBJECT__48
10
18.980000
20
73.829002
30
81.814003
70
192
0
VERTEX
8
OBJECT__48
10
20.667999
20
78.538002
30
86.121002
70
192
0
VERTEX
8
OBJECT__48
10
19.882999
20
72.874001
30
83.198997
70
192
0
VERTEX
8
OBJECT__48
10
19.983000
20
97.901001
30
86.695999
70
192
0
VERTEX
8
OBJECT__48
10
19.927000
20
97.905998
30
86.505997
70
192
0
VERTEX
8
OBJECT__48
10
16.808001
20
98.070000
30
80.255997
70
192
0
VERTEX
8
OBJECT__48
10
13.679000
20
98.153999
30
77.036003
70
192
0
VERTEX
8
OBJECT__48
10
14.089000
20
77.837997
30
76.000000
70
192
0
VERTEX
8
OBJECT__48
10
16.657000
20
76.287003
30
78.249001
70
192
0
VERTEX
8
OBJECT__48
10
17.497000
20
98.043999
30
81.258003
70
192
0
VERTEX
8
OBJECT__48
10
11.795000
20
98.196999
30
75.389000
70
192
0
VERTEX
8
OBJECT__48
10
7.333000
20
98.255997
30
73.164001
70
192
0
VERTEX
8
OBJECT__48
10
7.552000
20
80.528999
30
72.097000
70
192
0
VERTEX
8
OBJECT__48
10
12.212000
20
78.971001
30
74.357002
70
192
0
VERTEX
8
OBJECT__48
10
12.776000
20
98.179001
30
76.106003
70
192
0
VERTEX
8
OBJECT__48
10
1.370000
20
81.463997
30
70.742996
70
192
0
VERTEX
8
OBJECT__48
10
6.996000
20
80.714996
30
71.828003
70
192
0
VERTEX
8
OBJECT__48
10
4.000000
20
89.793999
30
71.591003
70
192
0
VERTEX
8
OBJECT__48
10
3.500000
20
89.795998
30
71.500999
70
192
0
VERTEX
8
OBJECT__48
10
2.328000
20
89.801003
30
71.336998
70
192
0
VERTEX
8
OBJECT__48
10
0.005000
20
89.799004
30
71.402000
70
192
0
VERTEX
8
OBJECT__48
10
0.013000
20
81.400002
30
70.834000
70
192
0
VERTEX
8
OBJECT__48
10
5.451000
20
98.274002
30
72.454002
70
192
0
VERTEX
8
OBJECT__48
10
4.000000
20
98.282997
30
72.115997
70
192
0
VERTEX
8
OBJECT__48
10
4.000000
20
90.292999
30
71.622002
70
192
0
VERTEX
8
OBJECT__48
10
6.616000
20
98.264999
30
72.806999
70
192
0
VERTEX
8
OBJECT__48
10
-7.313000
20
98.252998
30
73.260002
70
192
0
VERTEX
8
OBJECT__48
10
-7.511000
20
80.456001
30
72.203003
70
192
0
VERTEX
8
OBJECT__48
10
-4.000000
20
89.793999
30
71.591003
70
192
0
VERTEX
8
OBJECT__48
10
-4.000000
20
90.292999
30
71.622002
70
192
0
VERTEX
8
OBJECT__48
10
-3.500000
20
89.795998
30
71.500999
70
192
0
VERTEX
8
OBJECT__48
10
-4.354000
20
81.195999
30
71.129997
70
192
0
VERTEX
8
OBJECT__48
10
-9.841000
20
79.910004
30
72.995003
70
192
0
VERTEX
8
OBJECT__48
10
-9.470000
20
98.234001
30
74.004997
70
192
0
VERTEX
8
OBJECT__48
10
-10.538000
20
98.218002
30
74.589996
70
192
0
VERTEX
8
OBJECT__48
10
-13.672000
20
98.153000
30
77.072998
70
192
0
VERTEX
8
OBJECT__48
10
-14.241000
20
77.917999
30
75.884003
70
192
0
VERTEX
8
OBJECT__48
10
-14.309000
20
77.887001
30
75.929001
70
192
0
VERTEX
8
OBJECT__48
10
-15.073000
20
98.124001
30
78.181999
70
192
0
VERTEX
8
OBJECT__48
10
-15.888000
20
98.099998
30
79.087997
70
192
0
VERTEX
8
OBJECT__48
10
-18.266001
20
98.001999
30
82.850998
70
192
0
VERTEX
8
OBJECT__48
10
-18.971001
20
73.838997
30
81.799004
70
192
0
VERTEX
8
OBJECT__48
10
-18.302000
20
74.803001
30
80.402000
70
192
0
VERTEX
8
OBJECT__48
10
-19.927000
20
97.905998
30
86.505997
70
192
0
VERTEX
8
OBJECT__48
10
-19.983000
20
97.901001
30
86.695999
70
192
0
VERTEX
8
OBJECT__48
10
-20.667999
20
78.538002
30
86.121002
70
192
0
VERTEX
8
OBJECT__48
10
-20.934000
20
71.013000
30
85.898003
70
192
0
VERTEX
8
OBJECT__48
10
-19.445999
20
97.943001
30
85.100998
70
192
0
VERTEX
8
OBJECT__48
10
-18.978001
20
97.972000
30
83.977997
70
192
0
VERTEX
8
OBJECT__48
10
-4.000000
20
98.282997
30
72.115997
70
192
0
VERTEX
8
OBJECT__48
10
20.934000
20
71.013000
30
85.898003
70
192
0
VERTEX
8
OBJECT__48
10
0
20
0
30
0
70
128
71
1
72
2
73
3
0
VERTEX
8
OBJECT__48
10
0
20
0
30
0
70
128
71
2
72
4
73
3
0
VERTEX
8
OBJECT__48
10
0
20
0
30
0
70
128
71
3
72
5
73
6
0
VERTEX
8
OBJECT__48
10
0
20
0
30
0
70
128
71
3
72
6
73
1
0
VERTEX
8
OBJECT__48
10
0
20
0
30
0
70
128
71
7
72
8
73
9
0
VERTEX
8
OBJECT__48
10
0
20
0
30
0
70
128
71
10
72
11
73
7
0
VERTEX
8
OBJECT__48
10
0
20
0
30
0
70
128
71
10
72
1
73
11
0
VERTEX
8
OBJECT__48
10
0
20
0
30
0
70
128
71
9
72
10
73
7
0
VERTEX
8
OBJECT__48
10
0
20
0
30
0
70
128
71
12
72
13
73
14
0
VERTEX
8
OBJECT__48
10
0
20
0
30
0
70
128
71
15
72
16
73
12
0
VERTEX
8
OBJECT__48
10
0
20
0
30
0
70
128
71
15
72
8
73
16
0
VERTEX
8
OBJECT__48
10
0
20
0
30
0
70
128
71
14
72
15
73
12
0
VERTEX
8
OBJECT__48
10
0
20
0
30
0
70
128
71
17
72
18
73
19
0
VERTEX
8
OBJECT__48
10
0
20
0
30
0
70
128
71
19
72
20
73
17
0
VERTEX
8
OBJECT__48
10
0
20
0
30
0
70
128
71
20
72
21
73
17
0
VERTEX
8
OBJECT__48
10
0
20
0
30
0
70
128
71
22
72
23
73
17
0
VERTEX
8
OBJECT__48
10
0
20
0
30
0
70
128
71
17
72
21
73
22
0
VERTEX
8
OBJECT__48
10
0
20
0
30
0
70
128
71
24
72
25
73
26
0
VERTEX
8
OBJECT__48
10
0
20
0
30
0
70
128
71
26
72
14
73
24
0
VERTEX
8
OBJECT__48
10
0
20
0
30
0
70
128
71
14
72
27
73
24
0
VERTEX
8
OBJECT__48
10
0
20
0
30
0
70
128
71
14
72
13
73
27
0
VERTEX
8
OBJECT__48
10
0
20
0
30
0
70
128
71
26
72
19
73
14
0
VERTEX
8
OBJECT__48
10
0
20
0
30
0
70
128
71
28
72
29
73
30
0
VERTEX
8
OBJECT__48
10
0
20
0
30
0
70
128
71
30
72
31
73
28
0
VERTEX
8
OBJECT__48
10
0
20
0
30
0
70
128
71
23
72
22
73
32
0
VERTEX
8
OBJECT__48
10
0
20
0
30
0
70
128
71
32
72
33
73
23
0
VERTEX
8
OBJECT__48
10
0
20
0
30
0
70
128
71
30
72
29
73
33
0
VERTEX
8
OBJECT__48
10
0
20
0
30
0
70
128
71
32
72
30
73
33
0
VERTEX
8
OBJECT__48
10
0
20
0
30
0
70
128
71
34
72
35
73
36
0
VERTEX
8
OBJECT__48
10
0
20
0
30
0
70
128
71
35
72
34
73
29
0
VERTEX
8
OBJECT__48
10
0
20
0
30
0
70
128
71
29
72
28
73
35
0
VERTEX
8
OBJECT__48
10
0
20
0
30
0
70
128
71
37
72
38
73
34
0
VERTEX
8
OBJECT__48
10
0
20
0
30
0
70
128
71
39
72
40
73
41
0
VERTEX
8
OBJECT__48
10
0
20
0
30
0
70
128
71
40
72
39
73
38
0
VERTEX
8
OBJECT__48
10
0
20
0
30
0
70
128
71
38
72
37
73
40
0
VERTEX
8
OBJECT__48
10
0
20
0
30
0
70
128
71
42
72
43
73
44
0
VERTEX
8
OBJECT__48
10
0
20
0
30
0
70
128
71
44
72
39
73
42
0
VERTEX
8
OBJECT__48
10
0
20
0
30
0
70
128
71
45
72
46
73
47
0
VERTEX
8
OBJECT__48
10
0
20
0
30
0
70
128
71
48
72
49
73
45
0
VERTEX
8
OBJECT__48
10
0
20
0
30
0
70
128
71
49
72
48
73
43
0
VERTEX
8
OBJECT__48
10
0
20
0
30
0
70
128
71
43
72
50
73
49
0
VERTEX
8
OBJECT__48
10
0
20
0
30
0
70
128
71
43
72
42
73
50
0
VERTEX
8
OBJECT__48
10
0
20
0
30
0
70
128
71
47
72
48
73
45
0
VERTEX
8
OBJECT__48
10
0
20
0
30
0
70
128
71
41
72
42
73
39
0
VERTEX
8
OBJECT__48
10
0
20
0
30
0
70
128
71
36
72
37
73
34
0
VERTEX
8
OBJECT__48
10
0
20
0
30
0
70
128
71
31
72
51
73
28
0
VERTEX
8
OBJECT__48
10
0
20
0
30
0
70
128
71
18
72
14
73
19
0
VERTEX
8
OBJECT__48
10
0
20
0
30
0
70
128
71
15
72
9
73
8
0
VERTEX
8
OBJECT__48
10
0
20
0
30
0
70
128
71
10
72
2
73
1
0
VERTEX
8
OBJECT__48
10
0
20
0
30
0
70
128
71
4
72
52
73
3
0
SEQEND
8
OBJECT__48
0
POLYLINE
8
OBJECT__49
66
1
70
64
71
8
72
6
62
253
0
VERTEX
8
OBJECT__49
10
4.000000
20
89.711998
30
74.717003
70
192
0
VERTEX
8
OBJECT__49
10
0.005000
20
89.799004
30
71.402000
70
192
0
VERTEX
8
OBJECT__49
10
2.328000
20
89.801003
30
71.336998
70
192
0
VERTEX
8
OBJECT__49
10
-4.000000
20
89.711998
30
74.717003
70
192
0
VERTEX
8
OBJECT__49
10
-3.500000
20
89.795998
30
71.500999
70
192
0
VERTEX
8
OBJECT__49
10
3.500000
20
89.795998
30
71.500999
70
192
0
VERTEX
8
OBJECT__49
10
-4.000000
20
89.793999
30
71.591003
70
192
0
VERTEX
8
OBJECT__49
10
4.000000
20
89.793999
30
71.591003
70
192
0
VERTEX
8
OBJECT__49
10
0
20
0
30
0
70
128
71
1
72
2
73
3
0
VERTEX
8
OBJECT__49
10
0
20
0
30
0
70
128
71
4
72
5
73
2
0
VERTEX
8
OBJECT__49
10
0
20
0
30
0
70
128
71
3
72
6
73
1
0
VERTEX
8
OBJECT__49
10
0
20
0
30
0
70
128
71
4
72
7
73
5
0
VERTEX
8
OBJECT__49
10
0
20
0
30
0
70
128
71
2
72
1
73
4
0
VERTEX
8
OBJECT__49
10
0
20
0
30
0
70
128
71
6
72
8
73
1
0
SEQEND
8
OBJECT__49
0
POLYLINE
8
OBJECT__50
66
1
70
64
71
33
72
33
62
253
0
VERTEX
8
OBJECT__50
10
6.616000
20
98.264999
30
72.806999
70
192
0
VERTEX
8
OBJECT__50
10
7.000000
20
97.995003
30
83.099998
70
192
0
VERTEX
8
OBJECT__50
10
4.000000
20
98.209000
30
74.939003
70
192
0
VERTEX
8
OBJECT__50
10
7.333000
20
98.255997
30
73.164001
70
192
0
VERTEX
8
OBJECT__50
10
11.795000
20
98.196999
30
75.389000
70
192
0
VERTEX
8
OBJECT__50
10
5.451000
20
98.274002
30
72.454002
70
192
0
VERTEX
8
OBJECT__50
10
12.776000
20
98.179001
30
76.106003
70
192
0
VERTEX
8
OBJECT__50
10
4.000000
20
98.282997
30
72.115997
70
192
0
VERTEX
8
OBJECT__50
10
-7.000000
20
97.995003
30
83.099998
70
192
0
VERTEX
8
OBJECT__50
10
-4.000000
20
98.209000
30
74.939003
70
192
0
VERTEX
8
OBJECT__50
10
-7.313000
20
98.252998
30
73.260002
70
192
0
VERTEX
8
OBJECT__50
10
-4.000000
20
98.282997
30
72.115997
70
192
0
VERTEX
8
OBJECT__50
10
-10.538000
20
98.218002
30
74.589996
70
192
0
VERTEX
8
OBJECT__50
10
-9.470000
20
98.234001
30
74.004997
70
192
0
VERTEX
8
OBJECT__50
10
7.000000
20
97.511002
30
101.612999
70
192
0
VERTEX
8
OBJECT__50
10
19.927000
20
97.905998
30
86.505997
70
192
0
VERTEX
8
OBJECT__50
10
19.983000
20
97.901001
30
86.695999
70
192
0
VERTEX
8
OBJECT__50
10
18.232000
20
98.001999
30
82.846001
70
192
0
VERTEX
8
OBJECT__50
10
16.808001
20
98.070000
30
80.255997
70
192
0
VERTEX
8
OBJECT__50
10
17.497000
20
98.043999
30
81.258003
70
192
0
VERTEX
8
OBJECT__50
10
13.679000
20
98.153999
30
77.036003
70
192
0
VERTEX
8
OBJECT__50
10
-7.000000
20
97.511002
30
101.612999
70
192
0
VERTEX
8
OBJECT__50
10
-19.445999
20
97.943001
30
85.100998
70
192
0
VERTEX
8
OBJECT__50
10
-18.978001
20
97.972000
30
83.977997
70
192
0
VERTEX
8
OBJECT__50
10
0.000000
20
97.421997
30
104.989998
70
192
0
VERTEX
8
OBJECT__50
10
-13.768000
20
97.565002
30
99.521004
70
192
0
VERTEX
8
OBJECT__50
10
-15.888000
20
98.099998
30
79.087997
70
192
0
VERTEX
8
OBJECT__50
10
-15.073000
20
98.124001
30
78.181999
70
192
0
VERTEX
8
OBJECT__50
10
-18.266001
20
98.001999
30
82.850998
70
192
0
VERTEX
8
OBJECT__50
10
-19.927000
20
97.905998
30
86.505997
70
192
0
VERTEX
8
OBJECT__50
10
-19.983000
20
97.901001
30
86.695999
70
192
0
VERTEX
8
OBJECT__50
10
13.768000
20
97.565002
30
99.521004
70
192
0
VERTEX
8
OBJECT__50
10
-13.672000
20
98.153000
30
77.072998
70
192
0
VERTEX
8
OBJECT__50
10
0
20
0
30
0
70
128
71
1
72
2
73
3
0
VERTEX
8
OBJECT__50
10
0
20
0
30
0
70
128
71
2
72
4
73
5
0
VERTEX
8
OBJECT__50
10
0
20
0
30
0
70
128
71
3
72
6
73
1
0
VERTEX
8
OBJECT__50
10
0
20
0
30
0
70
128
71
5
72
7
73
2
0
VERTEX
8
OBJECT__50
10
0
20
0
30
0
70
128
71
3
72
8
73
6
0
VERTEX
8
OBJECT__50
10
0
20
0
30
0
70
128
71
1
72
4
73
2
0
VERTEX
8
OBJECT__50
10
0
20
0
30
0
70
128
71
9
72
10
73
3
0
VERTEX
8
OBJECT__50
10
0
20
0
30
0
70
128
71
11
72
12
73
10
0
VERTEX
8
OBJECT__50
10
0
20
0
30
0
70
128
71
9
72
13
73
14
0
VERTEX
8
OBJECT__50
10
0
20
0
30
0
70
128
71
15
72
16
73
17
0
VERTEX
8
OBJECT__50
10
0
20
0
30
0
70
128
71
2
72
18
73
16
0
VERTEX
8
OBJECT__50
10
0
20
0
30
0
70
128
71
2
72
19
73
20
0
VERTEX
8
OBJECT__50
10
0
20
0
30
0
70
128
71
3
72
2
73
9
0
VERTEX
8
OBJECT__50
10
0
20
0
30
0
70
128
71
14
72
11
73
9
0
VERTEX
8
OBJECT__50
10
0
20
0
30
0
70
128
71
16
72
15
73
2
0
VERTEX
8
OBJECT__50
10
0
20
0
30
0
70
128
71
2
72
21
73
19
0
VERTEX
8
OBJECT__50
10
0
20
0
30
0
70
128
71
22
72
23
73
24
0
VERTEX
8
OBJECT__50
10
0
20
0
30
0
70
128
71
10
72
9
73
11
0
VERTEX
8
OBJECT__50
10
0
20
0
30
0
70
128
71
20
72
18
73
2
0
VERTEX
8
OBJECT__50
10
0
20
0
30
0
70
128
71
25
72
26
73
22
0
VERTEX
8
OBJECT__50
10
0
20
0
30
0
70
128
71
9
72
27
73
28
0
VERTEX
8
OBJECT__50
10
0
20
0
30
0
70
128
71
9
72
22
73
29
0
VERTEX
8
OBJECT__50
10
0
20
0
30
0
70
128
71
22
72
30
73
23
0
VERTEX
8
OBJECT__50
10
0
20
0
30
0
70
128
71
22
72
26
73
31
0
VERTEX
8
OBJECT__50
10
0
20
0
30
0
70
128
71
17
72
32
73
15
0
VERTEX
8
OBJECT__50
10
0
20
0
30
0
70
128
71
22
72
15
73
25
0
VERTEX
8
OBJECT__50
10
0
20
0
30
0
70
128
71
29
72
27
73
9
0
VERTEX
8
OBJECT__50
10
0
20
0
30
0
70
128
71
31
72
30
73
22
0
VERTEX
8
OBJECT__50
10
0
20
0
30
0
70
128
71
15
72
32
73
25
0
VERTEX
8
OBJECT__50
10
0
20
0
30
0
70
128
71
24
72
29
73
22
0
VERTEX
8
OBJECT__50
10
0
20
0
30
0
70
128
71
28
72
33
73
9
0
VERTEX
8
OBJECT__50
10
0
20
0
30
0
70
128
71
7
72
21
73
2
0
VERTEX
8
OBJECT__50
10
0
20
0
30
0
70
128
71
9
72
33
73
13
0
SEQEND
8
OBJECT__50
0
POLYLINE
8
OBJECT__51
66
1
70
64
71
4
72
2
62
253
0
VERTEX
8
OBJECT__51
10
-7.000000
20
80.297997
30
82.945999
70
192
0
VERTEX
8
OBJECT__51
10
-7.000000
20
97.995003
30
83.099998
70
192
0
VERTEX
8
OBJECT__51
10
7.000000
20
97.995003
30
83.099998
70
192
0
VERTEX
8
OBJECT__51
10
7.000000
20
80.297997
30
82.945999
70
192
0
VERTEX
8
OBJECT__51
10
0
20
0
30
0
70
128
71
1
72
2
73
3
0
VERTEX
8
OBJECT__51
10
0
20
0
30
0
70
128
71
3
72
4
73
1
0
SEQEND
8
OBJECT__51
0
POLYLINE
8
OBJECT__52
66
1
70
64
71
4
72
2
62
253
0
VERTEX
8
OBJECT__52
10
7.000000
20
97.511002
30
101.612999
70
192
0
VERTEX
8
OBJECT__52
10
7.000000
20
76.660004
30
95.634003
70
192
0
VERTEX
8
OBJECT__52
10
7.000000
20
80.297997
30
82.945999
70
192
0
VERTEX
8
OBJECT__52
10
7.000000
20
97.995003
30
83.099998
70
192
0
VERTEX
8
OBJECT__52
10
0
20
0
30
0
70
128
71
1
72
2
73
3
0
VERTEX
8
OBJECT__52
10
0
20
0
30
0
70
128
71
3
72
4
73
1
0
SEQEND
8
OBJECT__52
0
POLYLINE
8
OBJECT__53
66
1
70
64
71
4
72
2
62
253
0
VERTEX
8
OBJECT__53
10
-7.000000
20
97.511002
30
101.612999
70
192
0
VERTEX
8
OBJECT__53
10
-7.000000
20
97.995003
30
83.099998
70
192
0
VERTEX
8
OBJECT__53
10
-7.000000
20
80.297997
30
82.945999
70
192
0
VERTEX
8
OBJECT__53
10
-7.000000
20
76.660004
30
95.634003
70
192
0
VERTEX
8
OBJECT__53
10
0
20
0
30
0
70
128
71
1
72
2
73
3
0
VERTEX
8
OBJECT__53
10
0
20
0
30
0
70
128
71
3
72
4
73
1
0
SEQEND
8
OBJECT__53
0
POLYLINE
8
OBJECT__54
66
1
70
64
71
19
72
19
62
253
0
VERTEX
8
OBJECT__54
10
7.000000
20
80.297997
30
82.945999
70
192
0
VERTEX
8
OBJECT__54
10
7.000000
20
76.660004
30
95.634003
70
192
0
VERTEX
8
OBJECT__54
10
5.334000
20
77.402000
30
93.044998
70
192
0
VERTEX
8
OBJECT__54
10
5.319000
20
77.348000
30
93.234001
70
192
0
VERTEX
8
OBJECT__54
10
-7.000000
20
76.660004
30
95.634003
70
192
0
VERTEX
8
OBJECT__54
10
-4.324000
20
77.124001
30
94.015999
70
192
0
VERTEX
8
OBJECT__54
10
4.324000
20
77.124001
30
94.015999
70
192
0
VERTEX
8
OBJECT__54
10
-7.000000
20
80.297997
30
82.945999
70
192
0
VERTEX
8
OBJECT__54
10
-5.334000
20
79.786003
30
84.732002
70
192
0
VERTEX
8
OBJECT__54
10
-5.334000
20
77.402000
30
93.044998
70
192
0
VERTEX
8
OBJECT__54
10
5.334000
20
79.786003
30
84.732002
70
192
0
VERTEX
8
OBJECT__54
10
-5.319000
20
79.839996
30
84.542999
70
192
0
VERTEX
8
OBJECT__54
10
5.035000
20
77.206001
30
93.731003
70
192
0
VERTEX
8
OBJECT__54
10
-5.036000
20
77.206001
30
93.730003
70
192
0
VERTEX
8
OBJECT__54
10
4.324000
20
80.064003
30
83.761002
70
192
0
VERTEX
8
OBJECT__54
10
5.038000
20
79.982002
30
84.049004
70
192
0
VERTEX
8
OBJECT__54
10
4.520000
20
80.059998
30
83.776001
70
192
0
VERTEX
8
OBJECT__54
10
-5.036000
20
79.983002
30
84.046997
70
192
0
VERTEX
8
OBJECT__54
10
-4.324000
20
80.064003
30
83.761002
70
192
0
VERTEX
8
OBJECT__54
10
0
20
0
30
0
70
128
71
1
72
2
73
3
0
VERTEX
8
OBJECT__54
10
0
20
0
30
0
70
128
71
2
72
4
73
3
0
VERTEX
8
OBJECT__54
10
0
20
0
30
0
70
128
71
5
72
6
73
7
0
VERTEX
8
OBJECT__54
10
0
20
0
30
0
70
128
71
8
72
9
73
10
0
VERTEX
8
OBJECT__54
10
0
20
0
30
0
70
128
71
3
72
11
73
1
0
VERTEX
8
OBJECT__54
10
0
20
0
30
0
70
128
71
7
72
2
73
5
0
VERTEX
8
OBJECT__54
10
0
20
0
30
0
70
128
71
8
72
12
73
9
0
VERTEX
8
OBJECT__54
10
0
20
0
30
0
70
128
71
2
72
13
73
4
0
VERTEX
8
OBJECT__54
10
0
20
0
30
0
70
128
71
5
72
14
73
6
0
VERTEX
8
OBJECT__54
10
0
20
0
30
0
70
128
71
10
72
5
73
8
0
VERTEX
8
OBJECT__54
10
0
20
0
30
0
70
128
71
8
72
1
73
15
0
VERTEX
8
OBJECT__54
10
0
20
0
30
0
70
128
71
1
72
16
73
17
0
VERTEX
8
OBJECT__54
10
0
20
0
30
0
70
128
71
7
72
13
73
2
0
VERTEX
8
OBJECT__54
10
0
20
0
30
0
70
128
71
8
72
18
73
12
0
VERTEX
8
OBJECT__54
10
0
20
0
30
0
70
128
71
15
72
19
73
8
0
VERTEX
8
OBJECT__54
10
0
20
0
30
0
70
128
71
11
72
16
73
1
0
VERTEX
8
OBJECT__54
10
0
20
0
30
0
70
128
71
19
72
18
73
8
0
VERTEX
8
OBJECT__54
10
0
20
0
30
0
70
128
71
10
72
14
73
5
0
VERTEX
8
OBJECT__54
10
0
20
0
30
0
70
128
71
17
72
15
73
1
0
SEQEND
8
OBJECT__54
0
POLYLINE
8
OBJECT__55
66
1
70
64
71
4
72
2
62
253
0
VERTEX
8
OBJECT__55
10
-5.034000
20
80.072998
30
84.815002
70
192
0
VERTEX
8
OBJECT__55
10
-5.034000
20
77.690002
30
93.126999
70
192
0
VERTEX
8
OBJECT__55
10
-5.334000
20
77.402000
30
93.044998
70
192
0
VERTEX
8
OBJECT__55
10
-5.334000
20
79.786003
30
84.732002
70
192
0
VERTEX
8
OBJECT__55
10
0
20
0
30
0
70
128
71
1
72
2
73
3
0
VERTEX
8
OBJECT__55
10
0
20
0
30
0
70
128
71
3
72
4
73
1
0
SEQEND
8
OBJECT__55
0
POLYLINE
8
OBJECT__56
66
1
70
64
71
4
72
2
62
253
0
VERTEX
8
OBJECT__56
10
228.785004
20
0.245000
30
254.031998
70
192
0
VERTEX
8
OBJECT__56
10
226.000000
20
-3.040000
30
253.787994
70
192
0
VERTEX
8
OBJECT__56
10
222.727005
20
-0.245000
30
253.501999
70
192
0
VERTEX
8
OBJECT__56
10
225.511993
20
3.040000
30
253.744995
70
192
0
VERTEX
8
OBJECT__56
10
0
20
0
30
0
70
128
71
1
72
2
73
3
0
VERTEX
8
OBJECT__56
10
0
20
0
30
0
70
128
71
3
72
4
73
1
0
SEQEND
8
OBJECT__56
0
POLYLINE
8
OBJECT__57
66
1
70
64
71
8
72
8
62
253
0
VERTEX
8
OBJECT__57
10
222.802002
20
-0.245000
30
252.645004
70
192
0
VERTEX
8
OBJECT__57
10
225.587006
20
3.040000
30
252.889008
70
192
0
VERTEX
8
OBJECT__57
10
225.511993
20
3.040000
30
253.744995
70
192
0
VERTEX
8
OBJECT__57
10
226.000000
20
-3.040000
30
253.787994
70
192
0
VERTEX
8
OBJECT__57
10
226.074997
20
-3.040000
30
252.931000
70
192
0
VERTEX
8
OBJECT__57
10
228.785004
20
0.245000
30
254.031998
70
192
0
VERTEX
8
OBJECT__57
10
228.860001
20
0.245000
30
253.175003
70
192
0
VERTEX
8
OBJECT__57
10
222.727005
20
-0.245000
30
253.501999
70
192
0
VERTEX
8
OBJECT__57
10
0
20
0
30
0
70
128
71
1
72
2
73
3
0
VERTEX
8
OBJECT__57
10
0
20
0
30
0
70
128
71
4
72
5
73
1
0
VERTEX
8
OBJECT__57
10
0
20
0
30
0
70
128
71
6
72
7
73
5
0
VERTEX
8
OBJECT__57
10
0
20
0
30
0
70
128
71
2
72
7
73
6
0
VERTEX
8
OBJECT__57
10
0
20
0
30
0
70
128
71
6
72
3
73
2
0
VERTEX
8
OBJECT__57
10
0
20
0
30
0
70
128
71
5
72
4
73
6
0
VERTEX
8
OBJECT__57
10
0
20
0
30
0
70
128
71
1
72
8
73
4
0
VERTEX
8
OBJECT__57
10
0
20
0
30
0
70
128
71
3
72
8
73
1
0
SEQEND
8
OBJECT__57
0
POLYLINE
8
OBJECT__59
66
1
70
64
71
8
72
8
62
253
0
VERTEX
8
OBJECT__59
10
222.356003
20
-0.281000
30
252.606003
70
192
0
VERTEX
8
OBJECT__59
10
225.550995
20
3.489000
30
252.884995
70
192
0
VERTEX
8
OBJECT__59
10
225.587006
20
3.040000
30
252.889008
70
192
0
VERTEX
8
OBJECT__59
10
229.306000
20
0.281000
30
253.214005
70
192
0
VERTEX
8
OBJECT__59
10
228.860001
20
0.245000
30
253.175003
70
192
0
VERTEX
8
OBJECT__59
10
226.110992
20
-3.489000
30
252.934006
70
192
0
VERTEX
8
OBJECT__59
10
226.074997
20
-3.040000
30
252.931000
70
192
0
VERTEX
8
OBJECT__59
10
222.802002
20
-0.245000
30
252.645004
70
192
0
VERTEX
8
OBJECT__59
10
0
20
0
30
0
70
128
71
1
72
2
73
3
0
VERTEX
8
OBJECT__59
10
0
20
0
30
0
70
128
71
2
72
4
73
5
0
VERTEX
8
OBJECT__59
10
0
20
0
30
0
70
128
71
6
72
7
73
5
0
VERTEX
8
OBJECT__59
10
0
20
0
30
0
70
128
71
1
72
8
73
7
0
VERTEX
8
OBJECT__59
10
0
20
0
30
0
70
128
71
5
72
3
73
2
0
VERTEX
8
OBJECT__59
10
0
20
0
30
0
70
128
71
7
72
6
73
1
0
VERTEX
8
OBJECT__59
10
0
20
0
30
0
70
128
71
5
72
4
73
6
0
VERTEX
8
OBJECT__59
10
0
20
0
30
0
70
128
71
3
72
8
73
1
0
SEQEND
8
OBJECT__59
0
POLYLINE
8
OBJECT__60
66
1
70
64
71
9
72
9
62
253
0
VERTEX
8
OBJECT__60
10
229.306000
20
0.281000
30
253.214005
70
192
0
VERTEX
8
OBJECT__60
10
225.550995
20
3.489000
30
252.884995
70
192
0
VERTEX
8
OBJECT__60
10
225.315994
20
3.489000
30
255.574997
70
192
0
VERTEX
8
OBJECT__60
10
225.875000
20
-3.489000
30
255.623993
70
192
0
VERTEX
8
OBJECT__60
10
226.110992
20
-3.489000
30
252.934006
70
192
0
VERTEX
8
OBJECT__60
10
222.356003
20
-0.281000
30
252.606003
70
192
0
VERTEX
8
OBJECT__60
10
225.595993
20
-3.500000
30
255.600006
70
192
0
VERTEX
8
OBJECT__60
10
222.119995
20
-0.281000
30
255.296005
70
192
0
VERTEX
8
OBJECT__60
10
229.070999
20
0.281000
30
255.904007
70
192
0
VERTEX
8
OBJECT__60
10
0
20
0
30
0
70
128
71
1
72
2
73
3
0
VERTEX
8
OBJECT__60
10
0
20
0
30
0
70
128
71
4
72
5
73
1
0
VERTEX
8
OBJECT__60
10
0
20
0
30
0
70
128
71
6
72
5
73
7
0
VERTEX
8
OBJECT__60
10
0
20
0
30
0
70
128
71
5
72
4
73
7
0
VERTEX
8
OBJECT__60
10
0
20
0
30
0
70
128
71
2
72
6
73
8
0
VERTEX
8
OBJECT__60
10
0
20
0
30
0
70
128
71
8
72
3
73
2
0
VERTEX
8
OBJECT__60
10
0
20
0
30
0
70
128
71
7
72
8
73
6
0
VERTEX
8
OBJECT__60
10
0
20
0
30
0
70
128
71
1
72
9
73
4
0
VERTEX
8
OBJECT__60
10
0
20
0
30
0
70
128
71
3
72
9
73
1
0
SEQEND
8
OBJECT__60
0
POLYLINE
8
OBJECT__61
66
1
70
64
71
14
72
14
62
253
0
VERTEX
8
OBJECT__61
10
216.246994
20
-9.283000
30
254.781998
70
192
0
VERTEX
8
OBJECT__61
10
222.119995
20
-0.281000
30
255.296005
70
192
0
VERTEX
8
OBJECT__61
10
225.595993
20
-3.500000
30
255.600006
70
192
0
VERTEX
8
OBJECT__61
10
237.876007
20
-4.992000
30
256.674011
70
192
0
VERTEX
8
OBJECT__61
10
229.335007
20
-12.759000
30
255.927002
70
192
0
VERTEX
8
OBJECT__61
10
225.875000
20
-3.489000
30
255.623993
70
192
0
VERTEX
8
OBJECT__61
10
224.270004
20
-13.133000
30
255.483994
70
192
0
VERTEX
8
OBJECT__61
10
225.315994
20
3.489000
30
255.574997
70
192
0
VERTEX
8
OBJECT__61
10
222.373001
20
12.797000
30
255.317993
70
192
0
VERTEX
8
OBJECT__61
10
227.438004
20
13.171000
30
255.761002
70
192
0
VERTEX
8
OBJECT__61
10
229.070999
20
0.281000
30
255.904007
70
192
0
VERTEX
8
OBJECT__61
10
212.481003
20
-0.967000
30
254.451996
70
192
0
VERTEX
8
OBJECT__61
10
214.996002
20
7.812000
30
254.671997
70
192
0
VERTEX
8
OBJECT__61
10
237.018005
20
6.740000
30
256.598999
70
192
0
VERTEX
8
OBJECT__61
10
0
20
0
30
0
70
128
71
1
72
2
73
3
0
VERTEX
8
OBJECT__61
10
0
20
0
30
0
70
128
71
4
72
5
73
6
0
VERTEX
8
OBJECT__61
10
0
20
0
30
0
70
128
71
7
72
3
73
6
0
VERTEX
8
OBJECT__61
10
0
20
0
30
0
70
128
71
3
72
7
73
1
0
VERTEX
8
OBJECT__61
10
0
20
0
30
0
70
128
71
8
72
9
73
10
0
VERTEX
8
OBJECT__61
10
0
20
0
30
0
70
128
71
6
72
11
73
4
0
VERTEX
8
OBJECT__61
10
0
20
0
30
0
70
128
71
1
72
12
73
2
0
VERTEX
8
OBJECT__61
10
0
20
0
30
0
70
128
71
13
72
9
73
8
0
VERTEX
8
OBJECT__61
10
0
20
0
30
0
70
128
71
14
72
11
73
8
0
VERTEX
8
OBJECT__61
10
0
20
0
30
0
70
128
71
6
72
5
73
7
0
VERTEX
8
OBJECT__61
10
0
20
0
30
0
70
128
71
2
72
12
73
13
0
VERTEX
8
OBJECT__61
10
0
20
0
30
0
70
128
71
11
72
14
73
4
0
VERTEX
8
OBJECT__61
10
0
20
0
30
0
70
128
71
10
72
14
73
8
0
VERTEX
8
OBJECT__61
10
0
20
0
30
0
70
128
71
8
72
2
73
13
0
SEQEND
8
OBJECT__61
0
POLYLINE
8
OBJECT__62
66
1
70
64
71
11
72
9
62
253
0
VERTEX
8
OBJECT__62
10
237.876007
20
-4.992000
30
256.674011
70
192
0
VERTEX
8
OBJECT__62
10
237.018005
20
6.740000
30
256.598999
70
192
0
VERTEX
8
OBJECT__62
10
237.807999
20
4.027000
30
257.074005
70
192
0
VERTEX
8
OBJECT__62
10
237.584000
20
7.094000
30
257.053986
70
192
0
VERTEX
8
OBJECT__62
10
229.335007
20
-12.759000
30
255.927002
70
192
0
VERTEX
8
OBJECT__62
10
236.511993
20
-7.379000
30
256.959991
70
192
0
VERTEX
8
OBJECT__62
10
238.487000
20
-5.255000
30
257.132996
70
192
0
VERTEX
8
OBJECT__62
10
227.438004
20
13.171000
30
255.761002
70
192
0
VERTEX
8
OBJECT__62
10
230.481003
20
12.780000
30
256.433014
70
192
0
VERTEX
8
OBJECT__62
10
229.774002
20
13.346000
30
256.371002
70
192
0
VERTEX
8
OBJECT__62
10
231.671005
20
-12.584000
30
256.536987
70
192
0
VERTEX
8
OBJECT__62
10
0
20
0
30
0
70
128
71
1
72
2
73
3
0
VERTEX
8
OBJECT__62
10
0
20
0
30
0
70
128
71
2
72
4
73
3
0
VERTEX
8
OBJECT__62
10
0
20
0
30
0
70
128
71
5
72
1
73
6
0
VERTEX
8
OBJECT__62
10
0
20
0
30
0
70
128
71
1
72
7
73
6
0
VERTEX
8
OBJECT__62
10
0
20
0
30
0
70
128
71
2
72
8
73
9
0
VERTEX
8
OBJECT__62
10
0
20
0
30
0
70
128
71
8
72
10
73
9
0
VERTEX
8
OBJECT__62
10
0
20
0
30
0
70
128
71
9
72
4
73
2
0
VERTEX
8
OBJECT__62
10
0
20
0
30
0
70
128
71
6
72
11
73
5
0
VERTEX
8
OBJECT__62
10
0
20
0
30
0
70
128
71
3
72
7
73
1
0
SEQEND
8
OBJECT__62
0
POLYLINE
8
OBJECT__63
66
1
70
64
71
13
72
11
62
253
0
VERTEX
8
OBJECT__63
10
214.996002
20
7.812000
30
254.671997
70
192
0
VERTEX
8
OBJECT__63
10
212.481003
20
-0.967000
30
254.451996
70
192
0
VERTEX
8
OBJECT__63
10
212.483994
20
1.900000
30
254.916000
70
192
0
VERTEX
8
OBJECT__63
10
211.645996
20
-1.025000
30
254.843002
70
192
0
VERTEX
8
OBJECT__63
10
215.457993
20
-9.443000
30
255.175995
70
192
0
VERTEX
8
OBJECT__63
10
216.246994
20
-9.283000
30
254.781998
70
192
0
VERTEX
8
OBJECT__63
10
215.639999
20
-9.845000
30
255.192001
70
192
0
VERTEX
8
OBJECT__63
10
214.313004
20
8.286000
30
255.076004
70
192
0
VERTEX
8
OBJECT__63
10
218.725998
20
11.983000
30
255.462006
70
192
0
VERTEX
8
OBJECT__63
10
222.373001
20
12.797000
30
255.317993
70
192
0
VERTEX
8
OBJECT__63
10
224.270004
20
-13.133000
30
255.483994
70
192
0
VERTEX
8
OBJECT__63
10
221.341003
20
-13.346000
30
255.690994
70
192
0
VERTEX
8
OBJECT__63
10
219.444000
20
12.584000
30
255.524994
70
192
0
VERTEX
8
OBJECT__63
10
0
20
0
30
0
70
128
71
1
72
2
73
3
0
VERTEX
8
OBJECT__63
10
0
20
0
30
0
70
128
71
2
72
4
73
3
0
VERTEX
8
OBJECT__63
10
0
20
0
30
0
70
128
71
5
72
4
73
2
0
VERTEX
8
OBJECT__63
10
0
20
0
30
0
70
128
71
6
72
7
73
5
0
VERTEX
8
OBJECT__63
10
0
20
0
30
0
70
128
71
1
72
8
73
9
0
VERTEX
8
OBJECT__63
10
0
20
0
30
0
70
128
71
9
72
10
73
1
0
VERTEX
8
OBJECT__63
10
0
20
0
30
0
70
128
71
6
72
11
73
12
0
VERTEX
8
OBJECT__63
10
0
20
0
30
0
70
128
71
12
72
7
73
6
0
VERTEX
8
OBJECT__63
10
0
20
0
30
0
70
128
71
9
72
13
73
10
0
VERTEX
8
OBJECT__63
10
0
20
0
30
0
70
128
71
2
72
6
73
5
0
VERTEX
8
OBJECT__63
10
0
20
0
30
0
70
128
71
3
72
8
73
1
0
SEQEND
8
OBJECT__63
0
POLYLINE
8
OBJECT__64
66
1
70
64
71
6
72
4
62
253
0
VERTEX
8
OBJECT__64
10
229.522003
20
13.346000
30
259.256012
70
192
0
VERTEX
8
OBJECT__64
10
227.438004
20
13.171000
30
255.761002
70
192
0
VERTEX
8
OBJECT__64
10
222.373001
20
12.797000
30
255.317993
70
192
0
VERTEX
8
OBJECT__64
10
229.774002
20
13.346000
30
256.371002
70
192
0
VERTEX
8
OBJECT__64
10
219.197006
20
12.584000
30
258.351990
70
192
0
VERTEX
8
OBJECT__64
10
219.444000
20
12.584000
30
255.524994
70
192
0
VERTEX
8
OBJECT__64
10
0
20
0
30
0
70
128
71
1
72
2
73
3
0
VERTEX
8
OBJECT__64
10
0
20
0
30
0
70
128
71
1
72
4
73
2
0
VERTEX
8
OBJECT__64
10
0
20
0
30
0
70
128
71
3
72
5
73
1
0
VERTEX
8
OBJECT__64
10
0
20
0
30
0
70
128
71
3
72
6
73
5
0
SEQEND
8
OBJECT__64
0
POLYLINE
8
OBJECT__65
66
1
70
64
71
5
72
3
62
253
0
VERTEX
8
OBJECT__65
10
221.658997
20
13.517000
30
258.769012
70
192
0
VERTEX
8
OBJECT__65
10
224.263000
20
13.962000
30
259.065002
70
192
0
VERTEX
8
OBJECT__65
10
226.916000
20
13.905000
30
259.229004
70
192
0
VERTEX
8
OBJECT__65
10
229.522003
20
13.346000
30
259.256012
70
192
0
VERTEX
8
OBJECT__65
10
219.197006
20
12.584000
30
258.351990
70
192
0
VERTEX
8
OBJECT__65
10
0
20
0
30
0
70
128
71
1
72
2
73
3
0
VERTEX
8
OBJECT__65
10
0
20
0
30
0
70
128
71
4
72
5
73
1
0
VERTEX
8
OBJECT__65
10
0
20
0
30
0
70
128
71
3
72
4
73
1
0
SEQEND
8
OBJECT__65
0
POLYLINE
8
OBJECT__66
66
1
70
64
71
6
72
4
62
253
0
VERTEX
8
OBJECT__66
10
231.358002
20
-12.584000
30
260.117004
70
192
0
VERTEX
8
OBJECT__66
10
221.033005
20
-13.346000
30
259.213989
70
192
0
VERTEX
8
OBJECT__66
10
224.270004
20
-13.133000
30
255.483994
70
192
0
VERTEX
8
OBJECT__66
10
229.335007
20
-12.759000
30
255.927002
70
192
0
VERTEX
8
OBJECT__66
10
221.341003
20
-13.346000
30
255.690994
70
192
0
VERTEX
8
OBJECT__66
10
231.671005
20
-12.584000
30
256.536987
70
192
0
VERTEX
8
OBJECT__66
10
0
20
0
30
0
70
128
71
1
72
2
73
3
0
VERTEX
8
OBJECT__66
10
0
20
0
30
0
70
128
71
3
72
4
73
1
0
VERTEX
8
OBJECT__66
10
0
20
0
30
0
70
128
71
2
72
5
73
3
0
VERTEX
8
OBJECT__66
10
0
20
0
30
0
70
128
71
4
72
6
73
1
0
SEQEND
8
OBJECT__66
0
POLYLINE
8
OBJECT__67
66
1
70
64
71
4
72
2
62
253
0
VERTEX
8
OBJECT__67
10
221.033005
20
-13.346000
30
259.213989
70
192
0
VERTEX
8
OBJECT__67
10
231.358002
20
-12.584000
30
260.117004
70
192
0
VERTEX
8
OBJECT__67
10
226.182007
20
-13.066000
30
259.709991
70
192
0
VERTEX
8
OBJECT__67
10
221.535995
20
-13.497000
30
259.343994
70
192
0
VERTEX
8
OBJECT__67
10
0
20
0
30
0
70
128
71
1
72
2
73
3
0
VERTEX
8
OBJECT__67
10
0
20
0
30
0
70
128
71
3
72
4
73
1
0
SEQEND
8
OBJECT__67
0
POLYLINE
8
OBJECT__68
66
1
70
64
71
38
72
38
62
253
0
VERTEX
8
OBJECT__68
10
237.807999
20
4.027000
30
257.074005
70
192
0
VERTEX
8
OBJECT__68
10
237.007004
20
3.700000
30
263.523987
70
192
0
VERTEX
8
OBJECT__68
10
238.781998
20
-2.107000
30
263.679993
70
192
0
VERTEX
8
OBJECT__68
10
238.487000
20
-5.255000
30
257.132996
70
192
0
VERTEX
8
OBJECT__68
10
235.365997
20
-7.121000
30
263.381012
70
192
0
VERTEX
8
OBJECT__68
10
236.511993
20
-7.379000
30
256.959991
70
192
0
VERTEX
8
OBJECT__68
10
237.584000
20
7.094000
30
257.053986
70
192
0
VERTEX
8
OBJECT__68
10
230.481003
20
12.780000
30
256.433014
70
192
0
VERTEX
8
OBJECT__68
10
229.602005
20
11.735000
30
262.877014
70
192
0
VERTEX
8
OBJECT__68
10
235.231995
20
9.507000
30
263.368988
70
192
0
VERTEX
8
OBJECT__68
10
214.313004
20
8.286000
30
255.076004
70
192
0
VERTEX
8
OBJECT__68
10
213.483002
20
7.904000
30
261.466003
70
192
0
VERTEX
8
OBJECT__68
10
218.727997
20
10.933000
30
261.924988
70
192
0
VERTEX
8
OBJECT__68
10
212.483994
20
1.900000
30
254.916000
70
192
0
VERTEX
8
OBJECT__68
10
212.572006
20
1.899000
30
261.386993
70
192
0
VERTEX
8
OBJECT__68
10
215.457993
20
-9.443000
30
255.175995
70
192
0
VERTEX
8
OBJECT__68
10
215.770004
20
-8.566000
30
261.665985
70
192
0
VERTEX
8
OBJECT__68
10
211.660995
20
-4.107000
30
261.307007
70
192
0
VERTEX
8
OBJECT__68
10
211.645996
20
-1.025000
30
254.843002
70
192
0
VERTEX
8
OBJECT__68
10
226.016006
20
-13.962000
30
262.562988
70
192
0
VERTEX
8
OBJECT__68
10
219.880005
20
-13.025000
30
262.026001
70
192
0
VERTEX
8
OBJECT__68
10
221.535995
20
-13.497000
30
259.343994
70
192
0
VERTEX
8
OBJECT__68
10
221.033005
20
-13.346000
30
259.213989
70
192
0
VERTEX
8
OBJECT__68
10
215.639999
20
-9.845000
30
255.192001
70
192
0
VERTEX
8
OBJECT__68
10
221.341003
20
-13.346000
30
255.690994
70
192
0
VERTEX
8
OBJECT__68
10
231.358002
20
-12.584000
30
260.117004
70
192
0
VERTEX
8
OBJECT__68
10
226.182007
20
-13.066000
30
259.709991
70
192
0
VERTEX
8
OBJECT__68
10
231.949997
20
-12.135000
30
263.082001
70
192
0
VERTEX
8
OBJECT__68
10
218.725998
20
11.983000
30
255.462006
70
192
0
VERTEX
8
OBJECT__68
10
219.197006
20
12.584000
30
258.351990
70
192
0
VERTEX
8
OBJECT__68
10
223.973007
20
13.962000
30
262.384003
70
192
0
VERTEX
8
OBJECT__68
10
224.263000
20
13.962000
30
259.065002
70
192
0
VERTEX
8
OBJECT__68
10
221.658997
20
13.517000
30
258.769012
70
192
0
VERTEX
8
OBJECT__68
10
226.916000
20
13.905000
30
259.229004
70
192
0
VERTEX
8
OBJECT__68
10
229.522003
20
13.346000
30
259.256012
70
192
0
VERTEX
8
OBJECT__68
10
229.774002
20
13.346000
30
256.371002
70
192
0
VERTEX
8
OBJECT__68
10
219.444000
20
12.584000
30
255.524994
70
192
0
VERTEX
8
OBJECT__68
10
231.671005
20
-12.584000
30
256.536987
70
192
0
VERTEX
8
OBJECT__68
10
0
20
0
30
0
70
128
71
1
72
2
73
3
0
VERTEX
8
OBJECT__68
10
0
20
0
30
0
70
128
71
3
72
4
73
1
0
VERTEX
8
OBJECT__68
10
0
20
0
30
0
70
128
71
5
72
6
73
4
0
VERTEX
8
OBJECT__68
10
0
20
0
30
0
70
128
71
2
72
1
73
7
0
VERTEX
8
OBJECT__68
10
0
20
0
30
0
70
128
71
8
72
9
73
10
0
VERTEX
8
OBJECT__68
10
0
20
0
30
0
70
128
71
10
72
7
73
8
0
VERTEX
8
OBJECT__68
10
0
20
0
30
0
70
128
71
11
72
12
73
13
0
VERTEX
8
OBJECT__68
10
0
20
0
30
0
70
128
71
14
72
15
73
12
0
VERTEX
8
OBJECT__68
10
0
20
0
30
0
70
128
71
12
72
11
73
14
0
VERTEX
8
OBJECT__68
10
0
20
0
30
0
70
128
71
16
72
17
73
18
0
VERTEX
8
OBJECT__68
10
0
20
0
30
0
70
128
71
18
72
19
73
16
0
VERTEX
8
OBJECT__68
10
0
20
0
30
0
70
128
71
15
72
14
73
19
0
VERTEX
8
OBJECT__68
10
0
20
0
30
0
70
128
71
20
72
21
73
22
0
VERTEX
8
OBJECT__68
10
0
20
0
30
0
70
128
71
21
72
17
73
23
0
VERTEX
8
OBJECT__68
10
0
20
0
30
0
70
128
71
23
72
22
73
21
0
VERTEX
8
OBJECT__68
10
0
20
0
30
0
70
128
71
24
72
25
73
23
0
VERTEX
8
OBJECT__68
10
0
20
0
30
0
70
128
71
17
72
16
73
24
0
VERTEX
8
OBJECT__68
10
0
20
0
30
0
70
128
71
23
72
17
73
24
0
VERTEX
8
OBJECT__68
10
0
20
0
30
0
70
128
71
6
72
5
73
26
0
VERTEX
8
OBJECT__68
10
0
20
0
30
0
70
128
71
20
72
27
73
26
0
VERTEX
8
OBJECT__68
10
0
20
0
30
0
70
128
71
26
72
5
73
28
0
VERTEX
8
OBJECT__68
10
0
20
0
30
0
70
128
71
26
72
28
73
20
0
VERTEX
8
OBJECT__68
10
0
20
0
30
0
70
128
71
29
72
13
73
30
0
VERTEX
8
OBJECT__68
10
0
20
0
30
0
70
128
71
31
72
32
73
33
0
VERTEX
8
OBJECT__68
10
0
20
0
30
0
70
128
71
31
72
9
73
34
0
VERTEX
8
OBJECT__68
10
0
20
0
30
0
70
128
71
34
72
32
73
31
0
VERTEX
8
OBJECT__68
10
0
20
0
30
0
70
128
71
9
72
35
73
34
0
VERTEX
8
OBJECT__68
10
0
20
0
30
0
70
128
71
33
72
13
73
31
0
VERTEX
8
OBJECT__68
10
0
20
0
30
0
70
128
71
8
72
36
73
35
0
VERTEX
8
OBJECT__68
10
0
20
0
30
0
70
128
71
35
72
9
73
8
0
VERTEX
8
OBJECT__68
10
0
20
0
30
0
70
128
71
33
72
30
73
13
0
VERTEX
8
OBJECT__68
10
0
20
0
30
0
70
128
71
30
72
37
73
29
0
VERTEX
8
OBJECT__68
10
0
20
0
30
0
70
128
71
26
72
38
73
6
0
VERTEX
8
OBJECT__68
10
0
20
0
30
0
70
128
71
22
72
27
73
20
0
VERTEX
8
OBJECT__68
10
0
20
0
30
0
70
128
71
18
72
15
73
19
0
VERTEX
8
OBJECT__68
10
0
20
0
30
0
70
128
71
13
72
29
73
11
0
VERTEX
8
OBJECT__68
10
0
20
0
30
0
70
128
71
7
72
10
73
2
0
VERTEX
8
OBJECT__68
10
0
20
0
30
0
70
128
71
3
72
5
73
4
0
SEQEND
8
OBJECT__68
0
POLYLINE
8
OBJECT__69
66
1
70
64
71
28
72
28
62
253
0
VERTEX
8
OBJECT__69
10
235.231995
20
9.507000
30
263.368988
70
192
0
VERTEX
8
OBJECT__69
10
223.970993
20
13.863000
30
262.484009
70
192
0
VERTEX
8
OBJECT__69
10
230.063995
20
12.932000
30
263.016998
70
192
0
VERTEX
8
OBJECT__69
10
223.973007
20
13.962000
30
262.384003
70
192
0
VERTEX
8
OBJECT__69
10
229.794998
20
12.380000
30
263.588989
70
192
0
VERTEX
8
OBJECT__69
10
238.781998
20
-2.107000
30
263.679993
70
192
0
VERTEX
8
OBJECT__69
10
235.149994
20
9.439000
30
263.462006
70
192
0
VERTEX
8
OBJECT__69
10
238.223999
20
4.077000
30
263.730988
70
192
0
VERTEX
8
OBJECT__69
10
237.606995
20
3.903000
30
264.273010
70
192
0
VERTEX
8
OBJECT__69
10
231.949997
20
-12.135000
30
263.082001
70
192
0
VERTEX
8
OBJECT__69
10
238.675003
20
-2.092000
30
263.770996
70
192
0
VERTEX
8
OBJECT__69
10
236.414993
20
-7.847000
30
263.572998
70
192
0
VERTEX
8
OBJECT__69
10
235.875000
20
-7.512000
30
264.121002
70
192
0
VERTEX
8
OBJECT__69
10
211.660995
20
-4.107000
30
261.307007
70
192
0
VERTEX
8
OBJECT__69
10
219.906998
20
-12.932000
30
262.128998
70
192
0
VERTEX
8
OBJECT__69
10
214.820999
20
-9.439000
30
261.683990
70
192
0
VERTEX
8
OBJECT__69
10
219.880005
20
-13.025000
30
262.026001
70
192
0
VERTEX
8
OBJECT__69
10
215.203003
20
-9.036000
30
262.312988
70
192
0
VERTEX
8
OBJECT__69
10
213.483002
20
7.904000
30
261.466003
70
192
0
VERTEX
8
OBJECT__69
10
211.748001
20
-4.077000
30
261.415009
70
192
0
VERTEX
8
OBJECT__69
10
211.296005
20
2.092000
30
261.375000
70
192
0
VERTEX
8
OBJECT__69
10
211.828995
20
2.003000
30
262.016998
70
192
0
VERTEX
8
OBJECT__69
10
213.556000
20
7.847000
30
261.572998
70
192
0
VERTEX
8
OBJECT__69
10
218.080002
20
12.048000
30
261.968994
70
192
0
VERTEX
8
OBJECT__69
10
218.322998
20
11.534000
30
262.585999
70
192
0
VERTEX
8
OBJECT__69
10
226.016006
20
-13.962000
30
262.562988
70
192
0
VERTEX
8
OBJECT__69
10
226.000000
20
-13.863000
30
262.661987
70
192
0
VERTEX
8
OBJECT__69
10
231.891006
20
-12.048000
30
263.177002
70
192
0
VERTEX
8
OBJECT__69
10
0
20
0
30
0
70
128
71
1
72
2
73
3
0
VERTEX
8
OBJECT__69
10
0
20
0
30
0
70
128
71
1
72
4
73
2
0
VERTEX
8
OBJECT__69
10
0
20
0
30
0
70
128
71
1
72
5
73
4
0
VERTEX
8
OBJECT__69
10
0
20
0
30
0
70
128
71
6
72
7
73
8
0
VERTEX
8
OBJECT__69
10
0
20
0
30
0
70
128
71
6
72
1
73
7
0
VERTEX
8
OBJECT__69
10
0
20
0
30
0
70
128
71
6
72
9
73
1
0
VERTEX
8
OBJECT__69
10
0
20
0
30
0
70
128
71
10
72
11
73
12
0
VERTEX
8
OBJECT__69
10
0
20
0
30
0
70
128
71
10
72
6
73
11
0
VERTEX
8
OBJECT__69
10
0
20
0
30
0
70
128
71
10
72
13
73
6
0
VERTEX
8
OBJECT__69
10
0
20
0
30
0
70
128
71
14
72
15
73
16
0
VERTEX
8
OBJECT__69
10
0
20
0
30
0
70
128
71
14
72
17
73
15
0
VERTEX
8
OBJECT__69
10
0
20
0
30
0
70
128
71
14
72
18
73
17
0
VERTEX
8
OBJECT__69
10
0
20
0
30
0
70
128
71
19
72
20
73
21
0
VERTEX
8
OBJECT__69
10
0
20
0
30
0
70
128
71
19
72
14
73
20
0
VERTEX
8
OBJECT__69
10
0
20
0
30
0
70
128
71
19
72
22
73
14
0
VERTEX
8
OBJECT__69
10
0
20
0
30
0
70
128
71
4
72
23
73
24
0
VERTEX
8
OBJECT__69
10
0
20
0
30
0
70
128
71
4
72
19
73
23
0
VERTEX
8
OBJECT__69
10
0
20
0
30
0
70
128
71
4
72
25
73
19
0
VERTEX
8
OBJECT__69
10
0
20
0
30
0
70
128
71
17
72
26
73
27
0
VERTEX
8
OBJECT__69
10
0
20
0
30
0
70
128
71
10
72
28
73
27
0
VERTEX
8
OBJECT__69
10
0
20
0
30
0
70
128
71
27
72
26
73
10
0
VERTEX
8
OBJECT__69
10
0
20
0
30
0
70
128
71
24
72
2
73
4
0
VERTEX
8
OBJECT__69
10
0
20
0
30
0
70
128
71
21
72
23
73
19
0
VERTEX
8
OBJECT__69
10
0
20
0
30
0
70
128
71
16
72
20
73
14
0
VERTEX
8
OBJECT__69
10
0
20
0
30
0
70
128
71
27
72
15
73
17
0
VERTEX
8
OBJECT__69
10
0
20
0
30
0
70
128
71
12
72
28
73
10
0
VERTEX
8
OBJECT__69
10
0
20
0
30
0
70
128
71
8
72
11
73
6
0
VERTEX
8
OBJECT__69
10
0
20
0
30
0
70
128
71
3
72
7
73
1
0
SEQEND
8
OBJECT__69
0
POLYLINE
8
OBJECT__70
66
1
70
64
71
27
72
27
62
253
0
VERTEX
8
OBJECT__70
10
230.063995
20
12.932000
30
263.016998
70
192
0
VERTEX
8
OBJECT__70
10
229.643997
20
11.862000
30
262.980988
70
192
0
VERTEX
8
OBJECT__70
10
234.309006
20
8.658000
30
263.389008
70
192
0
VERTEX
8
OBJECT__70
10
223.970993
20
13.863000
30
262.484009
70
192
0
VERTEX
8
OBJECT__70
10
224.054993
20
12.716000
30
262.492004
70
192
0
VERTEX
8
OBJECT__70
10
218.080002
20
12.048000
30
261.968994
70
192
0
VERTEX
8
OBJECT__70
10
218.651001
20
11.051000
30
262.019012
70
192
0
VERTEX
8
OBJECT__70
10
213.556000
20
7.847000
30
261.572998
70
192
0
VERTEX
8
OBJECT__70
10
214.501999
20
7.198000
30
261.656006
70
192
0
VERTEX
8
OBJECT__70
10
211.296005
20
2.092000
30
261.375000
70
192
0
VERTEX
8
OBJECT__70
10
212.429001
20
1.919000
30
261.473999
70
192
0
VERTEX
8
OBJECT__70
10
238.223999
20
4.077000
30
263.730988
70
192
0
VERTEX
8
OBJECT__70
10
237.128006
20
3.740000
30
263.635010
70
192
0
VERTEX
8
OBJECT__70
10
237.542007
20
-1.919000
30
263.671997
70
192
0
VERTEX
8
OBJECT__70
10
235.149994
20
9.439000
30
263.462006
70
192
0
VERTEX
8
OBJECT__70
10
231.891006
20
-12.048000
30
263.177002
70
192
0
VERTEX
8
OBJECT__70
10
236.414993
20
-7.847000
30
263.572998
70
192
0
VERTEX
8
OBJECT__70
10
235.468994
20
-7.198000
30
263.489990
70
192
0
VERTEX
8
OBJECT__70
10
238.675003
20
-2.092000
30
263.770996
70
192
0
VERTEX
8
OBJECT__70
10
211.748001
20
-4.077000
30
261.415009
70
192
0
VERTEX
8
OBJECT__70
10
212.843002
20
-3.740000
30
261.510986
70
192
0
VERTEX
8
OBJECT__70
10
214.820999
20
-9.439000
30
261.683990
70
192
0
VERTEX
8
OBJECT__70
10
215.662003
20
-8.658000
30
261.756989
70
192
0
VERTEX
8
OBJECT__70
10
219.906998
20
-12.932000
30
262.128998
70
192
0
VERTEX
8
OBJECT__70
10
226.000000
20
-13.863000
30
262.661987
70
192
0
VERTEX
8
OBJECT__70
10
231.320007
20
-11.051000
30
263.127014
70
192
0
VERTEX
8
OBJECT__70
10
225.916000
20
-12.716000
30
262.653992
70
192
0
VERTEX
8
OBJECT__70
10
0
20
0
30
0
70
128
71
1
72
2
73
3
0
VERTEX
8
OBJECT__70
10
0
20
0
30
0
70
128
71
4
72
5
73
2
0
VERTEX
8
OBJECT__70
10
0
20
0
30
0
70
128
71
2
72
1
73
4
0
VERTEX
8
OBJECT__70
10
0
20
0
30
0
70
128
71
6
72
7
73
5
0
VERTEX
8
OBJECT__70
10
0
20
0
30
0
70
128
71
8
72
9
73
7
0
VERTEX
8
OBJECT__70
10
0
20
0
30
0
70
128
71
10
72
11
73
9
0
VERTEX
8
OBJECT__70
10
0
20
0
30
0
70
128
71
12
72
13
73
14
0
VERTEX
8
OBJECT__70
10
0
20
0
30
0
70
128
71
15
72
3
73
13
0
VERTEX
8
OBJECT__70
10
0
20
0
30
0
70
128
71
5
72
4
73
6
0
VERTEX
8
OBJECT__70
10
0
20
0
30
0
70
128
71
9
72
8
73
10
0
VERTEX
8
OBJECT__70
10
0
20
0
30
0
70
128
71
16
72
17
73
18
0
VERTEX
8
OBJECT__70
10
0
20
0
30
0
70
128
71
17
72
19
73
14
0
VERTEX
8
OBJECT__70
10
0
20
0
30
0
70
128
71
13
72
12
73
15
0
VERTEX
8
OBJECT__70
10
0
20
0
30
0
70
128
71
7
72
6
73
8
0
VERTEX
8
OBJECT__70
10
0
20
0
30
0
70
128
71
20
72
21
73
11
0
VERTEX
8
OBJECT__70
10
0
20
0
30
0
70
128
71
20
72
22
73
23
0
VERTEX
8
OBJECT__70
10
0
20
0
30
0
70
128
71
23
72
22
73
24
0
VERTEX
8
OBJECT__70
10
0
20
0
30
0
70
128
71
25
72
16
73
26
0
VERTEX
8
OBJECT__70
10
0
20
0
30
0
70
128
71
14
72
18
73
17
0
VERTEX
8
OBJECT__70
10
0
20
0
30
0
70
128
71
3
72
15
73
1
0
VERTEX
8
OBJECT__70
10
0
20
0
30
0
70
128
71
23
72
21
73
20
0
VERTEX
8
OBJECT__70
10
0
20
0
30
0
70
128
71
24
72
27
73
23
0
VERTEX
8
OBJECT__70
10
0
20
0
30
0
70
128
71
18
72
26
73
16
0
VERTEX
8
OBJECT__70
10
0
20
0
30
0
70
128
71
11
72
10
73
20
0
VERTEX
8
OBJECT__70
10
0
20
0
30
0
70
128
71
26
72
27
73
25
0
VERTEX
8
OBJECT__70
10
0
20
0
30
0
70
128
71
24
72
25
73
27
0
VERTEX
8
OBJECT__70
10
0
20
0
30
0
70
128
71
14
72
19
73
12
0
SEQEND
8
OBJECT__70
0
POLYLINE
8
OBJECT__71
66
1
70
64
71
21
72
21
62
253
0
VERTEX
8
OBJECT__71
10
225.742004
20
-12.716000
30
264.647003
70
192
0
VERTEX
8
OBJECT__71
10
225.916000
20
-12.716000
30
262.653992
70
192
0
VERTEX
8
OBJECT__71
10
231.320007
20
-11.051000
30
263.127014
70
192
0
VERTEX
8
OBJECT__71
10
235.294998
20
-7.198000
30
265.483002
70
192
0
VERTEX
8
OBJECT__71
10
235.468994
20
-7.198000
30
263.489990
70
192
0
VERTEX
8
OBJECT__71
10
237.542007
20
-1.919000
30
263.671997
70
192
0
VERTEX
8
OBJECT__71
10
236.953995
20
3.740000
30
265.627991
70
192
0
VERTEX
8
OBJECT__71
10
229.468994
20
11.862000
30
264.972992
70
192
0
VERTEX
8
OBJECT__71
10
234.309006
20
8.658000
30
263.389008
70
192
0
VERTEX
8
OBJECT__71
10
237.128006
20
3.740000
30
263.635010
70
192
0
VERTEX
8
OBJECT__71
10
229.643997
20
11.862000
30
262.980988
70
192
0
VERTEX
8
OBJECT__71
10
224.054993
20
12.716000
30
262.492004
70
192
0
VERTEX
8
OBJECT__71
10
223.880997
20
12.716000
30
264.484009
70
192
0
VERTEX
8
OBJECT__71
10
218.477005
20
11.051000
30
264.010986
70
192
0
VERTEX
8
OBJECT__71
10
218.651001
20
11.051000
30
262.019012
70
192
0
VERTEX
8
OBJECT__71
10
214.501999
20
7.198000
30
261.656006
70
192
0
VERTEX
8
OBJECT__71
10
212.253998
20
1.919000
30
263.467010
70
192
0
VERTEX
8
OBJECT__71
10
215.488007
20
-8.658000
30
263.750000
70
192
0
VERTEX
8
OBJECT__71
10
212.843002
20
-3.740000
30
261.510986
70
192
0
VERTEX
8
OBJECT__71
10
212.429001
20
1.919000
30
261.473999
70
192
0
VERTEX
8
OBJECT__71
10
215.662003
20
-8.658000
30
261.756989
70
192
0
VERTEX
8
OBJECT__71
10
0
20
0
30
0
70
128
71
1
72
2
73
3
0
VERTEX
8
OBJECT__71
10
0
20
0
30
0
70
128
71
3
72
4
73
1
0
VERTEX
8
OBJECT__71
10
0
20
0
30
0
70
128
71
4
72
5
73
6
0
VERTEX
8
OBJECT__71
10
0
20
0
30
0
70
128
71
6
72
7
73
4
0
VERTEX
8
OBJECT__71
10
0
20
0
30
0
70
128
71
8
72
7
73
9
0
VERTEX
8
OBJECT__71
10
0
20
0
30
0
70
128
71
7
72
10
73
9
0
VERTEX
8
OBJECT__71
10
0
20
0
30
0
70
128
71
11
72
12
73
13
0
VERTEX
8
OBJECT__71
10
0
20
0
30
0
70
128
71
14
72
13
73
12
0
VERTEX
8
OBJECT__71
10
0
20
0
30
0
70
128
71
12
72
15
73
14
0
VERTEX
8
OBJECT__71
10
0
20
0
30
0
70
128
71
14
72
15
73
16
0
VERTEX
8
OBJECT__71
10
0
20
0
30
0
70
128
71
16
72
17
73
14
0
VERTEX
8
OBJECT__71
10
0
20
0
30
0
70
128
71
18
72
17
73
19
0
VERTEX
8
OBJECT__71
10
0
20
0
30
0
70
128
71
17
72
20
73
19
0
VERTEX
8
OBJECT__71
10
0
20
0
30
0
70
128
71
2
72
1
73
18
0
VERTEX
8
OBJECT__71
10
0
20
0
30
0
70
128
71
18
72
21
73
2
0
VERTEX
8
OBJECT__71
10
0
20
0
30
0
70
128
71
19
72
21
73
18
0
VERTEX
8
OBJECT__71
10
0
20
0
30
0
70
128
71
16
72
20
73
17
0
VERTEX
8
OBJECT__71
10
0
20
0
30
0
70
128
71
13
72
8
73
11
0
VERTEX
8
OBJECT__71
10
0
20
0
30
0
70
128
71
9
72
11
73
8
0
VERTEX
8
OBJECT__71
10
0
20
0
30
0
70
128
71
6
72
10
73
7
0
VERTEX
8
OBJECT__71
10
0
20
0
30
0
70
128
71
3
72
5
73
4
0
SEQEND
8
OBJECT__71
0
POLYLINE
8
OBJECT__72
66
1
70
64
71
23
72
22
62
253
0
VERTEX
8
OBJECT__72
10
0.000000
20
-94.015999
30
83.949997
70
192
0
VERTEX
8
OBJECT__72
10
0.000000
20
-93.462997
30
107.457001
70
192
0
VERTEX
8
OBJECT__72
10
-3.931000
20
-93.462997
30
106.487999
70
192
0
VERTEX
8
OBJECT__72
10
-10.924000
20
-93.462997
30
104.764999
70
192
0
VERTEX
8
OBJECT__72
10
-17.724001
20
-93.462997
30
98.739998
70
192
0
VERTEX
8
OBJECT__72
10
-23.336000
20
-93.462997
30
86.782997
70
192
0
VERTEX
8
OBJECT__72
10
-23.507000
20
-93.462997
30
83.949997
70
192
0
VERTEX
8
OBJECT__72
10
-21.980000
20
-93.462997
30
75.613998
70
192
0
VERTEX
8
OBJECT__72
10
-17.531000
20
-93.462997
30
69.168999
70
192
0
VERTEX
8
OBJECT__72
10
-5.626000
20
-93.462997
30
61.125999
70
192
0
VERTEX
8
OBJECT__72
10
-4.082000
20
-93.462997
30
61.125999
70
192
0
VERTEX
8
OBJECT__72
10
5.626000
20
-93.462997
30
61.125999
70
192
0
VERTEX
8
OBJECT__72
10
11.445000
20
-93.462997
30
64.180000
70
192
0
VERTEX
8
OBJECT__72
10
21.980000
20
-93.462997
30
75.613998
70
192
0
VERTEX
8
OBJECT__72
10
22.017000
20
-93.462997
30
75.918999
70
192
0
VERTEX
8
OBJECT__72
10
23.336000
20
-93.462997
30
86.782997
70
192
0
VERTEX
8
OBJECT__72
10
21.452999
20
-93.462997
30
91.748001
70
192
0
VERTEX
8
OBJECT__72
10
19.346001
20
-93.462997
30
97.304001
70
192
0
VERTEX
8
OBJECT__72
10
11.616000
20
-93.462997
30
104.152000
70
192
0
VERTEX
8
OBJECT__72
10
10.924000
20
-93.462997
30
104.764999
70
192
0
VERTEX
8
OBJECT__72
10
15.588000
20
-93.462997
30
66.353996
70
192
0
VERTEX
8
OBJECT__72
10
-15.588000
20
-93.462997
30
66.353996
70
192
0
VERTEX
8
OBJECT__72
10
-19.346001
20
-93.462997
30
97.304001
70
192
0
VERTEX
8
OBJECT__72
10
0
20
0
30
0
70
128
71
1
72
2
73
3
0
VERTEX
8
OBJECT__72
10
0
20
0
30
0
70
128
71
1
72
4
73
5
0
VERTEX
8
OBJECT__72
10
0
20
0
30
0
70
128
71
1
72
6
73
7
0
VERTEX
8
OBJECT__72
10
0
20
0
30
0
70
128
71
1
72
8
73
9
0
VERTEX
8
OBJECT__72
10
0
20
0
30
0
70
128
71
1
72
10
73
11
0
VERTEX
8
OBJECT__72
10
0
20
0
30
0
70
128
71
1
72
12
73
13
0
VERTEX
8
OBJECT__72
10
0
20
0
30
0
70
128
71
1
72
14
73
15
0
VERTEX
8
OBJECT__72
10
0
20
0
30
0
70
128
71
1
72
16
73
17
0
VERTEX
8
OBJECT__72
10
0
20
0
30
0
70
128
71
1
72
18
73
19
0
VERTEX
8
OBJECT__72
10
0
20
0
30
0
70
128
71
1
72
20
73
2
0
VERTEX
8
OBJECT__72
10
0
20
0
30
0
70
128
71
19
72
20
73
1
0
VERTEX
8
OBJECT__72
10
0
20
0
30
0
70
128
71
17
72
18
73
1
0
VERTEX
8
OBJECT__72
10
0
20
0
30
0
70
128
71
15
72
16
73
1
0
VERTEX
8
OBJECT__72
10
0
20
0
30
0
70
128
71
1
72
21
73
14
0
VERTEX
8
OBJECT__72
10
0
20
0
30
0
70
128
71
13
72
21
73
1
0
VERTEX
8
OBJECT__72
10
0
20
0
30
0
70
128
71
11
72
12
73
1
0
VERTEX
8
OBJECT__72
10
0
20
0
30
0
70
128
71
1
72
22
73
10
0
VERTEX
8
OBJECT__72
10
0
20
0
30
0
70
128
71
9
72
22
73
1
0
VERTEX
8
OBJECT__72
10
0
20
0
30
0
70
128
71
7
72
8
73
1
0
VERTEX
8
OBJECT__72
10
0
20
0
30
0
70
128
71
1
72
23
73
6
0
VERTEX
8
OBJECT__72
10
0
20
0
30
0
70
128
71
5
72
23
73
1
0
VERTEX
8
OBJECT__72
10
0
20
0
30
0
70
128
71
3
72
4
73
1
0
SEQEND
8
OBJECT__72
0
POLYLINE
8
OBJECT__73
66
1
70
64
71
32
72
32
62
253
0
VERTEX
8
OBJECT__73
10
-18.385000
20
-37.015999
30
99.376999
70
192
0
VERTEX
8
OBJECT__73
10
-24.000000
20
-37.015999
30
83.949997
70
192
0
VERTEX
8
OBJECT__73
10
-23.336000
20
-93.462997
30
86.782997
70
192
0
VERTEX
8
OBJECT__73
10
-23.507000
20
-93.462997
30
83.949997
70
192
0
VERTEX
8
OBJECT__73
10
-19.346001
20
-93.462997
30
97.304001
70
192
0
VERTEX
8
OBJECT__73
10
-17.724001
20
-93.462997
30
98.739998
70
192
0
VERTEX
8
OBJECT__73
10
-10.924000
20
-93.462997
30
104.764999
70
192
0
VERTEX
8
OBJECT__73
10
-4.168000
20
-37.015999
30
107.584999
70
192
0
VERTEX
8
OBJECT__73
10
12.000000
20
-37.015999
30
104.735001
70
192
0
VERTEX
8
OBJECT__73
10
0.000000
20
-93.462997
30
107.457001
70
192
0
VERTEX
8
OBJECT__73
10
-3.931000
20
-93.462997
30
106.487999
70
192
0
VERTEX
8
OBJECT__73
10
10.924000
20
-93.462997
30
104.764999
70
192
0
VERTEX
8
OBJECT__73
10
11.616000
20
-93.462997
30
104.152000
70
192
0
VERTEX
8
OBJECT__73
10
19.346001
20
-93.462997
30
97.304001
70
192
0
VERTEX
8
OBJECT__73
10
22.552999
20
-37.015999
30
92.157997
70
192
0
VERTEX
8
OBJECT__73
10
22.017000
20
-93.462997
30
75.918999
70
192
0
VERTEX
8
OBJECT__73
10
22.552999
20
-37.015999
30
75.740997
70
192
0
VERTEX
8
OBJECT__73
10
24.000000
20
-37.015999
30
83.949997
70
192
0
VERTEX
8
OBJECT__73
10
21.452999
20
-93.462997
30
91.748001
70
192
0
VERTEX
8
OBJECT__73
10
23.336000
20
-93.462997
30
86.782997
70
192
0
VERTEX
8
OBJECT__73
10
12.000000
20
-37.015999
30
63.165001
70
192
0
VERTEX
8
OBJECT__73
10
21.980000
20
-93.462997
30
75.613998
70
192
0
VERTEX
8
OBJECT__73
10
15.588000
20
-93.462997
30
66.353996
70
192
0
VERTEX
8
OBJECT__73
10
11.445000
20
-93.462997
30
64.180000
70
192
0
VERTEX
8
OBJECT__73
10
-4.168000
20
-37.015999
30
60.314999
70
192
0
VERTEX
8
OBJECT__73
10
5.626000
20
-93.462997
30
61.125999
70
192
0
VERTEX
8
OBJECT__73
10
-5.626000
20
-93.462997
30
61.125999
70
192
0
VERTEX
8
OBJECT__73
10
-15.588000
20
-93.462997
30
66.353996
70
192
0
VERTEX
8
OBJECT__73
10
-18.385000
20
-37.015999
30
68.523003
70
192
0
VERTEX
8
OBJECT__73
10
-4.082000
20
-93.462997
30
61.125999
70
192
0
VERTEX
8
OBJECT__73
10
-21.980000
20
-93.462997
30
75.613998
70
192
0
VERTEX
8
OBJECT__73
10
-17.531000
20
-93.462997
30
69.168999
70
192
0
VERTEX
8
OBJECT__73
10
0
20
0
30
0
70
128
71
1
72
2
73
3
0
VERTEX
8
OBJECT__73
10
0
20
0
30
0
70
128
71
2
72
4
73
3
0
VERTEX
8
OBJECT__73
10
0
20
0
30
0
70
128
71
3
72
5
73
1
0
VERTEX
8
OBJECT__73
10
0
20
0
30
0
70
128
71
1
72
6
73
7
0
VERTEX
8
OBJECT__73
10
0
20
0
30
0
70
128
71
7
72
8
73
1
0
VERTEX
8
OBJECT__73
10
0
20
0
30
0
70
128
71
9
72
8
73
10
0
VERTEX
8
OBJECT__73
10
0
20
0
30
0
70
128
71
8
72
11
73
10
0
VERTEX
8
OBJECT__73
10
0
20
0
30
0
70
128
71
10
72
12
73
9
0
VERTEX
8
OBJECT__73
10
0
20
0
30
0
70
128
71
9
72
13
73
14
0
VERTEX
8
OBJECT__73
10
0
20
0
30
0
70
128
71
14
72
15
73
9
0
VERTEX
8
OBJECT__73
10
0
20
0
30
0
70
128
71
16
72
17
73
18
0
VERTEX
8
OBJECT__73
10
0
20
0
30
0
70
128
71
15
72
19
73
20
0
VERTEX
8
OBJECT__73
10
0
20
0
30
0
70
128
71
20
72
18
73
15
0
VERTEX
8
OBJECT__73
10
0
20
0
30
0
70
128
71
21
72
22
73
23
0
VERTEX
8
OBJECT__73
10
0
20
0
30
0
70
128
71
17
72
16
73
22
0
VERTEX
8
OBJECT__73
10
0
20
0
30
0
70
128
71
22
72
21
73
17
0
VERTEX
8
OBJECT__73
10
0
20
0
30
0
70
128
71
23
72
24
73
21
0
VERTEX
8
OBJECT__73
10
0
20
0
30
0
70
128
71
25
72
21
73
26
0
VERTEX
8
OBJECT__73
10
0
20
0
30
0
70
128
71
21
72
24
73
26
0
VERTEX
8
OBJECT__73
10
0
20
0
30
0
70
128
71
25
72
27
73
28
0
VERTEX
8
OBJECT__73
10
0
20
0
30
0
70
128
71
28
72
29
73
25
0
VERTEX
8
OBJECT__73
10
0
20
0
30
0
70
128
71
25
72
30
73
27
0
VERTEX
8
OBJECT__73
10
0
20
0
30
0
70
128
71
2
72
29
73
31
0
VERTEX
8
OBJECT__73
10
0
20
0
30
0
70
128
71
29
72
32
73
31
0
VERTEX
8
OBJECT__73
10
0
20
0
30
0
70
128
71
31
72
4
73
2
0
VERTEX
8
OBJECT__73
10
0
20
0
30
0
70
128
71
28
72
32
73
29
0
VERTEX
8
OBJECT__73
10
0
20
0
30
0
70
128
71
26
72
30
73
25
0
VERTEX
8
OBJECT__73
10
0
20
0
30
0
70
128
71
18
72
20
73
16
0
VERTEX
8
OBJECT__73
10
0
20
0
30
0
70
128
71
14
72
19
73
15
0
VERTEX
8
OBJECT__73
10
0
20
0
30
0
70
128
71
12
72
13
73
9
0
VERTEX
8
OBJECT__73
10
0
20
0
30
0
70
128
71
7
72
11
73
8
0
VERTEX
8
OBJECT__73
10
0
20
0
30
0
70
128
71
5
72
6
73
1
0
SEQEND
8
OBJECT__73
0
POLYLINE
8
OBJECT__75
66
1
70
64
71
22
72
22
62
253
0
VERTEX
8
OBJECT__75
10
22.552999
20
-37.015999
30
92.157997
70
192
0
VERTEX
8
OBJECT__75
10
19.875000
20
-37.015999
30
92.150002
70
192
0
VERTEX
8
OBJECT__75
10
10.967000
20
-37.015999
30
102.443001
70
192
0
VERTEX
8
OBJECT__75
10
24.000000
20
-37.015999
30
83.949997
70
192
0
VERTEX
8
OBJECT__75
10
-4.168000
20
-37.015999
30
107.584999
70
192
0
VERTEX
8
OBJECT__75
10
12.000000
20
-37.015999
30
104.735001
70
192
0
VERTEX
8
OBJECT__75
10
8.457000
20
-37.015999
30
103.717003
70
192
0
VERTEX
8
OBJECT__75
10
10.967000
20
-37.015999
30
103.217003
70
192
0
VERTEX
8
OBJECT__75
10
20.525000
20
-37.015999
30
77.547997
70
192
0
VERTEX
8
OBJECT__75
10
-18.385000
20
-37.015999
30
99.376999
70
192
0
VERTEX
8
OBJECT__75
10
-5.276000
20
-37.015999
30
104.792999
70
192
0
VERTEX
8
OBJECT__75
10
10.467000
20
-37.015999
30
103.717003
70
192
0
VERTEX
8
OBJECT__75
10
22.552999
20
-37.015999
30
75.740997
70
192
0
VERTEX
8
OBJECT__75
10
12.000000
20
-37.015999
30
63.165001
70
192
0
VERTEX
8
OBJECT__75
10
11.688000
20
-37.015999
30
65.903999
70
192
0
VERTEX
8
OBJECT__75
10
-24.000000
20
-37.015999
30
83.949997
70
192
0
VERTEX
8
OBJECT__75
10
-17.382999
20
-37.015999
30
96.602997
70
192
0
VERTEX
8
OBJECT__75
10
-4.168000
20
-37.015999
30
60.314999
70
192
0
VERTEX
8
OBJECT__75
10
-2.551000
20
-37.015999
30
62.602001
70
192
0
VERTEX
8
OBJECT__75
10
-18.385000
20
-37.015999
30
68.523003
70
192
0
VERTEX
8
OBJECT__75
10
-15.611000
20
-37.015999
30
69.167000
70
192
0
VERTEX
8
OBJECT__75
10
-21.455000
20
-37.015999
30
82.564003
70
192
0
VERTEX
8
OBJECT__75
10
0
20
0
30
0
70
128
71
1
72
2
73
3
0
VERTEX
8
OBJECT__75
10
0
20
0
30
0
70
128
71
2
72
1
73
4
0
VERTEX
8
OBJECT__75
10
0
20
0
30
0
70
128
71
5
72
6
73
7
0
VERTEX
8
OBJECT__75
10
0
20
0
30
0
70
128
71
3
72
8
73
1
0
VERTEX
8
OBJECT__75
10
0
20
0
30
0
70
128
71
4
72
9
73
2
0
VERTEX
8
OBJECT__75
10
0
20
0
30
0
70
128
71
10
72
5
73
11
0
VERTEX
8
OBJECT__75
10
0
20
0
30
0
70
128
71
6
72
12
73
7
0
VERTEX
8
OBJECT__75
10
0
20
0
30
0
70
128
71
4
72
13
73
9
0
VERTEX
8
OBJECT__75
10
0
20
0
30
0
70
128
71
13
72
14
73
15
0
VERTEX
8
OBJECT__75
10
0
20
0
30
0
70
128
71
16
72
10
73
17
0
VERTEX
8
OBJECT__75
10
0
20
0
30
0
70
128
71
7
72
11
73
5
0
VERTEX
8
OBJECT__75
10
0
20
0
30
0
70
128
71
15
72
9
73
13
0
VERTEX
8
OBJECT__75
10
0
20
0
30
0
70
128
71
14
72
18
73
19
0
VERTEX
8
OBJECT__75
10
0
20
0
30
0
70
128
71
18
72
20
73
21
0
VERTEX
8
OBJECT__75
10
0
20
0
30
0
70
128
71
20
72
16
73
22
0
VERTEX
8
OBJECT__75
10
0
20
0
30
0
70
128
71
11
72
17
73
10
0
VERTEX
8
OBJECT__75
10
0
20
0
30
0
70
128
71
19
72
15
73
14
0
VERTEX
8
OBJECT__75
10
0
20
0
30
0
70
128
71
22
72
21
73
20
0
VERTEX
8
OBJECT__75
10
0
20
0
30
0
70
128
71
6
72
8
73
12
0
VERTEX
8
OBJECT__75
10
0
20
0
30
0
70
128
71
21
72
19
73
18
0
VERTEX
8
OBJECT__75
10
0
20
0
30
0
70
128
71
8
72
6
73
1
0
VERTEX
8
OBJECT__75
10
0
20
0
30
0
70
128
71
17
72
22
73
16
0
SEQEND
8
OBJECT__75
0
POLYLINE
8
OBJECT__76
66
1
70
64
71
120
72
118
62
253
0
VERTEX
8
OBJECT__76
10
-19.219999
20
-90.021004
30
92.503998
70
192
0
VERTEX
8
OBJECT__76
10
-20.989000
20
-90.515999
30
82.594002
70
192
0
VERTEX
8
OBJECT__76
10
-20.974001
20
-80.316002
30
86.449997
70
192
0
VERTEX
8
OBJECT__76
10
-19.275000
20
-80.316002
30
92.587997
70
192
0
VERTEX
8
OBJECT__76
10
-21.455000
20
-37.015999
30
82.564003
70
192
0
VERTEX
8
OBJECT__76
10
-21.000000
20
-77.327003
30
86.449997
70
192
0
VERTEX
8
OBJECT__76
10
-20.999001
20
-77.388000
30
86.449997
70
192
0
VERTEX
8
OBJECT__76
10
-20.987000
20
-77.292999
30
86.563004
70
192
0
VERTEX
8
OBJECT__76
10
-20.992001
20
-77.327003
30
86.514000
70
192
0
VERTEX
8
OBJECT__76
10
-17.382999
20
-37.015999
30
96.602997
70
192
0
VERTEX
8
OBJECT__76
10
-19.056000
20
-77.248001
30
93.122002
70
192
0
VERTEX
8
OBJECT__76
10
-19.065001
20
-77.248001
30
93.105003
70
192
0
VERTEX
8
OBJECT__76
10
-20.966999
20
-77.248001
30
86.721001
70
192
0
VERTEX
8
OBJECT__76
10
-18.528999
20
-79.774002
30
94.098999
70
192
0
VERTEX
8
OBJECT__76
10
-18.782000
20
-78.639000
30
93.646004
70
192
0
VERTEX
8
OBJECT__76
10
-18.784000
20
-78.459999
30
93.644997
70
192
0
VERTEX
8
OBJECT__76
10
-18.775000
20
-79.238998
30
93.648003
70
192
0
VERTEX
8
OBJECT__76
10
-17.009001
20
-90.021004
30
96.330002
70
192
0
VERTEX
8
OBJECT__76
10
-18.528000
20
-79.814003
30
94.100998
70
192
0
VERTEX
8
OBJECT__76
10
-18.375999
20
-90.021004
30
94.192001
70
192
0
VERTEX
8
OBJECT__76
10
-18.421000
20
-87.021004
30
94.165001
70
192
0
VERTEX
8
OBJECT__76
10
-15.275000
20
-90.021004
30
69.485001
70
192
0
VERTEX
8
OBJECT__76
10
-15.611000
20
-37.015999
30
69.167000
70
192
0
VERTEX
8
OBJECT__76
10
-18.768999
20
-79.515999
30
74.246002
70
192
0
VERTEX
8
OBJECT__76
10
-18.764999
20
-79.814003
30
74.242996
70
192
0
VERTEX
8
OBJECT__76
10
-18.934999
20
-77.327003
30
74.530998
70
192
0
VERTEX
8
OBJECT__76
10
-18.927999
20
-77.929001
30
74.528000
70
192
0
VERTEX
8
OBJECT__76
10
-18.909000
20
-79.515999
30
74.522003
70
192
0
VERTEX
8
OBJECT__76
10
-21.000000
20
-77.327003
30
81.449997
70
192
0
VERTEX
8
OBJECT__76
10
-20.995001
20
-77.870003
30
81.449997
70
192
0
VERTEX
8
OBJECT__76
10
-20.974001
20
-80.316002
30
81.449997
70
192
0
VERTEX
8
OBJECT__76
10
-19.219999
20
-90.021004
30
75.396004
70
192
0
VERTEX
8
OBJECT__76
10
-19.275000
20
-80.316002
30
75.310997
70
192
0
VERTEX
8
OBJECT__76
10
-19.216999
20
-90.515999
30
75.400002
70
192
0
VERTEX
8
OBJECT__76
10
-5.704000
20
-46.922001
30
63.310001
70
192
0
VERTEX
8
OBJECT__76
10
-3.552000
20
-44.776001
30
62.813999
70
192
0
VERTEX
8
OBJECT__76
10
-2.551000
20
-37.015999
30
62.602001
70
192
0
VERTEX
8
OBJECT__76
10
-5.745000
20
-90.021004
30
63.712002
70
192
0
VERTEX
8
OBJECT__76
10
-5.721000
20
-63.799000
30
63.467999
70
192
0
VERTEX
8
OBJECT__76
10
11.688000
20
-37.015999
30
65.903999
70
192
0
VERTEX
8
OBJECT__76
10
5.704000
20
-46.922001
30
63.310001
70
192
0
VERTEX
8
OBJECT__76
10
5.729000
20
-72.352997
30
63.547001
70
192
0
VERTEX
8
OBJECT__76
10
11.436000
20
-90.021004
30
66.292999
70
192
0
VERTEX
8
OBJECT__76
10
5.698000
20
-46.779999
30
63.306999
70
192
0
VERTEX
8
OBJECT__76
10
3.718000
20
-44.823002
30
62.842999
70
192
0
VERTEX
8
OBJECT__76
10
-2.544000
20
-44.783001
30
62.818001
70
192
0
VERTEX
8
OBJECT__76
10
20.525000
20
-37.015999
30
77.547997
70
192
0
VERTEX
8
OBJECT__76
10
19.056000
20
-77.248001
30
74.778000
70
192
0
VERTEX
8
OBJECT__76
10
19.065001
20
-77.248001
30
74.794998
70
192
0
VERTEX
8
OBJECT__76
10
18.528999
20
-79.774002
30
73.801003
70
192
0
VERTEX
8
OBJECT__76
10
18.782000
20
-78.639000
30
74.253998
70
192
0
VERTEX
8
OBJECT__76
10
18.784000
20
-78.459999
30
74.254997
70
192
0
VERTEX
8
OBJECT__76
10
18.775000
20
-79.238998
30
74.251999
70
192
0
VERTEX
8
OBJECT__76
10
18.528000
20
-79.814003
30
73.799004
70
192
0
VERTEX
8
OBJECT__76
10
18.375999
20
-90.021004
30
73.708000
70
192
0
VERTEX
8
OBJECT__76
10
18.421000
20
-87.021004
30
73.735001
70
192
0
VERTEX
8
OBJECT__76
10
20.164000
20
-80.316002
30
77.660004
70
192
0
VERTEX
8
OBJECT__76
10
19.275000
20
-80.316002
30
75.310997
70
192
0
VERTEX
8
OBJECT__76
10
19.219999
20
-90.021004
30
75.396004
70
192
0
VERTEX
8
OBJECT__76
10
20.079000
20
-90.515999
30
77.686996
70
192
0
VERTEX
8
OBJECT__76
10
19.525000
20
-80.316002
30
92.005997
70
192
0
VERTEX
8
OBJECT__76
10
19.443001
20
-90.515999
30
91.972000
70
192
0
VERTEX
8
OBJECT__76
10
19.219999
20
-90.021004
30
92.503998
70
192
0
VERTEX
8
OBJECT__76
10
19.216999
20
-90.515999
30
92.500000
70
192
0
VERTEX
8
OBJECT__76
10
20.974001
20
-80.316002
30
81.449997
70
192
0
VERTEX
8
OBJECT__76
10
19.875000
20
-37.015999
30
92.150002
70
192
0
VERTEX
8
OBJECT__76
10
20.980000
20
-77.264999
30
86.620003
70
192
0
VERTEX
8
OBJECT__76
10
20.966999
20
-77.248001
30
86.721001
70
192
0
VERTEX
8
OBJECT__76
10
21.000000
20
-77.327003
30
81.449997
70
192
0
VERTEX
8
OBJECT__76
10
20.999001
20
-77.388000
30
86.449997
70
192
0
VERTEX
8
OBJECT__76
10
20.999001
20
-77.388000
30
81.449997
70
192
0
VERTEX
8
OBJECT__76
10
20.974001
20
-80.316002
30
86.449997
70
192
0
VERTEX
8
OBJECT__76
10
19.549999
20
-77.248001
30
92.015999
70
192
0
VERTEX
8
OBJECT__76
10
20.987000
20
-77.292999
30
81.336998
70
192
0
VERTEX
8
OBJECT__76
10
20.992001
20
-77.327003
30
81.386002
70
192
0
VERTEX
8
OBJECT__76
10
20.188999
20
-77.248001
30
77.652000
70
192
0
VERTEX
8
OBJECT__76
10
20.966999
20
-77.248001
30
81.179001
70
192
0
VERTEX
8
OBJECT__76
10
13.998000
20
-90.021004
30
99.653999
70
192
0
VERTEX
8
OBJECT__76
10
13.952000
20
-77.421997
30
99.842003
70
192
0
VERTEX
8
OBJECT__76
10
18.483999
20
-82.813004
30
94.126999
70
192
0
VERTEX
8
OBJECT__76
10
18.528000
20
-79.814003
30
94.100998
70
192
0
VERTEX
8
OBJECT__76
10
18.784000
20
-78.459999
30
93.644997
70
192
0
VERTEX
8
OBJECT__76
10
18.752001
20
-79.251999
30
93.691002
70
192
0
VERTEX
8
OBJECT__76
10
18.830000
20
-77.836998
30
93.566002
70
192
0
VERTEX
8
OBJECT__76
10
18.934999
20
-77.327003
30
93.369003
70
192
0
VERTEX
8
OBJECT__76
10
18.934000
20
-77.403999
30
93.369003
70
192
0
VERTEX
8
OBJECT__76
10
18.775000
20
-79.238998
30
93.648003
70
192
0
VERTEX
8
OBJECT__76
10
10.504000
20
-90.021004
30
102.177002
70
192
0
VERTEX
8
OBJECT__76
10
12.009000
20
-50.317001
30
101.642998
70
192
0
VERTEX
8
OBJECT__76
10
11.966000
20
-62.616001
30
101.542999
70
192
0
VERTEX
8
OBJECT__76
10
10.965000
20
-37.180000
30
102.442001
70
192
0
VERTEX
8
OBJECT__76
10
12.035000
20
-50.146000
30
101.627998
70
192
0
VERTEX
8
OBJECT__76
10
11.871000
20
-90.021004
30
101.318001
70
192
0
VERTEX
8
OBJECT__76
10
13.245000
20
-49.719002
30
100.744003
70
192
0
VERTEX
8
OBJECT__76
10
12.617000
20
-49.719002
30
101.221001
70
192
0
VERTEX
8
OBJECT__76
10
10.967000
20
-37.015999
30
102.443001
70
192
0
VERTEX
8
OBJECT__76
10
13.484000
20
-49.766998
30
100.553001
70
192
0
VERTEX
8
OBJECT__76
10
13.854000
20
-50.317001
30
100.238998
70
192
0
VERTEX
8
OBJECT__76
10
19.018999
20
-77.265999
30
93.198997
70
192
0
VERTEX
8
OBJECT__76
10
18.971001
20
-77.327003
30
93.295998
70
192
0
VERTEX
8
OBJECT__76
10
19.065001
20
-77.248001
30
93.105003
70
192
0
VERTEX
8
OBJECT__76
10
-5.162000
20
-90.021004
30
104.344002
70
192
0
VERTEX
8
OBJECT__76
10
-5.276000
20
-37.015999
30
104.792999
70
192
0
VERTEX
8
OBJECT__76
10
8.457000
20
-37.181000
30
103.714996
70
192
0
VERTEX
8
OBJECT__76
10
8.457000
20
-37.015999
30
103.717003
70
192
0
VERTEX
8
OBJECT__76
10
-13.899000
20
-62.615002
30
100.059998
70
192
0
VERTEX
8
OBJECT__76
10
-13.854000
20
-50.317001
30
100.238998
70
192
0
VERTEX
8
OBJECT__76
10
-13.830000
20
-50.153000
30
100.261002
70
192
0
VERTEX
8
OBJECT__76
10
-13.771000
20
-50.015999
30
100.313004
70
192
0
VERTEX
8
OBJECT__76
10
-12.141000
20
-50.015999
30
101.556000
70
192
0
VERTEX
8
OBJECT__76
10
-12.002000
20
-90.021004
30
101.227997
70
192
0
VERTEX
8
OBJECT__76
10
-12.140000
20
-50.314999
30
101.553001
70
192
0
VERTEX
8
OBJECT__76
10
-13.998000
20
-90.021004
30
99.653999
70
192
0
VERTEX
8
OBJECT__76
10
8.362000
20
-90.021004
30
103.253998
70
192
0
VERTEX
8
OBJECT__76
10
18.375999
20
-90.021004
30
94.192001
70
192
0
VERTEX
8
OBJECT__76
10
19.275000
20
-80.316002
30
92.587997
70
192
0
VERTEX
8
OBJECT__76
10
19.216999
20
-90.515999
30
75.400002
70
192
0
VERTEX
8
OBJECT__76
10
5.745000
20
-90.021004
30
63.712002
70
192
0
VERTEX
8
OBJECT__76
10
-18.618000
20
-90.021004
30
74.153999
70
192
0
VERTEX
8
OBJECT__76
10
-19.216999
20
-90.515999
30
92.500000
70
192
0
VERTEX
8
OBJECT__76
10
0
20
0
30
0
70
128
71
1
72
2
73
3
0
VERTEX
8
OBJECT__76
10
0
20
0
30
0
70
128
71
3
72
4
73
1
0
VERTEX
8
OBJECT__76
10
0
20
0
30
0
70
128
71
2
72
5
73
6
0
VERTEX
8
OBJECT__76
10
0
20
0
30
0
70
128
71
6
72
7
73
2
0
VERTEX
8
OBJECT__76
10
0
20
0
30
0
70
128
71
7
72
3
73
2
0
VERTEX
8
OBJECT__76
10
0
20
0
30
0
70
128
71
5
72
8
73
9
0
VERTEX
8
OBJECT__76
10
0
20
0
30
0
70
128
71
10
72
11
73
12
0
VERTEX
8
OBJECT__76
10
0
20
0
30
0
70
128
71
12
72
5
73
10
0
VERTEX
8
OBJECT__76
10
0
20
0
30
0
70
128
71
12
72
13
73
5
0
VERTEX
8
OBJECT__76
10
0
20
0
30
0
70
128
71
13
72
8
73
5
0
VERTEX
8
OBJECT__76
10
0
20
0
30
0
70
128
71
14
72
15
73
16
0
VERTEX
8
OBJECT__76
10
0
20
0
30
0
70
128
71
14
72
17
73
15
0
VERTEX
8
OBJECT__76
10
0
20
0
30
0
70
128
71
16
72
10
73
14
0
VERTEX
8
OBJECT__76
10
0
20
0
30
0
70
128
71
18
72
19
73
14
0
VERTEX
8
OBJECT__76
10
0
20
0
30
0
70
128
71
18
72
20
73
21
0
VERTEX
8
OBJECT__76
10
0
20
0
30
0
70
128
71
21
72
19
73
18
0
VERTEX
8
OBJECT__76
10
0
20
0
30
0
70
128
71
14
72
10
73
18
0
VERTEX
8
OBJECT__76
10
0
20
0
30
0
70
128
71
16
72
11
73
10
0
VERTEX
8
OBJECT__76
10
0
20
0
30
0
70
128
71
9
72
6
73
5
0
VERTEX
8
OBJECT__76
10
0
20
0
30
0
70
128
71
22
72
23
73
24
0
VERTEX
8
OBJECT__76
10
0
20
0
30
0
70
128
71
24
72
25
73
22
0
VERTEX
8
OBJECT__76
10
0
20
0
30
0
70
128
71
24
72
23
73
26
0
VERTEX
8
OBJECT__76
10
0
20
0
30
0
70
128
71
26
72
27
73
24
0
VERTEX
8
OBJECT__76
10
0
20
0
30
0
70
128
71
27
72
28
73
24
0
VERTEX
8
OBJECT__76
10
0
20
0
30
0
70
128
71
5
72
29
73
26
0
VERTEX
8
OBJECT__76
10
0
20
0
30
0
70
128
71
26
72
23
73
5
0
VERTEX
8
OBJECT__76
10
0
20
0
30
0
70
128
71
2
72
30
73
29
0
VERTEX
8
OBJECT__76
10
0
20
0
30
0
70
128
71
2
72
31
73
30
0
VERTEX
8
OBJECT__76
10
0
20
0
30
0
70
128
71
32
72
33
73
31
0
VERTEX
8
OBJECT__76
10
0
20
0
30
0
70
128
71
2
72
34
73
32
0
VERTEX
8
OBJECT__76
10
0
20
0
30
0
70
128
71
31
72
2
73
32
0
VERTEX
8
OBJECT__76
10
0
20
0
30
0
70
128
71
29
72
5
73
2
0
VERTEX
8
OBJECT__76
10
0
20
0
30
0
70
128
71
23
72
35
73
36
0
VERTEX
8
OBJECT__76
10
0
20
0
30
0
70
128
71
36
72
37
73
23
0
VERTEX
8
OBJECT__76
10
0
20
0
30
0
70
128
71
22
72
38
73
39
0
VERTEX
8
OBJECT__76
10
0
20
0
30
0
70
128
71
39
72
23
73
22
0
VERTEX
8
OBJECT__76
10
0
20
0
30
0
70
128
71
39
72
35
73
23
0
VERTEX
8
OBJECT__76
10
0
20
0
30
0
70
128
71
40
72
41
73
42
0
VERTEX
8
OBJECT__76
10
0
20
0
30
0
70
128
71
42
72
43
73
40
0
VERTEX
8
OBJECT__76
10
0
20
0
30
0
70
128
71
40
72
44
73
41
0
VERTEX
8
OBJECT__76
10
0
20
0
30
0
70
128
71
40
72
45
73
44
0
VERTEX
8
OBJECT__76
10
0
20
0
30
0
70
128
71
37
72
46
73
45
0
VERTEX
8
OBJECT__76
10
0
20
0
30
0
70
128
71
45
72
40
73
37
0
VERTEX
8
OBJECT__76
10
0
20
0
30
0
70
128
71
47
72
40
73
48
0
VERTEX
8
OBJECT__76
10
0
20
0
30
0
70
128
71
48
72
49
73
47
0
VERTEX
8
OBJECT__76
10
0
20
0
30
0
70
128
71
50
72
51
73
52
0
VERTEX
8
OBJECT__76
10
0
20
0
30
0
70
128
71
50
72
53
73
51
0
VERTEX
8
OBJECT__76
10
0
20
0
30
0
70
128
71
52
72
40
73
50
0
VERTEX
8
OBJECT__76
10
0
20
0
30
0
70
128
71
43
72
54
73
50
0
VERTEX
8
OBJECT__76
10
0
20
0
30
0
70
128
71
43
72
55
73
56
0
VERTEX
8
OBJECT__76
10
0
20
0
30
0
70
128
71
56
72
54
73
43
0
VERTEX
8
OBJECT__76
10
0
20
0
30
0
70
128
71
50
72
40
73
43
0
VERTEX
8
OBJECT__76
10
0
20
0
30
0
70
128
71
52
72
48
73
40
0
VERTEX
8
OBJECT__76
10
0
20
0
30
0
70
128
71
57
72
58
73
59
0
VERTEX
8
OBJECT__76
10
0
20
0
30
0
70
128
71
59
72
60
73
57
0
VERTEX
8
OBJECT__76
10
0
20
0
30
0
70
128
71
61
72
62
73
63
0
VERTEX
8
OBJECT__76
10
0
20
0
30
0
70
128
71
62
72
64
73
63
0
VERTEX
8
OBJECT__76
10
0
20
0
30
0
70
128
71
60
72
62
73
65
0
VERTEX
8
OBJECT__76
10
0
20
0
30
0
70
128
71
66
72
67
73
68
0
VERTEX
8
OBJECT__76
10
0
20
0
30
0
70
128
71
66
72
69
73
70
0
VERTEX
8
OBJECT__76
10
0
20
0
30
0
70
128
71
70
72
67
73
66
0
VERTEX
8
OBJECT__76
10
0
20
0
30
0
70
128
71
71
72
65
73
72
0
VERTEX
8
OBJECT__76
10
0
20
0
30
0
70
128
71
70
72
69
73
71
0
VERTEX
8
OBJECT__76
10
0
20
0
30
0
70
128
71
72
72
70
73
71
0
VERTEX
8
OBJECT__76
10
0
20
0
30
0
70
128
71
62
72
61
73
72
0
VERTEX
8
OBJECT__76
10
0
20
0
30
0
70
128
71
72
72
65
73
62
0
VERTEX
8
OBJECT__76
10
0
20
0
30
0
70
128
71
68
72
73
73
66
0
VERTEX
8
OBJECT__76
10
0
20
0
30
0
70
128
71
66
72
74
73
75
0
VERTEX
8
OBJECT__76
10
0
20
0
30
0
70
128
71
47
72
76
73
77
0
VERTEX
8
OBJECT__76
10
0
20
0
30
0
70
128
71
77
72
66
73
47
0
VERTEX
8
OBJECT__76
10
0
20
0
30
0
70
128
71
77
72
74
73
66
0
VERTEX
8
OBJECT__76
10
0
20
0
30
0
70
128
71
75
72
69
73
66
0
VERTEX
8
OBJECT__76
10
0
20
0
30
0
70
128
71
78
72
79
73
80
0
VERTEX
8
OBJECT__76
10
0
20
0
30
0
70
128
71
79
72
81
73
80
0
VERTEX
8
OBJECT__76
10
0
20
0
30
0
70
128
71
79
72
82
73
83
0
VERTEX
8
OBJECT__76
10
0
20
0
30
0
70
128
71
79
72
84
73
82
0
VERTEX
8
OBJECT__76
10
0
20
0
30
0
70
128
71
79
72
85
73
86
0
VERTEX
8
OBJECT__76
10
0
20
0
30
0
70
128
71
86
72
84
73
79
0
VERTEX
8
OBJECT__76
10
0
20
0
30
0
70
128
71
82
72
87
73
83
0
VERTEX
8
OBJECT__76
10
0
20
0
30
0
70
128
71
83
72
81
73
79
0
VERTEX
8
OBJECT__76
10
0
20
0
30
0
70
128
71
88
72
89
73
90
0
VERTEX
8
OBJECT__76
10
0
20
0
30
0
70
128
71
91
72
92
73
89
0
VERTEX
8
OBJECT__76
10
0
20
0
30
0
70
128
71
89
72
88
73
91
0
VERTEX
8
OBJECT__76
10
0
20
0
30
0
70
128
71
90
72
93
73
88
0
VERTEX
8
OBJECT__76
10
0
20
0
30
0
70
128
71
94
72
95
73
91
0
VERTEX
8
OBJECT__76
10
0
20
0
30
0
70
128
71
96
72
66
73
97
0
VERTEX
8
OBJECT__76
10
0
20
0
30
0
70
128
71
97
72
94
73
96
0
VERTEX
8
OBJECT__76
10
0
20
0
30
0
70
128
71
91
72
96
73
94
0
VERTEX
8
OBJECT__76
10
0
20
0
30
0
70
128
71
66
72
98
73
97
0
VERTEX
8
OBJECT__76
10
0
20
0
30
0
70
128
71
98
72
99
73
100
0
VERTEX
8
OBJECT__76
10
0
20
0
30
0
70
128
71
100
72
85
73
98
0
VERTEX
8
OBJECT__76
10
0
20
0
30
0
70
128
71
101
72
99
73
98
0
VERTEX
8
OBJECT__76
10
0
20
0
30
0
70
128
71
66
72
73
73
101
0
VERTEX
8
OBJECT__76
10
0
20
0
30
0
70
128
71
98
72
66
73
101
0
VERTEX
8
OBJECT__76
10
0
20
0
30
0
70
128
71
85
72
79
73
98
0
VERTEX
8
OBJECT__76
10
0
20
0
30
0
70
128
71
95
72
92
73
91
0
VERTEX
8
OBJECT__76
10
0
20
0
30
0
70
128
71
102
72
103
73
104
0
VERTEX
8
OBJECT__76
10
0
20
0
30
0
70
128
71
103
72
105
73
104
0
VERTEX
8
OBJECT__76
10
0
20
0
30
0
70
128
71
18
72
10
73
106
0
VERTEX
8
OBJECT__76
10
0
20
0
30
0
70
128
71
10
72
107
73
106
0
VERTEX
8
OBJECT__76
10
0
20
0
30
0
70
128
71
10
72
108
73
107
0
VERTEX
8
OBJECT__76
10
0
20
0
30
0
70
128
71
10
72
109
73
108
0
VERTEX
8
OBJECT__76
10
0
20
0
30
0
70
128
71
10
72
103
73
110
0
VERTEX
8
OBJECT__76
10
0
20
0
30
0
70
128
71
110
72
109
73
10
0
VERTEX
8
OBJECT__76
10
0
20
0
30
0
70
128
71
102
72
111
73
112
0
VERTEX
8
OBJECT__76
10
0
20
0
30
0
70
128
71
112
72
103
73
102
0
VERTEX
8
OBJECT__76
10
0
20
0
30
0
70
128
71
112
72
110
73
103
0
VERTEX
8
OBJECT__76
10
0
20
0
30
0
70
128
71
106
72
113
73
18
0
VERTEX
8
OBJECT__76
10
0
20
0
30
0
70
128
71
104
72
114
73
102
0
VERTEX
8
OBJECT__76
10
0
20
0
30
0
70
128
71
80
72
115
73
78
0
VERTEX
8
OBJECT__76
10
0
20
0
30
0
70
128
71
65
72
57
73
60
0
VERTEX
8
OBJECT__76
10
0
20
0
30
0
70
128
71
63
72
116
73
61
0
VERTEX
8
OBJECT__76
10
0
20
0
30
0
70
128
71
59
72
117
73
60
0
VERTEX
8
OBJECT__76
10
0
20
0
30
0
70
128
71
49
72
76
73
47
0
VERTEX
8
OBJECT__76
10
0
20
0
30
0
70
128
71
42
72
118
73
43
0
VERTEX
8
OBJECT__76
10
0
20
0
30
0
70
128
71
36
72
46
73
37
0
VERTEX
8
OBJECT__76
10
0
20
0
30
0
70
128
71
25
72
119
73
22
0
VERTEX
8
OBJECT__76
10
0
20
0
30
0
70
128
71
1
72
120
73
2
0
SEQEND
8
OBJECT__76
0
ENDSEC
0
EOF
