999
Converted by 3D Exploration 
999
XDimension Software, LLC
999
http://www.xdsoft.com/explorer/
0
SECTION
2
HEADER
9
$ACADVER
1
AC1008
9
$UCSORG
10
0.0
20
0.0
30
0.0
9
$UCSXDIR
10
1.0
20
0.0
30
0.0
9
$TILEMODE
70
1
9
$UCSYDIR
10
0.0
20
1.0
30
0.0
9
$EXTMIN
10
0.000000
20
-78.000000
30
-78.000000
9
$EXTMAX
10
15.067000
20
78.000000
30
98.500000
0
ENDSEC
0
SECTION
2
TABLES
0
TABLE
2
LTYPE
70
1
0
LTYPE
2
CONTINUOUS
70
64
3
Solid line
72
65
73
0
40
0.0
0
ENDTAB
0
TABLE
2
LAYER
70
52
0
LAYER
2
OBJECT__0
70
0
62
253
6
CONTINUOUS
0
LAYER
2
OBJECT__1
70
0
62
253
6
CONTINUOUS
0
LAYER
2
OBJECT__3
70
0
62
253
6
CONTINUOUS
0
LAYER
2
OBJECT__4
70
0
62
253
6
CONTINUOUS
0
LAYER
2
OBJECT__5
70
0
62
253
6
CONTINUOUS
0
LAYER
2
OBJECT__6
70
0
62
253
6
CONTINUOUS
0
LAYER
2
OBJECT__7
70
0
62
253
6
CONTINUOUS
0
LAYER
2
OBJECT__8
70
0
62
253
6
CONTINUOUS
0
LAYER
2
OBJECT__9
70
0
62
253
6
CONTINUOUS
0
LAYER
2
OBJECT__10
70
0
62
253
6
CONTINUOUS
0
LAYER
2
OBJECT__11
70
0
62
253
6
CONTINUOUS
0
LAYER
2
OBJECT__12
70
0
62
253
6
CONTINUOUS
0
LAYER
2
OBJECT__13
70
0
62
253
6
CONTINUOUS
0
LAYER
2
OBJECT__14
70
0
62
253
6
CONTINUOUS
0
LAYER
2
OBJECT__15
70
0
62
253
6
CONTINUOUS
0
LAYER
2
OBJECT__16
70
0
62
253
6
CONTINUOUS
0
LAYER
2
OBJECT__17
70
0
62
253
6
CONTINUOUS
0
LAYER
2
OBJECT__18
70
0
62
253
6
CONTINUOUS
0
LAYER
2
OBJECT__19
70
0
62
253
6
CONTINUOUS
0
LAYER
2
OBJECT__20
70
0
62
253
6
CONTINUOUS
0
LAYER
2
OBJECT__21
70
0
62
253
6
CONTINUOUS
0
LAYER
2
OBJECT__22
70
0
62
253
6
CONTINUOUS
0
LAYER
2
OBJECT__23
70
0
62
253
6
CONTINUOUS
0
LAYER
2
OBJECT__25
70
0
62
253
6
CONTINUOUS
0
LAYER
2
OBJECT__26
70
0
62
253
6
CONTINUOUS
0
LAYER
2
OBJECT__27
70
0
62
253
6
CONTINUOUS
0
LAYER
2
OBJECT__28
70
0
62
253
6
CONTINUOUS
0
LAYER
2
OBJECT__29
70
0
62
253
6
CONTINUOUS
0
LAYER
2
OBJECT__31
70
0
62
253
6
CONTINUOUS
0
LAYER
2
OBJECT__32
70
0
62
253
6
CONTINUOUS
0
LAYER
2
OBJECT__33
70
0
62
253
6
CONTINUOUS
0
LAYER
2
OBJECT__34
70
0
62
253
6
CONTINUOUS
0
LAYER
2
OBJECT__35
70
0
62
253
6
CONTINUOUS
0
LAYER
2
OBJECT__36
70
0
62
253
6
CONTINUOUS
0
LAYER
2
OBJECT__37
70
0
62
253
6
CONTINUOUS
0
LAYER
2
OBJECT__38
70
0
62
253
6
CONTINUOUS
0
LAYER
2
OBJECT__40
70
0
62
253
6
CONTINUOUS
0
LAYER
2
OBJECT__41
70
0
62
253
6
CONTINUOUS
0
LAYER
2
OBJECT__43
70
0
62
253
6
CONTINUOUS
0
LAYER
2
OBJECT__44
70
0
62
253
6
CONTINUOUS
0
LAYER
2
OBJECT__45
70
0
62
253
6
CONTINUOUS
0
LAYER
2
OBJECT__46
70
0
62
253
6
CONTINUOUS
0
LAYER
2
OBJECT__47
70
0
62
253
6
CONTINUOUS
0
LAYER
2
OBJECT__48
70
0
62
253
6
CONTINUOUS
0
LAYER
2
OBJECT__49
70
0
62
253
6
CONTINUOUS
0
LAYER
2
OBJECT__50
70
0
62
253
6
CONTINUOUS
0
ENDTAB
0
TABLE
2
STYLE
70
1
0
STYLE
2
STANDARD
70
0
40
0.0
41
1.0
50
0.0
71
0
42
0.2
3
txt
4
1
0
ENDTAB
0
TABLE
2
UCS
70
0
0
ENDTAB
0
ENDSEC
0
SECTION
2
ENTITIES
0
POLYLINE
8
OBJECT__0
66
1
70
64
71
66
72
66
62
253
0
VERTEX
8
OBJECT__0
10
9.100000
20
13.210000
30
40.658001
70
192
0
VERTEX
8
OBJECT__0
10
9.100000
20
4.469000
30
42.515999
70
192
0
VERTEX
8
OBJECT__0
10
9.100000
20
6.664000
30
41.523998
70
192
0
VERTEX
8
OBJECT__0
10
9.100000
20
-4.469000
30
42.515999
70
192
0
VERTEX
8
OBJECT__0
10
9.100000
20
0.000000
30
42.055000
70
192
0
VERTEX
8
OBJECT__0
10
9.100000
20
13.210000
30
-40.658001
70
192
0
VERTEX
8
OBJECT__0
10
9.100000
20
21.375000
30
-37.022999
70
192
0
VERTEX
8
OBJECT__0
10
9.100000
20
19.322001
30
-37.354000
70
192
0
VERTEX
8
OBJECT__0
10
9.100000
20
28.605000
30
-31.768999
70
192
0
VERTEX
8
OBJECT__0
10
9.100000
20
24.996000
30
-33.820000
70
192
0
VERTEX
8
OBJECT__0
10
9.100000
20
13.159000
30
39.943001
70
192
0
VERTEX
8
OBJECT__0
10
9.100000
20
19.322001
30
37.354000
70
192
0
VERTEX
8
OBJECT__0
10
9.100000
20
-21.375000
30
-37.022999
70
192
0
VERTEX
8
OBJECT__0
10
9.100000
20
-19.322001
30
-37.354000
70
192
0
VERTEX
8
OBJECT__0
10
9.100000
20
-24.996000
30
-33.820000
70
192
0
VERTEX
8
OBJECT__0
10
9.100000
20
-39.806999
30
13.566000
70
192
0
VERTEX
8
OBJECT__0
10
9.100000
20
-39.941002
30
13.622000
70
192
0
VERTEX
8
OBJECT__0
10
9.100000
20
-41.816002
30
8.888000
70
192
0
VERTEX
8
OBJECT__0
10
9.100000
20
-42.750000
30
0.000000
70
192
0
VERTEX
8
OBJECT__0
10
9.100000
20
-42.055000
30
0.000000
70
192
0
VERTEX
8
OBJECT__0
10
9.100000
20
-41.488998
30
6.876000
70
192
0
VERTEX
8
OBJECT__0
10
9.100000
20
-39.806999
30
-13.566000
70
192
0
VERTEX
8
OBJECT__0
10
9.100000
20
-41.816002
30
-8.888000
70
192
0
VERTEX
8
OBJECT__0
10
9.100000
20
-34.584999
30
-25.128000
70
192
0
VERTEX
8
OBJECT__0
10
9.100000
20
-28.605000
30
-31.768999
70
192
0
VERTEX
8
OBJECT__0
10
9.100000
20
-30.039000
30
-29.431999
70
192
0
VERTEX
8
OBJECT__0
10
9.100000
20
13.159000
30
-39.943001
70
192
0
VERTEX
8
OBJECT__0
10
9.100000
20
6.664000
30
-41.523998
70
192
0
VERTEX
8
OBJECT__0
10
9.100000
20
30.039000
30
-29.431999
70
192
0
VERTEX
8
OBJECT__0
10
9.100000
20
-6.664000
30
41.523998
70
192
0
VERTEX
8
OBJECT__0
10
9.100000
20
-21.375000
30
37.022999
70
192
0
VERTEX
8
OBJECT__0
10
9.100000
20
-19.322001
30
37.354000
70
192
0
VERTEX
8
OBJECT__0
10
9.100000
20
-34.584999
30
25.128000
70
192
0
VERTEX
8
OBJECT__0
10
9.100000
20
-34.323002
30
24.301001
70
192
0
VERTEX
8
OBJECT__0
10
9.100000
20
-30.039000
30
29.431999
70
192
0
VERTEX
8
OBJECT__0
10
9.100000
20
-37.875000
30
18.611000
70
192
0
VERTEX
8
OBJECT__0
10
9.100000
20
-37.740002
30
18.555000
70
192
0
VERTEX
8
OBJECT__0
10
9.100000
20
-39.054001
30
-17.388000
70
192
0
VERTEX
8
OBJECT__0
10
9.100000
20
-37.875000
30
-18.611000
70
192
0
VERTEX
8
OBJECT__0
10
9.100000
20
-39.941002
30
-13.622000
70
192
0
VERTEX
8
OBJECT__0
10
9.100000
20
-34.323002
30
-24.301001
70
192
0
VERTEX
8
OBJECT__0
10
9.100000
20
-6.664000
30
-41.523998
70
192
0
VERTEX
8
OBJECT__0
10
9.100000
20
-4.469000
30
-42.515999
70
192
0
VERTEX
8
OBJECT__0
10
9.100000
20
4.469000
30
-42.515999
70
192
0
VERTEX
8
OBJECT__0
10
9.100000
20
39.054001
30
17.388000
70
192
0
VERTEX
8
OBJECT__0
10
9.100000
20
38.987999
30
16.149000
70
192
0
VERTEX
8
OBJECT__0
10
9.100000
20
39.941002
30
13.622000
70
192
0
VERTEX
8
OBJECT__0
10
9.100000
20
30.039000
30
29.431999
70
192
0
VERTEX
8
OBJECT__0
10
9.100000
20
28.605000
30
31.768999
70
192
0
VERTEX
8
OBJECT__0
10
9.100000
20
-28.605000
30
31.768999
70
192
0
VERTEX
8
OBJECT__0
10
9.100000
20
-39.054001
30
17.388000
70
192
0
VERTEX
8
OBJECT__0
10
9.100000
20
37.875000
30
-18.611000
70
192
0
VERTEX
8
OBJECT__0
10
9.100000
20
37.740002
30
-18.555000
70
192
0
VERTEX
8
OBJECT__0
10
9.100000
20
39.806999
30
-13.566000
70
192
0
VERTEX
8
OBJECT__0
10
9.100000
20
39.874001
30
-13.594000
70
192
0
VERTEX
8
OBJECT__0
10
9.100000
20
41.816002
30
-8.888000
70
192
0
VERTEX
8
OBJECT__0
10
9.100000
20
39.806999
30
13.566000
70
192
0
VERTEX
8
OBJECT__0
10
9.100000
20
42.055000
30
0.000000
70
192
0
VERTEX
8
OBJECT__0
10
9.100000
20
41.816002
30
8.888000
70
192
0
VERTEX
8
OBJECT__0
10
9.100000
20
37.875000
30
18.611000
70
192
0
VERTEX
8
OBJECT__0
10
9.100000
20
21.375000
30
37.022999
70
192
0
VERTEX
8
OBJECT__0
10
9.100000
20
39.054001
30
-17.388000
70
192
0
VERTEX
8
OBJECT__0
10
9.100000
20
39.941002
30
-13.622000
70
192
0
VERTEX
8
OBJECT__0
10
9.100000
20
42.750000
30
0.000000
70
192
0
VERTEX
8
OBJECT__0
10
9.100000
20
-37.740002
30
-18.555000
70
192
0
VERTEX
8
OBJECT__0
10
9.100000
20
37.740002
30
18.555000
70
192
0
VERTEX
8
OBJECT__0
10
0
20
0
30
0
70
128
71
1
72
2
73
3
0
VERTEX
8
OBJECT__0
10
0
20
0
30
0
70
128
71
2
72
4
73
5
0
VERTEX
8
OBJECT__0
10
0
20
0
30
0
70
128
71
6
72
7
73
8
0
VERTEX
8
OBJECT__0
10
0
20
0
30
0
70
128
71
7
72
9
73
10
0
VERTEX
8
OBJECT__0
10
0
20
0
30
0
70
128
71
1
72
11
73
12
0
VERTEX
8
OBJECT__0
10
0
20
0
30
0
70
128
71
5
72
3
73
2
0
VERTEX
8
OBJECT__0
10
0
20
0
30
0
70
128
71
13
72
14
73
15
0
VERTEX
8
OBJECT__0
10
0
20
0
30
0
70
128
71
10
72
8
73
7
0
VERTEX
8
OBJECT__0
10
0
20
0
30
0
70
128
71
3
72
11
73
1
0
VERTEX
8
OBJECT__0
10
0
20
0
30
0
70
128
71
16
72
17
73
18
0
VERTEX
8
OBJECT__0
10
0
20
0
30
0
70
128
71
19
72
20
73
21
0
VERTEX
8
OBJECT__0
10
0
20
0
30
0
70
128
71
22
72
20
73
23
0
VERTEX
8
OBJECT__0
10
0
20
0
30
0
70
128
71
24
72
25
73
26
0
VERTEX
8
OBJECT__0
10
0
20
0
30
0
70
128
71
15
72
25
73
13
0
VERTEX
8
OBJECT__0
10
0
20
0
30
0
70
128
71
6
72
27
73
28
0
VERTEX
8
OBJECT__0
10
0
20
0
30
0
70
128
71
9
72
29
73
10
0
VERTEX
8
OBJECT__0
10
0
20
0
30
0
70
128
71
4
72
30
73
5
0
VERTEX
8
OBJECT__0
10
0
20
0
30
0
70
128
71
31
72
32
73
30
0
VERTEX
8
OBJECT__0
10
0
20
0
30
0
70
128
71
33
72
34
73
35
0
VERTEX
8
OBJECT__0
10
0
20
0
30
0
70
128
71
36
72
37
73
34
0
VERTEX
8
OBJECT__0
10
0
20
0
30
0
70
128
71
21
72
18
73
19
0
VERTEX
8
OBJECT__0
10
0
20
0
30
0
70
128
71
20
72
19
73
23
0
VERTEX
8
OBJECT__0
10
0
20
0
30
0
70
128
71
38
72
39
73
40
0
VERTEX
8
OBJECT__0
10
0
20
0
30
0
70
128
71
39
72
24
73
41
0
VERTEX
8
OBJECT__0
10
0
20
0
30
0
70
128
71
15
72
26
73
25
0
VERTEX
8
OBJECT__0
10
0
20
0
30
0
70
128
71
42
72
43
73
44
0
VERTEX
8
OBJECT__0
10
0
20
0
30
0
70
128
71
8
72
27
73
6
0
VERTEX
8
OBJECT__0
10
0
20
0
30
0
70
128
71
45
72
46
73
47
0
VERTEX
8
OBJECT__0
10
0
20
0
30
0
70
128
71
12
72
48
73
49
0
VERTEX
8
OBJECT__0
10
0
20
0
30
0
70
128
71
30
72
4
73
31
0
VERTEX
8
OBJECT__0
10
0
20
0
30
0
70
128
71
32
72
31
73
50
0
VERTEX
8
OBJECT__0
10
0
20
0
30
0
70
128
71
34
72
33
73
36
0
VERTEX
8
OBJECT__0
10
0
20
0
30
0
70
128
71
51
72
18
73
17
0
VERTEX
8
OBJECT__0
10
0
20
0
30
0
70
128
71
23
72
40
73
22
0
VERTEX
8
OBJECT__0
10
0
20
0
30
0
70
128
71
38
72
24
73
39
0
VERTEX
8
OBJECT__0
10
0
20
0
30
0
70
128
71
26
72
41
73
24
0
VERTEX
8
OBJECT__0
10
0
20
0
30
0
70
128
71
13
72
43
73
42
0
VERTEX
8
OBJECT__0
10
0
20
0
30
0
70
128
71
28
72
44
73
6
0
VERTEX
8
OBJECT__0
10
0
20
0
30
0
70
128
71
52
72
53
73
29
0
VERTEX
8
OBJECT__0
10
0
20
0
30
0
70
128
71
54
72
55
73
56
0
VERTEX
8
OBJECT__0
10
0
20
0
30
0
70
128
71
57
72
58
73
59
0
VERTEX
8
OBJECT__0
10
0
20
0
30
0
70
128
71
45
72
60
73
46
0
VERTEX
8
OBJECT__0
10
0
20
0
30
0
70
128
71
12
72
61
73
1
0
VERTEX
8
OBJECT__0
10
0
20
0
30
0
70
128
71
35
72
50
73
33
0
VERTEX
8
OBJECT__0
10
0
20
0
30
0
70
128
71
17
72
36
73
51
0
VERTEX
8
OBJECT__0
10
0
20
0
30
0
70
128
71
40
72
23
73
38
0
VERTEX
8
OBJECT__0
10
0
20
0
30
0
70
128
71
42
72
14
73
13
0
VERTEX
8
OBJECT__0
10
0
20
0
30
0
70
128
71
29
72
9
73
52
0
VERTEX
8
OBJECT__0
10
0
20
0
30
0
70
128
71
62
72
56
73
63
0
VERTEX
8
OBJECT__0
10
0
20
0
30
0
70
128
71
56
72
58
73
54
0
VERTEX
8
OBJECT__0
10
0
20
0
30
0
70
128
71
58
72
64
73
59
0
VERTEX
8
OBJECT__0
10
0
20
0
30
0
70
128
71
45
72
49
73
60
0
VERTEX
8
OBJECT__0
10
0
20
0
30
0
70
128
71
60
72
49
73
48
0
VERTEX
8
OBJECT__0
10
0
20
0
30
0
70
128
71
50
72
35
73
32
0
VERTEX
8
OBJECT__0
10
0
20
0
30
0
70
128
71
18
72
21
73
16
0
VERTEX
8
OBJECT__0
10
0
20
0
30
0
70
128
71
44
72
28
73
42
0
VERTEX
8
OBJECT__0
10
0
20
0
30
0
70
128
71
63
72
52
73
62
0
VERTEX
8
OBJECT__0
10
0
20
0
30
0
70
128
71
56
72
64
73
58
0
VERTEX
8
OBJECT__0
10
0
20
0
30
0
70
128
71
47
72
59
73
45
0
VERTEX
8
OBJECT__0
10
0
20
0
30
0
70
128
71
49
72
61
73
12
0
VERTEX
8
OBJECT__0
10
0
20
0
30
0
70
128
71
41
72
65
73
39
0
VERTEX
8
OBJECT__0
10
0
20
0
30
0
70
128
71
55
72
63
73
56
0
VERTEX
8
OBJECT__0
10
0
20
0
30
0
70
128
71
48
72
66
73
60
0
VERTEX
8
OBJECT__0
10
0
20
0
30
0
70
128
71
52
72
9
73
62
0
VERTEX
8
OBJECT__0
10
0
20
0
30
0
70
128
71
36
72
33
73
51
0
VERTEX
8
OBJECT__0
10
0
20
0
30
0
70
128
71
59
72
47
73
57
0
SEQEND
8
OBJECT__0
0
POLYLINE
8
OBJECT__1
66
1
70
64
71
78
72
78
62
253
0
VERTEX
8
OBJECT__1
10
9.100000
20
41.816002
30
8.888000
70
192
0
VERTEX
8
OBJECT__1
10
9.100000
20
42.750000
30
0.000000
70
192
0
VERTEX
8
OBJECT__1
10
10.492000
20
42.770000
30
0.574000
70
192
0
VERTEX
8
OBJECT__1
10
10.492000
20
42.773998
30
0.000000
70
192
0
VERTEX
8
OBJECT__1
10
10.492000
20
41.830002
30
8.939000
70
192
0
VERTEX
8
OBJECT__1
10
10.492000
20
40.168999
30
14.699000
70
192
0
VERTEX
8
OBJECT__1
10
9.100000
20
39.054001
30
17.388000
70
192
0
VERTEX
8
OBJECT__1
10
10.492000
20
38.907001
30
17.316000
70
192
0
VERTEX
8
OBJECT__1
10
10.492000
20
36.513000
30
22.281000
70
192
0
VERTEX
8
OBJECT__1
10
10.492000
20
33.039001
30
27.167000
70
192
0
VERTEX
8
OBJECT__1
10
9.100000
20
28.605000
30
31.768999
70
192
0
VERTEX
8
OBJECT__1
10
9.100000
20
21.375000
30
37.022999
70
192
0
VERTEX
8
OBJECT__1
10
10.492000
20
27.079000
30
33.111000
70
192
0
VERTEX
8
OBJECT__1
10
10.492000
20
28.514000
30
31.680000
70
192
0
VERTEX
8
OBJECT__1
10
10.492000
20
22.184000
30
36.571999
70
192
0
VERTEX
8
OBJECT__1
10
10.492000
20
14.593000
30
40.208000
70
192
0
VERTEX
8
OBJECT__1
10
9.100000
20
13.210000
30
40.658001
70
192
0
VERTEX
8
OBJECT__1
10
10.492000
20
13.197000
30
40.606998
70
192
0
VERTEX
8
OBJECT__1
10
10.492000
20
8.828000
30
41.853001
70
192
0
VERTEX
8
OBJECT__1
10
9.100000
20
4.469000
30
42.515999
70
192
0
VERTEX
8
OBJECT__1
10
9.100000
20
-4.469000
30
42.515999
70
192
0
VERTEX
8
OBJECT__1
10
10.492000
20
0.461000
30
42.771999
70
192
0
VERTEX
8
OBJECT__1
10
10.492000
20
-4.468000
30
42.479000
70
192
0
VERTEX
8
OBJECT__1
10
9.100000
20
-21.375000
30
37.022999
70
192
0
VERTEX
8
OBJECT__1
10
10.492000
20
-13.723000
30
40.513000
70
192
0
VERTEX
8
OBJECT__1
10
10.492000
20
-19.252001
30
38.196999
70
192
0
VERTEX
8
OBJECT__1
10
10.492000
20
-5.523000
30
42.416000
70
192
0
VERTEX
8
OBJECT__1
10
10.492000
20
-21.296000
30
36.900002
70
192
0
VERTEX
8
OBJECT__1
10
10.492000
20
-26.358999
30
33.687000
70
192
0
VERTEX
8
OBJECT__1
10
9.100000
20
-34.584999
30
25.128000
70
192
0
VERTEX
8
OBJECT__1
10
9.100000
20
-28.605000
30
31.768999
70
192
0
VERTEX
8
OBJECT__1
10
10.492000
20
-30.809999
30
29.672001
70
192
0
VERTEX
8
OBJECT__1
10
10.492000
20
-34.469002
30
25.034000
70
192
0
VERTEX
8
OBJECT__1
10
9.100000
20
-39.054001
30
17.388000
70
192
0
VERTEX
8
OBJECT__1
10
10.492000
20
-36.023998
30
23.063000
70
192
0
VERTEX
8
OBJECT__1
10
10.492000
20
-38.894001
30
17.801001
70
192
0
VERTEX
8
OBJECT__1
10
10.492000
20
-41.626999
30
9.839000
70
192
0
VERTEX
8
OBJECT__1
10
9.100000
20
-41.816002
30
8.888000
70
192
0
VERTEX
8
OBJECT__1
10
10.492000
20
-41.783001
30
8.884000
70
192
0
VERTEX
8
OBJECT__1
10
10.492000
20
-42.594002
30
3.923000
70
192
0
VERTEX
8
OBJECT__1
10
9.100000
20
-42.750000
30
0.000000
70
192
0
VERTEX
8
OBJECT__1
10
10.492000
20
-42.536999
30
-4.495000
70
192
0
VERTEX
8
OBJECT__1
10
9.100000
20
-41.816002
30
-8.888000
70
192
0
VERTEX
8
OBJECT__1
10
10.492000
20
-41.608002
30
-8.844000
70
192
0
VERTEX
8
OBJECT__1
10
10.492000
20
-40.659000
30
-13.285000
70
192
0
VERTEX
8
OBJECT__1
10
9.100000
20
-39.054001
30
-17.388000
70
192
0
VERTEX
8
OBJECT__1
10
9.100000
20
-34.584999
30
-25.128000
70
192
0
VERTEX
8
OBJECT__1
10
10.492000
20
-38.402000
30
-18.839001
70
192
0
VERTEX
8
OBJECT__1
10
10.492000
20
-34.527000
30
-25.094000
70
192
0
VERTEX
8
OBJECT__1
10
10.492000
20
-33.969002
30
-25.995001
70
192
0
VERTEX
8
OBJECT__1
10
10.492000
20
-30.002001
30
-30.488001
70
192
0
VERTEX
8
OBJECT__1
10
9.100000
20
-28.605000
30
-31.768999
70
192
0
VERTEX
8
OBJECT__1
10
10.492000
20
-23.450001
30
-35.772999
70
192
0
VERTEX
8
OBJECT__1
10
9.100000
20
-21.375000
30
-37.022999
70
192
0
VERTEX
8
OBJECT__1
10
10.492000
20
-21.337999
30
-36.955002
70
192
0
VERTEX
8
OBJECT__1
10
10.492000
20
-18.219000
30
-38.700001
70
192
0
VERTEX
8
OBJECT__1
10
10.492000
20
-10.287000
30
-41.519001
70
192
0
VERTEX
8
OBJECT__1
10
9.100000
20
-4.469000
30
-42.515999
70
192
0
VERTEX
8
OBJECT__1
10
10.492000
20
-4.382000
30
-42.549000
70
192
0
VERTEX
8
OBJECT__1
10
10.492000
20
4.036000
30
-42.583000
70
192
0
VERTEX
8
OBJECT__1
10
10.492000
20
-4.470000
30
-42.534000
70
192
0
VERTEX
8
OBJECT__1
10
9.100000
20
4.469000
30
-42.515999
70
192
0
VERTEX
8
OBJECT__1
10
10.492000
20
9.949000
30
-41.601002
70
192
0
VERTEX
8
OBJECT__1
10
9.100000
20
13.210000
30
-40.658001
70
192
0
VERTEX
8
OBJECT__1
10
10.492000
20
13.153000
30
-40.492001
70
192
0
VERTEX
8
OBJECT__1
10
10.492000
20
17.903999
30
-38.847000
70
192
0
VERTEX
8
OBJECT__1
10
9.100000
20
21.375000
30
-37.022999
70
192
0
VERTEX
8
OBJECT__1
10
9.100000
20
28.605000
30
-31.768999
70
192
0
VERTEX
8
OBJECT__1
10
10.492000
20
23.159000
30
-35.963001
70
192
0
VERTEX
8
OBJECT__1
10
10.492000
20
28.544001
30
-31.690001
70
192
0
VERTEX
8
OBJECT__1
10
9.100000
20
39.054001
30
-17.388000
70
192
0
VERTEX
8
OBJECT__1
10
10.492000
20
33.757000
30
-26.270000
70
192
0
VERTEX
8
OBJECT__1
10
10.492000
20
38.248001
30
-19.150000
70
192
0
VERTEX
8
OBJECT__1
10
10.492000
20
29.753000
30
-30.731001
70
192
0
VERTEX
8
OBJECT__1
10
9.100000
20
41.816002
30
-8.888000
70
192
0
VERTEX
8
OBJECT__1
10
10.492000
20
40.549999
30
-13.615000
70
192
0
VERTEX
8
OBJECT__1
10
10.492000
20
38.991001
30
-17.363001
70
192
0
VERTEX
8
OBJECT__1
10
10.492000
20
42.431000
30
-5.410000
70
192
0
VERTEX
8
OBJECT__1
10
0
20
0
30
0
70
128
71
1
72
2
73
3
0
VERTEX
8
OBJECT__1
10
0
20
0
30
0
70
128
71
2
72
4
73
3
0
VERTEX
8
OBJECT__1
10
0
20
0
30
0
70
128
71
1
72
5
73
6
0
VERTEX
8
OBJECT__1
10
0
20
0
30
0
70
128
71
6
72
7
73
1
0
VERTEX
8
OBJECT__1
10
0
20
0
30
0
70
128
71
6
72
8
73
7
0
VERTEX
8
OBJECT__1
10
0
20
0
30
0
70
128
71
7
72
9
73
10
0
VERTEX
8
OBJECT__1
10
0
20
0
30
0
70
128
71
7
72
8
73
9
0
VERTEX
8
OBJECT__1
10
0
20
0
30
0
70
128
71
10
72
11
73
7
0
VERTEX
8
OBJECT__1
10
0
20
0
30
0
70
128
71
12
72
11
73
13
0
VERTEX
8
OBJECT__1
10
0
20
0
30
0
70
128
71
11
72
14
73
13
0
VERTEX
8
OBJECT__1
10
0
20
0
30
0
70
128
71
12
72
15
73
16
0
VERTEX
8
OBJECT__1
10
0
20
0
30
0
70
128
71
16
72
17
73
12
0
VERTEX
8
OBJECT__1
10
0
20
0
30
0
70
128
71
16
72
18
73
17
0
VERTEX
8
OBJECT__1
10
0
20
0
30
0
70
128
71
17
72
18
73
19
0
VERTEX
8
OBJECT__1
10
0
20
0
30
0
70
128
71
19
72
20
73
17
0
VERTEX
8
OBJECT__1
10
0
20
0
30
0
70
128
71
21
72
20
73
22
0
VERTEX
8
OBJECT__1
10
0
20
0
30
0
70
128
71
22
72
23
73
21
0
VERTEX
8
OBJECT__1
10
0
20
0
30
0
70
128
71
24
72
25
73
26
0
VERTEX
8
OBJECT__1
10
0
20
0
30
0
70
128
71
21
72
27
73
25
0
VERTEX
8
OBJECT__1
10
0
20
0
30
0
70
128
71
21
72
23
73
27
0
VERTEX
8
OBJECT__1
10
0
20
0
30
0
70
128
71
25
72
24
73
21
0
VERTEX
8
OBJECT__1
10
0
20
0
30
0
70
128
71
24
72
28
73
29
0
VERTEX
8
OBJECT__1
10
0
20
0
30
0
70
128
71
30
72
31
73
32
0
VERTEX
8
OBJECT__1
10
0
20
0
30
0
70
128
71
31
72
29
73
32
0
VERTEX
8
OBJECT__1
10
0
20
0
30
0
70
128
71
32
72
33
73
30
0
VERTEX
8
OBJECT__1
10
0
20
0
30
0
70
128
71
34
72
30
73
35
0
VERTEX
8
OBJECT__1
10
0
20
0
30
0
70
128
71
30
72
33
73
35
0
VERTEX
8
OBJECT__1
10
0
20
0
30
0
70
128
71
34
72
36
73
37
0
VERTEX
8
OBJECT__1
10
0
20
0
30
0
70
128
71
37
72
38
73
34
0
VERTEX
8
OBJECT__1
10
0
20
0
30
0
70
128
71
37
72
39
73
38
0
VERTEX
8
OBJECT__1
10
0
20
0
30
0
70
128
71
38
72
39
73
40
0
VERTEX
8
OBJECT__1
10
0
20
0
30
0
70
128
71
41
72
40
73
42
0
VERTEX
8
OBJECT__1
10
0
20
0
30
0
70
128
71
42
72
43
73
41
0
VERTEX
8
OBJECT__1
10
0
20
0
30
0
70
128
71
42
72
44
73
43
0
VERTEX
8
OBJECT__1
10
0
20
0
30
0
70
128
71
43
72
44
73
45
0
VERTEX
8
OBJECT__1
10
0
20
0
30
0
70
128
71
45
72
46
73
43
0
VERTEX
8
OBJECT__1
10
0
20
0
30
0
70
128
71
47
72
46
73
48
0
VERTEX
8
OBJECT__1
10
0
20
0
30
0
70
128
71
48
72
49
73
47
0
VERTEX
8
OBJECT__1
10
0
20
0
30
0
70
128
71
47
72
50
73
51
0
VERTEX
8
OBJECT__1
10
0
20
0
30
0
70
128
71
47
72
49
73
50
0
VERTEX
8
OBJECT__1
10
0
20
0
30
0
70
128
71
52
72
51
73
53
0
VERTEX
8
OBJECT__1
10
0
20
0
30
0
70
128
71
53
72
54
73
52
0
VERTEX
8
OBJECT__1
10
0
20
0
30
0
70
128
71
53
72
55
73
54
0
VERTEX
8
OBJECT__1
10
0
20
0
30
0
70
128
71
54
72
56
73
57
0
VERTEX
8
OBJECT__1
10
0
20
0
30
0
70
128
71
54
72
55
73
56
0
VERTEX
8
OBJECT__1
10
0
20
0
30
0
70
128
71
57
72
58
73
54
0
VERTEX
8
OBJECT__1
10
0
20
0
30
0
70
128
71
58
72
59
73
60
0
VERTEX
8
OBJECT__1
10
0
20
0
30
0
70
128
71
58
72
61
73
59
0
VERTEX
8
OBJECT__1
10
0
20
0
30
0
70
128
71
62
72
60
73
63
0
VERTEX
8
OBJECT__1
10
0
20
0
30
0
70
128
71
63
72
64
73
62
0
VERTEX
8
OBJECT__1
10
0
20
0
30
0
70
128
71
63
72
65
73
64
0
VERTEX
8
OBJECT__1
10
0
20
0
30
0
70
128
71
64
72
65
73
66
0
VERTEX
8
OBJECT__1
10
0
20
0
30
0
70
128
71
66
72
67
73
64
0
VERTEX
8
OBJECT__1
10
0
20
0
30
0
70
128
71
68
72
67
73
69
0
VERTEX
8
OBJECT__1
10
0
20
0
30
0
70
128
71
69
72
70
73
68
0
VERTEX
8
OBJECT__1
10
0
20
0
30
0
70
128
71
71
72
68
73
72
0
VERTEX
8
OBJECT__1
10
0
20
0
30
0
70
128
71
72
72
73
73
71
0
VERTEX
8
OBJECT__1
10
0
20
0
30
0
70
128
71
68
72
70
73
74
0
VERTEX
8
OBJECT__1
10
0
20
0
30
0
70
128
71
74
72
72
73
68
0
VERTEX
8
OBJECT__1
10
0
20
0
30
0
70
128
71
75
72
71
73
76
0
VERTEX
8
OBJECT__1
10
0
20
0
30
0
70
128
71
71
72
77
73
76
0
VERTEX
8
OBJECT__1
10
0
20
0
30
0
70
128
71
2
72
75
73
78
0
VERTEX
8
OBJECT__1
10
0
20
0
30
0
70
128
71
78
72
4
73
2
0
VERTEX
8
OBJECT__1
10
0
20
0
30
0
70
128
71
76
72
78
73
75
0
VERTEX
8
OBJECT__1
10
0
20
0
30
0
70
128
71
73
72
77
73
71
0
VERTEX
8
OBJECT__1
10
0
20
0
30
0
70
128
71
66
72
69
73
67
0
VERTEX
8
OBJECT__1
10
0
20
0
30
0
70
128
71
60
72
62
73
58
0
VERTEX
8
OBJECT__1
10
0
20
0
30
0
70
128
71
57
72
61
73
58
0
VERTEX
8
OBJECT__1
10
0
20
0
30
0
70
128
71
51
72
52
73
47
0
VERTEX
8
OBJECT__1
10
0
20
0
30
0
70
128
71
45
72
48
73
46
0
VERTEX
8
OBJECT__1
10
0
20
0
30
0
70
128
71
40
72
41
73
38
0
VERTEX
8
OBJECT__1
10
0
20
0
30
0
70
128
71
35
72
36
73
34
0
VERTEX
8
OBJECT__1
10
0
20
0
30
0
70
128
71
29
72
31
73
24
0
VERTEX
8
OBJECT__1
10
0
20
0
30
0
70
128
71
26
72
28
73
24
0
VERTEX
8
OBJECT__1
10
0
20
0
30
0
70
128
71
19
72
22
73
20
0
VERTEX
8
OBJECT__1
10
0
20
0
30
0
70
128
71
13
72
15
73
12
0
VERTEX
8
OBJECT__1
10
0
20
0
30
0
70
128
71
10
72
14
73
11
0
VERTEX
8
OBJECT__1
10
0
20
0
30
0
70
128
71
3
72
5
73
1
0
SEQEND
8
OBJECT__1
0
POLYLINE
8
OBJECT__3
66
1
70
64
71
94
72
94
62
253
0
VERTEX
8
OBJECT__3
10
10.590000
20
41.928001
30
8.960000
70
192
0
VERTEX
8
OBJECT__3
10
10.492000
20
41.830002
30
8.939000
70
192
0
VERTEX
8
OBJECT__3
10
10.492000
20
42.770000
30
0.574000
70
192
0
VERTEX
8
OBJECT__3
10
10.590000
20
42.874001
30
-0.011000
70
192
0
VERTEX
8
OBJECT__3
10
10.492000
20
42.773998
30
0.000000
70
192
0
VERTEX
8
OBJECT__3
10
10.492000
20
42.431000
30
-5.410000
70
192
0
VERTEX
8
OBJECT__3
10
10.590000
20
42.530998
30
-5.423000
70
192
0
VERTEX
8
OBJECT__3
10
10.590000
20
42.870998
30
0.576000
70
192
0
VERTEX
8
OBJECT__3
10
10.590000
20
42.875000
30
0.000000
70
192
0
VERTEX
8
OBJECT__3
10
10.492000
20
40.549999
30
-13.615000
70
192
0
VERTEX
8
OBJECT__3
10
10.590000
20
40.645000
30
-13.647000
70
192
0
VERTEX
8
OBJECT__3
10
10.492000
20
38.991001
30
-17.363001
70
192
0
VERTEX
8
OBJECT__3
10
10.590000
20
38.338001
30
-19.195000
70
192
0
VERTEX
8
OBJECT__3
10
10.492000
20
38.248001
30
-19.150000
70
192
0
VERTEX
8
OBJECT__3
10
10.492000
20
33.757000
30
-26.270000
70
192
0
VERTEX
8
OBJECT__3
10
10.590000
20
33.837002
30
-26.332001
70
192
0
VERTEX
8
OBJECT__3
10
10.492000
20
29.753000
30
-30.731001
70
192
0
VERTEX
8
OBJECT__3
10
10.590000
20
23.212999
30
-36.048000
70
192
0
VERTEX
8
OBJECT__3
10
10.590000
20
29.823000
30
-30.802999
70
192
0
VERTEX
8
OBJECT__3
10
10.492000
20
28.544001
30
-31.690001
70
192
0
VERTEX
8
OBJECT__3
10
10.492000
20
23.159000
30
-35.963001
70
192
0
VERTEX
8
OBJECT__3
10
10.492000
20
17.903999
30
-38.847000
70
192
0
VERTEX
8
OBJECT__3
10
10.590000
20
17.945999
30
-38.938999
70
192
0
VERTEX
8
OBJECT__3
10
10.492000
20
13.153000
30
-40.492001
70
192
0
VERTEX
8
OBJECT__3
10
10.590000
20
9.973000
30
-41.699001
70
192
0
VERTEX
8
OBJECT__3
10
10.492000
20
9.949000
30
-41.601002
70
192
0
VERTEX
8
OBJECT__3
10
10.492000
20
4.036000
30
-42.583000
70
192
0
VERTEX
8
OBJECT__3
10
10.492000
20
-4.382000
30
-42.549000
70
192
0
VERTEX
8
OBJECT__3
10
10.590000
20
-4.392000
30
-42.650002
70
192
0
VERTEX
8
OBJECT__3
10
10.590000
20
0.000000
30
-42.667000
70
192
0
VERTEX
8
OBJECT__3
10
10.590000
20
-10.311000
30
-41.617001
70
192
0
VERTEX
8
OBJECT__3
10
10.492000
20
-4.470000
30
-42.534000
70
192
0
VERTEX
8
OBJECT__3
10
10.590000
20
-18.261999
30
-38.792000
70
192
0
VERTEX
8
OBJECT__3
10
10.492000
20
-10.287000
30
-41.519001
70
192
0
VERTEX
8
OBJECT__3
10
10.492000
20
-18.219000
30
-38.700001
70
192
0
VERTEX
8
OBJECT__3
10
10.492000
20
-21.337999
30
-36.955002
70
192
0
VERTEX
8
OBJECT__3
10
10.590000
20
-23.504999
30
-35.858002
70
192
0
VERTEX
8
OBJECT__3
10
10.590000
20
-30.073000
30
-30.559999
70
192
0
VERTEX
8
OBJECT__3
10
10.492000
20
-23.450001
30
-35.772999
70
192
0
VERTEX
8
OBJECT__3
10
10.590000
20
-34.049000
30
-26.056000
70
192
0
VERTEX
8
OBJECT__3
10
10.492000
20
-30.002001
30
-30.488001
70
192
0
VERTEX
8
OBJECT__3
10
10.590000
20
-38.493000
30
-18.882999
70
192
0
VERTEX
8
OBJECT__3
10
10.492000
20
-34.527000
30
-25.094000
70
192
0
VERTEX
8
OBJECT__3
10
10.492000
20
-33.969002
30
-25.995001
70
192
0
VERTEX
8
OBJECT__3
10
10.590000
20
-40.755001
30
-13.317000
70
192
0
VERTEX
8
OBJECT__3
10
10.492000
20
-38.402000
30
-18.839001
70
192
0
VERTEX
8
OBJECT__3
10
10.492000
20
-40.659000
30
-13.285000
70
192
0
VERTEX
8
OBJECT__3
10
10.492000
20
-41.608002
30
-8.844000
70
192
0
VERTEX
8
OBJECT__3
10
10.590000
20
-42.638000
30
-4.505000
70
192
0
VERTEX
8
OBJECT__3
10
10.492000
20
-42.536999
30
-4.495000
70
192
0
VERTEX
8
OBJECT__3
10
10.492000
20
-42.594002
30
3.923000
70
192
0
VERTEX
8
OBJECT__3
10
10.590000
20
-42.667999
30
-0.011000
70
192
0
VERTEX
8
OBJECT__3
10
10.590000
20
-42.694000
30
3.932000
70
192
0
VERTEX
8
OBJECT__3
10
10.492000
20
-41.783001
30
8.884000
70
192
0
VERTEX
8
OBJECT__3
10
10.590000
20
-41.724998
30
9.862000
70
192
0
VERTEX
8
OBJECT__3
10
10.590000
20
-38.986000
30
17.843000
70
192
0
VERTEX
8
OBJECT__3
10
10.492000
20
-41.626999
30
9.839000
70
192
0
VERTEX
8
OBJECT__3
10
10.590000
20
-36.109001
30
23.118000
70
192
0
VERTEX
8
OBJECT__3
10
10.492000
20
-38.894001
30
17.801001
70
192
0
VERTEX
8
OBJECT__3
10
10.590000
20
-30.882000
30
29.740999
70
192
0
VERTEX
8
OBJECT__3
10
10.492000
20
-34.469002
30
25.034000
70
192
0
VERTEX
8
OBJECT__3
10
10.492000
20
-36.023998
30
23.063000
70
192
0
VERTEX
8
OBJECT__3
10
10.590000
20
-26.421000
30
33.766998
70
192
0
VERTEX
8
OBJECT__3
10
10.492000
20
-30.809999
30
29.672001
70
192
0
VERTEX
8
OBJECT__3
10
10.492000
20
-26.358999
30
33.687000
70
192
0
VERTEX
8
OBJECT__3
10
10.492000
20
-21.296000
30
36.900002
70
192
0
VERTEX
8
OBJECT__3
10
10.590000
20
-19.297001
30
38.286999
70
192
0
VERTEX
8
OBJECT__3
10
10.590000
20
-13.755000
30
40.609001
70
192
0
VERTEX
8
OBJECT__3
10
10.492000
20
-19.252001
30
38.196999
70
192
0
VERTEX
8
OBJECT__3
10
10.590000
20
-5.536000
30
42.515999
70
192
0
VERTEX
8
OBJECT__3
10
10.492000
20
-13.723000
30
40.513000
70
192
0
VERTEX
8
OBJECT__3
10
10.590000
20
0.000000
30
42.845001
70
192
0
VERTEX
8
OBJECT__3
10
10.492000
20
-4.468000
30
42.479000
70
192
0
VERTEX
8
OBJECT__3
10
10.492000
20
0.461000
30
42.771999
70
192
0
VERTEX
8
OBJECT__3
10
10.590000
20
0.462000
30
42.873001
70
192
0
VERTEX
8
OBJECT__3
10
10.492000
20
-5.523000
30
42.416000
70
192
0
VERTEX
8
OBJECT__3
10
10.492000
20
8.828000
30
41.853001
70
192
0
VERTEX
8
OBJECT__3
10
10.590000
20
8.849000
30
41.952000
70
192
0
VERTEX
8
OBJECT__3
10
10.492000
20
13.197000
30
40.606998
70
192
0
VERTEX
8
OBJECT__3
10
10.590000
20
14.627000
30
40.303001
70
192
0
VERTEX
8
OBJECT__3
10
10.492000
20
14.593000
30
40.208000
70
192
0
VERTEX
8
OBJECT__3
10
10.492000
20
22.184000
30
36.571999
70
192
0
VERTEX
8
OBJECT__3
10
10.590000
20
22.237000
30
36.658001
70
192
0
VERTEX
8
OBJECT__3
10
10.492000
20
27.079000
30
33.111000
70
192
0
VERTEX
8
OBJECT__3
10
10.590000
20
33.117001
30
27.231001
70
192
0
VERTEX
8
OBJECT__3
10
10.590000
20
27.143000
30
33.188999
70
192
0
VERTEX
8
OBJECT__3
10
10.492000
20
28.514000
30
31.680000
70
192
0
VERTEX
8
OBJECT__3
10
10.492000
20
33.039001
30
27.167000
70
192
0
VERTEX
8
OBJECT__3
10
10.492000
20
36.513000
30
22.281000
70
192
0
VERTEX
8
OBJECT__3
10
10.590000
20
36.598999
30
22.334000
70
192
0
VERTEX
8
OBJECT__3
10
10.492000
20
38.907001
30
17.316000
70
192
0
VERTEX
8
OBJECT__3
10
10.590000
20
40.264000
30
14.734000
70
192
0
VERTEX
8
OBJECT__3
10
10.492000
20
40.168999
30
14.699000
70
192
0
VERTEX
8
OBJECT__3
10
10.590000
20
4.045000
30
-42.683998
70
192
0
VERTEX
8
OBJECT__3
10
0
20
0
30
0
70
128
71
1
72
2
73
3
0
VERTEX
8
OBJECT__3
10
0
20
0
30
0
70
128
71
4
72
5
73
6
0
VERTEX
8
OBJECT__3
10
0
20
0
30
0
70
128
71
6
72
7
73
4
0
VERTEX
8
OBJECT__3
10
0
20
0
30
0
70
128
71
8
72
3
73
5
0
VERTEX
8
OBJECT__3
10
0
20
0
30
0
70
128
71
5
72
9
73
8
0
VERTEX
8
OBJECT__3
10
0
20
0
30
0
70
128
71
7
72
6
73
10
0
VERTEX
8
OBJECT__3
10
0
20
0
30
0
70
128
71
11
72
10
73
12
0
VERTEX
8
OBJECT__3
10
0
20
0
30
0
70
128
71
12
72
13
73
11
0
VERTEX
8
OBJECT__3
10
0
20
0
30
0
70
128
71
13
72
14
73
15
0
VERTEX
8
OBJECT__3
10
0
20
0
30
0
70
128
71
16
72
15
73
17
0
VERTEX
8
OBJECT__3
10
0
20
0
30
0
70
128
71
18
72
19
73
20
0
VERTEX
8
OBJECT__3
10
0
20
0
30
0
70
128
71
19
72
17
73
20
0
VERTEX
8
OBJECT__3
10
0
20
0
30
0
70
128
71
18
72
21
73
22
0
VERTEX
8
OBJECT__3
10
0
20
0
30
0
70
128
71
23
72
22
73
24
0
VERTEX
8
OBJECT__3
10
0
20
0
30
0
70
128
71
24
72
25
73
23
0
VERTEX
8
OBJECT__3
10
0
20
0
30
0
70
128
71
25
72
26
73
27
0
VERTEX
8
OBJECT__3
10
0
20
0
30
0
70
128
71
28
72
29
73
30
0
VERTEX
8
OBJECT__3
10
0
20
0
30
0
70
128
71
30
72
27
73
28
0
VERTEX
8
OBJECT__3
10
0
20
0
30
0
70
128
71
31
72
29
73
32
0
VERTEX
8
OBJECT__3
10
0
20
0
30
0
70
128
71
29
72
28
73
32
0
VERTEX
8
OBJECT__3
10
0
20
0
30
0
70
128
71
33
72
31
73
34
0
VERTEX
8
OBJECT__3
10
0
20
0
30
0
70
128
71
33
72
35
73
36
0
VERTEX
8
OBJECT__3
10
0
20
0
30
0
70
128
71
36
72
37
73
33
0
VERTEX
8
OBJECT__3
10
0
20
0
30
0
70
128
71
38
72
37
73
39
0
VERTEX
8
OBJECT__3
10
0
20
0
30
0
70
128
71
40
72
38
73
41
0
VERTEX
8
OBJECT__3
10
0
20
0
30
0
70
128
71
42
72
40
73
43
0
VERTEX
8
OBJECT__3
10
0
20
0
30
0
70
128
71
40
72
44
73
43
0
VERTEX
8
OBJECT__3
10
0
20
0
30
0
70
128
71
45
72
42
73
46
0
VERTEX
8
OBJECT__3
10
0
20
0
30
0
70
128
71
45
72
47
73
48
0
VERTEX
8
OBJECT__3
10
0
20
0
30
0
70
128
71
48
72
49
73
45
0
VERTEX
8
OBJECT__3
10
0
20
0
30
0
70
128
71
50
72
51
73
52
0
VERTEX
8
OBJECT__3
10
0
20
0
30
0
70
128
71
51
72
53
73
52
0
VERTEX
8
OBJECT__3
10
0
20
0
30
0
70
128
71
53
72
51
73
54
0
VERTEX
8
OBJECT__3
10
0
20
0
30
0
70
128
71
54
72
55
73
53
0
VERTEX
8
OBJECT__3
10
0
20
0
30
0
70
128
71
56
72
55
73
57
0
VERTEX
8
OBJECT__3
10
0
20
0
30
0
70
128
71
58
72
56
73
59
0
VERTEX
8
OBJECT__3
10
0
20
0
30
0
70
128
71
60
72
58
73
61
0
VERTEX
8
OBJECT__3
10
0
20
0
30
0
70
128
71
58
72
62
73
61
0
VERTEX
8
OBJECT__3
10
0
20
0
30
0
70
128
71
63
72
60
73
64
0
VERTEX
8
OBJECT__3
10
0
20
0
30
0
70
128
71
63
72
65
73
66
0
VERTEX
8
OBJECT__3
10
0
20
0
30
0
70
128
71
66
72
67
73
63
0
VERTEX
8
OBJECT__3
10
0
20
0
30
0
70
128
71
68
72
67
73
69
0
VERTEX
8
OBJECT__3
10
0
20
0
30
0
70
128
71
70
72
68
73
71
0
VERTEX
8
OBJECT__3
10
0
20
0
30
0
70
128
71
72
72
70
73
73
0
VERTEX
8
OBJECT__3
10
0
20
0
30
0
70
128
71
74
72
75
73
72
0
VERTEX
8
OBJECT__3
10
0
20
0
30
0
70
128
71
70
72
76
73
73
0
VERTEX
8
OBJECT__3
10
0
20
0
30
0
70
128
71
75
72
74
73
77
0
VERTEX
8
OBJECT__3
10
0
20
0
30
0
70
128
71
78
72
77
73
79
0
VERTEX
8
OBJECT__3
10
0
20
0
30
0
70
128
71
79
72
80
73
78
0
VERTEX
8
OBJECT__3
10
0
20
0
30
0
70
128
71
80
72
81
73
82
0
VERTEX
8
OBJECT__3
10
0
20
0
30
0
70
128
71
83
72
82
73
84
0
VERTEX
8
OBJECT__3
10
0
20
0
30
0
70
128
71
85
72
86
73
87
0
VERTEX
8
OBJECT__3
10
0
20
0
30
0
70
128
71
86
72
84
73
87
0
VERTEX
8
OBJECT__3
10
0
20
0
30
0
70
128
71
85
72
88
73
89
0
VERTEX
8
OBJECT__3
10
0
20
0
30
0
70
128
71
90
72
89
73
91
0
VERTEX
8
OBJECT__3
10
0
20
0
30
0
70
128
71
91
72
92
73
90
0
VERTEX
8
OBJECT__3
10
0
20
0
30
0
70
128
71
92
72
93
73
2
0
VERTEX
8
OBJECT__3
10
0
20
0
30
0
70
128
71
2
72
1
73
92
0
VERTEX
8
OBJECT__3
10
0
20
0
30
0
70
128
71
91
72
93
73
92
0
VERTEX
8
OBJECT__3
10
0
20
0
30
0
70
128
71
89
72
90
73
85
0
VERTEX
8
OBJECT__3
10
0
20
0
30
0
70
128
71
87
72
88
73
85
0
VERTEX
8
OBJECT__3
10
0
20
0
30
0
70
128
71
84
72
86
73
83
0
VERTEX
8
OBJECT__3
10
0
20
0
30
0
70
128
71
82
72
83
73
80
0
VERTEX
8
OBJECT__3
10
0
20
0
30
0
70
128
71
79
72
81
73
80
0
VERTEX
8
OBJECT__3
10
0
20
0
30
0
70
128
71
77
72
78
73
75
0
VERTEX
8
OBJECT__3
10
0
20
0
30
0
70
128
71
73
72
74
73
72
0
VERTEX
8
OBJECT__3
10
0
20
0
30
0
70
128
71
71
72
76
73
70
0
VERTEX
8
OBJECT__3
10
0
20
0
30
0
70
128
71
69
72
71
73
68
0
VERTEX
8
OBJECT__3
10
0
20
0
30
0
70
128
71
66
72
69
73
67
0
VERTEX
8
OBJECT__3
10
0
20
0
30
0
70
128
71
64
72
65
73
63
0
VERTEX
8
OBJECT__3
10
0
20
0
30
0
70
128
71
61
72
64
73
60
0
VERTEX
8
OBJECT__3
10
0
20
0
30
0
70
128
71
59
72
62
73
58
0
VERTEX
8
OBJECT__3
10
0
20
0
30
0
70
128
71
57
72
59
73
56
0
VERTEX
8
OBJECT__3
10
0
20
0
30
0
70
128
71
54
72
57
73
55
0
VERTEX
8
OBJECT__3
10
0
20
0
30
0
70
128
71
52
72
49
73
50
0
VERTEX
8
OBJECT__3
10
0
20
0
30
0
70
128
71
48
72
50
73
49
0
VERTEX
8
OBJECT__3
10
0
20
0
30
0
70
128
71
46
72
47
73
45
0
VERTEX
8
OBJECT__3
10
0
20
0
30
0
70
128
71
43
72
46
73
42
0
VERTEX
8
OBJECT__3
10
0
20
0
30
0
70
128
71
41
72
44
73
40
0
VERTEX
8
OBJECT__3
10
0
20
0
30
0
70
128
71
39
72
41
73
38
0
VERTEX
8
OBJECT__3
10
0
20
0
30
0
70
128
71
36
72
39
73
37
0
VERTEX
8
OBJECT__3
10
0
20
0
30
0
70
128
71
34
72
35
73
33
0
VERTEX
8
OBJECT__3
10
0
20
0
30
0
70
128
71
32
72
34
73
31
0
VERTEX
8
OBJECT__3
10
0
20
0
30
0
70
128
71
30
72
94
73
27
0
VERTEX
8
OBJECT__3
10
0
20
0
30
0
70
128
71
27
72
94
73
25
0
VERTEX
8
OBJECT__3
10
0
20
0
30
0
70
128
71
24
72
26
73
25
0
VERTEX
8
OBJECT__3
10
0
20
0
30
0
70
128
71
22
72
23
73
18
0
VERTEX
8
OBJECT__3
10
0
20
0
30
0
70
128
71
20
72
21
73
18
0
VERTEX
8
OBJECT__3
10
0
20
0
30
0
70
128
71
17
72
19
73
16
0
VERTEX
8
OBJECT__3
10
0
20
0
30
0
70
128
71
15
72
16
73
13
0
VERTEX
8
OBJECT__3
10
0
20
0
30
0
70
128
71
12
72
14
73
13
0
VERTEX
8
OBJECT__3
10
0
20
0
30
0
70
128
71
10
72
11
73
7
0
VERTEX
8
OBJECT__3
10
0
20
0
30
0
70
128
71
4
72
9
73
5
0
VERTEX
8
OBJECT__3
10
0
20
0
30
0
70
128
71
3
72
8
73
1
0
SEQEND
8
OBJECT__3
0
POLYLINE
8
OBJECT__4
66
1
70
64
71
78
72
78
62
253
0
VERTEX
8
OBJECT__4
10
10.151000
20
76.080002
30
-0.019000
70
192
0
VERTEX
8
OBJECT__4
10
10.590000
20
42.870998
30
0.576000
70
192
0
VERTEX
8
OBJECT__4
10
10.590000
20
42.875000
30
0.000000
70
192
0
VERTEX
8
OBJECT__4
10
10.590000
20
41.928001
30
8.960000
70
192
0
VERTEX
8
OBJECT__4
10
10.066000
20
76.082001
30
39.028999
70
192
0
VERTEX
8
OBJECT__4
10
10.590000
20
40.264000
30
14.734000
70
192
0
VERTEX
8
OBJECT__4
10
10.590000
20
33.117001
30
27.231001
70
192
0
VERTEX
8
OBJECT__4
10
10.590000
20
36.598999
30
22.334000
70
192
0
VERTEX
8
OBJECT__4
10
10.590000
20
27.143000
30
33.188999
70
192
0
VERTEX
8
OBJECT__4
10
9.345000
20
74.377998
30
96.546997
70
192
0
VERTEX
8
OBJECT__4
10
9.350000
20
73.893997
30
96.600998
70
192
0
VERTEX
8
OBJECT__4
10
9.348000
20
75.970001
30
95.128998
70
192
0
VERTEX
8
OBJECT__4
10
9.341000
20
75.612000
30
95.775002
70
192
0
VERTEX
8
OBJECT__4
10
9.359000
20
76.094002
30
94.401001
70
192
0
VERTEX
8
OBJECT__4
10
9.340000
20
75.060997
30
96.266998
70
192
0
VERTEX
8
OBJECT__4
10
10.590000
20
22.237000
30
36.658001
70
192
0
VERTEX
8
OBJECT__4
10
9.757000
20
34.863998
30
96.594002
70
192
0
VERTEX
8
OBJECT__4
10
10.590000
20
14.627000
30
40.303001
70
192
0
VERTEX
8
OBJECT__4
10
10.590000
20
8.849000
30
41.952000
70
192
0
VERTEX
8
OBJECT__4
10
9.859000
20
0.000000
30
96.592003
70
192
0
VERTEX
8
OBJECT__4
10
10.590000
20
0.462000
30
42.873001
70
192
0
VERTEX
8
OBJECT__4
10
10.590000
20
0.000000
30
42.845001
70
192
0
VERTEX
8
OBJECT__4
10
9.871000
20
-4.167000
30
96.592003
70
192
0
VERTEX
8
OBJECT__4
10
10.590000
20
-5.536000
30
42.515999
70
192
0
VERTEX
8
OBJECT__4
10
9.350000
20
-73.893997
30
96.600998
70
192
0
VERTEX
8
OBJECT__4
10
10.590000
20
-19.297001
30
38.286999
70
192
0
VERTEX
8
OBJECT__4
10
10.590000
20
-13.755000
30
40.609001
70
192
0
VERTEX
8
OBJECT__4
10
10.590000
20
-26.421000
30
33.766998
70
192
0
VERTEX
8
OBJECT__4
10
9.351000
20
-76.040001
30
94.886002
70
192
0
VERTEX
8
OBJECT__4
10
9.359000
20
-76.094002
30
94.401001
70
192
0
VERTEX
8
OBJECT__4
10
9.342000
20
-74.622002
30
96.476997
70
192
0
VERTEX
8
OBJECT__4
10
9.340000
20
-75.267998
30
96.120003
70
192
0
VERTEX
8
OBJECT__4
10
9.343000
20
-75.759003
30
95.568001
70
192
0
VERTEX
8
OBJECT__4
10
10.590000
20
-30.882000
30
29.740999
70
192
0
VERTEX
8
OBJECT__4
10
10.590000
20
-36.109001
30
23.118000
70
192
0
VERTEX
8
OBJECT__4
10
10.187000
20
-76.080002
30
16.340000
70
192
0
VERTEX
8
OBJECT__4
10
10.590000
20
-38.986000
30
17.843000
70
192
0
VERTEX
8
OBJECT__4
10
10.590000
20
-41.724998
30
9.862000
70
192
0
VERTEX
8
OBJECT__4
10
10.151000
20
-76.080002
30
-0.018000
70
192
0
VERTEX
8
OBJECT__4
10
10.590000
20
-42.694000
30
3.932000
70
192
0
VERTEX
8
OBJECT__4
10
10.590000
20
-42.667999
30
-0.011000
70
192
0
VERTEX
8
OBJECT__4
10
10.066000
20
-76.082001
30
-39.028999
70
192
0
VERTEX
8
OBJECT__4
10
10.590000
20
-40.755001
30
-13.317000
70
192
0
VERTEX
8
OBJECT__4
10
9.360000
20
-76.094002
30
-94.401001
70
192
0
VERTEX
8
OBJECT__4
10
10.590000
20
-30.073000
30
-30.559999
70
192
0
VERTEX
8
OBJECT__4
10
10.590000
20
-34.049000
30
-26.056000
70
192
0
VERTEX
8
OBJECT__4
10
9.345000
20
-74.377998
30
-96.546997
70
192
0
VERTEX
8
OBJECT__4
10
9.351000
20
-73.893997
30
-96.600998
70
192
0
VERTEX
8
OBJECT__4
10
9.348000
20
-75.970001
30
-95.128998
70
192
0
VERTEX
8
OBJECT__4
10
9.342000
20
-75.612000
30
-95.775002
70
192
0
VERTEX
8
OBJECT__4
10
9.340000
20
-75.060997
30
-96.265999
70
192
0
VERTEX
8
OBJECT__4
10
10.590000
20
-23.504999
30
-35.858002
70
192
0
VERTEX
8
OBJECT__4
10
9.757000
20
-34.863998
30
-96.594002
70
192
0
VERTEX
8
OBJECT__4
10
10.590000
20
-18.261999
30
-38.792000
70
192
0
VERTEX
8
OBJECT__4
10
10.590000
20
-10.311000
30
-41.617001
70
192
0
VERTEX
8
OBJECT__4
10
9.860000
20
0.000000
30
-96.592003
70
192
0
VERTEX
8
OBJECT__4
10
10.590000
20
-4.392000
30
-42.650002
70
192
0
VERTEX
8
OBJECT__4
10
10.590000
20
-38.493000
30
-18.882999
70
192
0
VERTEX
8
OBJECT__4
10
10.590000
20
0.000000
30
-42.667000
70
192
0
VERTEX
8
OBJECT__4
10
10.590000
20
-42.638000
30
-4.505000
70
192
0
VERTEX
8
OBJECT__4
10
9.872000
20
4.167000
30
-96.592003
70
192
0
VERTEX
8
OBJECT__4
10
10.590000
20
4.045000
30
-42.683998
70
192
0
VERTEX
8
OBJECT__4
10
9.351000
20
73.893997
30
-96.600998
70
192
0
VERTEX
8
OBJECT__4
10
10.590000
20
17.945999
30
-38.938999
70
192
0
VERTEX
8
OBJECT__4
10
10.590000
20
9.973000
30
-41.699001
70
192
0
VERTEX
8
OBJECT__4
10
10.590000
20
23.212999
30
-36.048000
70
192
0
VERTEX
8
OBJECT__4
10
9.352000
20
76.040001
30
-94.886002
70
192
0
VERTEX
8
OBJECT__4
10
9.360000
20
76.094002
30
-94.401001
70
192
0
VERTEX
8
OBJECT__4
10
9.343000
20
74.622002
30
-96.476997
70
192
0
VERTEX
8
OBJECT__4
10
9.340000
20
75.267998
30
-96.120003
70
192
0
VERTEX
8
OBJECT__4
10
9.343000
20
75.759003
30
-95.568001
70
192
0
VERTEX
8
OBJECT__4
10
10.590000
20
33.837002
30
-26.332001
70
192
0
VERTEX
8
OBJECT__4
10
10.590000
20
29.823000
30
-30.802999
70
192
0
VERTEX
8
OBJECT__4
10
10.187000
20
76.080002
30
-16.340000
70
192
0
VERTEX
8
OBJECT__4
10
10.590000
20
38.338001
30
-19.195000
70
192
0
VERTEX
8
OBJECT__4
10
10.590000
20
40.645000
30
-13.647000
70
192
0
VERTEX
8
OBJECT__4
10
10.590000
20
42.874001
30
-0.011000
70
192
0
VERTEX
8
OBJECT__4
10
10.590000
20
42.530998
30
-5.423000
70
192
0
VERTEX
8
OBJECT__4
10
0
20
0
30
0
70
128
71
1
72
2
73
3
0
VERTEX
8
OBJECT__4
10
0
20
0
30
0
70
128
71
1
72
4
73
2
0
VERTEX
8
OBJECT__4
10
0
20
0
30
0
70
128
71
5
72
6
73
4
0
VERTEX
8
OBJECT__4
10
0
20
0
30
0
70
128
71
7
72
8
73
5
0
VERTEX
8
OBJECT__4
10
0
20
0
30
0
70
128
71
9
72
10
73
11
0
VERTEX
8
OBJECT__4
10
0
20
0
30
0
70
128
71
9
72
12
73
13
0
VERTEX
8
OBJECT__4
10
0
20
0
30
0
70
128
71
9
72
14
73
12
0
VERTEX
8
OBJECT__4
10
0
20
0
30
0
70
128
71
13
72
15
73
9
0
VERTEX
8
OBJECT__4
10
0
20
0
30
0
70
128
71
15
72
10
73
9
0
VERTEX
8
OBJECT__4
10
0
20
0
30
0
70
128
71
16
72
11
73
17
0
VERTEX
8
OBJECT__4
10
0
20
0
30
0
70
128
71
17
72
18
73
16
0
VERTEX
8
OBJECT__4
10
0
20
0
30
0
70
128
71
11
72
16
73
9
0
VERTEX
8
OBJECT__4
10
0
20
0
30
0
70
128
71
17
72
19
73
18
0
VERTEX
8
OBJECT__4
10
0
20
0
30
0
70
128
71
9
72
7
73
14
0
VERTEX
8
OBJECT__4
10
0
20
0
30
0
70
128
71
20
72
21
73
19
0
VERTEX
8
OBJECT__4
10
0
20
0
30
0
70
128
71
19
72
17
73
20
0
VERTEX
8
OBJECT__4
10
0
20
0
30
0
70
128
71
5
72
14
73
7
0
VERTEX
8
OBJECT__4
10
0
20
0
30
0
70
128
71
8
72
6
73
5
0
VERTEX
8
OBJECT__4
10
0
20
0
30
0
70
128
71
4
72
1
73
5
0
VERTEX
8
OBJECT__4
10
0
20
0
30
0
70
128
71
20
72
22
73
21
0
VERTEX
8
OBJECT__4
10
0
20
0
30
0
70
128
71
23
72
24
73
22
0
VERTEX
8
OBJECT__4
10
0
20
0
30
0
70
128
71
25
72
26
73
27
0
VERTEX
8
OBJECT__4
10
0
20
0
30
0
70
128
71
28
72
29
73
30
0
VERTEX
8
OBJECT__4
10
0
20
0
30
0
70
128
71
28
72
31
73
32
0
VERTEX
8
OBJECT__4
10
0
20
0
30
0
70
128
71
28
72
25
73
31
0
VERTEX
8
OBJECT__4
10
0
20
0
30
0
70
128
71
32
72
33
73
28
0
VERTEX
8
OBJECT__4
10
0
20
0
30
0
70
128
71
33
72
29
73
28
0
VERTEX
8
OBJECT__4
10
0
20
0
30
0
70
128
71
30
72
34
73
28
0
VERTEX
8
OBJECT__4
10
0
20
0
30
0
70
128
71
30
72
35
73
34
0
VERTEX
8
OBJECT__4
10
0
20
0
30
0
70
128
71
28
72
26
73
25
0
VERTEX
8
OBJECT__4
10
0
20
0
30
0
70
128
71
36
72
37
73
35
0
VERTEX
8
OBJECT__4
10
0
20
0
30
0
70
128
71
35
72
30
73
36
0
VERTEX
8
OBJECT__4
10
0
20
0
30
0
70
128
71
27
72
23
73
25
0
VERTEX
8
OBJECT__4
10
0
20
0
30
0
70
128
71
36
72
38
73
37
0
VERTEX
8
OBJECT__4
10
0
20
0
30
0
70
128
71
27
72
24
73
23
0
VERTEX
8
OBJECT__4
10
0
20
0
30
0
70
128
71
36
72
39
73
40
0
VERTEX
8
OBJECT__4
10
0
20
0
30
0
70
128
71
40
72
38
73
36
0
VERTEX
8
OBJECT__4
10
0
20
0
30
0
70
128
71
39
72
41
73
40
0
VERTEX
8
OBJECT__4
10
0
20
0
30
0
70
128
71
39
72
42
73
43
0
VERTEX
8
OBJECT__4
10
0
20
0
30
0
70
128
71
44
72
45
73
46
0
VERTEX
8
OBJECT__4
10
0
20
0
30
0
70
128
71
45
72
47
73
48
0
VERTEX
8
OBJECT__4
10
0
20
0
30
0
70
128
71
45
72
49
73
50
0
VERTEX
8
OBJECT__4
10
0
20
0
30
0
70
128
71
45
72
44
73
49
0
VERTEX
8
OBJECT__4
10
0
20
0
30
0
70
128
71
50
72
51
73
45
0
VERTEX
8
OBJECT__4
10
0
20
0
30
0
70
128
71
51
72
47
73
45
0
VERTEX
8
OBJECT__4
10
0
20
0
30
0
70
128
71
52
72
48
73
53
0
VERTEX
8
OBJECT__4
10
0
20
0
30
0
70
128
71
53
72
54
73
52
0
VERTEX
8
OBJECT__4
10
0
20
0
30
0
70
128
71
48
72
52
73
45
0
VERTEX
8
OBJECT__4
10
0
20
0
30
0
70
128
71
53
72
55
73
54
0
VERTEX
8
OBJECT__4
10
0
20
0
30
0
70
128
71
46
72
42
73
44
0
VERTEX
8
OBJECT__4
10
0
20
0
30
0
70
128
71
53
72
56
73
57
0
VERTEX
8
OBJECT__4
10
0
20
0
30
0
70
128
71
57
72
55
73
53
0
VERTEX
8
OBJECT__4
10
0
20
0
30
0
70
128
71
46
72
58
73
42
0
VERTEX
8
OBJECT__4
10
0
20
0
30
0
70
128
71
56
72
59
73
57
0
VERTEX
8
OBJECT__4
10
0
20
0
30
0
70
128
71
58
72
43
73
42
0
VERTEX
8
OBJECT__4
10
0
20
0
30
0
70
128
71
43
72
60
73
39
0
VERTEX
8
OBJECT__4
10
0
20
0
30
0
70
128
71
56
72
61
73
62
0
VERTEX
8
OBJECT__4
10
0
20
0
30
0
70
128
71
63
72
64
73
65
0
VERTEX
8
OBJECT__4
10
0
20
0
30
0
70
128
71
66
72
67
73
68
0
VERTEX
8
OBJECT__4
10
0
20
0
30
0
70
128
71
66
72
69
73
70
0
VERTEX
8
OBJECT__4
10
0
20
0
30
0
70
128
71
66
72
63
73
69
0
VERTEX
8
OBJECT__4
10
0
20
0
30
0
70
128
71
70
72
71
73
66
0
VERTEX
8
OBJECT__4
10
0
20
0
30
0
70
128
71
71
72
67
73
66
0
VERTEX
8
OBJECT__4
10
0
20
0
30
0
70
128
71
68
72
72
73
73
0
VERTEX
8
OBJECT__4
10
0
20
0
30
0
70
128
71
68
72
74
73
75
0
VERTEX
8
OBJECT__4
10
0
20
0
30
0
70
128
71
75
72
72
73
68
0
VERTEX
8
OBJECT__4
10
0
20
0
30
0
70
128
71
68
72
73
73
66
0
VERTEX
8
OBJECT__4
10
0
20
0
30
0
70
128
71
74
72
76
73
75
0
VERTEX
8
OBJECT__4
10
0
20
0
30
0
70
128
71
66
72
64
73
63
0
VERTEX
8
OBJECT__4
10
0
20
0
30
0
70
128
71
1
72
77
73
78
0
VERTEX
8
OBJECT__4
10
0
20
0
30
0
70
128
71
78
72
74
73
1
0
VERTEX
8
OBJECT__4
10
0
20
0
30
0
70
128
71
78
72
76
73
74
0
VERTEX
8
OBJECT__4
10
0
20
0
30
0
70
128
71
65
72
61
73
63
0
VERTEX
8
OBJECT__4
10
0
20
0
30
0
70
128
71
65
72
62
73
61
0
VERTEX
8
OBJECT__4
10
0
20
0
30
0
70
128
71
62
72
59
73
56
0
VERTEX
8
OBJECT__4
10
0
20
0
30
0
70
128
71
60
72
41
73
39
0
VERTEX
8
OBJECT__4
10
0
20
0
30
0
70
128
71
22
72
20
73
23
0
VERTEX
8
OBJECT__4
10
0
20
0
30
0
70
128
71
3
72
77
73
1
0
SEQEND
8
OBJECT__4
0
POLYLINE
8
OBJECT__5
66
1
70
64
71
9
72
7
62
253
0
VERTEX
8
OBJECT__5
10
10.187000
20
76.080002
30
-16.340000
70
192
0
VERTEX
8
OBJECT__5
10
9.360000
20
76.094002
30
-94.401001
70
192
0
VERTEX
8
OBJECT__5
10
7.591000
20
77.866997
30
-94.367996
70
192
0
VERTEX
8
OBJECT__5
10
8.298000
20
77.855003
30
39.015999
70
192
0
VERTEX
8
OBJECT__5
10
10.066000
20
76.082001
30
39.028999
70
192
0
VERTEX
8
OBJECT__5
10
10.151000
20
76.080002
30
-0.019000
70
192
0
VERTEX
8
OBJECT__5
10
8.418000
20
77.852997
30
-16.334999
70
192
0
VERTEX
8
OBJECT__5
10
7.591000
20
77.866997
30
94.367996
70
192
0
VERTEX
8
OBJECT__5
10
9.359000
20
76.094002
30
94.401001
70
192
0
VERTEX
8
OBJECT__5
10
0
20
0
30
0
70
128
71
1
72
2
73
3
0
VERTEX
8
OBJECT__5
10
0
20
0
30
0
70
128
71
4
72
5
73
6
0
VERTEX
8
OBJECT__5
10
0
20
0
30
0
70
128
71
6
72
7
73
4
0
VERTEX
8
OBJECT__5
10
0
20
0
30
0
70
128
71
5
72
4
73
8
0
VERTEX
8
OBJECT__5
10
0
20
0
30
0
70
128
71
8
72
9
73
5
0
VERTEX
8
OBJECT__5
10
0
20
0
30
0
70
128
71
6
72
1
73
7
0
VERTEX
8
OBJECT__5
10
0
20
0
30
0
70
128
71
3
72
7
73
1
0
SEQEND
8
OBJECT__5
0
POLYLINE
8
OBJECT__6
66
1
70
64
71
13
72
11
62
253
0
VERTEX
8
OBJECT__6
10
7.591000
20
77.866997
30
94.367996
70
192
0
VERTEX
8
OBJECT__6
10
7.588000
20
77.641998
30
95.692001
70
192
0
VERTEX
8
OBJECT__6
10
9.348000
20
75.970001
30
95.128998
70
192
0
VERTEX
8
OBJECT__6
10
7.586000
20
76.991997
30
96.865997
70
192
0
VERTEX
8
OBJECT__6
10
9.341000
20
75.612000
30
95.775002
70
192
0
VERTEX
8
OBJECT__6
10
7.585000
20
76.663002
30
97.158997
70
192
0
VERTEX
8
OBJECT__6
10
7.584000
20
75.988998
30
97.759003
70
192
0
VERTEX
8
OBJECT__6
10
9.340000
20
75.060997
30
96.266998
70
192
0
VERTEX
8
OBJECT__6
10
7.583000
20
74.749001
30
98.269997
70
192
0
VERTEX
8
OBJECT__6
10
9.345000
20
74.377998
30
96.546997
70
192
0
VERTEX
8
OBJECT__6
10
7.582000
20
73.867996
30
98.367996
70
192
0
VERTEX
8
OBJECT__6
10
9.350000
20
73.893997
30
96.600998
70
192
0
VERTEX
8
OBJECT__6
10
9.359000
20
76.094002
30
94.401001
70
192
0
VERTEX
8
OBJECT__6
10
0
20
0
30
0
70
128
71
1
72
2
73
3
0
VERTEX
8
OBJECT__6
10
0
20
0
30
0
70
128
71
2
72
4
73
5
0
VERTEX
8
OBJECT__6
10
0
20
0
30
0
70
128
71
6
72
7
73
8
0
VERTEX
8
OBJECT__6
10
0
20
0
30
0
70
128
71
5
72
4
73
6
0
VERTEX
8
OBJECT__6
10
0
20
0
30
0
70
128
71
9
72
10
73
8
0
VERTEX
8
OBJECT__6
10
0
20
0
30
0
70
128
71
11
72
12
73
10
0
VERTEX
8
OBJECT__6
10
0
20
0
30
0
70
128
71
10
72
9
73
11
0
VERTEX
8
OBJECT__6
10
0
20
0
30
0
70
128
71
8
72
7
73
9
0
VERTEX
8
OBJECT__6
10
0
20
0
30
0
70
128
71
8
72
5
73
6
0
VERTEX
8
OBJECT__6
10
0
20
0
30
0
70
128
71
5
72
3
73
2
0
VERTEX
8
OBJECT__6
10
0
20
0
30
0
70
128
71
3
72
13
73
1
0
SEQEND
8
OBJECT__6
0
POLYLINE
8
OBJECT__7
66
1
70
64
71
13
72
11
62
253
0
VERTEX
8
OBJECT__7
10
7.583000
20
73.867996
30
-98.367996
70
192
0
VERTEX
8
OBJECT__7
10
7.583000
20
75.191002
30
-98.141998
70
192
0
VERTEX
8
OBJECT__7
10
9.343000
20
74.622002
30
-96.476997
70
192
0
VERTEX
8
OBJECT__7
10
7.585000
20
76.365997
30
-97.491997
70
192
0
VERTEX
8
OBJECT__7
10
9.340000
20
75.267998
30
-96.120003
70
192
0
VERTEX
8
OBJECT__7
10
7.585000
20
76.658997
30
-97.163002
70
192
0
VERTEX
8
OBJECT__7
10
7.587000
20
77.258003
30
-96.489998
70
192
0
VERTEX
8
OBJECT__7
10
9.343000
20
75.759003
30
-95.568001
70
192
0
VERTEX
8
OBJECT__7
10
7.590000
20
77.768997
30
-95.250000
70
192
0
VERTEX
8
OBJECT__7
10
9.352000
20
76.040001
30
-94.886002
70
192
0
VERTEX
8
OBJECT__7
10
7.591000
20
77.866997
30
-94.367996
70
192
0
VERTEX
8
OBJECT__7
10
9.360000
20
76.094002
30
-94.401001
70
192
0
VERTEX
8
OBJECT__7
10
9.351000
20
73.893997
30
-96.600998
70
192
0
VERTEX
8
OBJECT__7
10
0
20
0
30
0
70
128
71
1
72
2
73
3
0
VERTEX
8
OBJECT__7
10
0
20
0
30
0
70
128
71
2
72
4
73
5
0
VERTEX
8
OBJECT__7
10
0
20
0
30
0
70
128
71
6
72
7
73
8
0
VERTEX
8
OBJECT__7
10
0
20
0
30
0
70
128
71
5
72
4
73
6
0
VERTEX
8
OBJECT__7
10
0
20
0
30
0
70
128
71
9
72
10
73
8
0
VERTEX
8
OBJECT__7
10
0
20
0
30
0
70
128
71
11
72
12
73
10
0
VERTEX
8
OBJECT__7
10
0
20
0
30
0
70
128
71
10
72
9
73
11
0
VERTEX
8
OBJECT__7
10
0
20
0
30
0
70
128
71
8
72
7
73
9
0
VERTEX
8
OBJECT__7
10
0
20
0
30
0
70
128
71
8
72
5
73
6
0
VERTEX
8
OBJECT__7
10
0
20
0
30
0
70
128
71
5
72
3
73
2
0
VERTEX
8
OBJECT__7
10
0
20
0
30
0
70
128
71
3
72
13
73
1
0
SEQEND
8
OBJECT__7
0
POLYLINE
8
OBJECT__8
66
1
70
64
71
9
72
7
62
253
0
VERTEX
8
OBJECT__8
10
9.757000
20
34.863998
30
96.594002
70
192
0
VERTEX
8
OBJECT__8
10
9.350000
20
73.893997
30
96.600998
70
192
0
VERTEX
8
OBJECT__8
10
7.582000
20
73.867996
30
98.367996
70
192
0
VERTEX
8
OBJECT__8
10
7.989000
20
34.852001
30
98.361000
70
192
0
VERTEX
8
OBJECT__8
10
8.103000
20
-4.166000
30
98.359001
70
192
0
VERTEX
8
OBJECT__8
10
9.859000
20
0.000000
30
96.592003
70
192
0
VERTEX
8
OBJECT__8
10
9.871000
20
-4.167000
30
96.592003
70
192
0
VERTEX
8
OBJECT__8
10
7.582000
20
-73.867996
30
98.367996
70
192
0
VERTEX
8
OBJECT__8
10
9.350000
20
-73.893997
30
96.600998
70
192
0
VERTEX
8
OBJECT__8
10
0
20
0
30
0
70
128
71
1
72
2
73
3
0
VERTEX
8
OBJECT__8
10
0
20
0
30
0
70
128
71
4
72
5
73
6
0
VERTEX
8
OBJECT__8
10
0
20
0
30
0
70
128
71
5
72
7
73
6
0
VERTEX
8
OBJECT__8
10
0
20
0
30
0
70
128
71
7
72
5
73
8
0
VERTEX
8
OBJECT__8
10
0
20
0
30
0
70
128
71
8
72
9
73
7
0
VERTEX
8
OBJECT__8
10
0
20
0
30
0
70
128
71
6
72
1
73
4
0
VERTEX
8
OBJECT__8
10
0
20
0
30
0
70
128
71
3
72
4
73
1
0
SEQEND
8
OBJECT__8
0
POLYLINE
8
OBJECT__9
66
1
70
64
71
9
72
7
62
253
0
VERTEX
8
OBJECT__9
10
9.757000
20
-34.863998
30
-96.594002
70
192
0
VERTEX
8
OBJECT__9
10
9.351000
20
-73.893997
30
-96.600998
70
192
0
VERTEX
8
OBJECT__9
10
7.583000
20
-73.867996
30
-98.367996
70
192
0
VERTEX
8
OBJECT__9
10
7.989000
20
-34.852001
30
-98.361000
70
192
0
VERTEX
8
OBJECT__9
10
8.104000
20
4.166000
30
-98.359001
70
192
0
VERTEX
8
OBJECT__9
10
9.860000
20
0.000000
30
-96.592003
70
192
0
VERTEX
8
OBJECT__9
10
9.872000
20
4.167000
30
-96.592003
70
192
0
VERTEX
8
OBJECT__9
10
7.583000
20
73.867996
30
-98.367996
70
192
0
VERTEX
8
OBJECT__9
10
9.351000
20
73.893997
30
-96.600998
70
192
0
VERTEX
8
OBJECT__9
10
0
20
0
30
0
70
128
71
1
72
2
73
3
0
VERTEX
8
OBJECT__9
10
0
20
0
30
0
70
128
71
4
72
5
73
6
0
VERTEX
8
OBJECT__9
10
0
20
0
30
0
70
128
71
5
72
7
73
6
0
VERTEX
8
OBJECT__9
10
0
20
0
30
0
70
128
71
7
72
5
73
8
0
VERTEX
8
OBJECT__9
10
0
20
0
30
0
70
128
71
8
72
9
73
7
0
VERTEX
8
OBJECT__9
10
0
20
0
30
0
70
128
71
6
72
1
73
4
0
VERTEX
8
OBJECT__9
10
0
20
0
30
0
70
128
71
3
72
4
73
1
0
SEQEND
8
OBJECT__9
0
POLYLINE
8
OBJECT__10
66
1
70
64
71
13
72
11
62
253
0
VERTEX
8
OBJECT__10
10
7.582000
20
-73.867996
30
98.367996
70
192
0
VERTEX
8
OBJECT__10
10
7.583000
20
-75.191002
30
98.141998
70
192
0
VERTEX
8
OBJECT__10
10
9.342000
20
-74.622002
30
96.476997
70
192
0
VERTEX
8
OBJECT__10
10
7.584000
20
-76.365997
30
97.491997
70
192
0
VERTEX
8
OBJECT__10
10
9.340000
20
-75.267998
30
96.120003
70
192
0
VERTEX
8
OBJECT__10
10
7.585000
20
-76.658997
30
97.163002
70
192
0
VERTEX
8
OBJECT__10
10
7.587000
20
-77.258003
30
96.489998
70
192
0
VERTEX
8
OBJECT__10
10
9.343000
20
-75.759003
30
95.568001
70
192
0
VERTEX
8
OBJECT__10
10
7.589000
20
-77.768997
30
95.250000
70
192
0
VERTEX
8
OBJECT__10
10
9.351000
20
-76.040001
30
94.886002
70
192
0
VERTEX
8
OBJECT__10
10
7.591000
20
-77.866997
30
94.367996
70
192
0
VERTEX
8
OBJECT__10
10
9.359000
20
-76.094002
30
94.401001
70
192
0
VERTEX
8
OBJECT__10
10
9.350000
20
-73.893997
30
96.600998
70
192
0
VERTEX
8
OBJECT__10
10
0
20
0
30
0
70
128
71
1
72
2
73
3
0
VERTEX
8
OBJECT__10
10
0
20
0
30
0
70
128
71
2
72
4
73
5
0
VERTEX
8
OBJECT__10
10
0
20
0
30
0
70
128
71
6
72
7
73
8
0
VERTEX
8
OBJECT__10
10
0
20
0
30
0
70
128
71
5
72
4
73
6
0
VERTEX
8
OBJECT__10
10
0
20
0
30
0
70
128
71
9
72
10
73
8
0
VERTEX
8
OBJECT__10
10
0
20
0
30
0
70
128
71
11
72
12
73
10
0
VERTEX
8
OBJECT__10
10
0
20
0
30
0
70
128
71
10
72
9
73
11
0
VERTEX
8
OBJECT__10
10
0
20
0
30
0
70
128
71
8
72
7
73
9
0
VERTEX
8
OBJECT__10
10
0
20
0
30
0
70
128
71
8
72
5
73
6
0
VERTEX
8
OBJECT__10
10
0
20
0
30
0
70
128
71
5
72
3
73
2
0
VERTEX
8
OBJECT__10
10
0
20
0
30
0
70
128
71
3
72
13
73
1
0
SEQEND
8
OBJECT__10
0
POLYLINE
8
OBJECT__11
66
1
70
64
71
13
72
11
62
253
0
VERTEX
8
OBJECT__11
10
7.591000
20
-77.866997
30
-94.367996
70
192
0
VERTEX
8
OBJECT__11
10
7.589000
20
-77.641998
30
-95.692001
70
192
0
VERTEX
8
OBJECT__11
10
9.348000
20
-75.970001
30
-95.128998
70
192
0
VERTEX
8
OBJECT__11
10
7.586000
20
-76.991997
30
-96.865997
70
192
0
VERTEX
8
OBJECT__11
10
9.342000
20
-75.612000
30
-95.775002
70
192
0
VERTEX
8
OBJECT__11
10
7.586000
20
-76.663002
30
-97.158997
70
192
0
VERTEX
8
OBJECT__11
10
7.584000
20
-75.988998
30
-97.759003
70
192
0
VERTEX
8
OBJECT__11
10
9.340000
20
-75.060997
30
-96.265999
70
192
0
VERTEX
8
OBJECT__11
10
7.583000
20
-74.749001
30
-98.269997
70
192
0
VERTEX
8
OBJECT__11
10
9.345000
20
-74.377998
30
-96.546997
70
192
0
VERTEX
8
OBJECT__11
10
7.583000
20
-73.867996
30
-98.367996
70
192
0
VERTEX
8
OBJECT__11
10
9.351000
20
-73.893997
30
-96.600998
70
192
0
VERTEX
8
OBJECT__11
10
9.360000
20
-76.094002
30
-94.401001
70
192
0
VERTEX
8
OBJECT__11
10
0
20
0
30
0
70
128
71
1
72
2
73
3
0
VERTEX
8
OBJECT__11
10
0
20
0
30
0
70
128
71
2
72
4
73
5
0
VERTEX
8
OBJECT__11
10
0
20
0
30
0
70
128
71
6
72
7
73
8
0
VERTEX
8
OBJECT__11
10
0
20
0
30
0
70
128
71
5
72
4
73
6
0
VERTEX
8
OBJECT__11
10
0
20
0
30
0
70
128
71
9
72
10
73
8
0
VERTEX
8
OBJECT__11
10
0
20
0
30
0
70
128
71
11
72
12
73
10
0
VERTEX
8
OBJECT__11
10
0
20
0
30
0
70
128
71
10
72
9
73
11
0
VERTEX
8
OBJECT__11
10
0
20
0
30
0
70
128
71
8
72
7
73
9
0
VERTEX
8
OBJECT__11
10
0
20
0
30
0
70
128
71
8
72
5
73
6
0
VERTEX
8
OBJECT__11
10
0
20
0
30
0
70
128
71
5
72
3
73
2
0
VERTEX
8
OBJECT__11
10
0
20
0
30
0
70
128
71
3
72
13
73
1
0
SEQEND
8
OBJECT__11
0
POLYLINE
8
OBJECT__12
66
1
70
64
71
9
72
7
62
253
0
VERTEX
8
OBJECT__12
10
10.187000
20
-76.080002
30
16.340000
70
192
0
VERTEX
8
OBJECT__12
10
9.359000
20
-76.094002
30
94.401001
70
192
0
VERTEX
8
OBJECT__12
10
7.591000
20
-77.866997
30
94.367996
70
192
0
VERTEX
8
OBJECT__12
10
8.298000
20
-77.855003
30
-39.015999
70
192
0
VERTEX
8
OBJECT__12
10
10.066000
20
-76.082001
30
-39.028999
70
192
0
VERTEX
8
OBJECT__12
10
10.151000
20
-76.080002
30
-0.018000
70
192
0
VERTEX
8
OBJECT__12
10
8.418000
20
-77.852997
30
16.334999
70
192
0
VERTEX
8
OBJECT__12
10
7.591000
20
-77.866997
30
-94.367996
70
192
0
VERTEX
8
OBJECT__12
10
9.360000
20
-76.094002
30
-94.401001
70
192
0
VERTEX
8
OBJECT__12
10
0
20
0
30
0
70
128
71
1
72
2
73
3
0
VERTEX
8
OBJECT__12
10
0
20
0
30
0
70
128
71
4
72
5
73
6
0
VERTEX
8
OBJECT__12
10
0
20
0
30
0
70
128
71
6
72
7
73
4
0
VERTEX
8
OBJECT__12
10
0
20
0
30
0
70
128
71
5
72
4
73
8
0
VERTEX
8
OBJECT__12
10
0
20
0
30
0
70
128
71
8
72
9
73
5
0
VERTEX
8
OBJECT__12
10
0
20
0
30
0
70
128
71
6
72
1
73
7
0
VERTEX
8
OBJECT__12
10
0
20
0
30
0
70
128
71
3
72
7
73
1
0
SEQEND
8
OBJECT__12
0
POLYLINE
8
OBJECT__13
66
1
70
64
71
11
72
9
62
253
0
VERTEX
8
OBJECT__13
10
0.000000
20
78.000000
30
94.500999
70
192
0
VERTEX
8
OBJECT__13
10
0.000000
20
77.706001
30
96.005997
70
192
0
VERTEX
8
OBJECT__13
10
7.588000
20
77.641998
30
95.692001
70
192
0
VERTEX
8
OBJECT__13
10
0.000000
20
76.489998
30
96.824997
70
192
0
VERTEX
8
OBJECT__13
10
7.586000
20
76.991997
30
96.865997
70
192
0
VERTEX
8
OBJECT__13
10
7.585000
20
76.663002
30
97.158997
70
192
0
VERTEX
8
OBJECT__13
10
0.000000
20
74.000999
30
98.500000
70
192
0
VERTEX
8
OBJECT__13
10
7.583000
20
74.749001
30
98.269997
70
192
0
VERTEX
8
OBJECT__13
10
7.582000
20
73.867996
30
98.367996
70
192
0
VERTEX
8
OBJECT__13
10
7.584000
20
75.988998
30
97.759003
70
192
0
VERTEX
8
OBJECT__13
10
7.591000
20
77.866997
30
94.367996
70
192
0
VERTEX
8
OBJECT__13
10
0
20
0
30
0
70
128
71
1
72
2
73
3
0
VERTEX
8
OBJECT__13
10
0
20
0
30
0
70
128
71
2
72
4
73
5
0
VERTEX
8
OBJECT__13
10
0
20
0
30
0
70
128
71
5
72
3
73
2
0
VERTEX
8
OBJECT__13
10
0
20
0
30
0
70
128
71
4
72
6
73
5
0
VERTEX
8
OBJECT__13
10
0
20
0
30
0
70
128
71
4
72
7
73
8
0
VERTEX
8
OBJECT__13
10
0
20
0
30
0
70
128
71
7
72
9
73
8
0
VERTEX
8
OBJECT__13
10
0
20
0
30
0
70
128
71
8
72
10
73
4
0
VERTEX
8
OBJECT__13
10
0
20
0
30
0
70
128
71
10
72
6
73
4
0
VERTEX
8
OBJECT__13
10
0
20
0
30
0
70
128
71
3
72
11
73
1
0
SEQEND
8
OBJECT__13
0
POLYLINE
8
OBJECT__14
66
1
70
64
71
16
72
14
62
253
0
VERTEX
8
OBJECT__14
10
0.000000
20
-74.000999
30
-98.500000
70
192
0
VERTEX
8
OBJECT__14
10
0.000000
20
78.000000
30
94.500999
70
192
0
VERTEX
8
OBJECT__14
10
0.000000
20
78.000000
30
-94.500999
70
192
0
VERTEX
8
OBJECT__14
10
0.000000
20
76.489998
30
96.824997
70
192
0
VERTEX
8
OBJECT__14
10
0.000000
20
77.706001
30
96.005997
70
192
0
VERTEX
8
OBJECT__14
10
0.000000
20
74.000999
30
98.500000
70
192
0
VERTEX
8
OBJECT__14
10
0.000000
20
-78.000000
30
-94.500999
70
192
0
VERTEX
8
OBJECT__14
10
0.000000
20
-78.000000
30
94.500999
70
192
0
VERTEX
8
OBJECT__14
10
0.000000
20
-76.489998
30
-96.824997
70
192
0
VERTEX
8
OBJECT__14
10
0.000000
20
-77.706001
30
-96.005997
70
192
0
VERTEX
8
OBJECT__14
10
0.000000
20
76.324997
30
-96.989998
70
192
0
VERTEX
8
OBJECT__14
10
0.000000
20
75.505997
30
-98.206001
70
192
0
VERTEX
8
OBJECT__14
10
0.000000
20
74.000999
30
-98.500000
70
192
0
VERTEX
8
OBJECT__14
10
0.000000
20
-76.324997
30
96.989998
70
192
0
VERTEX
8
OBJECT__14
10
0.000000
20
-75.505997
30
98.206001
70
192
0
VERTEX
8
OBJECT__14
10
0.000000
20
-74.000999
30
98.500000
70
192
0
VERTEX
8
OBJECT__14
10
0
20
0
30
0
70
128
71
1
72
2
73
3
0
VERTEX
8
OBJECT__14
10
0
20
0
30
0
70
128
71
1
72
4
73
5
0
VERTEX
8
OBJECT__14
10
0
20
0
30
0
70
128
71
6
72
7
73
8
0
VERTEX
8
OBJECT__14
10
0
20
0
30
0
70
128
71
6
72
9
73
10
0
VERTEX
8
OBJECT__14
10
0
20
0
30
0
70
128
71
11
72
12
73
13
0
VERTEX
8
OBJECT__14
10
0
20
0
30
0
70
128
71
5
72
2
73
1
0
VERTEX
8
OBJECT__14
10
0
20
0
30
0
70
128
71
14
72
15
73
16
0
VERTEX
8
OBJECT__14
10
0
20
0
30
0
70
128
71
10
72
7
73
6
0
VERTEX
8
OBJECT__14
10
0
20
0
30
0
70
128
71
3
72
11
73
1
0
VERTEX
8
OBJECT__14
10
0
20
0
30
0
70
128
71
6
72
4
73
1
0
VERTEX
8
OBJECT__14
10
0
20
0
30
0
70
128
71
8
72
14
73
6
0
VERTEX
8
OBJECT__14
10
0
20
0
30
0
70
128
71
1
72
9
73
6
0
VERTEX
8
OBJECT__14
10
0
20
0
30
0
70
128
71
13
72
1
73
11
0
VERTEX
8
OBJECT__14
10
0
20
0
30
0
70
128
71
16
72
6
73
14
0
SEQEND
8
OBJECT__14
0
POLYLINE
8
OBJECT__15
66
1
70
64
71
11
72
9
62
253
0
VERTEX
8
OBJECT__15
10
0.000000
20
74.000999
30
-98.500000
70
192
0
VERTEX
8
OBJECT__15
10
0.000000
20
75.505997
30
-98.206001
70
192
0
VERTEX
8
OBJECT__15
10
7.583000
20
75.191002
30
-98.141998
70
192
0
VERTEX
8
OBJECT__15
10
0.000000
20
76.324997
30
-96.989998
70
192
0
VERTEX
8
OBJECT__15
10
7.585000
20
76.365997
30
-97.491997
70
192
0
VERTEX
8
OBJECT__15
10
7.585000
20
76.658997
30
-97.163002
70
192
0
VERTEX
8
OBJECT__15
10
0.000000
20
78.000000
30
-94.500999
70
192
0
VERTEX
8
OBJECT__15
10
7.590000
20
77.768997
30
-95.250000
70
192
0
VERTEX
8
OBJECT__15
10
7.591000
20
77.866997
30
-94.367996
70
192
0
VERTEX
8
OBJECT__15
10
7.587000
20
77.258003
30
-96.489998
70
192
0
VERTEX
8
OBJECT__15
10
7.583000
20
73.867996
30
-98.367996
70
192
0
VERTEX
8
OBJECT__15
10
0
20
0
30
0
70
128
71
1
72
2
73
3
0
VERTEX
8
OBJECT__15
10
0
20
0
30
0
70
128
71
2
72
4
73
5
0
VERTEX
8
OBJECT__15
10
0
20
0
30
0
70
128
71
5
72
3
73
2
0
VERTEX
8
OBJECT__15
10
0
20
0
30
0
70
128
71
4
72
6
73
5
0
VERTEX
8
OBJECT__15
10
0
20
0
30
0
70
128
71
4
72
7
73
8
0
VERTEX
8
OBJECT__15
10
0
20
0
30
0
70
128
71
7
72
9
73
8
0
VERTEX
8
OBJECT__15
10
0
20
0
30
0
70
128
71
8
72
10
73
4
0
VERTEX
8
OBJECT__15
10
0
20
0
30
0
70
128
71
10
72
6
73
4
0
VERTEX
8
OBJECT__15
10
0
20
0
30
0
70
128
71
3
72
11
73
1
0
SEQEND
8
OBJECT__15
0
POLYLINE
8
OBJECT__16
66
1
70
64
71
11
72
9
62
253
0
VERTEX
8
OBJECT__16
10
0.000000
20
-78.000000
30
-94.500999
70
192
0
VERTEX
8
OBJECT__16
10
0.000000
20
-77.706001
30
-96.005997
70
192
0
VERTEX
8
OBJECT__16
10
7.589000
20
-77.641998
30
-95.692001
70
192
0
VERTEX
8
OBJECT__16
10
0.000000
20
-76.489998
30
-96.824997
70
192
0
VERTEX
8
OBJECT__16
10
7.586000
20
-76.991997
30
-96.865997
70
192
0
VERTEX
8
OBJECT__16
10
7.586000
20
-76.663002
30
-97.158997
70
192
0
VERTEX
8
OBJECT__16
10
0.000000
20
-74.000999
30
-98.500000
70
192
0
VERTEX
8
OBJECT__16
10
7.583000
20
-74.749001
30
-98.269997
70
192
0
VERTEX
8
OBJECT__16
10
7.583000
20
-73.867996
30
-98.367996
70
192
0
VERTEX
8
OBJECT__16
10
7.584000
20
-75.988998
30
-97.759003
70
192
0
VERTEX
8
OBJECT__16
10
7.591000
20
-77.866997
30
-94.367996
70
192
0
VERTEX
8
OBJECT__16
10
0
20
0
30
0
70
128
71
1
72
2
73
3
0
VERTEX
8
OBJECT__16
10
0
20
0
30
0
70
128
71
2
72
4
73
5
0
VERTEX
8
OBJECT__16
10
0
20
0
30
0
70
128
71
5
72
3
73
2
0
VERTEX
8
OBJECT__16
10
0
20
0
30
0
70
128
71
4
72
6
73
5
0
VERTEX
8
OBJECT__16
10
0
20
0
30
0
70
128
71
4
72
7
73
8
0
VERTEX
8
OBJECT__16
10
0
20
0
30
0
70
128
71
7
72
9
73
8
0
VERTEX
8
OBJECT__16
10
0
20
0
30
0
70
128
71
8
72
10
73
4
0
VERTEX
8
OBJECT__16
10
0
20
0
30
0
70
128
71
10
72
6
73
4
0
VERTEX
8
OBJECT__16
10
0
20
0
30
0
70
128
71
3
72
11
73
1
0
SEQEND
8
OBJECT__16
0
POLYLINE
8
OBJECT__17
66
1
70
64
71
11
72
9
62
253
0
VERTEX
8
OBJECT__17
10
0.000000
20
-74.000999
30
98.500000
70
192
0
VERTEX
8
OBJECT__17
10
0.000000
20
-75.505997
30
98.206001
70
192
0
VERTEX
8
OBJECT__17
10
7.583000
20
-75.191002
30
98.141998
70
192
0
VERTEX
8
OBJECT__17
10
0.000000
20
-76.324997
30
96.989998
70
192
0
VERTEX
8
OBJECT__17
10
7.584000
20
-76.365997
30
97.491997
70
192
0
VERTEX
8
OBJECT__17
10
7.585000
20
-76.658997
30
97.163002
70
192
0
VERTEX
8
OBJECT__17
10
0.000000
20
-78.000000
30
94.500999
70
192
0
VERTEX
8
OBJECT__17
10
7.589000
20
-77.768997
30
95.250000
70
192
0
VERTEX
8
OBJECT__17
10
7.591000
20
-77.866997
30
94.367996
70
192
0
VERTEX
8
OBJECT__17
10
7.587000
20
-77.258003
30
96.489998
70
192
0
VERTEX
8
OBJECT__17
10
7.582000
20
-73.867996
30
98.367996
70
192
0
VERTEX
8
OBJECT__17
10
0
20
0
30
0
70
128
71
1
72
2
73
3
0
VERTEX
8
OBJECT__17
10
0
20
0
30
0
70
128
71
2
72
4
73
5
0
VERTEX
8
OBJECT__17
10
0
20
0
30
0
70
128
71
5
72
3
73
2
0
VERTEX
8
OBJECT__17
10
0
20
0
30
0
70
128
71
4
72
6
73
5
0
VERTEX
8
OBJECT__17
10
0
20
0
30
0
70
128
71
4
72
7
73
8
0
VERTEX
8
OBJECT__17
10
0
20
0
30
0
70
128
71
7
72
9
73
8
0
VERTEX
8
OBJECT__17
10
0
20
0
30
0
70
128
71
8
72
10
73
4
0
VERTEX
8
OBJECT__17
10
0
20
0
30
0
70
128
71
10
72
6
73
4
0
VERTEX
8
OBJECT__17
10
0
20
0
30
0
70
128
71
3
72
11
73
1
0
SEQEND
8
OBJECT__17
0
POLYLINE
8
OBJECT__18
66
1
70
64
71
6
72
4
62
253
0
VERTEX
8
OBJECT__18
10
0.000000
20
-74.000999
30
-98.500000
70
192
0
VERTEX
8
OBJECT__18
10
0.000000
20
74.000999
30
-98.500000
70
192
0
VERTEX
8
OBJECT__18
10
8.104000
20
4.166000
30
-98.359001
70
192
0
VERTEX
8
OBJECT__18
10
7.583000
20
73.867996
30
-98.367996
70
192
0
VERTEX
8
OBJECT__18
10
7.989000
20
-34.852001
30
-98.361000
70
192
0
VERTEX
8
OBJECT__18
10
7.583000
20
-73.867996
30
-98.367996
70
192
0
VERTEX
8
OBJECT__18
10
0
20
0
30
0
70
128
71
1
72
2
73
3
0
VERTEX
8
OBJECT__18
10
0
20
0
30
0
70
128
71
2
72
4
73
3
0
VERTEX
8
OBJECT__18
10
0
20
0
30
0
70
128
71
3
72
5
73
1
0
VERTEX
8
OBJECT__18
10
0
20
0
30
0
70
128
71
5
72
6
73
1
0
SEQEND
8
OBJECT__18
0
POLYLINE
8
OBJECT__19
66
1
70
64
71
6
72
4
62
253
0
VERTEX
8
OBJECT__19
10
0.000000
20
74.000999
30
98.500000
70
192
0
VERTEX
8
OBJECT__19
10
0.000000
20
-74.000999
30
98.500000
70
192
0
VERTEX
8
OBJECT__19
10
8.103000
20
-4.166000
30
98.359001
70
192
0
VERTEX
8
OBJECT__19
10
7.582000
20
-73.867996
30
98.367996
70
192
0
VERTEX
8
OBJECT__19
10
7.989000
20
34.852001
30
98.361000
70
192
0
VERTEX
8
OBJECT__19
10
7.582000
20
73.867996
30
98.367996
70
192
0
VERTEX
8
OBJECT__19
10
0
20
0
30
0
70
128
71
1
72
2
73
3
0
VERTEX
8
OBJECT__19
10
0
20
0
30
0
70
128
71
2
72
4
73
3
0
VERTEX
8
OBJECT__19
10
0
20
0
30
0
70
128
71
3
72
5
73
1
0
VERTEX
8
OBJECT__19
10
0
20
0
30
0
70
128
71
5
72
6
73
1
0
SEQEND
8
OBJECT__19
0
POLYLINE
8
OBJECT__20
66
1
70
64
71
6
72
4
62
253
0
VERTEX
8
OBJECT__20
10
0.000000
20
78.000000
30
94.500999
70
192
0
VERTEX
8
OBJECT__20
10
8.298000
20
77.855003
30
39.015999
70
192
0
VERTEX
8
OBJECT__20
10
8.418000
20
77.852997
30
-16.334999
70
192
0
VERTEX
8
OBJECT__20
10
0.000000
20
78.000000
30
-94.500999
70
192
0
VERTEX
8
OBJECT__20
10
7.591000
20
77.866997
30
94.367996
70
192
0
VERTEX
8
OBJECT__20
10
7.591000
20
77.866997
30
-94.367996
70
192
0
VERTEX
8
OBJECT__20
10
0
20
0
30
0
70
128
71
1
72
2
73
3
0
VERTEX
8
OBJECT__20
10
0
20
0
30
0
70
128
71
3
72
4
73
1
0
VERTEX
8
OBJECT__20
10
0
20
0
30
0
70
128
71
1
72
5
73
2
0
VERTEX
8
OBJECT__20
10
0
20
0
30
0
70
128
71
3
72
6
73
4
0
SEQEND
8
OBJECT__20
0
POLYLINE
8
OBJECT__21
66
1
70
64
71
6
72
4
62
253
0
VERTEX
8
OBJECT__21
10
0.000000
20
-78.000000
30
-94.500999
70
192
0
VERTEX
8
OBJECT__21
10
8.298000
20
-77.855003
30
-39.015999
70
192
0
VERTEX
8
OBJECT__21
10
8.418000
20
-77.852997
30
16.334999
70
192
0
VERTEX
8
OBJECT__21
10
0.000000
20
-78.000000
30
94.500999
70
192
0
VERTEX
8
OBJECT__21
10
7.591000
20
-77.866997
30
-94.367996
70
192
0
VERTEX
8
OBJECT__21
10
7.591000
20
-77.866997
30
94.367996
70
192
0
VERTEX
8
OBJECT__21
10
0
20
0
30
0
70
128
71
1
72
2
73
3
0
VERTEX
8
OBJECT__21
10
0
20
0
30
0
70
128
71
3
72
4
73
1
0
VERTEX
8
OBJECT__21
10
0
20
0
30
0
70
128
71
1
72
5
73
2
0
VERTEX
8
OBJECT__21
10
0
20
0
30
0
70
128
71
3
72
6
73
4
0
SEQEND
8
OBJECT__21
0
POLYLINE
8
OBJECT__22
66
1
70
64
71
51
72
51
62
253
0
VERTEX
8
OBJECT__22
10
9.100000
20
38.826000
30
-17.285999
70
192
0
VERTEX
8
OBJECT__22
10
9.100000
20
42.500000
30
0.000000
70
192
0
VERTEX
8
OBJECT__22
10
10.462000
20
42.014000
30
-6.333000
70
192
0
VERTEX
8
OBJECT__22
10
10.462000
20
42.014000
30
0.000000
70
192
0
VERTEX
8
OBJECT__22
10
10.462000
20
38.279999
30
-18.434999
70
192
0
VERTEX
8
OBJECT__22
10
10.462000
20
31.146000
30
-28.899000
70
192
0
VERTEX
8
OBJECT__22
10
9.100000
20
28.438000
30
-31.584000
70
192
0
VERTEX
8
OBJECT__22
10
10.462000
20
38.652000
30
-17.231001
70
192
0
VERTEX
8
OBJECT__22
10
9.100000
20
13.133000
30
-40.419998
70
192
0
VERTEX
8
OBJECT__22
10
10.462000
20
21.243999
30
-36.796001
70
192
0
VERTEX
8
OBJECT__22
10
10.462000
20
28.181999
30
-31.263000
70
192
0
VERTEX
8
OBJECT__22
10
9.100000
20
-4.442000
30
-42.266998
70
192
0
VERTEX
8
OBJECT__22
10
10.462000
20
9.454000
30
-41.423000
70
192
0
VERTEX
8
OBJECT__22
10
10.462000
20
12.984000
30
-40.037998
70
192
0
VERTEX
8
OBJECT__22
10
10.462000
20
-3.175000
30
-42.368999
70
192
0
VERTEX
8
OBJECT__22
10
10.462000
20
-4.403000
30
-42.089001
70
192
0
VERTEX
8
OBJECT__22
10
10.462000
20
-15.523000
30
-39.550999
70
192
0
VERTEX
8
OBJECT__22
10
9.100000
20
-21.250000
30
-36.806000
70
192
0
VERTEX
8
OBJECT__22
10
9.100000
20
-34.382999
30
-24.981001
70
192
0
VERTEX
8
OBJECT__22
10
10.462000
20
-26.490999
30
-33.219002
70
192
0
VERTEX
8
OBJECT__22
10
10.462000
20
-21.007000
30
-36.384998
70
192
0
VERTEX
8
OBJECT__22
10
10.462000
20
-35.105000
30
-23.934000
70
192
0
VERTEX
8
OBJECT__22
10
10.462000
20
-40.599998
30
-12.524000
70
192
0
VERTEX
8
OBJECT__22
10
9.100000
20
-41.570999
30
-8.836000
70
192
0
VERTEX
8
OBJECT__22
10
10.462000
20
-34.249001
30
-24.858000
70
192
0
VERTEX
8
OBJECT__22
10
10.462000
20
-41.166000
30
-8.774000
70
192
0
VERTEX
8
OBJECT__22
10
10.462000
20
-42.487999
30
0.000000
70
192
0
VERTEX
8
OBJECT__22
10
9.100000
20
-41.570999
30
8.836000
70
192
0
VERTEX
8
OBJECT__22
10
9.100000
20
-34.382999
30
24.981001
70
192
0
VERTEX
8
OBJECT__22
10
10.462000
20
-40.599998
30
12.524000
70
192
0
VERTEX
8
OBJECT__22
10
10.462000
20
-41.166000
30
8.774000
70
192
0
VERTEX
8
OBJECT__22
10
10.462000
20
-35.105000
30
23.934000
70
192
0
VERTEX
8
OBJECT__22
10
10.462000
20
-34.249001
30
24.858000
70
192
0
VERTEX
8
OBJECT__22
10
10.462000
20
-26.490999
30
33.219002
70
192
0
VERTEX
8
OBJECT__22
10
9.100000
20
-21.250000
30
36.806000
70
192
0
VERTEX
8
OBJECT__22
10
9.100000
20
-4.442000
30
42.266998
70
192
0
VERTEX
8
OBJECT__22
10
10.462000
20
-15.523000
30
39.550999
70
192
0
VERTEX
8
OBJECT__22
10
10.462000
20
-21.007000
30
36.384998
70
192
0
VERTEX
8
OBJECT__22
10
10.462000
20
-3.175000
30
42.368999
70
192
0
VERTEX
8
OBJECT__22
10
10.462000
20
9.454000
30
41.423000
70
192
0
VERTEX
8
OBJECT__22
10
9.100000
20
13.133000
30
40.419998
70
192
0
VERTEX
8
OBJECT__22
10
10.462000
20
-4.403000
30
42.089001
70
192
0
VERTEX
8
OBJECT__22
10
10.462000
20
12.984000
30
40.037998
70
192
0
VERTEX
8
OBJECT__22
10
10.462000
20
21.243999
30
36.796001
70
192
0
VERTEX
8
OBJECT__22
10
9.100000
20
28.438000
30
31.584000
70
192
0
VERTEX
8
OBJECT__22
10
9.100000
20
38.826000
30
17.285999
70
192
0
VERTEX
8
OBJECT__22
10
10.462000
20
31.146000
30
28.899000
70
192
0
VERTEX
8
OBJECT__22
10
10.462000
20
28.181999
30
31.263000
70
192
0
VERTEX
8
OBJECT__22
10
10.462000
20
38.279999
30
18.434999
70
192
0
VERTEX
8
OBJECT__22
10
10.462000
20
38.652000
30
17.231001
70
192
0
VERTEX
8
OBJECT__22
10
10.462000
20
42.014000
30
6.333000
70
192
0
VERTEX
8
OBJECT__22
10
0
20
0
30
0
70
128
71
1
72
2
73
3
0
VERTEX
8
OBJECT__22
10
0
20
0
30
0
70
128
71
2
72
4
73
3
0
VERTEX
8
OBJECT__22
10
0
20
0
30
0
70
128
71
1
72
5
73
6
0
VERTEX
8
OBJECT__22
10
0
20
0
30
0
70
128
71
6
72
7
73
1
0
VERTEX
8
OBJECT__22
10
0
20
0
30
0
70
128
71
1
72
8
73
5
0
VERTEX
8
OBJECT__22
10
0
20
0
30
0
70
128
71
9
72
7
73
10
0
VERTEX
8
OBJECT__22
10
0
20
0
30
0
70
128
71
7
72
11
73
10
0
VERTEX
8
OBJECT__22
10
0
20
0
30
0
70
128
71
12
72
9
73
13
0
VERTEX
8
OBJECT__22
10
0
20
0
30
0
70
128
71
9
72
14
73
13
0
VERTEX
8
OBJECT__22
10
0
20
0
30
0
70
128
71
13
72
15
73
12
0
VERTEX
8
OBJECT__22
10
0
20
0
30
0
70
128
71
12
72
16
73
17
0
VERTEX
8
OBJECT__22
10
0
20
0
30
0
70
128
71
17
72
18
73
12
0
VERTEX
8
OBJECT__22
10
0
20
0
30
0
70
128
71
19
72
18
73
20
0
VERTEX
8
OBJECT__22
10
0
20
0
30
0
70
128
71
18
72
21
73
20
0
VERTEX
8
OBJECT__22
10
0
20
0
30
0
70
128
71
19
72
22
73
23
0
VERTEX
8
OBJECT__22
10
0
20
0
30
0
70
128
71
23
72
24
73
19
0
VERTEX
8
OBJECT__22
10
0
20
0
30
0
70
128
71
19
72
25
73
22
0
VERTEX
8
OBJECT__22
10
0
20
0
30
0
70
128
71
24
72
26
73
27
0
VERTEX
8
OBJECT__22
10
0
20
0
30
0
70
128
71
27
72
28
73
24
0
VERTEX
8
OBJECT__22
10
0
20
0
30
0
70
128
71
29
72
28
73
30
0
VERTEX
8
OBJECT__22
10
0
20
0
30
0
70
128
71
28
72
31
73
30
0
VERTEX
8
OBJECT__22
10
0
20
0
30
0
70
128
71
30
72
32
73
29
0
VERTEX
8
OBJECT__22
10
0
20
0
30
0
70
128
71
29
72
33
73
34
0
VERTEX
8
OBJECT__22
10
0
20
0
30
0
70
128
71
34
72
35
73
29
0
VERTEX
8
OBJECT__22
10
0
20
0
30
0
70
128
71
36
72
35
73
37
0
VERTEX
8
OBJECT__22
10
0
20
0
30
0
70
128
71
35
72
38
73
37
0
VERTEX
8
OBJECT__22
10
0
20
0
30
0
70
128
71
36
72
39
73
40
0
VERTEX
8
OBJECT__22
10
0
20
0
30
0
70
128
71
40
72
41
73
36
0
VERTEX
8
OBJECT__22
10
0
20
0
30
0
70
128
71
36
72
42
73
39
0
VERTEX
8
OBJECT__22
10
0
20
0
30
0
70
128
71
41
72
43
73
44
0
VERTEX
8
OBJECT__22
10
0
20
0
30
0
70
128
71
44
72
45
73
41
0
VERTEX
8
OBJECT__22
10
0
20
0
30
0
70
128
71
46
72
45
73
47
0
VERTEX
8
OBJECT__22
10
0
20
0
30
0
70
128
71
45
72
48
73
47
0
VERTEX
8
OBJECT__22
10
0
20
0
30
0
70
128
71
47
72
49
73
46
0
VERTEX
8
OBJECT__22
10
0
20
0
30
0
70
128
71
46
72
50
73
51
0
VERTEX
8
OBJECT__22
10
0
20
0
30
0
70
128
71
51
72
2
73
46
0
VERTEX
8
OBJECT__22
10
0
20
0
30
0
70
128
71
51
72
4
73
2
0
VERTEX
8
OBJECT__22
10
0
20
0
30
0
70
128
71
49
72
50
73
46
0
VERTEX
8
OBJECT__22
10
0
20
0
30
0
70
128
71
44
72
48
73
45
0
VERTEX
8
OBJECT__22
10
0
20
0
30
0
70
128
71
40
72
43
73
41
0
VERTEX
8
OBJECT__22
10
0
20
0
30
0
70
128
71
37
72
42
73
36
0
VERTEX
8
OBJECT__22
10
0
20
0
30
0
70
128
71
34
72
38
73
35
0
VERTEX
8
OBJECT__22
10
0
20
0
30
0
70
128
71
32
72
33
73
29
0
VERTEX
8
OBJECT__22
10
0
20
0
30
0
70
128
71
27
72
31
73
28
0
VERTEX
8
OBJECT__22
10
0
20
0
30
0
70
128
71
23
72
26
73
24
0
VERTEX
8
OBJECT__22
10
0
20
0
30
0
70
128
71
20
72
25
73
19
0
VERTEX
8
OBJECT__22
10
0
20
0
30
0
70
128
71
17
72
21
73
18
0
VERTEX
8
OBJECT__22
10
0
20
0
30
0
70
128
71
15
72
16
73
12
0
VERTEX
8
OBJECT__22
10
0
20
0
30
0
70
128
71
10
72
14
73
9
0
VERTEX
8
OBJECT__22
10
0
20
0
30
0
70
128
71
6
72
11
73
7
0
VERTEX
8
OBJECT__22
10
0
20
0
30
0
70
128
71
3
72
8
73
1
0
SEQEND
8
OBJECT__22
0
POLYLINE
8
OBJECT__23
66
1
70
64
71
78
72
78
62
253
0
VERTEX
8
OBJECT__23
10
10.648000
20
41.882000
30
6.313000
70
192
0
VERTEX
8
OBJECT__23
10
10.462000
20
42.014000
30
-6.333000
70
192
0
VERTEX
8
OBJECT__23
10
10.461000
20
42.088001
30
0.000000
70
192
0
VERTEX
8
OBJECT__23
10
10.648000
20
41.882000
30
-6.313000
70
192
0
VERTEX
8
OBJECT__23
10
10.648000
20
42.355000
30
0.000000
70
192
0
VERTEX
8
OBJECT__23
10
10.462000
20
-42.487999
30
0.000000
70
192
0
VERTEX
8
OBJECT__23
10
10.462000
20
-41.166000
30
-8.774000
70
192
0
VERTEX
8
OBJECT__23
10
10.648000
20
-41.415001
30
-6.242000
70
192
0
VERTEX
8
OBJECT__23
10
10.648000
20
-40.473999
30
-12.484000
70
192
0
VERTEX
8
OBJECT__23
10
10.462000
20
-40.599998
30
-12.524000
70
192
0
VERTEX
8
OBJECT__23
10
10.462000
20
-35.105000
30
-23.934000
70
192
0
VERTEX
8
OBJECT__23
10
10.648000
20
-37.735001
30
-18.172001
70
192
0
VERTEX
8
OBJECT__23
10
10.648000
20
-34.995998
30
-23.860001
70
192
0
VERTEX
8
OBJECT__23
10
10.462000
20
-34.249001
30
-24.858000
70
192
0
VERTEX
8
OBJECT__23
10
10.462000
20
-26.490999
30
-33.219002
70
192
0
VERTEX
8
OBJECT__23
10
10.648000
20
-26.408001
30
-33.115002
70
192
0
VERTEX
8
OBJECT__23
10
10.648000
20
-30.702000
30
-28.487000
70
192
0
VERTEX
8
OBJECT__23
10
10.462000
20
-21.007000
30
-36.384998
70
192
0
VERTEX
8
OBJECT__23
10
10.648000
20
-20.941000
30
-36.271000
70
192
0
VERTEX
8
OBJECT__23
10
10.462000
20
-15.523000
30
-39.550999
70
192
0
VERTEX
8
OBJECT__23
10
10.648000
20
-15.474000
30
-39.428001
70
192
0
VERTEX
8
OBJECT__23
10
10.462000
20
-4.403000
30
-42.089001
70
192
0
VERTEX
8
OBJECT__23
10
10.648000
20
-9.320000
30
-40.832001
70
192
0
VERTEX
8
OBJECT__23
10
10.648000
20
-3.165000
30
-42.237000
70
192
0
VERTEX
8
OBJECT__23
10
10.462000
20
-3.175000
30
-42.368999
70
192
0
VERTEX
8
OBJECT__23
10
10.462000
20
9.454000
30
-41.423000
70
192
0
VERTEX
8
OBJECT__23
10
10.648000
20
3.130000
30
-41.764999
70
192
0
VERTEX
8
OBJECT__23
10
10.648000
20
9.425000
30
-41.292999
70
192
0
VERTEX
8
OBJECT__23
10
10.462000
20
12.984000
30
-40.037998
70
192
0
VERTEX
8
OBJECT__23
10
10.462000
20
21.243999
30
-36.796001
70
192
0
VERTEX
8
OBJECT__23
10
10.648000
20
21.177999
30
-36.681000
70
192
0
VERTEX
8
OBJECT__23
10
10.648000
20
15.301000
30
-38.987000
70
192
0
VERTEX
8
OBJECT__23
10
10.462000
20
28.181999
30
-31.263000
70
192
0
VERTEX
8
OBJECT__23
10
10.648000
20
26.113001
30
-32.744999
70
192
0
VERTEX
8
OBJECT__23
10
10.648000
20
31.049000
30
-28.809000
70
192
0
VERTEX
8
OBJECT__23
10
10.462000
20
31.146000
30
-28.899000
70
192
0
VERTEX
8
OBJECT__23
10
10.462000
20
38.279999
30
-18.434999
70
192
0
VERTEX
8
OBJECT__23
10
10.648000
20
34.605000
30
-23.593000
70
192
0
VERTEX
8
OBJECT__23
10
10.648000
20
38.160999
30
-18.377001
70
192
0
VERTEX
8
OBJECT__23
10
10.462000
20
38.652000
30
-17.231001
70
192
0
VERTEX
8
OBJECT__23
10
10.648000
20
40.021999
30
-12.345000
70
192
0
VERTEX
8
OBJECT__23
10
10.462000
20
42.014000
30
6.333000
70
192
0
VERTEX
8
OBJECT__23
10
10.462000
20
38.652000
30
17.231001
70
192
0
VERTEX
8
OBJECT__23
10
10.648000
20
40.021999
30
12.345000
70
192
0
VERTEX
8
OBJECT__23
10
10.648000
20
38.160999
30
18.377001
70
192
0
VERTEX
8
OBJECT__23
10
10.462000
20
38.279999
30
18.434999
70
192
0
VERTEX
8
OBJECT__23
10
10.462000
20
31.146000
30
28.899000
70
192
0
VERTEX
8
OBJECT__23
10
10.648000
20
34.605000
30
23.593000
70
192
0
VERTEX
8
OBJECT__23
10
10.648000
20
31.049000
30
28.809000
70
192
0
VERTEX
8
OBJECT__23
10
10.462000
20
28.181999
30
31.263000
70
192
0
VERTEX
8
OBJECT__23
10
10.462000
20
21.243999
30
36.796001
70
192
0
VERTEX
8
OBJECT__23
10
10.648000
20
21.177999
30
36.681000
70
192
0
VERTEX
8
OBJECT__23
10
10.648000
20
26.113001
30
32.744999
70
192
0
VERTEX
8
OBJECT__23
10
10.462000
20
12.984000
30
40.037998
70
192
0
VERTEX
8
OBJECT__23
10
10.648000
20
15.301000
30
38.987000
70
192
0
VERTEX
8
OBJECT__23
10
10.648000
20
9.425000
30
41.292999
70
192
0
VERTEX
8
OBJECT__23
10
10.462000
20
9.454000
30
41.423000
70
192
0
VERTEX
8
OBJECT__23
10
10.462000
20
-3.175000
30
42.368999
70
192
0
VERTEX
8
OBJECT__23
10
10.648000
20
-3.165000
30
42.237000
70
192
0
VERTEX
8
OBJECT__23
10
10.648000
20
3.130000
30
41.764999
70
192
0
VERTEX
8
OBJECT__23
10
10.462000
20
-4.403000
30
42.089001
70
192
0
VERTEX
8
OBJECT__23
10
10.462000
20
-15.523000
30
39.550999
70
192
0
VERTEX
8
OBJECT__23
10
10.648000
20
-15.474000
30
39.428001
70
192
0
VERTEX
8
OBJECT__23
10
10.648000
20
-9.320000
30
40.832001
70
192
0
VERTEX
8
OBJECT__23
10
10.462000
20
-21.007000
30
36.384998
70
192
0
VERTEX
8
OBJECT__23
10
10.648000
20
-20.941000
30
36.271000
70
192
0
VERTEX
8
OBJECT__23
10
10.462000
20
-26.490999
30
33.219002
70
192
0
VERTEX
8
OBJECT__23
10
10.648000
20
-26.408001
30
33.115002
70
192
0
VERTEX
8
OBJECT__23
10
10.462000
20
-34.249001
30
24.858000
70
192
0
VERTEX
8
OBJECT__23
10
10.648000
20
-30.702000
30
28.487000
70
192
0
VERTEX
8
OBJECT__23
10
10.648000
20
-34.995998
30
23.860001
70
192
0
VERTEX
8
OBJECT__23
10
10.462000
20
-35.105000
30
23.934000
70
192
0
VERTEX
8
OBJECT__23
10
10.462000
20
-40.599998
30
12.524000
70
192
0
VERTEX
8
OBJECT__23
10
10.648000
20
-37.735001
30
18.172001
70
192
0
VERTEX
8
OBJECT__23
10
10.648000
20
-40.473999
30
12.484000
70
192
0
VERTEX
8
OBJECT__23
10
10.462000
20
-41.166000
30
8.774000
70
192
0
VERTEX
8
OBJECT__23
10
10.648000
20
-42.355000
30
0.000000
70
192
0
VERTEX
8
OBJECT__23
10
10.648000
20
-41.415001
30
6.242000
70
192
0
VERTEX
8
OBJECT__23
10
0
20
0
30
0
70
128
71
1
72
2
73
3
0
VERTEX
8
OBJECT__23
10
0
20
0
30
0
70
128
71
1
72
4
73
2
0
VERTEX
8
OBJECT__23
10
0
20
0
30
0
70
128
71
1
72
5
73
4
0
VERTEX
8
OBJECT__23
10
0
20
0
30
0
70
128
71
6
72
7
73
8
0
VERTEX
8
OBJECT__23
10
0
20
0
30
0
70
128
71
9
72
8
73
7
0
VERTEX
8
OBJECT__23
10
0
20
0
30
0
70
128
71
7
72
10
73
9
0
VERTEX
8
OBJECT__23
10
0
20
0
30
0
70
128
71
10
72
11
73
12
0
VERTEX
8
OBJECT__23
10
0
20
0
30
0
70
128
71
11
72
13
73
12
0
VERTEX
8
OBJECT__23
10
0
20
0
30
0
70
128
71
13
72
11
73
14
0
VERTEX
8
OBJECT__23
10
0
20
0
30
0
70
128
71
15
72
16
73
17
0
VERTEX
8
OBJECT__23
10
0
20
0
30
0
70
128
71
17
72
14
73
15
0
VERTEX
8
OBJECT__23
10
0
20
0
30
0
70
128
71
18
72
19
73
16
0
VERTEX
8
OBJECT__23
10
0
20
0
30
0
70
128
71
18
72
20
73
21
0
VERTEX
8
OBJECT__23
10
0
20
0
30
0
70
128
71
21
72
19
73
18
0
VERTEX
8
OBJECT__23
10
0
20
0
30
0
70
128
71
20
72
22
73
23
0
VERTEX
8
OBJECT__23
10
0
20
0
30
0
70
128
71
24
72
23
73
22
0
VERTEX
8
OBJECT__23
10
0
20
0
30
0
70
128
71
22
72
25
73
24
0
VERTEX
8
OBJECT__23
10
0
20
0
30
0
70
128
71
25
72
26
73
27
0
VERTEX
8
OBJECT__23
10
0
20
0
30
0
70
128
71
26
72
28
73
27
0
VERTEX
8
OBJECT__23
10
0
20
0
30
0
70
128
71
28
72
26
73
29
0
VERTEX
8
OBJECT__23
10
0
20
0
30
0
70
128
71
30
72
31
73
32
0
VERTEX
8
OBJECT__23
10
0
20
0
30
0
70
128
71
32
72
29
73
30
0
VERTEX
8
OBJECT__23
10
0
20
0
30
0
70
128
71
30
72
33
73
34
0
VERTEX
8
OBJECT__23
10
0
20
0
30
0
70
128
71
35
72
34
73
33
0
VERTEX
8
OBJECT__23
10
0
20
0
30
0
70
128
71
33
72
36
73
35
0
VERTEX
8
OBJECT__23
10
0
20
0
30
0
70
128
71
36
72
37
73
38
0
VERTEX
8
OBJECT__23
10
0
20
0
30
0
70
128
71
37
72
39
73
38
0
VERTEX
8
OBJECT__23
10
0
20
0
30
0
70
128
71
39
72
37
73
40
0
VERTEX
8
OBJECT__23
10
0
20
0
30
0
70
128
71
2
72
4
73
41
0
VERTEX
8
OBJECT__23
10
0
20
0
30
0
70
128
71
41
72
40
73
2
0
VERTEX
8
OBJECT__23
10
0
20
0
30
0
70
128
71
42
72
43
73
44
0
VERTEX
8
OBJECT__23
10
0
20
0
30
0
70
128
71
45
72
44
73
43
0
VERTEX
8
OBJECT__23
10
0
20
0
30
0
70
128
71
43
72
46
73
45
0
VERTEX
8
OBJECT__23
10
0
20
0
30
0
70
128
71
46
72
47
73
48
0
VERTEX
8
OBJECT__23
10
0
20
0
30
0
70
128
71
47
72
49
73
48
0
VERTEX
8
OBJECT__23
10
0
20
0
30
0
70
128
71
49
72
47
73
50
0
VERTEX
8
OBJECT__23
10
0
20
0
30
0
70
128
71
51
72
52
73
53
0
VERTEX
8
OBJECT__23
10
0
20
0
30
0
70
128
71
53
72
50
73
51
0
VERTEX
8
OBJECT__23
10
0
20
0
30
0
70
128
71
51
72
54
73
55
0
VERTEX
8
OBJECT__23
10
0
20
0
30
0
70
128
71
56
72
55
73
54
0
VERTEX
8
OBJECT__23
10
0
20
0
30
0
70
128
71
54
72
57
73
56
0
VERTEX
8
OBJECT__23
10
0
20
0
30
0
70
128
71
58
72
59
73
60
0
VERTEX
8
OBJECT__23
10
0
20
0
30
0
70
128
71
60
72
57
73
58
0
VERTEX
8
OBJECT__23
10
0
20
0
30
0
70
128
71
59
72
58
73
61
0
VERTEX
8
OBJECT__23
10
0
20
0
30
0
70
128
71
62
72
63
73
64
0
VERTEX
8
OBJECT__23
10
0
20
0
30
0
70
128
71
64
72
61
73
62
0
VERTEX
8
OBJECT__23
10
0
20
0
30
0
70
128
71
65
72
66
73
63
0
VERTEX
8
OBJECT__23
10
0
20
0
30
0
70
128
71
65
72
67
73
68
0
VERTEX
8
OBJECT__23
10
0
20
0
30
0
70
128
71
68
72
66
73
65
0
VERTEX
8
OBJECT__23
10
0
20
0
30
0
70
128
71
67
72
69
73
70
0
VERTEX
8
OBJECT__23
10
0
20
0
30
0
70
128
71
71
72
70
73
69
0
VERTEX
8
OBJECT__23
10
0
20
0
30
0
70
128
71
69
72
72
73
71
0
VERTEX
8
OBJECT__23
10
0
20
0
30
0
70
128
71
72
72
73
73
74
0
VERTEX
8
OBJECT__23
10
0
20
0
30
0
70
128
71
73
72
75
73
74
0
VERTEX
8
OBJECT__23
10
0
20
0
30
0
70
128
71
75
72
73
73
76
0
VERTEX
8
OBJECT__23
10
0
20
0
30
0
70
128
71
6
72
77
73
78
0
VERTEX
8
OBJECT__23
10
0
20
0
30
0
70
128
71
78
72
76
73
6
0
VERTEX
8
OBJECT__23
10
0
20
0
30
0
70
128
71
76
72
78
73
75
0
VERTEX
8
OBJECT__23
10
0
20
0
30
0
70
128
71
74
72
71
73
72
0
VERTEX
8
OBJECT__23
10
0
20
0
30
0
70
128
71
70
72
68
73
67
0
VERTEX
8
OBJECT__23
10
0
20
0
30
0
70
128
71
63
72
62
73
65
0
VERTEX
8
OBJECT__23
10
0
20
0
30
0
70
128
71
61
72
64
73
59
0
VERTEX
8
OBJECT__23
10
0
20
0
30
0
70
128
71
60
72
56
73
57
0
VERTEX
8
OBJECT__23
10
0
20
0
30
0
70
128
71
55
72
52
73
51
0
VERTEX
8
OBJECT__23
10
0
20
0
30
0
70
128
71
50
72
53
73
49
0
VERTEX
8
OBJECT__23
10
0
20
0
30
0
70
128
71
48
72
45
73
46
0
VERTEX
8
OBJECT__23
10
0
20
0
30
0
70
128
71
44
72
1
73
42
0
VERTEX
8
OBJECT__23
10
0
20
0
30
0
70
128
71
3
72
42
73
1
0
VERTEX
8
OBJECT__23
10
0
20
0
30
0
70
128
71
40
72
41
73
39
0
VERTEX
8
OBJECT__23
10
0
20
0
30
0
70
128
71
38
72
35
73
36
0
VERTEX
8
OBJECT__23
10
0
20
0
30
0
70
128
71
34
72
31
73
30
0
VERTEX
8
OBJECT__23
10
0
20
0
30
0
70
128
71
29
72
32
73
28
0
VERTEX
8
OBJECT__23
10
0
20
0
30
0
70
128
71
27
72
24
73
25
0
VERTEX
8
OBJECT__23
10
0
20
0
30
0
70
128
71
23
72
21
73
20
0
VERTEX
8
OBJECT__23
10
0
20
0
30
0
70
128
71
16
72
15
73
18
0
VERTEX
8
OBJECT__23
10
0
20
0
30
0
70
128
71
14
72
17
73
13
0
VERTEX
8
OBJECT__23
10
0
20
0
30
0
70
128
71
12
72
9
73
10
0
VERTEX
8
OBJECT__23
10
0
20
0
30
0
70
128
71
8
72
77
73
6
0
SEQEND
8
OBJECT__23
0
POLYLINE
8
OBJECT__25
66
1
70
64
71
82
72
82
62
253
0
VERTEX
8
OBJECT__25
10
10.648000
20
40.021999
30
-12.345000
70
192
0
VERTEX
8
OBJECT__25
10
10.648000
20
41.882000
30
-6.313000
70
192
0
VERTEX
8
OBJECT__25
10
10.648000
20
36.638000
30
-6.114000
70
192
0
VERTEX
8
OBJECT__25
10
10.648000
20
42.355000
30
0.000000
70
192
0
VERTEX
8
OBJECT__25
10
10.648000
20
37.145000
30
0.000000
70
192
0
VERTEX
8
OBJECT__25
10
10.648000
20
34.605000
30
-23.593000
70
192
0
VERTEX
8
OBJECT__25
10
10.648000
20
38.160999
30
-18.377001
70
192
0
VERTEX
8
OBJECT__25
10
10.648000
20
32.667999
30
-17.679001
70
192
0
VERTEX
8
OBJECT__25
10
10.648000
20
35.033001
30
-10.790000
70
192
0
VERTEX
8
OBJECT__25
10
10.648000
20
30.349001
30
-20.658001
70
192
0
VERTEX
8
OBJECT__25
10
10.648000
20
25.157000
30
-27.327999
70
192
0
VERTEX
8
OBJECT__25
10
10.648000
20
31.049000
30
-28.809000
70
192
0
VERTEX
8
OBJECT__25
10
10.648000
20
26.113001
30
-32.744999
70
192
0
VERTEX
8
OBJECT__25
10
10.648000
20
22.973000
30
-28.754999
70
192
0
VERTEX
8
OBJECT__25
10
10.648000
20
14.921000
30
-34.015999
70
192
0
VERTEX
8
OBJECT__25
10
10.648000
20
21.177999
30
-36.681000
70
192
0
VERTEX
8
OBJECT__25
10
10.648000
20
15.301000
30
-38.987000
70
192
0
VERTEX
8
OBJECT__25
10
10.648000
20
13.518000
30
-34.370998
70
192
0
VERTEX
8
OBJECT__25
10
10.648000
20
3.067000
30
-37.018002
70
192
0
VERTEX
8
OBJECT__25
10
10.648000
20
9.425000
30
-41.292999
70
192
0
VERTEX
8
OBJECT__25
10
10.648000
20
3.130000
30
-41.764999
70
192
0
VERTEX
8
OBJECT__25
10
10.648000
20
2.780000
30
-36.993999
70
192
0
VERTEX
8
OBJECT__25
10
10.648000
20
-8.254000
30
-36.080002
70
192
0
VERTEX
8
OBJECT__25
10
10.648000
20
-3.165000
30
-42.237000
70
192
0
VERTEX
8
OBJECT__25
10
10.648000
20
-9.320000
30
-40.832001
70
192
0
VERTEX
8
OBJECT__25
10
10.648000
20
-18.459000
30
-31.910999
70
192
0
VERTEX
8
OBJECT__25
10
10.648000
20
-20.941000
30
-36.271000
70
192
0
VERTEX
8
OBJECT__25
10
10.648000
20
-15.474000
30
-39.428001
70
192
0
VERTEX
8
OBJECT__25
10
10.648000
20
-9.118000
30
-36.007999
70
192
0
VERTEX
8
OBJECT__25
10
10.648000
20
-26.964001
30
-24.976999
70
192
0
VERTEX
8
OBJECT__25
10
10.648000
20
-30.702000
30
-28.487000
70
192
0
VERTEX
8
OBJECT__25
10
10.648000
20
-26.408001
30
-33.115002
70
192
0
VERTEX
8
OBJECT__25
10
10.648000
20
-20.316000
30
-31.096001
70
192
0
VERTEX
8
OBJECT__25
10
10.648000
20
-33.056999
30
-15.895000
70
192
0
VERTEX
8
OBJECT__25
10
10.648000
20
-37.735001
30
-18.172001
70
192
0
VERTEX
8
OBJECT__25
10
10.648000
20
-34.995998
30
-23.860001
70
192
0
VERTEX
8
OBJECT__25
10
10.648000
20
-29.312000
30
-22.815001
70
192
0
VERTEX
8
OBJECT__25
10
10.648000
20
-36.235001
30
-5.453000
70
192
0
VERTEX
8
OBJECT__25
10
10.648000
20
-41.415001
30
-6.242000
70
192
0
VERTEX
8
OBJECT__25
10
10.648000
20
-40.473999
30
-12.484000
70
192
0
VERTEX
8
OBJECT__25
10
10.648000
20
-35.132000
30
-12.061000
70
192
0
VERTEX
8
OBJECT__25
10
10.648000
20
-41.415001
30
6.242000
70
192
0
VERTEX
8
OBJECT__25
10
10.648000
20
-42.355000
30
0.000000
70
192
0
VERTEX
8
OBJECT__25
10
10.648000
20
-37.145000
30
0.000000
70
192
0
VERTEX
8
OBJECT__25
10
10.648000
20
-37.735001
30
18.172001
70
192
0
VERTEX
8
OBJECT__25
10
10.648000
20
-40.473999
30
12.484000
70
192
0
VERTEX
8
OBJECT__25
10
10.648000
20
-35.132000
30
12.061000
70
192
0
VERTEX
8
OBJECT__25
10
10.648000
20
-36.235001
30
5.453000
70
192
0
VERTEX
8
OBJECT__25
10
10.648000
20
-30.702000
30
28.487000
70
192
0
VERTEX
8
OBJECT__25
10
10.648000
20
-34.995998
30
23.860001
70
192
0
VERTEX
8
OBJECT__25
10
10.648000
20
-29.312000
30
22.815001
70
192
0
VERTEX
8
OBJECT__25
10
10.648000
20
-33.056999
30
15.895000
70
192
0
VERTEX
8
OBJECT__25
10
10.648000
20
-26.964001
30
24.976999
70
192
0
VERTEX
8
OBJECT__25
10
10.648000
20
-20.316000
30
31.096001
70
192
0
VERTEX
8
OBJECT__25
10
10.648000
20
-26.408001
30
33.115002
70
192
0
VERTEX
8
OBJECT__25
10
10.648000
20
-20.941000
30
36.271000
70
192
0
VERTEX
8
OBJECT__25
10
10.648000
20
-18.459000
30
31.910999
70
192
0
VERTEX
8
OBJECT__25
10
10.648000
20
-9.118000
30
36.007999
70
192
0
VERTEX
8
OBJECT__25
10
10.648000
20
-15.474000
30
39.428001
70
192
0
VERTEX
8
OBJECT__25
10
10.648000
20
-9.320000
30
40.832001
70
192
0
VERTEX
8
OBJECT__25
10
10.648000
20
2.780000
30
36.993999
70
192
0
VERTEX
8
OBJECT__25
10
10.648000
20
3.130000
30
41.764999
70
192
0
VERTEX
8
OBJECT__25
10
10.648000
20
-3.165000
30
42.237000
70
192
0
VERTEX
8
OBJECT__25
10
10.648000
20
-8.254000
30
36.080002
70
192
0
VERTEX
8
OBJECT__25
10
10.648000
20
13.518000
30
34.370998
70
192
0
VERTEX
8
OBJECT__25
10
10.648000
20
15.301000
30
38.987000
70
192
0
VERTEX
8
OBJECT__25
10
10.648000
20
9.425000
30
41.292999
70
192
0
VERTEX
8
OBJECT__25
10
10.648000
20
3.067000
30
37.018002
70
192
0
VERTEX
8
OBJECT__25
10
10.648000
20
22.973000
30
28.754999
70
192
0
VERTEX
8
OBJECT__25
10
10.648000
20
26.113001
30
32.744999
70
192
0
VERTEX
8
OBJECT__25
10
10.648000
20
21.177999
30
36.681000
70
192
0
VERTEX
8
OBJECT__25
10
10.648000
20
14.921000
30
34.015999
70
192
0
VERTEX
8
OBJECT__25
10
10.648000
20
30.349001
30
20.658001
70
192
0
VERTEX
8
OBJECT__25
10
10.648000
20
34.605000
30
23.593000
70
192
0
VERTEX
8
OBJECT__25
10
10.648000
20
31.049000
30
28.809000
70
192
0
VERTEX
8
OBJECT__25
10
10.648000
20
25.157000
30
27.327999
70
192
0
VERTEX
8
OBJECT__25
10
10.648000
20
35.033001
30
10.790000
70
192
0
VERTEX
8
OBJECT__25
10
10.648000
20
40.021999
30
12.345000
70
192
0
VERTEX
8
OBJECT__25
10
10.648000
20
38.160999
30
18.377001
70
192
0
VERTEX
8
OBJECT__25
10
10.648000
20
32.667999
30
17.679001
70
192
0
VERTEX
8
OBJECT__25
10
10.648000
20
41.882000
30
6.313000
70
192
0
VERTEX
8
OBJECT__25
10
10.648000
20
36.638000
30
6.114000
70
192
0
VERTEX
8
OBJECT__25
10
0
20
0
30
0
70
128
71
1
72
2
73
3
0
VERTEX
8
OBJECT__25
10
0
20
0
30
0
70
128
71
2
72
4
73
5
0
VERTEX
8
OBJECT__25
10
0
20
0
30
0
70
128
71
5
72
3
73
2
0
VERTEX
8
OBJECT__25
10
0
20
0
30
0
70
128
71
6
72
7
73
8
0
VERTEX
8
OBJECT__25
10
0
20
0
30
0
70
128
71
9
72
8
73
7
0
VERTEX
8
OBJECT__25
10
0
20
0
30
0
70
128
71
7
72
1
73
9
0
VERTEX
8
OBJECT__25
10
0
20
0
30
0
70
128
71
10
72
11
73
12
0
VERTEX
8
OBJECT__25
10
0
20
0
30
0
70
128
71
11
72
13
73
12
0
VERTEX
8
OBJECT__25
10
0
20
0
30
0
70
128
71
12
72
6
73
10
0
VERTEX
8
OBJECT__25
10
0
20
0
30
0
70
128
71
14
72
15
73
16
0
VERTEX
8
OBJECT__25
10
0
20
0
30
0
70
128
71
15
72
17
73
16
0
VERTEX
8
OBJECT__25
10
0
20
0
30
0
70
128
71
16
72
13
73
14
0
VERTEX
8
OBJECT__25
10
0
20
0
30
0
70
128
71
18
72
19
73
20
0
VERTEX
8
OBJECT__25
10
0
20
0
30
0
70
128
71
19
72
21
73
20
0
VERTEX
8
OBJECT__25
10
0
20
0
30
0
70
128
71
20
72
17
73
18
0
VERTEX
8
OBJECT__25
10
0
20
0
30
0
70
128
71
22
72
23
73
24
0
VERTEX
8
OBJECT__25
10
0
20
0
30
0
70
128
71
23
72
25
73
24
0
VERTEX
8
OBJECT__25
10
0
20
0
30
0
70
128
71
26
72
27
73
28
0
VERTEX
8
OBJECT__25
10
0
20
0
30
0
70
128
71
28
72
29
73
26
0
VERTEX
8
OBJECT__25
10
0
20
0
30
0
70
128
71
25
72
23
73
29
0
VERTEX
8
OBJECT__25
10
0
20
0
30
0
70
128
71
30
72
31
73
32
0
VERTEX
8
OBJECT__25
10
0
20
0
30
0
70
128
71
32
72
33
73
30
0
VERTEX
8
OBJECT__25
10
0
20
0
30
0
70
128
71
27
72
26
73
33
0
VERTEX
8
OBJECT__25
10
0
20
0
30
0
70
128
71
34
72
35
73
36
0
VERTEX
8
OBJECT__25
10
0
20
0
30
0
70
128
71
31
72
30
73
37
0
VERTEX
8
OBJECT__25
10
0
20
0
30
0
70
128
71
37
72
36
73
31
0
VERTEX
8
OBJECT__25
10
0
20
0
30
0
70
128
71
38
72
39
73
40
0
VERTEX
8
OBJECT__25
10
0
20
0
30
0
70
128
71
35
72
34
73
41
0
VERTEX
8
OBJECT__25
10
0
20
0
30
0
70
128
71
41
72
40
73
35
0
VERTEX
8
OBJECT__25
10
0
20
0
30
0
70
128
71
42
72
43
73
44
0
VERTEX
8
OBJECT__25
10
0
20
0
30
0
70
128
71
39
72
38
73
44
0
VERTEX
8
OBJECT__25
10
0
20
0
30
0
70
128
71
44
72
43
73
39
0
VERTEX
8
OBJECT__25
10
0
20
0
30
0
70
128
71
45
72
46
73
47
0
VERTEX
8
OBJECT__25
10
0
20
0
30
0
70
128
71
48
72
47
73
46
0
VERTEX
8
OBJECT__25
10
0
20
0
30
0
70
128
71
46
72
42
73
48
0
VERTEX
8
OBJECT__25
10
0
20
0
30
0
70
128
71
49
72
50
73
51
0
VERTEX
8
OBJECT__25
10
0
20
0
30
0
70
128
71
52
72
51
73
50
0
VERTEX
8
OBJECT__25
10
0
20
0
30
0
70
128
71
50
72
45
73
52
0
VERTEX
8
OBJECT__25
10
0
20
0
30
0
70
128
71
53
72
54
73
55
0
VERTEX
8
OBJECT__25
10
0
20
0
30
0
70
128
71
54
72
56
73
55
0
VERTEX
8
OBJECT__25
10
0
20
0
30
0
70
128
71
55
72
49
73
53
0
VERTEX
8
OBJECT__25
10
0
20
0
30
0
70
128
71
57
72
58
73
59
0
VERTEX
8
OBJECT__25
10
0
20
0
30
0
70
128
71
58
72
60
73
59
0
VERTEX
8
OBJECT__25
10
0
20
0
30
0
70
128
71
59
72
56
73
57
0
VERTEX
8
OBJECT__25
10
0
20
0
30
0
70
128
71
61
72
62
73
63
0
VERTEX
8
OBJECT__25
10
0
20
0
30
0
70
128
71
63
72
64
73
61
0
VERTEX
8
OBJECT__25
10
0
20
0
30
0
70
128
71
65
72
66
73
67
0
VERTEX
8
OBJECT__25
10
0
20
0
30
0
70
128
71
67
72
68
73
65
0
VERTEX
8
OBJECT__25
10
0
20
0
30
0
70
128
71
62
72
61
73
68
0
VERTEX
8
OBJECT__25
10
0
20
0
30
0
70
128
71
69
72
70
73
71
0
VERTEX
8
OBJECT__25
10
0
20
0
30
0
70
128
71
71
72
72
73
69
0
VERTEX
8
OBJECT__25
10
0
20
0
30
0
70
128
71
66
72
65
73
72
0
VERTEX
8
OBJECT__25
10
0
20
0
30
0
70
128
71
73
72
74
73
75
0
VERTEX
8
OBJECT__25
10
0
20
0
30
0
70
128
71
75
72
76
73
73
0
VERTEX
8
OBJECT__25
10
0
20
0
30
0
70
128
71
70
72
69
73
76
0
VERTEX
8
OBJECT__25
10
0
20
0
30
0
70
128
71
77
72
78
73
79
0
VERTEX
8
OBJECT__25
10
0
20
0
30
0
70
128
71
74
72
73
73
80
0
VERTEX
8
OBJECT__25
10
0
20
0
30
0
70
128
71
80
72
79
73
74
0
VERTEX
8
OBJECT__25
10
0
20
0
30
0
70
128
71
81
72
82
73
5
0
VERTEX
8
OBJECT__25
10
0
20
0
30
0
70
128
71
78
72
77
73
82
0
VERTEX
8
OBJECT__25
10
0
20
0
30
0
70
128
71
82
72
81
73
78
0
VERTEX
8
OBJECT__25
10
0
20
0
30
0
70
128
71
5
72
4
73
81
0
VERTEX
8
OBJECT__25
10
0
20
0
30
0
70
128
71
79
72
80
73
77
0
VERTEX
8
OBJECT__25
10
0
20
0
30
0
70
128
71
75
72
70
73
76
0
VERTEX
8
OBJECT__25
10
0
20
0
30
0
70
128
71
71
72
66
73
72
0
VERTEX
8
OBJECT__25
10
0
20
0
30
0
70
128
71
67
72
62
73
68
0
VERTEX
8
OBJECT__25
10
0
20
0
30
0
70
128
71
63
72
60
73
64
0
VERTEX
8
OBJECT__25
10
0
20
0
30
0
70
128
71
58
72
64
73
60
0
VERTEX
8
OBJECT__25
10
0
20
0
30
0
70
128
71
54
72
57
73
56
0
VERTEX
8
OBJECT__25
10
0
20
0
30
0
70
128
71
51
72
53
73
49
0
VERTEX
8
OBJECT__25
10
0
20
0
30
0
70
128
71
47
72
52
73
45
0
VERTEX
8
OBJECT__25
10
0
20
0
30
0
70
128
71
44
72
48
73
42
0
VERTEX
8
OBJECT__25
10
0
20
0
30
0
70
128
71
40
72
41
73
38
0
VERTEX
8
OBJECT__25
10
0
20
0
30
0
70
128
71
36
72
37
73
34
0
VERTEX
8
OBJECT__25
10
0
20
0
30
0
70
128
71
32
72
27
73
33
0
VERTEX
8
OBJECT__25
10
0
20
0
30
0
70
128
71
28
72
25
73
29
0
VERTEX
8
OBJECT__25
10
0
20
0
30
0
70
128
71
24
72
21
73
22
0
VERTEX
8
OBJECT__25
10
0
20
0
30
0
70
128
71
19
72
22
73
21
0
VERTEX
8
OBJECT__25
10
0
20
0
30
0
70
128
71
15
72
18
73
17
0
VERTEX
8
OBJECT__25
10
0
20
0
30
0
70
128
71
11
72
14
73
13
0
VERTEX
8
OBJECT__25
10
0
20
0
30
0
70
128
71
8
72
10
73
6
0
VERTEX
8
OBJECT__25
10
0
20
0
30
0
70
128
71
3
72
9
73
1
0
SEQEND
8
OBJECT__25
0
POLYLINE
8
OBJECT__26
66
1
70
64
71
72
72
72
62
253
0
VERTEX
8
OBJECT__26
10
10.462000
20
-35.006001
30
-12.018000
70
192
0
VERTEX
8
OBJECT__26
10
10.462000
20
-37.012001
30
0.000000
70
192
0
VERTEX
8
OBJECT__26
10
10.648000
20
-36.235001
30
-5.453000
70
192
0
VERTEX
8
OBJECT__26
10
10.648000
20
-37.145000
30
0.000000
70
192
0
VERTEX
8
OBJECT__26
10
10.648000
20
-33.056999
30
-15.895000
70
192
0
VERTEX
8
OBJECT__26
10
10.648000
20
-29.312000
30
-22.815001
70
192
0
VERTEX
8
OBJECT__26
10
10.462000
20
-29.208000
30
-22.733000
70
192
0
VERTEX
8
OBJECT__26
10
10.462000
20
-32.938999
30
-15.838000
70
192
0
VERTEX
8
OBJECT__26
10
10.648000
20
-35.132000
30
-12.061000
70
192
0
VERTEX
8
OBJECT__26
10
10.648000
20
-26.964001
30
-24.976999
70
192
0
VERTEX
8
OBJECT__26
10
10.648000
20
-20.316000
30
-31.096001
70
192
0
VERTEX
8
OBJECT__26
10
10.462000
20
-22.798000
30
-28.634001
70
192
0
VERTEX
8
OBJECT__26
10
10.462000
20
-20.243999
30
-30.985001
70
192
0
VERTEX
8
OBJECT__26
10
10.462000
20
-9.086000
30
-35.879002
70
192
0
VERTEX
8
OBJECT__26
10
10.648000
20
-18.459000
30
-31.910999
70
192
0
VERTEX
8
OBJECT__26
10
10.648000
20
-8.254000
30
-36.080002
70
192
0
VERTEX
8
OBJECT__26
10
10.462000
20
-8.225000
30
-35.951000
70
192
0
VERTEX
8
OBJECT__26
10
10.648000
20
2.780000
30
-36.993999
70
192
0
VERTEX
8
OBJECT__26
10
10.462000
20
3.056000
30
-36.884998
70
192
0
VERTEX
8
OBJECT__26
10
10.648000
20
3.067000
30
-37.018002
70
192
0
VERTEX
8
OBJECT__26
10
10.648000
20
13.518000
30
-34.370998
70
192
0
VERTEX
8
OBJECT__26
10
10.462000
20
14.868000
30
-33.894001
70
192
0
VERTEX
8
OBJECT__26
10
10.462000
20
8.115000
30
-35.605000
70
192
0
VERTEX
8
OBJECT__26
10
10.648000
20
14.921000
30
-34.015999
70
192
0
VERTEX
8
OBJECT__26
10
10.648000
20
22.973000
30
-28.754999
70
192
0
VERTEX
8
OBJECT__26
10
10.462000
20
22.891001
30
-28.653000
70
192
0
VERTEX
8
OBJECT__26
10
10.648000
20
25.157000
30
-27.327999
70
192
0
VERTEX
8
OBJECT__26
10
10.462000
20
25.066999
30
-27.231001
70
192
0
VERTEX
8
OBJECT__26
10
10.648000
20
30.349001
30
-20.658001
70
192
0
VERTEX
8
OBJECT__26
10
10.462000
20
32.550999
30
-17.615999
70
192
0
VERTEX
8
OBJECT__26
10
10.462000
20
33.112999
30
-15.979000
70
192
0
VERTEX
8
OBJECT__26
10
10.648000
20
32.667999
30
-17.679001
70
192
0
VERTEX
8
OBJECT__26
10
10.648000
20
35.033001
30
-10.790000
70
192
0
VERTEX
8
OBJECT__26
10
10.462000
20
36.507000
30
-6.092000
70
192
0
VERTEX
8
OBJECT__26
10
10.648000
20
36.638000
30
-6.114000
70
192
0
VERTEX
8
OBJECT__26
10
10.648000
20
37.145000
30
0.000000
70
192
0
VERTEX
8
OBJECT__26
10
10.462000
20
37.012001
30
0.000000
70
192
0
VERTEX
8
OBJECT__26
10
10.648000
20
36.638000
30
6.114000
70
192
0
VERTEX
8
OBJECT__26
10
10.462000
20
36.507000
30
6.092000
70
192
0
VERTEX
8
OBJECT__26
10
10.462000
20
33.112999
30
15.979000
70
192
0
VERTEX
8
OBJECT__26
10
10.648000
20
35.033001
30
10.790000
70
192
0
VERTEX
8
OBJECT__26
10
10.648000
20
32.667999
30
17.679001
70
192
0
VERTEX
8
OBJECT__26
10
10.462000
20
32.550999
30
17.615999
70
192
0
VERTEX
8
OBJECT__26
10
10.462000
20
25.066999
30
27.231001
70
192
0
VERTEX
8
OBJECT__26
10
10.648000
20
30.349001
30
20.658001
70
192
0
VERTEX
8
OBJECT__26
10
10.648000
20
22.973000
30
28.754999
70
192
0
VERTEX
8
OBJECT__26
10
10.462000
20
22.891001
30
28.653000
70
192
0
VERTEX
8
OBJECT__26
10
10.648000
20
14.921000
30
34.015999
70
192
0
VERTEX
8
OBJECT__26
10
10.462000
20
14.868000
30
33.894001
70
192
0
VERTEX
8
OBJECT__26
10
10.648000
20
13.518000
30
34.370998
70
192
0
VERTEX
8
OBJECT__26
10
10.648000
20
3.067000
30
37.018002
70
192
0
VERTEX
8
OBJECT__26
10
10.462000
20
8.115000
30
35.605000
70
192
0
VERTEX
8
OBJECT__26
10
10.462000
20
3.056000
30
36.884998
70
192
0
VERTEX
8
OBJECT__26
10
10.462000
20
-8.225000
30
35.951000
70
192
0
VERTEX
8
OBJECT__26
10
10.648000
20
2.780000
30
36.993999
70
192
0
VERTEX
8
OBJECT__26
10
10.648000
20
-8.254000
30
36.080002
70
192
0
VERTEX
8
OBJECT__26
10
10.648000
20
-9.118000
30
36.007999
70
192
0
VERTEX
8
OBJECT__26
10
10.462000
20
-9.086000
30
35.879002
70
192
0
VERTEX
8
OBJECT__26
10
10.648000
20
-18.459000
30
31.910999
70
192
0
VERTEX
8
OBJECT__26
10
10.462000
20
-20.243999
30
30.985001
70
192
0
VERTEX
8
OBJECT__26
10
10.648000
20
-26.964001
30
24.976999
70
192
0
VERTEX
8
OBJECT__26
10
10.462000
20
-29.208000
30
22.733000
70
192
0
VERTEX
8
OBJECT__26
10
10.462000
20
-22.798000
30
28.634001
70
192
0
VERTEX
8
OBJECT__26
10
10.648000
20
-20.316000
30
31.096001
70
192
0
VERTEX
8
OBJECT__26
10
10.648000
20
-29.312000
30
22.815001
70
192
0
VERTEX
8
OBJECT__26
10
10.648000
20
-33.056999
30
15.895000
70
192
0
VERTEX
8
OBJECT__26
10
10.462000
20
-32.938999
30
15.838000
70
192
0
VERTEX
8
OBJECT__26
10
10.648000
20
-35.132000
30
12.061000
70
192
0
VERTEX
8
OBJECT__26
10
10.462000
20
-35.006001
30
12.018000
70
192
0
VERTEX
8
OBJECT__26
10
10.648000
20
-36.235001
30
5.453000
70
192
0
VERTEX
8
OBJECT__26
10
10.648000
20
25.157000
30
27.327999
70
192
0
VERTEX
8
OBJECT__26
10
10.648000
20
-9.118000
30
-36.007999
70
192
0
VERTEX
8
OBJECT__26
10
0
20
0
30
0
70
128
71
1
72
2
73
3
0
VERTEX
8
OBJECT__26
10
0
20
0
30
0
70
128
71
2
72
4
73
3
0
VERTEX
8
OBJECT__26
10
0
20
0
30
0
70
128
71
5
72
6
73
7
0
VERTEX
8
OBJECT__26
10
0
20
0
30
0
70
128
71
5
72
8
73
1
0
VERTEX
8
OBJECT__26
10
0
20
0
30
0
70
128
71
1
72
9
73
5
0
VERTEX
8
OBJECT__26
10
0
20
0
30
0
70
128
71
10
72
11
73
12
0
VERTEX
8
OBJECT__26
10
0
20
0
30
0
70
128
71
7
72
6
73
10
0
VERTEX
8
OBJECT__26
10
0
20
0
30
0
70
128
71
11
72
13
73
12
0
VERTEX
8
OBJECT__26
10
0
20
0
30
0
70
128
71
14
72
13
73
15
0
VERTEX
8
OBJECT__26
10
0
20
0
30
0
70
128
71
13
72
11
73
15
0
VERTEX
8
OBJECT__26
10
0
20
0
30
0
70
128
71
16
72
17
73
14
0
VERTEX
8
OBJECT__26
10
0
20
0
30
0
70
128
71
17
72
16
73
18
0
VERTEX
8
OBJECT__26
10
0
20
0
30
0
70
128
71
18
72
19
73
17
0
VERTEX
8
OBJECT__26
10
0
20
0
30
0
70
128
71
18
72
20
73
19
0
VERTEX
8
OBJECT__26
10
0
20
0
30
0
70
128
71
21
72
22
73
23
0
VERTEX
8
OBJECT__26
10
0
20
0
30
0
70
128
71
23
72
20
73
21
0
VERTEX
8
OBJECT__26
10
0
20
0
30
0
70
128
71
21
72
24
73
22
0
VERTEX
8
OBJECT__26
10
0
20
0
30
0
70
128
71
25
72
26
73
22
0
VERTEX
8
OBJECT__26
10
0
20
0
30
0
70
128
71
25
72
27
73
28
0
VERTEX
8
OBJECT__26
10
0
20
0
30
0
70
128
71
28
72
26
73
25
0
VERTEX
8
OBJECT__26
10
0
20
0
30
0
70
128
71
28
72
27
73
29
0
VERTEX
8
OBJECT__26
10
0
20
0
30
0
70
128
71
29
72
30
73
28
0
VERTEX
8
OBJECT__26
10
0
20
0
30
0
70
128
71
31
72
32
73
33
0
VERTEX
8
OBJECT__26
10
0
20
0
30
0
70
128
71
33
72
34
73
31
0
VERTEX
8
OBJECT__26
10
0
20
0
30
0
70
128
71
33
72
35
73
34
0
VERTEX
8
OBJECT__26
10
0
20
0
30
0
70
128
71
35
72
36
73
37
0
VERTEX
8
OBJECT__26
10
0
20
0
30
0
70
128
71
38
72
39
73
37
0
VERTEX
8
OBJECT__26
10
0
20
0
30
0
70
128
71
37
72
36
73
38
0
VERTEX
8
OBJECT__26
10
0
20
0
30
0
70
128
71
40
72
39
73
41
0
VERTEX
8
OBJECT__26
10
0
20
0
30
0
70
128
71
39
72
38
73
41
0
VERTEX
8
OBJECT__26
10
0
20
0
30
0
70
128
71
42
72
43
73
40
0
VERTEX
8
OBJECT__26
10
0
20
0
30
0
70
128
71
44
72
43
73
45
0
VERTEX
8
OBJECT__26
10
0
20
0
30
0
70
128
71
43
72
42
73
45
0
VERTEX
8
OBJECT__26
10
0
20
0
30
0
70
128
71
46
72
47
73
44
0
VERTEX
8
OBJECT__26
10
0
20
0
30
0
70
128
71
46
72
48
73
49
0
VERTEX
8
OBJECT__26
10
0
20
0
30
0
70
128
71
49
72
47
73
46
0
VERTEX
8
OBJECT__26
10
0
20
0
30
0
70
128
71
50
72
51
73
52
0
VERTEX
8
OBJECT__26
10
0
20
0
30
0
70
128
71
49
72
48
73
50
0
VERTEX
8
OBJECT__26
10
0
20
0
30
0
70
128
71
51
72
53
73
52
0
VERTEX
8
OBJECT__26
10
0
20
0
30
0
70
128
71
54
72
53
73
55
0
VERTEX
8
OBJECT__26
10
0
20
0
30
0
70
128
71
53
72
51
73
55
0
VERTEX
8
OBJECT__26
10
0
20
0
30
0
70
128
71
56
72
57
73
58
0
VERTEX
8
OBJECT__26
10
0
20
0
30
0
70
128
71
58
72
54
73
56
0
VERTEX
8
OBJECT__26
10
0
20
0
30
0
70
128
71
58
72
57
73
59
0
VERTEX
8
OBJECT__26
10
0
20
0
30
0
70
128
71
59
72
60
73
58
0
VERTEX
8
OBJECT__26
10
0
20
0
30
0
70
128
71
61
72
62
73
63
0
VERTEX
8
OBJECT__26
10
0
20
0
30
0
70
128
71
63
72
64
73
61
0
VERTEX
8
OBJECT__26
10
0
20
0
30
0
70
128
71
61
72
65
73
62
0
VERTEX
8
OBJECT__26
10
0
20
0
30
0
70
128
71
66
72
67
73
62
0
VERTEX
8
OBJECT__26
10
0
20
0
30
0
70
128
71
66
72
68
73
69
0
VERTEX
8
OBJECT__26
10
0
20
0
30
0
70
128
71
69
72
67
73
66
0
VERTEX
8
OBJECT__26
10
0
20
0
30
0
70
128
71
69
72
68
73
70
0
VERTEX
8
OBJECT__26
10
0
20
0
30
0
70
128
71
70
72
2
73
69
0
VERTEX
8
OBJECT__26
10
0
20
0
30
0
70
128
71
70
72
4
73
2
0
VERTEX
8
OBJECT__26
10
0
20
0
30
0
70
128
71
62
72
65
73
66
0
VERTEX
8
OBJECT__26
10
0
20
0
30
0
70
128
71
63
72
60
73
64
0
VERTEX
8
OBJECT__26
10
0
20
0
30
0
70
128
71
59
72
64
73
60
0
VERTEX
8
OBJECT__26
10
0
20
0
30
0
70
128
71
55
72
56
73
54
0
VERTEX
8
OBJECT__26
10
0
20
0
30
0
70
128
71
52
72
49
73
50
0
VERTEX
8
OBJECT__26
10
0
20
0
30
0
70
128
71
44
72
71
73
46
0
VERTEX
8
OBJECT__26
10
0
20
0
30
0
70
128
71
45
72
71
73
44
0
VERTEX
8
OBJECT__26
10
0
20
0
30
0
70
128
71
41
72
42
73
40
0
VERTEX
8
OBJECT__26
10
0
20
0
30
0
70
128
71
37
72
34
73
35
0
VERTEX
8
OBJECT__26
10
0
20
0
30
0
70
128
71
31
72
30
73
32
0
VERTEX
8
OBJECT__26
10
0
20
0
30
0
70
128
71
29
72
32
73
30
0
VERTEX
8
OBJECT__26
10
0
20
0
30
0
70
128
71
22
72
24
73
25
0
VERTEX
8
OBJECT__26
10
0
20
0
30
0
70
128
71
23
72
19
73
20
0
VERTEX
8
OBJECT__26
10
0
20
0
30
0
70
128
71
14
72
72
73
16
0
VERTEX
8
OBJECT__26
10
0
20
0
30
0
70
128
71
15
72
72
73
14
0
VERTEX
8
OBJECT__26
10
0
20
0
30
0
70
128
71
12
72
7
73
10
0
VERTEX
8
OBJECT__26
10
0
20
0
30
0
70
128
71
7
72
8
73
5
0
VERTEX
8
OBJECT__26
10
0
20
0
30
0
70
128
71
3
72
9
73
1
0
SEQEND
8
OBJECT__26
0
POLYLINE
8
OBJECT__27
66
1
70
64
71
46
72
46
62
253
0
VERTEX
8
OBJECT__27
10
9.100000
20
-37.000000
30
0.000000
70
192
0
VERTEX
8
OBJECT__27
10
10.462000
20
-37.012001
30
0.000000
70
192
0
VERTEX
8
OBJECT__27
10
10.462000
20
-35.006001
30
-12.018000
70
192
0
VERTEX
8
OBJECT__27
10
9.100000
20
-33.335999
30
-16.054001
70
192
0
VERTEX
8
OBJECT__27
10
9.100000
20
-23.069000
30
-28.927999
70
192
0
VERTEX
8
OBJECT__27
10
10.462000
20
-29.208000
30
-22.733000
70
192
0
VERTEX
8
OBJECT__27
10
10.462000
20
-32.938999
30
-15.838000
70
192
0
VERTEX
8
OBJECT__27
10
9.100000
20
-8.233000
30
-36.071999
70
192
0
VERTEX
8
OBJECT__27
10
10.462000
20
-20.243999
30
-30.985001
70
192
0
VERTEX
8
OBJECT__27
10
10.462000
20
-9.086000
30
-35.879002
70
192
0
VERTEX
8
OBJECT__27
10
10.462000
20
-22.798000
30
-28.634001
70
192
0
VERTEX
8
OBJECT__27
10
10.462000
20
-8.225000
30
-35.951000
70
192
0
VERTEX
8
OBJECT__27
10
10.462000
20
3.056000
30
-36.884998
70
192
0
VERTEX
8
OBJECT__27
10
9.100000
20
8.233000
30
-36.071999
70
192
0
VERTEX
8
OBJECT__27
10
9.100000
20
23.069000
30
-28.927999
70
192
0
VERTEX
8
OBJECT__27
10
10.462000
20
14.868000
30
-33.894001
70
192
0
VERTEX
8
OBJECT__27
10
10.462000
20
8.115000
30
-35.605000
70
192
0
VERTEX
8
OBJECT__27
10
9.100000
20
33.335999
30
-16.054001
70
192
0
VERTEX
8
OBJECT__27
10
10.462000
20
25.066999
30
-27.231001
70
192
0
VERTEX
8
OBJECT__27
10
10.462000
20
32.550999
30
-17.615999
70
192
0
VERTEX
8
OBJECT__27
10
10.462000
20
22.891001
30
-28.653000
70
192
0
VERTEX
8
OBJECT__27
10
10.462000
20
33.112999
30
-15.979000
70
192
0
VERTEX
8
OBJECT__27
10
10.462000
20
36.507000
30
-6.092000
70
192
0
VERTEX
8
OBJECT__27
10
9.100000
20
37.000000
30
0.000000
70
192
0
VERTEX
8
OBJECT__27
10
9.100000
20
33.335999
30
16.054001
70
192
0
VERTEX
8
OBJECT__27
10
10.462000
20
36.507000
30
6.092000
70
192
0
VERTEX
8
OBJECT__27
10
10.462000
20
37.012001
30
0.000000
70
192
0
VERTEX
8
OBJECT__27
10
10.462000
20
32.550999
30
17.615999
70
192
0
VERTEX
8
OBJECT__27
10
10.462000
20
25.066999
30
27.231001
70
192
0
VERTEX
8
OBJECT__27
10
10.462000
20
33.112999
30
15.979000
70
192
0
VERTEX
8
OBJECT__27
10
9.100000
20
23.069000
30
28.927999
70
192
0
VERTEX
8
OBJECT__27
10
10.462000
20
22.891001
30
28.653000
70
192
0
VERTEX
8
OBJECT__27
10
10.462000
20
14.868000
30
33.894001
70
192
0
VERTEX
8
OBJECT__27
10
9.100000
20
8.233000
30
36.071999
70
192
0
VERTEX
8
OBJECT__27
10
9.100000
20
-8.233000
30
36.071999
70
192
0
VERTEX
8
OBJECT__27
10
10.462000
20
3.056000
30
36.884998
70
192
0
VERTEX
8
OBJECT__27
10
10.462000
20
8.115000
30
35.605000
70
192
0
VERTEX
8
OBJECT__27
10
10.462000
20
-9.086000
30
35.879002
70
192
0
VERTEX
8
OBJECT__27
10
10.462000
20
-20.243999
30
30.985001
70
192
0
VERTEX
8
OBJECT__27
10
10.462000
20
-8.225000
30
35.951000
70
192
0
VERTEX
8
OBJECT__27
10
9.100000
20
-23.069000
30
28.927999
70
192
0
VERTEX
8
OBJECT__27
10
10.462000
20
-22.798000
30
28.634001
70
192
0
VERTEX
8
OBJECT__27
10
10.462000
20
-29.208000
30
22.733000
70
192
0
VERTEX
8
OBJECT__27
10
9.100000
20
-33.335999
30
16.054001
70
192
0
VERTEX
8
OBJECT__27
10
10.462000
20
-35.006001
30
12.018000
70
192
0
VERTEX
8
OBJECT__27
10
10.462000
20
-32.938999
30
15.838000
70
192
0
VERTEX
8
OBJECT__27
10
0
20
0
30
0
70
128
71
1
72
2
73
3
0
VERTEX
8
OBJECT__27
10
0
20
0
30
0
70
128
71
3
72
4
73
1
0
VERTEX
8
OBJECT__27
10
0
20
0
30
0
70
128
71
5
72
4
73
6
0
VERTEX
8
OBJECT__27
10
0
20
0
30
0
70
128
71
4
72
7
73
6
0
VERTEX
8
OBJECT__27
10
0
20
0
30
0
70
128
71
8
72
5
73
9
0
VERTEX
8
OBJECT__27
10
0
20
0
30
0
70
128
71
9
72
10
73
8
0
VERTEX
8
OBJECT__27
10
0
20
0
30
0
70
128
71
5
72
11
73
9
0
VERTEX
8
OBJECT__27
10
0
20
0
30
0
70
128
71
8
72
12
73
13
0
VERTEX
8
OBJECT__27
10
0
20
0
30
0
70
128
71
13
72
14
73
8
0
VERTEX
8
OBJECT__27
10
0
20
0
30
0
70
128
71
15
72
14
73
16
0
VERTEX
8
OBJECT__27
10
0
20
0
30
0
70
128
71
14
72
17
73
16
0
VERTEX
8
OBJECT__27
10
0
20
0
30
0
70
128
71
18
72
15
73
19
0
VERTEX
8
OBJECT__27
10
0
20
0
30
0
70
128
71
19
72
20
73
18
0
VERTEX
8
OBJECT__27
10
0
20
0
30
0
70
128
71
15
72
21
73
19
0
VERTEX
8
OBJECT__27
10
0
20
0
30
0
70
128
71
18
72
22
73
23
0
VERTEX
8
OBJECT__27
10
0
20
0
30
0
70
128
71
23
72
24
73
18
0
VERTEX
8
OBJECT__27
10
0
20
0
30
0
70
128
71
25
72
24
73
26
0
VERTEX
8
OBJECT__27
10
0
20
0
30
0
70
128
71
24
72
27
73
26
0
VERTEX
8
OBJECT__27
10
0
20
0
30
0
70
128
71
25
72
28
73
29
0
VERTEX
8
OBJECT__27
10
0
20
0
30
0
70
128
71
25
72
30
73
28
0
VERTEX
8
OBJECT__27
10
0
20
0
30
0
70
128
71
29
72
31
73
25
0
VERTEX
8
OBJECT__27
10
0
20
0
30
0
70
128
71
31
72
32
73
33
0
VERTEX
8
OBJECT__27
10
0
20
0
30
0
70
128
71
33
72
34
73
31
0
VERTEX
8
OBJECT__27
10
0
20
0
30
0
70
128
71
35
72
34
73
36
0
VERTEX
8
OBJECT__27
10
0
20
0
30
0
70
128
71
34
72
37
73
36
0
VERTEX
8
OBJECT__27
10
0
20
0
30
0
70
128
71
35
72
38
73
39
0
VERTEX
8
OBJECT__27
10
0
20
0
30
0
70
128
71
35
72
40
73
38
0
VERTEX
8
OBJECT__27
10
0
20
0
30
0
70
128
71
39
72
41
73
35
0
VERTEX
8
OBJECT__27
10
0
20
0
30
0
70
128
71
41
72
42
73
43
0
VERTEX
8
OBJECT__27
10
0
20
0
30
0
70
128
71
43
72
44
73
41
0
VERTEX
8
OBJECT__27
10
0
20
0
30
0
70
128
71
1
72
44
73
45
0
VERTEX
8
OBJECT__27
10
0
20
0
30
0
70
128
71
44
72
46
73
45
0
VERTEX
8
OBJECT__27
10
0
20
0
30
0
70
128
71
45
72
2
73
1
0
VERTEX
8
OBJECT__27
10
0
20
0
30
0
70
128
71
43
72
46
73
44
0
VERTEX
8
OBJECT__27
10
0
20
0
30
0
70
128
71
39
72
42
73
41
0
VERTEX
8
OBJECT__27
10
0
20
0
30
0
70
128
71
36
72
40
73
35
0
VERTEX
8
OBJECT__27
10
0
20
0
30
0
70
128
71
33
72
37
73
34
0
VERTEX
8
OBJECT__27
10
0
20
0
30
0
70
128
71
29
72
32
73
31
0
VERTEX
8
OBJECT__27
10
0
20
0
30
0
70
128
71
26
72
30
73
25
0
VERTEX
8
OBJECT__27
10
0
20
0
30
0
70
128
71
23
72
27
73
24
0
VERTEX
8
OBJECT__27
10
0
20
0
30
0
70
128
71
20
72
22
73
18
0
VERTEX
8
OBJECT__27
10
0
20
0
30
0
70
128
71
16
72
21
73
15
0
VERTEX
8
OBJECT__27
10
0
20
0
30
0
70
128
71
13
72
17
73
14
0
VERTEX
8
OBJECT__27
10
0
20
0
30
0
70
128
71
10
72
12
73
8
0
VERTEX
8
OBJECT__27
10
0
20
0
30
0
70
128
71
6
72
11
73
5
0
VERTEX
8
OBJECT__27
10
0
20
0
30
0
70
128
71
3
72
7
73
4
0
SEQEND
8
OBJECT__27
0
POLYLINE
8
OBJECT__28
66
1
70
64
71
22
72
20
62
253
0
VERTEX
8
OBJECT__28
10
13.356000
20
-18.377001
30
14.960000
70
192
0
VERTEX
8
OBJECT__28
10
11.805000
20
-26.101999
30
24.216000
70
192
0
VERTEX
8
OBJECT__28
10
11.805000
20
-26.191000
30
24.146999
70
192
0
VERTEX
8
OBJECT__28
10
11.805000
20
-16.941000
30
31.337999
70
192
0
VERTEX
8
OBJECT__28
10
14.195000
20
-10.825000
30
14.975000
70
192
0
VERTEX
8
OBJECT__28
10
11.805000
20
-16.877001
30
31.360001
70
192
0
VERTEX
8
OBJECT__28
10
11.805000
20
-5.858000
30
35.139000
70
192
0
VERTEX
8
OBJECT__28
10
14.195000
20
-8.756000
30
14.975000
70
192
0
VERTEX
8
OBJECT__28
10
14.195000
20
-3.027000
30
14.975000
70
192
0
VERTEX
8
OBJECT__28
10
11.805000
20
-5.836000
30
35.139000
70
192
0
VERTEX
8
OBJECT__28
10
11.805000
20
5.836000
30
35.139000
70
192
0
VERTEX
8
OBJECT__28
10
11.805000
20
5.858000
30
35.139000
70
192
0
VERTEX
8
OBJECT__28
10
14.195000
20
3.027000
30
14.975000
70
192
0
VERTEX
8
OBJECT__28
10
14.195000
20
8.756000
30
14.975000
70
192
0
VERTEX
8
OBJECT__28
10
11.805000
20
16.877001
30
31.360001
70
192
0
VERTEX
8
OBJECT__28
10
11.805000
20
16.941000
30
31.337999
70
192
0
VERTEX
8
OBJECT__28
10
14.195000
20
10.825000
30
14.975000
70
192
0
VERTEX
8
OBJECT__28
10
13.356000
20
18.377001
30
14.960000
70
192
0
VERTEX
8
OBJECT__28
10
11.805000
20
26.101999
30
24.216000
70
192
0
VERTEX
8
OBJECT__28
10
11.805000
20
32.342999
30
14.933000
70
192
0
VERTEX
8
OBJECT__28
10
11.805000
20
26.191000
30
24.146999
70
192
0
VERTEX
8
OBJECT__28
10
11.805000
20
-32.342999
30
14.933000
70
192
0
VERTEX
8
OBJECT__28
10
0
20
0
30
0
70
128
71
1
72
2
73
3
0
VERTEX
8
OBJECT__28
10
0
20
0
30
0
70
128
71
4
72
2
73
1
0
VERTEX
8
OBJECT__28
10
0
20
0
30
0
70
128
71
5
72
6
73
4
0
VERTEX
8
OBJECT__28
10
0
20
0
30
0
70
128
71
1
72
5
73
4
0
VERTEX
8
OBJECT__28
10
0
20
0
30
0
70
128
71
7
72
6
73
8
0
VERTEX
8
OBJECT__28
10
0
20
0
30
0
70
128
71
9
72
10
73
7
0
VERTEX
8
OBJECT__28
10
0
20
0
30
0
70
128
71
11
72
10
73
9
0
VERTEX
8
OBJECT__28
10
0
20
0
30
0
70
128
71
12
72
13
73
14
0
VERTEX
8
OBJECT__28
10
0
20
0
30
0
70
128
71
14
72
15
73
12
0
VERTEX
8
OBJECT__28
10
0
20
0
30
0
70
128
71
16
72
17
73
18
0
VERTEX
8
OBJECT__28
10
0
20
0
30
0
70
128
71
18
72
19
73
16
0
VERTEX
8
OBJECT__28
10
0
20
0
30
0
70
128
71
15
72
14
73
17
0
VERTEX
8
OBJECT__28
10
0
20
0
30
0
70
128
71
18
72
20
73
21
0
VERTEX
8
OBJECT__28
10
0
20
0
30
0
70
128
71
21
72
19
73
18
0
VERTEX
8
OBJECT__28
10
0
20
0
30
0
70
128
71
16
72
15
73
17
0
VERTEX
8
OBJECT__28
10
0
20
0
30
0
70
128
71
12
72
11
73
13
0
VERTEX
8
OBJECT__28
10
0
20
0
30
0
70
128
71
9
72
13
73
11
0
VERTEX
8
OBJECT__28
10
0
20
0
30
0
70
128
71
8
72
9
73
7
0
VERTEX
8
OBJECT__28
10
0
20
0
30
0
70
128
71
5
72
8
73
6
0
VERTEX
8
OBJECT__28
10
0
20
0
30
0
70
128
71
3
72
22
73
1
0
SEQEND
8
OBJECT__28
0
POLYLINE
8
OBJECT__29
66
1
70
64
71
18
72
18
62
253
0
VERTEX
8
OBJECT__29
10
11.661000
20
32.318001
30
14.772000
70
192
0
VERTEX
8
OBJECT__29
10
11.805000
20
32.342999
30
14.933000
70
192
0
VERTEX
8
OBJECT__29
10
13.356000
20
18.377001
30
14.960000
70
192
0
VERTEX
8
OBJECT__29
10
14.118000
20
10.821000
30
14.750000
70
192
0
VERTEX
8
OBJECT__29
10
14.118000
20
-10.821000
30
14.750000
70
192
0
VERTEX
8
OBJECT__29
10
14.195000
20
-3.027000
30
14.975000
70
192
0
VERTEX
8
OBJECT__29
10
14.195000
20
-8.756000
30
14.975000
70
192
0
VERTEX
8
OBJECT__29
10
14.195000
20
3.027000
30
14.975000
70
192
0
VERTEX
8
OBJECT__29
10
14.195000
20
8.756000
30
14.975000
70
192
0
VERTEX
8
OBJECT__29
10
14.195000
20
10.825000
30
14.975000
70
192
0
VERTEX
8
OBJECT__29
10
11.661000
20
-32.318001
30
14.772000
70
192
0
VERTEX
8
OBJECT__29
10
13.356000
20
-18.377001
30
14.960000
70
192
0
VERTEX
8
OBJECT__29
10
14.195000
20
-10.825000
30
14.975000
70
192
0
VERTEX
8
OBJECT__29
10
13.902000
20
10.808000
30
14.652000
70
192
0
VERTEX
8
OBJECT__29
10
13.902000
20
-10.808000
30
14.652000
70
192
0
VERTEX
8
OBJECT__29
10
11.516000
20
-32.292999
30
14.610000
70
192
0
VERTEX
8
OBJECT__29
10
11.516000
20
32.292999
30
14.610000
70
192
0
VERTEX
8
OBJECT__29
10
11.805000
20
-32.342999
30
14.933000
70
192
0
VERTEX
8
OBJECT__29
10
0
20
0
30
0
70
128
71
1
72
2
73
3
0
VERTEX
8
OBJECT__29
10
0
20
0
30
0
70
128
71
3
72
4
73
1
0
VERTEX
8
OBJECT__29
10
0
20
0
30
0
70
128
71
5
72
6
73
7
0
VERTEX
8
OBJECT__29
10
0
20
0
30
0
70
128
71
5
72
4
73
8
0
VERTEX
8
OBJECT__29
10
0
20
0
30
0
70
128
71
4
72
9
73
8
0
VERTEX
8
OBJECT__29
10
0
20
0
30
0
70
128
71
8
72
6
73
5
0
VERTEX
8
OBJECT__29
10
0
20
0
30
0
70
128
71
4
72
10
73
9
0
VERTEX
8
OBJECT__29
10
0
20
0
30
0
70
128
71
11
72
5
73
12
0
VERTEX
8
OBJECT__29
10
0
20
0
30
0
70
128
71
5
72
13
73
12
0
VERTEX
8
OBJECT__29
10
0
20
0
30
0
70
128
71
1
72
4
73
14
0
VERTEX
8
OBJECT__29
10
0
20
0
30
0
70
128
71
5
72
15
73
14
0
VERTEX
8
OBJECT__29
10
0
20
0
30
0
70
128
71
11
72
16
73
15
0
VERTEX
8
OBJECT__29
10
0
20
0
30
0
70
128
71
15
72
5
73
11
0
VERTEX
8
OBJECT__29
10
0
20
0
30
0
70
128
71
14
72
4
73
5
0
VERTEX
8
OBJECT__29
10
0
20
0
30
0
70
128
71
14
72
17
73
1
0
VERTEX
8
OBJECT__29
10
0
20
0
30
0
70
128
71
12
72
18
73
11
0
VERTEX
8
OBJECT__29
10
0
20
0
30
0
70
128
71
7
72
13
73
5
0
VERTEX
8
OBJECT__29
10
0
20
0
30
0
70
128
71
3
72
10
73
4
0
SEQEND
8
OBJECT__29
0
POLYLINE
8
OBJECT__31
66
1
70
64
71
13
72
11
62
253
0
VERTEX
8
OBJECT__31
10
11.129000
20
-32.929001
30
15.028000
70
192
0
VERTEX
8
OBJECT__31
10
11.129000
20
-32.657001
30
14.603000
70
192
0
VERTEX
8
OBJECT__31
10
11.253000
20
-32.631001
30
14.606000
70
192
0
VERTEX
8
OBJECT__31
10
11.346000
20
-32.889000
30
15.023000
70
192
0
VERTEX
8
OBJECT__31
10
11.362000
20
-32.567001
30
14.608000
70
192
0
VERTEX
8
OBJECT__31
10
11.536000
20
-32.785000
30
15.007000
70
192
0
VERTEX
8
OBJECT__31
10
11.449000
20
-32.467999
30
14.609000
70
192
0
VERTEX
8
OBJECT__31
10
11.689000
20
-32.625000
30
14.981000
70
192
0
VERTEX
8
OBJECT__31
10
11.506000
20
-32.335999
30
14.610000
70
192
0
VERTEX
8
OBJECT__31
10
11.516000
20
-32.292999
30
14.610000
70
192
0
VERTEX
8
OBJECT__31
10
11.661000
20
-32.318001
30
14.772000
70
192
0
VERTEX
8
OBJECT__31
10
11.789000
20
-32.412998
30
14.945000
70
192
0
VERTEX
8
OBJECT__31
10
11.805000
20
-32.342999
30
14.933000
70
192
0
VERTEX
8
OBJECT__31
10
0
20
0
30
0
70
128
71
1
72
2
73
3
0
VERTEX
8
OBJECT__31
10
0
20
0
30
0
70
128
71
4
72
3
73
5
0
VERTEX
8
OBJECT__31
10
0
20
0
30
0
70
128
71
6
72
5
73
7
0
VERTEX
8
OBJECT__31
10
0
20
0
30
0
70
128
71
8
72
7
73
9
0
VERTEX
8
OBJECT__31
10
0
20
0
30
0
70
128
71
9
72
10
73
11
0
VERTEX
8
OBJECT__31
10
0
20
0
30
0
70
128
71
11
72
12
73
9
0
VERTEX
8
OBJECT__31
10
0
20
0
30
0
70
128
71
11
72
13
73
12
0
VERTEX
8
OBJECT__31
10
0
20
0
30
0
70
128
71
9
72
12
73
8
0
VERTEX
8
OBJECT__31
10
0
20
0
30
0
70
128
71
7
72
8
73
6
0
VERTEX
8
OBJECT__31
10
0
20
0
30
0
70
128
71
5
72
6
73
4
0
VERTEX
8
OBJECT__31
10
0
20
0
30
0
70
128
71
3
72
4
73
1
0
SEQEND
8
OBJECT__31
0
POLYLINE
8
OBJECT__32
66
1
70
64
71
17
72
15
62
253
0
VERTEX
8
OBJECT__32
10
11.240000
20
32.636002
30
14.605000
70
192
0
VERTEX
8
OBJECT__32
10
11.367000
20
32.563000
30
14.608000
70
192
0
VERTEX
8
OBJECT__32
10
11.465000
20
32.441002
30
14.609000
70
192
0
VERTEX
8
OBJECT__32
10
11.129000
20
-32.657001
30
14.603000
70
192
0
VERTEX
8
OBJECT__32
10
11.449000
20
-32.467999
30
14.609000
70
192
0
VERTEX
8
OBJECT__32
10
11.362000
20
-32.567001
30
14.608000
70
192
0
VERTEX
8
OBJECT__32
10
11.516000
20
32.292999
30
14.610000
70
192
0
VERTEX
8
OBJECT__32
10
11.129000
20
32.657001
30
14.603000
70
192
0
VERTEX
8
OBJECT__32
10
11.506000
20
-32.335999
30
14.610000
70
192
0
VERTEX
8
OBJECT__32
10
8.145000
20
-32.737000
30
14.551000
70
192
0
VERTEX
8
OBJECT__32
10
8.145000
20
32.737000
30
14.551000
70
192
0
VERTEX
8
OBJECT__32
10
13.902000
20
10.808000
30
14.652000
70
192
0
VERTEX
8
OBJECT__32
10
11.516000
20
-32.292999
30
14.610000
70
192
0
VERTEX
8
OBJECT__32
10
13.902000
20
-10.808000
30
14.652000
70
192
0
VERTEX
8
OBJECT__32
10
11.253000
20
-32.631001
30
14.606000
70
192
0
VERTEX
8
OBJECT__32
10
5.200000
20
-32.817001
30
14.500000
70
192
0
VERTEX
8
OBJECT__32
10
5.200000
20
32.817001
30
14.500000
70
192
0
VERTEX
8
OBJECT__32
10
0
20
0
30
0
70
128
71
1
72
2
73
3
0
VERTEX
8
OBJECT__32
10
0
20
0
30
0
70
128
71
4
72
5
73
6
0
VERTEX
8
OBJECT__32
10
0
20
0
30
0
70
128
71
7
72
8
73
1
0
VERTEX
8
OBJECT__32
10
0
20
0
30
0
70
128
71
4
72
9
73
5
0
VERTEX
8
OBJECT__32
10
0
20
0
30
0
70
128
71
10
72
11
73
12
0
VERTEX
8
OBJECT__32
10
0
20
0
30
0
70
128
71
3
72
7
73
1
0
VERTEX
8
OBJECT__32
10
0
20
0
30
0
70
128
71
4
72
13
73
9
0
VERTEX
8
OBJECT__32
10
0
20
0
30
0
70
128
71
12
72
14
73
10
0
VERTEX
8
OBJECT__32
10
0
20
0
30
0
70
128
71
12
72
11
73
8
0
VERTEX
8
OBJECT__32
10
0
20
0
30
0
70
128
71
6
72
15
73
4
0
VERTEX
8
OBJECT__32
10
0
20
0
30
0
70
128
71
7
72
12
73
8
0
VERTEX
8
OBJECT__32
10
0
20
0
30
0
70
128
71
14
72
13
73
10
0
VERTEX
8
OBJECT__32
10
0
20
0
30
0
70
128
71
4
72
10
73
13
0
VERTEX
8
OBJECT__32
10
0
20
0
30
0
70
128
71
16
72
17
73
11
0
VERTEX
8
OBJECT__32
10
0
20
0
30
0
70
128
71
10
72
16
73
11
0
SEQEND
8
OBJECT__32
0
POLYLINE
8
OBJECT__33
66
1
70
64
71
11
72
9
62
253
0
VERTEX
8
OBJECT__33
10
11.465000
20
32.441002
30
14.609000
70
192
0
VERTEX
8
OBJECT__33
10
11.717000
20
32.582001
30
14.974000
70
192
0
VERTEX
8
OBJECT__33
10
11.661000
20
32.318001
30
14.772000
70
192
0
VERTEX
8
OBJECT__33
10
11.805000
20
32.342999
30
14.933000
70
192
0
VERTEX
8
OBJECT__33
10
11.545000
20
32.778999
30
15.006000
70
192
0
VERTEX
8
OBJECT__33
10
11.323000
20
32.896999
30
15.024000
70
192
0
VERTEX
8
OBJECT__33
10
11.367000
20
32.563000
30
14.608000
70
192
0
VERTEX
8
OBJECT__33
10
11.129000
20
32.929001
30
15.028000
70
192
0
VERTEX
8
OBJECT__33
10
11.240000
20
32.636002
30
14.605000
70
192
0
VERTEX
8
OBJECT__33
10
11.129000
20
32.657001
30
14.603000
70
192
0
VERTEX
8
OBJECT__33
10
11.516000
20
32.292999
30
14.610000
70
192
0
VERTEX
8
OBJECT__33
10
0
20
0
30
0
70
128
71
1
72
2
73
3
0
VERTEX
8
OBJECT__33
10
0
20
0
30
0
70
128
71
2
72
4
73
3
0
VERTEX
8
OBJECT__33
10
0
20
0
30
0
70
128
71
5
72
2
73
1
0
VERTEX
8
OBJECT__33
10
0
20
0
30
0
70
128
71
6
72
5
73
7
0
VERTEX
8
OBJECT__33
10
0
20
0
30
0
70
128
71
8
72
6
73
9
0
VERTEX
8
OBJECT__33
10
0
20
0
30
0
70
128
71
9
72
10
73
8
0
VERTEX
8
OBJECT__33
10
0
20
0
30
0
70
128
71
7
72
9
73
6
0
VERTEX
8
OBJECT__33
10
0
20
0
30
0
70
128
71
1
72
7
73
5
0
VERTEX
8
OBJECT__33
10
0
20
0
30
0
70
128
71
3
72
11
73
1
0
SEQEND
8
OBJECT__33
0
POLYLINE
8
OBJECT__34
66
1
70
64
71
33
72
31
62
253
0
VERTEX
8
OBJECT__34
10
11.805000
20
-16.941000
30
31.337999
70
192
0
VERTEX
8
OBJECT__34
10
11.129000
20
-17.212999
30
31.841999
70
192
0
VERTEX
8
OBJECT__34
10
11.129000
20
-22.934000
30
27.393999
70
192
0
VERTEX
8
OBJECT__34
10
11.805000
20
-26.101999
30
24.216000
70
192
0
VERTEX
8
OBJECT__34
10
11.129000
20
-26.612000
30
24.535000
70
192
0
VERTEX
8
OBJECT__34
10
11.805000
20
-26.191000
30
24.146999
70
192
0
VERTEX
8
OBJECT__34
10
11.805000
20
-16.877001
30
31.360001
70
192
0
VERTEX
8
OBJECT__34
10
11.805000
20
-5.858000
30
35.139000
70
192
0
VERTEX
8
OBJECT__34
10
11.129000
20
-8.225000
30
34.924000
70
192
0
VERTEX
8
OBJECT__34
10
11.129000
20
-5.952000
30
35.703999
70
192
0
VERTEX
8
OBJECT__34
10
11.129000
20
5.952000
30
35.703999
70
192
0
VERTEX
8
OBJECT__34
10
11.805000
20
-5.836000
30
35.139000
70
192
0
VERTEX
8
OBJECT__34
10
11.805000
20
5.836000
30
35.139000
70
192
0
VERTEX
8
OBJECT__34
10
11.805000
20
16.877001
30
31.360001
70
192
0
VERTEX
8
OBJECT__34
10
11.129000
20
17.212999
30
31.841999
70
192
0
VERTEX
8
OBJECT__34
10
11.129000
20
8.225000
30
34.924000
70
192
0
VERTEX
8
OBJECT__34
10
11.805000
20
5.858000
30
35.139000
70
192
0
VERTEX
8
OBJECT__34
10
11.805000
20
16.941000
30
31.337999
70
192
0
VERTEX
8
OBJECT__34
10
11.805000
20
26.101999
30
24.216000
70
192
0
VERTEX
8
OBJECT__34
10
11.129000
20
22.934000
30
27.393999
70
192
0
VERTEX
8
OBJECT__34
10
11.129000
20
26.612000
30
24.535000
70
192
0
VERTEX
8
OBJECT__34
10
11.789000
20
-32.412998
30
14.945000
70
192
0
VERTEX
8
OBJECT__34
10
11.805000
20
-32.342999
30
14.933000
70
192
0
VERTEX
8
OBJECT__34
10
11.536000
20
-32.785000
30
15.007000
70
192
0
VERTEX
8
OBJECT__34
10
11.689000
20
-32.625000
30
14.981000
70
192
0
VERTEX
8
OBJECT__34
10
11.129000
20
-32.929001
30
15.028000
70
192
0
VERTEX
8
OBJECT__34
10
11.346000
20
-32.889000
30
15.023000
70
192
0
VERTEX
8
OBJECT__34
10
11.545000
20
32.778999
30
15.006000
70
192
0
VERTEX
8
OBJECT__34
10
11.323000
20
32.896999
30
15.024000
70
192
0
VERTEX
8
OBJECT__34
10
11.805000
20
26.191000
30
24.146999
70
192
0
VERTEX
8
OBJECT__34
10
11.805000
20
32.342999
30
14.933000
70
192
0
VERTEX
8
OBJECT__34
10
11.717000
20
32.582001
30
14.974000
70
192
0
VERTEX
8
OBJECT__34
10
11.129000
20
32.929001
30
15.028000
70
192
0
VERTEX
8
OBJECT__34
10
0
20
0
30
0
70
128
71
1
72
2
73
3
0
VERTEX
8
OBJECT__34
10
0
20
0
30
0
70
128
71
3
72
4
73
1
0
VERTEX
8
OBJECT__34
10
0
20
0
30
0
70
128
71
5
72
6
73
4
0
VERTEX
8
OBJECT__34
10
0
20
0
30
0
70
128
71
7
72
8
73
9
0
VERTEX
8
OBJECT__34
10
0
20
0
30
0
70
128
71
8
72
10
73
9
0
VERTEX
8
OBJECT__34
10
0
20
0
30
0
70
128
71
2
72
1
73
7
0
VERTEX
8
OBJECT__34
10
0
20
0
30
0
70
128
71
11
72
10
73
12
0
VERTEX
8
OBJECT__34
10
0
20
0
30
0
70
128
71
12
72
13
73
11
0
VERTEX
8
OBJECT__34
10
0
20
0
30
0
70
128
71
10
72
8
73
12
0
VERTEX
8
OBJECT__34
10
0
20
0
30
0
70
128
71
14
72
15
73
16
0
VERTEX
8
OBJECT__34
10
0
20
0
30
0
70
128
71
16
72
17
73
14
0
VERTEX
8
OBJECT__34
10
0
20
0
30
0
70
128
71
16
72
11
73
17
0
VERTEX
8
OBJECT__34
10
0
20
0
30
0
70
128
71
18
72
19
73
20
0
VERTEX
8
OBJECT__34
10
0
20
0
30
0
70
128
71
19
72
21
73
20
0
VERTEX
8
OBJECT__34
10
0
20
0
30
0
70
128
71
20
72
15
73
18
0
VERTEX
8
OBJECT__34
10
0
20
0
30
0
70
128
71
5
72
22
73
23
0
VERTEX
8
OBJECT__34
10
0
20
0
30
0
70
128
71
5
72
24
73
25
0
VERTEX
8
OBJECT__34
10
0
20
0
30
0
70
128
71
5
72
26
73
27
0
VERTEX
8
OBJECT__34
10
0
20
0
30
0
70
128
71
27
72
24
73
5
0
VERTEX
8
OBJECT__34
10
0
20
0
30
0
70
128
71
25
72
22
73
5
0
VERTEX
8
OBJECT__34
10
0
20
0
30
0
70
128
71
21
72
28
73
29
0
VERTEX
8
OBJECT__34
10
0
20
0
30
0
70
128
71
21
72
30
73
31
0
VERTEX
8
OBJECT__34
10
0
20
0
30
0
70
128
71
31
72
32
73
21
0
VERTEX
8
OBJECT__34
10
0
20
0
30
0
70
128
71
32
72
28
73
21
0
VERTEX
8
OBJECT__34
10
0
20
0
30
0
70
128
71
29
72
33
73
21
0
VERTEX
8
OBJECT__34
10
0
20
0
30
0
70
128
71
23
72
6
73
5
0
VERTEX
8
OBJECT__34
10
0
20
0
30
0
70
128
71
19
72
30
73
21
0
VERTEX
8
OBJECT__34
10
0
20
0
30
0
70
128
71
14
72
18
73
15
0
VERTEX
8
OBJECT__34
10
0
20
0
30
0
70
128
71
13
72
17
73
11
0
VERTEX
8
OBJECT__34
10
0
20
0
30
0
70
128
71
9
72
2
73
7
0
VERTEX
8
OBJECT__34
10
0
20
0
30
0
70
128
71
3
72
5
73
4
0
SEQEND
8
OBJECT__34
0
POLYLINE
8
OBJECT__35
66
1
70
64
71
7
72
5
62
253
0
VERTEX
8
OBJECT__35
10
11.129000
20
-32.657001
30
14.603000
70
192
0
VERTEX
8
OBJECT__35
10
11.129000
20
-32.929001
30
15.028000
70
192
0
VERTEX
8
OBJECT__35
10
8.145000
20
-33.011002
30
14.975000
70
192
0
VERTEX
8
OBJECT__35
10
8.145000
20
-32.737000
30
14.551000
70
192
0
VERTEX
8
OBJECT__35
10
5.200000
20
-33.110001
30
14.734000
70
192
0
VERTEX
8
OBJECT__35
10
5.200000
20
-33.091000
30
14.923000
70
192
0
VERTEX
8
OBJECT__35
10
5.200000
20
-32.817001
30
14.500000
70
192
0
VERTEX
8
OBJECT__35
10
0
20
0
30
0
70
128
71
1
72
2
73
3
0
VERTEX
8
OBJECT__35
10
0
20
0
30
0
70
128
71
4
72
3
73
5
0
VERTEX
8
OBJECT__35
10
0
20
0
30
0
70
128
71
3
72
6
73
5
0
VERTEX
8
OBJECT__35
10
0
20
0
30
0
70
128
71
5
72
7
73
4
0
VERTEX
8
OBJECT__35
10
0
20
0
30
0
70
128
71
3
72
4
73
1
0
SEQEND
8
OBJECT__35
0
POLYLINE
8
OBJECT__36
66
1
70
64
71
8
72
6
62
253
0
VERTEX
8
OBJECT__36
10
11.129000
20
32.657001
30
14.603000
70
192
0
VERTEX
8
OBJECT__36
10
8.145000
20
32.737000
30
14.551000
70
192
0
VERTEX
8
OBJECT__36
10
8.145000
20
33.011002
30
14.975000
70
192
0
VERTEX
8
OBJECT__36
10
5.200000
20
32.997002
30
14.560000
70
192
0
VERTEX
8
OBJECT__36
10
5.200000
20
32.908001
30
14.514000
70
192
0
VERTEX
8
OBJECT__36
10
5.200000
20
32.817001
30
14.500000
70
192
0
VERTEX
8
OBJECT__36
10
5.200000
20
33.091000
30
14.923000
70
192
0
VERTEX
8
OBJECT__36
10
11.129000
20
32.929001
30
15.028000
70
192
0
VERTEX
8
OBJECT__36
10
0
20
0
30
0
70
128
71
1
72
2
73
3
0
VERTEX
8
OBJECT__36
10
0
20
0
30
0
70
128
71
3
72
2
73
4
0
VERTEX
8
OBJECT__36
10
0
20
0
30
0
70
128
71
2
72
5
73
4
0
VERTEX
8
OBJECT__36
10
0
20
0
30
0
70
128
71
2
72
6
73
5
0
VERTEX
8
OBJECT__36
10
0
20
0
30
0
70
128
71
4
72
7
73
3
0
VERTEX
8
OBJECT__36
10
0
20
0
30
0
70
128
71
3
72
8
73
1
0
SEQEND
8
OBJECT__36
0
POLYLINE
8
OBJECT__37
66
1
70
64
71
22
72
20
62
253
0
VERTEX
8
OBJECT__37
10
5.200000
20
-8.353000
30
35.326000
70
192
0
VERTEX
8
OBJECT__37
10
5.200000
20
-23.289000
30
27.844999
70
192
0
VERTEX
8
OBJECT__37
10
11.129000
20
-17.212999
30
31.841999
70
192
0
VERTEX
8
OBJECT__37
10
11.129000
20
-22.934000
30
27.393999
70
192
0
VERTEX
8
OBJECT__37
10
11.129000
20
-5.952000
30
35.703999
70
192
0
VERTEX
8
OBJECT__37
10
11.129000
20
5.952000
30
35.703999
70
192
0
VERTEX
8
OBJECT__37
10
5.200000
20
1.989000
30
36.244999
70
192
0
VERTEX
8
OBJECT__37
10
5.200000
20
8.353000
30
35.326000
70
192
0
VERTEX
8
OBJECT__37
10
5.200000
20
-1.989000
30
36.244999
70
192
0
VERTEX
8
OBJECT__37
10
11.129000
20
-8.225000
30
34.924000
70
192
0
VERTEX
8
OBJECT__37
10
11.129000
20
8.225000
30
34.924000
70
192
0
VERTEX
8
OBJECT__37
10
11.129000
20
17.212999
30
31.841999
70
192
0
VERTEX
8
OBJECT__37
10
5.200000
20
23.289000
30
27.844999
70
192
0
VERTEX
8
OBJECT__37
10
8.145000
20
33.011002
30
14.975000
70
192
0
VERTEX
8
OBJECT__37
10
11.129000
20
26.612000
30
24.535000
70
192
0
VERTEX
8
OBJECT__37
10
11.129000
20
32.929001
30
15.028000
70
192
0
VERTEX
8
OBJECT__37
10
11.129000
20
22.934000
30
27.393999
70
192
0
VERTEX
8
OBJECT__37
10
8.145000
20
-33.011002
30
14.975000
70
192
0
VERTEX
8
OBJECT__37
10
11.129000
20
-32.929001
30
15.028000
70
192
0
VERTEX
8
OBJECT__37
10
11.129000
20
-26.612000
30
24.535000
70
192
0
VERTEX
8
OBJECT__37
10
5.200000
20
-33.091000
30
14.923000
70
192
0
VERTEX
8
OBJECT__37
10
5.200000
20
33.091000
30
14.923000
70
192
0
VERTEX
8
OBJECT__37
10
0
20
0
30
0
70
128
71
1
72
2
73
3
0
VERTEX
8
OBJECT__37
10
0
20
0
30
0
70
128
71
2
72
4
73
3
0
VERTEX
8
OBJECT__37
10
0
20
0
30
0
70
128
71
5
72
6
73
7
0
VERTEX
8
OBJECT__37
10
0
20
0
30
0
70
128
71
6
72
8
73
7
0
VERTEX
8
OBJECT__37
10
0
20
0
30
0
70
128
71
7
72
9
73
5
0
VERTEX
8
OBJECT__37
10
0
20
0
30
0
70
128
71
1
72
10
73
5
0
VERTEX
8
OBJECT__37
10
0
20
0
30
0
70
128
71
9
72
1
73
5
0
VERTEX
8
OBJECT__37
10
0
20
0
30
0
70
128
71
8
72
11
73
12
0
VERTEX
8
OBJECT__37
10
0
20
0
30
0
70
128
71
12
72
13
73
8
0
VERTEX
8
OBJECT__37
10
0
20
0
30
0
70
128
71
14
72
13
73
15
0
VERTEX
8
OBJECT__37
10
0
20
0
30
0
70
128
71
15
72
16
73
14
0
VERTEX
8
OBJECT__37
10
0
20
0
30
0
70
128
71
13
72
17
73
15
0
VERTEX
8
OBJECT__37
10
0
20
0
30
0
70
128
71
18
72
19
73
20
0
VERTEX
8
OBJECT__37
10
0
20
0
30
0
70
128
71
2
72
21
73
18
0
VERTEX
8
OBJECT__37
10
0
20
0
30
0
70
128
71
20
72
2
73
18
0
VERTEX
8
OBJECT__37
10
0
20
0
30
0
70
128
71
20
72
4
73
2
0
VERTEX
8
OBJECT__37
10
0
20
0
30
0
70
128
71
14
72
22
73
13
0
VERTEX
8
OBJECT__37
10
0
20
0
30
0
70
128
71
12
72
17
73
13
0
VERTEX
8
OBJECT__37
10
0
20
0
30
0
70
128
71
6
72
11
73
8
0
VERTEX
8
OBJECT__37
10
0
20
0
30
0
70
128
71
3
72
10
73
1
0
SEQEND
8
OBJECT__37
0
POLYLINE
8
OBJECT__38
66
1
70
64
71
50
72
48
62
253
0
VERTEX
8
OBJECT__38
10
2.000000
20
-70.000000
30
-58.665001
70
192
0
VERTEX
8
OBJECT__38
10
2.000000
20
-70.000000
30
-64.728996
70
192
0
VERTEX
8
OBJECT__38
10
2.000000
20
70.000000
30
-64.728996
70
192
0
VERTEX
8
OBJECT__38
10
2.000000
20
74.964996
30
-95.964996
70
192
0
VERTEX
8
OBJECT__38
10
2.000000
20
70.196999
30
-65.078003
70
192
0
VERTEX
8
OBJECT__38
10
2.000000
20
-70.196999
30
-65.078003
70
192
0
VERTEX
8
OBJECT__38
10
2.000000
20
70.000000
30
-58.665001
70
192
0
VERTEX
8
OBJECT__38
10
2.000000
20
70.199997
30
-58.465000
70
192
0
VERTEX
8
OBJECT__38
10
2.000000
20
4.827000
30
92.019997
70
192
0
VERTEX
8
OBJECT__38
10
2.000000
20
-75.464996
30
91.820000
70
192
0
VERTEX
8
OBJECT__38
10
2.000000
20
-61.270000
30
91.829002
70
192
0
VERTEX
8
OBJECT__38
10
2.000000
20
-61.472000
30
92.220001
70
192
0
VERTEX
8
OBJECT__38
10
2.000000
20
-74.964996
30
-95.964996
70
192
0
VERTEX
8
OBJECT__38
10
2.000000
20
-4.827000
30
92.019997
70
192
0
VERTEX
8
OBJECT__38
10
2.000000
20
-70.199997
30
-58.465000
70
192
0
VERTEX
8
OBJECT__38
10
2.000000
20
-75.262001
30
92.220001
70
192
0
VERTEX
8
OBJECT__38
10
2.000000
20
-75.464996
30
-58.264999
70
192
0
VERTEX
8
OBJECT__38
10
2.000000
20
-60.764999
30
91.000000
70
192
0
VERTEX
8
OBJECT__38
10
2.000000
20
-60.959999
30
91.000000
70
192
0
VERTEX
8
OBJECT__38
10
2.000000
20
-60.465000
30
91.300003
70
192
0
VERTEX
8
OBJECT__38
10
2.000000
20
-5.386000
30
95.964996
70
192
0
VERTEX
8
OBJECT__38
10
2.000000
20
-60.264999
30
95.964996
70
192
0
VERTEX
8
OBJECT__38
10
2.000000
20
-75.264999
30
-58.465000
70
192
0
VERTEX
8
OBJECT__38
10
2.000000
20
75.464996
30
91.814003
70
192
0
VERTEX
8
OBJECT__38
10
2.000000
20
75.262001
30
92.220001
70
192
0
VERTEX
8
OBJECT__38
10
2.000000
20
61.472000
30
92.220001
70
192
0
VERTEX
8
OBJECT__38
10
2.000000
20
-75.464996
30
91.814003
70
192
0
VERTEX
8
OBJECT__38
10
2.000000
20
-61.259998
30
91.294998
70
192
0
VERTEX
8
OBJECT__38
10
2.000000
20
-5.187000
30
95.773003
70
192
0
VERTEX
8
OBJECT__38
10
2.000000
20
-75.464996
30
-65.584999
70
192
0
VERTEX
8
OBJECT__38
10
2.000000
20
-75.464996
30
-95.464996
70
192
0
VERTEX
8
OBJECT__38
10
2.000000
20
75.264999
30
-58.465000
70
192
0
VERTEX
8
OBJECT__38
10
2.000000
20
5.386000
30
95.964996
70
192
0
VERTEX
8
OBJECT__38
10
2.000000
20
60.465000
30
91.300003
70
192
0
VERTEX
8
OBJECT__38
10
2.000000
20
60.465000
30
95.764999
70
192
0
VERTEX
8
OBJECT__38
10
2.000000
20
75.464996
30
-58.264999
70
192
0
VERTEX
8
OBJECT__38
10
2.000000
20
61.259998
30
91.294998
70
192
0
VERTEX
8
OBJECT__38
10
2.000000
20
61.270000
30
91.829002
70
192
0
VERTEX
8
OBJECT__38
10
2.000000
20
-5.040000
30
92.411003
70
192
0
VERTEX
8
OBJECT__38
10
2.000000
20
-75.264999
30
-65.232002
70
192
0
VERTEX
8
OBJECT__38
10
2.000000
20
75.464996
30
-95.464996
70
192
0
VERTEX
8
OBJECT__38
10
2.000000
20
60.264999
30
95.964996
70
192
0
VERTEX
8
OBJECT__38
10
2.000000
20
60.959999
30
91.000000
70
192
0
VERTEX
8
OBJECT__38
10
2.000000
20
75.264999
30
92.220001
70
192
0
VERTEX
8
OBJECT__38
10
2.000000
20
75.464996
30
-65.584999
70
192
0
VERTEX
8
OBJECT__38
10
2.000000
20
5.187000
30
95.773003
70
192
0
VERTEX
8
OBJECT__38
10
2.000000
20
60.764999
30
91.000000
70
192
0
VERTEX
8
OBJECT__38
10
2.000000
20
-60.465000
30
95.764999
70
192
0
VERTEX
8
OBJECT__38
10
2.000000
20
75.264999
30
-65.232002
70
192
0
VERTEX
8
OBJECT__38
10
2.000000
20
5.040000
30
92.411003
70
192
0
VERTEX
8
OBJECT__38
10
0
20
0
30
0
70
128
71
1
72
2
73
3
0
VERTEX
8
OBJECT__38
10
0
20
0
30
0
70
128
71
2
72
4
73
5
0
VERTEX
8
OBJECT__38
10
0
20
0
30
0
70
128
71
4
72
2
73
6
0
VERTEX
8
OBJECT__38
10
0
20
0
30
0
70
128
71
5
72
3
73
2
0
VERTEX
8
OBJECT__38
10
0
20
0
30
0
70
128
71
3
72
7
73
1
0
VERTEX
8
OBJECT__38
10
0
20
0
30
0
70
128
71
1
72
8
73
9
0
VERTEX
8
OBJECT__38
10
0
20
0
30
0
70
128
71
10
72
11
73
12
0
VERTEX
8
OBJECT__38
10
0
20
0
30
0
70
128
71
6
72
13
73
4
0
VERTEX
8
OBJECT__38
10
0
20
0
30
0
70
128
71
14
72
15
73
1
0
VERTEX
8
OBJECT__38
10
0
20
0
30
0
70
128
71
12
72
16
73
10
0
VERTEX
8
OBJECT__38
10
0
20
0
30
0
70
128
71
17
72
18
73
19
0
VERTEX
8
OBJECT__38
10
0
20
0
30
0
70
128
71
20
72
21
73
22
0
VERTEX
8
OBJECT__38
10
0
20
0
30
0
70
128
71
9
72
14
73
1
0
VERTEX
8
OBJECT__38
10
0
20
0
30
0
70
128
71
14
72
17
73
23
0
VERTEX
8
OBJECT__38
10
0
20
0
30
0
70
128
71
24
72
25
73
26
0
VERTEX
8
OBJECT__38
10
0
20
0
30
0
70
128
71
27
72
28
73
11
0
VERTEX
8
OBJECT__38
10
0
20
0
30
0
70
128
71
19
72
27
73
17
0
VERTEX
8
OBJECT__38
10
0
20
0
30
0
70
128
71
19
72
28
73
27
0
VERTEX
8
OBJECT__38
10
0
20
0
30
0
70
128
71
20
72
29
73
21
0
VERTEX
8
OBJECT__38
10
0
20
0
30
0
70
128
71
6
72
30
73
31
0
VERTEX
8
OBJECT__38
10
0
20
0
30
0
70
128
71
9
72
8
73
32
0
VERTEX
8
OBJECT__38
10
0
20
0
30
0
70
128
71
23
72
15
73
14
0
VERTEX
8
OBJECT__38
10
0
20
0
30
0
70
128
71
33
72
34
73
35
0
VERTEX
8
OBJECT__38
10
0
20
0
30
0
70
128
71
36
72
24
73
37
0
VERTEX
8
OBJECT__38
10
0
20
0
30
0
70
128
71
26
72
38
73
24
0
VERTEX
8
OBJECT__38
10
0
20
0
30
0
70
128
71
14
72
20
73
18
0
VERTEX
8
OBJECT__38
10
0
20
0
30
0
70
128
71
20
72
39
73
29
0
VERTEX
8
OBJECT__38
10
0
20
0
30
0
70
128
71
6
72
40
73
30
0
VERTEX
8
OBJECT__38
10
0
20
0
30
0
70
128
71
7
72
8
73
1
0
VERTEX
8
OBJECT__38
10
0
20
0
30
0
70
128
71
5
72
4
73
41
0
VERTEX
8
OBJECT__38
10
0
20
0
30
0
70
128
71
35
72
42
73
33
0
VERTEX
8
OBJECT__38
10
0
20
0
30
0
70
128
71
37
72
43
73
36
0
VERTEX
8
OBJECT__38
10
0
20
0
30
0
70
128
71
24
72
44
73
25
0
VERTEX
8
OBJECT__38
10
0
20
0
30
0
70
128
71
18
72
17
73
14
0
VERTEX
8
OBJECT__38
10
0
20
0
30
0
70
128
71
20
72
14
73
39
0
VERTEX
8
OBJECT__38
10
0
20
0
30
0
70
128
71
32
72
36
73
9
0
VERTEX
8
OBJECT__38
10
0
20
0
30
0
70
128
71
41
72
45
73
5
0
VERTEX
8
OBJECT__38
10
0
20
0
30
0
70
128
71
33
72
46
73
34
0
VERTEX
8
OBJECT__38
10
0
20
0
30
0
70
128
71
9
72
36
73
47
0
VERTEX
8
OBJECT__38
10
0
20
0
30
0
70
128
71
38
72
37
73
24
0
VERTEX
8
OBJECT__38
10
0
20
0
30
0
70
128
71
22
72
48
73
20
0
VERTEX
8
OBJECT__38
10
0
20
0
30
0
70
128
71
45
72
49
73
5
0
VERTEX
8
OBJECT__38
10
0
20
0
30
0
70
128
71
46
72
50
73
34
0
VERTEX
8
OBJECT__38
10
0
20
0
30
0
70
128
71
43
72
47
73
36
0
VERTEX
8
OBJECT__38
10
0
20
0
30
0
70
128
71
31
72
13
73
6
0
VERTEX
8
OBJECT__38
10
0
20
0
30
0
70
128
71
47
72
34
73
9
0
VERTEX
8
OBJECT__38
10
0
20
0
30
0
70
128
71
50
72
9
73
34
0
VERTEX
8
OBJECT__38
10
0
20
0
30
0
70
128
71
10
72
27
73
11
0
SEQEND
8
OBJECT__38
0
POLYLINE
8
OBJECT__40
66
1
70
64
71
42
72
56
62
253
0
VERTEX
8
OBJECT__40
10
11.805000
20
-11.562000
30
-33.695000
70
192
0
VERTEX
8
OBJECT__40
10
11.805000
20
0.000000
30
-35.624001
70
192
0
VERTEX
8
OBJECT__40
10
14.250000
20
0.000000
30
-17.886000
70
192
0
VERTEX
8
OBJECT__40
10
14.250000
20
-5.808000
30
-16.917000
70
192
0
VERTEX
8
OBJECT__40
10
11.805000
20
-11.567000
30
-33.693001
70
192
0
VERTEX
8
OBJECT__40
10
11.805000
20
-21.872000
30
-28.118000
70
192
0
VERTEX
8
OBJECT__40
10
11.805000
20
-29.815001
30
-19.497000
70
192
0
VERTEX
8
OBJECT__40
10
14.250000
20
-10.986000
30
-14.115000
70
192
0
VERTEX
8
OBJECT__40
10
11.805000
20
-34.528999
30
-8.765000
70
192
0
VERTEX
8
OBJECT__40
10
14.250000
20
-14.974000
30
-9.783000
70
192
0
VERTEX
8
OBJECT__40
10
11.805000
20
-35.504002
30
2.916000
70
192
0
VERTEX
8
OBJECT__40
10
14.250000
20
-17.339001
30
-4.391000
70
192
0
VERTEX
8
OBJECT__40
10
11.805000
20
35.504002
30
2.916000
70
192
0
VERTEX
8
OBJECT__40
10
14.250000
20
17.825001
30
1.477000
70
192
0
VERTEX
8
OBJECT__40
10
14.250000
20
17.339001
30
-4.391000
70
192
0
VERTEX
8
OBJECT__40
10
11.805000
20
34.528999
30
-8.765000
70
192
0
VERTEX
8
OBJECT__40
10
14.250000
20
14.974000
30
-9.783000
70
192
0
VERTEX
8
OBJECT__40
10
11.805000
20
29.815001
30
-19.497000
70
192
0
VERTEX
8
OBJECT__40
10
14.250000
20
10.986000
30
-14.115000
70
192
0
VERTEX
8
OBJECT__40
10
11.805000
20
21.872000
30
-28.118000
70
192
0
VERTEX
8
OBJECT__40
10
14.250000
20
5.808000
30
-16.917000
70
192
0
VERTEX
8
OBJECT__40
10
11.805000
20
11.562000
30
-33.695000
70
192
0
VERTEX
8
OBJECT__40
10
11.937000
20
31.805000
30
13.508000
70
192
0
VERTEX
8
OBJECT__40
10
14.250000
20
16.379999
30
7.185000
70
192
0
VERTEX
8
OBJECT__40
10
11.805000
20
32.962002
30
13.510000
70
192
0
VERTEX
8
OBJECT__40
10
13.660000
20
16.613001
30
13.478000
70
192
0
VERTEX
8
OBJECT__40
10
15.067000
20
0.000000
30
0.000000
70
192
0
VERTEX
8
OBJECT__40
10
14.250000
20
13.159000
30
12.114000
70
192
0
VERTEX
8
OBJECT__40
10
14.239000
20
11.512000
30
13.468000
70
192
0
VERTEX
8
OBJECT__40
10
14.293000
20
11.034000
30
13.467000
70
192
0
VERTEX
8
OBJECT__40
10
14.293000
20
-11.034000
30
13.467000
70
192
0
VERTEX
8
OBJECT__40
10
14.239000
20
-11.512000
30
13.468000
70
192
0
VERTEX
8
OBJECT__40
10
14.293000
20
-8.286000
30
13.467000
70
192
0
VERTEX
8
OBJECT__40
10
14.250000
20
-16.379999
30
7.185000
70
192
0
VERTEX
8
OBJECT__40
10
14.250000
20
-13.159000
30
12.114000
70
192
0
VERTEX
8
OBJECT__40
10
13.660000
20
-16.613001
30
13.478000
70
192
0
VERTEX
8
OBJECT__40
10
11.937000
20
-31.805000
30
13.508000
70
192
0
VERTEX
8
OBJECT__40
10
14.250000
20
-17.825001
30
1.477000
70
192
0
VERTEX
8
OBJECT__40
10
11.805000
20
-32.962002
30
13.510000
70
192
0
VERTEX
8
OBJECT__40
10
14.293000
20
-2.866000
30
13.467000
70
192
0
VERTEX
8
OBJECT__40
10
14.293000
20
2.866000
30
13.467000
70
192
0
VERTEX
8
OBJECT__40
10
14.293000
20
8.286000
30
13.467000
70
192
0
VERTEX
8
OBJECT__40
10
0
20
0
30
0
70
128
71
1
72
2
73
3
0
VERTEX
8
OBJECT__40
10
0
20
0
30
0
70
128
71
4
72
5
73
1
0
VERTEX
8
OBJECT__40
10
0
20
0
30
0
70
128
71
6
72
5
73
4
0
VERTEX
8
OBJECT__40
10
0
20
0
30
0
70
128
71
7
72
6
73
8
0
VERTEX
8
OBJECT__40
10
0
20
0
30
0
70
128
71
9
72
7
73
10
0
VERTEX
8
OBJECT__40
10
0
20
0
30
0
70
128
71
11
72
9
73
12
0
VERTEX
8
OBJECT__40
10
0
20
0
30
0
70
128
71
13
72
14
73
15
0
VERTEX
8
OBJECT__40
10
0
20
0
30
0
70
128
71
16
72
15
73
17
0
VERTEX
8
OBJECT__40
10
0
20
0
30
0
70
128
71
18
72
17
73
19
0
VERTEX
8
OBJECT__40
10
0
20
0
30
0
70
128
71
20
72
19
73
21
0
VERTEX
8
OBJECT__40
10
0
20
0
30
0
70
128
71
22
72
21
73
3
0
VERTEX
8
OBJECT__40
10
0
20
0
30
0
70
128
71
23
72
24
73
14
0
VERTEX
8
OBJECT__40
10
0
20
0
30
0
70
128
71
13
72
25
73
23
0
VERTEX
8
OBJECT__40
10
0
20
0
30
0
70
128
71
24
72
23
73
26
0
VERTEX
8
OBJECT__40
10
0
20
0
30
0
70
128
71
27
72
28
73
29
0
VERTEX
8
OBJECT__40
10
0
20
0
30
0
70
128
71
29
72
30
73
27
0
VERTEX
8
OBJECT__40
10
0
20
0
30
0
70
128
71
27
72
31
73
32
0
VERTEX
8
OBJECT__40
10
0
20
0
30
0
70
128
71
27
72
33
73
31
0
VERTEX
8
OBJECT__40
10
0
20
0
30
0
70
128
71
34
72
35
73
36
0
VERTEX
8
OBJECT__40
10
0
20
0
30
0
70
128
71
37
72
11
73
38
0
VERTEX
8
OBJECT__40
10
0
20
0
30
0
70
128
71
38
72
34
73
37
0
VERTEX
8
OBJECT__40
10
0
20
0
30
0
70
128
71
37
72
39
73
11
0
VERTEX
8
OBJECT__40
10
0
20
0
30
0
70
128
71
36
72
37
73
34
0
VERTEX
8
OBJECT__40
10
0
20
0
30
0
70
128
71
36
72
35
73
32
0
VERTEX
8
OBJECT__40
10
0
20
0
30
0
70
128
71
32
72
35
73
27
0
VERTEX
8
OBJECT__40
10
0
20
0
30
0
70
128
71
33
72
27
73
40
0
VERTEX
8
OBJECT__40
10
0
20
0
30
0
70
128
71
40
72
27
73
41
0
VERTEX
8
OBJECT__40
10
0
20
0
30
0
70
128
71
41
72
27
73
42
0
VERTEX
8
OBJECT__40
10
0
20
0
30
0
70
128
71
30
72
42
73
27
0
VERTEX
8
OBJECT__40
10
0
20
0
30
0
70
128
71
29
72
28
73
26
0
VERTEX
8
OBJECT__40
10
0
20
0
30
0
70
128
71
26
72
28
73
24
0
VERTEX
8
OBJECT__40
10
0
20
0
30
0
70
128
71
14
72
13
73
23
0
VERTEX
8
OBJECT__40
10
0
20
0
30
0
70
128
71
3
72
2
73
22
0
VERTEX
8
OBJECT__40
10
0
20
0
30
0
70
128
71
21
72
22
73
20
0
VERTEX
8
OBJECT__40
10
0
20
0
30
0
70
128
71
19
72
20
73
18
0
VERTEX
8
OBJECT__40
10
0
20
0
30
0
70
128
71
17
72
18
73
16
0
VERTEX
8
OBJECT__40
10
0
20
0
30
0
70
128
71
15
72
16
73
13
0
VERTEX
8
OBJECT__40
10
0
20
0
30
0
70
128
71
12
72
38
73
11
0
VERTEX
8
OBJECT__40
10
0
20
0
30
0
70
128
71
10
72
12
73
9
0
VERTEX
8
OBJECT__40
10
0
20
0
30
0
70
128
71
8
72
10
73
7
0
VERTEX
8
OBJECT__40
10
0
20
0
30
0
70
128
71
4
72
8
73
6
0
VERTEX
8
OBJECT__40
10
0
20
0
30
0
70
128
71
3
72
4
73
1
0
VERTEX
8
OBJECT__40
10
0
20
0
30
0
70
128
71
3
72
21
73
27
0
VERTEX
8
OBJECT__40
10
0
20
0
30
0
70
128
71
21
72
19
73
27
0
VERTEX
8
OBJECT__40
10
0
20
0
30
0
70
128
71
19
72
17
73
27
0
VERTEX
8
OBJECT__40
10
0
20
0
30
0
70
128
71
17
72
15
73
27
0
VERTEX
8
OBJECT__40
10
0
20
0
30
0
70
128
71
15
72
14
73
27
0
VERTEX
8
OBJECT__40
10
0
20
0
30
0
70
128
71
14
72
24
73
27
0
VERTEX
8
OBJECT__40
10
0
20
0
30
0
70
128
71
24
72
28
73
27
0
VERTEX
8
OBJECT__40
10
0
20
0
30
0
70
128
71
35
72
34
73
27
0
VERTEX
8
OBJECT__40
10
0
20
0
30
0
70
128
71
34
72
38
73
27
0
VERTEX
8
OBJECT__40
10
0
20
0
30
0
70
128
71
38
72
12
73
27
0
VERTEX
8
OBJECT__40
10
0
20
0
30
0
70
128
71
12
72
10
73
27
0
VERTEX
8
OBJECT__40
10
0
20
0
30
0
70
128
71
10
72
8
73
27
0
VERTEX
8
OBJECT__40
10
0
20
0
30
0
70
128
71
8
72
4
73
27
0
VERTEX
8
OBJECT__40
10
0
20
0
30
0
70
128
71
4
72
3
73
27
0
SEQEND
8
OBJECT__40
0
POLYLINE
8
OBJECT__41
66
1
70
64
71
18
72
16
62
253
0
VERTEX
8
OBJECT__41
10
14.000000
20
-11.017000
30
13.746000
70
192
0
VERTEX
8
OBJECT__41
10
13.660000
20
-16.613001
30
13.478000
70
192
0
VERTEX
8
OBJECT__41
10
14.239000
20
-11.512000
30
13.468000
70
192
0
VERTEX
8
OBJECT__41
10
11.516000
20
-32.911999
30
13.790000
70
192
0
VERTEX
8
OBJECT__41
10
11.937000
20
-31.805000
30
13.508000
70
192
0
VERTEX
8
OBJECT__41
10
11.805000
20
-32.962002
30
13.510000
70
192
0
VERTEX
8
OBJECT__41
10
14.000000
20
11.017000
30
13.746000
70
192
0
VERTEX
8
OBJECT__41
10
14.293000
20
2.866000
30
13.467000
70
192
0
VERTEX
8
OBJECT__41
10
14.293000
20
8.286000
30
13.467000
70
192
0
VERTEX
8
OBJECT__41
10
14.293000
20
-2.866000
30
13.467000
70
192
0
VERTEX
8
OBJECT__41
10
14.293000
20
-11.034000
30
13.467000
70
192
0
VERTEX
8
OBJECT__41
10
14.293000
20
-8.286000
30
13.467000
70
192
0
VERTEX
8
OBJECT__41
10
11.516000
20
32.911999
30
13.790000
70
192
0
VERTEX
8
OBJECT__41
10
13.660000
20
16.613001
30
13.478000
70
192
0
VERTEX
8
OBJECT__41
10
11.937000
20
31.805000
30
13.508000
70
192
0
VERTEX
8
OBJECT__41
10
14.293000
20
11.034000
30
13.467000
70
192
0
VERTEX
8
OBJECT__41
10
14.239000
20
11.512000
30
13.468000
70
192
0
VERTEX
8
OBJECT__41
10
11.805000
20
32.962002
30
13.510000
70
192
0
VERTEX
8
OBJECT__41
10
0
20
0
30
0
70
128
71
1
72
2
73
3
0
VERTEX
8
OBJECT__41
10
0
20
0
30
0
70
128
71
4
72
5
73
2
0
VERTEX
8
OBJECT__41
10
0
20
0
30
0
70
128
71
4
72
6
73
5
0
VERTEX
8
OBJECT__41
10
0
20
0
30
0
70
128
71
2
72
1
73
4
0
VERTEX
8
OBJECT__41
10
0
20
0
30
0
70
128
71
7
72
8
73
9
0
VERTEX
8
OBJECT__41
10
0
20
0
30
0
70
128
71
7
72
1
73
10
0
VERTEX
8
OBJECT__41
10
0
20
0
30
0
70
128
71
10
72
8
73
7
0
VERTEX
8
OBJECT__41
10
0
20
0
30
0
70
128
71
1
72
11
73
12
0
VERTEX
8
OBJECT__41
10
0
20
0
30
0
70
128
71
12
72
10
73
1
0
VERTEX
8
OBJECT__41
10
0
20
0
30
0
70
128
71
13
72
7
73
14
0
VERTEX
8
OBJECT__41
10
0
20
0
30
0
70
128
71
14
72
15
73
13
0
VERTEX
8
OBJECT__41
10
0
20
0
30
0
70
128
71
7
72
16
73
17
0
VERTEX
8
OBJECT__41
10
0
20
0
30
0
70
128
71
17
72
14
73
7
0
VERTEX
8
OBJECT__41
10
0
20
0
30
0
70
128
71
15
72
18
73
13
0
VERTEX
8
OBJECT__41
10
0
20
0
30
0
70
128
71
9
72
16
73
7
0
VERTEX
8
OBJECT__41
10
0
20
0
30
0
70
128
71
3
72
11
73
1
0
SEQEND
8
OBJECT__41
0
POLYLINE
8
OBJECT__43
66
1
70
64
71
12
72
10
62
253
0
VERTEX
8
OBJECT__43
10
11.347000
20
-33.501999
30
13.601000
70
192
0
VERTEX
8
OBJECT__43
10
11.254000
20
-33.240002
30
13.794000
70
192
0
VERTEX
8
OBJECT__43
10
11.129000
20
-33.263000
30
13.797000
70
192
0
VERTEX
8
OBJECT__43
10
11.539000
20
-33.398998
30
13.583000
70
192
0
VERTEX
8
OBJECT__43
10
11.364000
20
-33.176998
30
13.792000
70
192
0
VERTEX
8
OBJECT__43
10
11.691000
20
-33.238998
30
13.556000
70
192
0
VERTEX
8
OBJECT__43
10
11.450000
20
-33.080002
30
13.791000
70
192
0
VERTEX
8
OBJECT__43
10
11.790000
20
-33.029999
30
13.521000
70
192
0
VERTEX
8
OBJECT__43
10
11.507000
20
-32.952999
30
13.790000
70
192
0
VERTEX
8
OBJECT__43
10
11.516000
20
-32.911999
30
13.790000
70
192
0
VERTEX
8
OBJECT__43
10
11.805000
20
-32.962002
30
13.510000
70
192
0
VERTEX
8
OBJECT__43
10
11.129000
20
-33.541000
30
13.609000
70
192
0
VERTEX
8
OBJECT__43
10
0
20
0
30
0
70
128
71
1
72
2
73
3
0
VERTEX
8
OBJECT__43
10
0
20
0
30
0
70
128
71
4
72
5
73
2
0
VERTEX
8
OBJECT__43
10
0
20
0
30
0
70
128
71
6
72
7
73
5
0
VERTEX
8
OBJECT__43
10
0
20
0
30
0
70
128
71
8
72
9
73
7
0
VERTEX
8
OBJECT__43
10
0
20
0
30
0
70
128
71
10
72
9
73
8
0
VERTEX
8
OBJECT__43
10
0
20
0
30
0
70
128
71
8
72
11
73
10
0
VERTEX
8
OBJECT__43
10
0
20
0
30
0
70
128
71
7
72
6
73
8
0
VERTEX
8
OBJECT__43
10
0
20
0
30
0
70
128
71
5
72
4
73
6
0
VERTEX
8
OBJECT__43
10
0
20
0
30
0
70
128
71
2
72
1
73
4
0
VERTEX
8
OBJECT__43
10
0
20
0
30
0
70
128
71
3
72
12
73
1
0
SEQEND
8
OBJECT__43
0
POLYLINE
8
OBJECT__44
66
1
70
64
71
17
72
15
62
253
0
VERTEX
8
OBJECT__44
10
11.467000
20
33.053001
30
13.791000
70
192
0
VERTEX
8
OBJECT__44
10
11.373000
20
33.169998
30
13.792000
70
192
0
VERTEX
8
OBJECT__44
10
11.251000
20
33.241001
30
13.794000
70
192
0
VERTEX
8
OBJECT__44
10
11.129000
20
33.263000
30
13.797000
70
192
0
VERTEX
8
OBJECT__44
10
11.516000
20
32.911999
30
13.790000
70
192
0
VERTEX
8
OBJECT__44
10
14.000000
20
11.017000
30
13.746000
70
192
0
VERTEX
8
OBJECT__44
10
11.129000
20
-33.263000
30
13.797000
70
192
0
VERTEX
8
OBJECT__44
10
11.254000
20
-33.240002
30
13.794000
70
192
0
VERTEX
8
OBJECT__44
10
11.364000
20
-33.176998
30
13.792000
70
192
0
VERTEX
8
OBJECT__44
10
8.146000
20
33.298000
30
13.849000
70
192
0
VERTEX
8
OBJECT__44
10
8.146000
20
-33.298000
30
13.849000
70
192
0
VERTEX
8
OBJECT__44
10
14.000000
20
-11.017000
30
13.746000
70
192
0
VERTEX
8
OBJECT__44
10
11.450000
20
-33.080002
30
13.791000
70
192
0
VERTEX
8
OBJECT__44
10
11.507000
20
-32.952999
30
13.790000
70
192
0
VERTEX
8
OBJECT__44
10
11.516000
20
-32.911999
30
13.790000
70
192
0
VERTEX
8
OBJECT__44
10
5.200000
20
-33.332001
30
13.900000
70
192
0
VERTEX
8
OBJECT__44
10
5.200000
20
33.332001
30
13.900000
70
192
0
VERTEX
8
OBJECT__44
10
0
20
0
30
0
70
128
71
1
72
2
73
3
0
VERTEX
8
OBJECT__44
10
0
20
0
30
0
70
128
71
4
72
5
73
1
0
VERTEX
8
OBJECT__44
10
0
20
0
30
0
70
128
71
4
72
6
73
5
0
VERTEX
8
OBJECT__44
10
0
20
0
30
0
70
128
71
7
72
8
73
9
0
VERTEX
8
OBJECT__44
10
0
20
0
30
0
70
128
71
3
72
4
73
1
0
VERTEX
8
OBJECT__44
10
0
20
0
30
0
70
128
71
10
72
11
73
12
0
VERTEX
8
OBJECT__44
10
0
20
0
30
0
70
128
71
9
72
13
73
7
0
VERTEX
8
OBJECT__44
10
0
20
0
30
0
70
128
71
12
72
6
73
10
0
VERTEX
8
OBJECT__44
10
0
20
0
30
0
70
128
71
13
72
14
73
7
0
VERTEX
8
OBJECT__44
10
0
20
0
30
0
70
128
71
11
72
15
73
12
0
VERTEX
8
OBJECT__44
10
0
20
0
30
0
70
128
71
15
72
11
73
7
0
VERTEX
8
OBJECT__44
10
0
20
0
30
0
70
128
71
14
72
15
73
7
0
VERTEX
8
OBJECT__44
10
0
20
0
30
0
70
128
71
16
72
11
73
10
0
VERTEX
8
OBJECT__44
10
0
20
0
30
0
70
128
71
10
72
17
73
16
0
VERTEX
8
OBJECT__44
10
0
20
0
30
0
70
128
71
4
72
10
73
6
0
SEQEND
8
OBJECT__44
0
POLYLINE
8
OBJECT__45
66
1
70
64
71
10
72
8
62
253
0
VERTEX
8
OBJECT__45
10
11.805000
20
32.962002
30
13.510000
70
192
0
VERTEX
8
OBJECT__45
10
11.720000
20
33.194000
30
13.548000
70
192
0
VERTEX
8
OBJECT__45
10
11.467000
20
33.053001
30
13.791000
70
192
0
VERTEX
8
OBJECT__45
10
11.555000
20
33.386002
30
13.580000
70
192
0
VERTEX
8
OBJECT__45
10
11.373000
20
33.169998
30
13.792000
70
192
0
VERTEX
8
OBJECT__45
10
11.342000
20
33.504002
30
13.601000
70
192
0
VERTEX
8
OBJECT__45
10
11.251000
20
33.241001
30
13.794000
70
192
0
VERTEX
8
OBJECT__45
10
11.129000
20
33.541000
30
13.609000
70
192
0
VERTEX
8
OBJECT__45
10
11.129000
20
33.263000
30
13.797000
70
192
0
VERTEX
8
OBJECT__45
10
11.516000
20
32.911999
30
13.790000
70
192
0
VERTEX
8
OBJECT__45
10
0
20
0
30
0
70
128
71
1
72
2
73
3
0
VERTEX
8
OBJECT__45
10
0
20
0
30
0
70
128
71
2
72
4
73
5
0
VERTEX
8
OBJECT__45
10
0
20
0
30
0
70
128
71
4
72
6
73
7
0
VERTEX
8
OBJECT__45
10
0
20
0
30
0
70
128
71
6
72
8
73
9
0
VERTEX
8
OBJECT__45
10
0
20
0
30
0
70
128
71
9
72
7
73
6
0
VERTEX
8
OBJECT__45
10
0
20
0
30
0
70
128
71
7
72
5
73
4
0
VERTEX
8
OBJECT__45
10
0
20
0
30
0
70
128
71
5
72
3
73
2
0
VERTEX
8
OBJECT__45
10
0
20
0
30
0
70
128
71
3
72
10
73
1
0
SEQEND
8
OBJECT__45
0
POLYLINE
8
OBJECT__46
66
1
70
64
71
42
72
40
62
253
0
VERTEX
8
OBJECT__46
10
11.805000
20
34.528999
30
-8.765000
70
192
0
VERTEX
8
OBJECT__46
10
11.129000
20
35.084000
30
-8.906000
70
192
0
VERTEX
8
OBJECT__46
10
11.129000
20
35.742001
30
-1.030000
70
192
0
VERTEX
8
OBJECT__46
10
11.805000
20
35.504002
30
2.916000
70
192
0
VERTEX
8
OBJECT__46
10
11.805000
20
29.815001
30
-19.497000
70
192
0
VERTEX
8
OBJECT__46
10
11.129000
20
31.874001
30
-16.212999
70
192
0
VERTEX
8
OBJECT__46
10
11.129000
20
30.294001
30
-19.811001
70
192
0
VERTEX
8
OBJECT__46
10
11.805000
20
21.872000
30
-28.118000
70
192
0
VERTEX
8
OBJECT__46
10
11.129000
20
22.207001
30
-28.580000
70
192
0
VERTEX
8
OBJECT__46
10
11.805000
20
11.562000
30
-33.695000
70
192
0
VERTEX
8
OBJECT__46
10
11.129000
20
11.748000
30
-34.237000
70
192
0
VERTEX
8
OBJECT__46
10
11.805000
20
0.000000
30
-35.624001
70
192
0
VERTEX
8
OBJECT__46
10
11.129000
20
0.000000
30
-36.196999
70
192
0
VERTEX
8
OBJECT__46
10
11.129000
20
7.834000
30
-34.889999
70
192
0
VERTEX
8
OBJECT__46
10
11.805000
20
-11.562000
30
-33.695000
70
192
0
VERTEX
8
OBJECT__46
10
11.129000
20
-7.834000
30
-34.889999
70
192
0
VERTEX
8
OBJECT__46
10
11.129000
20
-11.748000
30
-34.237000
70
192
0
VERTEX
8
OBJECT__46
10
11.129000
20
-22.207001
30
-28.580000
70
192
0
VERTEX
8
OBJECT__46
10
11.805000
20
-11.567000
30
-33.693001
70
192
0
VERTEX
8
OBJECT__46
10
11.805000
20
-21.872000
30
-28.118000
70
192
0
VERTEX
8
OBJECT__46
10
11.129000
20
-22.224001
30
-28.570000
70
192
0
VERTEX
8
OBJECT__46
10
11.805000
20
-29.815001
30
-19.497000
70
192
0
VERTEX
8
OBJECT__46
10
11.805000
20
-34.528999
30
-8.765000
70
192
0
VERTEX
8
OBJECT__46
10
11.129000
20
-35.084000
30
-8.906000
70
192
0
VERTEX
8
OBJECT__46
10
11.129000
20
-31.874001
30
-16.212999
70
192
0
VERTEX
8
OBJECT__46
10
11.805000
20
-35.504002
30
2.916000
70
192
0
VERTEX
8
OBJECT__46
10
11.129000
20
-35.742001
30
-1.030000
70
192
0
VERTEX
8
OBJECT__46
10
11.129000
20
-36.075001
30
2.963000
70
192
0
VERTEX
8
OBJECT__46
10
11.342000
20
33.504002
30
13.601000
70
192
0
VERTEX
8
OBJECT__46
10
11.555000
20
33.386002
30
13.580000
70
192
0
VERTEX
8
OBJECT__46
10
11.129000
20
36.075001
30
2.963000
70
192
0
VERTEX
8
OBJECT__46
10
11.129000
20
33.541000
30
13.609000
70
192
0
VERTEX
8
OBJECT__46
10
11.720000
20
33.194000
30
13.548000
70
192
0
VERTEX
8
OBJECT__46
10
11.347000
20
-33.501999
30
13.601000
70
192
0
VERTEX
8
OBJECT__46
10
11.805000
20
-32.962002
30
13.510000
70
192
0
VERTEX
8
OBJECT__46
10
11.790000
20
-33.029999
30
13.521000
70
192
0
VERTEX
8
OBJECT__46
10
11.691000
20
-33.238998
30
13.556000
70
192
0
VERTEX
8
OBJECT__46
10
11.539000
20
-33.398998
30
13.583000
70
192
0
VERTEX
8
OBJECT__46
10
11.129000
20
-33.541000
30
13.609000
70
192
0
VERTEX
8
OBJECT__46
10
11.805000
20
32.962002
30
13.510000
70
192
0
VERTEX
8
OBJECT__46
10
11.129000
20
-30.294001
30
-19.811001
70
192
0
VERTEX
8
OBJECT__46
10
11.129000
20
22.224001
30
-28.570000
70
192
0
VERTEX
8
OBJECT__46
10
0
20
0
30
0
70
128
71
1
72
2
73
3
0
VERTEX
8
OBJECT__46
10
0
20
0
30
0
70
128
71
3
72
4
73
1
0
VERTEX
8
OBJECT__46
10
0
20
0
30
0
70
128
71
1
72
5
73
6
0
VERTEX
8
OBJECT__46
10
0
20
0
30
0
70
128
71
5
72
7
73
6
0
VERTEX
8
OBJECT__46
10
0
20
0
30
0
70
128
71
7
72
5
73
8
0
VERTEX
8
OBJECT__46
10
0
20
0
30
0
70
128
71
9
72
8
73
10
0
VERTEX
8
OBJECT__46
10
0
20
0
30
0
70
128
71
10
72
11
73
9
0
VERTEX
8
OBJECT__46
10
0
20
0
30
0
70
128
71
12
72
13
73
14
0
VERTEX
8
OBJECT__46
10
0
20
0
30
0
70
128
71
14
72
10
73
12
0
VERTEX
8
OBJECT__46
10
0
20
0
30
0
70
128
71
12
72
15
73
16
0
VERTEX
8
OBJECT__46
10
0
20
0
30
0
70
128
71
15
72
17
73
16
0
VERTEX
8
OBJECT__46
10
0
20
0
30
0
70
128
71
18
72
17
73
19
0
VERTEX
8
OBJECT__46
10
0
20
0
30
0
70
128
71
20
72
21
73
18
0
VERTEX
8
OBJECT__46
10
0
20
0
30
0
70
128
71
17
72
15
73
19
0
VERTEX
8
OBJECT__46
10
0
20
0
30
0
70
128
71
21
72
20
73
22
0
VERTEX
8
OBJECT__46
10
0
20
0
30
0
70
128
71
23
72
24
73
25
0
VERTEX
8
OBJECT__46
10
0
20
0
30
0
70
128
71
25
72
22
73
23
0
VERTEX
8
OBJECT__46
10
0
20
0
30
0
70
128
71
23
72
26
73
27
0
VERTEX
8
OBJECT__46
10
0
20
0
30
0
70
128
71
26
72
28
73
27
0
VERTEX
8
OBJECT__46
10
0
20
0
30
0
70
128
71
29
72
30
73
4
0
VERTEX
8
OBJECT__46
10
0
20
0
30
0
70
128
71
31
72
32
73
29
0
VERTEX
8
OBJECT__46
10
0
20
0
30
0
70
128
71
4
72
31
73
29
0
VERTEX
8
OBJECT__46
10
0
20
0
30
0
70
128
71
30
72
33
73
4
0
VERTEX
8
OBJECT__46
10
0
20
0
30
0
70
128
71
34
72
28
73
26
0
VERTEX
8
OBJECT__46
10
0
20
0
30
0
70
128
71
26
72
35
73
36
0
VERTEX
8
OBJECT__46
10
0
20
0
30
0
70
128
71
36
72
37
73
26
0
VERTEX
8
OBJECT__46
10
0
20
0
30
0
70
128
71
37
72
38
73
26
0
VERTEX
8
OBJECT__46
10
0
20
0
30
0
70
128
71
26
72
38
73
34
0
VERTEX
8
OBJECT__46
10
0
20
0
30
0
70
128
71
34
72
39
73
28
0
VERTEX
8
OBJECT__46
10
0
20
0
30
0
70
128
71
33
72
40
73
4
0
VERTEX
8
OBJECT__46
10
0
20
0
30
0
70
128
71
27
72
24
73
23
0
VERTEX
8
OBJECT__46
10
0
20
0
30
0
70
128
71
25
72
41
73
22
0
VERTEX
8
OBJECT__46
10
0
20
0
30
0
70
128
71
22
72
41
73
21
0
VERTEX
8
OBJECT__46
10
0
20
0
30
0
70
128
71
19
72
20
73
18
0
VERTEX
8
OBJECT__46
10
0
20
0
30
0
70
128
71
16
72
13
73
12
0
VERTEX
8
OBJECT__46
10
0
20
0
30
0
70
128
71
14
72
11
73
10
0
VERTEX
8
OBJECT__46
10
0
20
0
30
0
70
128
71
9
72
42
73
8
0
VERTEX
8
OBJECT__46
10
0
20
0
30
0
70
128
71
8
72
42
73
7
0
VERTEX
8
OBJECT__46
10
0
20
0
30
0
70
128
71
6
72
2
73
1
0
VERTEX
8
OBJECT__46
10
0
20
0
30
0
70
128
71
3
72
31
73
4
0
SEQEND
8
OBJECT__46
0
POLYLINE
8
OBJECT__47
66
1
70
64
71
7
72
5
62
253
0
VERTEX
8
OBJECT__47
10
11.129000
20
-33.263000
30
13.797000
70
192
0
VERTEX
8
OBJECT__47
10
8.146000
20
-33.298000
30
13.849000
70
192
0
VERTEX
8
OBJECT__47
10
8.146000
20
-33.576000
30
13.662000
70
192
0
VERTEX
8
OBJECT__47
10
5.200000
20
-33.382999
30
13.896000
70
192
0
VERTEX
8
OBJECT__47
10
5.200000
20
-33.332001
30
13.900000
70
192
0
VERTEX
8
OBJECT__47
10
5.200000
20
-33.610001
30
13.713000
70
192
0
VERTEX
8
OBJECT__47
10
11.129000
20
-33.541000
30
13.609000
70
192
0
VERTEX
8
OBJECT__47
10
0
20
0
30
0
70
128
71
1
72
2
73
3
0
VERTEX
8
OBJECT__47
10
0
20
0
30
0
70
128
71
3
72
2
73
4
0
VERTEX
8
OBJECT__47
10
0
20
0
30
0
70
128
71
2
72
5
73
4
0
VERTEX
8
OBJECT__47
10
0
20
0
30
0
70
128
71
4
72
6
73
3
0
VERTEX
8
OBJECT__47
10
0
20
0
30
0
70
128
71
3
72
7
73
1
0
SEQEND
8
OBJECT__47
0
POLYLINE
8
OBJECT__48
66
1
70
64
71
7
72
5
62
253
0
VERTEX
8
OBJECT__48
10
11.129000
20
33.263000
30
13.797000
70
192
0
VERTEX
8
OBJECT__48
10
11.129000
20
33.541000
30
13.609000
70
192
0
VERTEX
8
OBJECT__48
10
8.146000
20
33.576000
30
13.662000
70
192
0
VERTEX
8
OBJECT__48
10
8.146000
20
33.298000
30
13.849000
70
192
0
VERTEX
8
OBJECT__48
10
5.200000
20
33.587002
30
13.759000
70
192
0
VERTEX
8
OBJECT__48
10
5.200000
20
33.610001
30
13.713000
70
192
0
VERTEX
8
OBJECT__48
10
5.200000
20
33.332001
30
13.900000
70
192
0
VERTEX
8
OBJECT__48
10
0
20
0
30
0
70
128
71
1
72
2
73
3
0
VERTEX
8
OBJECT__48
10
0
20
0
30
0
70
128
71
4
72
3
73
5
0
VERTEX
8
OBJECT__48
10
0
20
0
30
0
70
128
71
3
72
6
73
5
0
VERTEX
8
OBJECT__48
10
0
20
0
30
0
70
128
71
5
72
7
73
4
0
VERTEX
8
OBJECT__48
10
0
20
0
30
0
70
128
71
3
72
4
73
1
0
SEQEND
8
OBJECT__48
0
POLYLINE
8
OBJECT__49
66
1
70
64
71
35
72
33
62
253
0
VERTEX
8
OBJECT__49
10
5.200000
20
32.366001
30
-16.434999
70
192
0
VERTEX
8
OBJECT__49
10
5.200000
20
36.284000
30
-1.070000
70
192
0
VERTEX
8
OBJECT__49
10
11.129000
20
35.084000
30
-8.906000
70
192
0
VERTEX
8
OBJECT__49
10
11.129000
20
35.742001
30
-1.030000
70
192
0
VERTEX
8
OBJECT__49
10
5.200000
20
22.271999
30
-28.664000
70
192
0
VERTEX
8
OBJECT__49
10
11.129000
20
30.294001
30
-19.811001
70
192
0
VERTEX
8
OBJECT__49
10
11.129000
20
31.874001
30
-16.212999
70
192
0
VERTEX
8
OBJECT__49
10
11.129000
20
22.224001
30
-28.570000
70
192
0
VERTEX
8
OBJECT__49
10
11.129000
20
22.207001
30
-28.580000
70
192
0
VERTEX
8
OBJECT__49
10
11.129000
20
11.748000
30
-34.237000
70
192
0
VERTEX
8
OBJECT__49
10
5.200000
20
7.928000
30
-35.424000
70
192
0
VERTEX
8
OBJECT__49
10
11.129000
20
-7.834000
30
-34.889999
70
192
0
VERTEX
8
OBJECT__49
10
5.200000
20
-7.928000
30
-35.424000
70
192
0
VERTEX
8
OBJECT__49
10
5.200000
20
-1.989000
30
-36.244999
70
192
0
VERTEX
8
OBJECT__49
10
11.129000
20
0.000000
30
-36.196999
70
192
0
VERTEX
8
OBJECT__49
10
11.129000
20
7.834000
30
-34.889999
70
192
0
VERTEX
8
OBJECT__49
10
5.200000
20
1.989000
30
-36.244999
70
192
0
VERTEX
8
OBJECT__49
10
5.200000
20
-22.271999
30
-28.664000
70
192
0
VERTEX
8
OBJECT__49
10
11.129000
20
-11.748000
30
-34.237000
70
192
0
VERTEX
8
OBJECT__49
10
5.200000
20
-32.366001
30
-16.434999
70
192
0
VERTEX
8
OBJECT__49
10
11.129000
20
-22.224001
30
-28.570000
70
192
0
VERTEX
8
OBJECT__49
10
11.129000
20
-30.294001
30
-19.811001
70
192
0
VERTEX
8
OBJECT__49
10
11.129000
20
-22.207001
30
-28.580000
70
192
0
VERTEX
8
OBJECT__49
10
11.129000
20
-31.874001
30
-16.212999
70
192
0
VERTEX
8
OBJECT__49
10
11.129000
20
-35.084000
30
-8.906000
70
192
0
VERTEX
8
OBJECT__49
10
5.200000
20
-36.284000
30
-1.070000
70
192
0
VERTEX
8
OBJECT__49
10
8.146000
20
-33.576000
30
13.662000
70
192
0
VERTEX
8
OBJECT__49
10
11.129000
20
-36.075001
30
2.963000
70
192
0
VERTEX
8
OBJECT__49
10
11.129000
20
-33.541000
30
13.609000
70
192
0
VERTEX
8
OBJECT__49
10
11.129000
20
-35.742001
30
-1.030000
70
192
0
VERTEX
8
OBJECT__49
10
8.146000
20
33.576000
30
13.662000
70
192
0
VERTEX
8
OBJECT__49
10
11.129000
20
33.541000
30
13.609000
70
192
0
VERTEX
8
OBJECT__49
10
11.129000
20
36.075001
30
2.963000
70
192
0
VERTEX
8
OBJECT__49
10
5.200000
20
33.610001
30
13.713000
70
192
0
VERTEX
8
OBJECT__49
10
5.200000
20
-33.610001
30
13.713000
70
192
0
VERTEX
8
OBJECT__49
10
0
20
0
30
0
70
128
71
1
72
2
73
3
0
VERTEX
8
OBJECT__49
10
0
20
0
30
0
70
128
71
2
72
4
73
3
0
VERTEX
8
OBJECT__49
10
0
20
0
30
0
70
128
71
5
72
1
73
6
0
VERTEX
8
OBJECT__49
10
0
20
0
30
0
70
128
71
1
72
7
73
6
0
VERTEX
8
OBJECT__49
10
0
20
0
30
0
70
128
71
6
72
8
73
5
0
VERTEX
8
OBJECT__49
10
0
20
0
30
0
70
128
71
5
72
9
73
10
0
VERTEX
8
OBJECT__49
10
0
20
0
30
0
70
128
71
10
72
11
73
5
0
VERTEX
8
OBJECT__49
10
0
20
0
30
0
70
128
71
12
72
13
73
14
0
VERTEX
8
OBJECT__49
10
0
20
0
30
0
70
128
71
14
72
15
73
12
0
VERTEX
8
OBJECT__49
10
0
20
0
30
0
70
128
71
16
72
15
73
17
0
VERTEX
8
OBJECT__49
10
0
20
0
30
0
70
128
71
17
72
11
73
16
0
VERTEX
8
OBJECT__49
10
0
20
0
30
0
70
128
71
18
72
13
73
19
0
VERTEX
8
OBJECT__49
10
0
20
0
30
0
70
128
71
13
72
12
73
19
0
VERTEX
8
OBJECT__49
10
0
20
0
30
0
70
128
71
20
72
21
73
22
0
VERTEX
8
OBJECT__49
10
0
20
0
30
0
70
128
71
18
72
23
73
21
0
VERTEX
8
OBJECT__49
10
0
20
0
30
0
70
128
71
21
72
20
73
18
0
VERTEX
8
OBJECT__49
10
0
20
0
30
0
70
128
71
22
72
24
73
20
0
VERTEX
8
OBJECT__49
10
0
20
0
30
0
70
128
71
20
72
24
73
25
0
VERTEX
8
OBJECT__49
10
0
20
0
30
0
70
128
71
25
72
26
73
20
0
VERTEX
8
OBJECT__49
10
0
20
0
30
0
70
128
71
27
72
26
73
28
0
VERTEX
8
OBJECT__49
10
0
20
0
30
0
70
128
71
28
72
29
73
27
0
VERTEX
8
OBJECT__49
10
0
20
0
30
0
70
128
71
26
72
30
73
28
0
VERTEX
8
OBJECT__49
10
0
20
0
30
0
70
128
71
31
72
32
73
33
0
VERTEX
8
OBJECT__49
10
0
20
0
30
0
70
128
71
2
72
34
73
31
0
VERTEX
8
OBJECT__49
10
0
20
0
30
0
70
128
71
33
72
2
73
31
0
VERTEX
8
OBJECT__49
10
0
20
0
30
0
70
128
71
33
72
4
73
2
0
VERTEX
8
OBJECT__49
10
0
20
0
30
0
70
128
71
27
72
35
73
26
0
VERTEX
8
OBJECT__49
10
0
20
0
30
0
70
128
71
25
72
30
73
26
0
VERTEX
8
OBJECT__49
10
0
20
0
30
0
70
128
71
19
72
23
73
18
0
VERTEX
8
OBJECT__49
10
0
20
0
30
0
70
128
71
14
72
17
73
15
0
VERTEX
8
OBJECT__49
10
0
20
0
30
0
70
128
71
10
72
16
73
11
0
VERTEX
8
OBJECT__49
10
0
20
0
30
0
70
128
71
8
72
9
73
5
0
VERTEX
8
OBJECT__49
10
0
20
0
30
0
70
128
71
3
72
7
73
1
0
SEQEND
8
OBJECT__49
0
POLYLINE
8
OBJECT__50
66
1
70
64
71
266
72
266
62
253
0
VERTEX
8
OBJECT__50
10
2.200000
20
22.665001
30
31.195999
70
192
0
VERTEX
8
OBJECT__50
10
1.190000
20
23.479000
30
30.599001
70
192
0
VERTEX
8
OBJECT__50
10
1.912000
20
24.042000
30
30.146999
70
192
0
VERTEX
8
OBJECT__50
10
2.200000
20
21.000999
30
32.339001
70
192
0
VERTEX
8
OBJECT__50
10
1.190000
20
21.846001
30
31.785999
70
192
0
VERTEX
8
OBJECT__50
10
2.200000
20
19.280001
30
33.394001
70
192
0
VERTEX
8
OBJECT__50
10
1.190000
20
20.152000
30
32.886002
70
192
0
VERTEX
8
OBJECT__50
10
2.200000
20
17.506001
30
34.356998
70
192
0
VERTEX
8
OBJECT__50
10
1.190000
20
18.403999
30
33.895000
70
192
0
VERTEX
8
OBJECT__50
10
8.951000
20
8.567000
30
37.535999
70
192
0
VERTEX
8
OBJECT__50
10
2.200000
20
15.684000
30
35.227001
70
192
0
VERTEX
8
OBJECT__50
10
1.190000
20
16.604000
30
34.812000
70
192
0
VERTEX
8
OBJECT__50
10
8.951000
20
24.004999
30
30.101999
70
192
0
VERTEX
8
OBJECT__50
10
2.200000
20
13.819000
30
35.999001
70
192
0
VERTEX
8
OBJECT__50
10
1.190000
20
14.760000
30
35.632999
70
192
0
VERTEX
8
OBJECT__50
10
2.200000
20
11.916000
30
36.673000
70
192
0
VERTEX
8
OBJECT__50
10
1.190000
20
12.875000
30
36.356998
70
192
0
VERTEX
8
OBJECT__50
10
2.200000
20
9.980000
30
37.245998
70
192
0
VERTEX
8
OBJECT__50
10
1.190000
20
10.954000
30
36.980999
70
192
0
VERTEX
8
OBJECT__50
10
1.623000
20
8.581000
30
37.595001
70
192
0
VERTEX
8
OBJECT__50
10
1.190000
20
9.004000
30
37.502998
70
192
0
VERTEX
8
OBJECT__50
10
2.200000
20
33.394001
30
19.280001
70
192
0
VERTEX
8
OBJECT__50
10
1.190000
20
33.895000
30
18.403999
70
192
0
VERTEX
8
OBJECT__50
10
2.200000
20
34.356998
30
17.506001
70
192
0
VERTEX
8
OBJECT__50
10
2.200000
20
32.339001
30
21.000999
70
192
0
VERTEX
8
OBJECT__50
10
1.190000
20
32.886002
30
20.152000
70
192
0
VERTEX
8
OBJECT__50
10
2.200000
20
31.195999
30
22.665001
70
192
0
VERTEX
8
OBJECT__50
10
1.190000
20
31.785999
30
21.846001
70
192
0
VERTEX
8
OBJECT__50
10
2.200000
20
29.966999
30
24.267000
70
192
0
VERTEX
8
OBJECT__50
10
1.190000
20
30.599001
30
23.479000
70
192
0
VERTEX
8
OBJECT__50
10
8.951000
20
34.688000
30
16.705000
70
192
0
VERTEX
8
OBJECT__50
10
2.200000
20
28.656000
30
25.802000
70
192
0
VERTEX
8
OBJECT__50
10
1.190000
20
29.327999
30
25.049000
70
192
0
VERTEX
8
OBJECT__50
10
2.200000
20
27.266001
30
27.266001
70
192
0
VERTEX
8
OBJECT__50
10
1.190000
20
27.976999
30
26.549000
70
192
0
VERTEX
8
OBJECT__50
10
2.200000
20
25.802000
30
28.656000
70
192
0
VERTEX
8
OBJECT__50
10
1.190000
20
26.549000
30
27.976999
70
192
0
VERTEX
8
OBJECT__50
10
2.200000
20
24.267000
30
29.966999
70
192
0
VERTEX
8
OBJECT__50
10
1.190000
20
25.049000
30
29.327999
70
192
0
VERTEX
8
OBJECT__50
10
2.200000
20
38.507000
30
2.018000
70
192
0
VERTEX
8
OBJECT__50
10
1.190000
20
38.556000
30
1.010000
70
192
0
VERTEX
8
OBJECT__50
10
2.200000
20
38.560001
30
0.000000
70
192
0
VERTEX
8
OBJECT__50
10
2.200000
20
38.348999
30
4.031000
70
192
0
VERTEX
8
OBJECT__50
10
1.190000
20
38.450001
30
3.026000
70
192
0
VERTEX
8
OBJECT__50
10
2.200000
20
38.084999
30
6.032000
70
192
0
VERTEX
8
OBJECT__50
10
1.190000
20
38.238998
30
5.034000
70
192
0
VERTEX
8
OBJECT__50
10
2.200000
20
37.717999
30
8.017000
70
192
0
VERTEX
8
OBJECT__50
10
1.190000
20
37.923000
30
7.029000
70
192
0
VERTEX
8
OBJECT__50
10
2.200000
20
37.245998
30
9.980000
70
192
0
VERTEX
8
OBJECT__50
10
1.190000
20
37.502998
30
9.004000
70
192
0
VERTEX
8
OBJECT__50
10
8.951000
20
38.500999
30
0.000000
70
192
0
VERTEX
8
OBJECT__50
10
2.200000
20
36.673000
30
11.916000
70
192
0
VERTEX
8
OBJECT__50
10
1.190000
20
36.980999
30
10.954000
70
192
0
VERTEX
8
OBJECT__50
10
2.200000
20
35.999001
30
13.819000
70
192
0
VERTEX
8
OBJECT__50
10
1.190000
20
36.356998
30
12.875000
70
192
0
VERTEX
8
OBJECT__50
10
2.200000
20
35.227001
30
15.684000
70
192
0
VERTEX
8
OBJECT__50
10
1.190000
20
35.632999
30
14.760000
70
192
0
VERTEX
8
OBJECT__50
10
1.335000
20
34.747002
30
16.733000
70
192
0
VERTEX
8
OBJECT__50
10
1.190000
20
34.812000
30
16.604000
70
192
0
VERTEX
8
OBJECT__50
10
2.200000
20
35.227001
30
-15.684000
70
192
0
VERTEX
8
OBJECT__50
10
1.190000
20
34.812000
30
-16.604000
70
192
0
VERTEX
8
OBJECT__50
10
1.335000
20
34.747002
30
-16.733000
70
192
0
VERTEX
8
OBJECT__50
10
2.200000
20
35.999001
30
-13.819000
70
192
0
VERTEX
8
OBJECT__50
10
1.190000
20
35.632999
30
-14.760000
70
192
0
VERTEX
8
OBJECT__50
10
2.200000
20
36.673000
30
-11.916000
70
192
0
VERTEX
8
OBJECT__50
10
1.190000
20
36.356998
30
-12.875000
70
192
0
VERTEX
8
OBJECT__50
10
2.200000
20
37.245998
30
-9.980000
70
192
0
VERTEX
8
OBJECT__50
10
1.190000
20
36.980999
30
-10.954000
70
192
0
VERTEX
8
OBJECT__50
10
2.200000
20
37.717999
30
-8.017000
70
192
0
VERTEX
8
OBJECT__50
10
1.190000
20
37.502998
30
-9.004000
70
192
0
VERTEX
8
OBJECT__50
10
8.951000
20
34.688000
30
-16.705000
70
192
0
VERTEX
8
OBJECT__50
10
2.200000
20
38.084999
30
-6.032000
70
192
0
VERTEX
8
OBJECT__50
10
1.190000
20
37.923000
30
-7.029000
70
192
0
VERTEX
8
OBJECT__50
10
2.200000
20
38.348999
30
-4.031000
70
192
0
VERTEX
8
OBJECT__50
10
1.190000
20
38.238998
30
-5.034000
70
192
0
VERTEX
8
OBJECT__50
10
2.200000
20
38.507000
30
-2.018000
70
192
0
VERTEX
8
OBJECT__50
10
1.190000
20
38.450001
30
-3.026000
70
192
0
VERTEX
8
OBJECT__50
10
1.190000
20
38.556000
30
-1.010000
70
192
0
VERTEX
8
OBJECT__50
10
2.200000
20
25.802000
30
-28.656000
70
192
0
VERTEX
8
OBJECT__50
10
1.190000
20
25.049000
30
-29.327999
70
192
0
VERTEX
8
OBJECT__50
10
2.200000
20
24.267000
30
-29.966999
70
192
0
VERTEX
8
OBJECT__50
10
2.200000
20
27.266001
30
-27.266001
70
192
0
VERTEX
8
OBJECT__50
10
1.190000
20
26.549000
30
-27.976999
70
192
0
VERTEX
8
OBJECT__50
10
2.200000
20
28.656000
30
-25.802000
70
192
0
VERTEX
8
OBJECT__50
10
1.190000
20
27.976999
30
-26.549000
70
192
0
VERTEX
8
OBJECT__50
10
2.200000
20
29.966999
30
-24.267000
70
192
0
VERTEX
8
OBJECT__50
10
1.190000
20
29.327999
30
-25.049000
70
192
0
VERTEX
8
OBJECT__50
10
2.200000
20
31.195999
30
-22.665001
70
192
0
VERTEX
8
OBJECT__50
10
1.190000
20
30.599001
30
-23.479000
70
192
0
VERTEX
8
OBJECT__50
10
8.951000
20
24.004999
30
-30.101999
70
192
0
VERTEX
8
OBJECT__50
10
2.200000
20
32.339001
30
-21.000999
70
192
0
VERTEX
8
OBJECT__50
10
1.190000
20
31.785999
30
-21.846001
70
192
0
VERTEX
8
OBJECT__50
10
2.200000
20
33.394001
30
-19.280001
70
192
0
VERTEX
8
OBJECT__50
10
1.190000
20
32.886002
30
-20.152000
70
192
0
VERTEX
8
OBJECT__50
10
2.200000
20
34.356998
30
-17.506001
70
192
0
VERTEX
8
OBJECT__50
10
1.190000
20
33.895000
30
-18.403999
70
192
0
VERTEX
8
OBJECT__50
10
2.200000
20
9.980000
30
-37.245998
70
192
0
VERTEX
8
OBJECT__50
10
1.190000
20
9.004000
30
-37.502998
70
192
0
VERTEX
8
OBJECT__50
10
1.623000
20
8.581000
30
-37.595001
70
192
0
VERTEX
8
OBJECT__50
10
2.200000
20
11.916000
30
-36.673000
70
192
0
VERTEX
8
OBJECT__50
10
1.190000
20
10.954000
30
-36.980999
70
192
0
VERTEX
8
OBJECT__50
10
2.200000
20
13.819000
30
-35.999001
70
192
0
VERTEX
8
OBJECT__50
10
1.190000
20
12.875000
30
-36.356998
70
192
0
VERTEX
8
OBJECT__50
10
2.200000
20
15.684000
30
-35.227001
70
192
0
VERTEX
8
OBJECT__50
10
1.190000
20
14.760000
30
-35.632999
70
192
0
VERTEX
8
OBJECT__50
10
2.200000
20
17.506001
30
-34.356998
70
192
0
VERTEX
8
OBJECT__50
10
1.190000
20
16.604000
30
-34.812000
70
192
0
VERTEX
8
OBJECT__50
10
8.951000
20
8.567000
30
-37.535999
70
192
0
VERTEX
8
OBJECT__50
10
2.200000
20
19.280001
30
-33.394001
70
192
0
VERTEX
8
OBJECT__50
10
1.190000
20
18.403999
30
-33.895000
70
192
0
VERTEX
8
OBJECT__50
10
2.200000
20
21.000999
30
-32.339001
70
192
0
VERTEX
8
OBJECT__50
10
1.190000
20
20.152000
30
-32.886002
70
192
0
VERTEX
8
OBJECT__50
10
2.200000
20
22.665001
30
-31.195999
70
192
0
VERTEX
8
OBJECT__50
10
1.190000
20
21.846001
30
-31.785999
70
192
0
VERTEX
8
OBJECT__50
10
1.912000
20
24.042000
30
-30.146999
70
192
0
VERTEX
8
OBJECT__50
10
1.190000
20
23.479000
30
-30.599001
70
192
0
VERTEX
8
OBJECT__50
10
2.200000
20
-6.032000
30
-38.084999
70
192
0
VERTEX
8
OBJECT__50
10
1.190000
20
-7.029000
30
-37.923000
70
192
0
VERTEX
8
OBJECT__50
10
2.200000
20
-8.017000
30
-37.717999
70
192
0
VERTEX
8
OBJECT__50
10
2.200000
20
-4.031000
30
-38.348999
70
192
0
VERTEX
8
OBJECT__50
10
1.190000
20
-5.034000
30
-38.238998
70
192
0
VERTEX
8
OBJECT__50
10
2.200000
20
-2.018000
30
-38.507000
70
192
0
VERTEX
8
OBJECT__50
10
1.190000
20
-3.026000
30
-38.450001
70
192
0
VERTEX
8
OBJECT__50
10
2.200000
20
0.000000
30
-38.560001
70
192
0
VERTEX
8
OBJECT__50
10
1.190000
20
-1.010000
30
-38.556000
70
192
0
VERTEX
8
OBJECT__50
10
2.200000
20
2.018000
30
-38.507000
70
192
0
VERTEX
8
OBJECT__50
10
1.190000
20
1.010000
30
-38.556000
70
192
0
VERTEX
8
OBJECT__50
10
8.951000
20
-8.567000
30
-37.535999
70
192
0
VERTEX
8
OBJECT__50
10
2.200000
20
4.031000
30
-38.348999
70
192
0
VERTEX
8
OBJECT__50
10
1.190000
20
3.026000
30
-38.450001
70
192
0
VERTEX
8
OBJECT__50
10
2.200000
20
6.032000
30
-38.084999
70
192
0
VERTEX
8
OBJECT__50
10
1.190000
20
5.034000
30
-38.238998
70
192
0
VERTEX
8
OBJECT__50
10
2.200000
20
8.017000
30
-37.717999
70
192
0
VERTEX
8
OBJECT__50
10
1.190000
20
7.029000
30
-37.923000
70
192
0
VERTEX
8
OBJECT__50
10
2.200000
20
-22.665001
30
-31.195999
70
192
0
VERTEX
8
OBJECT__50
10
1.190000
20
-23.479000
30
-30.599001
70
192
0
VERTEX
8
OBJECT__50
10
1.912000
20
-24.042000
30
-30.146999
70
192
0
VERTEX
8
OBJECT__50
10
2.200000
20
-21.000999
30
-32.339001
70
192
0
VERTEX
8
OBJECT__50
10
1.190000
20
-21.846001
30
-31.785999
70
192
0
VERTEX
8
OBJECT__50
10
2.200000
20
-19.280001
30
-33.394001
70
192
0
VERTEX
8
OBJECT__50
10
1.190000
20
-20.152000
30
-32.886002
70
192
0
VERTEX
8
OBJECT__50
10
2.200000
20
-17.506001
30
-34.356998
70
192
0
VERTEX
8
OBJECT__50
10
1.190000
20
-18.403999
30
-33.895000
70
192
0
VERTEX
8
OBJECT__50
10
2.200000
20
-15.684000
30
-35.227001
70
192
0
VERTEX
8
OBJECT__50
10
1.190000
20
-16.604000
30
-34.812000
70
192
0
VERTEX
8
OBJECT__50
10
8.951000
20
-24.004999
30
-30.101999
70
192
0
VERTEX
8
OBJECT__50
10
2.200000
20
-13.819000
30
-35.999001
70
192
0
VERTEX
8
OBJECT__50
10
1.190000
20
-14.760000
30
-35.632999
70
192
0
VERTEX
8
OBJECT__50
10
2.200000
20
-11.916000
30
-36.673000
70
192
0
VERTEX
8
OBJECT__50
10
1.190000
20
-12.875000
30
-36.356998
70
192
0
VERTEX
8
OBJECT__50
10
2.200000
20
-9.980000
30
-37.245998
70
192
0
VERTEX
8
OBJECT__50
10
1.190000
20
-10.954000
30
-36.980999
70
192
0
VERTEX
8
OBJECT__50
10
1.623000
20
-8.581000
30
-37.595001
70
192
0
VERTEX
8
OBJECT__50
10
1.190000
20
-9.004000
30
-37.502998
70
192
0
VERTEX
8
OBJECT__50
10
2.200000
20
-33.394001
30
-19.280001
70
192
0
VERTEX
8
OBJECT__50
10
1.190000
20
-33.895000
30
-18.403999
70
192
0
VERTEX
8
OBJECT__50
10
2.200000
20
-34.356998
30
-17.506001
70
192
0
VERTEX
8
OBJECT__50
10
2.200000
20
-32.339001
30
-21.000999
70
192
0
VERTEX
8
OBJECT__50
10
1.190000
20
-32.886002
30
-20.152000
70
192
0
VERTEX
8
OBJECT__50
10
2.200000
20
-31.195999
30
-22.665001
70
192
0
VERTEX
8
OBJECT__50
10
1.190000
20
-31.785999
30
-21.846001
70
192
0
VERTEX
8
OBJECT__50
10
2.200000
20
-29.966999
30
-24.267000
70
192
0
VERTEX
8
OBJECT__50
10
1.190000
20
-30.599001
30
-23.479000
70
192
0
VERTEX
8
OBJECT__50
10
8.951000
20
-34.688000
30
-16.705000
70
192
0
VERTEX
8
OBJECT__50
10
2.200000
20
-28.656000
30
-25.802000
70
192
0
VERTEX
8
OBJECT__50
10
1.190000
20
-29.327999
30
-25.049000
70
192
0
VERTEX
8
OBJECT__50
10
2.200000
20
-27.266001
30
-27.266001
70
192
0
VERTEX
8
OBJECT__50
10
1.190000
20
-27.976999
30
-26.549000
70
192
0
VERTEX
8
OBJECT__50
10
2.200000
20
-25.802000
30
-28.656000
70
192
0
VERTEX
8
OBJECT__50
10
1.190000
20
-26.549000
30
-27.976999
70
192
0
VERTEX
8
OBJECT__50
10
2.200000
20
-24.267000
30
-29.966999
70
192
0
VERTEX
8
OBJECT__50
10
1.190000
20
-25.049000
30
-29.327999
70
192
0
VERTEX
8
OBJECT__50
10
2.200000
20
-38.507000
30
-2.018000
70
192
0
VERTEX
8
OBJECT__50
10
1.190000
20
-38.556000
30
-1.010000
70
192
0
VERTEX
8
OBJECT__50
10
2.200000
20
-38.560001
30
0.000000
70
192
0
VERTEX
8
OBJECT__50
10
2.200000
20
-38.348999
30
-4.031000
70
192
0
VERTEX
8
OBJECT__50
10
1.190000
20
-38.450001
30
-3.026000
70
192
0
VERTEX
8
OBJECT__50
10
2.200000
20
-38.084999
30
-6.032000
70
192
0
VERTEX
8
OBJECT__50
10
1.190000
20
-38.238998
30
-5.034000
70
192
0
VERTEX
8
OBJECT__50
10
2.200000
20
-37.717999
30
-8.017000
70
192
0
VERTEX
8
OBJECT__50
10
1.190000
20
-37.923000
30
-7.029000
70
192
0
VERTEX
8
OBJECT__50
10
2.200000
20
-37.245998
30
-9.980000
70
192
0
VERTEX
8
OBJECT__50
10
1.190000
20
-37.502998
30
-9.004000
70
192
0
VERTEX
8
OBJECT__50
10
8.951000
20
-38.500999
30
0.000000
70
192
0
VERTEX
8
OBJECT__50
10
2.200000
20
-36.673000
30
-11.916000
70
192
0
VERTEX
8
OBJECT__50
10
1.190000
20
-36.980999
30
-10.954000
70
192
0
VERTEX
8
OBJECT__50
10
2.200000
20
-35.999001
30
-13.819000
70
192
0
VERTEX
8
OBJECT__50
10
1.190000
20
-36.356998
30
-12.875000
70
192
0
VERTEX
8
OBJECT__50
10
2.200000
20
-35.227001
30
-15.684000
70
192
0
VERTEX
8
OBJECT__50
10
1.190000
20
-35.632999
30
-14.760000
70
192
0
VERTEX
8
OBJECT__50
10
1.335000
20
-34.747002
30
-16.733000
70
192
0
VERTEX
8
OBJECT__50
10
1.190000
20
-34.812000
30
-16.604000
70
192
0
VERTEX
8
OBJECT__50
10
2.200000
20
-35.227001
30
15.684000
70
192
0
VERTEX
8
OBJECT__50
10
1.190000
20
-34.812000
30
16.604000
70
192
0
VERTEX
8
OBJECT__50
10
1.335000
20
-34.747002
30
16.733000
70
192
0
VERTEX
8
OBJECT__50
10
2.200000
20
-35.999001
30
13.819000
70
192
0
VERTEX
8
OBJECT__50
10
1.190000
20
-35.632999
30
14.760000
70
192
0
VERTEX
8
OBJECT__50
10
2.200000
20
-36.673000
30
11.916000
70
192
0
VERTEX
8
OBJECT__50
10
1.190000
20
-36.356998
30
12.875000
70
192
0
VERTEX
8
OBJECT__50
10
2.200000
20
-37.245998
30
9.980000
70
192
0
VERTEX
8
OBJECT__50
10
1.190000
20
-36.980999
30
10.954000
70
192
0
VERTEX
8
OBJECT__50
10
2.200000
20
-37.717999
30
8.017000
70
192
0
VERTEX
8
OBJECT__50
10
1.190000
20
-37.502998
30
9.004000
70
192
0
VERTEX
8
OBJECT__50
10
8.951000
20
-34.688000
30
16.705000
70
192
0
VERTEX
8
OBJECT__50
10
2.200000
20
-38.084999
30
6.032000
70
192
0
VERTEX
8
OBJECT__50
10
1.190000
20
-37.923000
30
7.029000
70
192
0
VERTEX
8
OBJECT__50
10
2.200000
20
-38.348999
30
4.031000
70
192
0
VERTEX
8
OBJECT__50
10
1.190000
20
-38.238998
30
5.034000
70
192
0
VERTEX
8
OBJECT__50
10
2.200000
20
-38.507000
30
2.018000
70
192
0
VERTEX
8
OBJECT__50
10
1.190000
20
-38.450001
30
3.026000
70
192
0
VERTEX
8
OBJECT__50
10
1.190000
20
-38.556000
30
1.010000
70
192
0
VERTEX
8
OBJECT__50
10
2.200000
20
-25.802000
30
28.656000
70
192
0
VERTEX
8
OBJECT__50
10
1.190000
20
-25.049000
30
29.327999
70
192
0
VERTEX
8
OBJECT__50
10
2.200000
20
-24.267000
30
29.966999
70
192
0
VERTEX
8
OBJECT__50
10
2.200000
20
-27.266001
30
27.266001
70
192
0
VERTEX
8
OBJECT__50
10
1.190000
20
-26.549000
30
27.976999
70
192
0
VERTEX
8
OBJECT__50
10
2.200000
20
-28.656000
30
25.802000
70
192
0
VERTEX
8
OBJECT__50
10
1.190000
20
-27.976999
30
26.549000
70
192
0
VERTEX
8
OBJECT__50
10
2.200000
20
-29.966999
30
24.267000
70
192
0
VERTEX
8
OBJECT__50
10
1.190000
20
-29.327999
30
25.049000
70
192
0
VERTEX
8
OBJECT__50
10
2.200000
20
-31.195999
30
22.665001
70
192
0
VERTEX
8
OBJECT__50
10
1.190000
20
-30.599001
30
23.479000
70
192
0
VERTEX
8
OBJECT__50
10
8.951000
20
-24.004999
30
30.101999
70
192
0
VERTEX
8
OBJECT__50
10
2.200000
20
-32.339001
30
21.000999
70
192
0
VERTEX
8
OBJECT__50
10
1.190000
20
-31.785999
30
21.846001
70
192
0
VERTEX
8
OBJECT__50
10
2.200000
20
-33.394001
30
19.280001
70
192
0
VERTEX
8
OBJECT__50
10
1.190000
20
-32.886002
30
20.152000
70
192
0
VERTEX
8
OBJECT__50
10
2.200000
20
-34.356998
30
17.506001
70
192
0
VERTEX
8
OBJECT__50
10
1.190000
20
-33.895000
30
18.403999
70
192
0
VERTEX
8
OBJECT__50
10
2.200000
20
-9.980000
30
37.245998
70
192
0
VERTEX
8
OBJECT__50
10
1.190000
20
-9.004000
30
37.502998
70
192
0
VERTEX
8
OBJECT__50
10
1.623000
20
-8.581000
30
37.595001
70
192
0
VERTEX
8
OBJECT__50
10
2.200000
20
-11.916000
30
36.673000
70
192
0
VERTEX
8
OBJECT__50
10
1.190000
20
-10.954000
30
36.980999
70
192
0
VERTEX
8
OBJECT__50
10
2.200000
20
-13.819000
30
35.999001
70
192
0
VERTEX
8
OBJECT__50
10
1.190000
20
-12.875000
30
36.356998
70
192
0
VERTEX
8
OBJECT__50
10
2.200000
20
-15.684000
30
35.227001
70
192
0
VERTEX
8
OBJECT__50
10
1.190000
20
-14.760000
30
35.632999
70
192
0
VERTEX
8
OBJECT__50
10
2.200000
20
-17.506001
30
34.356998
70
192
0
VERTEX
8
OBJECT__50
10
1.190000
20
-16.604000
30
34.812000
70
192
0
VERTEX
8
OBJECT__50
10
8.951000
20
-8.567000
30
37.535999
70
192
0
VERTEX
8
OBJECT__50
10
2.200000
20
-19.280001
30
33.394001
70
192
0
VERTEX
8
OBJECT__50
10
1.190000
20
-18.403999
30
33.895000
70
192
0
VERTEX
8
OBJECT__50
10
2.200000
20
-21.000999
30
32.339001
70
192
0
VERTEX
8
OBJECT__50
10
1.190000
20
-20.152000
30
32.886002
70
192
0
VERTEX
8
OBJECT__50
10
2.200000
20
-22.665001
30
31.195999
70
192
0
VERTEX
8
OBJECT__50
10
1.190000
20
-21.846001
30
31.785999
70
192
0
VERTEX
8
OBJECT__50
10
1.912000
20
-24.042000
30
30.146999
70
192
0
VERTEX
8
OBJECT__50
10
1.190000
20
-23.479000
30
30.599001
70
192
0
VERTEX
8
OBJECT__50
10
2.200000
20
6.032000
30
38.084999
70
192
0
VERTEX
8
OBJECT__50
10
1.190000
20
7.029000
30
37.923000
70
192
0
VERTEX
8
OBJECT__50
10
2.200000
20
8.017000
30
37.717999
70
192
0
VERTEX
8
OBJECT__50
10
2.200000
20
4.031000
30
38.348999
70
192
0
VERTEX
8
OBJECT__50
10
1.190000
20
5.034000
30
38.238998
70
192
0
VERTEX
8
OBJECT__50
10
2.200000
20
2.018000
30
38.507000
70
192
0
VERTEX
8
OBJECT__50
10
1.190000
20
3.026000
30
38.450001
70
192
0
VERTEX
8
OBJECT__50
10
2.200000
20
0.000000
30
38.560001
70
192
0
VERTEX
8
OBJECT__50
10
1.190000
20
1.010000
30
38.556000
70
192
0
VERTEX
8
OBJECT__50
10
2.200000
20
-2.018000
30
38.507000
70
192
0
VERTEX
8
OBJECT__50
10
1.190000
20
-1.010000
30
38.556000
70
192
0
VERTEX
8
OBJECT__50
10
2.200000
20
-4.031000
30
38.348999
70
192
0
VERTEX
8
OBJECT__50
10
1.190000
20
-3.026000
30
38.450001
70
192
0
VERTEX
8
OBJECT__50
10
2.200000
20
-6.032000
30
38.084999
70
192
0
VERTEX
8
OBJECT__50
10
1.190000
20
-5.034000
30
38.238998
70
192
0
VERTEX
8
OBJECT__50
10
2.200000
20
-8.017000
30
37.717999
70
192
0
VERTEX
8
OBJECT__50
10
1.190000
20
-7.029000
30
37.923000
70
192
0
VERTEX
8
OBJECT__50
10
0
20
0
30
0
70
128
71
1
72
2
73
3
0
VERTEX
8
OBJECT__50
10
0
20
0
30
0
70
128
71
4
72
5
73
1
0
VERTEX
8
OBJECT__50
10
0
20
0
30
0
70
128
71
6
72
7
73
4
0
VERTEX
8
OBJECT__50
10
0
20
0
30
0
70
128
71
8
72
9
73
6
0
VERTEX
8
OBJECT__50
10
0
20
0
30
0
70
128
71
8
72
10
73
11
0
VERTEX
8
OBJECT__50
10
0
20
0
30
0
70
128
71
11
72
12
73
8
0
VERTEX
8
OBJECT__50
10
0
20
0
30
0
70
128
71
8
72
13
73
10
0
VERTEX
8
OBJECT__50
10
0
20
0
30
0
70
128
71
11
72
10
73
14
0
VERTEX
8
OBJECT__50
10
0
20
0
30
0
70
128
71
14
72
15
73
11
0
VERTEX
8
OBJECT__50
10
0
20
0
30
0
70
128
71
6
72
13
73
8
0
VERTEX
8
OBJECT__50
10
0
20
0
30
0
70
128
71
14
72
10
73
16
0
VERTEX
8
OBJECT__50
10
0
20
0
30
0
70
128
71
16
72
17
73
14
0
VERTEX
8
OBJECT__50
10
0
20
0
30
0
70
128
71
4
72
13
73
6
0
VERTEX
8
OBJECT__50
10
0
20
0
30
0
70
128
71
16
72
10
73
18
0
VERTEX
8
OBJECT__50
10
0
20
0
30
0
70
128
71
18
72
19
73
16
0
VERTEX
8
OBJECT__50
10
0
20
0
30
0
70
128
71
1
72
13
73
4
0
VERTEX
8
OBJECT__50
10
0
20
0
30
0
70
128
71
18
72
10
73
20
0
VERTEX
8
OBJECT__50
10
0
20
0
30
0
70
128
71
20
72
21
73
18
0
VERTEX
8
OBJECT__50
10
0
20
0
30
0
70
128
71
22
72
23
73
24
0
VERTEX
8
OBJECT__50
10
0
20
0
30
0
70
128
71
25
72
26
73
22
0
VERTEX
8
OBJECT__50
10
0
20
0
30
0
70
128
71
27
72
28
73
25
0
VERTEX
8
OBJECT__50
10
0
20
0
30
0
70
128
71
29
72
30
73
27
0
VERTEX
8
OBJECT__50
10
0
20
0
30
0
70
128
71
31
72
13
73
29
0
VERTEX
8
OBJECT__50
10
0
20
0
30
0
70
128
71
29
72
13
73
32
0
VERTEX
8
OBJECT__50
10
0
20
0
30
0
70
128
71
32
72
33
73
29
0
VERTEX
8
OBJECT__50
10
0
20
0
30
0
70
128
71
27
72
31
73
29
0
VERTEX
8
OBJECT__50
10
0
20
0
30
0
70
128
71
32
72
13
73
34
0
VERTEX
8
OBJECT__50
10
0
20
0
30
0
70
128
71
34
72
35
73
32
0
VERTEX
8
OBJECT__50
10
0
20
0
30
0
70
128
71
25
72
31
73
27
0
VERTEX
8
OBJECT__50
10
0
20
0
30
0
70
128
71
34
72
13
73
36
0
VERTEX
8
OBJECT__50
10
0
20
0
30
0
70
128
71
36
72
37
73
34
0
VERTEX
8
OBJECT__50
10
0
20
0
30
0
70
128
71
22
72
31
73
25
0
VERTEX
8
OBJECT__50
10
0
20
0
30
0
70
128
71
36
72
13
73
38
0
VERTEX
8
OBJECT__50
10
0
20
0
30
0
70
128
71
38
72
39
73
36
0
VERTEX
8
OBJECT__50
10
0
20
0
30
0
70
128
71
24
72
31
73
22
0
VERTEX
8
OBJECT__50
10
0
20
0
30
0
70
128
71
13
72
3
73
38
0
VERTEX
8
OBJECT__50
10
0
20
0
30
0
70
128
71
40
72
41
73
42
0
VERTEX
8
OBJECT__50
10
0
20
0
30
0
70
128
71
43
72
44
73
40
0
VERTEX
8
OBJECT__50
10
0
20
0
30
0
70
128
71
45
72
46
73
43
0
VERTEX
8
OBJECT__50
10
0
20
0
30
0
70
128
71
47
72
48
73
45
0
VERTEX
8
OBJECT__50
10
0
20
0
30
0
70
128
71
47
72
31
73
49
0
VERTEX
8
OBJECT__50
10
0
20
0
30
0
70
128
71
49
72
50
73
47
0
VERTEX
8
OBJECT__50
10
0
20
0
30
0
70
128
71
47
72
51
73
31
0
VERTEX
8
OBJECT__50
10
0
20
0
30
0
70
128
71
49
72
31
73
52
0
VERTEX
8
OBJECT__50
10
0
20
0
30
0
70
128
71
52
72
53
73
49
0
VERTEX
8
OBJECT__50
10
0
20
0
30
0
70
128
71
45
72
51
73
47
0
VERTEX
8
OBJECT__50
10
0
20
0
30
0
70
128
71
52
72
31
73
54
0
VERTEX
8
OBJECT__50
10
0
20
0
30
0
70
128
71
54
72
55
73
52
0
VERTEX
8
OBJECT__50
10
0
20
0
30
0
70
128
71
43
72
51
73
45
0
VERTEX
8
OBJECT__50
10
0
20
0
30
0
70
128
71
54
72
31
73
56
0
VERTEX
8
OBJECT__50
10
0
20
0
30
0
70
128
71
56
72
57
73
54
0
VERTEX
8
OBJECT__50
10
0
20
0
30
0
70
128
71
40
72
51
73
43
0
VERTEX
8
OBJECT__50
10
0
20
0
30
0
70
128
71
56
72
31
73
58
0
VERTEX
8
OBJECT__50
10
0
20
0
30
0
70
128
71
58
72
59
73
56
0
VERTEX
8
OBJECT__50
10
0
20
0
30
0
70
128
71
60
72
61
73
62
0
VERTEX
8
OBJECT__50
10
0
20
0
30
0
70
128
71
63
72
64
73
60
0
VERTEX
8
OBJECT__50
10
0
20
0
30
0
70
128
71
65
72
66
73
63
0
VERTEX
8
OBJECT__50
10
0
20
0
30
0
70
128
71
67
72
68
73
65
0
VERTEX
8
OBJECT__50
10
0
20
0
30
0
70
128
71
69
72
70
73
67
0
VERTEX
8
OBJECT__50
10
0
20
0
30
0
70
128
71
71
72
51
73
69
0
VERTEX
8
OBJECT__50
10
0
20
0
30
0
70
128
71
69
72
51
73
72
0
VERTEX
8
OBJECT__50
10
0
20
0
30
0
70
128
71
72
72
73
73
69
0
VERTEX
8
OBJECT__50
10
0
20
0
30
0
70
128
71
67
72
71
73
69
0
VERTEX
8
OBJECT__50
10
0
20
0
30
0
70
128
71
72
72
51
73
74
0
VERTEX
8
OBJECT__50
10
0
20
0
30
0
70
128
71
74
72
75
73
72
0
VERTEX
8
OBJECT__50
10
0
20
0
30
0
70
128
71
65
72
71
73
67
0
VERTEX
8
OBJECT__50
10
0
20
0
30
0
70
128
71
74
72
51
73
76
0
VERTEX
8
OBJECT__50
10
0
20
0
30
0
70
128
71
76
72
77
73
74
0
VERTEX
8
OBJECT__50
10
0
20
0
30
0
70
128
71
63
72
71
73
65
0
VERTEX
8
OBJECT__50
10
0
20
0
30
0
70
128
71
76
72
51
73
42
0
VERTEX
8
OBJECT__50
10
0
20
0
30
0
70
128
71
42
72
78
73
76
0
VERTEX
8
OBJECT__50
10
0
20
0
30
0
70
128
71
60
72
71
73
63
0
VERTEX
8
OBJECT__50
10
0
20
0
30
0
70
128
71
79
72
80
73
81
0
VERTEX
8
OBJECT__50
10
0
20
0
30
0
70
128
71
82
72
83
73
79
0
VERTEX
8
OBJECT__50
10
0
20
0
30
0
70
128
71
84
72
85
73
82
0
VERTEX
8
OBJECT__50
10
0
20
0
30
0
70
128
71
86
72
87
73
84
0
VERTEX
8
OBJECT__50
10
0
20
0
30
0
70
128
71
86
72
71
73
88
0
VERTEX
8
OBJECT__50
10
0
20
0
30
0
70
128
71
88
72
89
73
86
0
VERTEX
8
OBJECT__50
10
0
20
0
30
0
70
128
71
86
72
90
73
71
0
VERTEX
8
OBJECT__50
10
0
20
0
30
0
70
128
71
88
72
71
73
91
0
VERTEX
8
OBJECT__50
10
0
20
0
30
0
70
128
71
91
72
92
73
88
0
VERTEX
8
OBJECT__50
10
0
20
0
30
0
70
128
71
84
72
90
73
86
0
VERTEX
8
OBJECT__50
10
0
20
0
30
0
70
128
71
91
72
71
73
93
0
VERTEX
8
OBJECT__50
10
0
20
0
30
0
70
128
71
93
72
94
73
91
0
VERTEX
8
OBJECT__50
10
0
20
0
30
0
70
128
71
82
72
90
73
84
0
VERTEX
8
OBJECT__50
10
0
20
0
30
0
70
128
71
93
72
71
73
95
0
VERTEX
8
OBJECT__50
10
0
20
0
30
0
70
128
71
95
72
96
73
93
0
VERTEX
8
OBJECT__50
10
0
20
0
30
0
70
128
71
79
72
90
73
82
0
VERTEX
8
OBJECT__50
10
0
20
0
30
0
70
128
71
71
72
62
73
95
0
VERTEX
8
OBJECT__50
10
0
20
0
30
0
70
128
71
81
72
90
73
79
0
VERTEX
8
OBJECT__50
10
0
20
0
30
0
70
128
71
97
72
98
73
99
0
VERTEX
8
OBJECT__50
10
0
20
0
30
0
70
128
71
100
72
101
73
97
0
VERTEX
8
OBJECT__50
10
0
20
0
30
0
70
128
71
102
72
103
73
100
0
VERTEX
8
OBJECT__50
10
0
20
0
30
0
70
128
71
104
72
105
73
102
0
VERTEX
8
OBJECT__50
10
0
20
0
30
0
70
128
71
106
72
107
73
104
0
VERTEX
8
OBJECT__50
10
0
20
0
30
0
70
128
71
108
72
90
73
106
0
VERTEX
8
OBJECT__50
10
0
20
0
30
0
70
128
71
106
72
90
73
109
0
VERTEX
8
OBJECT__50
10
0
20
0
30
0
70
128
71
109
72
110
73
106
0
VERTEX
8
OBJECT__50
10
0
20
0
30
0
70
128
71
104
72
108
73
106
0
VERTEX
8
OBJECT__50
10
0
20
0
30
0
70
128
71
109
72
90
73
111
0
VERTEX
8
OBJECT__50
10
0
20
0
30
0
70
128
71
111
72
112
73
109
0
VERTEX
8
OBJECT__50
10
0
20
0
30
0
70
128
71
102
72
108
73
104
0
VERTEX
8
OBJECT__50
10
0
20
0
30
0
70
128
71
111
72
90
73
113
0
VERTEX
8
OBJECT__50
10
0
20
0
30
0
70
128
71
113
72
114
73
111
0
VERTEX
8
OBJECT__50
10
0
20
0
30
0
70
128
71
100
72
108
73
102
0
VERTEX
8
OBJECT__50
10
0
20
0
30
0
70
128
71
113
72
90
73
115
0
VERTEX
8
OBJECT__50
10
0
20
0
30
0
70
128
71
115
72
116
73
113
0
VERTEX
8
OBJECT__50
10
0
20
0
30
0
70
128
71
97
72
108
73
100
0
VERTEX
8
OBJECT__50
10
0
20
0
30
0
70
128
71
117
72
118
73
119
0
VERTEX
8
OBJECT__50
10
0
20
0
30
0
70
128
71
120
72
121
73
117
0
VERTEX
8
OBJECT__50
10
0
20
0
30
0
70
128
71
122
72
123
73
120
0
VERTEX
8
OBJECT__50
10
0
20
0
30
0
70
128
71
124
72
125
73
122
0
VERTEX
8
OBJECT__50
10
0
20
0
30
0
70
128
71
124
72
108
73
126
0
VERTEX
8
OBJECT__50
10
0
20
0
30
0
70
128
71
126
72
127
73
124
0
VERTEX
8
OBJECT__50
10
0
20
0
30
0
70
128
71
124
72
128
73
108
0
VERTEX
8
OBJECT__50
10
0
20
0
30
0
70
128
71
126
72
108
73
129
0
VERTEX
8
OBJECT__50
10
0
20
0
30
0
70
128
71
129
72
130
73
126
0
VERTEX
8
OBJECT__50
10
0
20
0
30
0
70
128
71
122
72
128
73
124
0
VERTEX
8
OBJECT__50
10
0
20
0
30
0
70
128
71
129
72
108
73
131
0
VERTEX
8
OBJECT__50
10
0
20
0
30
0
70
128
71
131
72
132
73
129
0
VERTEX
8
OBJECT__50
10
0
20
0
30
0
70
128
71
120
72
128
73
122
0
VERTEX
8
OBJECT__50
10
0
20
0
30
0
70
128
71
131
72
108
73
133
0
VERTEX
8
OBJECT__50
10
0
20
0
30
0
70
128
71
133
72
134
73
131
0
VERTEX
8
OBJECT__50
10
0
20
0
30
0
70
128
71
117
72
128
73
120
0
VERTEX
8
OBJECT__50
10
0
20
0
30
0
70
128
71
108
72
99
73
133
0
VERTEX
8
OBJECT__50
10
0
20
0
30
0
70
128
71
119
72
128
73
117
0
VERTEX
8
OBJECT__50
10
0
20
0
30
0
70
128
71
135
72
136
73
137
0
VERTEX
8
OBJECT__50
10
0
20
0
30
0
70
128
71
138
72
139
73
135
0
VERTEX
8
OBJECT__50
10
0
20
0
30
0
70
128
71
140
72
141
73
138
0
VERTEX
8
OBJECT__50
10
0
20
0
30
0
70
128
71
142
72
143
73
140
0
VERTEX
8
OBJECT__50
10
0
20
0
30
0
70
128
71
142
72
128
73
144
0
VERTEX
8
OBJECT__50
10
0
20
0
30
0
70
128
71
144
72
145
73
142
0
VERTEX
8
OBJECT__50
10
0
20
0
30
0
70
128
71
142
72
146
73
128
0
VERTEX
8
OBJECT__50
10
0
20
0
30
0
70
128
71
144
72
128
73
147
0
VERTEX
8
OBJECT__50
10
0
20
0
30
0
70
128
71
147
72
148
73
144
0
VERTEX
8
OBJECT__50
10
0
20
0
30
0
70
128
71
140
72
146
73
142
0
VERTEX
8
OBJECT__50
10
0
20
0
30
0
70
128
71
147
72
128
73
149
0
VERTEX
8
OBJECT__50
10
0
20
0
30
0
70
128
71
149
72
150
73
147
0
VERTEX
8
OBJECT__50
10
0
20
0
30
0
70
128
71
138
72
146
73
140
0
VERTEX
8
OBJECT__50
10
0
20
0
30
0
70
128
71
149
72
128
73
151
0
VERTEX
8
OBJECT__50
10
0
20
0
30
0
70
128
71
151
72
152
73
149
0
VERTEX
8
OBJECT__50
10
0
20
0
30
0
70
128
71
135
72
146
73
138
0
VERTEX
8
OBJECT__50
10
0
20
0
30
0
70
128
71
151
72
128
73
153
0
VERTEX
8
OBJECT__50
10
0
20
0
30
0
70
128
71
153
72
154
73
151
0
VERTEX
8
OBJECT__50
10
0
20
0
30
0
70
128
71
155
72
156
73
157
0
VERTEX
8
OBJECT__50
10
0
20
0
30
0
70
128
71
158
72
159
73
155
0
VERTEX
8
OBJECT__50
10
0
20
0
30
0
70
128
71
160
72
161
73
158
0
VERTEX
8
OBJECT__50
10
0
20
0
30
0
70
128
71
162
72
163
73
160
0
VERTEX
8
OBJECT__50
10
0
20
0
30
0
70
128
71
164
72
146
73
162
0
VERTEX
8
OBJECT__50
10
0
20
0
30
0
70
128
71
162
72
146
73
165
0
VERTEX
8
OBJECT__50
10
0
20
0
30
0
70
128
71
165
72
166
73
162
0
VERTEX
8
OBJECT__50
10
0
20
0
30
0
70
128
71
160
72
164
73
162
0
VERTEX
8
OBJECT__50
10
0
20
0
30
0
70
128
71
165
72
146
73
167
0
VERTEX
8
OBJECT__50
10
0
20
0
30
0
70
128
71
167
72
168
73
165
0
VERTEX
8
OBJECT__50
10
0
20
0
30
0
70
128
71
158
72
164
73
160
0
VERTEX
8
OBJECT__50
10
0
20
0
30
0
70
128
71
167
72
146
73
169
0
VERTEX
8
OBJECT__50
10
0
20
0
30
0
70
128
71
169
72
170
73
167
0
VERTEX
8
OBJECT__50
10
0
20
0
30
0
70
128
71
155
72
164
73
158
0
VERTEX
8
OBJECT__50
10
0
20
0
30
0
70
128
71
169
72
146
73
171
0
VERTEX
8
OBJECT__50
10
0
20
0
30
0
70
128
71
171
72
172
73
169
0
VERTEX
8
OBJECT__50
10
0
20
0
30
0
70
128
71
157
72
164
73
155
0
VERTEX
8
OBJECT__50
10
0
20
0
30
0
70
128
71
146
72
137
73
171
0
VERTEX
8
OBJECT__50
10
0
20
0
30
0
70
128
71
173
72
174
73
175
0
VERTEX
8
OBJECT__50
10
0
20
0
30
0
70
128
71
176
72
177
73
173
0
VERTEX
8
OBJECT__50
10
0
20
0
30
0
70
128
71
178
72
179
73
176
0
VERTEX
8
OBJECT__50
10
0
20
0
30
0
70
128
71
180
72
181
73
178
0
VERTEX
8
OBJECT__50
10
0
20
0
30
0
70
128
71
180
72
164
73
182
0
VERTEX
8
OBJECT__50
10
0
20
0
30
0
70
128
71
182
72
183
73
180
0
VERTEX
8
OBJECT__50
10
0
20
0
30
0
70
128
71
180
72
184
73
164
0
VERTEX
8
OBJECT__50
10
0
20
0
30
0
70
128
71
182
72
164
73
185
0
VERTEX
8
OBJECT__50
10
0
20
0
30
0
70
128
71
185
72
186
73
182
0
VERTEX
8
OBJECT__50
10
0
20
0
30
0
70
128
71
178
72
184
73
180
0
VERTEX
8
OBJECT__50
10
0
20
0
30
0
70
128
71
185
72
164
73
187
0
VERTEX
8
OBJECT__50
10
0
20
0
30
0
70
128
71
187
72
188
73
185
0
VERTEX
8
OBJECT__50
10
0
20
0
30
0
70
128
71
176
72
184
73
178
0
VERTEX
8
OBJECT__50
10
0
20
0
30
0
70
128
71
187
72
164
73
189
0
VERTEX
8
OBJECT__50
10
0
20
0
30
0
70
128
71
189
72
190
73
187
0
VERTEX
8
OBJECT__50
10
0
20
0
30
0
70
128
71
173
72
184
73
176
0
VERTEX
8
OBJECT__50
10
0
20
0
30
0
70
128
71
189
72
164
73
191
0
VERTEX
8
OBJECT__50
10
0
20
0
30
0
70
128
71
191
72
192
73
189
0
VERTEX
8
OBJECT__50
10
0
20
0
30
0
70
128
71
193
72
194
73
195
0
VERTEX
8
OBJECT__50
10
0
20
0
30
0
70
128
71
196
72
197
73
193
0
VERTEX
8
OBJECT__50
10
0
20
0
30
0
70
128
71
198
72
199
73
196
0
VERTEX
8
OBJECT__50
10
0
20
0
30
0
70
128
71
200
72
201
73
198
0
VERTEX
8
OBJECT__50
10
0
20
0
30
0
70
128
71
202
72
203
73
200
0
VERTEX
8
OBJECT__50
10
0
20
0
30
0
70
128
71
204
72
184
73
202
0
VERTEX
8
OBJECT__50
10
0
20
0
30
0
70
128
71
202
72
184
73
205
0
VERTEX
8
OBJECT__50
10
0
20
0
30
0
70
128
71
205
72
206
73
202
0
VERTEX
8
OBJECT__50
10
0
20
0
30
0
70
128
71
200
72
204
73
202
0
VERTEX
8
OBJECT__50
10
0
20
0
30
0
70
128
71
205
72
184
73
207
0
VERTEX
8
OBJECT__50
10
0
20
0
30
0
70
128
71
207
72
208
73
205
0
VERTEX
8
OBJECT__50
10
0
20
0
30
0
70
128
71
198
72
204
73
200
0
VERTEX
8
OBJECT__50
10
0
20
0
30
0
70
128
71
207
72
184
73
209
0
VERTEX
8
OBJECT__50
10
0
20
0
30
0
70
128
71
209
72
210
73
207
0
VERTEX
8
OBJECT__50
10
0
20
0
30
0
70
128
71
196
72
204
73
198
0
VERTEX
8
OBJECT__50
10
0
20
0
30
0
70
128
71
209
72
184
73
175
0
VERTEX
8
OBJECT__50
10
0
20
0
30
0
70
128
71
175
72
211
73
209
0
VERTEX
8
OBJECT__50
10
0
20
0
30
0
70
128
71
193
72
204
73
196
0
VERTEX
8
OBJECT__50
10
0
20
0
30
0
70
128
71
212
72
213
73
214
0
VERTEX
8
OBJECT__50
10
0
20
0
30
0
70
128
71
215
72
216
73
212
0
VERTEX
8
OBJECT__50
10
0
20
0
30
0
70
128
71
217
72
218
73
215
0
VERTEX
8
OBJECT__50
10
0
20
0
30
0
70
128
71
219
72
220
73
217
0
VERTEX
8
OBJECT__50
10
0
20
0
30
0
70
128
71
219
72
204
73
221
0
VERTEX
8
OBJECT__50
10
0
20
0
30
0
70
128
71
221
72
222
73
219
0
VERTEX
8
OBJECT__50
10
0
20
0
30
0
70
128
71
219
72
223
73
204
0
VERTEX
8
OBJECT__50
10
0
20
0
30
0
70
128
71
221
72
204
73
224
0
VERTEX
8
OBJECT__50
10
0
20
0
30
0
70
128
71
224
72
225
73
221
0
VERTEX
8
OBJECT__50
10
0
20
0
30
0
70
128
71
217
72
223
73
219
0
VERTEX
8
OBJECT__50
10
0
20
0
30
0
70
128
71
224
72
204
73
226
0
VERTEX
8
OBJECT__50
10
0
20
0
30
0
70
128
71
226
72
227
73
224
0
VERTEX
8
OBJECT__50
10
0
20
0
30
0
70
128
71
215
72
223
73
217
0
VERTEX
8
OBJECT__50
10
0
20
0
30
0
70
128
71
226
72
204
73
228
0
VERTEX
8
OBJECT__50
10
0
20
0
30
0
70
128
71
228
72
229
73
226
0
VERTEX
8
OBJECT__50
10
0
20
0
30
0
70
128
71
212
72
223
73
215
0
VERTEX
8
OBJECT__50
10
0
20
0
30
0
70
128
71
204
72
195
73
228
0
VERTEX
8
OBJECT__50
10
0
20
0
30
0
70
128
71
214
72
223
73
212
0
VERTEX
8
OBJECT__50
10
0
20
0
30
0
70
128
71
230
72
231
73
232
0
VERTEX
8
OBJECT__50
10
0
20
0
30
0
70
128
71
233
72
234
73
230
0
VERTEX
8
OBJECT__50
10
0
20
0
30
0
70
128
71
235
72
236
73
233
0
VERTEX
8
OBJECT__50
10
0
20
0
30
0
70
128
71
237
72
238
73
235
0
VERTEX
8
OBJECT__50
10
0
20
0
30
0
70
128
71
239
72
240
73
237
0
VERTEX
8
OBJECT__50
10
0
20
0
30
0
70
128
71
241
72
223
73
239
0
VERTEX
8
OBJECT__50
10
0
20
0
30
0
70
128
71
239
72
223
73
242
0
VERTEX
8
OBJECT__50
10
0
20
0
30
0
70
128
71
242
72
243
73
239
0
VERTEX
8
OBJECT__50
10
0
20
0
30
0
70
128
71
237
72
241
73
239
0
VERTEX
8
OBJECT__50
10
0
20
0
30
0
70
128
71
242
72
223
73
244
0
VERTEX
8
OBJECT__50
10
0
20
0
30
0
70
128
71
244
72
245
73
242
0
VERTEX
8
OBJECT__50
10
0
20
0
30
0
70
128
71
235
72
241
73
237
0
VERTEX
8
OBJECT__50
10
0
20
0
30
0
70
128
71
244
72
223
73
246
0
VERTEX
8
OBJECT__50
10
0
20
0
30
0
70
128
71
246
72
247
73
244
0
VERTEX
8
OBJECT__50
10
0
20
0
30
0
70
128
71
233
72
241
73
235
0
VERTEX
8
OBJECT__50
10
0
20
0
30
0
70
128
71
246
72
223
73
248
0
VERTEX
8
OBJECT__50
10
0
20
0
30
0
70
128
71
248
72
249
73
246
0
VERTEX
8
OBJECT__50
10
0
20
0
30
0
70
128
71
230
72
241
73
233
0
VERTEX
8
OBJECT__50
10
0
20
0
30
0
70
128
71
250
72
251
73
252
0
VERTEX
8
OBJECT__50
10
0
20
0
30
0
70
128
71
253
72
254
73
250
0
VERTEX
8
OBJECT__50
10
0
20
0
30
0
70
128
71
255
72
256
73
253
0
VERTEX
8
OBJECT__50
10
0
20
0
30
0
70
128
71
257
72
258
73
255
0
VERTEX
8
OBJECT__50
10
0
20
0
30
0
70
128
71
257
72
241
73
259
0
VERTEX
8
OBJECT__50
10
0
20
0
30
0
70
128
71
259
72
260
73
257
0
VERTEX
8
OBJECT__50
10
0
20
0
30
0
70
128
71
257
72
10
73
241
0
VERTEX
8
OBJECT__50
10
0
20
0
30
0
70
128
71
259
72
241
73
261
0
VERTEX
8
OBJECT__50
10
0
20
0
30
0
70
128
71
261
72
262
73
259
0
VERTEX
8
OBJECT__50
10
0
20
0
30
0
70
128
71
255
72
10
73
257
0
VERTEX
8
OBJECT__50
10
0
20
0
30
0
70
128
71
261
72
241
73
263
0
VERTEX
8
OBJECT__50
10
0
20
0
30
0
70
128
71
263
72
264
73
261
0
VERTEX
8
OBJECT__50
10
0
20
0
30
0
70
128
71
253
72
10
73
255
0
VERTEX
8
OBJECT__50
10
0
20
0
30
0
70
128
71
250
72
10
73
253
0
VERTEX
8
OBJECT__50
10
0
20
0
30
0
70
128
71
263
72
241
73
265
0
VERTEX
8
OBJECT__50
10
0
20
0
30
0
70
128
71
265
72
266
73
263
0
VERTEX
8
OBJECT__50
10
0
20
0
30
0
70
128
71
252
72
10
73
250
0
VERTEX
8
OBJECT__50
10
0
20
0
30
0
70
128
71
241
72
232
73
265
0
VERTEX
8
OBJECT__50
10
0
20
0
30
0
70
128
71
252
72
20
73
10
0
VERTEX
8
OBJECT__50
10
0
20
0
30
0
70
128
71
232
72
241
73
230
0
VERTEX
8
OBJECT__50
10
0
20
0
30
0
70
128
71
214
72
248
73
223
0
VERTEX
8
OBJECT__50
10
0
20
0
30
0
70
128
71
195
72
204
73
193
0
VERTEX
8
OBJECT__50
10
0
20
0
30
0
70
128
71
175
72
184
73
173
0
VERTEX
8
OBJECT__50
10
0
20
0
30
0
70
128
71
157
72
191
73
164
0
VERTEX
8
OBJECT__50
10
0
20
0
30
0
70
128
71
137
72
146
73
135
0
VERTEX
8
OBJECT__50
10
0
20
0
30
0
70
128
71
119
72
153
73
128
0
VERTEX
8
OBJECT__50
10
0
20
0
30
0
70
128
71
99
72
108
73
97
0
VERTEX
8
OBJECT__50
10
0
20
0
30
0
70
128
71
81
72
115
73
90
0
VERTEX
8
OBJECT__50
10
0
20
0
30
0
70
128
71
62
72
71
73
60
0
VERTEX
8
OBJECT__50
10
0
20
0
30
0
70
128
71
42
72
51
73
40
0
VERTEX
8
OBJECT__50
10
0
20
0
30
0
70
128
71
24
72
58
73
31
0
VERTEX
8
OBJECT__50
10
0
20
0
30
0
70
128
71
3
72
13
73
1
0
SEQEND
8
OBJECT__50
0
ENDSEC
0
EOF
