999
Converted by 3D Exploration 
999
XDimension Software, LLC
999
http://www.xdsoft.com/explorer/
0
SECTION
2
HEADER
9
$ACADVER
1
AC1008
9
$UCSORG
10
0.0
20
0.0
30
0.0
9
$UCSXDIR
10
1.0
20
0.0
30
0.0
9
$TILEMODE
70
1
9
$UCSYDIR
10
0.0
20
1.0
30
0.0
9
$EXTMIN
10
0.000000
20
-58.000000
30
-58.000000
9
$EXTMAX
10
14.977000
20
58.000000
30
72.000000
0
ENDSEC
0
SECTION
2
TABLES
0
TABLE
2
LTYPE
70
1
0
LTYPE
2
CONTINUOUS
70
64
3
Solid line
72
65
73
0
40
0.0
0
ENDTAB
0
TABLE
2
LAYER
70
18
0
LAYER
2
OBJECT__0
70
0
62
253
6
CONTINUOUS
0
LAYER
2
OBJECT__1
70
0
62
253
6
CONTINUOUS
0
LAYER
2
OBJECT__3
70
0
62
253
6
CONTINUOUS
0
LAYER
2
OBJECT__5
70
0
62
253
6
CONTINUOUS
0
LAYER
2
OBJECT__6
70
0
62
253
6
CONTINUOUS
0
LAYER
2
OBJECT__8
70
0
62
253
6
CONTINUOUS
0
LAYER
2
OBJECT__9
70
0
62
253
6
CONTINUOUS
0
LAYER
2
OBJECT__10
70
0
62
253
6
CONTINUOUS
0
LAYER
2
OBJECT__11
70
0
62
253
6
CONTINUOUS
0
LAYER
2
OBJECT__12
70
0
62
253
6
CONTINUOUS
0
LAYER
2
OBJECT__13
70
0
62
253
6
CONTINUOUS
0
LAYER
2
OBJECT__14
70
0
62
253
6
CONTINUOUS
0
LAYER
2
OBJECT__15
70
0
62
253
6
CONTINUOUS
0
LAYER
2
OBJECT__16
70
0
62
253
6
CONTINUOUS
0
LAYER
2
OBJECT__17
70
0
62
253
6
CONTINUOUS
0
ENDTAB
0
TABLE
2
STYLE
70
1
0
STYLE
2
STANDARD
70
0
40
0.0
41
1.0
50
0.0
71
0
42
0.2
3
txt
4
1
0
ENDTAB
0
TABLE
2
UCS
70
0
0
ENDTAB
0
ENDSEC
0
SECTION
2
ENTITIES
0
POLYLINE
8
OBJECT__0
66
1
70
64
71
53
72
71
62
253
0
VERTEX
8
OBJECT__0
10
11.704000
20
-7.871000
30
-34.374001
70
192
0
VERTEX
8
OBJECT__0
10
11.704000
20
0.000000
30
-35.688000
70
192
0
VERTEX
8
OBJECT__0
10
14.157000
20
0.000000
30
-17.919001
70
192
0
VERTEX
8
OBJECT__0
10
14.157000
20
-5.818000
30
-16.948000
70
192
0
VERTEX
8
OBJECT__0
10
11.704000
20
-11.588000
30
-33.754002
70
192
0
VERTEX
8
OBJECT__0
10
11.704000
20
-21.920000
30
-28.163000
70
192
0
VERTEX
8
OBJECT__0
10
11.704000
20
-22.202000
30
-27.857000
70
192
0
VERTEX
8
OBJECT__0
10
14.157000
20
-11.006000
30
-14.140000
70
192
0
VERTEX
8
OBJECT__0
10
14.157000
20
-15.001000
30
-9.801000
70
192
0
VERTEX
8
OBJECT__0
10
11.704000
20
-29.877001
30
-19.518999
70
192
0
VERTEX
8
OBJECT__0
10
11.704000
20
-31.728001
30
-15.298000
70
192
0
VERTEX
8
OBJECT__0
10
14.157000
20
-17.370001
30
-4.399000
70
192
0
VERTEX
8
OBJECT__0
10
11.704000
20
-34.596001
30
-8.761000
70
192
0
VERTEX
8
OBJECT__0
10
11.704000
20
-35.688000
30
0.000000
70
192
0
VERTEX
8
OBJECT__0
10
14.157000
20
-17.858000
30
1.480000
70
192
0
VERTEX
8
OBJECT__0
10
11.704000
20
-35.566002
30
2.947000
70
192
0
VERTEX
8
OBJECT__0
10
11.704000
20
-32.681999
30
14.336000
70
192
0
VERTEX
8
OBJECT__0
10
11.704000
20
-31.997999
30
15.383000
70
192
0
VERTEX
8
OBJECT__0
10
14.157000
20
-16.410000
30
7.198000
70
192
0
VERTEX
8
OBJECT__0
10
14.157000
20
-13.183000
30
12.136000
70
192
0
VERTEX
8
OBJECT__0
10
11.704000
20
-26.256001
30
24.171000
70
192
0
VERTEX
8
OBJECT__0
10
11.704000
20
-21.954000
30
27.520000
70
192
0
VERTEX
8
OBJECT__0
10
14.157000
20
-8.528000
30
15.759000
70
192
0
VERTEX
8
OBJECT__0
10
11.704000
20
-16.986000
30
31.386000
70
192
0
VERTEX
8
OBJECT__0
10
11.704000
20
-7.849000
30
34.522999
70
192
0
VERTEX
8
OBJECT__0
10
14.157000
20
-2.949000
30
17.674000
70
192
0
VERTEX
8
OBJECT__0
10
11.704000
20
-5.874000
30
35.201000
70
192
0
VERTEX
8
OBJECT__0
10
11.704000
20
5.874000
30
35.201000
70
192
0
VERTEX
8
OBJECT__0
10
11.704000
20
7.849000
30
34.522999
70
192
0
VERTEX
8
OBJECT__0
10
14.157000
20
2.949000
30
17.674000
70
192
0
VERTEX
8
OBJECT__0
10
14.157000
20
8.528000
30
15.759000
70
192
0
VERTEX
8
OBJECT__0
10
11.704000
20
16.986000
30
31.386000
70
192
0
VERTEX
8
OBJECT__0
10
11.704000
20
21.954000
30
27.520000
70
192
0
VERTEX
8
OBJECT__0
10
14.157000
20
13.183000
30
12.136000
70
192
0
VERTEX
8
OBJECT__0
10
11.704000
20
26.256001
30
24.171000
70
192
0
VERTEX
8
OBJECT__0
10
11.704000
20
31.997999
30
15.383000
70
192
0
VERTEX
8
OBJECT__0
10
14.157000
20
16.410000
30
7.198000
70
192
0
VERTEX
8
OBJECT__0
10
11.704000
20
32.681999
30
14.336000
70
192
0
VERTEX
8
OBJECT__0
10
11.704000
20
35.566002
30
2.947000
70
192
0
VERTEX
8
OBJECT__0
10
11.704000
20
35.324001
30
0.030000
70
192
0
VERTEX
8
OBJECT__0
10
14.157000
20
17.858000
30
1.480000
70
192
0
VERTEX
8
OBJECT__0
10
14.157000
20
17.370001
30
-4.399000
70
192
0
VERTEX
8
OBJECT__0
10
11.704000
20
34.596001
30
-8.761000
70
192
0
VERTEX
8
OBJECT__0
10
11.704000
20
31.728001
30
-15.298000
70
192
0
VERTEX
8
OBJECT__0
10
14.157000
20
15.001000
30
-9.801000
70
192
0
VERTEX
8
OBJECT__0
10
11.704000
20
29.877001
30
-19.518999
70
192
0
VERTEX
8
OBJECT__0
10
11.704000
20
22.202000
30
-27.857000
70
192
0
VERTEX
8
OBJECT__0
10
14.157000
20
11.006000
30
-14.140000
70
192
0
VERTEX
8
OBJECT__0
10
11.704000
20
21.920000
30
-28.163000
70
192
0
VERTEX
8
OBJECT__0
10
14.157000
20
5.818000
30
-16.948000
70
192
0
VERTEX
8
OBJECT__0
10
11.704000
20
7.871000
30
-34.374001
70
192
0
VERTEX
8
OBJECT__0
10
11.704000
20
11.588000
30
-33.754002
70
192
0
VERTEX
8
OBJECT__0
10
14.977000
20
0.000000
30
0.000000
70
192
0
VERTEX
8
OBJECT__0
10
0
20
0
30
0
70
128
71
1
72
2
73
3
0
VERTEX
8
OBJECT__0
10
0
20
0
30
0
70
128
71
4
72
5
73
1
0
VERTEX
8
OBJECT__0
10
0
20
0
30
0
70
128
71
6
72
5
73
4
0
VERTEX
8
OBJECT__0
10
0
20
0
30
0
70
128
71
7
72
8
73
9
0
VERTEX
8
OBJECT__0
10
0
20
0
30
0
70
128
71
9
72
10
73
7
0
VERTEX
8
OBJECT__0
10
0
20
0
30
0
70
128
71
11
72
9
73
12
0
VERTEX
8
OBJECT__0
10
0
20
0
30
0
70
128
71
12
72
13
73
11
0
VERTEX
8
OBJECT__0
10
0
20
0
30
0
70
128
71
14
72
13
73
12
0
VERTEX
8
OBJECT__0
10
0
20
0
30
0
70
128
71
15
72
16
73
14
0
VERTEX
8
OBJECT__0
10
0
20
0
30
0
70
128
71
17
72
16
73
15
0
VERTEX
8
OBJECT__0
10
0
20
0
30
0
70
128
71
18
72
19
73
20
0
VERTEX
8
OBJECT__0
10
0
20
0
30
0
70
128
71
20
72
21
73
18
0
VERTEX
8
OBJECT__0
10
0
20
0
30
0
70
128
71
22
72
20
73
23
0
VERTEX
8
OBJECT__0
10
0
20
0
30
0
70
128
71
23
72
24
73
22
0
VERTEX
8
OBJECT__0
10
0
20
0
30
0
70
128
71
25
72
24
73
23
0
VERTEX
8
OBJECT__0
10
0
20
0
30
0
70
128
71
26
72
27
73
25
0
VERTEX
8
OBJECT__0
10
0
20
0
30
0
70
128
71
28
72
27
73
26
0
VERTEX
8
OBJECT__0
10
0
20
0
30
0
70
128
71
29
72
30
73
31
0
VERTEX
8
OBJECT__0
10
0
20
0
30
0
70
128
71
31
72
32
73
29
0
VERTEX
8
OBJECT__0
10
0
20
0
30
0
70
128
71
33
72
32
73
31
0
VERTEX
8
OBJECT__0
10
0
20
0
30
0
70
128
71
34
72
35
73
33
0
VERTEX
8
OBJECT__0
10
0
20
0
30
0
70
128
71
36
72
35
73
34
0
VERTEX
8
OBJECT__0
10
0
20
0
30
0
70
128
71
37
72
38
73
36
0
VERTEX
8
OBJECT__0
10
0
20
0
30
0
70
128
71
39
72
38
73
37
0
VERTEX
8
OBJECT__0
10
0
20
0
30
0
70
128
71
40
72
41
73
42
0
VERTEX
8
OBJECT__0
10
0
20
0
30
0
70
128
71
42
72
43
73
40
0
VERTEX
8
OBJECT__0
10
0
20
0
30
0
70
128
71
44
72
43
73
42
0
VERTEX
8
OBJECT__0
10
0
20
0
30
0
70
128
71
45
72
46
73
44
0
VERTEX
8
OBJECT__0
10
0
20
0
30
0
70
128
71
47
72
46
73
45
0
VERTEX
8
OBJECT__0
10
0
20
0
30
0
70
128
71
48
72
49
73
47
0
VERTEX
8
OBJECT__0
10
0
20
0
30
0
70
128
71
49
72
48
73
50
0
VERTEX
8
OBJECT__0
10
0
20
0
30
0
70
128
71
51
72
50
73
3
0
VERTEX
8
OBJECT__0
10
0
20
0
30
0
70
128
71
3
72
2
73
51
0
VERTEX
8
OBJECT__0
10
0
20
0
30
0
70
128
71
51
72
52
73
50
0
VERTEX
8
OBJECT__0
10
0
20
0
30
0
70
128
71
50
72
52
73
49
0
VERTEX
8
OBJECT__0
10
0
20
0
30
0
70
128
71
45
72
48
73
47
0
VERTEX
8
OBJECT__0
10
0
20
0
30
0
70
128
71
42
72
45
73
44
0
VERTEX
8
OBJECT__0
10
0
20
0
30
0
70
128
71
40
72
39
73
41
0
VERTEX
8
OBJECT__0
10
0
20
0
30
0
70
128
71
37
72
41
73
39
0
VERTEX
8
OBJECT__0
10
0
20
0
30
0
70
128
71
34
72
37
73
36
0
VERTEX
8
OBJECT__0
10
0
20
0
30
0
70
128
71
31
72
34
73
33
0
VERTEX
8
OBJECT__0
10
0
20
0
30
0
70
128
71
29
72
28
73
30
0
VERTEX
8
OBJECT__0
10
0
20
0
30
0
70
128
71
26
72
30
73
28
0
VERTEX
8
OBJECT__0
10
0
20
0
30
0
70
128
71
23
72
26
73
25
0
VERTEX
8
OBJECT__0
10
0
20
0
30
0
70
128
71
22
72
21
73
20
0
VERTEX
8
OBJECT__0
10
0
20
0
30
0
70
128
71
18
72
17
73
19
0
VERTEX
8
OBJECT__0
10
0
20
0
30
0
70
128
71
15
72
19
73
17
0
VERTEX
8
OBJECT__0
10
0
20
0
30
0
70
128
71
12
72
15
73
14
0
VERTEX
8
OBJECT__0
10
0
20
0
30
0
70
128
71
11
72
10
73
9
0
VERTEX
8
OBJECT__0
10
0
20
0
30
0
70
128
71
7
72
6
73
8
0
VERTEX
8
OBJECT__0
10
0
20
0
30
0
70
128
71
4
72
8
73
6
0
VERTEX
8
OBJECT__0
10
0
20
0
30
0
70
128
71
3
72
4
73
1
0
VERTEX
8
OBJECT__0
10
0
20
0
30
0
70
128
71
3
72
50
73
53
0
VERTEX
8
OBJECT__0
10
0
20
0
30
0
70
128
71
50
72
48
73
53
0
VERTEX
8
OBJECT__0
10
0
20
0
30
0
70
128
71
48
72
45
73
53
0
VERTEX
8
OBJECT__0
10
0
20
0
30
0
70
128
71
45
72
42
73
53
0
VERTEX
8
OBJECT__0
10
0
20
0
30
0
70
128
71
42
72
41
73
53
0
VERTEX
8
OBJECT__0
10
0
20
0
30
0
70
128
71
41
72
37
73
53
0
VERTEX
8
OBJECT__0
10
0
20
0
30
0
70
128
71
37
72
34
73
53
0
VERTEX
8
OBJECT__0
10
0
20
0
30
0
70
128
71
34
72
31
73
53
0
VERTEX
8
OBJECT__0
10
0
20
0
30
0
70
128
71
31
72
30
73
53
0
VERTEX
8
OBJECT__0
10
0
20
0
30
0
70
128
71
30
72
26
73
53
0
VERTEX
8
OBJECT__0
10
0
20
0
30
0
70
128
71
26
72
23
73
53
0
VERTEX
8
OBJECT__0
10
0
20
0
30
0
70
128
71
23
72
20
73
53
0
VERTEX
8
OBJECT__0
10
0
20
0
30
0
70
128
71
20
72
19
73
53
0
VERTEX
8
OBJECT__0
10
0
20
0
30
0
70
128
71
19
72
15
73
53
0
VERTEX
8
OBJECT__0
10
0
20
0
30
0
70
128
71
15
72
12
73
53
0
VERTEX
8
OBJECT__0
10
0
20
0
30
0
70
128
71
12
72
9
73
53
0
VERTEX
8
OBJECT__0
10
0
20
0
30
0
70
128
71
9
72
8
73
53
0
VERTEX
8
OBJECT__0
10
0
20
0
30
0
70
128
71
8
72
4
73
53
0
VERTEX
8
OBJECT__0
10
0
20
0
30
0
70
128
71
4
72
3
73
53
0
SEQEND
8
OBJECT__0
0
POLYLINE
8
OBJECT__1
66
1
70
64
71
47
72
47
62
253
0
VERTEX
8
OBJECT__1
10
8.200000
20
-32.319000
30
15.564000
70
192
0
VERTEX
8
OBJECT__1
10
8.200000
20
-35.870998
30
0.000000
70
192
0
VERTEX
8
OBJECT__1
10
11.704000
20
-35.566002
30
2.947000
70
192
0
VERTEX
8
OBJECT__1
10
11.704000
20
-35.688000
30
0.000000
70
192
0
VERTEX
8
OBJECT__1
10
11.704000
20
-32.681999
30
14.336000
70
192
0
VERTEX
8
OBJECT__1
10
11.704000
20
-31.997999
30
15.383000
70
192
0
VERTEX
8
OBJECT__1
10
11.704000
20
-26.256001
30
24.171000
70
192
0
VERTEX
8
OBJECT__1
10
8.200000
20
-22.365000
30
28.045000
70
192
0
VERTEX
8
OBJECT__1
10
8.200000
20
-7.982000
30
34.972000
70
192
0
VERTEX
8
OBJECT__1
10
11.704000
20
-16.986000
30
31.386000
70
192
0
VERTEX
8
OBJECT__1
10
11.704000
20
-21.954000
30
27.520000
70
192
0
VERTEX
8
OBJECT__1
10
11.704000
20
-5.874000
30
35.201000
70
192
0
VERTEX
8
OBJECT__1
10
11.704000
20
5.874000
30
35.201000
70
192
0
VERTEX
8
OBJECT__1
10
8.200000
20
7.982000
30
34.972000
70
192
0
VERTEX
8
OBJECT__1
10
11.704000
20
-7.849000
30
34.522999
70
192
0
VERTEX
8
OBJECT__1
10
11.704000
20
7.849000
30
34.522999
70
192
0
VERTEX
8
OBJECT__1
10
11.704000
20
16.986000
30
31.386000
70
192
0
VERTEX
8
OBJECT__1
10
8.200000
20
22.365000
30
28.045000
70
192
0
VERTEX
8
OBJECT__1
10
8.200000
20
32.319000
30
15.564000
70
192
0
VERTEX
8
OBJECT__1
10
11.704000
20
26.256001
30
24.171000
70
192
0
VERTEX
8
OBJECT__1
10
11.704000
20
21.954000
30
27.520000
70
192
0
VERTEX
8
OBJECT__1
10
11.704000
20
32.681999
30
14.336000
70
192
0
VERTEX
8
OBJECT__1
10
11.704000
20
35.566002
30
2.947000
70
192
0
VERTEX
8
OBJECT__1
10
8.200000
20
35.870998
30
0.000000
70
192
0
VERTEX
8
OBJECT__1
10
11.704000
20
31.997999
30
15.383000
70
192
0
VERTEX
8
OBJECT__1
10
11.704000
20
35.324001
30
0.030000
70
192
0
VERTEX
8
OBJECT__1
10
11.704000
20
34.596001
30
-8.761000
70
192
0
VERTEX
8
OBJECT__1
10
8.200000
20
32.319000
30
-15.564000
70
192
0
VERTEX
8
OBJECT__1
10
8.200000
20
22.365000
30
-28.045000
70
192
0
VERTEX
8
OBJECT__1
10
11.704000
20
29.877001
30
-19.518999
70
192
0
VERTEX
8
OBJECT__1
10
11.704000
20
31.728001
30
-15.298000
70
192
0
VERTEX
8
OBJECT__1
10
11.704000
20
21.920000
30
-28.163000
70
192
0
VERTEX
8
OBJECT__1
10
11.704000
20
11.588000
30
-33.754002
70
192
0
VERTEX
8
OBJECT__1
10
8.200000
20
7.982000
30
-34.972000
70
192
0
VERTEX
8
OBJECT__1
10
11.704000
20
22.202000
30
-27.857000
70
192
0
VERTEX
8
OBJECT__1
10
8.200000
20
-7.982000
30
-34.972000
70
192
0
VERTEX
8
OBJECT__1
10
11.704000
20
0.000000
30
-35.688000
70
192
0
VERTEX
8
OBJECT__1
10
11.704000
20
7.871000
30
-34.374001
70
192
0
VERTEX
8
OBJECT__1
10
8.200000
20
-22.365000
30
-28.045000
70
192
0
VERTEX
8
OBJECT__1
10
11.704000
20
-11.588000
30
-33.754002
70
192
0
VERTEX
8
OBJECT__1
10
11.704000
20
-7.871000
30
-34.374001
70
192
0
VERTEX
8
OBJECT__1
10
11.704000
20
-21.920000
30
-28.163000
70
192
0
VERTEX
8
OBJECT__1
10
11.704000
20
-22.202000
30
-27.857000
70
192
0
VERTEX
8
OBJECT__1
10
11.704000
20
-29.877001
30
-19.518999
70
192
0
VERTEX
8
OBJECT__1
10
8.200000
20
-32.319000
30
-15.564000
70
192
0
VERTEX
8
OBJECT__1
10
11.704000
20
-34.596001
30
-8.761000
70
192
0
VERTEX
8
OBJECT__1
10
11.704000
20
-31.728001
30
-15.298000
70
192
0
VERTEX
8
OBJECT__1
10
0
20
0
30
0
70
128
71
1
72
2
73
3
0
VERTEX
8
OBJECT__1
10
0
20
0
30
0
70
128
71
2
72
4
73
3
0
VERTEX
8
OBJECT__1
10
0
20
0
30
0
70
128
71
3
72
5
73
1
0
VERTEX
8
OBJECT__1
10
0
20
0
30
0
70
128
71
1
72
6
73
7
0
VERTEX
8
OBJECT__1
10
0
20
0
30
0
70
128
71
7
72
8
73
1
0
VERTEX
8
OBJECT__1
10
0
20
0
30
0
70
128
71
9
72
8
73
10
0
VERTEX
8
OBJECT__1
10
0
20
0
30
0
70
128
71
8
72
11
73
10
0
VERTEX
8
OBJECT__1
10
0
20
0
30
0
70
128
71
9
72
12
73
13
0
VERTEX
8
OBJECT__1
10
0
20
0
30
0
70
128
71
13
72
14
73
9
0
VERTEX
8
OBJECT__1
10
0
20
0
30
0
70
128
71
9
72
15
73
12
0
VERTEX
8
OBJECT__1
10
0
20
0
30
0
70
128
71
14
72
16
73
17
0
VERTEX
8
OBJECT__1
10
0
20
0
30
0
70
128
71
17
72
18
73
14
0
VERTEX
8
OBJECT__1
10
0
20
0
30
0
70
128
71
19
72
18
73
20
0
VERTEX
8
OBJECT__1
10
0
20
0
30
0
70
128
71
18
72
21
73
20
0
VERTEX
8
OBJECT__1
10
0
20
0
30
0
70
128
71
19
72
22
73
23
0
VERTEX
8
OBJECT__1
10
0
20
0
30
0
70
128
71
23
72
24
73
19
0
VERTEX
8
OBJECT__1
10
0
20
0
30
0
70
128
71
19
72
25
73
22
0
VERTEX
8
OBJECT__1
10
0
20
0
30
0
70
128
71
24
72
26
73
27
0
VERTEX
8
OBJECT__1
10
0
20
0
30
0
70
128
71
27
72
28
73
24
0
VERTEX
8
OBJECT__1
10
0
20
0
30
0
70
128
71
29
72
28
73
30
0
VERTEX
8
OBJECT__1
10
0
20
0
30
0
70
128
71
28
72
31
73
30
0
VERTEX
8
OBJECT__1
10
0
20
0
30
0
70
128
71
29
72
32
73
33
0
VERTEX
8
OBJECT__1
10
0
20
0
30
0
70
128
71
33
72
34
73
29
0
VERTEX
8
OBJECT__1
10
0
20
0
30
0
70
128
71
29
72
35
73
32
0
VERTEX
8
OBJECT__1
10
0
20
0
30
0
70
128
71
36
72
34
73
37
0
VERTEX
8
OBJECT__1
10
0
20
0
30
0
70
128
71
34
72
38
73
37
0
VERTEX
8
OBJECT__1
10
0
20
0
30
0
70
128
71
39
72
36
73
40
0
VERTEX
8
OBJECT__1
10
0
20
0
30
0
70
128
71
36
72
41
73
40
0
VERTEX
8
OBJECT__1
10
0
20
0
30
0
70
128
71
40
72
42
73
39
0
VERTEX
8
OBJECT__1
10
0
20
0
30
0
70
128
71
39
72
43
73
44
0
VERTEX
8
OBJECT__1
10
0
20
0
30
0
70
128
71
44
72
45
73
39
0
VERTEX
8
OBJECT__1
10
0
20
0
30
0
70
128
71
2
72
45
73
46
0
VERTEX
8
OBJECT__1
10
0
20
0
30
0
70
128
71
45
72
47
73
46
0
VERTEX
8
OBJECT__1
10
0
20
0
30
0
70
128
71
46
72
4
73
2
0
VERTEX
8
OBJECT__1
10
0
20
0
30
0
70
128
71
44
72
47
73
45
0
VERTEX
8
OBJECT__1
10
0
20
0
30
0
70
128
71
42
72
43
73
39
0
VERTEX
8
OBJECT__1
10
0
20
0
30
0
70
128
71
37
72
41
73
36
0
VERTEX
8
OBJECT__1
10
0
20
0
30
0
70
128
71
33
72
38
73
34
0
VERTEX
8
OBJECT__1
10
0
20
0
30
0
70
128
71
30
72
35
73
29
0
VERTEX
8
OBJECT__1
10
0
20
0
30
0
70
128
71
27
72
31
73
28
0
VERTEX
8
OBJECT__1
10
0
20
0
30
0
70
128
71
23
72
26
73
24
0
VERTEX
8
OBJECT__1
10
0
20
0
30
0
70
128
71
20
72
25
73
19
0
VERTEX
8
OBJECT__1
10
0
20
0
30
0
70
128
71
17
72
21
73
18
0
VERTEX
8
OBJECT__1
10
0
20
0
30
0
70
128
71
13
72
16
73
14
0
VERTEX
8
OBJECT__1
10
0
20
0
30
0
70
128
71
10
72
15
73
9
0
VERTEX
8
OBJECT__1
10
0
20
0
30
0
70
128
71
7
72
11
73
8
0
VERTEX
8
OBJECT__1
10
0
20
0
30
0
70
128
71
5
72
6
73
1
0
SEQEND
8
OBJECT__1
0
POLYLINE
8
OBJECT__3
66
1
70
64
71
23
72
21
62
253
0
VERTEX
8
OBJECT__3
10
0.500000
20
49.000000
30
-47.026001
70
192
0
VERTEX
8
OBJECT__3
10
0.500000
20
-49.000000
30
-46.452000
70
192
0
VERTEX
8
OBJECT__3
10
0.500000
20
-49.196999
30
-47.035999
70
192
0
VERTEX
8
OBJECT__3
10
0.500000
20
49.000000
30
-41.390999
70
192
0
VERTEX
8
OBJECT__3
10
0.500000
20
-49.000000
30
-41.591000
70
192
0
VERTEX
8
OBJECT__3
10
0.500000
20
-55.491001
30
64.400002
70
192
0
VERTEX
8
OBJECT__3
10
0.500000
20
-49.200001
30
-41.390999
70
192
0
VERTEX
8
OBJECT__3
10
0.500000
20
-55.491001
30
-41.191002
70
192
0
VERTEX
8
OBJECT__3
10
0.500000
20
54.991001
30
-69.490997
70
192
0
VERTEX
8
OBJECT__3
10
0.500000
20
55.491001
30
-68.990997
70
192
0
VERTEX
8
OBJECT__3
10
0.500000
20
37.991001
30
64.599998
70
192
0
VERTEX
8
OBJECT__3
10
0.500000
20
-37.991001
30
64.599998
70
192
0
VERTEX
8
OBJECT__3
10
0.500000
20
-37.991001
30
69.490997
70
192
0
VERTEX
8
OBJECT__3
10
0.500000
20
55.491001
30
64.599998
70
192
0
VERTEX
8
OBJECT__3
10
0.500000
20
-55.491001
30
-47.358002
70
192
0
VERTEX
8
OBJECT__3
10
0.500000
20
-55.491001
30
-68.990997
70
192
0
VERTEX
8
OBJECT__3
10
0.500000
20
-55.291000
30
-41.390999
70
192
0
VERTEX
8
OBJECT__3
10
0.500000
20
55.491001
30
-47.923000
70
192
0
VERTEX
8
OBJECT__3
10
0.500000
20
37.991001
30
69.490997
70
192
0
VERTEX
8
OBJECT__3
10
0.500000
20
55.491001
30
-41.390999
70
192
0
VERTEX
8
OBJECT__3
10
0.500000
20
-54.991001
30
-69.490997
70
192
0
VERTEX
8
OBJECT__3
10
0.500000
20
55.298000
30
-47.348000
70
192
0
VERTEX
8
OBJECT__3
10
0.500000
20
-55.291000
30
64.599998
70
192
0
VERTEX
8
OBJECT__3
10
0
20
0
30
0
70
128
71
1
72
2
73
3
0
VERTEX
8
OBJECT__3
10
0
20
0
30
0
70
128
71
4
72
5
73
2
0
VERTEX
8
OBJECT__3
10
0
20
0
30
0
70
128
71
2
72
1
73
4
0
VERTEX
8
OBJECT__3
10
0
20
0
30
0
70
128
71
4
72
6
73
7
0
VERTEX
8
OBJECT__3
10
0
20
0
30
0
70
128
71
7
72
5
73
4
0
VERTEX
8
OBJECT__3
10
0
20
0
30
0
70
128
71
7
72
6
73
8
0
VERTEX
8
OBJECT__3
10
0
20
0
30
0
70
128
71
1
72
9
73
10
0
VERTEX
8
OBJECT__3
10
0
20
0
30
0
70
128
71
6
72
11
73
12
0
VERTEX
8
OBJECT__3
10
0
20
0
30
0
70
128
71
13
72
12
73
11
0
VERTEX
8
OBJECT__3
10
0
20
0
30
0
70
128
71
14
72
11
73
4
0
VERTEX
8
OBJECT__3
10
0
20
0
30
0
70
128
71
3
72
15
73
16
0
VERTEX
8
OBJECT__3
10
0
20
0
30
0
70
128
71
8
72
17
73
7
0
VERTEX
8
OBJECT__3
10
0
20
0
30
0
70
128
71
10
72
18
73
1
0
VERTEX
8
OBJECT__3
10
0
20
0
30
0
70
128
71
11
72
19
73
13
0
VERTEX
8
OBJECT__3
10
0
20
0
30
0
70
128
71
4
72
20
73
14
0
VERTEX
8
OBJECT__3
10
0
20
0
30
0
70
128
71
3
72
21
73
1
0
VERTEX
8
OBJECT__3
10
0
20
0
30
0
70
128
71
18
72
22
73
1
0
VERTEX
8
OBJECT__3
10
0
20
0
30
0
70
128
71
11
72
6
73
4
0
VERTEX
8
OBJECT__3
10
0
20
0
30
0
70
128
71
1
72
21
73
9
0
VERTEX
8
OBJECT__3
10
0
20
0
30
0
70
128
71
16
72
21
73
3
0
VERTEX
8
OBJECT__3
10
0
20
0
30
0
70
128
71
12
72
23
73
6
0
SEQEND
8
OBJECT__3
0
POLYLINE
8
OBJECT__5
66
1
70
64
71
121
72
121
62
253
0
VERTEX
8
OBJECT__5
10
3.000000
20
10.179000
30
35.773998
70
192
0
VERTEX
8
OBJECT__5
10
3.000000
20
22.414000
30
29.681000
70
192
0
VERTEX
8
OBJECT__5
10
7.298000
20
16.691999
30
33.279999
70
192
0
VERTEX
8
OBJECT__5
10
7.298000
20
20.656000
30
30.929001
70
192
0
VERTEX
8
OBJECT__5
10
7.297000
20
14.764000
30
34.179001
70
192
0
VERTEX
8
OBJECT__5
10
7.298000
20
22.389000
30
29.652000
70
192
0
VERTEX
8
OBJECT__5
10
7.298000
20
21.190001
30
30.613001
70
192
0
VERTEX
8
OBJECT__5
10
7.297000
20
14.211000
30
34.373001
70
192
0
VERTEX
8
OBJECT__5
10
3.000000
20
-3.432000
30
37.035000
70
192
0
VERTEX
8
OBJECT__5
10
7.297000
20
-0.020000
30
37.139999
70
192
0
VERTEX
8
OBJECT__5
10
7.297000
20
-2.577000
30
37.141998
70
192
0
VERTEX
8
OBJECT__5
10
7.297000
20
4.735000
30
36.929001
70
192
0
VERTEX
8
OBJECT__5
10
7.297000
20
2.618000
30
37.139000
70
192
0
VERTEX
8
OBJECT__5
10
7.297000
20
7.243000
30
36.425999
70
192
0
VERTEX
8
OBJECT__5
10
7.297000
20
10.181000
30
35.789001
70
192
0
VERTEX
8
OBJECT__5
10
7.297000
20
9.862000
30
35.901001
70
192
0
VERTEX
8
OBJECT__5
10
3.000000
20
-16.579000
30
33.293999
70
192
0
VERTEX
8
OBJECT__5
10
7.297000
20
-14.245000
30
34.362999
70
192
0
VERTEX
8
OBJECT__5
10
7.297000
20
-14.726000
30
34.195000
70
192
0
VERTEX
8
OBJECT__5
10
7.297000
20
-9.823000
30
35.911999
70
192
0
VERTEX
8
OBJECT__5
10
7.297000
20
-7.756000
30
36.414001
70
192
0
VERTEX
8
OBJECT__5
10
7.297000
20
-7.263000
30
36.484001
70
192
0
VERTEX
8
OBJECT__5
10
7.297000
20
-3.428000
30
37.021999
70
192
0
VERTEX
8
OBJECT__5
10
3.000000
20
-27.486000
30
25.056999
70
192
0
VERTEX
8
OBJECT__5
10
7.298000
20
-21.156000
30
30.636000
70
192
0
VERTEX
8
OBJECT__5
10
7.299000
20
-25.215000
30
27.393000
70
192
0
VERTEX
8
OBJECT__5
10
7.298000
20
-20.691000
30
30.938000
70
192
0
VERTEX
8
OBJECT__5
10
7.299000
20
-26.268999
30
26.275999
70
192
0
VERTEX
8
OBJECT__5
10
7.298000
20
-16.555000
30
33.250000
70
192
0
VERTEX
8
OBJECT__5
10
7.298000
20
-19.372000
30
31.794001
70
192
0
VERTEX
8
OBJECT__5
10
3.000000
20
-34.681999
30
13.436000
70
192
0
VERTEX
8
OBJECT__5
10
7.300000
20
-30.902000
30
20.632000
70
192
0
VERTEX
8
OBJECT__5
10
7.301000
20
-32.861000
30
17.502001
70
192
0
VERTEX
8
OBJECT__5
10
7.300000
20
-27.451000
30
25.023001
70
192
0
VERTEX
8
OBJECT__5
10
7.300000
20
-28.804001
30
23.590000
70
192
0
VERTEX
8
OBJECT__5
10
7.300000
20
-30.104000
30
21.906000
70
192
0
VERTEX
8
OBJECT__5
10
7.302000
20
-34.321999
30
14.223000
70
192
0
VERTEX
8
OBJECT__5
10
3.000000
20
-37.194000
30
0.000000
70
192
0
VERTEX
8
OBJECT__5
10
7.303000
20
-36.441002
30
7.240000
70
192
0
VERTEX
8
OBJECT__5
10
7.304000
20
-36.801998
30
5.639000
70
192
0
VERTEX
8
OBJECT__5
10
7.305000
20
-37.229000
30
0.427000
70
192
0
VERTEX
8
OBJECT__5
10
7.302000
20
-34.988998
30
12.726000
70
192
0
VERTEX
8
OBJECT__5
10
7.303000
20
-35.658001
30
10.707000
70
192
0
VERTEX
8
OBJECT__5
10
7.302000
20
-34.674999
30
13.431000
70
192
0
VERTEX
8
OBJECT__5
10
3.000000
20
-34.681999
30
-13.436000
70
192
0
VERTEX
8
OBJECT__5
10
7.306000
20
-36.492001
30
-7.251000
70
192
0
VERTEX
8
OBJECT__5
10
7.307000
20
-35.271000
30
-11.920000
70
192
0
VERTEX
8
OBJECT__5
10
7.305000
20
-37.192001
30
-1.700000
70
192
0
VERTEX
8
OBJECT__5
10
7.306000
20
-36.594002
30
-6.861000
70
192
0
VERTEX
8
OBJECT__5
10
7.305000
20
-37.221001
30
0.000000
70
192
0
VERTEX
8
OBJECT__5
10
7.308000
20
-34.707001
30
-13.446000
70
192
0
VERTEX
8
OBJECT__5
10
3.000000
20
-27.486000
30
-25.056999
70
192
0
VERTEX
8
OBJECT__5
10
7.309000
20
-30.889000
30
-20.621000
70
192
0
VERTEX
8
OBJECT__5
10
7.310000
20
-29.337999
30
-22.923000
70
192
0
VERTEX
8
OBJECT__5
10
7.310000
20
-27.981001
30
-24.561001
70
192
0
VERTEX
8
OBJECT__5
10
7.309000
20
-32.259998
30
-18.587000
70
192
0
VERTEX
8
OBJECT__5
10
7.308000
20
-34.372002
30
-14.245000
70
192
0
VERTEX
8
OBJECT__5
10
7.308000
20
-34.533001
30
-13.915000
70
192
0
VERTEX
8
OBJECT__5
10
3.000000
20
-16.579000
30
-33.293999
70
192
0
VERTEX
8
OBJECT__5
10
7.311000
20
-20.096001
30
-31.341999
70
192
0
VERTEX
8
OBJECT__5
10
7.312000
20
-18.273001
30
-32.438000
70
192
0
VERTEX
8
OBJECT__5
10
7.311000
20
-20.671000
30
-30.914000
70
192
0
VERTEX
8
OBJECT__5
10
7.311000
20
-24.289000
30
-28.216999
70
192
0
VERTEX
8
OBJECT__5
10
7.310000
20
-26.260000
30
-26.264999
70
192
0
VERTEX
8
OBJECT__5
10
7.310000
20
-27.483999
30
-25.052999
70
192
0
VERTEX
8
OBJECT__5
10
3.000000
20
-3.432000
30
-37.035000
70
192
0
VERTEX
8
OBJECT__5
10
7.312000
20
-7.263000
30
-36.501999
70
192
0
VERTEX
8
OBJECT__5
10
7.313000
20
-6.506000
30
-36.658001
70
192
0
VERTEX
8
OBJECT__5
10
7.312000
20
-13.580000
30
-34.666000
70
192
0
VERTEX
8
OBJECT__5
10
7.312000
20
-8.589000
30
-36.227001
70
192
0
VERTEX
8
OBJECT__5
10
7.312000
20
-14.236000
30
-34.355000
70
192
0
VERTEX
8
OBJECT__5
10
7.312000
20
-16.559000
30
-33.251999
70
192
0
VERTEX
8
OBJECT__5
10
7.313000
20
-0.022000
30
-37.161999
70
192
0
VERTEX
8
OBJECT__5
10
7.313000
20
3.887000
30
-37.028000
70
192
0
VERTEX
8
OBJECT__5
10
3.000000
20
10.179000
30
-35.773998
70
192
0
VERTEX
8
OBJECT__5
10
7.313000
20
5.995000
30
-36.744999
70
192
0
VERTEX
8
OBJECT__5
10
7.312000
20
7.247000
30
-36.450001
70
192
0
VERTEX
8
OBJECT__5
10
7.313000
20
-3.426000
30
-36.986000
70
192
0
VERTEX
8
OBJECT__5
10
7.313000
20
-1.340000
30
-37.207001
70
192
0
VERTEX
8
OBJECT__5
10
3.000000
20
22.414000
30
-29.681000
70
192
0
VERTEX
8
OBJECT__5
10
7.312000
20
20.632000
30
-30.892000
70
192
0
VERTEX
8
OBJECT__5
10
7.311000
20
22.197001
30
-29.891001
70
192
0
VERTEX
8
OBJECT__5
10
7.312000
20
15.924000
30
-33.653999
70
192
0
VERTEX
8
OBJECT__5
10
7.312000
20
17.820000
30
-32.689999
70
192
0
VERTEX
8
OBJECT__5
10
7.312000
20
14.194000
30
-34.327999
70
192
0
VERTEX
8
OBJECT__5
10
7.312000
20
10.177000
30
-35.758999
70
192
0
VERTEX
8
OBJECT__5
10
7.312000
20
11.052000
30
-35.553001
70
192
0
VERTEX
8
OBJECT__5
10
3.000000
20
31.622999
30
-19.580000
70
192
0
VERTEX
8
OBJECT__5
10
7.310000
20
27.636000
30
-24.948000
70
192
0
VERTEX
8
OBJECT__5
10
7.309000
20
30.840000
30
-20.858000
70
192
0
VERTEX
8
OBJECT__5
10
7.310000
20
26.309999
30
-26.336000
70
192
0
VERTEX
8
OBJECT__5
10
7.311000
20
22.424000
30
-29.695999
70
192
0
VERTEX
8
OBJECT__5
10
7.310000
20
26.166000
30
-26.486000
70
192
0
VERTEX
8
OBJECT__5
10
7.309000
20
30.934000
30
-20.695999
70
192
0
VERTEX
8
OBJECT__5
10
3.000000
20
36.560001
30
-6.834000
70
192
0
VERTEX
8
OBJECT__5
10
7.308000
20
34.383999
30
-14.253000
70
192
0
VERTEX
8
OBJECT__5
10
7.307000
20
36.005001
30
-9.475000
70
192
0
VERTEX
8
OBJECT__5
10
7.307000
20
36.421001
30
-7.278000
70
192
0
VERTEX
8
OBJECT__5
10
7.309000
20
31.590000
30
-19.562000
70
192
0
VERTEX
8
OBJECT__5
10
7.308000
20
33.458000
30
-16.332001
70
192
0
VERTEX
8
OBJECT__5
10
7.308000
20
34.335999
30
-14.395000
70
192
0
VERTEX
8
OBJECT__5
10
3.000000
20
36.560001
30
6.834000
70
192
0
VERTEX
8
OBJECT__5
10
7.305000
20
37.141998
30
0.000000
70
192
0
VERTEX
8
OBJECT__5
10
7.305000
20
37.112000
30
2.977000
70
192
0
VERTEX
8
OBJECT__5
10
7.306000
20
37.165001
30
-2.218000
70
192
0
VERTEX
8
OBJECT__5
10
7.306000
20
36.507000
30
-6.824000
70
192
0
VERTEX
8
OBJECT__5
10
7.306000
20
36.978001
30
-4.337000
70
192
0
VERTEX
8
OBJECT__5
10
3.000000
20
31.622999
30
19.580000
70
192
0
VERTEX
8
OBJECT__5
10
7.302000
20
34.344002
30
14.239000
70
192
0
VERTEX
8
OBJECT__5
10
7.301000
20
34.034000
30
15.094000
70
192
0
VERTEX
8
OBJECT__5
10
7.303000
20
35.804001
30
10.209000
70
192
0
VERTEX
8
OBJECT__5
10
7.303000
20
36.459000
30
7.288000
70
192
0
VERTEX
8
OBJECT__5
10
7.303000
20
36.328999
30
8.148000
70
192
0
VERTEX
8
OBJECT__5
10
7.304000
20
36.528000
30
6.831000
70
192
0
VERTEX
8
OBJECT__5
10
7.299000
20
26.302999
30
26.330999
70
192
0
VERTEX
8
OBJECT__5
10
7.299000
20
25.245001
30
27.365000
70
192
0
VERTEX
8
OBJECT__5
10
7.300000
20
30.115000
30
21.891001
70
192
0
VERTEX
8
OBJECT__5
10
7.299000
20
26.767000
30
25.879000
70
192
0
VERTEX
8
OBJECT__5
10
7.300000
20
30.924999
30
20.691000
70
192
0
VERTEX
8
OBJECT__5
10
7.300000
20
31.646000
30
19.594999
70
192
0
VERTEX
8
OBJECT__5
10
7.300000
20
31.584000
30
19.712999
70
192
0
VERTEX
8
OBJECT__5
10
0
20
0
30
0
70
128
71
1
72
2
73
3
0
VERTEX
8
OBJECT__5
10
0
20
0
30
0
70
128
71
2
72
4
73
3
0
VERTEX
8
OBJECT__5
10
0
20
0
30
0
70
128
71
3
72
5
73
1
0
VERTEX
8
OBJECT__5
10
0
20
0
30
0
70
128
71
2
72
6
73
7
0
VERTEX
8
OBJECT__5
10
0
20
0
30
0
70
128
71
7
72
4
73
2
0
VERTEX
8
OBJECT__5
10
0
20
0
30
0
70
128
71
5
72
8
73
1
0
VERTEX
8
OBJECT__5
10
0
20
0
30
0
70
128
71
9
72
10
73
11
0
VERTEX
8
OBJECT__5
10
0
20
0
30
0
70
128
71
1
72
12
73
13
0
VERTEX
8
OBJECT__5
10
0
20
0
30
0
70
128
71
1
72
14
73
12
0
VERTEX
8
OBJECT__5
10
0
20
0
30
0
70
128
71
13
72
9
73
1
0
VERTEX
8
OBJECT__5
10
0
20
0
30
0
70
128
71
13
72
10
73
9
0
VERTEX
8
OBJECT__5
10
0
20
0
30
0
70
128
71
1
72
15
73
16
0
VERTEX
8
OBJECT__5
10
0
20
0
30
0
70
128
71
16
72
14
73
1
0
VERTEX
8
OBJECT__5
10
0
20
0
30
0
70
128
71
17
72
18
73
19
0
VERTEX
8
OBJECT__5
10
0
20
0
30
0
70
128
71
17
72
9
73
20
0
VERTEX
8
OBJECT__5
10
0
20
0
30
0
70
128
71
9
72
21
73
20
0
VERTEX
8
OBJECT__5
10
0
20
0
30
0
70
128
71
9
72
22
73
21
0
VERTEX
8
OBJECT__5
10
0
20
0
30
0
70
128
71
9
72
23
73
22
0
VERTEX
8
OBJECT__5
10
0
20
0
30
0
70
128
71
20
72
18
73
17
0
VERTEX
8
OBJECT__5
10
0
20
0
30
0
70
128
71
24
72
17
73
25
0
VERTEX
8
OBJECT__5
10
0
20
0
30
0
70
128
71
25
72
26
73
24
0
VERTEX
8
OBJECT__5
10
0
20
0
30
0
70
128
71
17
72
27
73
25
0
VERTEX
8
OBJECT__5
10
0
20
0
30
0
70
128
71
26
72
28
73
24
0
VERTEX
8
OBJECT__5
10
0
20
0
30
0
70
128
71
17
72
29
73
30
0
VERTEX
8
OBJECT__5
10
0
20
0
30
0
70
128
71
30
72
27
73
17
0
VERTEX
8
OBJECT__5
10
0
20
0
30
0
70
128
71
31
72
24
73
32
0
VERTEX
8
OBJECT__5
10
0
20
0
30
0
70
128
71
32
72
33
73
31
0
VERTEX
8
OBJECT__5
10
0
20
0
30
0
70
128
71
24
72
34
73
35
0
VERTEX
8
OBJECT__5
10
0
20
0
30
0
70
128
71
35
72
36
73
24
0
VERTEX
8
OBJECT__5
10
0
20
0
30
0
70
128
71
36
72
32
73
24
0
VERTEX
8
OBJECT__5
10
0
20
0
30
0
70
128
71
33
72
37
73
31
0
VERTEX
8
OBJECT__5
10
0
20
0
30
0
70
128
71
38
72
31
73
39
0
VERTEX
8
OBJECT__5
10
0
20
0
30
0
70
128
71
39
72
40
73
38
0
VERTEX
8
OBJECT__5
10
0
20
0
30
0
70
128
71
40
72
41
73
38
0
VERTEX
8
OBJECT__5
10
0
20
0
30
0
70
128
71
31
72
42
73
43
0
VERTEX
8
OBJECT__5
10
0
20
0
30
0
70
128
71
31
72
44
73
42
0
VERTEX
8
OBJECT__5
10
0
20
0
30
0
70
128
71
43
72
39
73
31
0
VERTEX
8
OBJECT__5
10
0
20
0
30
0
70
128
71
45
72
46
73
47
0
VERTEX
8
OBJECT__5
10
0
20
0
30
0
70
128
71
45
72
48
73
49
0
VERTEX
8
OBJECT__5
10
0
20
0
30
0
70
128
71
45
72
50
73
48
0
VERTEX
8
OBJECT__5
10
0
20
0
30
0
70
128
71
49
72
46
73
45
0
VERTEX
8
OBJECT__5
10
0
20
0
30
0
70
128
71
50
72
45
73
38
0
VERTEX
8
OBJECT__5
10
0
20
0
30
0
70
128
71
47
72
51
73
45
0
VERTEX
8
OBJECT__5
10
0
20
0
30
0
70
128
71
52
72
53
73
54
0
VERTEX
8
OBJECT__5
10
0
20
0
30
0
70
128
71
54
72
55
73
52
0
VERTEX
8
OBJECT__5
10
0
20
0
30
0
70
128
71
52
72
45
73
56
0
VERTEX
8
OBJECT__5
10
0
20
0
30
0
70
128
71
45
72
57
73
56
0
VERTEX
8
OBJECT__5
10
0
20
0
30
0
70
128
71
56
72
53
73
52
0
VERTEX
8
OBJECT__5
10
0
20
0
30
0
70
128
71
45
72
51
73
58
0
VERTEX
8
OBJECT__5
10
0
20
0
30
0
70
128
71
58
72
57
73
45
0
VERTEX
8
OBJECT__5
10
0
20
0
30
0
70
128
71
59
72
60
73
61
0
VERTEX
8
OBJECT__5
10
0
20
0
30
0
70
128
71
59
72
62
73
60
0
VERTEX
8
OBJECT__5
10
0
20
0
30
0
70
128
71
52
72
63
73
62
0
VERTEX
8
OBJECT__5
10
0
20
0
30
0
70
128
71
52
72
64
73
63
0
VERTEX
8
OBJECT__5
10
0
20
0
30
0
70
128
71
62
72
59
73
52
0
VERTEX
8
OBJECT__5
10
0
20
0
30
0
70
128
71
52
72
65
73
64
0
VERTEX
8
OBJECT__5
10
0
20
0
30
0
70
128
71
66
72
67
73
68
0
VERTEX
8
OBJECT__5
10
0
20
0
30
0
70
128
71
59
72
69
73
70
0
VERTEX
8
OBJECT__5
10
0
20
0
30
0
70
128
71
59
72
71
73
69
0
VERTEX
8
OBJECT__5
10
0
20
0
30
0
70
128
71
70
72
66
73
59
0
VERTEX
8
OBJECT__5
10
0
20
0
30
0
70
128
71
59
72
72
73
71
0
VERTEX
8
OBJECT__5
10
0
20
0
30
0
70
128
71
70
72
67
73
66
0
VERTEX
8
OBJECT__5
10
0
20
0
30
0
70
128
71
66
72
73
73
74
0
VERTEX
8
OBJECT__5
10
0
20
0
30
0
70
128
71
74
72
75
73
66
0
VERTEX
8
OBJECT__5
10
0
20
0
30
0
70
128
71
74
72
76
73
75
0
VERTEX
8
OBJECT__5
10
0
20
0
30
0
70
128
71
76
72
77
73
75
0
VERTEX
8
OBJECT__5
10
0
20
0
30
0
70
128
71
66
72
78
73
79
0
VERTEX
8
OBJECT__5
10
0
20
0
30
0
70
128
71
79
72
73
73
66
0
VERTEX
8
OBJECT__5
10
0
20
0
30
0
70
128
71
80
72
81
73
82
0
VERTEX
8
OBJECT__5
10
0
20
0
30
0
70
128
71
80
72
75
73
83
0
VERTEX
8
OBJECT__5
10
0
20
0
30
0
70
128
71
83
72
84
73
80
0
VERTEX
8
OBJECT__5
10
0
20
0
30
0
70
128
71
75
72
85
73
83
0
VERTEX
8
OBJECT__5
10
0
20
0
30
0
70
128
71
75
72
86
73
87
0
VERTEX
8
OBJECT__5
10
0
20
0
30
0
70
128
71
87
72
85
73
75
0
VERTEX
8
OBJECT__5
10
0
20
0
30
0
70
128
71
84
72
81
73
80
0
VERTEX
8
OBJECT__5
10
0
20
0
30
0
70
128
71
88
72
89
73
90
0
VERTEX
8
OBJECT__5
10
0
20
0
30
0
70
128
71
80
72
91
73
89
0
VERTEX
8
OBJECT__5
10
0
20
0
30
0
70
128
71
89
72
88
73
80
0
VERTEX
8
OBJECT__5
10
0
20
0
30
0
70
128
71
80
72
92
73
93
0
VERTEX
8
OBJECT__5
10
0
20
0
30
0
70
128
71
93
72
91
73
80
0
VERTEX
8
OBJECT__5
10
0
20
0
30
0
70
128
71
90
72
94
73
88
0
VERTEX
8
OBJECT__5
10
0
20
0
30
0
70
128
71
95
72
88
73
96
0
VERTEX
8
OBJECT__5
10
0
20
0
30
0
70
128
71
96
72
97
73
95
0
VERTEX
8
OBJECT__5
10
0
20
0
30
0
70
128
71
97
72
98
73
95
0
VERTEX
8
OBJECT__5
10
0
20
0
30
0
70
128
71
88
72
99
73
100
0
VERTEX
8
OBJECT__5
10
0
20
0
30
0
70
128
71
100
72
101
73
88
0
VERTEX
8
OBJECT__5
10
0
20
0
30
0
70
128
71
101
72
96
73
88
0
VERTEX
8
OBJECT__5
10
0
20
0
30
0
70
128
71
102
72
103
73
104
0
VERTEX
8
OBJECT__5
10
0
20
0
30
0
70
128
71
95
72
105
73
103
0
VERTEX
8
OBJECT__5
10
0
20
0
30
0
70
128
71
95
72
106
73
107
0
VERTEX
8
OBJECT__5
10
0
20
0
30
0
70
128
71
107
72
105
73
95
0
VERTEX
8
OBJECT__5
10
0
20
0
30
0
70
128
71
103
72
102
73
95
0
VERTEX
8
OBJECT__5
10
0
20
0
30
0
70
128
71
108
72
109
73
110
0
VERTEX
8
OBJECT__5
10
0
20
0
30
0
70
128
71
102
72
111
73
109
0
VERTEX
8
OBJECT__5
10
0
20
0
30
0
70
128
71
102
72
112
73
113
0
VERTEX
8
OBJECT__5
10
0
20
0
30
0
70
128
71
113
72
111
73
102
0
VERTEX
8
OBJECT__5
10
0
20
0
30
0
70
128
71
102
72
114
73
112
0
VERTEX
8
OBJECT__5
10
0
20
0
30
0
70
128
71
109
72
108
73
102
0
VERTEX
8
OBJECT__5
10
0
20
0
30
0
70
128
71
2
72
115
73
116
0
VERTEX
8
OBJECT__5
10
0
20
0
30
0
70
128
71
108
72
117
73
118
0
VERTEX
8
OBJECT__5
10
0
20
0
30
0
70
128
71
108
72
119
73
117
0
VERTEX
8
OBJECT__5
10
0
20
0
30
0
70
128
71
118
72
2
73
108
0
VERTEX
8
OBJECT__5
10
0
20
0
30
0
70
128
71
108
72
120
73
121
0
VERTEX
8
OBJECT__5
10
0
20
0
30
0
70
128
71
121
72
119
73
108
0
VERTEX
8
OBJECT__5
10
0
20
0
30
0
70
128
71
118
72
115
73
2
0
VERTEX
8
OBJECT__5
10
0
20
0
30
0
70
128
71
116
72
6
73
2
0
VERTEX
8
OBJECT__5
10
0
20
0
30
0
70
128
71
110
72
120
73
108
0
VERTEX
8
OBJECT__5
10
0
20
0
30
0
70
128
71
104
72
114
73
102
0
VERTEX
8
OBJECT__5
10
0
20
0
30
0
70
128
71
98
72
106
73
95
0
VERTEX
8
OBJECT__5
10
0
20
0
30
0
70
128
71
94
72
99
73
88
0
VERTEX
8
OBJECT__5
10
0
20
0
30
0
70
128
71
82
72
92
73
80
0
VERTEX
8
OBJECT__5
10
0
20
0
30
0
70
128
71
77
72
86
73
75
0
VERTEX
8
OBJECT__5
10
0
20
0
30
0
70
128
71
68
72
78
73
66
0
VERTEX
8
OBJECT__5
10
0
20
0
30
0
70
128
71
61
72
72
73
59
0
VERTEX
8
OBJECT__5
10
0
20
0
30
0
70
128
71
55
72
65
73
52
0
VERTEX
8
OBJECT__5
10
0
20
0
30
0
70
128
71
41
72
50
73
38
0
VERTEX
8
OBJECT__5
10
0
20
0
30
0
70
128
71
37
72
44
73
31
0
VERTEX
8
OBJECT__5
10
0
20
0
30
0
70
128
71
28
72
34
73
24
0
VERTEX
8
OBJECT__5
10
0
20
0
30
0
70
128
71
19
72
29
73
17
0
VERTEX
8
OBJECT__5
10
0
20
0
30
0
70
128
71
11
72
23
73
9
0
VERTEX
8
OBJECT__5
10
0
20
0
30
0
70
128
71
8
72
15
73
1
0
SEQEND
8
OBJECT__5
0
POLYLINE
8
OBJECT__6
66
1
70
64
71
190
72
190
62
253
0
VERTEX
8
OBJECT__6
10
9.959000
20
-38.991001
30
-8.402000
70
192
0
VERTEX
8
OBJECT__6
10
9.960000
20
-37.174999
30
-14.452000
70
192
0
VERTEX
8
OBJECT__6
10
7.307000
20
-35.271000
30
-11.920000
70
192
0
VERTEX
8
OBJECT__6
10
7.306000
20
-36.492001
30
-7.251000
70
192
0
VERTEX
8
OBJECT__6
10
9.959000
20
-39.118999
30
-7.775000
70
192
0
VERTEX
8
OBJECT__6
10
9.960000
20
-36.791000
30
-15.245000
70
192
0
VERTEX
8
OBJECT__6
10
7.308000
20
-34.533001
30
-13.915000
70
192
0
VERTEX
8
OBJECT__6
10
7.308000
20
-34.707001
30
-13.446000
70
192
0
VERTEX
8
OBJECT__6
10
7.308000
20
-34.372002
30
-14.245000
70
192
0
VERTEX
8
OBJECT__6
10
9.961000
20
-34.409000
30
-20.170000
70
192
0
VERTEX
8
OBJECT__6
10
7.309000
20
-32.259998
30
-18.587000
70
192
0
VERTEX
8
OBJECT__6
10
7.309000
20
-30.889000
30
-20.621000
70
192
0
VERTEX
8
OBJECT__6
10
9.961000
20
-34.025002
30
-20.812000
70
192
0
VERTEX
8
OBJECT__6
10
9.962000
20
-33.096001
30
-22.090000
70
192
0
VERTEX
8
OBJECT__6
10
9.962000
20
-30.304001
30
-25.931999
70
192
0
VERTEX
8
OBJECT__6
10
7.310000
20
-29.337999
30
-22.923000
70
192
0
VERTEX
8
OBJECT__6
10
9.963000
20
-28.111000
30
-28.115999
70
192
0
VERTEX
8
OBJECT__6
10
7.310000
20
-26.260000
30
-26.264999
70
192
0
VERTEX
8
OBJECT__6
10
7.310000
20
-27.483999
30
-25.052999
70
192
0
VERTEX
8
OBJECT__6
10
7.310000
20
-27.981001
30
-24.561001
70
192
0
VERTEX
8
OBJECT__6
10
9.963000
20
-25.799000
30
-30.417999
70
192
0
VERTEX
8
OBJECT__6
10
7.311000
20
-24.289000
30
-28.216999
70
192
0
VERTEX
8
OBJECT__6
10
7.311000
20
-20.671000
30
-30.914000
70
192
0
VERTEX
8
OBJECT__6
10
9.963000
20
-25.205999
30
-30.910999
70
192
0
VERTEX
8
OBJECT__6
10
9.964000
20
-22.104000
30
-33.055000
70
192
0
VERTEX
8
OBJECT__6
10
9.964000
20
-20.006001
30
-34.505001
70
192
0
VERTEX
8
OBJECT__6
10
7.312000
20
-18.273001
30
-32.438000
70
192
0
VERTEX
8
OBJECT__6
10
7.311000
20
-20.096001
30
-31.341999
70
192
0
VERTEX
8
OBJECT__6
10
9.964000
20
-15.240000
30
-36.782001
70
192
0
VERTEX
8
OBJECT__6
10
7.312000
20
-14.236000
30
-34.355000
70
192
0
VERTEX
8
OBJECT__6
10
7.312000
20
-16.559000
30
-33.251999
70
192
0
VERTEX
8
OBJECT__6
10
9.965000
20
-14.272000
30
-37.243999
70
192
0
VERTEX
8
OBJECT__6
10
7.312000
20
-13.580000
30
-34.666000
70
192
0
VERTEX
8
OBJECT__6
10
9.965000
20
-13.565000
30
-37.507000
70
192
0
VERTEX
8
OBJECT__6
10
9.965000
20
-7.777000
30
-39.094002
70
192
0
VERTEX
8
OBJECT__6
10
7.312000
20
-8.589000
30
-36.227001
70
192
0
VERTEX
8
OBJECT__6
10
7.312000
20
-7.263000
30
-36.501999
70
192
0
VERTEX
8
OBJECT__6
10
9.965000
20
-7.463000
30
-39.180000
70
192
0
VERTEX
8
OBJECT__6
10
9.965000
20
-1.142000
30
-39.868000
70
192
0
VERTEX
8
OBJECT__6
10
7.313000
20
-3.426000
30
-36.986000
70
192
0
VERTEX
8
OBJECT__6
10
7.313000
20
-1.340000
30
-37.207001
70
192
0
VERTEX
8
OBJECT__6
10
7.313000
20
-6.506000
30
-36.658001
70
192
0
VERTEX
8
OBJECT__6
10
9.965000
20
-0.375000
30
-39.882999
70
192
0
VERTEX
8
OBJECT__6
10
7.313000
20
-0.022000
30
-37.161999
70
192
0
VERTEX
8
OBJECT__6
10
9.965000
20
-0.022000
30
-39.858002
70
192
0
VERTEX
8
OBJECT__6
10
9.965000
20
5.935000
30
-39.441002
70
192
0
VERTEX
8
OBJECT__6
10
7.313000
20
3.887000
30
-37.028000
70
192
0
VERTEX
8
OBJECT__6
10
9.965000
20
7.756000
30
-39.015999
70
192
0
VERTEX
8
OBJECT__6
10
7.312000
20
7.247000
30
-36.450001
70
192
0
VERTEX
8
OBJECT__6
10
7.313000
20
5.995000
30
-36.744999
70
192
0
VERTEX
8
OBJECT__6
10
9.965000
20
12.124000
30
-37.998001
70
192
0
VERTEX
8
OBJECT__6
10
7.312000
20
10.177000
30
-35.758999
70
192
0
VERTEX
8
OBJECT__6
10
7.312000
20
11.052000
30
-35.553001
70
192
0
VERTEX
8
OBJECT__6
10
7.312000
20
14.194000
30
-34.327999
70
192
0
VERTEX
8
OBJECT__6
10
9.965000
20
12.851000
30
-37.757999
70
192
0
VERTEX
8
OBJECT__6
10
9.964000
20
15.191000
30
-36.748001
70
192
0
VERTEX
8
OBJECT__6
10
9.964000
20
18.659000
30
-35.250999
70
192
0
VERTEX
8
OBJECT__6
10
7.312000
20
15.924000
30
-33.653999
70
192
0
VERTEX
8
OBJECT__6
10
9.964000
20
22.087999
30
-33.070000
70
192
0
VERTEX
8
OBJECT__6
10
7.312000
20
20.632000
30
-30.892000
70
192
0
VERTEX
8
OBJECT__6
10
7.312000
20
17.820000
30
-32.689999
70
192
0
VERTEX
8
OBJECT__6
10
9.963000
20
24.023001
30
-31.839001
70
192
0
VERTEX
8
OBJECT__6
10
7.311000
20
22.197001
30
-29.891001
70
192
0
VERTEX
8
OBJECT__6
10
7.310000
20
26.166000
30
-26.486000
70
192
0
VERTEX
8
OBJECT__6
10
7.311000
20
22.424000
30
-29.695999
70
192
0
VERTEX
8
OBJECT__6
10
9.963000
20
24.618000
30
-31.381001
70
192
0
VERTEX
8
OBJECT__6
10
9.963000
20
28.125999
30
-28.148001
70
192
0
VERTEX
8
OBJECT__6
10
7.310000
20
26.309999
30
-26.336000
70
192
0
VERTEX
8
OBJECT__6
10
9.963000
20
29.268999
30
-27.094999
70
192
0
VERTEX
8
OBJECT__6
10
9.962000
20
33.145000
30
-22.174000
70
192
0
VERTEX
8
OBJECT__6
10
7.309000
20
30.840000
30
-20.858000
70
192
0
VERTEX
8
OBJECT__6
10
7.310000
20
27.636000
30
-24.948000
70
192
0
VERTEX
8
OBJECT__6
10
7.309000
20
30.934000
30
-20.695999
70
192
0
VERTEX
8
OBJECT__6
10
9.962000
20
33.200001
30
-22.104000
70
192
0
VERTEX
8
OBJECT__6
10
9.961000
20
33.620998
30
-21.459000
70
192
0
VERTEX
8
OBJECT__6
10
9.960000
20
36.588001
30
-15.880000
70
192
0
VERTEX
8
OBJECT__6
10
7.308000
20
33.458000
30
-16.332001
70
192
0
VERTEX
8
OBJECT__6
10
7.309000
20
31.590000
30
-19.562000
70
192
0
VERTEX
8
OBJECT__6
10
7.308000
20
34.335999
30
-14.395000
70
192
0
VERTEX
8
OBJECT__6
10
9.960000
20
36.800999
30
-15.256000
70
192
0
VERTEX
8
OBJECT__6
10
7.308000
20
34.383999
30
-14.253000
70
192
0
VERTEX
8
OBJECT__6
10
9.959000
20
38.644001
30
-9.871000
70
192
0
VERTEX
8
OBJECT__6
10
7.307000
20
36.005001
30
-9.475000
70
192
0
VERTEX
8
OBJECT__6
10
7.307000
20
36.421001
30
-7.278000
70
192
0
VERTEX
8
OBJECT__6
10
9.959000
20
39.073002
30
-7.806000
70
192
0
VERTEX
8
OBJECT__6
10
7.306000
20
36.507000
30
-6.824000
70
192
0
VERTEX
8
OBJECT__6
10
9.958000
20
39.382000
30
-6.317000
70
192
0
VERTEX
8
OBJECT__6
10
7.306000
20
36.978001
30
-4.337000
70
192
0
VERTEX
8
OBJECT__6
10
9.957000
20
39.886002
30
0.001000
70
192
0
VERTEX
8
OBJECT__6
10
7.306000
20
37.165001
30
-2.218000
70
192
0
VERTEX
8
OBJECT__6
10
7.305000
20
37.141998
30
0.000000
70
192
0
VERTEX
8
OBJECT__6
10
9.956000
20
39.501999
30
5.516000
70
192
0
VERTEX
8
OBJECT__6
10
7.305000
20
37.112000
30
2.977000
70
192
0
VERTEX
8
OBJECT__6
10
7.304000
20
36.528000
30
6.831000
70
192
0
VERTEX
8
OBJECT__6
10
9.956000
20
38.997002
30
7.791000
70
192
0
VERTEX
8
OBJECT__6
10
7.303000
20
36.459000
30
7.288000
70
192
0
VERTEX
8
OBJECT__6
10
9.955000
20
38.127998
30
11.711000
70
192
0
VERTEX
8
OBJECT__6
10
7.303000
20
35.804001
30
10.209000
70
192
0
VERTEX
8
OBJECT__6
10
7.303000
20
36.328999
30
8.148000
70
192
0
VERTEX
8
OBJECT__6
10
7.302000
20
34.344002
30
14.239000
70
192
0
VERTEX
8
OBJECT__6
10
9.955000
20
37.894001
30
12.446000
70
192
0
VERTEX
8
OBJECT__6
10
9.954000
20
36.730000
30
15.226000
70
192
0
VERTEX
8
OBJECT__6
10
7.300000
20
31.646000
30
19.594999
70
192
0
VERTEX
8
OBJECT__6
10
7.301000
20
34.034000
30
15.094000
70
192
0
VERTEX
8
OBJECT__6
10
9.954000
20
35.450001
30
18.278999
70
192
0
VERTEX
8
OBJECT__6
10
9.953000
20
33.061001
30
22.125000
70
192
0
VERTEX
8
OBJECT__6
10
7.300000
20
31.584000
30
19.712999
70
192
0
VERTEX
8
OBJECT__6
10
7.300000
20
30.924999
30
20.691000
70
192
0
VERTEX
8
OBJECT__6
10
9.953000
20
32.097000
30
23.679001
70
192
0
VERTEX
8
OBJECT__6
10
7.300000
20
30.115000
30
21.891001
70
192
0
VERTEX
8
OBJECT__6
10
9.952000
20
31.646999
30
24.275999
70
192
0
VERTEX
8
OBJECT__6
10
9.952000
20
28.135000
30
28.171000
70
192
0
VERTEX
8
OBJECT__6
10
7.299000
20
26.767000
30
25.879000
70
192
0
VERTEX
8
OBJECT__6
10
7.299000
20
26.302999
30
26.330999
70
192
0
VERTEX
8
OBJECT__6
10
9.952000
20
27.410999
30
28.975000
70
192
0
VERTEX
8
OBJECT__6
10
9.951000
20
22.459999
30
32.960999
70
192
0
VERTEX
8
OBJECT__6
10
7.298000
20
22.389000
30
29.652000
70
192
0
VERTEX
8
OBJECT__6
10
7.298000
20
21.190001
30
30.613001
70
192
0
VERTEX
8
OBJECT__6
10
7.299000
20
25.245001
30
27.365000
70
192
0
VERTEX
8
OBJECT__6
10
7.298000
20
20.656000
30
30.929001
70
192
0
VERTEX
8
OBJECT__6
10
9.951000
20
22.149000
30
33.168999
70
192
0
VERTEX
8
OBJECT__6
10
9.951000
20
21.811001
30
33.394001
70
192
0
VERTEX
8
OBJECT__6
10
9.950000
20
16.264000
30
36.419998
70
192
0
VERTEX
8
OBJECT__6
10
7.298000
20
16.691999
30
33.279999
70
192
0
VERTEX
8
OBJECT__6
10
9.950000
20
15.213000
30
36.792000
70
192
0
VERTEX
8
OBJECT__6
10
7.297000
20
14.211000
30
34.373001
70
192
0
VERTEX
8
OBJECT__6
10
7.297000
20
14.764000
30
34.179001
70
192
0
VERTEX
8
OBJECT__6
10
9.950000
20
10.276000
30
38.539001
70
192
0
VERTEX
8
OBJECT__6
10
7.297000
20
10.181000
30
35.789001
70
192
0
VERTEX
8
OBJECT__6
10
7.297000
20
9.862000
30
35.901001
70
192
0
VERTEX
8
OBJECT__6
10
7.297000
20
7.243000
30
36.425999
70
192
0
VERTEX
8
OBJECT__6
10
9.950000
20
9.550000
30
38.726002
70
192
0
VERTEX
8
OBJECT__6
10
9.950000
20
7.762000
30
39.018002
70
192
0
VERTEX
8
OBJECT__6
10
9.949000
20
3.305000
30
39.749001
70
192
0
VERTEX
8
OBJECT__6
10
7.297000
20
4.735000
30
36.929001
70
192
0
VERTEX
8
OBJECT__6
10
9.949000
20
-0.022000
30
39.758999
70
192
0
VERTEX
8
OBJECT__6
10
7.297000
20
-0.020000
30
37.139999
70
192
0
VERTEX
8
OBJECT__6
10
7.297000
20
2.618000
30
37.139000
70
192
0
VERTEX
8
OBJECT__6
10
9.949000
20
-3.053000
30
39.769001
70
192
0
VERTEX
8
OBJECT__6
10
7.297000
20
-2.577000
30
37.141998
70
192
0
VERTEX
8
OBJECT__6
10
7.297000
20
-3.428000
30
37.021999
70
192
0
VERTEX
8
OBJECT__6
10
9.949000
20
-3.819000
30
39.702999
70
192
0
VERTEX
8
OBJECT__6
10
9.950000
20
-7.765000
30
39.004002
70
192
0
VERTEX
8
OBJECT__6
10
7.297000
20
-7.263000
30
36.484001
70
192
0
VERTEX
8
OBJECT__6
10
9.950000
20
-10.043000
30
38.601002
70
192
0
VERTEX
8
OBJECT__6
10
7.297000
20
-9.823000
30
35.911999
70
192
0
VERTEX
8
OBJECT__6
10
7.297000
20
-7.756000
30
36.414001
70
192
0
VERTEX
8
OBJECT__6
10
9.950000
20
-15.253000
30
36.791000
70
192
0
VERTEX
8
OBJECT__6
10
7.297000
20
-14.245000
30
34.362999
70
192
0
VERTEX
8
OBJECT__6
10
9.950000
20
-16.046000
30
36.515999
70
192
0
VERTEX
8
OBJECT__6
10
7.297000
20
-14.726000
30
34.195000
70
192
0
VERTEX
8
OBJECT__6
10
9.950000
20
-16.739000
30
36.203999
70
192
0
VERTEX
8
OBJECT__6
10
9.951000
20
-22.170000
30
33.147999
70
192
0
VERTEX
8
OBJECT__6
10
7.298000
20
-19.372000
30
31.794001
70
192
0
VERTEX
8
OBJECT__6
10
7.298000
20
-16.555000
30
33.250000
70
192
0
VERTEX
8
OBJECT__6
10
7.298000
20
-20.691000
30
30.938000
70
192
0
VERTEX
8
OBJECT__6
10
9.951000
20
-22.250999
30
33.102001
70
192
0
VERTEX
8
OBJECT__6
10
9.951000
20
-27.228001
30
29.146000
70
192
0
VERTEX
8
OBJECT__6
10
7.299000
20
-25.215000
30
27.393000
70
192
0
VERTEX
8
OBJECT__6
10
7.298000
20
-21.156000
30
30.636000
70
192
0
VERTEX
8
OBJECT__6
10
9.952000
20
-27.780001
30
28.621000
70
192
0
VERTEX
8
OBJECT__6
10
7.299000
20
-26.268999
30
26.275999
70
192
0
VERTEX
8
OBJECT__6
10
9.952000
20
-28.169001
30
28.177999
70
192
0
VERTEX
8
OBJECT__6
10
9.953000
20
-31.955999
30
23.868000
70
192
0
VERTEX
8
OBJECT__6
10
7.300000
20
-28.804001
30
23.590000
70
192
0
VERTEX
8
OBJECT__6
10
7.300000
20
-27.451000
30
25.023001
70
192
0
VERTEX
8
OBJECT__6
10
9.953000
20
-33.077999
30
22.086000
70
192
0
VERTEX
8
OBJECT__6
10
7.300000
20
-30.902000
30
20.632000
70
192
0
VERTEX
8
OBJECT__6
10
7.300000
20
-30.104000
30
21.906000
70
192
0
VERTEX
8
OBJECT__6
10
9.954000
20
-35.341999
30
18.488001
70
192
0
VERTEX
8
OBJECT__6
10
7.301000
20
-32.861000
30
17.502001
70
192
0
VERTEX
8
OBJECT__6
10
7.302000
20
-34.321999
30
14.223000
70
192
0
VERTEX
8
OBJECT__6
10
9.954000
20
-35.692001
30
17.802000
70
192
0
VERTEX
8
OBJECT__6
10
9.954000
20
-36.730999
30
15.225000
70
192
0
VERTEX
8
OBJECT__6
10
7.302000
20
-34.988998
30
12.726000
70
192
0
VERTEX
8
OBJECT__6
10
7.302000
20
-34.674999
30
13.431000
70
192
0
VERTEX
8
OBJECT__6
10
9.955000
20
-38.056999
30
11.936000
70
192
0
VERTEX
8
OBJECT__6
10
7.303000
20
-35.658001
30
10.707000
70
192
0
VERTEX
8
OBJECT__6
10
9.956000
20
-39.012001
30
7.750000
70
192
0
VERTEX
8
OBJECT__6
10
7.303000
20
-36.441002
30
7.240000
70
192
0
VERTEX
8
OBJECT__6
10
9.956000
20
-39.470001
30
5.739000
70
192
0
VERTEX
8
OBJECT__6
10
7.304000
20
-36.801998
30
5.639000
70
192
0
VERTEX
8
OBJECT__6
10
7.305000
20
-37.229000
30
0.427000
70
192
0
VERTEX
8
OBJECT__6
10
9.956000
20
-39.570999
30
5.001000
70
192
0
VERTEX
8
OBJECT__6
10
9.957000
20
-39.886002
30
0.000000
70
192
0
VERTEX
8
OBJECT__6
10
7.305000
20
-37.221001
30
0.000000
70
192
0
VERTEX
8
OBJECT__6
10
9.957000
20
-39.863998
30
-1.318000
70
192
0
VERTEX
8
OBJECT__6
10
9.959000
20
-39.147999
30
-7.635000
70
192
0
VERTEX
8
OBJECT__6
10
7.306000
20
-36.594002
30
-6.861000
70
192
0
VERTEX
8
OBJECT__6
10
7.305000
20
-37.192001
30
-1.700000
70
192
0
VERTEX
8
OBJECT__6
10
0
20
0
30
0
70
128
71
1
72
2
73
3
0
VERTEX
8
OBJECT__6
10
0
20
0
30
0
70
128
71
4
72
5
73
1
0
VERTEX
8
OBJECT__6
10
0
20
0
30
0
70
128
71
2
72
6
73
7
0
VERTEX
8
OBJECT__6
10
0
20
0
30
0
70
128
71
7
72
8
73
2
0
VERTEX
8
OBJECT__6
10
0
20
0
30
0
70
128
71
6
72
9
73
7
0
VERTEX
8
OBJECT__6
10
0
20
0
30
0
70
128
71
8
72
3
73
2
0
VERTEX
8
OBJECT__6
10
0
20
0
30
0
70
128
71
6
72
10
73
11
0
VERTEX
8
OBJECT__6
10
0
20
0
30
0
70
128
71
12
72
11
73
13
0
VERTEX
8
OBJECT__6
10
0
20
0
30
0
70
128
71
11
72
10
73
13
0
VERTEX
8
OBJECT__6
10
0
20
0
30
0
70
128
71
13
72
14
73
12
0
VERTEX
8
OBJECT__6
10
0
20
0
30
0
70
128
71
14
72
15
73
16
0
VERTEX
8
OBJECT__6
10
0
20
0
30
0
70
128
71
17
72
18
73
19
0
VERTEX
8
OBJECT__6
10
0
20
0
30
0
70
128
71
19
72
15
73
17
0
VERTEX
8
OBJECT__6
10
0
20
0
30
0
70
128
71
19
72
20
73
15
0
VERTEX
8
OBJECT__6
10
0
20
0
30
0
70
128
71
20
72
16
73
15
0
VERTEX
8
OBJECT__6
10
0
20
0
30
0
70
128
71
17
72
21
73
22
0
VERTEX
8
OBJECT__6
10
0
20
0
30
0
70
128
71
23
72
22
73
24
0
VERTEX
8
OBJECT__6
10
0
20
0
30
0
70
128
71
22
72
21
73
24
0
VERTEX
8
OBJECT__6
10
0
20
0
30
0
70
128
71
24
72
25
73
23
0
VERTEX
8
OBJECT__6
10
0
20
0
30
0
70
128
71
26
72
27
73
28
0
VERTEX
8
OBJECT__6
10
0
20
0
30
0
70
128
71
29
72
30
73
31
0
VERTEX
8
OBJECT__6
10
0
20
0
30
0
70
128
71
31
72
26
73
29
0
VERTEX
8
OBJECT__6
10
0
20
0
30
0
70
128
71
31
72
27
73
26
0
VERTEX
8
OBJECT__6
10
0
20
0
30
0
70
128
71
28
72
25
73
26
0
VERTEX
8
OBJECT__6
10
0
20
0
30
0
70
128
71
29
72
32
73
33
0
VERTEX
8
OBJECT__6
10
0
20
0
30
0
70
128
71
34
72
35
73
36
0
VERTEX
8
OBJECT__6
10
0
20
0
30
0
70
128
71
33
72
32
73
34
0
VERTEX
8
OBJECT__6
10
0
20
0
30
0
70
128
71
35
72
37
73
36
0
VERTEX
8
OBJECT__6
10
0
20
0
30
0
70
128
71
36
72
33
73
34
0
VERTEX
8
OBJECT__6
10
0
20
0
30
0
70
128
71
37
72
35
73
38
0
VERTEX
8
OBJECT__6
10
0
20
0
30
0
70
128
71
38
72
39
73
40
0
VERTEX
8
OBJECT__6
10
0
20
0
30
0
70
128
71
39
72
41
73
40
0
VERTEX
8
OBJECT__6
10
0
20
0
30
0
70
128
71
40
72
42
73
38
0
VERTEX
8
OBJECT__6
10
0
20
0
30
0
70
128
71
41
72
39
73
43
0
VERTEX
8
OBJECT__6
10
0
20
0
30
0
70
128
71
43
72
44
73
41
0
VERTEX
8
OBJECT__6
10
0
20
0
30
0
70
128
71
43
72
45
73
44
0
VERTEX
8
OBJECT__6
10
0
20
0
30
0
70
128
71
45
72
46
73
47
0
VERTEX
8
OBJECT__6
10
0
20
0
30
0
70
128
71
48
72
49
73
50
0
VERTEX
8
OBJECT__6
10
0
20
0
30
0
70
128
71
50
72
46
73
48
0
VERTEX
8
OBJECT__6
10
0
20
0
30
0
70
128
71
50
72
47
73
46
0
VERTEX
8
OBJECT__6
10
0
20
0
30
0
70
128
71
48
72
51
73
52
0
VERTEX
8
OBJECT__6
10
0
20
0
30
0
70
128
71
51
72
53
73
52
0
VERTEX
8
OBJECT__6
10
0
20
0
30
0
70
128
71
54
72
53
73
55
0
VERTEX
8
OBJECT__6
10
0
20
0
30
0
70
128
71
53
72
51
73
55
0
VERTEX
8
OBJECT__6
10
0
20
0
30
0
70
128
71
55
72
56
73
54
0
VERTEX
8
OBJECT__6
10
0
20
0
30
0
70
128
71
56
72
57
73
58
0
VERTEX
8
OBJECT__6
10
0
20
0
30
0
70
128
71
59
72
60
73
61
0
VERTEX
8
OBJECT__6
10
0
20
0
30
0
70
128
71
61
72
57
73
59
0
VERTEX
8
OBJECT__6
10
0
20
0
30
0
70
128
71
61
72
58
73
57
0
VERTEX
8
OBJECT__6
10
0
20
0
30
0
70
128
71
59
72
62
73
63
0
VERTEX
8
OBJECT__6
10
0
20
0
30
0
70
128
71
64
72
65
73
66
0
VERTEX
8
OBJECT__6
10
0
20
0
30
0
70
128
71
65
72
62
73
66
0
VERTEX
8
OBJECT__6
10
0
20
0
30
0
70
128
71
66
72
67
73
64
0
VERTEX
8
OBJECT__6
10
0
20
0
30
0
70
128
71
67
72
68
73
64
0
VERTEX
8
OBJECT__6
10
0
20
0
30
0
70
128
71
65
72
63
73
62
0
VERTEX
8
OBJECT__6
10
0
20
0
30
0
70
128
71
68
72
67
73
69
0
VERTEX
8
OBJECT__6
10
0
20
0
30
0
70
128
71
70
72
71
73
72
0
VERTEX
8
OBJECT__6
10
0
20
0
30
0
70
128
71
72
72
69
73
70
0
VERTEX
8
OBJECT__6
10
0
20
0
30
0
70
128
71
70
72
73
73
71
0
VERTEX
8
OBJECT__6
10
0
20
0
30
0
70
128
71
73
72
74
73
75
0
VERTEX
8
OBJECT__6
10
0
20
0
30
0
70
128
71
73
72
70
73
74
0
VERTEX
8
OBJECT__6
10
0
20
0
30
0
70
128
71
75
72
76
73
77
0
VERTEX
8
OBJECT__6
10
0
20
0
30
0
70
128
71
77
72
78
73
75
0
VERTEX
8
OBJECT__6
10
0
20
0
30
0
70
128
71
79
72
77
73
76
0
VERTEX
8
OBJECT__6
10
0
20
0
30
0
70
128
71
80
72
81
73
79
0
VERTEX
8
OBJECT__6
10
0
20
0
30
0
70
128
71
76
72
80
73
79
0
VERTEX
8
OBJECT__6
10
0
20
0
30
0
70
128
71
80
72
82
73
83
0
VERTEX
8
OBJECT__6
10
0
20
0
30
0
70
128
71
84
72
83
73
82
0
VERTEX
8
OBJECT__6
10
0
20
0
30
0
70
128
71
82
72
85
73
84
0
VERTEX
8
OBJECT__6
10
0
20
0
30
0
70
128
71
86
72
85
73
87
0
VERTEX
8
OBJECT__6
10
0
20
0
30
0
70
128
71
87
72
88
73
86
0
VERTEX
8
OBJECT__6
10
0
20
0
30
0
70
128
71
87
72
89
73
90
0
VERTEX
8
OBJECT__6
10
0
20
0
30
0
70
128
71
89
72
91
73
90
0
VERTEX
8
OBJECT__6
10
0
20
0
30
0
70
128
71
90
72
88
73
87
0
VERTEX
8
OBJECT__6
10
0
20
0
30
0
70
128
71
89
72
92
73
93
0
VERTEX
8
OBJECT__6
10
0
20
0
30
0
70
128
71
94
72
93
73
92
0
VERTEX
8
OBJECT__6
10
0
20
0
30
0
70
128
71
95
72
96
73
94
0
VERTEX
8
OBJECT__6
10
0
20
0
30
0
70
128
71
92
72
95
73
94
0
VERTEX
8
OBJECT__6
10
0
20
0
30
0
70
128
71
97
72
98
73
99
0
VERTEX
8
OBJECT__6
10
0
20
0
30
0
70
128
71
100
72
98
73
101
0
VERTEX
8
OBJECT__6
10
0
20
0
30
0
70
128
71
98
72
97
73
101
0
VERTEX
8
OBJECT__6
10
0
20
0
30
0
70
128
71
101
72
102
73
100
0
VERTEX
8
OBJECT__6
10
0
20
0
30
0
70
128
71
99
72
95
73
97
0
VERTEX
8
OBJECT__6
10
0
20
0
30
0
70
128
71
103
72
104
73
105
0
VERTEX
8
OBJECT__6
10
0
20
0
30
0
70
128
71
104
72
102
73
105
0
VERTEX
8
OBJECT__6
10
0
20
0
30
0
70
128
71
106
72
107
73
103
0
VERTEX
8
OBJECT__6
10
0
20
0
30
0
70
128
71
106
72
108
73
107
0
VERTEX
8
OBJECT__6
10
0
20
0
30
0
70
128
71
105
72
106
73
103
0
VERTEX
8
OBJECT__6
10
0
20
0
30
0
70
128
71
106
72
109
73
110
0
VERTEX
8
OBJECT__6
10
0
20
0
30
0
70
128
71
111
72
112
73
113
0
VERTEX
8
OBJECT__6
10
0
20
0
30
0
70
128
71
110
72
109
73
111
0
VERTEX
8
OBJECT__6
10
0
20
0
30
0
70
128
71
112
72
114
73
113
0
VERTEX
8
OBJECT__6
10
0
20
0
30
0
70
128
71
113
72
110
73
111
0
VERTEX
8
OBJECT__6
10
0
20
0
30
0
70
128
71
114
72
112
73
115
0
VERTEX
8
OBJECT__6
10
0
20
0
30
0
70
128
71
115
72
116
73
117
0
VERTEX
8
OBJECT__6
10
0
20
0
30
0
70
128
71
116
72
118
73
117
0
VERTEX
8
OBJECT__6
10
0
20
0
30
0
70
128
71
117
72
119
73
115
0
VERTEX
8
OBJECT__6
10
0
20
0
30
0
70
128
71
120
72
118
73
116
0
VERTEX
8
OBJECT__6
10
0
20
0
30
0
70
128
71
116
72
121
73
120
0
VERTEX
8
OBJECT__6
10
0
20
0
30
0
70
128
71
122
72
123
73
124
0
VERTEX
8
OBJECT__6
10
0
20
0
30
0
70
128
71
120
72
121
73
122
0
VERTEX
8
OBJECT__6
10
0
20
0
30
0
70
128
71
125
72
126
73
127
0
VERTEX
8
OBJECT__6
10
0
20
0
30
0
70
128
71
127
72
123
73
125
0
VERTEX
8
OBJECT__6
10
0
20
0
30
0
70
128
71
127
72
124
73
123
0
VERTEX
8
OBJECT__6
10
0
20
0
30
0
70
128
71
125
72
128
73
129
0
VERTEX
8
OBJECT__6
10
0
20
0
30
0
70
128
71
128
72
130
73
129
0
VERTEX
8
OBJECT__6
10
0
20
0
30
0
70
128
71
131
72
130
73
132
0
VERTEX
8
OBJECT__6
10
0
20
0
30
0
70
128
71
130
72
128
73
132
0
VERTEX
8
OBJECT__6
10
0
20
0
30
0
70
128
71
132
72
133
73
131
0
VERTEX
8
OBJECT__6
10
0
20
0
30
0
70
128
71
133
72
134
73
135
0
VERTEX
8
OBJECT__6
10
0
20
0
30
0
70
128
71
136
72
137
73
138
0
VERTEX
8
OBJECT__6
10
0
20
0
30
0
70
128
71
138
72
134
73
136
0
VERTEX
8
OBJECT__6
10
0
20
0
30
0
70
128
71
138
72
135
73
134
0
VERTEX
8
OBJECT__6
10
0
20
0
30
0
70
128
71
136
72
139
73
140
0
VERTEX
8
OBJECT__6
10
0
20
0
30
0
70
128
71
141
72
140
73
139
0
VERTEX
8
OBJECT__6
10
0
20
0
30
0
70
128
71
142
72
143
73
144
0
VERTEX
8
OBJECT__6
10
0
20
0
30
0
70
128
71
144
72
141
73
142
0
VERTEX
8
OBJECT__6
10
0
20
0
30
0
70
128
71
139
72
142
73
141
0
VERTEX
8
OBJECT__6
10
0
20
0
30
0
70
128
71
145
72
146
73
147
0
VERTEX
8
OBJECT__6
10
0
20
0
30
0
70
128
71
148
72
149
73
146
0
VERTEX
8
OBJECT__6
10
0
20
0
30
0
70
128
71
146
72
145
73
148
0
VERTEX
8
OBJECT__6
10
0
20
0
30
0
70
128
71
147
72
143
73
145
0
VERTEX
8
OBJECT__6
10
0
20
0
30
0
70
128
71
148
72
150
73
151
0
VERTEX
8
OBJECT__6
10
0
20
0
30
0
70
128
71
151
72
150
73
152
0
VERTEX
8
OBJECT__6
10
0
20
0
30
0
70
128
71
152
72
153
73
154
0
VERTEX
8
OBJECT__6
10
0
20
0
30
0
70
128
71
154
72
155
73
152
0
VERTEX
8
OBJECT__6
10
0
20
0
30
0
70
128
71
153
72
156
73
154
0
VERTEX
8
OBJECT__6
10
0
20
0
30
0
70
128
71
152
72
155
73
151
0
VERTEX
8
OBJECT__6
10
0
20
0
30
0
70
128
71
156
72
153
73
157
0
VERTEX
8
OBJECT__6
10
0
20
0
30
0
70
128
71
158
72
159
73
160
0
VERTEX
8
OBJECT__6
10
0
20
0
30
0
70
128
71
160
72
157
73
158
0
VERTEX
8
OBJECT__6
10
0
20
0
30
0
70
128
71
159
72
158
73
161
0
VERTEX
8
OBJECT__6
10
0
20
0
30
0
70
128
71
161
72
162
73
159
0
VERTEX
8
OBJECT__6
10
0
20
0
30
0
70
128
71
161
72
163
73
162
0
VERTEX
8
OBJECT__6
10
0
20
0
30
0
70
128
71
163
72
164
73
165
0
VERTEX
8
OBJECT__6
10
0
20
0
30
0
70
128
71
165
72
166
73
163
0
VERTEX
8
OBJECT__6
10
0
20
0
30
0
70
128
71
167
72
168
73
169
0
VERTEX
8
OBJECT__6
10
0
20
0
30
0
70
128
71
169
72
164
73
167
0
VERTEX
8
OBJECT__6
10
0
20
0
30
0
70
128
71
169
72
165
73
164
0
VERTEX
8
OBJECT__6
10
0
20
0
30
0
70
128
71
167
72
170
73
171
0
VERTEX
8
OBJECT__6
10
0
20
0
30
0
70
128
71
172
72
171
73
173
0
VERTEX
8
OBJECT__6
10
0
20
0
30
0
70
128
71
171
72
170
73
173
0
VERTEX
8
OBJECT__6
10
0
20
0
30
0
70
128
71
173
72
174
73
172
0
VERTEX
8
OBJECT__6
10
0
20
0
30
0
70
128
71
174
72
175
73
176
0
VERTEX
8
OBJECT__6
10
0
20
0
30
0
70
128
71
177
72
178
73
175
0
VERTEX
8
OBJECT__6
10
0
20
0
30
0
70
128
71
179
72
180
73
178
0
VERTEX
8
OBJECT__6
10
0
20
0
30
0
70
128
71
178
72
177
73
179
0
VERTEX
8
OBJECT__6
10
0
20
0
30
0
70
128
71
175
72
174
73
177
0
VERTEX
8
OBJECT__6
10
0
20
0
30
0
70
128
71
179
72
181
73
182
0
VERTEX
8
OBJECT__6
10
0
20
0
30
0
70
128
71
183
72
182
73
184
0
VERTEX
8
OBJECT__6
10
0
20
0
30
0
70
128
71
182
72
181
73
184
0
VERTEX
8
OBJECT__6
10
0
20
0
30
0
70
128
71
186
72
183
73
185
0
VERTEX
8
OBJECT__6
10
0
20
0
30
0
70
128
71
184
72
185
73
183
0
VERTEX
8
OBJECT__6
10
0
20
0
30
0
70
128
71
186
72
185
73
187
0
VERTEX
8
OBJECT__6
10
0
20
0
30
0
70
128
71
188
72
189
73
190
0
VERTEX
8
OBJECT__6
10
0
20
0
30
0
70
128
71
190
72
187
73
188
0
VERTEX
8
OBJECT__6
10
0
20
0
30
0
70
128
71
4
72
189
73
188
0
VERTEX
8
OBJECT__6
10
0
20
0
30
0
70
128
71
188
72
5
73
4
0
VERTEX
8
OBJECT__6
10
0
20
0
30
0
70
128
71
187
72
190
73
186
0
VERTEX
8
OBJECT__6
10
0
20
0
30
0
70
128
71
182
72
180
73
179
0
VERTEX
8
OBJECT__6
10
0
20
0
30
0
70
128
71
176
72
172
73
174
0
VERTEX
8
OBJECT__6
10
0
20
0
30
0
70
128
71
171
72
168
73
167
0
VERTEX
8
OBJECT__6
10
0
20
0
30
0
70
128
71
166
72
162
73
163
0
VERTEX
8
OBJECT__6
10
0
20
0
30
0
70
128
71
157
72
160
73
156
0
VERTEX
8
OBJECT__6
10
0
20
0
30
0
70
128
71
151
72
149
73
148
0
VERTEX
8
OBJECT__6
10
0
20
0
30
0
70
128
71
147
72
144
73
143
0
VERTEX
8
OBJECT__6
10
0
20
0
30
0
70
128
71
140
72
137
73
136
0
VERTEX
8
OBJECT__6
10
0
20
0
30
0
70
128
71
135
72
131
73
133
0
VERTEX
8
OBJECT__6
10
0
20
0
30
0
70
128
71
129
72
126
73
125
0
VERTEX
8
OBJECT__6
10
0
20
0
30
0
70
128
71
124
72
120
73
122
0
VERTEX
8
OBJECT__6
10
0
20
0
30
0
70
128
71
115
72
119
73
114
0
VERTEX
8
OBJECT__6
10
0
20
0
30
0
70
128
71
110
72
108
73
106
0
VERTEX
8
OBJECT__6
10
0
20
0
30
0
70
128
71
104
72
100
73
102
0
VERTEX
8
OBJECT__6
10
0
20
0
30
0
70
128
71
99
72
96
73
95
0
VERTEX
8
OBJECT__6
10
0
20
0
30
0
70
128
71
93
72
91
73
89
0
VERTEX
8
OBJECT__6
10
0
20
0
30
0
70
128
71
86
72
84
73
85
0
VERTEX
8
OBJECT__6
10
0
20
0
30
0
70
128
71
83
72
81
73
80
0
VERTEX
8
OBJECT__6
10
0
20
0
30
0
70
128
71
75
72
78
73
73
0
VERTEX
8
OBJECT__6
10
0
20
0
30
0
70
128
71
69
72
72
73
68
0
VERTEX
8
OBJECT__6
10
0
20
0
30
0
70
128
71
63
72
60
73
59
0
VERTEX
8
OBJECT__6
10
0
20
0
30
0
70
128
71
58
72
54
73
56
0
VERTEX
8
OBJECT__6
10
0
20
0
30
0
70
128
71
52
72
49
73
48
0
VERTEX
8
OBJECT__6
10
0
20
0
30
0
70
128
71
47
72
44
73
45
0
VERTEX
8
OBJECT__6
10
0
20
0
30
0
70
128
71
38
72
42
73
37
0
VERTEX
8
OBJECT__6
10
0
20
0
30
0
70
128
71
33
72
30
73
29
0
VERTEX
8
OBJECT__6
10
0
20
0
30
0
70
128
71
28
72
23
73
25
0
VERTEX
8
OBJECT__6
10
0
20
0
30
0
70
128
71
22
72
18
73
17
0
VERTEX
8
OBJECT__6
10
0
20
0
30
0
70
128
71
16
72
12
73
14
0
VERTEX
8
OBJECT__6
10
0
20
0
30
0
70
128
71
11
72
9
73
6
0
VERTEX
8
OBJECT__6
10
0
20
0
30
0
70
128
71
3
72
4
73
1
0
SEQEND
8
OBJECT__6
0
POLYLINE
8
OBJECT__8
66
1
70
64
71
189
72
189
62
253
0
VERTEX
8
OBJECT__8
10
9.959000
20
-39.147999
30
-7.635000
70
192
0
VERTEX
8
OBJECT__8
10
9.957000
20
-39.863998
30
-1.318000
70
192
0
VERTEX
8
OBJECT__8
10
10.543000
20
-41.161999
30
-3.557000
70
192
0
VERTEX
8
OBJECT__8
10
10.543000
20
-41.196999
30
-1.363000
70
192
0
VERTEX
8
OBJECT__8
10
9.956000
20
-39.570999
30
5.001000
70
192
0
VERTEX
8
OBJECT__8
10
10.541000
20
-40.888000
30
5.168000
70
192
0
VERTEX
8
OBJECT__8
10
10.542000
20
-41.255001
30
2.224000
70
192
0
VERTEX
8
OBJECT__8
10
9.957000
20
-39.886002
30
0.000000
70
192
0
VERTEX
8
OBJECT__8
10
10.542000
20
-41.219002
30
0.003000
70
192
0
VERTEX
8
OBJECT__8
10
9.956000
20
-39.470001
30
5.739000
70
192
0
VERTEX
8
OBJECT__8
10
10.540000
20
-39.358002
30
12.347000
70
192
0
VERTEX
8
OBJECT__8
10
10.541000
20
-40.540001
30
7.966000
70
192
0
VERTEX
8
OBJECT__8
10
9.956000
20
-39.012001
30
7.750000
70
192
0
VERTEX
8
OBJECT__8
10
10.541000
20
-40.792999
30
5.933000
70
192
0
VERTEX
8
OBJECT__8
10
10.539000
20
-36.945000
30
18.429001
70
192
0
VERTEX
8
OBJECT__8
10
10.540000
20
-39.043999
30
13.509000
70
192
0
VERTEX
8
OBJECT__8
10
9.954000
20
-36.730999
30
15.225000
70
192
0
VERTEX
8
OBJECT__8
10
9.955000
20
-38.056999
30
11.936000
70
192
0
VERTEX
8
OBJECT__8
10
9.954000
20
-35.692001
30
17.802000
70
192
0
VERTEX
8
OBJECT__8
10
9.954000
20
-35.341999
30
18.488001
70
192
0
VERTEX
8
OBJECT__8
10
10.539000
20
-36.771999
30
18.834999
70
192
0
VERTEX
8
OBJECT__8
10
10.539000
20
-36.589001
30
19.139000
70
192
0
VERTEX
8
OBJECT__8
10
9.953000
20
-31.955999
30
23.868000
70
192
0
VERTEX
8
OBJECT__8
10
10.538000
20
-33.051998
30
24.683001
70
192
0
VERTEX
8
OBJECT__8
10
10.538000
20
-33.777000
30
23.792999
70
192
0
VERTEX
8
OBJECT__8
10
9.953000
20
-33.077999
30
22.086000
70
192
0
VERTEX
8
OBJECT__8
10
9.952000
20
-28.169001
30
28.177999
70
192
0
VERTEX
8
OBJECT__8
10
10.537000
20
-30.129000
30
28.271000
70
192
0
VERTEX
8
OBJECT__8
10
10.537000
20
-28.714001
30
29.580999
70
192
0
VERTEX
8
OBJECT__8
10
10.537000
20
-28.136000
30
30.115999
70
192
0
VERTEX
8
OBJECT__8
10
9.952000
20
-27.780001
30
28.621000
70
192
0
VERTEX
8
OBJECT__8
10
9.951000
20
-22.250999
30
33.102001
70
192
0
VERTEX
8
OBJECT__8
10
10.536000
20
-22.993999
30
34.209999
70
192
0
VERTEX
8
OBJECT__8
10
10.536000
20
-25.875999
30
32.209000
70
192
0
VERTEX
8
OBJECT__8
10
9.951000
20
-27.228001
30
29.146000
70
192
0
VERTEX
8
OBJECT__8
10
9.950000
20
-16.739000
30
36.203999
70
192
0
VERTEX
8
OBJECT__8
10
10.535000
20
-17.302999
30
37.431000
70
192
0
VERTEX
8
OBJECT__8
10
10.536000
20
-21.131001
30
35.502998
70
192
0
VERTEX
8
OBJECT__8
10
9.951000
20
-22.170000
30
33.147999
70
192
0
VERTEX
8
OBJECT__8
10
9.950000
20
-16.046000
30
36.515999
70
192
0
VERTEX
8
OBJECT__8
10
10.535000
20
-16.601000
30
37.785000
70
192
0
VERTEX
8
OBJECT__8
10
10.535000
20
-10.482000
30
39.964001
70
192
0
VERTEX
8
OBJECT__8
10
10.535000
20
-15.947000
30
38.113998
70
192
0
VERTEX
8
OBJECT__8
10
9.950000
20
-15.253000
30
36.791000
70
192
0
VERTEX
8
OBJECT__8
10
9.950000
20
-10.043000
30
38.601002
70
192
0
VERTEX
8
OBJECT__8
10
10.535000
20
-10.403000
30
39.979000
70
192
0
VERTEX
8
OBJECT__8
10
10.535000
20
-4.796000
30
41.036999
70
192
0
VERTEX
8
OBJECT__8
10
9.950000
20
-7.765000
30
39.004002
70
192
0
VERTEX
8
OBJECT__8
10
9.949000
20
-3.819000
30
39.702999
70
192
0
VERTEX
8
OBJECT__8
10
10.535000
20
-3.953000
30
41.076000
70
192
0
VERTEX
8
OBJECT__8
10
9.949000
20
-3.053000
30
39.769001
70
192
0
VERTEX
8
OBJECT__8
10
10.535000
20
-3.159000
30
41.112000
70
192
0
VERTEX
8
OBJECT__8
10
9.949000
20
3.305000
30
39.749001
70
192
0
VERTEX
8
OBJECT__8
10
10.535000
20
3.414000
30
41.076000
70
192
0
VERTEX
8
OBJECT__8
10
10.534000
20
0.995000
30
41.304001
70
192
0
VERTEX
8
OBJECT__8
10
9.949000
20
-0.022000
30
39.758999
70
192
0
VERTEX
8
OBJECT__8
10
10.534000
20
0.000000
30
41.257999
70
192
0
VERTEX
8
OBJECT__8
10
10.535000
20
9.869000
30
40.015999
70
192
0
VERTEX
8
OBJECT__8
10
10.535000
20
6.741000
30
40.762001
70
192
0
VERTEX
8
OBJECT__8
10
9.950000
20
7.762000
30
39.018002
70
192
0
VERTEX
8
OBJECT__8
10
9.950000
20
9.550000
30
38.726002
70
192
0
VERTEX
8
OBJECT__8
10
9.950000
20
10.276000
30
38.539001
70
192
0
VERTEX
8
OBJECT__8
10
9.950000
20
15.213000
30
36.792000
70
192
0
VERTEX
8
OBJECT__8
10
10.535000
20
16.826000
30
37.671001
70
192
0
VERTEX
8
OBJECT__8
10
10.535000
20
12.383000
30
39.416000
70
192
0
VERTEX
8
OBJECT__8
10
10.535000
20
10.624000
30
39.835999
70
192
0
VERTEX
8
OBJECT__8
10
9.951000
20
21.811001
30
33.394001
70
192
0
VERTEX
8
OBJECT__8
10
10.536000
20
22.584999
30
34.577000
70
192
0
VERTEX
8
OBJECT__8
10
10.535000
20
17.759001
30
37.304001
70
192
0
VERTEX
8
OBJECT__8
10
9.950000
20
16.264000
30
36.419998
70
192
0
VERTEX
8
OBJECT__8
10
10.536000
20
23.243999
30
34.113998
70
192
0
VERTEX
8
OBJECT__8
10
10.536000
20
22.801001
30
34.455002
70
192
0
VERTEX
8
OBJECT__8
10
9.951000
20
22.149000
30
33.168999
70
192
0
VERTEX
8
OBJECT__8
10
9.951000
20
22.459999
30
32.960999
70
192
0
VERTEX
8
OBJECT__8
10
9.952000
20
27.410999
30
28.975000
70
192
0
VERTEX
8
OBJECT__8
10
10.536000
20
27.386999
30
30.934000
70
192
0
VERTEX
8
OBJECT__8
10
10.537000
20
28.341000
30
29.962000
70
192
0
VERTEX
8
OBJECT__8
10
9.952000
20
28.135000
30
28.171000
70
192
0
VERTEX
8
OBJECT__8
10
9.952000
20
31.646999
30
24.275999
70
192
0
VERTEX
8
OBJECT__8
10
10.537000
20
31.445999
30
26.798000
70
192
0
VERTEX
8
OBJECT__8
10
10.538000
20
32.706001
30
25.090000
70
192
0
VERTEX
8
OBJECT__8
10
10.538000
20
33.166000
30
24.466999
70
192
0
VERTEX
8
OBJECT__8
10
9.954000
20
35.450001
30
18.278999
70
192
0
VERTEX
8
OBJECT__8
10
10.539000
20
36.639000
30
18.891001
70
192
0
VERTEX
8
OBJECT__8
10
10.538000
20
34.882999
30
22.139000
70
192
0
VERTEX
8
OBJECT__8
10
9.953000
20
32.097000
30
23.679001
70
192
0
VERTEX
8
OBJECT__8
10
9.953000
20
33.061001
30
22.125000
70
192
0
VERTEX
8
OBJECT__8
10
10.540000
20
39.185001
30
12.867000
70
192
0
VERTEX
8
OBJECT__8
10
10.539000
20
37.626999
30
17.063999
70
192
0
VERTEX
8
OBJECT__8
10
9.954000
20
36.730000
30
15.226000
70
192
0
VERTEX
8
OBJECT__8
10
9.955000
20
38.127998
30
11.711000
70
192
0
VERTEX
8
OBJECT__8
10
10.540000
20
39.462002
30
12.119000
70
192
0
VERTEX
8
OBJECT__8
10
9.956000
20
39.501999
30
5.516000
70
192
0
VERTEX
8
OBJECT__8
10
10.541000
20
40.901001
30
5.712000
70
192
0
VERTEX
8
OBJECT__8
10
10.541000
20
40.881001
30
5.972000
70
192
0
VERTEX
8
OBJECT__8
10
10.540000
20
39.646000
30
11.624000
70
192
0
VERTEX
8
OBJECT__8
10
9.956000
20
38.997002
30
7.791000
70
192
0
VERTEX
8
OBJECT__8
10
10.542000
20
41.301998
30
0.003000
70
192
0
VERTEX
8
OBJECT__8
10
10.542000
20
41.314999
30
0.194000
70
192
0
VERTEX
8
OBJECT__8
10
9.957000
20
39.886002
30
0.001000
70
192
0
VERTEX
8
OBJECT__8
10
9.958000
20
39.382000
30
-6.317000
70
192
0
VERTEX
8
OBJECT__8
10
10.544000
20
40.932999
30
-5.601000
70
192
0
VERTEX
8
OBJECT__8
10
10.544000
20
40.738998
30
-6.532000
70
192
0
VERTEX
8
OBJECT__8
10
10.544000
20
39.970001
30
-10.212000
70
192
0
VERTEX
8
OBJECT__8
10
9.959000
20
39.073002
30
-7.806000
70
192
0
VERTEX
8
OBJECT__8
10
9.960000
20
36.800999
30
-15.256000
70
192
0
VERTEX
8
OBJECT__8
10
10.546000
20
37.882999
30
-16.444000
70
192
0
VERTEX
8
OBJECT__8
10
10.545000
20
39.752998
30
-11.251000
70
192
0
VERTEX
8
OBJECT__8
10
9.959000
20
38.644001
30
-9.871000
70
192
0
VERTEX
8
OBJECT__8
10
9.960000
20
36.588001
30
-15.880000
70
192
0
VERTEX
8
OBJECT__8
10
9.961000
20
33.620998
30
-21.459000
70
192
0
VERTEX
8
OBJECT__8
10
10.547000
20
35.098000
30
-21.795000
70
192
0
VERTEX
8
OBJECT__8
10
10.547000
20
34.799000
30
-22.209000
70
192
0
VERTEX
8
OBJECT__8
10
10.546000
20
37.797001
30
-16.681999
70
192
0
VERTEX
8
OBJECT__8
10
9.962000
20
33.200001
30
-22.104000
70
192
0
VERTEX
8
OBJECT__8
10
10.547000
20
34.332001
30
-22.855000
70
192
0
VERTEX
8
OBJECT__8
10
9.962000
20
33.145000
30
-22.174000
70
192
0
VERTEX
8
OBJECT__8
10
9.963000
20
29.268999
30
-27.094999
70
192
0
VERTEX
8
OBJECT__8
10
10.548000
20
31.708000
30
-26.486000
70
192
0
VERTEX
8
OBJECT__8
10
10.548000
20
30.250999
30
-28.000999
70
192
0
VERTEX
8
OBJECT__8
10
9.963000
20
24.618000
30
-31.381001
70
192
0
VERTEX
8
OBJECT__8
10
10.549000
20
25.459000
30
-32.452999
70
192
0
VERTEX
8
OBJECT__8
10
10.548000
20
27.697001
30
-30.656000
70
192
0
VERTEX
8
OBJECT__8
10
9.963000
20
28.125999
30
-28.148001
70
192
0
VERTEX
8
OBJECT__8
10
9.963000
20
24.023001
30
-31.839001
70
192
0
VERTEX
8
OBJECT__8
10
10.549000
20
24.851999
30
-32.939999
70
192
0
VERTEX
8
OBJECT__8
10
10.550000
20
19.316999
30
-36.494999
70
192
0
VERTEX
8
OBJECT__8
10
10.549000
20
23.959000
30
-33.657001
70
192
0
VERTEX
8
OBJECT__8
10
9.964000
20
22.087999
30
-33.070000
70
192
0
VERTEX
8
OBJECT__8
10
9.965000
20
12.851000
30
-37.757999
70
192
0
VERTEX
8
OBJECT__8
10
10.550000
20
13.305000
30
-39.084000
70
192
0
VERTEX
8
OBJECT__8
10
10.550000
20
13.722000
30
-38.969002
70
192
0
VERTEX
8
OBJECT__8
10
10.550000
20
19.028999
30
-36.671001
70
192
0
VERTEX
8
OBJECT__8
10
9.964000
20
18.659000
30
-35.250999
70
192
0
VERTEX
8
OBJECT__8
10
9.964000
20
15.191000
30
-36.748001
70
192
0
VERTEX
8
OBJECT__8
10
9.965000
20
12.124000
30
-37.998001
70
192
0
VERTEX
8
OBJECT__8
10
10.550000
20
12.541000
30
-39.293999
70
192
0
VERTEX
8
OBJECT__8
10
10.550000
20
8.122000
30
-40.507999
70
192
0
VERTEX
8
OBJECT__8
10
9.965000
20
7.756000
30
-39.015999
70
192
0
VERTEX
8
OBJECT__8
10
9.965000
20
5.935000
30
-39.441002
70
192
0
VERTEX
8
OBJECT__8
10
9.965000
20
-0.022000
30
-39.858002
70
192
0
VERTEX
8
OBJECT__8
10
10.550000
20
2.402000
30
-41.243999
70
192
0
VERTEX
8
OBJECT__8
10
10.550000
20
0.000000
30
-41.215000
70
192
0
VERTEX
8
OBJECT__8
10
9.965000
20
-0.375000
30
-39.882999
70
192
0
VERTEX
8
OBJECT__8
10
10.550000
20
-0.388000
30
-41.210999
70
192
0
VERTEX
8
OBJECT__8
10
9.965000
20
-1.142000
30
-39.868000
70
192
0
VERTEX
8
OBJECT__8
10
9.965000
20
-7.463000
30
-39.180000
70
192
0
VERTEX
8
OBJECT__8
10
10.550000
20
-7.719000
30
-40.511002
70
192
0
VERTEX
8
OBJECT__8
10
10.550000
20
-3.396000
30
-41.174000
70
192
0
VERTEX
8
OBJECT__8
10
9.965000
20
-13.565000
30
-37.507000
70
192
0
VERTEX
8
OBJECT__8
10
10.550000
20
-14.039000
30
-38.813000
70
192
0
VERTEX
8
OBJECT__8
10
10.550000
20
-9.107000
30
-40.298000
70
192
0
VERTEX
8
OBJECT__8
10
9.965000
20
-7.777000
30
-39.094002
70
192
0
VERTEX
8
OBJECT__8
10
9.965000
20
-14.272000
30
-37.243999
70
192
0
VERTEX
8
OBJECT__8
10
10.550000
20
-14.654000
30
-38.627998
70
192
0
VERTEX
8
OBJECT__8
10
10.550000
20
-14.780000
30
-38.570000
70
192
0
VERTEX
8
OBJECT__8
10
10.549000
20
-19.907000
30
-36.202000
70
192
0
VERTEX
8
OBJECT__8
10
9.964000
20
-15.240000
30
-36.782001
70
192
0
VERTEX
8
OBJECT__8
10
9.964000
20
-20.006001
30
-34.505001
70
192
0
VERTEX
8
OBJECT__8
10
10.549000
20
-20.693001
30
-35.695000
70
192
0
VERTEX
8
OBJECT__8
10
9.963000
20
-25.205999
30
-30.910999
70
192
0
VERTEX
8
OBJECT__8
10
10.549000
20
-26.054001
30
-31.954000
70
192
0
VERTEX
8
OBJECT__8
10
10.549000
20
-24.757999
30
-33.075001
70
192
0
VERTEX
8
OBJECT__8
10
9.964000
20
-22.104000
30
-33.055000
70
192
0
VERTEX
8
OBJECT__8
10
10.549000
20
-26.658001
30
-31.431999
70
192
0
VERTEX
8
OBJECT__8
10
10.548000
20
-29.155001
30
-29.273001
70
192
0
VERTEX
8
OBJECT__8
10
9.963000
20
-28.111000
30
-28.115999
70
192
0
VERTEX
8
OBJECT__8
10
9.962000
20
-30.304001
30
-25.931999
70
192
0
VERTEX
8
OBJECT__8
10
9.963000
20
-25.799000
30
-30.417999
70
192
0
VERTEX
8
OBJECT__8
10
9.962000
20
-33.096001
30
-22.090000
70
192
0
VERTEX
8
OBJECT__8
10
10.547000
20
-32.945999
30
-24.927999
70
192
0
VERTEX
8
OBJECT__8
10
10.547000
20
-35.173000
30
-21.511000
70
192
0
VERTEX
8
OBJECT__8
10
10.548000
20
-31.316000
30
-26.796000
70
192
0
VERTEX
8
OBJECT__8
10
9.961000
20
-34.409000
30
-20.170000
70
192
0
VERTEX
8
OBJECT__8
10
10.546000
20
-35.596001
30
-20.863001
70
192
0
VERTEX
8
OBJECT__8
10
10.546000
20
-36.110001
30
-20.073999
70
192
0
VERTEX
8
OBJECT__8
10
9.960000
20
-36.791000
30
-15.245000
70
192
0
VERTEX
8
OBJECT__8
10
10.545000
20
-38.498001
30
-14.966000
70
192
0
VERTEX
8
OBJECT__8
10
9.960000
20
-37.174999
30
-14.452000
70
192
0
VERTEX
8
OBJECT__8
10
9.959000
20
-38.991001
30
-8.402000
70
192
0
VERTEX
8
OBJECT__8
10
10.544000
20
-40.254002
30
-9.304000
70
192
0
VERTEX
8
OBJECT__8
10
10.544000
20
-40.349998
30
-8.696000
70
192
0
VERTEX
8
OBJECT__8
10
10.545000
20
-38.560001
30
-14.834000
70
192
0
VERTEX
8
OBJECT__8
10
9.959000
20
-39.118999
30
-7.775000
70
192
0
VERTEX
8
OBJECT__8
10
10.544000
20
-40.476002
30
-7.896000
70
192
0
VERTEX
8
OBJECT__8
10
9.961000
20
-34.025002
30
-20.812000
70
192
0
VERTEX
8
OBJECT__8
10
10.550000
20
-1.181000
30
-41.201000
70
192
0
VERTEX
8
OBJECT__8
10
10.550000
20
6.136000
30
-40.764000
70
192
0
VERTEX
8
OBJECT__8
10
9.955000
20
37.894001
30
12.446000
70
192
0
VERTEX
8
OBJECT__8
10
0
20
0
30
0
70
128
71
1
72
2
73
3
0
VERTEX
8
OBJECT__8
10
0
20
0
30
0
70
128
71
2
72
4
73
3
0
VERTEX
8
OBJECT__8
10
0
20
0
30
0
70
128
71
5
72
6
73
7
0
VERTEX
8
OBJECT__8
10
0
20
0
30
0
70
128
71
7
72
8
73
5
0
VERTEX
8
OBJECT__8
10
0
20
0
30
0
70
128
71
4
72
2
73
8
0
VERTEX
8
OBJECT__8
10
0
20
0
30
0
70
128
71
8
72
9
73
4
0
VERTEX
8
OBJECT__8
10
0
20
0
30
0
70
128
71
6
72
5
73
10
0
VERTEX
8
OBJECT__8
10
0
20
0
30
0
70
128
71
11
72
12
73
13
0
VERTEX
8
OBJECT__8
10
0
20
0
30
0
70
128
71
12
72
14
73
10
0
VERTEX
8
OBJECT__8
10
0
20
0
30
0
70
128
71
10
72
13
73
12
0
VERTEX
8
OBJECT__8
10
0
20
0
30
0
70
128
71
15
72
16
73
17
0
VERTEX
8
OBJECT__8
10
0
20
0
30
0
70
128
71
18
72
17
73
16
0
VERTEX
8
OBJECT__8
10
0
20
0
30
0
70
128
71
16
72
11
73
18
0
VERTEX
8
OBJECT__8
10
0
20
0
30
0
70
128
71
19
72
20
73
21
0
VERTEX
8
OBJECT__8
10
0
20
0
30
0
70
128
71
20
72
22
73
21
0
VERTEX
8
OBJECT__8
10
0
20
0
30
0
70
128
71
23
72
24
73
25
0
VERTEX
8
OBJECT__8
10
0
20
0
30
0
70
128
71
22
72
20
73
26
0
VERTEX
8
OBJECT__8
10
0
20
0
30
0
70
128
71
26
72
25
73
22
0
VERTEX
8
OBJECT__8
10
0
20
0
30
0
70
128
71
23
72
27
73
28
0
VERTEX
8
OBJECT__8
10
0
20
0
30
0
70
128
71
27
72
29
73
28
0
VERTEX
8
OBJECT__8
10
0
20
0
30
0
70
128
71
28
72
24
73
23
0
VERTEX
8
OBJECT__8
10
0
20
0
30
0
70
128
71
30
72
29
73
31
0
VERTEX
8
OBJECT__8
10
0
20
0
30
0
70
128
71
32
72
33
73
34
0
VERTEX
8
OBJECT__8
10
0
20
0
30
0
70
128
71
34
72
35
73
32
0
VERTEX
8
OBJECT__8
10
0
20
0
30
0
70
128
71
36
72
37
73
38
0
VERTEX
8
OBJECT__8
10
0
20
0
30
0
70
128
71
38
72
39
73
36
0
VERTEX
8
OBJECT__8
10
0
20
0
30
0
70
128
71
33
72
32
73
39
0
VERTEX
8
OBJECT__8
10
0
20
0
30
0
70
128
71
40
72
41
73
37
0
VERTEX
8
OBJECT__8
10
0
20
0
30
0
70
128
71
42
72
43
73
44
0
VERTEX
8
OBJECT__8
10
0
20
0
30
0
70
128
71
45
72
46
73
42
0
VERTEX
8
OBJECT__8
10
0
20
0
30
0
70
128
71
43
72
41
73
40
0
VERTEX
8
OBJECT__8
10
0
20
0
30
0
70
128
71
40
72
44
73
43
0
VERTEX
8
OBJECT__8
10
0
20
0
30
0
70
128
71
47
72
46
73
48
0
VERTEX
8
OBJECT__8
10
0
20
0
30
0
70
128
71
49
72
50
73
47
0
VERTEX
8
OBJECT__8
10
0
20
0
30
0
70
128
71
46
72
45
73
48
0
VERTEX
8
OBJECT__8
10
0
20
0
30
0
70
128
71
49
72
51
73
52
0
VERTEX
8
OBJECT__8
10
0
20
0
30
0
70
128
71
53
72
54
73
55
0
VERTEX
8
OBJECT__8
10
0
20
0
30
0
70
128
71
55
72
56
73
53
0
VERTEX
8
OBJECT__8
10
0
20
0
30
0
70
128
71
57
72
52
73
51
0
VERTEX
8
OBJECT__8
10
0
20
0
30
0
70
128
71
51
72
56
73
57
0
VERTEX
8
OBJECT__8
10
0
20
0
30
0
70
128
71
58
72
59
73
60
0
VERTEX
8
OBJECT__8
10
0
20
0
30
0
70
128
71
53
72
60
73
59
0
VERTEX
8
OBJECT__8
10
0
20
0
30
0
70
128
71
59
72
54
73
53
0
VERTEX
8
OBJECT__8
10
0
20
0
30
0
70
128
71
58
72
61
73
62
0
VERTEX
8
OBJECT__8
10
0
20
0
30
0
70
128
71
63
72
64
73
65
0
VERTEX
8
OBJECT__8
10
0
20
0
30
0
70
128
71
65
72
62
73
63
0
VERTEX
8
OBJECT__8
10
0
20
0
30
0
70
128
71
65
72
66
73
62
0
VERTEX
8
OBJECT__8
10
0
20
0
30
0
70
128
71
67
72
68
73
69
0
VERTEX
8
OBJECT__8
10
0
20
0
30
0
70
128
71
69
72
70
73
67
0
VERTEX
8
OBJECT__8
10
0
20
0
30
0
70
128
71
71
72
72
73
73
0
VERTEX
8
OBJECT__8
10
0
20
0
30
0
70
128
71
73
72
72
73
68
0
VERTEX
8
OBJECT__8
10
0
20
0
30
0
70
128
71
68
72
67
73
73
0
VERTEX
8
OBJECT__8
10
0
20
0
30
0
70
128
71
74
72
75
73
76
0
VERTEX
8
OBJECT__8
10
0
20
0
30
0
70
128
71
75
72
77
73
76
0
VERTEX
8
OBJECT__8
10
0
20
0
30
0
70
128
71
78
72
79
73
80
0
VERTEX
8
OBJECT__8
10
0
20
0
30
0
70
128
71
79
72
81
73
80
0
VERTEX
8
OBJECT__8
10
0
20
0
30
0
70
128
71
77
72
75
73
78
0
VERTEX
8
OBJECT__8
10
0
20
0
30
0
70
128
71
82
72
81
73
79
0
VERTEX
8
OBJECT__8
10
0
20
0
30
0
70
128
71
83
72
84
73
85
0
VERTEX
8
OBJECT__8
10
0
20
0
30
0
70
128
71
82
72
86
73
87
0
VERTEX
8
OBJECT__8
10
0
20
0
30
0
70
128
71
87
72
85
73
82
0
VERTEX
8
OBJECT__8
10
0
20
0
30
0
70
128
71
88
72
89
73
90
0
VERTEX
8
OBJECT__8
10
0
20
0
30
0
70
128
71
83
72
90
73
89
0
VERTEX
8
OBJECT__8
10
0
20
0
30
0
70
128
71
89
72
84
73
83
0
VERTEX
8
OBJECT__8
10
0
20
0
30
0
70
128
71
91
72
92
73
88
0
VERTEX
8
OBJECT__8
10
0
20
0
30
0
70
128
71
93
72
94
73
95
0
VERTEX
8
OBJECT__8
10
0
20
0
30
0
70
128
71
96
72
91
73
97
0
VERTEX
8
OBJECT__8
10
0
20
0
30
0
70
128
71
97
72
95
73
96
0
VERTEX
8
OBJECT__8
10
0
20
0
30
0
70
128
71
96
72
92
73
91
0
VERTEX
8
OBJECT__8
10
0
20
0
30
0
70
128
71
93
72
98
73
99
0
VERTEX
8
OBJECT__8
10
0
20
0
30
0
70
128
71
98
72
93
73
100
0
VERTEX
8
OBJECT__8
10
0
20
0
30
0
70
128
71
99
72
94
73
93
0
VERTEX
8
OBJECT__8
10
0
20
0
30
0
70
128
71
100
72
101
73
102
0
VERTEX
8
OBJECT__8
10
0
20
0
30
0
70
128
71
101
72
103
73
102
0
VERTEX
8
OBJECT__8
10
0
20
0
30
0
70
128
71
104
72
103
73
105
0
VERTEX
8
OBJECT__8
10
0
20
0
30
0
70
128
71
103
72
101
73
105
0
VERTEX
8
OBJECT__8
10
0
20
0
30
0
70
128
71
106
72
107
73
108
0
VERTEX
8
OBJECT__8
10
0
20
0
30
0
70
128
71
108
72
109
73
106
0
VERTEX
8
OBJECT__8
10
0
20
0
30
0
70
128
71
108
72
104
73
109
0
VERTEX
8
OBJECT__8
10
0
20
0
30
0
70
128
71
110
72
111
73
112
0
VERTEX
8
OBJECT__8
10
0
20
0
30
0
70
128
71
111
72
113
73
112
0
VERTEX
8
OBJECT__8
10
0
20
0
30
0
70
128
71
112
72
114
73
110
0
VERTEX
8
OBJECT__8
10
0
20
0
30
0
70
128
71
111
72
115
73
116
0
VERTEX
8
OBJECT__8
10
0
20
0
30
0
70
128
71
117
72
118
73
119
0
VERTEX
8
OBJECT__8
10
0
20
0
30
0
70
128
71
118
72
120
73
119
0
VERTEX
8
OBJECT__8
10
0
20
0
30
0
70
128
71
116
72
115
73
117
0
VERTEX
8
OBJECT__8
10
0
20
0
30
0
70
128
71
121
72
122
73
123
0
VERTEX
8
OBJECT__8
10
0
20
0
30
0
70
128
71
123
72
124
73
121
0
VERTEX
8
OBJECT__8
10
0
20
0
30
0
70
128
71
120
72
118
73
124
0
VERTEX
8
OBJECT__8
10
0
20
0
30
0
70
128
71
125
72
126
73
122
0
VERTEX
8
OBJECT__8
10
0
20
0
30
0
70
128
71
127
72
128
73
129
0
VERTEX
8
OBJECT__8
10
0
20
0
30
0
70
128
71
125
72
129
73
128
0
VERTEX
8
OBJECT__8
10
0
20
0
30
0
70
128
71
128
72
126
73
125
0
VERTEX
8
OBJECT__8
10
0
20
0
30
0
70
128
71
130
72
131
73
132
0
VERTEX
8
OBJECT__8
10
0
20
0
30
0
70
128
71
133
72
134
73
135
0
VERTEX
8
OBJECT__8
10
0
20
0
30
0
70
128
71
135
72
132
73
133
0
VERTEX
8
OBJECT__8
10
0
20
0
30
0
70
128
71
133
72
127
73
134
0
VERTEX
8
OBJECT__8
10
0
20
0
30
0
70
128
71
130
72
136
73
137
0
VERTEX
8
OBJECT__8
10
0
20
0
30
0
70
128
71
138
72
139
73
140
0
VERTEX
8
OBJECT__8
10
0
20
0
30
0
70
128
71
138
72
137
73
136
0
VERTEX
8
OBJECT__8
10
0
20
0
30
0
70
128
71
136
72
139
73
138
0
VERTEX
8
OBJECT__8
10
0
20
0
30
0
70
128
71
140
72
141
73
142
0
VERTEX
8
OBJECT__8
10
0
20
0
30
0
70
128
71
141
72
143
73
142
0
VERTEX
8
OBJECT__8
10
0
20
0
30
0
70
128
71
143
72
141
73
144
0
VERTEX
8
OBJECT__8
10
0
20
0
30
0
70
128
71
144
72
145
73
143
0
VERTEX
8
OBJECT__8
10
0
20
0
30
0
70
128
71
145
72
144
73
146
0
VERTEX
8
OBJECT__8
10
0
20
0
30
0
70
128
71
147
72
148
73
149
0
VERTEX
8
OBJECT__8
10
0
20
0
30
0
70
128
71
149
72
146
73
147
0
VERTEX
8
OBJECT__8
10
0
20
0
30
0
70
128
71
150
72
151
73
152
0
VERTEX
8
OBJECT__8
10
0
20
0
30
0
70
128
71
152
72
153
73
150
0
VERTEX
8
OBJECT__8
10
0
20
0
30
0
70
128
71
148
72
147
73
153
0
VERTEX
8
OBJECT__8
10
0
20
0
30
0
70
128
71
154
72
155
73
151
0
VERTEX
8
OBJECT__8
10
0
20
0
30
0
70
128
71
154
72
156
73
155
0
VERTEX
8
OBJECT__8
10
0
20
0
30
0
70
128
71
157
72
156
73
158
0
VERTEX
8
OBJECT__8
10
0
20
0
30
0
70
128
71
159
72
160
73
157
0
VERTEX
8
OBJECT__8
10
0
20
0
30
0
70
128
71
156
72
154
73
158
0
VERTEX
8
OBJECT__8
10
0
20
0
30
0
70
128
71
161
72
162
73
163
0
VERTEX
8
OBJECT__8
10
0
20
0
30
0
70
128
71
160
72
159
73
164
0
VERTEX
8
OBJECT__8
10
0
20
0
30
0
70
128
71
164
72
163
73
160
0
VERTEX
8
OBJECT__8
10
0
20
0
30
0
70
128
71
165
72
162
73
161
0
VERTEX
8
OBJECT__8
10
0
20
0
30
0
70
128
71
166
72
167
73
168
0
VERTEX
8
OBJECT__8
10
0
20
0
30
0
70
128
71
166
72
165
73
169
0
VERTEX
8
OBJECT__8
10
0
20
0
30
0
70
128
71
169
72
167
73
166
0
VERTEX
8
OBJECT__8
10
0
20
0
30
0
70
128
71
168
72
170
73
171
0
VERTEX
8
OBJECT__8
10
0
20
0
30
0
70
128
71
170
72
172
73
171
0
VERTEX
8
OBJECT__8
10
0
20
0
30
0
70
128
71
171
72
173
73
168
0
VERTEX
8
OBJECT__8
10
0
20
0
30
0
70
128
71
174
72
175
73
172
0
VERTEX
8
OBJECT__8
10
0
20
0
30
0
70
128
71
176
72
174
73
177
0
VERTEX
8
OBJECT__8
10
0
20
0
30
0
70
128
71
177
72
178
73
176
0
VERTEX
8
OBJECT__8
10
0
20
0
30
0
70
128
71
176
72
175
73
174
0
VERTEX
8
OBJECT__8
10
0
20
0
30
0
70
128
71
179
72
180
73
181
0
VERTEX
8
OBJECT__8
10
0
20
0
30
0
70
128
71
180
72
182
73
181
0
VERTEX
8
OBJECT__8
10
0
20
0
30
0
70
128
71
181
72
183
73
179
0
VERTEX
8
OBJECT__8
10
0
20
0
30
0
70
128
71
182
72
180
73
184
0
VERTEX
8
OBJECT__8
10
0
20
0
30
0
70
128
71
184
72
185
73
182
0
VERTEX
8
OBJECT__8
10
0
20
0
30
0
70
128
71
184
72
1
73
185
0
VERTEX
8
OBJECT__8
10
0
20
0
30
0
70
128
71
183
72
178
73
179
0
VERTEX
8
OBJECT__8
10
0
20
0
30
0
70
128
71
177
72
179
73
178
0
VERTEX
8
OBJECT__8
10
0
20
0
30
0
70
128
71
172
72
186
73
174
0
VERTEX
8
OBJECT__8
10
0
20
0
30
0
70
128
71
170
72
186
73
172
0
VERTEX
8
OBJECT__8
10
0
20
0
30
0
70
128
71
168
72
173
73
166
0
VERTEX
8
OBJECT__8
10
0
20
0
30
0
70
128
71
161
72
169
73
165
0
VERTEX
8
OBJECT__8
10
0
20
0
30
0
70
128
71
163
72
164
73
161
0
VERTEX
8
OBJECT__8
10
0
20
0
30
0
70
128
71
158
72
159
73
157
0
VERTEX
8
OBJECT__8
10
0
20
0
30
0
70
128
71
151
72
150
73
154
0
VERTEX
8
OBJECT__8
10
0
20
0
30
0
70
128
71
152
72
148
73
153
0
VERTEX
8
OBJECT__8
10
0
20
0
30
0
70
128
71
149
72
187
73
146
0
VERTEX
8
OBJECT__8
10
0
20
0
30
0
70
128
71
146
72
187
73
145
0
VERTEX
8
OBJECT__8
10
0
20
0
30
0
70
128
71
142
72
188
73
140
0
VERTEX
8
OBJECT__8
10
0
20
0
30
0
70
128
71
140
72
188
73
138
0
VERTEX
8
OBJECT__8
10
0
20
0
30
0
70
128
71
137
72
131
73
130
0
VERTEX
8
OBJECT__8
10
0
20
0
30
0
70
128
71
132
72
135
73
130
0
VERTEX
8
OBJECT__8
10
0
20
0
30
0
70
128
71
129
72
134
73
127
0
VERTEX
8
OBJECT__8
10
0
20
0
30
0
70
128
71
122
72
121
73
125
0
VERTEX
8
OBJECT__8
10
0
20
0
30
0
70
128
71
123
72
120
73
124
0
VERTEX
8
OBJECT__8
10
0
20
0
30
0
70
128
71
119
72
116
73
117
0
VERTEX
8
OBJECT__8
10
0
20
0
30
0
70
128
71
116
72
113
73
111
0
VERTEX
8
OBJECT__8
10
0
20
0
30
0
70
128
71
114
72
107
73
110
0
VERTEX
8
OBJECT__8
10
0
20
0
30
0
70
128
71
106
72
110
73
107
0
VERTEX
8
OBJECT__8
10
0
20
0
30
0
70
128
71
105
72
109
73
104
0
VERTEX
8
OBJECT__8
10
0
20
0
30
0
70
128
71
102
72
98
73
100
0
VERTEX
8
OBJECT__8
10
0
20
0
30
0
70
128
71
95
72
97
73
93
0
VERTEX
8
OBJECT__8
10
0
20
0
30
0
70
128
71
88
72
189
73
91
0
VERTEX
8
OBJECT__8
10
0
20
0
30
0
70
128
71
90
72
189
73
88
0
VERTEX
8
OBJECT__8
10
0
20
0
30
0
70
128
71
85
72
87
73
83
0
VERTEX
8
OBJECT__8
10
0
20
0
30
0
70
128
71
79
72
86
73
82
0
VERTEX
8
OBJECT__8
10
0
20
0
30
0
70
128
71
80
72
77
73
78
0
VERTEX
8
OBJECT__8
10
0
20
0
30
0
70
128
71
76
72
71
73
74
0
VERTEX
8
OBJECT__8
10
0
20
0
30
0
70
128
71
73
72
74
73
71
0
VERTEX
8
OBJECT__8
10
0
20
0
30
0
70
128
71
69
72
64
73
70
0
VERTEX
8
OBJECT__8
10
0
20
0
30
0
70
128
71
63
72
70
73
64
0
VERTEX
8
OBJECT__8
10
0
20
0
30
0
70
128
71
62
72
66
73
58
0
VERTEX
8
OBJECT__8
10
0
20
0
30
0
70
128
71
60
72
61
73
58
0
VERTEX
8
OBJECT__8
10
0
20
0
30
0
70
128
71
55
72
57
73
56
0
VERTEX
8
OBJECT__8
10
0
20
0
30
0
70
128
71
52
72
50
73
49
0
VERTEX
8
OBJECT__8
10
0
20
0
30
0
70
128
71
48
72
49
73
47
0
VERTEX
8
OBJECT__8
10
0
20
0
30
0
70
128
71
44
72
45
73
42
0
VERTEX
8
OBJECT__8
10
0
20
0
30
0
70
128
71
37
72
36
73
40
0
VERTEX
8
OBJECT__8
10
0
20
0
30
0
70
128
71
38
72
33
73
39
0
VERTEX
8
OBJECT__8
10
0
20
0
30
0
70
128
71
34
72
30
73
35
0
VERTEX
8
OBJECT__8
10
0
20
0
30
0
70
128
71
31
72
35
73
30
0
VERTEX
8
OBJECT__8
10
0
20
0
30
0
70
128
71
27
72
31
73
29
0
VERTEX
8
OBJECT__8
10
0
20
0
30
0
70
128
71
25
72
26
73
23
0
VERTEX
8
OBJECT__8
10
0
20
0
30
0
70
128
71
21
72
15
73
19
0
VERTEX
8
OBJECT__8
10
0
20
0
30
0
70
128
71
17
72
19
73
15
0
VERTEX
8
OBJECT__8
10
0
20
0
30
0
70
128
71
13
72
18
73
11
0
VERTEX
8
OBJECT__8
10
0
20
0
30
0
70
128
71
10
72
14
73
6
0
VERTEX
8
OBJECT__8
10
0
20
0
30
0
70
128
71
7
72
9
73
8
0
VERTEX
8
OBJECT__8
10
0
20
0
30
0
70
128
71
3
72
185
73
1
0
SEQEND
8
OBJECT__8
0
POLYLINE
8
OBJECT__9
66
1
70
64
71
127
72
127
62
253
0
VERTEX
8
OBJECT__9
10
10.160000
20
0.000000
30
-71.822998
70
192
0
VERTEX
8
OBJECT__9
10
10.550000
20
8.122000
30
-40.507999
70
192
0
VERTEX
8
OBJECT__9
10
10.550000
20
6.136000
30
-40.764000
70
192
0
VERTEX
8
OBJECT__9
10
10.550000
20
2.402000
30
-41.243999
70
192
0
VERTEX
8
OBJECT__9
10
10.016000
20
46.820999
30
-71.824997
70
192
0
VERTEX
8
OBJECT__9
10
10.550000
20
12.541000
30
-39.293999
70
192
0
VERTEX
8
OBJECT__9
10
10.550000
20
13.722000
30
-38.969002
70
192
0
VERTEX
8
OBJECT__9
10
10.550000
20
13.305000
30
-39.084000
70
192
0
VERTEX
8
OBJECT__9
10
10.549000
20
23.959000
30
-33.657001
70
192
0
VERTEX
8
OBJECT__9
10
10.550000
20
19.316999
30
-36.494999
70
192
0
VERTEX
8
OBJECT__9
10
9.949000
20
53.827000
30
-71.825996
70
192
0
VERTEX
8
OBJECT__9
10
10.549000
20
24.851999
30
-32.939999
70
192
0
VERTEX
8
OBJECT__9
10
10.549000
20
25.459000
30
-32.452999
70
192
0
VERTEX
8
OBJECT__9
10
9.906000
20
57.827000
30
-71.827003
70
192
0
VERTEX
8
OBJECT__9
10
9.959000
20
57.826000
30
-67.827003
70
192
0
VERTEX
8
OBJECT__9
10
10.548000
20
27.697001
30
-30.656000
70
192
0
VERTEX
8
OBJECT__9
10
10.548000
20
31.708000
30
-26.486000
70
192
0
VERTEX
8
OBJECT__9
10
10.548000
20
30.250999
30
-28.000999
70
192
0
VERTEX
8
OBJECT__9
10
10.550000
20
19.028999
30
-36.671001
70
192
0
VERTEX
8
OBJECT__9
10
10.547000
20
35.098000
30
-21.795000
70
192
0
VERTEX
8
OBJECT__9
10
10.547000
20
34.799000
30
-22.209000
70
192
0
VERTEX
8
OBJECT__9
10
10.547000
20
34.332001
30
-22.855000
70
192
0
VERTEX
8
OBJECT__9
10
10.383000
20
57.819000
30
-6.180000
70
192
0
VERTEX
8
OBJECT__9
10
10.546000
20
37.882999
30
-16.444000
70
192
0
VERTEX
8
OBJECT__9
10
10.546000
20
37.797001
30
-16.681999
70
192
0
VERTEX
8
OBJECT__9
10
10.545000
20
39.752998
30
-11.251000
70
192
0
VERTEX
8
OBJECT__9
10
10.544000
20
40.932999
30
-5.601000
70
192
0
VERTEX
8
OBJECT__9
10
10.544000
20
40.738998
30
-6.532000
70
192
0
VERTEX
8
OBJECT__9
10
10.544000
20
39.970001
30
-10.212000
70
192
0
VERTEX
8
OBJECT__9
10
10.353000
20
57.819000
30
0.000000
70
192
0
VERTEX
8
OBJECT__9
10
10.542000
20
41.301998
30
0.003000
70
192
0
VERTEX
8
OBJECT__9
10
10.541000
20
40.881001
30
5.972000
70
192
0
VERTEX
8
OBJECT__9
10
10.541000
20
40.901001
30
5.712000
70
192
0
VERTEX
8
OBJECT__9
10
10.540000
20
39.646000
30
11.624000
70
192
0
VERTEX
8
OBJECT__9
10
10.081000
20
57.824001
30
55.466999
70
192
0
VERTEX
8
OBJECT__9
10
10.540000
20
39.462002
30
12.119000
70
192
0
VERTEX
8
OBJECT__9
10
10.539000
20
37.626999
30
17.063999
70
192
0
VERTEX
8
OBJECT__9
10
10.540000
20
39.185001
30
12.867000
70
192
0
VERTEX
8
OBJECT__9
10
10.538000
20
34.882999
30
22.139000
70
192
0
VERTEX
8
OBJECT__9
10
10.539000
20
36.639000
30
18.891001
70
192
0
VERTEX
8
OBJECT__9
10
10.538000
20
32.706001
30
25.090000
70
192
0
VERTEX
8
OBJECT__9
10
10.538000
20
33.166000
30
24.466999
70
192
0
VERTEX
8
OBJECT__9
10
10.537000
20
31.445999
30
26.798000
70
192
0
VERTEX
8
OBJECT__9
10
10.536000
20
27.386999
30
30.934000
70
192
0
VERTEX
8
OBJECT__9
10
10.537000
20
28.341000
30
29.962000
70
192
0
VERTEX
8
OBJECT__9
10
9.933000
20
57.827000
30
67.827003
70
192
0
VERTEX
8
OBJECT__9
10
10.536000
20
23.243999
30
34.113998
70
192
0
VERTEX
8
OBJECT__9
10
9.921000
20
53.827000
30
71.827003
70
192
0
VERTEX
8
OBJECT__9
10
9.989000
20
46.820000
30
71.825996
70
192
0
VERTEX
8
OBJECT__9
10
10.536000
20
22.801001
30
34.455002
70
192
0
VERTEX
8
OBJECT__9
10
9.878000
20
57.827999
30
71.828003
70
192
0
VERTEX
8
OBJECT__9
10
10.535000
20
17.759001
30
37.304001
70
192
0
VERTEX
8
OBJECT__9
10
10.536000
20
22.584999
30
34.577000
70
192
0
VERTEX
8
OBJECT__9
10
10.535000
20
12.383000
30
39.416000
70
192
0
VERTEX
8
OBJECT__9
10
10.535000
20
16.826000
30
37.671001
70
192
0
VERTEX
8
OBJECT__9
10
10.132000
20
0.000000
30
71.822998
70
192
0
VERTEX
8
OBJECT__9
10
10.535000
20
10.624000
30
39.835999
70
192
0
VERTEX
8
OBJECT__9
10
10.535000
20
6.741000
30
40.762001
70
192
0
VERTEX
8
OBJECT__9
10
10.535000
20
9.869000
30
40.015999
70
192
0
VERTEX
8
OBJECT__9
10
10.534000
20
0.995000
30
41.304001
70
192
0
VERTEX
8
OBJECT__9
10
10.535000
20
3.414000
30
41.076000
70
192
0
VERTEX
8
OBJECT__9
10
10.534000
20
0.000000
30
41.257999
70
192
0
VERTEX
8
OBJECT__9
10
10.542000
20
41.314999
30
0.194000
70
192
0
VERTEX
8
OBJECT__9
10
10.535000
20
-3.953000
30
41.076000
70
192
0
VERTEX
8
OBJECT__9
10
10.535000
20
-3.159000
30
41.112000
70
192
0
VERTEX
8
OBJECT__9
10
10.177000
20
-14.824000
30
71.821999
70
192
0
VERTEX
8
OBJECT__9
10
10.535000
20
-4.796000
30
41.036999
70
192
0
VERTEX
8
OBJECT__9
10
10.535000
20
-10.482000
30
39.964001
70
192
0
VERTEX
8
OBJECT__9
10
10.535000
20
-10.403000
30
39.979000
70
192
0
VERTEX
8
OBJECT__9
10
10.535000
20
-15.947000
30
38.113998
70
192
0
VERTEX
8
OBJECT__9
10
9.921000
20
-53.827000
30
71.827003
70
192
0
VERTEX
8
OBJECT__9
10
10.535000
20
-16.601000
30
37.785000
70
192
0
VERTEX
8
OBJECT__9
10
10.536000
20
-21.131001
30
35.502998
70
192
0
VERTEX
8
OBJECT__9
10
10.535000
20
-17.302999
30
37.431000
70
192
0
VERTEX
8
OBJECT__9
10
10.536000
20
-25.875999
30
32.209000
70
192
0
VERTEX
8
OBJECT__9
10
10.536000
20
-22.993999
30
34.209999
70
192
0
VERTEX
8
OBJECT__9
10
9.878000
20
-57.827999
30
71.828003
70
192
0
VERTEX
8
OBJECT__9
10
9.933000
20
-57.827000
30
67.827003
70
192
0
VERTEX
8
OBJECT__9
10
10.537000
20
-28.714001
30
29.580999
70
192
0
VERTEX
8
OBJECT__9
10
10.537000
20
-28.136000
30
30.115999
70
192
0
VERTEX
8
OBJECT__9
10
10.537000
20
-30.129000
30
28.271000
70
192
0
VERTEX
8
OBJECT__9
10
10.538000
20
-33.777000
30
23.792999
70
192
0
VERTEX
8
OBJECT__9
10
10.538000
20
-33.051998
30
24.683001
70
192
0
VERTEX
8
OBJECT__9
10
10.539000
20
-36.771999
30
18.834999
70
192
0
VERTEX
8
OBJECT__9
10
10.539000
20
-36.589001
30
19.139000
70
192
0
VERTEX
8
OBJECT__9
10
10.381000
20
-57.819000
30
6.180000
70
192
0
VERTEX
8
OBJECT__9
10
10.540000
20
-39.043999
30
13.509000
70
192
0
VERTEX
8
OBJECT__9
10
10.539000
20
-36.945000
30
18.429001
70
192
0
VERTEX
8
OBJECT__9
10
10.541000
20
-40.540001
30
7.966000
70
192
0
VERTEX
8
OBJECT__9
10
10.540000
20
-39.358002
30
12.347000
70
192
0
VERTEX
8
OBJECT__9
10
10.542000
20
-41.255001
30
2.224000
70
192
0
VERTEX
8
OBJECT__9
10
10.541000
20
-40.888000
30
5.168000
70
192
0
VERTEX
8
OBJECT__9
10
10.541000
20
-40.792999
30
5.933000
70
192
0
VERTEX
8
OBJECT__9
10
10.353000
20
-57.819000
30
0.000000
70
192
0
VERTEX
8
OBJECT__9
10
10.542000
20
-41.219002
30
0.003000
70
192
0
VERTEX
8
OBJECT__9
10
10.543000
20
-41.161999
30
-3.557000
70
192
0
VERTEX
8
OBJECT__9
10
10.543000
20
-41.196999
30
-1.363000
70
192
0
VERTEX
8
OBJECT__9
10
10.544000
20
-40.349998
30
-8.696000
70
192
0
VERTEX
8
OBJECT__9
10
10.544000
20
-40.476002
30
-7.896000
70
192
0
VERTEX
8
OBJECT__9
10
10.544000
20
-40.254002
30
-9.304000
70
192
0
VERTEX
8
OBJECT__9
10
10.102000
20
-57.824001
30
-55.466000
70
192
0
VERTEX
8
OBJECT__9
10
10.545000
20
-38.560001
30
-14.834000
70
192
0
VERTEX
8
OBJECT__9
10
10.546000
20
-36.110001
30
-20.073999
70
192
0
VERTEX
8
OBJECT__9
10
10.545000
20
-38.498001
30
-14.966000
70
192
0
VERTEX
8
OBJECT__9
10
10.547000
20
-32.945999
30
-24.927999
70
192
0
VERTEX
8
OBJECT__9
10
10.547000
20
-35.173000
30
-21.511000
70
192
0
VERTEX
8
OBJECT__9
10
10.546000
20
-35.596001
30
-20.863001
70
192
0
VERTEX
8
OBJECT__9
10
10.548000
20
-29.155001
30
-29.273001
70
192
0
VERTEX
8
OBJECT__9
10
10.548000
20
-31.316000
30
-26.796000
70
192
0
VERTEX
8
OBJECT__9
10
10.549000
20
-26.658001
30
-31.431999
70
192
0
VERTEX
8
OBJECT__9
10
9.959000
20
-57.826000
30
-67.827003
70
192
0
VERTEX
8
OBJECT__9
10
9.949000
20
-53.827000
30
-71.825996
70
192
0
VERTEX
8
OBJECT__9
10
10.549000
20
-24.757999
30
-33.075001
70
192
0
VERTEX
8
OBJECT__9
10
10.549000
20
-26.054001
30
-31.954000
70
192
0
VERTEX
8
OBJECT__9
10
9.906000
20
-57.827000
30
-71.827003
70
192
0
VERTEX
8
OBJECT__9
10
10.549000
20
-19.907000
30
-36.202000
70
192
0
VERTEX
8
OBJECT__9
10
10.549000
20
-20.693001
30
-35.695000
70
192
0
VERTEX
8
OBJECT__9
10
10.205000
20
-14.823000
30
-71.821999
70
192
0
VERTEX
8
OBJECT__9
10
10.550000
20
-14.654000
30
-38.627998
70
192
0
VERTEX
8
OBJECT__9
10
10.550000
20
-14.780000
30
-38.570000
70
192
0
VERTEX
8
OBJECT__9
10
10.550000
20
-9.107000
30
-40.298000
70
192
0
VERTEX
8
OBJECT__9
10
10.550000
20
-14.039000
30
-38.813000
70
192
0
VERTEX
8
OBJECT__9
10
10.550000
20
-3.396000
30
-41.174000
70
192
0
VERTEX
8
OBJECT__9
10
10.550000
20
-7.719000
30
-40.511002
70
192
0
VERTEX
8
OBJECT__9
10
10.550000
20
-0.388000
30
-41.210999
70
192
0
VERTEX
8
OBJECT__9
10
10.550000
20
-1.181000
30
-41.201000
70
192
0
VERTEX
8
OBJECT__9
10
10.550000
20
0.000000
30
-41.215000
70
192
0
VERTEX
8
OBJECT__9
10
0
20
0
30
0
70
128
71
1
72
2
73
3
0
VERTEX
8
OBJECT__9
10
0
20
0
30
0
70
128
71
3
72
4
73
1
0
VERTEX
8
OBJECT__9
10
0
20
0
30
0
70
128
71
1
72
5
73
6
0
VERTEX
8
OBJECT__9
10
0
20
0
30
0
70
128
71
5
72
7
73
8
0
VERTEX
8
OBJECT__9
10
0
20
0
30
0
70
128
71
8
72
6
73
5
0
VERTEX
8
OBJECT__9
10
0
20
0
30
0
70
128
71
6
72
2
73
1
0
VERTEX
8
OBJECT__9
10
0
20
0
30
0
70
128
71
9
72
10
73
5
0
VERTEX
8
OBJECT__9
10
0
20
0
30
0
70
128
71
5
72
11
73
9
0
VERTEX
8
OBJECT__9
10
0
20
0
30
0
70
128
71
12
72
9
73
11
0
VERTEX
8
OBJECT__9
10
0
20
0
30
0
70
128
71
13
72
14
73
15
0
VERTEX
8
OBJECT__9
10
0
20
0
30
0
70
128
71
15
72
16
73
13
0
VERTEX
8
OBJECT__9
10
0
20
0
30
0
70
128
71
13
72
12
73
14
0
VERTEX
8
OBJECT__9
10
0
20
0
30
0
70
128
71
11
72
14
73
12
0
VERTEX
8
OBJECT__9
10
0
20
0
30
0
70
128
71
15
72
17
73
18
0
VERTEX
8
OBJECT__9
10
0
20
0
30
0
70
128
71
18
72
16
73
15
0
VERTEX
8
OBJECT__9
10
0
20
0
30
0
70
128
71
10
72
19
73
5
0
VERTEX
8
OBJECT__9
10
0
20
0
30
0
70
128
71
15
72
20
73
21
0
VERTEX
8
OBJECT__9
10
0
20
0
30
0
70
128
71
21
72
22
73
15
0
VERTEX
8
OBJECT__9
10
0
20
0
30
0
70
128
71
23
72
24
73
25
0
VERTEX
8
OBJECT__9
10
0
20
0
30
0
70
128
71
23
72
26
73
24
0
VERTEX
8
OBJECT__9
10
0
20
0
30
0
70
128
71
23
72
27
73
28
0
VERTEX
8
OBJECT__9
10
0
20
0
30
0
70
128
71
28
72
29
73
23
0
VERTEX
8
OBJECT__9
10
0
20
0
30
0
70
128
71
29
72
26
73
23
0
VERTEX
8
OBJECT__9
10
0
20
0
30
0
70
128
71
25
72
15
73
23
0
VERTEX
8
OBJECT__9
10
0
20
0
30
0
70
128
71
25
72
20
73
15
0
VERTEX
8
OBJECT__9
10
0
20
0
30
0
70
128
71
31
72
23
73
30
0
VERTEX
8
OBJECT__9
10
0
20
0
30
0
70
128
71
31
72
27
73
23
0
VERTEX
8
OBJECT__9
10
0
20
0
30
0
70
128
71
22
72
17
73
15
0
VERTEX
8
OBJECT__9
10
0
20
0
30
0
70
128
71
19
72
7
73
5
0
VERTEX
8
OBJECT__9
10
0
20
0
30
0
70
128
71
30
72
32
73
33
0
VERTEX
8
OBJECT__9
10
0
20
0
30
0
70
128
71
30
72
34
73
32
0
VERTEX
8
OBJECT__9
10
0
20
0
30
0
70
128
71
35
72
36
73
34
0
VERTEX
8
OBJECT__9
10
0
20
0
30
0
70
128
71
35
72
37
73
38
0
VERTEX
8
OBJECT__9
10
0
20
0
30
0
70
128
71
38
72
36
73
35
0
VERTEX
8
OBJECT__9
10
0
20
0
30
0
70
128
71
35
72
39
73
40
0
VERTEX
8
OBJECT__9
10
0
20
0
30
0
70
128
71
35
72
41
73
42
0
VERTEX
8
OBJECT__9
10
0
20
0
30
0
70
128
71
35
72
43
73
41
0
VERTEX
8
OBJECT__9
10
0
20
0
30
0
70
128
71
42
72
39
73
35
0
VERTEX
8
OBJECT__9
10
0
20
0
30
0
70
128
71
40
72
37
73
35
0
VERTEX
8
OBJECT__9
10
0
20
0
30
0
70
128
71
44
72
45
73
35
0
VERTEX
8
OBJECT__9
10
0
20
0
30
0
70
128
71
35
72
46
73
44
0
VERTEX
8
OBJECT__9
10
0
20
0
30
0
70
128
71
47
72
48
73
49
0
VERTEX
8
OBJECT__9
10
0
20
0
30
0
70
128
71
49
72
50
73
47
0
VERTEX
8
OBJECT__9
10
0
20
0
30
0
70
128
71
48
72
44
73
46
0
VERTEX
8
OBJECT__9
10
0
20
0
30
0
70
128
71
46
72
51
73
48
0
VERTEX
8
OBJECT__9
10
0
20
0
30
0
70
128
71
49
72
52
73
53
0
VERTEX
8
OBJECT__9
10
0
20
0
30
0
70
128
71
49
72
54
73
55
0
VERTEX
8
OBJECT__9
10
0
20
0
30
0
70
128
71
55
72
52
73
49
0
VERTEX
8
OBJECT__9
10
0
20
0
30
0
70
128
71
56
72
57
73
54
0
VERTEX
8
OBJECT__9
10
0
20
0
30
0
70
128
71
56
72
58
73
59
0
VERTEX
8
OBJECT__9
10
0
20
0
30
0
70
128
71
59
72
57
73
56
0
VERTEX
8
OBJECT__9
10
0
20
0
30
0
70
128
71
54
72
49
73
56
0
VERTEX
8
OBJECT__9
10
0
20
0
30
0
70
128
71
53
72
50
73
49
0
VERTEX
8
OBJECT__9
10
0
20
0
30
0
70
128
71
56
72
60
73
61
0
VERTEX
8
OBJECT__9
10
0
20
0
30
0
70
128
71
56
72
62
73
60
0
VERTEX
8
OBJECT__9
10
0
20
0
30
0
70
128
71
61
72
58
73
56
0
VERTEX
8
OBJECT__9
10
0
20
0
30
0
70
128
71
47
72
44
73
48
0
VERTEX
8
OBJECT__9
10
0
20
0
30
0
70
128
71
45
72
43
73
35
0
VERTEX
8
OBJECT__9
10
0
20
0
30
0
70
128
71
34
72
30
73
35
0
VERTEX
8
OBJECT__9
10
0
20
0
30
0
70
128
71
33
72
63
73
30
0
VERTEX
8
OBJECT__9
10
0
20
0
30
0
70
128
71
56
72
64
73
65
0
VERTEX
8
OBJECT__9
10
0
20
0
30
0
70
128
71
56
72
66
73
67
0
VERTEX
8
OBJECT__9
10
0
20
0
30
0
70
128
71
67
72
64
73
56
0
VERTEX
8
OBJECT__9
10
0
20
0
30
0
70
128
71
66
72
68
73
69
0
VERTEX
8
OBJECT__9
10
0
20
0
30
0
70
128
71
66
72
70
73
68
0
VERTEX
8
OBJECT__9
10
0
20
0
30
0
70
128
71
71
72
72
73
70
0
VERTEX
8
OBJECT__9
10
0
20
0
30
0
70
128
71
71
72
73
73
74
0
VERTEX
8
OBJECT__9
10
0
20
0
30
0
70
128
71
74
72
72
73
71
0
VERTEX
8
OBJECT__9
10
0
20
0
30
0
70
128
71
70
72
66
73
71
0
VERTEX
8
OBJECT__9
10
0
20
0
30
0
70
128
71
75
72
76
73
71
0
VERTEX
8
OBJECT__9
10
0
20
0
30
0
70
128
71
71
72
77
73
75
0
VERTEX
8
OBJECT__9
10
0
20
0
30
0
70
128
71
75
72
77
73
78
0
VERTEX
8
OBJECT__9
10
0
20
0
30
0
70
128
71
78
72
79
73
80
0
VERTEX
8
OBJECT__9
10
0
20
0
30
0
70
128
71
78
72
81
73
79
0
VERTEX
8
OBJECT__9
10
0
20
0
30
0
70
128
71
78
72
80
73
75
0
VERTEX
8
OBJECT__9
10
0
20
0
30
0
70
128
71
78
72
82
73
83
0
VERTEX
8
OBJECT__9
10
0
20
0
30
0
70
128
71
78
72
84
73
85
0
VERTEX
8
OBJECT__9
10
0
20
0
30
0
70
128
71
85
72
82
73
78
0
VERTEX
8
OBJECT__9
10
0
20
0
30
0
70
128
71
83
72
81
73
78
0
VERTEX
8
OBJECT__9
10
0
20
0
30
0
70
128
71
78
72
86
73
87
0
VERTEX
8
OBJECT__9
10
0
20
0
30
0
70
128
71
87
72
88
73
78
0
VERTEX
8
OBJECT__9
10
0
20
0
30
0
70
128
71
86
72
89
73
90
0
VERTEX
8
OBJECT__9
10
0
20
0
30
0
70
128
71
86
72
91
73
92
0
VERTEX
8
OBJECT__9
10
0
20
0
30
0
70
128
71
92
72
93
73
86
0
VERTEX
8
OBJECT__9
10
0
20
0
30
0
70
128
71
93
72
89
73
86
0
VERTEX
8
OBJECT__9
10
0
20
0
30
0
70
128
71
90
72
87
73
86
0
VERTEX
8
OBJECT__9
10
0
20
0
30
0
70
128
71
94
72
95
73
91
0
VERTEX
8
OBJECT__9
10
0
20
0
30
0
70
128
71
91
72
86
73
94
0
VERTEX
8
OBJECT__9
10
0
20
0
30
0
70
128
71
88
72
84
73
78
0
VERTEX
8
OBJECT__9
10
0
20
0
30
0
70
128
71
76
72
73
73
71
0
VERTEX
8
OBJECT__9
10
0
20
0
30
0
70
128
71
69
72
67
73
66
0
VERTEX
8
OBJECT__9
10
0
20
0
30
0
70
128
71
94
72
96
73
97
0
VERTEX
8
OBJECT__9
10
0
20
0
30
0
70
128
71
94
72
98
73
99
0
VERTEX
8
OBJECT__9
10
0
20
0
30
0
70
128
71
94
72
100
73
98
0
VERTEX
8
OBJECT__9
10
0
20
0
30
0
70
128
71
99
72
96
73
94
0
VERTEX
8
OBJECT__9
10
0
20
0
30
0
70
128
71
94
72
101
73
102
0
VERTEX
8
OBJECT__9
10
0
20
0
30
0
70
128
71
101
72
103
73
104
0
VERTEX
8
OBJECT__9
10
0
20
0
30
0
70
128
71
104
72
102
73
101
0
VERTEX
8
OBJECT__9
10
0
20
0
30
0
70
128
71
101
72
105
73
106
0
VERTEX
8
OBJECT__9
10
0
20
0
30
0
70
128
71
106
72
107
73
101
0
VERTEX
8
OBJECT__9
10
0
20
0
30
0
70
128
71
101
72
108
73
109
0
VERTEX
8
OBJECT__9
10
0
20
0
30
0
70
128
71
109
72
105
73
101
0
VERTEX
8
OBJECT__9
10
0
20
0
30
0
70
128
71
107
72
103
73
101
0
VERTEX
8
OBJECT__9
10
0
20
0
30
0
70
128
71
110
72
108
73
101
0
VERTEX
8
OBJECT__9
10
0
20
0
30
0
70
128
71
111
72
112
73
113
0
VERTEX
8
OBJECT__9
10
0
20
0
30
0
70
128
71
113
72
114
73
111
0
VERTEX
8
OBJECT__9
10
0
20
0
30
0
70
128
71
114
72
110
73
111
0
VERTEX
8
OBJECT__9
10
0
20
0
30
0
70
128
71
101
72
111
73
110
0
VERTEX
8
OBJECT__9
10
0
20
0
30
0
70
128
71
111
72
115
73
112
0
VERTEX
8
OBJECT__9
10
0
20
0
30
0
70
128
71
112
72
116
73
117
0
VERTEX
8
OBJECT__9
10
0
20
0
30
0
70
128
71
118
72
119
73
120
0
VERTEX
8
OBJECT__9
10
0
20
0
30
0
70
128
71
120
72
112
73
118
0
VERTEX
8
OBJECT__9
10
0
20
0
30
0
70
128
71
120
72
116
73
112
0
VERTEX
8
OBJECT__9
10
0
20
0
30
0
70
128
71
118
72
121
73
122
0
VERTEX
8
OBJECT__9
10
0
20
0
30
0
70
128
71
118
72
1
73
123
0
VERTEX
8
OBJECT__9
10
0
20
0
30
0
70
128
71
123
72
124
73
118
0
VERTEX
8
OBJECT__9
10
0
20
0
30
0
70
128
71
124
72
121
73
118
0
VERTEX
8
OBJECT__9
10
0
20
0
30
0
70
128
71
1
72
125
73
126
0
VERTEX
8
OBJECT__9
10
0
20
0
30
0
70
128
71
1
72
127
73
125
0
VERTEX
8
OBJECT__9
10
0
20
0
30
0
70
128
71
126
72
123
73
1
0
VERTEX
8
OBJECT__9
10
0
20
0
30
0
70
128
71
122
72
119
73
118
0
VERTEX
8
OBJECT__9
10
0
20
0
30
0
70
128
71
117
72
113
73
112
0
VERTEX
8
OBJECT__9
10
0
20
0
30
0
70
128
71
102
72
100
73
94
0
VERTEX
8
OBJECT__9
10
0
20
0
30
0
70
128
71
97
72
95
73
94
0
VERTEX
8
OBJECT__9
10
0
20
0
30
0
70
128
71
65
72
62
73
56
0
VERTEX
8
OBJECT__9
10
0
20
0
30
0
70
128
71
63
72
31
73
30
0
VERTEX
8
OBJECT__9
10
0
20
0
30
0
70
128
71
4
72
127
73
1
0
SEQEND
8
OBJECT__9
0
POLYLINE
8
OBJECT__10
66
1
70
64
71
9
72
7
62
253
0
VERTEX
8
OBJECT__10
10
0.500000
20
57.995998
30
71.996002
70
192
0
VERTEX
8
OBJECT__10
10
10.081000
20
57.824001
30
55.466999
70
192
0
VERTEX
8
OBJECT__10
10
10.353000
20
57.819000
30
0.000000
70
192
0
VERTEX
8
OBJECT__10
10
0.500000
20
57.995998
30
-71.996002
70
192
0
VERTEX
8
OBJECT__10
10
10.383000
20
57.819000
30
-6.180000
70
192
0
VERTEX
8
OBJECT__10
10
9.933000
20
57.827000
30
67.827003
70
192
0
VERTEX
8
OBJECT__10
10
9.959000
20
57.826000
30
-67.827003
70
192
0
VERTEX
8
OBJECT__10
10
9.878000
20
57.827999
30
71.828003
70
192
0
VERTEX
8
OBJECT__10
10
9.906000
20
57.827000
30
-71.827003
70
192
0
VERTEX
8
OBJECT__10
10
0
20
0
30
0
70
128
71
1
72
2
73
3
0
VERTEX
8
OBJECT__10
10
0
20
0
30
0
70
128
71
4
72
3
73
5
0
VERTEX
8
OBJECT__10
10
0
20
0
30
0
70
128
71
1
72
6
73
2
0
VERTEX
8
OBJECT__10
10
0
20
0
30
0
70
128
71
5
72
7
73
4
0
VERTEX
8
OBJECT__10
10
0
20
0
30
0
70
128
71
1
72
8
73
6
0
VERTEX
8
OBJECT__10
10
0
20
0
30
0
70
128
71
3
72
4
73
1
0
VERTEX
8
OBJECT__10
10
0
20
0
30
0
70
128
71
7
72
9
73
4
0
SEQEND
8
OBJECT__10
0
POLYLINE
8
OBJECT__11
66
1
70
64
71
9
72
7
62
253
0
VERTEX
8
OBJECT__11
10
0.000000
20
-58.000000
30
-72.000000
70
192
0
VERTEX
8
OBJECT__11
10
10.102000
20
-57.824001
30
-55.466000
70
192
0
VERTEX
8
OBJECT__11
10
10.353000
20
-57.819000
30
0.000000
70
192
0
VERTEX
8
OBJECT__11
10
0.000000
20
-58.000000
30
72.000000
70
192
0
VERTEX
8
OBJECT__11
10
10.381000
20
-57.819000
30
6.180000
70
192
0
VERTEX
8
OBJECT__11
10
9.959000
20
-57.826000
30
-67.827003
70
192
0
VERTEX
8
OBJECT__11
10
9.933000
20
-57.827000
30
67.827003
70
192
0
VERTEX
8
OBJECT__11
10
9.906000
20
-57.827000
30
-71.827003
70
192
0
VERTEX
8
OBJECT__11
10
9.878000
20
-57.827999
30
71.828003
70
192
0
VERTEX
8
OBJECT__11
10
0
20
0
30
0
70
128
71
1
72
2
73
3
0
VERTEX
8
OBJECT__11
10
0
20
0
30
0
70
128
71
4
72
3
73
5
0
VERTEX
8
OBJECT__11
10
0
20
0
30
0
70
128
71
1
72
6
73
2
0
VERTEX
8
OBJECT__11
10
0
20
0
30
0
70
128
71
5
72
7
73
4
0
VERTEX
8
OBJECT__11
10
0
20
0
30
0
70
128
71
1
72
8
73
6
0
VERTEX
8
OBJECT__11
10
0
20
0
30
0
70
128
71
3
72
4
73
1
0
VERTEX
8
OBJECT__11
10
0
20
0
30
0
70
128
71
7
72
9
73
4
0
SEQEND
8
OBJECT__11
0
POLYLINE
8
OBJECT__12
66
1
70
64
71
11
72
9
62
253
0
VERTEX
8
OBJECT__12
10
0.500000
20
57.995998
30
71.996002
70
192
0
VERTEX
8
OBJECT__12
10
0.500000
20
-57.745998
30
71.996002
70
192
0
VERTEX
8
OBJECT__12
10
10.132000
20
0.000000
30
71.822998
70
192
0
VERTEX
8
OBJECT__12
10
9.989000
20
46.820000
30
71.825996
70
192
0
VERTEX
8
OBJECT__12
10
9.921000
20
-53.827000
30
71.827003
70
192
0
VERTEX
8
OBJECT__12
10
10.177000
20
-14.824000
30
71.821999
70
192
0
VERTEX
8
OBJECT__12
10
9.921000
20
53.827000
30
71.827003
70
192
0
VERTEX
8
OBJECT__12
10
9.878000
20
-57.827999
30
71.828003
70
192
0
VERTEX
8
OBJECT__12
10
0.000000
20
-58.000000
30
72.000000
70
192
0
VERTEX
8
OBJECT__12
10
9.878000
20
57.827999
30
71.828003
70
192
0
VERTEX
8
OBJECT__12
10
0.000000
20
-57.745998
30
72.000000
70
192
0
VERTEX
8
OBJECT__12
10
0
20
0
30
0
70
128
71
1
72
2
73
3
0
VERTEX
8
OBJECT__12
10
0
20
0
30
0
70
128
71
3
72
4
73
1
0
VERTEX
8
OBJECT__12
10
0
20
0
30
0
70
128
71
2
72
5
73
6
0
VERTEX
8
OBJECT__12
10
0
20
0
30
0
70
128
71
4
72
7
73
1
0
VERTEX
8
OBJECT__12
10
0
20
0
30
0
70
128
71
2
72
8
73
5
0
VERTEX
8
OBJECT__12
10
0
20
0
30
0
70
128
71
9
72
8
73
2
0
VERTEX
8
OBJECT__12
10
0
20
0
30
0
70
128
71
6
72
3
73
2
0
VERTEX
8
OBJECT__12
10
0
20
0
30
0
70
128
71
7
72
10
73
1
0
VERTEX
8
OBJECT__12
10
0
20
0
30
0
70
128
71
2
72
11
73
9
0
SEQEND
8
OBJECT__12
0
POLYLINE
8
OBJECT__13
66
1
70
64
71
4
72
2
62
253
0
VERTEX
8
OBJECT__13
10
0.000000
20
-57.745998
30
72.000000
70
192
0
VERTEX
8
OBJECT__13
10
0.500000
20
-57.745998
30
71.996002
70
192
0
VERTEX
8
OBJECT__13
10
0.500000
20
57.995998
30
71.996002
70
192
0
VERTEX
8
OBJECT__13
10
0.000000
20
58.000000
30
72.000000
70
192
0
VERTEX
8
OBJECT__13
10
0
20
0
30
0
70
128
71
1
72
2
73
3
0
VERTEX
8
OBJECT__13
10
0
20
0
30
0
70
128
71
3
72
4
73
1
0
SEQEND
8
OBJECT__13
0
POLYLINE
8
OBJECT__14
66
1
70
64
71
6
72
4
62
253
0
VERTEX
8
OBJECT__14
10
0.000000
20
58.000000
30
-72.000000
70
192
0
VERTEX
8
OBJECT__14
10
0.000000
20
-57.745998
30
-72.000000
70
192
0
VERTEX
8
OBJECT__14
10
0.000000
20
-57.745998
30
72.000000
70
192
0
VERTEX
8
OBJECT__14
10
0.000000
20
-58.000000
30
72.000000
70
192
0
VERTEX
8
OBJECT__14
10
0.000000
20
-58.000000
30
-72.000000
70
192
0
VERTEX
8
OBJECT__14
10
0.000000
20
58.000000
30
72.000000
70
192
0
VERTEX
8
OBJECT__14
10
0
20
0
30
0
70
128
71
1
72
2
73
3
0
VERTEX
8
OBJECT__14
10
0
20
0
30
0
70
128
71
4
72
3
73
2
0
VERTEX
8
OBJECT__14
10
0
20
0
30
0
70
128
71
2
72
5
73
4
0
VERTEX
8
OBJECT__14
10
0
20
0
30
0
70
128
71
3
72
6
73
1
0
SEQEND
8
OBJECT__14
0
POLYLINE
8
OBJECT__15
66
1
70
64
71
11
72
9
62
253
0
VERTEX
8
OBJECT__15
10
0.500000
20
57.995998
30
-71.996002
70
192
0
VERTEX
8
OBJECT__15
10
10.016000
20
46.820999
30
-71.824997
70
192
0
VERTEX
8
OBJECT__15
10
10.160000
20
0.000000
30
-71.822998
70
192
0
VERTEX
8
OBJECT__15
10
0.500000
20
-57.745998
30
-71.996002
70
192
0
VERTEX
8
OBJECT__15
10
10.205000
20
-14.823000
30
-71.821999
70
192
0
VERTEX
8
OBJECT__15
10
9.949000
20
53.827000
30
-71.825996
70
192
0
VERTEX
8
OBJECT__15
10
9.949000
20
-53.827000
30
-71.825996
70
192
0
VERTEX
8
OBJECT__15
10
9.906000
20
57.827000
30
-71.827003
70
192
0
VERTEX
8
OBJECT__15
10
0.000000
20
-58.000000
30
-72.000000
70
192
0
VERTEX
8
OBJECT__15
10
0.000000
20
-57.745998
30
-72.000000
70
192
0
VERTEX
8
OBJECT__15
10
9.906000
20
-57.827000
30
-71.827003
70
192
0
VERTEX
8
OBJECT__15
10
0
20
0
30
0
70
128
71
1
72
2
73
3
0
VERTEX
8
OBJECT__15
10
0
20
0
30
0
70
128
71
4
72
3
73
5
0
VERTEX
8
OBJECT__15
10
0
20
0
30
0
70
128
71
1
72
6
73
2
0
VERTEX
8
OBJECT__15
10
0
20
0
30
0
70
128
71
5
72
7
73
4
0
VERTEX
8
OBJECT__15
10
0
20
0
30
0
70
128
71
1
72
8
73
6
0
VERTEX
8
OBJECT__15
10
0
20
0
30
0
70
128
71
3
72
4
73
1
0
VERTEX
8
OBJECT__15
10
0
20
0
30
0
70
128
71
9
72
10
73
4
0
VERTEX
8
OBJECT__15
10
0
20
0
30
0
70
128
71
4
72
11
73
9
0
VERTEX
8
OBJECT__15
10
0
20
0
30
0
70
128
71
7
72
11
73
4
0
SEQEND
8
OBJECT__15
0
POLYLINE
8
OBJECT__16
66
1
70
64
71
4
72
2
62
253
0
VERTEX
8
OBJECT__16
10
0.000000
20
58.000000
30
-72.000000
70
192
0
VERTEX
8
OBJECT__16
10
0.000000
20
58.000000
30
72.000000
70
192
0
VERTEX
8
OBJECT__16
10
0.500000
20
57.995998
30
71.996002
70
192
0
VERTEX
8
OBJECT__16
10
0.500000
20
57.995998
30
-71.996002
70
192
0
VERTEX
8
OBJECT__16
10
0
20
0
30
0
70
128
71
1
72
2
73
3
0
VERTEX
8
OBJECT__16
10
0
20
0
30
0
70
128
71
3
72
4
73
1
0
SEQEND
8
OBJECT__16
0
POLYLINE
8
OBJECT__17
66
1
70
64
71
4
72
2
62
253
0
VERTEX
8
OBJECT__17
10
0.000000
20
-57.745998
30
-72.000000
70
192
0
VERTEX
8
OBJECT__17
10
0.000000
20
58.000000
30
-72.000000
70
192
0
VERTEX
8
OBJECT__17
10
0.500000
20
57.995998
30
-71.996002
70
192
0
VERTEX
8
OBJECT__17
10
0.500000
20
-57.745998
30
-71.996002
70
192
0
VERTEX
8
OBJECT__17
10
0
20
0
30
0
70
128
71
1
72
2
73
3
0
VERTEX
8
OBJECT__17
10
0
20
0
30
0
70
128
71
3
72
4
73
1
0
SEQEND
8
OBJECT__17
0
ENDSEC
0
EOF
