999
Converted by 3D Exploration 
999
XDimension Software, LLC
999
http://www.xdsoft.com/explorer/
0
SECTION
2
HEADER
9
$ACADVER
1
AC1008
9
$UCSORG
10
0.0
20
0.0
30
0.0
9
$UCSXDIR
10
1.0
20
0.0
30
0.0
9
$TILEMODE
70
1
9
$UCSYDIR
10
0.0
20
1.0
30
0.0
9
$EXTMIN
10
-20.000000
20
-35.000000
30
-35.000000
9
$EXTMAX
10
84.138000
20
35.000000
30
60.000000
0
ENDSEC
0
SECTION
2
TABLES
0
TABLE
2
LTYPE
70
1
0
LTYPE
2
CONTINUOUS
70
64
3
Solid line
72
65
73
0
40
0.0
0
ENDTAB
0
TABLE
2
LAYER
70
105
0
LAYER
2
OBJECT__0
70
0
62
253
6
CONTINUOUS
0
LAYER
2
OBJECT__1
70
0
62
253
6
CONTINUOUS
0
LAYER
2
OBJECT__3
70
0
62
253
6
CONTINUOUS
0
LAYER
2
OBJECT__4
70
0
62
253
6
CONTINUOUS
0
LAYER
2
OBJECT__5
70
0
62
253
6
CONTINUOUS
0
LAYER
2
OBJECT__7
70
0
62
253
6
CONTINUOUS
0
LAYER
2
OBJECT__8
70
0
62
253
6
CONTINUOUS
0
LAYER
2
OBJECT__9
70
0
62
253
6
CONTINUOUS
0
LAYER
2
OBJECT__11
70
0
62
253
6
CONTINUOUS
0
LAYER
2
OBJECT__12
70
0
62
253
6
CONTINUOUS
0
LAYER
2
OBJECT__14
70
0
62
253
6
CONTINUOUS
0
LAYER
2
OBJECT__16
70
0
62
253
6
CONTINUOUS
0
LAYER
2
OBJECT__17
70
0
62
253
6
CONTINUOUS
0
LAYER
2
OBJECT__19
70
0
62
253
6
CONTINUOUS
0
LAYER
2
OBJECT__20
70
0
62
253
6
CONTINUOUS
0
LAYER
2
OBJECT__21
70
0
62
253
6
CONTINUOUS
0
LAYER
2
OBJECT__23
70
0
62
253
6
CONTINUOUS
0
LAYER
2
OBJECT__24
70
0
62
253
6
CONTINUOUS
0
LAYER
2
OBJECT__25
70
0
62
253
6
CONTINUOUS
0
LAYER
2
OBJECT__27
70
0
62
253
6
CONTINUOUS
0
LAYER
2
OBJECT__28
70
0
62
253
6
CONTINUOUS
0
LAYER
2
OBJECT__29
70
0
62
253
6
CONTINUOUS
0
LAYER
2
OBJECT__31
70
0
62
253
6
CONTINUOUS
0
LAYER
2
OBJECT__32
70
0
62
253
6
CONTINUOUS
0
LAYER
2
OBJECT__34
70
0
62
253
6
CONTINUOUS
0
LAYER
2
OBJECT__35
70
0
62
253
6
CONTINUOUS
0
LAYER
2
OBJECT__36
70
0
62
253
6
CONTINUOUS
0
LAYER
2
OBJECT__38
70
0
62
253
6
CONTINUOUS
0
LAYER
2
OBJECT__39
70
0
62
253
6
CONTINUOUS
0
LAYER
2
OBJECT__40
70
0
62
253
6
CONTINUOUS
0
LAYER
2
OBJECT__42
70
0
62
253
6
CONTINUOUS
0
LAYER
2
OBJECT__43
70
0
62
253
6
CONTINUOUS
0
LAYER
2
OBJECT__45
70
0
62
253
6
CONTINUOUS
0
LAYER
2
OBJECT__46
70
0
62
253
6
CONTINUOUS
0
LAYER
2
OBJECT__48
70
0
62
253
6
CONTINUOUS
0
LAYER
2
OBJECT__49
70
0
62
253
6
CONTINUOUS
0
LAYER
2
OBJECT__50
70
0
62
253
6
CONTINUOUS
0
LAYER
2
OBJECT__52
70
0
62
253
6
CONTINUOUS
0
LAYER
2
OBJECT__53
70
0
62
253
6
CONTINUOUS
0
LAYER
2
OBJECT__54
70
0
62
253
6
CONTINUOUS
0
LAYER
2
OBJECT__56
70
0
62
253
6
CONTINUOUS
0
LAYER
2
OBJECT__57
70
0
62
253
6
CONTINUOUS
0
LAYER
2
OBJECT__58
70
0
62
253
6
CONTINUOUS
0
LAYER
2
OBJECT__60
70
0
62
253
6
CONTINUOUS
0
LAYER
2
OBJECT__61
70
0
62
253
6
CONTINUOUS
0
LAYER
2
OBJECT__62
70
0
62
253
6
CONTINUOUS
0
LAYER
2
OBJECT__64
70
0
62
253
6
CONTINUOUS
0
LAYER
2
OBJECT__65
70
0
62
253
6
CONTINUOUS
0
LAYER
2
OBJECT__67
70
0
62
253
6
CONTINUOUS
0
LAYER
2
OBJECT__68
70
0
62
253
6
CONTINUOUS
0
LAYER
2
OBJECT__69
70
0
62
253
6
CONTINUOUS
0
LAYER
2
OBJECT__71
70
0
62
253
6
CONTINUOUS
0
LAYER
2
OBJECT__72
70
0
62
253
6
CONTINUOUS
0
LAYER
2
OBJECT__73
70
0
62
253
6
CONTINUOUS
0
LAYER
2
OBJECT__75
70
0
62
253
6
CONTINUOUS
0
LAYER
2
OBJECT__76
70
0
62
253
6
CONTINUOUS
0
LAYER
2
OBJECT__78
70
0
62
253
6
CONTINUOUS
0
LAYER
2
OBJECT__79
70
0
62
253
6
CONTINUOUS
0
LAYER
2
OBJECT__80
70
0
62
253
6
CONTINUOUS
0
LAYER
2
OBJECT__82
70
0
62
253
6
CONTINUOUS
0
LAYER
2
OBJECT__83
70
0
62
253
6
CONTINUOUS
0
LAYER
2
OBJECT__84
70
0
62
253
6
CONTINUOUS
0
LAYER
2
OBJECT__85
70
0
62
253
6
CONTINUOUS
0
LAYER
2
OBJECT__86
70
0
62
253
6
CONTINUOUS
0
LAYER
2
OBJECT__87
70
0
62
253
6
CONTINUOUS
0
LAYER
2
OBJECT__89
70
0
62
253
6
CONTINUOUS
0
LAYER
2
OBJECT__90
70
0
62
253
6
CONTINUOUS
0
LAYER
2
OBJECT__91
70
0
62
253
6
CONTINUOUS
0
LAYER
2
OBJECT__93
70
0
62
253
6
CONTINUOUS
0
LAYER
2
OBJECT__94
70
0
62
253
6
CONTINUOUS
0
LAYER
2
OBJECT__96
70
0
62
253
6
CONTINUOUS
0
LAYER
2
OBJECT__97
70
0
62
253
6
CONTINUOUS
0
LAYER
2
OBJECT__98
70
0
62
253
6
CONTINUOUS
0
LAYER
2
OBJECT__100
70
0
62
253
6
CONTINUOUS
0
LAYER
2
OBJECT__101
70
0
62
253
6
CONTINUOUS
0
LAYER
2
OBJECT__102
70
0
62
253
6
CONTINUOUS
0
LAYER
2
OBJECT__103
70
0
62
253
6
CONTINUOUS
0
ENDTAB
0
TABLE
2
STYLE
70
1
0
STYLE
2
STANDARD
70
0
40
0.0
41
1.0
50
0.0
71
0
42
0.2
3
txt
4
1
0
ENDTAB
0
TABLE
2
UCS
70
0
0
ENDTAB
0
ENDSEC
0
SECTION
2
ENTITIES
0
POLYLINE
8
OBJECT__0
66
1
70
64
71
15
72
15
62
253
0
VERTEX
8
OBJECT__0
10
71.142998
20
-14.156000
30
18.046000
70
192
0
VERTEX
8
OBJECT__0
10
70.692001
20
-14.434000
30
17.896999
70
192
0
VERTEX
8
OBJECT__0
10
68.692001
20
-14.405000
30
23.084999
70
192
0
VERTEX
8
OBJECT__0
10
69.877998
20
-13.000000
30
23.403999
70
192
0
VERTEX
8
OBJECT__0
10
69.654999
20
-12.820000
30
23.291000
70
192
0
VERTEX
8
OBJECT__0
10
69.205002
20
-14.511000
30
23.309000
70
192
0
VERTEX
8
OBJECT__0
10
71.157997
20
-13.609000
30
17.993999
70
192
0
VERTEX
8
OBJECT__0
10
68.681000
20
-12.029000
30
22.794001
70
192
0
VERTEX
8
OBJECT__0
10
70.722000
20
-13.340000
30
17.792999
70
192
0
VERTEX
8
OBJECT__0
10
67.763000
20
-12.860000
30
22.516001
70
192
0
VERTEX
8
OBJECT__0
10
70.272003
20
-13.618000
30
17.643000
70
192
0
VERTEX
8
OBJECT__0
10
70.257004
20
-14.165000
30
17.695000
70
192
0
VERTEX
8
OBJECT__0
10
67.483002
20
-13.114000
30
22.431000
70
192
0
VERTEX
8
OBJECT__0
10
67.711998
20
-14.203000
30
22.657000
70
192
0
VERTEX
8
OBJECT__0
10
67.575996
20
-13.975000
30
22.573000
70
192
0
VERTEX
8
OBJECT__0
10
0
20
0
30
0
70
128
71
1
72
2
73
3
0
VERTEX
8
OBJECT__0
10
0
20
0
30
0
70
128
71
1
72
4
73
5
0
VERTEX
8
OBJECT__0
10
0
20
0
30
0
70
128
71
1
72
6
73
4
0
VERTEX
8
OBJECT__0
10
0
20
0
30
0
70
128
71
5
72
7
73
1
0
VERTEX
8
OBJECT__0
10
0
20
0
30
0
70
128
71
5
72
8
73
9
0
VERTEX
8
OBJECT__0
10
0
20
0
30
0
70
128
71
8
72
10
73
11
0
VERTEX
8
OBJECT__0
10
0
20
0
30
0
70
128
71
11
72
9
73
8
0
VERTEX
8
OBJECT__0
10
0
20
0
30
0
70
128
71
12
72
11
73
10
0
VERTEX
8
OBJECT__0
10
0
20
0
30
0
70
128
71
10
72
13
73
12
0
VERTEX
8
OBJECT__0
10
0
20
0
30
0
70
128
71
14
72
3
73
2
0
VERTEX
8
OBJECT__0
10
0
20
0
30
0
70
128
71
12
72
15
73
14
0
VERTEX
8
OBJECT__0
10
0
20
0
30
0
70
128
71
2
72
12
73
14
0
VERTEX
8
OBJECT__0
10
0
20
0
30
0
70
128
71
13
72
15
73
12
0
VERTEX
8
OBJECT__0
10
0
20
0
30
0
70
128
71
9
72
7
73
5
0
VERTEX
8
OBJECT__0
10
0
20
0
30
0
70
128
71
3
72
6
73
1
0
SEQEND
8
OBJECT__0
0
POLYLINE
8
OBJECT__1
66
1
70
64
71
10
72
10
62
253
0
VERTEX
8
OBJECT__1
10
70.679001
20
-14.907000
30
17.941999
70
192
0
VERTEX
8
OBJECT__1
10
70.692001
20
-14.434000
30
17.896999
70
192
0
VERTEX
8
OBJECT__1
10
71.142998
20
-14.156000
30
18.046000
70
192
0
VERTEX
8
OBJECT__1
10
69.754997
20
-13.897000
30
17.466999
70
192
0
VERTEX
8
OBJECT__1
10
70.257004
20
-14.165000
30
17.695000
70
192
0
VERTEX
8
OBJECT__1
10
70.735001
20
-12.867000
30
17.747000
70
192
0
VERTEX
8
OBJECT__1
10
71.660004
20
-13.877000
30
18.222000
70
192
0
VERTEX
8
OBJECT__1
10
71.157997
20
-13.609000
30
17.993999
70
192
0
VERTEX
8
OBJECT__1
10
70.722000
20
-13.340000
30
17.792999
70
192
0
VERTEX
8
OBJECT__1
10
70.272003
20
-13.618000
30
17.643000
70
192
0
VERTEX
8
OBJECT__1
10
0
20
0
30
0
70
128
71
1
72
2
73
3
0
VERTEX
8
OBJECT__1
10
0
20
0
30
0
70
128
71
1
72
4
73
5
0
VERTEX
8
OBJECT__1
10
0
20
0
30
0
70
128
71
6
72
7
73
8
0
VERTEX
8
OBJECT__1
10
0
20
0
30
0
70
128
71
5
72
2
73
1
0
VERTEX
8
OBJECT__1
10
0
20
0
30
0
70
128
71
8
72
9
73
6
0
VERTEX
8
OBJECT__1
10
0
20
0
30
0
70
128
71
3
72
7
73
1
0
VERTEX
8
OBJECT__1
10
0
20
0
30
0
70
128
71
3
72
8
73
7
0
VERTEX
8
OBJECT__1
10
0
20
0
30
0
70
128
71
4
72
10
73
5
0
VERTEX
8
OBJECT__1
10
0
20
0
30
0
70
128
71
9
72
10
73
6
0
VERTEX
8
OBJECT__1
10
0
20
0
30
0
70
128
71
10
72
4
73
6
0
SEQEND
8
OBJECT__1
0
POLYLINE
8
OBJECT__3
66
1
70
64
71
8
72
8
62
253
0
VERTEX
8
OBJECT__3
10
70.183998
20
-15.256000
30
19.202000
70
192
0
VERTEX
8
OBJECT__3
10
70.679001
20
-14.907000
30
17.941999
70
192
0
VERTEX
8
OBJECT__3
10
71.660004
20
-13.877000
30
18.222000
70
192
0
VERTEX
8
OBJECT__3
10
71.625000
20
-13.743000
30
19.614000
70
192
0
VERTEX
8
OBJECT__3
10
70.735001
20
-12.867000
30
17.747000
70
192
0
VERTEX
8
OBJECT__3
10
70.265999
20
-12.259000
30
18.916000
70
192
0
VERTEX
8
OBJECT__3
10
69.754997
20
-13.897000
30
17.466999
70
192
0
VERTEX
8
OBJECT__3
10
68.824997
20
-13.772000
30
18.504000
70
192
0
VERTEX
8
OBJECT__3
10
0
20
0
30
0
70
128
71
1
72
2
73
3
0
VERTEX
8
OBJECT__3
10
0
20
0
30
0
70
128
71
4
72
3
73
5
0
VERTEX
8
OBJECT__3
10
0
20
0
30
0
70
128
71
6
72
5
73
7
0
VERTEX
8
OBJECT__3
10
0
20
0
30
0
70
128
71
8
72
7
73
2
0
VERTEX
8
OBJECT__3
10
0
20
0
30
0
70
128
71
2
72
1
73
8
0
VERTEX
8
OBJECT__3
10
0
20
0
30
0
70
128
71
7
72
8
73
6
0
VERTEX
8
OBJECT__3
10
0
20
0
30
0
70
128
71
5
72
6
73
4
0
VERTEX
8
OBJECT__3
10
0
20
0
30
0
70
128
71
3
72
4
73
1
0
SEQEND
8
OBJECT__3
0
POLYLINE
8
OBJECT__4
66
1
70
64
71
20
72
20
62
253
0
VERTEX
8
OBJECT__4
10
75.085999
20
-0.553000
30
24.985001
70
192
0
VERTEX
8
OBJECT__4
10
76.738998
20
0.000000
30
19.653999
70
192
0
VERTEX
8
OBJECT__4
10
76.391998
20
-0.523000
30
19.499001
70
192
0
VERTEX
8
OBJECT__4
10
74.357002
20
-1.210000
30
24.645000
70
192
0
VERTEX
8
OBJECT__4
10
74.532997
20
-1.185000
30
24.726999
70
192
0
VERTEX
8
OBJECT__4
10
74.723000
20
1.054000
30
24.816000
70
192
0
VERTEX
8
OBJECT__4
10
74.342003
20
1.191000
30
24.638000
70
192
0
VERTEX
8
OBJECT__4
10
76.391998
20
0.523000
30
19.499001
70
192
0
VERTEX
8
OBJECT__4
10
75.134003
20
0.006000
30
25.007000
70
192
0
VERTEX
8
OBJECT__4
10
75.160004
20
0.321000
30
25.020000
70
192
0
VERTEX
8
OBJECT__4
10
73.967003
20
1.326000
30
24.462999
70
192
0
VERTEX
8
OBJECT__4
10
73.222000
20
1.016000
30
24.115999
70
192
0
VERTEX
8
OBJECT__4
10
75.830002
20
0.323000
30
19.249001
70
192
0
VERTEX
8
OBJECT__4
10
72.816002
20
0.261000
30
23.926001
70
192
0
VERTEX
8
OBJECT__4
10
72.926003
20
-0.608000
30
23.978001
70
192
0
VERTEX
8
OBJECT__4
10
75.830002
20
-0.323000
30
19.249001
70
192
0
VERTEX
8
OBJECT__4
10
73.074997
20
0.742000
30
24.047001
70
192
0
VERTEX
8
OBJECT__4
10
73.744003
20
-1.297000
30
24.358999
70
192
0
VERTEX
8
OBJECT__4
10
73.064003
20
-0.841000
30
24.042000
70
192
0
VERTEX
8
OBJECT__4
10
73.025002
20
-0.775000
30
24.024000
70
192
0
VERTEX
8
OBJECT__4
10
0
20
0
30
0
70
128
71
1
72
2
73
3
0
VERTEX
8
OBJECT__4
10
0
20
0
30
0
70
128
71
3
72
4
73
5
0
VERTEX
8
OBJECT__4
10
0
20
0
30
0
70
128
71
3
72
5
73
1
0
VERTEX
8
OBJECT__4
10
0
20
0
30
0
70
128
71
6
72
7
73
8
0
VERTEX
8
OBJECT__4
10
0
20
0
30
0
70
128
71
2
72
9
73
10
0
VERTEX
8
OBJECT__4
10
0
20
0
30
0
70
128
71
10
72
6
73
2
0
VERTEX
8
OBJECT__4
10
0
20
0
30
0
70
128
71
11
72
12
73
13
0
VERTEX
8
OBJECT__4
10
0
20
0
30
0
70
128
71
13
72
8
73
11
0
VERTEX
8
OBJECT__4
10
0
20
0
30
0
70
128
71
8
72
7
73
11
0
VERTEX
8
OBJECT__4
10
0
20
0
30
0
70
128
71
14
72
15
73
16
0
VERTEX
8
OBJECT__4
10
0
20
0
30
0
70
128
71
13
72
17
73
14
0
VERTEX
8
OBJECT__4
10
0
20
0
30
0
70
128
71
16
72
13
73
14
0
VERTEX
8
OBJECT__4
10
0
20
0
30
0
70
128
71
18
72
3
73
16
0
VERTEX
8
OBJECT__4
10
0
20
0
30
0
70
128
71
16
72
19
73
18
0
VERTEX
8
OBJECT__4
10
0
20
0
30
0
70
128
71
16
72
20
73
19
0
VERTEX
8
OBJECT__4
10
0
20
0
30
0
70
128
71
18
72
4
73
3
0
VERTEX
8
OBJECT__4
10
0
20
0
30
0
70
128
71
15
72
20
73
16
0
VERTEX
8
OBJECT__4
10
0
20
0
30
0
70
128
71
12
72
17
73
13
0
VERTEX
8
OBJECT__4
10
0
20
0
30
0
70
128
71
8
72
2
73
6
0
VERTEX
8
OBJECT__4
10
0
20
0
30
0
70
128
71
1
72
9
73
2
0
SEQEND
8
OBJECT__4
0
POLYLINE
8
OBJECT__5
66
1
70
64
71
13
72
13
62
253
0
VERTEX
8
OBJECT__5
10
76.899002
20
0.725000
30
19.725000
70
192
0
VERTEX
8
OBJECT__5
10
77.172997
20
0.000000
30
19.847000
70
192
0
VERTEX
8
OBJECT__5
10
76.738998
20
0.000000
30
19.653999
70
192
0
VERTEX
8
OBJECT__5
10
76.899002
20
-0.725000
30
19.725000
70
192
0
VERTEX
8
OBJECT__5
10
76.391998
20
-0.523000
30
19.499001
70
192
0
VERTEX
8
OBJECT__5
10
76.391998
20
0.523000
30
19.499001
70
192
0
VERTEX
8
OBJECT__5
10
76.237000
20
-1.025000
30
19.430000
70
192
0
VERTEX
8
OBJECT__5
10
75.300003
20
0.000000
30
19.013000
70
192
0
VERTEX
8
OBJECT__5
10
75.574997
20
0.725000
30
19.136000
70
192
0
VERTEX
8
OBJECT__5
10
75.830002
20
0.323000
30
19.249001
70
192
0
VERTEX
8
OBJECT__5
10
76.237000
20
1.025000
30
19.430000
70
192
0
VERTEX
8
OBJECT__5
10
75.574997
20
-0.725000
30
19.136000
70
192
0
VERTEX
8
OBJECT__5
10
75.830002
20
-0.323000
30
19.249001
70
192
0
VERTEX
8
OBJECT__5
10
0
20
0
30
0
70
128
71
1
72
2
73
3
0
VERTEX
8
OBJECT__5
10
0
20
0
30
0
70
128
71
4
72
5
73
3
0
VERTEX
8
OBJECT__5
10
0
20
0
30
0
70
128
71
3
72
6
73
1
0
VERTEX
8
OBJECT__5
10
0
20
0
30
0
70
128
71
4
72
7
73
5
0
VERTEX
8
OBJECT__5
10
0
20
0
30
0
70
128
71
8
72
9
73
10
0
VERTEX
8
OBJECT__5
10
0
20
0
30
0
70
128
71
11
72
6
73
10
0
VERTEX
8
OBJECT__5
10
0
20
0
30
0
70
128
71
3
72
2
73
4
0
VERTEX
8
OBJECT__5
10
0
20
0
30
0
70
128
71
7
72
12
73
13
0
VERTEX
8
OBJECT__5
10
0
20
0
30
0
70
128
71
10
72
13
73
8
0
VERTEX
8
OBJECT__5
10
0
20
0
30
0
70
128
71
6
72
11
73
1
0
VERTEX
8
OBJECT__5
10
0
20
0
30
0
70
128
71
13
72
12
73
8
0
VERTEX
8
OBJECT__5
10
0
20
0
30
0
70
128
71
13
72
5
73
7
0
VERTEX
8
OBJECT__5
10
0
20
0
30
0
70
128
71
10
72
9
73
11
0
SEQEND
8
OBJECT__5
0
POLYLINE
8
OBJECT__7
66
1
70
64
71
16
72
16
62
253
0
VERTEX
8
OBJECT__7
10
76.676003
20
1.065000
30
21.063000
70
192
0
VERTEX
8
OBJECT__7
10
77.079002
20
0.000000
30
21.242001
70
192
0
VERTEX
8
OBJECT__7
10
77.172997
20
0.000000
30
19.847000
70
192
0
VERTEX
8
OBJECT__7
10
75.703003
20
1.506000
30
20.629999
70
192
0
VERTEX
8
OBJECT__7
10
76.899002
20
0.725000
30
19.725000
70
192
0
VERTEX
8
OBJECT__7
10
76.237000
20
1.025000
30
19.430000
70
192
0
VERTEX
8
OBJECT__7
10
75.574997
20
0.725000
30
19.136000
70
192
0
VERTEX
8
OBJECT__7
10
74.327003
20
0.000000
30
20.017000
70
192
0
VERTEX
8
OBJECT__7
10
74.730003
20
1.065000
30
20.197001
70
192
0
VERTEX
8
OBJECT__7
10
74.730003
20
-1.065000
30
20.197001
70
192
0
VERTEX
8
OBJECT__7
10
75.300003
20
0.000000
30
19.013000
70
192
0
VERTEX
8
OBJECT__7
10
75.574997
20
-0.725000
30
19.136000
70
192
0
VERTEX
8
OBJECT__7
10
76.237000
20
-1.025000
30
19.430000
70
192
0
VERTEX
8
OBJECT__7
10
76.676003
20
-1.065000
30
21.063000
70
192
0
VERTEX
8
OBJECT__7
10
75.703003
20
-1.506000
30
20.629999
70
192
0
VERTEX
8
OBJECT__7
10
76.899002
20
-0.725000
30
19.725000
70
192
0
VERTEX
8
OBJECT__7
10
0
20
0
30
0
70
128
71
1
72
2
73
3
0
VERTEX
8
OBJECT__7
10
0
20
0
30
0
70
128
71
4
72
1
73
5
0
VERTEX
8
OBJECT__7
10
0
20
0
30
0
70
128
71
4
72
6
73
7
0
VERTEX
8
OBJECT__7
10
0
20
0
30
0
70
128
71
8
72
9
73
7
0
VERTEX
8
OBJECT__7
10
0
20
0
30
0
70
128
71
10
72
8
73
11
0
VERTEX
8
OBJECT__7
10
0
20
0
30
0
70
128
71
10
72
12
73
13
0
VERTEX
8
OBJECT__7
10
0
20
0
30
0
70
128
71
14
72
15
73
13
0
VERTEX
8
OBJECT__7
10
0
20
0
30
0
70
128
71
14
72
16
73
3
0
VERTEX
8
OBJECT__7
10
0
20
0
30
0
70
128
71
3
72
2
73
14
0
VERTEX
8
OBJECT__7
10
0
20
0
30
0
70
128
71
13
72
16
73
14
0
VERTEX
8
OBJECT__7
10
0
20
0
30
0
70
128
71
13
72
15
73
10
0
VERTEX
8
OBJECT__7
10
0
20
0
30
0
70
128
71
11
72
12
73
10
0
VERTEX
8
OBJECT__7
10
0
20
0
30
0
70
128
71
7
72
11
73
8
0
VERTEX
8
OBJECT__7
10
0
20
0
30
0
70
128
71
7
72
9
73
4
0
VERTEX
8
OBJECT__7
10
0
20
0
30
0
70
128
71
5
72
6
73
4
0
VERTEX
8
OBJECT__7
10
0
20
0
30
0
70
128
71
3
72
5
73
1
0
SEQEND
8
OBJECT__7
0
POLYLINE
8
OBJECT__8
66
1
70
64
71
8
72
6
62
253
0
VERTEX
8
OBJECT__8
10
70.078003
20
-1.714000
30
16.763000
70
192
0
VERTEX
8
OBJECT__8
10
70.070999
20
-3.163000
30
16.781000
70
192
0
VERTEX
8
OBJECT__8
10
69.388000
20
-3.464000
30
16.538000
70
192
0
VERTEX
8
OBJECT__8
10
68.708000
20
-3.163000
30
16.287001
70
192
0
VERTEX
8
OBJECT__8
10
68.714996
20
-1.714000
30
16.268999
70
192
0
VERTEX
8
OBJECT__8
10
69.398003
20
-1.414000
30
16.511999
70
192
0
VERTEX
8
OBJECT__8
10
70.357002
20
-2.439000
30
16.874001
70
192
0
VERTEX
8
OBJECT__8
10
68.429001
20
-2.439000
30
16.176001
70
192
0
VERTEX
8
OBJECT__8
10
0
20
0
30
0
70
128
71
1
72
2
73
3
0
VERTEX
8
OBJECT__8
10
0
20
0
30
0
70
128
71
4
72
5
73
6
0
VERTEX
8
OBJECT__8
10
0
20
0
30
0
70
128
71
1
72
7
73
2
0
VERTEX
8
OBJECT__8
10
0
20
0
30
0
70
128
71
4
72
8
73
5
0
VERTEX
8
OBJECT__8
10
0
20
0
30
0
70
128
71
6
72
1
73
4
0
VERTEX
8
OBJECT__8
10
0
20
0
30
0
70
128
71
3
72
4
73
1
0
SEQEND
8
OBJECT__8
0
POLYLINE
8
OBJECT__9
66
1
70
64
71
16
72
16
62
253
0
VERTEX
8
OBJECT__9
10
67.278999
20
-2.417000
30
17.423000
70
192
0
VERTEX
8
OBJECT__9
10
67.748001
20
-1.229000
30
17.576000
70
192
0
VERTEX
8
OBJECT__9
10
68.714996
20
-1.714000
30
16.268999
70
192
0
VERTEX
8
OBJECT__9
10
68.867996
20
-0.736000
30
17.975000
70
192
0
VERTEX
8
OBJECT__9
10
69.398003
20
-1.414000
30
16.511999
70
192
0
VERTEX
8
OBJECT__9
10
69.983002
20
-1.229000
30
18.386000
70
192
0
VERTEX
8
OBJECT__9
10
70.078003
20
-1.714000
30
16.763000
70
192
0
VERTEX
8
OBJECT__9
10
70.440002
20
-2.417000
30
18.569000
70
192
0
VERTEX
8
OBJECT__9
10
70.357002
20
-2.439000
30
16.874001
70
192
0
VERTEX
8
OBJECT__9
10
69.972000
20
-3.606000
30
18.417000
70
192
0
VERTEX
8
OBJECT__9
10
70.070999
20
-3.163000
30
16.781000
70
192
0
VERTEX
8
OBJECT__9
10
68.851997
20
-4.098000
30
18.018000
70
192
0
VERTEX
8
OBJECT__9
10
69.388000
20
-3.464000
30
16.538000
70
192
0
VERTEX
8
OBJECT__9
10
67.737000
20
-3.606000
30
17.606001
70
192
0
VERTEX
8
OBJECT__9
10
68.708000
20
-3.163000
30
16.287001
70
192
0
VERTEX
8
OBJECT__9
10
68.429001
20
-2.439000
30
16.176001
70
192
0
VERTEX
8
OBJECT__9
10
0
20
0
30
0
70
128
71
1
72
2
73
3
0
VERTEX
8
OBJECT__9
10
0
20
0
30
0
70
128
71
4
72
5
73
3
0
VERTEX
8
OBJECT__9
10
0
20
0
30
0
70
128
71
6
72
7
73
5
0
VERTEX
8
OBJECT__9
10
0
20
0
30
0
70
128
71
6
72
8
73
9
0
VERTEX
8
OBJECT__9
10
0
20
0
30
0
70
128
71
10
72
11
73
9
0
VERTEX
8
OBJECT__9
10
0
20
0
30
0
70
128
71
10
72
12
73
13
0
VERTEX
8
OBJECT__9
10
0
20
0
30
0
70
128
71
14
72
15
73
13
0
VERTEX
8
OBJECT__9
10
0
20
0
30
0
70
128
71
14
72
1
73
16
0
VERTEX
8
OBJECT__9
10
0
20
0
30
0
70
128
71
16
72
15
73
14
0
VERTEX
8
OBJECT__9
10
0
20
0
30
0
70
128
71
13
72
12
73
14
0
VERTEX
8
OBJECT__9
10
0
20
0
30
0
70
128
71
13
72
11
73
10
0
VERTEX
8
OBJECT__9
10
0
20
0
30
0
70
128
71
9
72
8
73
10
0
VERTEX
8
OBJECT__9
10
0
20
0
30
0
70
128
71
9
72
7
73
6
0
VERTEX
8
OBJECT__9
10
0
20
0
30
0
70
128
71
5
72
4
73
6
0
VERTEX
8
OBJECT__9
10
0
20
0
30
0
70
128
71
3
72
2
73
4
0
VERTEX
8
OBJECT__9
10
0
20
0
30
0
70
128
71
3
72
16
73
1
0
SEQEND
8
OBJECT__9
0
POLYLINE
8
OBJECT__11
66
1
70
64
71
109
72
168
62
253
0
VERTEX
8
OBJECT__11
10
65.196999
20
0.000000
30
15.985000
70
192
0
VERTEX
8
OBJECT__11
10
65.027000
20
1.679000
30
15.937000
70
192
0
VERTEX
8
OBJECT__11
10
72.376999
20
3.352000
30
18.851999
70
192
0
VERTEX
8
OBJECT__11
10
64.526001
20
3.285000
30
15.793000
70
192
0
VERTEX
8
OBJECT__11
10
71.375999
20
6.557000
30
18.565001
70
192
0
VERTEX
8
OBJECT__11
10
63.714001
20
4.748000
30
15.560000
70
192
0
VERTEX
8
OBJECT__11
10
69.755997
20
9.476000
30
18.100000
70
192
0
VERTEX
8
OBJECT__11
10
62.627998
20
6.003000
30
15.249000
70
192
0
VERTEX
8
OBJECT__11
10
67.587997
20
11.981000
30
17.479000
70
192
0
VERTEX
8
OBJECT__11
10
61.314999
20
6.995000
30
14.872000
70
192
0
VERTEX
8
OBJECT__11
10
64.967003
20
13.962000
30
16.726999
70
192
0
VERTEX
8
OBJECT__11
10
59.832001
20
7.682000
30
14.447000
70
192
0
VERTEX
8
OBJECT__11
10
62.007000
20
15.333000
30
15.878000
70
192
0
VERTEX
8
OBJECT__11
10
58.243999
20
8.033000
30
13.992000
70
192
0
VERTEX
8
OBJECT__11
10
58.838001
20
16.034000
30
14.970000
70
192
0
VERTEX
8
OBJECT__11
10
56.620998
20
8.033000
30
13.526000
70
192
0
VERTEX
8
OBJECT__11
10
55.598000
20
16.034000
30
14.041000
70
192
0
VERTEX
8
OBJECT__11
10
55.033001
20
7.682000
30
13.071000
70
192
0
VERTEX
8
OBJECT__11
10
52.429001
20
15.333000
30
13.132000
70
192
0
VERTEX
8
OBJECT__11
10
53.549999
20
6.995000
30
12.646000
70
192
0
VERTEX
8
OBJECT__11
10
49.470001
20
13.962000
30
12.283000
70
192
0
VERTEX
8
OBJECT__11
10
52.237000
20
6.003000
30
12.269000
70
192
0
VERTEX
8
OBJECT__11
10
46.848999
20
11.981000
30
11.532000
70
192
0
VERTEX
8
OBJECT__11
10
51.151001
20
4.748000
30
11.958000
70
192
0
VERTEX
8
OBJECT__11
10
44.681000
20
9.476000
30
10.910000
70
192
0
VERTEX
8
OBJECT__11
10
50.339001
20
3.285000
30
11.725000
70
192
0
VERTEX
8
OBJECT__11
10
43.061001
20
6.557000
30
10.446000
70
192
0
VERTEX
8
OBJECT__11
10
49.837002
20
1.679000
30
11.581000
70
192
0
VERTEX
8
OBJECT__11
10
42.060001
20
3.352000
30
10.159000
70
192
0
VERTEX
8
OBJECT__11
10
49.667999
20
0.000000
30
11.532000
70
192
0
VERTEX
8
OBJECT__11
10
41.721001
20
0.000000
30
10.061000
70
192
0
VERTEX
8
OBJECT__11
10
49.837002
20
-1.679000
30
11.581000
70
192
0
VERTEX
8
OBJECT__11
10
42.060001
20
-3.352000
30
10.159000
70
192
0
VERTEX
8
OBJECT__11
10
50.339001
20
-3.285000
30
11.725000
70
192
0
VERTEX
8
OBJECT__11
10
43.061001
20
-6.557000
30
10.446000
70
192
0
VERTEX
8
OBJECT__11
10
51.151001
20
-4.748000
30
11.958000
70
192
0
VERTEX
8
OBJECT__11
10
44.681000
20
-9.476000
30
10.910000
70
192
0
VERTEX
8
OBJECT__11
10
52.237000
20
-6.003000
30
12.269000
70
192
0
VERTEX
8
OBJECT__11
10
46.848999
20
-11.981000
30
11.532000
70
192
0
VERTEX
8
OBJECT__11
10
53.549999
20
-6.995000
30
12.646000
70
192
0
VERTEX
8
OBJECT__11
10
49.470001
20
-13.962000
30
12.283000
70
192
0
VERTEX
8
OBJECT__11
10
55.033001
20
-7.682000
30
13.071000
70
192
0
VERTEX
8
OBJECT__11
10
52.429001
20
-15.333000
30
13.132000
70
192
0
VERTEX
8
OBJECT__11
10
56.620998
20
-8.033000
30
13.526000
70
192
0
VERTEX
8
OBJECT__11
10
55.598000
20
-16.034000
30
14.041000
70
192
0
VERTEX
8
OBJECT__11
10
58.243999
20
-8.033000
30
13.992000
70
192
0
VERTEX
8
OBJECT__11
10
58.838001
20
-16.034000
30
14.970000
70
192
0
VERTEX
8
OBJECT__11
10
59.832001
20
-7.682000
30
14.447000
70
192
0
VERTEX
8
OBJECT__11
10
62.007000
20
-15.333000
30
15.878000
70
192
0
VERTEX
8
OBJECT__11
10
61.314999
20
-6.995000
30
14.872000
70
192
0
VERTEX
8
OBJECT__11
10
64.967003
20
-13.962000
30
16.726999
70
192
0
VERTEX
8
OBJECT__11
10
62.627998
20
-6.003000
30
15.249000
70
192
0
VERTEX
8
OBJECT__11
10
67.587997
20
-11.981000
30
17.479000
70
192
0
VERTEX
8
OBJECT__11
10
63.714001
20
-4.748000
30
15.560000
70
192
0
VERTEX
8
OBJECT__11
10
69.755997
20
-9.476000
30
18.100000
70
192
0
VERTEX
8
OBJECT__11
10
64.526001
20
-3.285000
30
15.793000
70
192
0
VERTEX
8
OBJECT__11
10
71.375999
20
-6.557000
30
18.565001
70
192
0
VERTEX
8
OBJECT__11
10
65.027000
20
-1.679000
30
15.937000
70
192
0
VERTEX
8
OBJECT__11
10
72.376999
20
-3.352000
30
18.851999
70
192
0
VERTEX
8
OBJECT__11
10
72.716003
20
0.000000
30
18.948999
70
192
0
VERTEX
8
OBJECT__11
10
79.523003
20
5.011000
30
22.243999
70
192
0
VERTEX
8
OBJECT__11
10
80.028999
20
0.000000
30
22.389000
70
192
0
VERTEX
8
OBJECT__11
10
78.026001
20
9.802000
30
21.813999
70
192
0
VERTEX
8
OBJECT__11
10
78.882004
20
7.064000
30
22.059999
70
192
0
VERTEX
8
OBJECT__11
10
75.949997
20
13.544000
30
21.219000
70
192
0
VERTEX
8
OBJECT__11
10
75.605003
20
14.166000
30
21.120001
70
192
0
VERTEX
8
OBJECT__11
10
71.246002
20
18.754999
30
19.870001
70
192
0
VERTEX
8
OBJECT__11
10
68.445999
20
20.871000
30
19.066999
70
192
0
VERTEX
8
OBJECT__11
10
65.283997
20
22.336000
30
18.160999
70
192
0
VERTEX
8
OBJECT__11
10
64.021004
20
22.920000
30
17.799000
70
192
0
VERTEX
8
OBJECT__11
10
58.594002
20
23.968000
30
16.242001
70
192
0
VERTEX
8
OBJECT__11
10
54.441002
20
23.968000
30
15.051000
70
192
0
VERTEX
8
OBJECT__11
10
51.733002
20
23.368999
30
14.275000
70
192
0
VERTEX
8
OBJECT__11
10
49.703999
20
22.920000
30
13.693000
70
192
0
VERTEX
8
OBJECT__11
10
45.278999
20
20.871000
30
12.424000
70
192
0
VERTEX
8
OBJECT__11
10
38.120998
20
14.166000
30
10.372000
70
192
0
VERTEX
8
OBJECT__11
10
39.973000
20
16.306000
30
10.903000
70
192
0
VERTEX
8
OBJECT__11
10
36.043999
20
10.424000
30
9.776000
70
192
0
VERTEX
8
OBJECT__11
10
35.699001
20
9.802000
30
9.677000
70
192
0
VERTEX
8
OBJECT__11
10
34.057999
20
3.581000
30
9.207000
70
192
0
VERTEX
8
OBJECT__11
10
33.695999
20
0.000000
30
9.103000
70
192
0
VERTEX
8
OBJECT__11
10
34.057999
20
-3.581000
30
9.207000
70
192
0
VERTEX
8
OBJECT__11
10
34.202000
20
-5.011000
30
9.248000
70
192
0
VERTEX
8
OBJECT__11
10
35.699001
20
-9.802000
30
9.677000
70
192
0
VERTEX
8
OBJECT__11
10
36.043999
20
-10.424000
30
9.776000
70
192
0
VERTEX
8
OBJECT__11
10
38.120998
20
-14.166000
30
10.372000
70
192
0
VERTEX
8
OBJECT__11
10
39.973000
20
-16.306000
30
10.903000
70
192
0
VERTEX
8
OBJECT__11
10
41.361000
20
-17.910000
30
11.301000
70
192
0
VERTEX
8
OBJECT__11
10
45.278999
20
-20.871000
30
12.424000
70
192
0
VERTEX
8
OBJECT__11
10
54.441002
20
-23.968000
30
15.051000
70
192
0
VERTEX
8
OBJECT__11
10
51.733002
20
-23.368999
30
14.275000
70
192
0
VERTEX
8
OBJECT__11
10
58.594002
20
-23.968000
30
16.242001
70
192
0
VERTEX
8
OBJECT__11
10
59.284000
20
-23.968000
30
16.440001
70
192
0
VERTEX
8
OBJECT__11
10
64.021004
20
-22.920000
30
17.799000
70
192
0
VERTEX
8
OBJECT__11
10
65.283997
20
-22.336000
30
18.160999
70
192
0
VERTEX
8
OBJECT__11
10
68.445999
20
-20.871000
30
19.066999
70
192
0
VERTEX
8
OBJECT__11
10
71.246002
20
-18.754999
30
19.870001
70
192
0
VERTEX
8
OBJECT__11
10
72.363998
20
-17.910000
30
20.191000
70
192
0
VERTEX
8
OBJECT__11
10
75.605003
20
-14.166000
30
21.120001
70
192
0
VERTEX
8
OBJECT__11
10
75.949997
20
-13.544000
30
21.219000
70
192
0
VERTEX
8
OBJECT__11
10
78.026001
20
-9.802000
30
21.813999
70
192
0
VERTEX
8
OBJECT__11
10
78.882004
20
-7.064000
30
22.059999
70
192
0
VERTEX
8
OBJECT__11
10
79.523003
20
-5.011000
30
22.243999
70
192
0
VERTEX
8
OBJECT__11
10
49.703999
20
-22.920000
30
13.693000
70
192
0
VERTEX
8
OBJECT__11
10
34.202000
20
5.011000
30
9.248000
70
192
0
VERTEX
8
OBJECT__11
10
41.361000
20
17.910000
30
11.301000
70
192
0
VERTEX
8
OBJECT__11
10
59.284000
20
23.968000
30
16.440001
70
192
0
VERTEX
8
OBJECT__11
10
72.363998
20
17.910000
30
20.191000
70
192
0
VERTEX
8
OBJECT__11
10
57.504002
20
0.000000
30
13.510000
70
192
0
VERTEX
8
OBJECT__11
10
0
20
0
30
0
70
128
71
1
72
2
73
3
0
VERTEX
8
OBJECT__11
10
0
20
0
30
0
70
128
71
2
72
4
73
5
0
VERTEX
8
OBJECT__11
10
0
20
0
30
0
70
128
71
4
72
6
73
7
0
VERTEX
8
OBJECT__11
10
0
20
0
30
0
70
128
71
6
72
8
73
9
0
VERTEX
8
OBJECT__11
10
0
20
0
30
0
70
128
71
8
72
10
73
11
0
VERTEX
8
OBJECT__11
10
0
20
0
30
0
70
128
71
10
72
12
73
13
0
VERTEX
8
OBJECT__11
10
0
20
0
30
0
70
128
71
12
72
14
73
15
0
VERTEX
8
OBJECT__11
10
0
20
0
30
0
70
128
71
14
72
16
73
17
0
VERTEX
8
OBJECT__11
10
0
20
0
30
0
70
128
71
16
72
18
73
19
0
VERTEX
8
OBJECT__11
10
0
20
0
30
0
70
128
71
18
72
20
73
21
0
VERTEX
8
OBJECT__11
10
0
20
0
30
0
70
128
71
20
72
22
73
23
0
VERTEX
8
OBJECT__11
10
0
20
0
30
0
70
128
71
22
72
24
73
25
0
VERTEX
8
OBJECT__11
10
0
20
0
30
0
70
128
71
24
72
26
73
27
0
VERTEX
8
OBJECT__11
10
0
20
0
30
0
70
128
71
26
72
28
73
29
0
VERTEX
8
OBJECT__11
10
0
20
0
30
0
70
128
71
28
72
30
73
31
0
VERTEX
8
OBJECT__11
10
0
20
0
30
0
70
128
71
30
72
32
73
33
0
VERTEX
8
OBJECT__11
10
0
20
0
30
0
70
128
71
32
72
34
73
35
0
VERTEX
8
OBJECT__11
10
0
20
0
30
0
70
128
71
34
72
36
73
37
0
VERTEX
8
OBJECT__11
10
0
20
0
30
0
70
128
71
36
72
38
73
39
0
VERTEX
8
OBJECT__11
10
0
20
0
30
0
70
128
71
38
72
40
73
41
0
VERTEX
8
OBJECT__11
10
0
20
0
30
0
70
128
71
40
72
42
73
43
0
VERTEX
8
OBJECT__11
10
0
20
0
30
0
70
128
71
42
72
44
73
45
0
VERTEX
8
OBJECT__11
10
0
20
0
30
0
70
128
71
44
72
46
73
47
0
VERTEX
8
OBJECT__11
10
0
20
0
30
0
70
128
71
46
72
48
73
49
0
VERTEX
8
OBJECT__11
10
0
20
0
30
0
70
128
71
48
72
50
73
51
0
VERTEX
8
OBJECT__11
10
0
20
0
30
0
70
128
71
50
72
52
73
53
0
VERTEX
8
OBJECT__11
10
0
20
0
30
0
70
128
71
52
72
54
73
55
0
VERTEX
8
OBJECT__11
10
0
20
0
30
0
70
128
71
54
72
56
73
57
0
VERTEX
8
OBJECT__11
10
0
20
0
30
0
70
128
71
56
72
58
73
59
0
VERTEX
8
OBJECT__11
10
0
20
0
30
0
70
128
71
58
72
1
73
60
0
VERTEX
8
OBJECT__11
10
0
20
0
30
0
70
128
71
61
72
62
73
60
0
VERTEX
8
OBJECT__11
10
0
20
0
30
0
70
128
71
5
72
63
73
64
0
VERTEX
8
OBJECT__11
10
0
20
0
30
0
70
128
71
64
72
3
73
5
0
VERTEX
8
OBJECT__11
10
0
20
0
30
0
70
128
71
65
72
63
73
5
0
VERTEX
8
OBJECT__11
10
0
20
0
30
0
70
128
71
7
72
66
73
65
0
VERTEX
8
OBJECT__11
10
0
20
0
30
0
70
128
71
66
72
7
73
9
0
VERTEX
8
OBJECT__11
10
0
20
0
30
0
70
128
71
67
72
9
73
11
0
VERTEX
8
OBJECT__11
10
0
20
0
30
0
70
128
71
11
72
68
73
67
0
VERTEX
8
OBJECT__11
10
0
20
0
30
0
70
128
71
69
72
68
73
11
0
VERTEX
8
OBJECT__11
10
0
20
0
30
0
70
128
71
13
72
70
73
69
0
VERTEX
8
OBJECT__11
10
0
20
0
30
0
70
128
71
70
72
13
73
15
0
VERTEX
8
OBJECT__11
10
0
20
0
30
0
70
128
71
71
72
15
73
17
0
VERTEX
8
OBJECT__11
10
0
20
0
30
0
70
128
71
17
72
72
73
71
0
VERTEX
8
OBJECT__11
10
0
20
0
30
0
70
128
71
17
72
19
73
73
0
VERTEX
8
OBJECT__11
10
0
20
0
30
0
70
128
71
19
72
74
73
73
0
VERTEX
8
OBJECT__11
10
0
20
0
30
0
70
128
71
74
72
19
73
21
0
VERTEX
8
OBJECT__11
10
0
20
0
30
0
70
128
71
75
72
21
73
23
0
VERTEX
8
OBJECT__11
10
0
20
0
30
0
70
128
71
25
72
76
73
77
0
VERTEX
8
OBJECT__11
10
0
20
0
30
0
70
128
71
77
72
23
73
25
0
VERTEX
8
OBJECT__11
10
0
20
0
30
0
70
128
71
78
72
76
73
25
0
VERTEX
8
OBJECT__11
10
0
20
0
30
0
70
128
71
27
72
79
73
78
0
VERTEX
8
OBJECT__11
10
0
20
0
30
0
70
128
71
79
72
27
73
29
0
VERTEX
8
OBJECT__11
10
0
20
0
30
0
70
128
71
80
72
29
73
31
0
VERTEX
8
OBJECT__11
10
0
20
0
30
0
70
128
71
31
72
81
73
80
0
VERTEX
8
OBJECT__11
10
0
20
0
30
0
70
128
71
82
72
81
73
31
0
VERTEX
8
OBJECT__11
10
0
20
0
30
0
70
128
71
33
72
83
73
82
0
VERTEX
8
OBJECT__11
10
0
20
0
30
0
70
128
71
84
72
83
73
33
0
VERTEX
8
OBJECT__11
10
0
20
0
30
0
70
128
71
85
72
35
73
37
0
VERTEX
8
OBJECT__11
10
0
20
0
30
0
70
128
71
37
72
86
73
85
0
VERTEX
8
OBJECT__11
10
0
20
0
30
0
70
128
71
37
72
39
73
87
0
VERTEX
8
OBJECT__11
10
0
20
0
30
0
70
128
71
39
72
88
73
87
0
VERTEX
8
OBJECT__11
10
0
20
0
30
0
70
128
71
88
72
39
73
41
0
VERTEX
8
OBJECT__11
10
0
20
0
30
0
70
128
71
89
72
41
73
43
0
VERTEX
8
OBJECT__11
10
0
20
0
30
0
70
128
71
45
72
90
73
91
0
VERTEX
8
OBJECT__11
10
0
20
0
30
0
70
128
71
91
72
43
73
45
0
VERTEX
8
OBJECT__11
10
0
20
0
30
0
70
128
71
92
72
90
73
45
0
VERTEX
8
OBJECT__11
10
0
20
0
30
0
70
128
71
47
72
93
73
92
0
VERTEX
8
OBJECT__11
10
0
20
0
30
0
70
128
71
94
72
93
73
47
0
VERTEX
8
OBJECT__11
10
0
20
0
30
0
70
128
71
95
72
49
73
51
0
VERTEX
8
OBJECT__11
10
0
20
0
30
0
70
128
71
51
72
96
73
95
0
VERTEX
8
OBJECT__11
10
0
20
0
30
0
70
128
71
97
72
96
73
51
0
VERTEX
8
OBJECT__11
10
0
20
0
30
0
70
128
71
53
72
98
73
97
0
VERTEX
8
OBJECT__11
10
0
20
0
30
0
70
128
71
99
72
98
73
53
0
VERTEX
8
OBJECT__11
10
0
20
0
30
0
70
128
71
100
72
55
73
57
0
VERTEX
8
OBJECT__11
10
0
20
0
30
0
70
128
71
57
72
101
73
100
0
VERTEX
8
OBJECT__11
10
0
20
0
30
0
70
128
71
57
72
59
73
102
0
VERTEX
8
OBJECT__11
10
0
20
0
30
0
70
128
71
59
72
103
73
102
0
VERTEX
8
OBJECT__11
10
0
20
0
30
0
70
128
71
62
72
103
73
59
0
VERTEX
8
OBJECT__11
10
0
20
0
30
0
70
128
71
59
72
60
73
62
0
VERTEX
8
OBJECT__11
10
0
20
0
30
0
70
128
71
102
72
101
73
57
0
VERTEX
8
OBJECT__11
10
0
20
0
30
0
70
128
71
100
72
99
73
55
0
VERTEX
8
OBJECT__11
10
0
20
0
30
0
70
128
71
53
72
55
73
99
0
VERTEX
8
OBJECT__11
10
0
20
0
30
0
70
128
71
51
72
53
73
97
0
VERTEX
8
OBJECT__11
10
0
20
0
30
0
70
128
71
95
72
94
73
49
0
VERTEX
8
OBJECT__11
10
0
20
0
30
0
70
128
71
47
72
49
73
94
0
VERTEX
8
OBJECT__11
10
0
20
0
30
0
70
128
71
45
72
47
73
92
0
VERTEX
8
OBJECT__11
10
0
20
0
30
0
70
128
71
91
72
104
73
43
0
VERTEX
8
OBJECT__11
10
0
20
0
30
0
70
128
71
43
72
104
73
89
0
VERTEX
8
OBJECT__11
10
0
20
0
30
0
70
128
71
41
72
89
73
88
0
VERTEX
8
OBJECT__11
10
0
20
0
30
0
70
128
71
87
72
86
73
37
0
VERTEX
8
OBJECT__11
10
0
20
0
30
0
70
128
71
85
72
84
73
35
0
VERTEX
8
OBJECT__11
10
0
20
0
30
0
70
128
71
33
72
35
73
84
0
VERTEX
8
OBJECT__11
10
0
20
0
30
0
70
128
71
31
72
33
73
82
0
VERTEX
8
OBJECT__11
10
0
20
0
30
0
70
128
71
80
72
105
73
29
0
VERTEX
8
OBJECT__11
10
0
20
0
30
0
70
128
71
29
72
105
73
79
0
VERTEX
8
OBJECT__11
10
0
20
0
30
0
70
128
71
25
72
27
73
78
0
VERTEX
8
OBJECT__11
10
0
20
0
30
0
70
128
71
77
72
106
73
23
0
VERTEX
8
OBJECT__11
10
0
20
0
30
0
70
128
71
23
72
106
73
75
0
VERTEX
8
OBJECT__11
10
0
20
0
30
0
70
128
71
21
72
75
73
74
0
VERTEX
8
OBJECT__11
10
0
20
0
30
0
70
128
71
73
72
72
73
17
0
VERTEX
8
OBJECT__11
10
0
20
0
30
0
70
128
71
71
72
107
73
15
0
VERTEX
8
OBJECT__11
10
0
20
0
30
0
70
128
71
15
72
107
73
70
0
VERTEX
8
OBJECT__11
10
0
20
0
30
0
70
128
71
11
72
13
73
69
0
VERTEX
8
OBJECT__11
10
0
20
0
30
0
70
128
71
67
72
108
73
9
0
VERTEX
8
OBJECT__11
10
0
20
0
30
0
70
128
71
9
72
108
73
66
0
VERTEX
8
OBJECT__11
10
0
20
0
30
0
70
128
71
5
72
7
73
65
0
VERTEX
8
OBJECT__11
10
0
20
0
30
0
70
128
71
64
72
61
73
3
0
VERTEX
8
OBJECT__11
10
0
20
0
30
0
70
128
71
60
72
3
73
61
0
VERTEX
8
OBJECT__11
10
0
20
0
30
0
70
128
71
60
72
59
73
58
0
VERTEX
8
OBJECT__11
10
0
20
0
30
0
70
128
71
59
72
57
73
56
0
VERTEX
8
OBJECT__11
10
0
20
0
30
0
70
128
71
57
72
55
73
54
0
VERTEX
8
OBJECT__11
10
0
20
0
30
0
70
128
71
55
72
53
73
52
0
VERTEX
8
OBJECT__11
10
0
20
0
30
0
70
128
71
53
72
51
73
50
0
VERTEX
8
OBJECT__11
10
0
20
0
30
0
70
128
71
51
72
49
73
48
0
VERTEX
8
OBJECT__11
10
0
20
0
30
0
70
128
71
49
72
47
73
46
0
VERTEX
8
OBJECT__11
10
0
20
0
30
0
70
128
71
47
72
45
73
44
0
VERTEX
8
OBJECT__11
10
0
20
0
30
0
70
128
71
45
72
43
73
42
0
VERTEX
8
OBJECT__11
10
0
20
0
30
0
70
128
71
43
72
41
73
40
0
VERTEX
8
OBJECT__11
10
0
20
0
30
0
70
128
71
41
72
39
73
38
0
VERTEX
8
OBJECT__11
10
0
20
0
30
0
70
128
71
39
72
37
73
36
0
VERTEX
8
OBJECT__11
10
0
20
0
30
0
70
128
71
37
72
35
73
34
0
VERTEX
8
OBJECT__11
10
0
20
0
30
0
70
128
71
35
72
33
73
32
0
VERTEX
8
OBJECT__11
10
0
20
0
30
0
70
128
71
33
72
31
73
30
0
VERTEX
8
OBJECT__11
10
0
20
0
30
0
70
128
71
31
72
29
73
28
0
VERTEX
8
OBJECT__11
10
0
20
0
30
0
70
128
71
29
72
27
73
26
0
VERTEX
8
OBJECT__11
10
0
20
0
30
0
70
128
71
27
72
25
73
24
0
VERTEX
8
OBJECT__11
10
0
20
0
30
0
70
128
71
25
72
23
73
22
0
VERTEX
8
OBJECT__11
10
0
20
0
30
0
70
128
71
23
72
21
73
20
0
VERTEX
8
OBJECT__11
10
0
20
0
30
0
70
128
71
21
72
19
73
18
0
VERTEX
8
OBJECT__11
10
0
20
0
30
0
70
128
71
19
72
17
73
16
0
VERTEX
8
OBJECT__11
10
0
20
0
30
0
70
128
71
17
72
15
73
14
0
VERTEX
8
OBJECT__11
10
0
20
0
30
0
70
128
71
15
72
13
73
12
0
VERTEX
8
OBJECT__11
10
0
20
0
30
0
70
128
71
13
72
11
73
10
0
VERTEX
8
OBJECT__11
10
0
20
0
30
0
70
128
71
11
72
9
73
8
0
VERTEX
8
OBJECT__11
10
0
20
0
30
0
70
128
71
9
72
7
73
6
0
VERTEX
8
OBJECT__11
10
0
20
0
30
0
70
128
71
7
72
5
73
4
0
VERTEX
8
OBJECT__11
10
0
20
0
30
0
70
128
71
5
72
3
73
2
0
VERTEX
8
OBJECT__11
10
0
20
0
30
0
70
128
71
3
72
60
73
1
0
VERTEX
8
OBJECT__11
10
0
20
0
30
0
70
128
71
1
72
58
73
109
0
VERTEX
8
OBJECT__11
10
0
20
0
30
0
70
128
71
58
72
56
73
109
0
VERTEX
8
OBJECT__11
10
0
20
0
30
0
70
128
71
56
72
54
73
109
0
VERTEX
8
OBJECT__11
10
0
20
0
30
0
70
128
71
54
72
52
73
109
0
VERTEX
8
OBJECT__11
10
0
20
0
30
0
70
128
71
52
72
50
73
109
0
VERTEX
8
OBJECT__11
10
0
20
0
30
0
70
128
71
50
72
48
73
109
0
VERTEX
8
OBJECT__11
10
0
20
0
30
0
70
128
71
48
72
46
73
109
0
VERTEX
8
OBJECT__11
10
0
20
0
30
0
70
128
71
46
72
44
73
109
0
VERTEX
8
OBJECT__11
10
0
20
0
30
0
70
128
71
44
72
42
73
109
0
VERTEX
8
OBJECT__11
10
0
20
0
30
0
70
128
71
42
72
40
73
109
0
VERTEX
8
OBJECT__11
10
0
20
0
30
0
70
128
71
40
72
38
73
109
0
VERTEX
8
OBJECT__11
10
0
20
0
30
0
70
128
71
38
72
36
73
109
0
VERTEX
8
OBJECT__11
10
0
20
0
30
0
70
128
71
36
72
34
73
109
0
VERTEX
8
OBJECT__11
10
0
20
0
30
0
70
128
71
34
72
32
73
109
0
VERTEX
8
OBJECT__11
10
0
20
0
30
0
70
128
71
32
72
30
73
109
0
VERTEX
8
OBJECT__11
10
0
20
0
30
0
70
128
71
30
72
28
73
109
0
VERTEX
8
OBJECT__11
10
0
20
0
30
0
70
128
71
28
72
26
73
109
0
VERTEX
8
OBJECT__11
10
0
20
0
30
0
70
128
71
26
72
24
73
109
0
VERTEX
8
OBJECT__11
10
0
20
0
30
0
70
128
71
24
72
22
73
109
0
VERTEX
8
OBJECT__11
10
0
20
0
30
0
70
128
71
22
72
20
73
109
0
VERTEX
8
OBJECT__11
10
0
20
0
30
0
70
128
71
20
72
18
73
109
0
VERTEX
8
OBJECT__11
10
0
20
0
30
0
70
128
71
18
72
16
73
109
0
VERTEX
8
OBJECT__11
10
0
20
0
30
0
70
128
71
16
72
14
73
109
0
VERTEX
8
OBJECT__11
10
0
20
0
30
0
70
128
71
14
72
12
73
109
0
VERTEX
8
OBJECT__11
10
0
20
0
30
0
70
128
71
12
72
10
73
109
0
VERTEX
8
OBJECT__11
10
0
20
0
30
0
70
128
71
10
72
8
73
109
0
VERTEX
8
OBJECT__11
10
0
20
0
30
0
70
128
71
8
72
6
73
109
0
VERTEX
8
OBJECT__11
10
0
20
0
30
0
70
128
71
6
72
4
73
109
0
VERTEX
8
OBJECT__11
10
0
20
0
30
0
70
128
71
4
72
2
73
109
0
VERTEX
8
OBJECT__11
10
0
20
0
30
0
70
128
71
2
72
1
73
109
0
SEQEND
8
OBJECT__11
0
POLYLINE
8
OBJECT__12
66
1
70
64
71
69
72
69
62
253
0
VERTEX
8
OBJECT__12
10
79.633003
20
0.000000
30
23.771000
70
192
0
VERTEX
8
OBJECT__12
10
80.028999
20
0.000000
30
22.389000
70
192
0
VERTEX
8
OBJECT__12
10
79.523003
20
5.011000
30
22.243999
70
192
0
VERTEX
8
OBJECT__12
10
78.603996
20
7.104000
30
23.475000
70
192
0
VERTEX
8
OBJECT__12
10
75.607002
20
13.576000
30
22.615999
70
192
0
VERTEX
8
OBJECT__12
10
78.026001
20
9.802000
30
21.813999
70
192
0
VERTEX
8
OBJECT__12
10
78.882004
20
7.064000
30
22.059999
70
192
0
VERTEX
8
OBJECT__12
10
75.605003
20
14.166000
30
21.120001
70
192
0
VERTEX
8
OBJECT__12
10
72.363998
20
17.910000
30
20.191000
70
192
0
VERTEX
8
OBJECT__12
10
75.949997
20
13.544000
30
21.219000
70
192
0
VERTEX
8
OBJECT__12
10
70.910004
20
18.841999
30
21.268999
70
192
0
VERTEX
8
OBJECT__12
10
71.246002
20
18.754999
30
19.870001
70
192
0
VERTEX
8
OBJECT__12
10
68.445999
20
20.871000
30
19.066999
70
192
0
VERTEX
8
OBJECT__12
10
64.930000
20
22.434000
30
19.555000
70
192
0
VERTEX
8
OBJECT__12
10
58.198002
20
24.033001
30
17.624001
70
192
0
VERTEX
8
OBJECT__12
10
64.021004
20
22.920000
30
17.799000
70
192
0
VERTEX
8
OBJECT__12
10
65.283997
20
22.336000
30
18.160999
70
192
0
VERTEX
8
OBJECT__12
10
59.284000
20
23.968000
30
16.440001
70
192
0
VERTEX
8
OBJECT__12
10
58.594002
20
23.968000
30
16.242001
70
192
0
VERTEX
8
OBJECT__12
10
54.441002
20
23.968000
30
15.051000
70
192
0
VERTEX
8
OBJECT__12
10
51.311001
20
23.496000
30
15.650000
70
192
0
VERTEX
8
OBJECT__12
10
44.882999
20
20.871000
30
13.806000
70
192
0
VERTEX
8
OBJECT__12
10
49.703999
20
22.920000
30
13.693000
70
192
0
VERTEX
8
OBJECT__12
10
51.733002
20
23.368999
30
14.275000
70
192
0
VERTEX
8
OBJECT__12
10
45.278999
20
20.871000
30
12.424000
70
192
0
VERTEX
8
OBJECT__12
10
41.361000
20
17.910000
30
11.301000
70
192
0
VERTEX
8
OBJECT__12
10
39.484001
20
16.392000
30
12.258000
70
192
0
VERTEX
8
OBJECT__12
10
35.594002
20
10.457000
30
11.143000
70
192
0
VERTEX
8
OBJECT__12
10
38.120998
20
14.166000
30
10.372000
70
192
0
VERTEX
8
OBJECT__12
10
39.973000
20
16.306000
30
10.903000
70
192
0
VERTEX
8
OBJECT__12
10
35.699001
20
9.802000
30
9.677000
70
192
0
VERTEX
8
OBJECT__12
10
34.202000
20
5.011000
30
9.248000
70
192
0
VERTEX
8
OBJECT__12
10
33.558998
20
3.592000
30
10.559000
70
192
0
VERTEX
8
OBJECT__12
10
36.043999
20
10.424000
30
9.776000
70
192
0
VERTEX
8
OBJECT__12
10
33.558998
20
-3.592000
30
10.559000
70
192
0
VERTEX
8
OBJECT__12
10
33.695999
20
0.000000
30
9.103000
70
192
0
VERTEX
8
OBJECT__12
10
34.057999
20
3.581000
30
9.207000
70
192
0
VERTEX
8
OBJECT__12
10
35.594002
20
-10.457000
30
11.143000
70
192
0
VERTEX
8
OBJECT__12
10
34.202000
20
-5.011000
30
9.248000
70
192
0
VERTEX
8
OBJECT__12
10
34.057999
20
-3.581000
30
9.207000
70
192
0
VERTEX
8
OBJECT__12
10
35.699001
20
-9.802000
30
9.677000
70
192
0
VERTEX
8
OBJECT__12
10
36.043999
20
-10.424000
30
9.776000
70
192
0
VERTEX
8
OBJECT__12
10
38.120998
20
-14.166000
30
10.372000
70
192
0
VERTEX
8
OBJECT__12
10
39.484001
20
-16.392000
30
12.258000
70
192
0
VERTEX
8
OBJECT__12
10
44.882999
20
-20.871000
30
13.806000
70
192
0
VERTEX
8
OBJECT__12
10
41.361000
20
-17.910000
30
11.301000
70
192
0
VERTEX
8
OBJECT__12
10
39.973000
20
-16.306000
30
10.903000
70
192
0
VERTEX
8
OBJECT__12
10
45.278999
20
-20.871000
30
12.424000
70
192
0
VERTEX
8
OBJECT__12
10
49.703999
20
-22.920000
30
13.693000
70
192
0
VERTEX
8
OBJECT__12
10
51.311001
20
-23.496000
30
15.650000
70
192
0
VERTEX
8
OBJECT__12
10
58.198002
20
-24.033001
30
17.624001
70
192
0
VERTEX
8
OBJECT__12
10
54.441002
20
-23.968000
30
15.051000
70
192
0
VERTEX
8
OBJECT__12
10
51.733002
20
-23.368999
30
14.275000
70
192
0
VERTEX
8
OBJECT__12
10
59.284000
20
-23.968000
30
16.440001
70
192
0
VERTEX
8
OBJECT__12
10
64.021004
20
-22.920000
30
17.799000
70
192
0
VERTEX
8
OBJECT__12
10
64.930000
20
-22.434000
30
19.555000
70
192
0
VERTEX
8
OBJECT__12
10
58.594002
20
-23.968000
30
16.242001
70
192
0
VERTEX
8
OBJECT__12
10
70.910004
20
-18.841999
30
21.268999
70
192
0
VERTEX
8
OBJECT__12
10
68.445999
20
-20.871000
30
19.066999
70
192
0
VERTEX
8
OBJECT__12
10
65.283997
20
-22.336000
30
18.160999
70
192
0
VERTEX
8
OBJECT__12
10
75.607002
20
-13.576000
30
22.615999
70
192
0
VERTEX
8
OBJECT__12
10
72.363998
20
-17.910000
30
20.191000
70
192
0
VERTEX
8
OBJECT__12
10
75.605003
20
-14.166000
30
21.120001
70
192
0
VERTEX
8
OBJECT__12
10
71.246002
20
-18.754999
30
19.870001
70
192
0
VERTEX
8
OBJECT__12
10
75.949997
20
-13.544000
30
21.219000
70
192
0
VERTEX
8
OBJECT__12
10
78.026001
20
-9.802000
30
21.813999
70
192
0
VERTEX
8
OBJECT__12
10
78.603996
20
-7.104000
30
23.475000
70
192
0
VERTEX
8
OBJECT__12
10
79.523003
20
-5.011000
30
22.243999
70
192
0
VERTEX
8
OBJECT__12
10
78.882004
20
-7.064000
30
22.059999
70
192
0
VERTEX
8
OBJECT__12
10
0
20
0
30
0
70
128
71
1
72
2
73
3
0
VERTEX
8
OBJECT__12
10
0
20
0
30
0
70
128
71
3
72
4
73
1
0
VERTEX
8
OBJECT__12
10
0
20
0
30
0
70
128
71
5
72
4
73
6
0
VERTEX
8
OBJECT__12
10
0
20
0
30
0
70
128
71
4
72
7
73
6
0
VERTEX
8
OBJECT__12
10
0
20
0
30
0
70
128
71
5
72
8
73
9
0
VERTEX
8
OBJECT__12
10
0
20
0
30
0
70
128
71
5
72
10
73
8
0
VERTEX
8
OBJECT__12
10
0
20
0
30
0
70
128
71
9
72
11
73
5
0
VERTEX
8
OBJECT__12
10
0
20
0
30
0
70
128
71
11
72
12
73
13
0
VERTEX
8
OBJECT__12
10
0
20
0
30
0
70
128
71
13
72
14
73
11
0
VERTEX
8
OBJECT__12
10
0
20
0
30
0
70
128
71
15
72
14
73
16
0
VERTEX
8
OBJECT__12
10
0
20
0
30
0
70
128
71
14
72
17
73
16
0
VERTEX
8
OBJECT__12
10
0
20
0
30
0
70
128
71
16
72
18
73
15
0
VERTEX
8
OBJECT__12
10
0
20
0
30
0
70
128
71
15
72
19
73
20
0
VERTEX
8
OBJECT__12
10
0
20
0
30
0
70
128
71
20
72
21
73
15
0
VERTEX
8
OBJECT__12
10
0
20
0
30
0
70
128
71
22
72
21
73
23
0
VERTEX
8
OBJECT__12
10
0
20
0
30
0
70
128
71
21
72
24
73
23
0
VERTEX
8
OBJECT__12
10
0
20
0
30
0
70
128
71
22
72
25
73
26
0
VERTEX
8
OBJECT__12
10
0
20
0
30
0
70
128
71
26
72
27
73
22
0
VERTEX
8
OBJECT__12
10
0
20
0
30
0
70
128
71
28
72
27
73
29
0
VERTEX
8
OBJECT__12
10
0
20
0
30
0
70
128
71
27
72
30
73
29
0
VERTEX
8
OBJECT__12
10
0
20
0
30
0
70
128
71
28
72
31
73
32
0
VERTEX
8
OBJECT__12
10
0
20
0
30
0
70
128
71
32
72
33
73
28
0
VERTEX
8
OBJECT__12
10
0
20
0
30
0
70
128
71
28
72
34
73
31
0
VERTEX
8
OBJECT__12
10
0
20
0
30
0
70
128
71
35
72
33
73
36
0
VERTEX
8
OBJECT__12
10
0
20
0
30
0
70
128
71
33
72
37
73
36
0
VERTEX
8
OBJECT__12
10
0
20
0
30
0
70
128
71
38
72
35
73
39
0
VERTEX
8
OBJECT__12
10
0
20
0
30
0
70
128
71
35
72
40
73
39
0
VERTEX
8
OBJECT__12
10
0
20
0
30
0
70
128
71
39
72
41
73
38
0
VERTEX
8
OBJECT__12
10
0
20
0
30
0
70
128
71
38
72
42
73
43
0
VERTEX
8
OBJECT__12
10
0
20
0
30
0
70
128
71
43
72
44
73
38
0
VERTEX
8
OBJECT__12
10
0
20
0
30
0
70
128
71
45
72
44
73
46
0
VERTEX
8
OBJECT__12
10
0
20
0
30
0
70
128
71
44
72
47
73
46
0
VERTEX
8
OBJECT__12
10
0
20
0
30
0
70
128
71
45
72
48
73
49
0
VERTEX
8
OBJECT__12
10
0
20
0
30
0
70
128
71
49
72
50
73
45
0
VERTEX
8
OBJECT__12
10
0
20
0
30
0
70
128
71
51
72
50
73
52
0
VERTEX
8
OBJECT__12
10
0
20
0
30
0
70
128
71
50
72
53
73
52
0
VERTEX
8
OBJECT__12
10
0
20
0
30
0
70
128
71
51
72
54
73
55
0
VERTEX
8
OBJECT__12
10
0
20
0
30
0
70
128
71
55
72
56
73
51
0
VERTEX
8
OBJECT__12
10
0
20
0
30
0
70
128
71
51
72
57
73
54
0
VERTEX
8
OBJECT__12
10
0
20
0
30
0
70
128
71
58
72
56
73
59
0
VERTEX
8
OBJECT__12
10
0
20
0
30
0
70
128
71
56
72
60
73
59
0
VERTEX
8
OBJECT__12
10
0
20
0
30
0
70
128
71
61
72
58
73
62
0
VERTEX
8
OBJECT__12
10
0
20
0
30
0
70
128
71
62
72
63
73
61
0
VERTEX
8
OBJECT__12
10
0
20
0
30
0
70
128
71
58
72
64
73
62
0
VERTEX
8
OBJECT__12
10
0
20
0
30
0
70
128
71
61
72
65
73
66
0
VERTEX
8
OBJECT__12
10
0
20
0
30
0
70
128
71
66
72
67
73
61
0
VERTEX
8
OBJECT__12
10
0
20
0
30
0
70
128
71
1
72
67
73
68
0
VERTEX
8
OBJECT__12
10
0
20
0
30
0
70
128
71
67
72
69
73
68
0
VERTEX
8
OBJECT__12
10
0
20
0
30
0
70
128
71
68
72
2
73
1
0
VERTEX
8
OBJECT__12
10
0
20
0
30
0
70
128
71
66
72
69
73
67
0
VERTEX
8
OBJECT__12
10
0
20
0
30
0
70
128
71
63
72
65
73
61
0
VERTEX
8
OBJECT__12
10
0
20
0
30
0
70
128
71
59
72
64
73
58
0
VERTEX
8
OBJECT__12
10
0
20
0
30
0
70
128
71
55
72
60
73
56
0
VERTEX
8
OBJECT__12
10
0
20
0
30
0
70
128
71
52
72
57
73
51
0
VERTEX
8
OBJECT__12
10
0
20
0
30
0
70
128
71
49
72
53
73
50
0
VERTEX
8
OBJECT__12
10
0
20
0
30
0
70
128
71
46
72
48
73
45
0
VERTEX
8
OBJECT__12
10
0
20
0
30
0
70
128
71
43
72
47
73
44
0
VERTEX
8
OBJECT__12
10
0
20
0
30
0
70
128
71
41
72
42
73
38
0
VERTEX
8
OBJECT__12
10
0
20
0
30
0
70
128
71
36
72
40
73
35
0
VERTEX
8
OBJECT__12
10
0
20
0
30
0
70
128
71
32
72
37
73
33
0
VERTEX
8
OBJECT__12
10
0
20
0
30
0
70
128
71
29
72
34
73
28
0
VERTEX
8
OBJECT__12
10
0
20
0
30
0
70
128
71
26
72
30
73
27
0
VERTEX
8
OBJECT__12
10
0
20
0
30
0
70
128
71
23
72
25
73
22
0
VERTEX
8
OBJECT__12
10
0
20
0
30
0
70
128
71
20
72
24
73
21
0
VERTEX
8
OBJECT__12
10
0
20
0
30
0
70
128
71
18
72
19
73
15
0
VERTEX
8
OBJECT__12
10
0
20
0
30
0
70
128
71
13
72
17
73
14
0
VERTEX
8
OBJECT__12
10
0
20
0
30
0
70
128
71
9
72
12
73
11
0
VERTEX
8
OBJECT__12
10
0
20
0
30
0
70
128
71
6
72
10
73
5
0
VERTEX
8
OBJECT__12
10
0
20
0
30
0
70
128
71
3
72
7
73
4
0
SEQEND
8
OBJECT__12
0
POLYLINE
8
OBJECT__14
66
1
70
64
71
35
72
51
62
253
0
VERTEX
8
OBJECT__14
10
57.592999
20
0.000000
30
13.200000
70
192
0
VERTEX
8
OBJECT__14
10
61.136002
20
1.458000
30
14.499000
70
192
0
VERTEX
8
OBJECT__14
10
61.397999
20
0.000000
30
14.575000
70
192
0
VERTEX
8
OBJECT__14
10
60.384998
20
2.720000
30
14.284000
70
192
0
VERTEX
8
OBJECT__14
10
59.247002
20
3.614000
30
13.958000
70
192
0
VERTEX
8
OBJECT__14
10
57.875999
20
4.019000
30
13.565000
70
192
0
VERTEX
8
OBJECT__14
10
56.456001
20
3.883000
30
13.157000
70
192
0
VERTEX
8
OBJECT__14
10
55.179001
20
3.221000
30
12.791000
70
192
0
VERTEX
8
OBJECT__14
10
54.217999
20
2.125000
30
12.516000
70
192
0
VERTEX
8
OBJECT__14
10
53.702999
20
0.742000
30
12.368000
70
192
0
VERTEX
8
OBJECT__14
10
53.702999
20
-0.742000
30
12.368000
70
192
0
VERTEX
8
OBJECT__14
10
54.217999
20
-2.125000
30
12.516000
70
192
0
VERTEX
8
OBJECT__14
10
55.179001
20
-3.221000
30
12.791000
70
192
0
VERTEX
8
OBJECT__14
10
56.456001
20
-3.883000
30
13.157000
70
192
0
VERTEX
8
OBJECT__14
10
57.875999
20
-4.019000
30
13.565000
70
192
0
VERTEX
8
OBJECT__14
10
59.247002
20
-3.614000
30
13.958000
70
192
0
VERTEX
8
OBJECT__14
10
60.384998
20
-2.720000
30
14.284000
70
192
0
VERTEX
8
OBJECT__14
10
61.136002
20
-1.458000
30
14.499000
70
192
0
VERTEX
8
OBJECT__14
10
64.463997
20
2.890000
30
16.299999
70
192
0
VERTEX
8
OBJECT__14
10
64.983002
20
0.000000
30
16.448999
70
192
0
VERTEX
8
OBJECT__14
10
62.976002
20
5.390000
30
15.874000
70
192
0
VERTEX
8
OBJECT__14
10
60.721001
20
7.161000
30
15.227000
70
192
0
VERTEX
8
OBJECT__14
10
58.002998
20
7.966000
30
14.447000
70
192
0
VERTEX
8
OBJECT__14
10
55.188999
20
7.695000
30
13.641000
70
192
0
VERTEX
8
OBJECT__14
10
52.659000
20
6.384000
30
12.915000
70
192
0
VERTEX
8
OBJECT__14
10
50.755001
20
4.211000
30
12.369000
70
192
0
VERTEX
8
OBJECT__14
10
49.734001
20
1.470000
30
12.076000
70
192
0
VERTEX
8
OBJECT__14
10
49.734001
20
-1.470000
30
12.076000
70
192
0
VERTEX
8
OBJECT__14
10
50.755001
20
-4.211000
30
12.369000
70
192
0
VERTEX
8
OBJECT__14
10
52.659000
20
-6.384000
30
12.915000
70
192
0
VERTEX
8
OBJECT__14
10
55.188999
20
-7.695000
30
13.641000
70
192
0
VERTEX
8
OBJECT__14
10
58.002998
20
-7.966000
30
14.447000
70
192
0
VERTEX
8
OBJECT__14
10
60.721001
20
-7.161000
30
15.227000
70
192
0
VERTEX
8
OBJECT__14
10
62.976002
20
-5.390000
30
15.874000
70
192
0
VERTEX
8
OBJECT__14
10
64.463997
20
-2.890000
30
16.299999
70
192
0
VERTEX
8
OBJECT__14
10
0
20
0
30
0
70
128
71
1
72
2
73
3
0
VERTEX
8
OBJECT__14
10
0
20
0
30
0
70
128
71
1
72
4
73
2
0
VERTEX
8
OBJECT__14
10
0
20
0
30
0
70
128
71
1
72
5
73
4
0
VERTEX
8
OBJECT__14
10
0
20
0
30
0
70
128
71
1
72
6
73
5
0
VERTEX
8
OBJECT__14
10
0
20
0
30
0
70
128
71
1
72
7
73
6
0
VERTEX
8
OBJECT__14
10
0
20
0
30
0
70
128
71
1
72
8
73
7
0
VERTEX
8
OBJECT__14
10
0
20
0
30
0
70
128
71
1
72
9
73
8
0
VERTEX
8
OBJECT__14
10
0
20
0
30
0
70
128
71
1
72
10
73
9
0
VERTEX
8
OBJECT__14
10
0
20
0
30
0
70
128
71
1
72
11
73
10
0
VERTEX
8
OBJECT__14
10
0
20
0
30
0
70
128
71
1
72
12
73
11
0
VERTEX
8
OBJECT__14
10
0
20
0
30
0
70
128
71
1
72
13
73
12
0
VERTEX
8
OBJECT__14
10
0
20
0
30
0
70
128
71
1
72
14
73
13
0
VERTEX
8
OBJECT__14
10
0
20
0
30
0
70
128
71
1
72
15
73
14
0
VERTEX
8
OBJECT__14
10
0
20
0
30
0
70
128
71
1
72
16
73
15
0
VERTEX
8
OBJECT__14
10
0
20
0
30
0
70
128
71
1
72
17
73
16
0
VERTEX
8
OBJECT__14
10
0
20
0
30
0
70
128
71
1
72
18
73
17
0
VERTEX
8
OBJECT__14
10
0
20
0
30
0
70
128
71
1
72
3
73
18
0
VERTEX
8
OBJECT__14
10
0
20
0
30
0
70
128
71
3
72
2
73
19
0
VERTEX
8
OBJECT__14
10
0
20
0
30
0
70
128
71
3
72
19
73
20
0
VERTEX
8
OBJECT__14
10
0
20
0
30
0
70
128
71
2
72
4
73
21
0
VERTEX
8
OBJECT__14
10
0
20
0
30
0
70
128
71
2
72
21
73
19
0
VERTEX
8
OBJECT__14
10
0
20
0
30
0
70
128
71
4
72
5
73
22
0
VERTEX
8
OBJECT__14
10
0
20
0
30
0
70
128
71
4
72
22
73
21
0
VERTEX
8
OBJECT__14
10
0
20
0
30
0
70
128
71
5
72
6
73
23
0
VERTEX
8
OBJECT__14
10
0
20
0
30
0
70
128
71
5
72
23
73
22
0
VERTEX
8
OBJECT__14
10
0
20
0
30
0
70
128
71
6
72
7
73
24
0
VERTEX
8
OBJECT__14
10
0
20
0
30
0
70
128
71
6
72
24
73
23
0
VERTEX
8
OBJECT__14
10
0
20
0
30
0
70
128
71
7
72
8
73
25
0
VERTEX
8
OBJECT__14
10
0
20
0
30
0
70
128
71
7
72
25
73
24
0
VERTEX
8
OBJECT__14
10
0
20
0
30
0
70
128
71
8
72
9
73
26
0
VERTEX
8
OBJECT__14
10
0
20
0
30
0
70
128
71
8
72
26
73
25
0
VERTEX
8
OBJECT__14
10
0
20
0
30
0
70
128
71
9
72
10
73
27
0
VERTEX
8
OBJECT__14
10
0
20
0
30
0
70
128
71
9
72
27
73
26
0
VERTEX
8
OBJECT__14
10
0
20
0
30
0
70
128
71
10
72
11
73
28
0
VERTEX
8
OBJECT__14
10
0
20
0
30
0
70
128
71
10
72
28
73
27
0
VERTEX
8
OBJECT__14
10
0
20
0
30
0
70
128
71
11
72
12
73
29
0
VERTEX
8
OBJECT__14
10
0
20
0
30
0
70
128
71
11
72
29
73
28
0
VERTEX
8
OBJECT__14
10
0
20
0
30
0
70
128
71
12
72
13
73
30
0
VERTEX
8
OBJECT__14
10
0
20
0
30
0
70
128
71
12
72
30
73
29
0
VERTEX
8
OBJECT__14
10
0
20
0
30
0
70
128
71
13
72
14
73
31
0
VERTEX
8
OBJECT__14
10
0
20
0
30
0
70
128
71
13
72
31
73
30
0
VERTEX
8
OBJECT__14
10
0
20
0
30
0
70
128
71
14
72
15
73
32
0
VERTEX
8
OBJECT__14
10
0
20
0
30
0
70
128
71
14
72
32
73
31
0
VERTEX
8
OBJECT__14
10
0
20
0
30
0
70
128
71
15
72
16
73
33
0
VERTEX
8
OBJECT__14
10
0
20
0
30
0
70
128
71
15
72
33
73
32
0
VERTEX
8
OBJECT__14
10
0
20
0
30
0
70
128
71
16
72
17
73
34
0
VERTEX
8
OBJECT__14
10
0
20
0
30
0
70
128
71
16
72
34
73
33
0
VERTEX
8
OBJECT__14
10
0
20
0
30
0
70
128
71
17
72
18
73
35
0
VERTEX
8
OBJECT__14
10
0
20
0
30
0
70
128
71
17
72
35
73
34
0
VERTEX
8
OBJECT__14
10
0
20
0
30
0
70
128
71
18
72
3
73
20
0
VERTEX
8
OBJECT__14
10
0
20
0
30
0
70
128
71
18
72
20
73
35
0
SEQEND
8
OBJECT__14
0
POLYLINE
8
OBJECT__16
66
1
70
64
71
20
72
20
62
253
0
VERTEX
8
OBJECT__16
10
63.314999
20
-18.601000
30
21.629000
70
192
0
VERTEX
8
OBJECT__16
10
63.911999
20
-17.966999
30
21.742001
70
192
0
VERTEX
8
OBJECT__16
10
65.070999
20
-18.309000
30
16.280001
70
192
0
VERTEX
8
OBJECT__16
10
64.563004
20
-18.690001
30
16.157000
70
192
0
VERTEX
8
OBJECT__16
10
62.733002
20
-18.688000
30
21.437000
70
192
0
VERTEX
8
OBJECT__16
10
64.018997
20
-17.101000
30
21.645000
70
192
0
VERTEX
8
OBJECT__16
10
63.589001
20
-16.382000
30
21.382000
70
192
0
VERTEX
8
OBJECT__16
10
64.903999
20
-17.701000
30
16.139000
70
192
0
VERTEX
8
OBJECT__16
10
63.929001
20
-17.827000
30
21.726000
70
192
0
VERTEX
8
OBJECT__16
10
62.810001
20
-16.125999
30
21.066999
70
192
0
VERTEX
8
OBJECT__16
10
62.112000
20
-16.409000
30
20.864000
70
192
0
VERTEX
8
OBJECT__16
10
64.292999
20
-17.705000
30
15.928000
70
192
0
VERTEX
8
OBJECT__16
10
63.568001
20
-16.375999
30
21.372999
70
192
0
VERTEX
8
OBJECT__16
10
61.577000
20
-17.198000
30
20.797001
70
192
0
VERTEX
8
OBJECT__16
10
64.082001
20
-18.316000
30
15.939000
70
192
0
VERTEX
8
OBJECT__16
10
62.025002
20
-16.444000
30
20.837999
70
192
0
VERTEX
8
OBJECT__16
10
61.798000
20
-18.284000
30
21.044001
70
192
0
VERTEX
8
OBJECT__16
10
62.490002
20
-18.725000
30
21.357000
70
192
0
VERTEX
8
OBJECT__16
10
61.639999
20
-17.841000
30
20.919001
70
192
0
VERTEX
8
OBJECT__16
10
61.661999
20
-18.056000
30
20.959999
70
192
0
VERTEX
8
OBJECT__16
10
0
20
0
30
0
70
128
71
1
72
2
73
3
0
VERTEX
8
OBJECT__16
10
0
20
0
30
0
70
128
71
3
72
4
73
1
0
VERTEX
8
OBJECT__16
10
0
20
0
30
0
70
128
71
4
72
5
73
1
0
VERTEX
8
OBJECT__16
10
0
20
0
30
0
70
128
71
6
72
7
73
8
0
VERTEX
8
OBJECT__16
10
0
20
0
30
0
70
128
71
8
72
3
73
6
0
VERTEX
8
OBJECT__16
10
0
20
0
30
0
70
128
71
3
72
9
73
6
0
VERTEX
8
OBJECT__16
10
0
20
0
30
0
70
128
71
10
72
11
73
12
0
VERTEX
8
OBJECT__16
10
0
20
0
30
0
70
128
71
8
72
13
73
10
0
VERTEX
8
OBJECT__16
10
0
20
0
30
0
70
128
71
14
72
15
73
12
0
VERTEX
8
OBJECT__16
10
0
20
0
30
0
70
128
71
12
72
11
73
16
0
VERTEX
8
OBJECT__16
10
0
20
0
30
0
70
128
71
12
72
16
73
14
0
VERTEX
8
OBJECT__16
10
0
20
0
30
0
70
128
71
17
72
18
73
4
0
VERTEX
8
OBJECT__16
10
0
20
0
30
0
70
128
71
4
72
15
73
17
0
VERTEX
8
OBJECT__16
10
0
20
0
30
0
70
128
71
15
72
19
73
20
0
VERTEX
8
OBJECT__16
10
0
20
0
30
0
70
128
71
20
72
17
73
15
0
VERTEX
8
OBJECT__16
10
0
20
0
30
0
70
128
71
18
72
5
73
4
0
VERTEX
8
OBJECT__16
10
0
20
0
30
0
70
128
71
14
72
19
73
15
0
VERTEX
8
OBJECT__16
10
0
20
0
30
0
70
128
71
12
72
8
73
10
0
VERTEX
8
OBJECT__16
10
0
20
0
30
0
70
128
71
7
72
13
73
8
0
VERTEX
8
OBJECT__16
10
0
20
0
30
0
70
128
71
2
72
9
73
3
0
SEQEND
8
OBJECT__16
0
POLYLINE
8
OBJECT__17
66
1
70
64
71
13
72
13
62
253
0
VERTEX
8
OBJECT__17
10
64.619003
20
-17.128000
30
15.962000
70
192
0
VERTEX
8
OBJECT__17
10
65.293999
20
-17.421000
30
16.235001
70
192
0
VERTEX
8
OBJECT__17
10
64.903999
20
-17.701000
30
16.139000
70
192
0
VERTEX
8
OBJECT__17
10
64.292999
20
-17.705000
30
15.928000
70
192
0
VERTEX
8
OBJECT__17
10
65.552002
20
-18.136999
30
16.423000
70
192
0
VERTEX
8
OBJECT__17
10
65.070999
20
-18.309000
30
16.280001
70
192
0
VERTEX
8
OBJECT__17
10
65.241997
20
-18.858000
30
16.415001
70
192
0
VERTEX
8
OBJECT__17
10
64.545998
20
-19.160999
30
16.215000
70
192
0
VERTEX
8
OBJECT__17
10
64.563004
20
-18.690001
30
16.157000
70
192
0
VERTEX
8
OBJECT__17
10
63.872002
20
-18.868000
30
15.942000
70
192
0
VERTEX
8
OBJECT__17
10
64.082001
20
-18.316000
30
15.939000
70
192
0
VERTEX
8
OBJECT__17
10
63.613998
20
-18.150999
30
15.754000
70
192
0
VERTEX
8
OBJECT__17
10
63.923000
20
-17.430000
30
15.763000
70
192
0
VERTEX
8
OBJECT__17
10
0
20
0
30
0
70
128
71
1
72
2
73
3
0
VERTEX
8
OBJECT__17
10
0
20
0
30
0
70
128
71
3
72
4
73
1
0
VERTEX
8
OBJECT__17
10
0
20
0
30
0
70
128
71
5
72
6
73
3
0
VERTEX
8
OBJECT__17
10
0
20
0
30
0
70
128
71
7
72
8
73
9
0
VERTEX
8
OBJECT__17
10
0
20
0
30
0
70
128
71
3
72
2
73
5
0
VERTEX
8
OBJECT__17
10
0
20
0
30
0
70
128
71
9
72
6
73
7
0
VERTEX
8
OBJECT__17
10
0
20
0
30
0
70
128
71
10
72
11
73
9
0
VERTEX
8
OBJECT__17
10
0
20
0
30
0
70
128
71
6
72
5
73
7
0
VERTEX
8
OBJECT__17
10
0
20
0
30
0
70
128
71
10
72
12
73
11
0
VERTEX
8
OBJECT__17
10
0
20
0
30
0
70
128
71
12
72
13
73
4
0
VERTEX
8
OBJECT__17
10
0
20
0
30
0
70
128
71
9
72
8
73
10
0
VERTEX
8
OBJECT__17
10
0
20
0
30
0
70
128
71
4
72
13
73
1
0
VERTEX
8
OBJECT__17
10
0
20
0
30
0
70
128
71
4
72
11
73
12
0
SEQEND
8
OBJECT__17
0
POLYLINE
8
OBJECT__19
66
1
70
64
71
16
72
16
62
253
0
VERTEX
8
OBJECT__19
10
65.125999
20
-19.024000
30
17.798000
70
192
0
VERTEX
8
OBJECT__19
10
64.103996
20
-19.469000
30
17.506001
70
192
0
VERTEX
8
OBJECT__19
10
64.545998
20
-19.160999
30
16.215000
70
192
0
VERTEX
8
OBJECT__19
10
65.581001
20
-17.965000
30
17.809999
70
192
0
VERTEX
8
OBJECT__19
10
65.241997
20
-18.858000
30
16.415001
70
192
0
VERTEX
8
OBJECT__19
10
65.552002
20
-18.136999
30
16.423000
70
192
0
VERTEX
8
OBJECT__19
10
65.293999
20
-17.421000
30
16.235001
70
192
0
VERTEX
8
OBJECT__19
10
65.202003
20
-16.912001
30
17.534000
70
192
0
VERTEX
8
OBJECT__19
10
64.619003
20
-17.128000
30
15.962000
70
192
0
VERTEX
8
OBJECT__19
10
64.210999
20
-16.482000
30
17.132999
70
192
0
VERTEX
8
OBJECT__19
10
63.923000
20
-17.430000
30
15.763000
70
192
0
VERTEX
8
OBJECT__19
10
62.733002
20
-17.986000
30
16.827999
70
192
0
VERTEX
8
OBJECT__19
10
63.188000
20
-16.927000
30
16.840000
70
192
0
VERTEX
8
OBJECT__19
10
63.112999
20
-19.039000
30
17.104000
70
192
0
VERTEX
8
OBJECT__19
10
63.613998
20
-18.150999
30
15.754000
70
192
0
VERTEX
8
OBJECT__19
10
63.872002
20
-18.868000
30
15.942000
70
192
0
VERTEX
8
OBJECT__19
10
0
20
0
30
0
70
128
71
1
72
2
73
3
0
VERTEX
8
OBJECT__19
10
0
20
0
30
0
70
128
71
4
72
1
73
5
0
VERTEX
8
OBJECT__19
10
0
20
0
30
0
70
128
71
4
72
6
73
7
0
VERTEX
8
OBJECT__19
10
0
20
0
30
0
70
128
71
8
72
7
73
9
0
VERTEX
8
OBJECT__19
10
0
20
0
30
0
70
128
71
10
72
9
73
11
0
VERTEX
8
OBJECT__19
10
0
20
0
30
0
70
128
71
12
72
13
73
11
0
VERTEX
8
OBJECT__19
10
0
20
0
30
0
70
128
71
14
72
12
73
15
0
VERTEX
8
OBJECT__19
10
0
20
0
30
0
70
128
71
14
72
16
73
3
0
VERTEX
8
OBJECT__19
10
0
20
0
30
0
70
128
71
3
72
2
73
14
0
VERTEX
8
OBJECT__19
10
0
20
0
30
0
70
128
71
15
72
16
73
14
0
VERTEX
8
OBJECT__19
10
0
20
0
30
0
70
128
71
11
72
15
73
12
0
VERTEX
8
OBJECT__19
10
0
20
0
30
0
70
128
71
11
72
13
73
10
0
VERTEX
8
OBJECT__19
10
0
20
0
30
0
70
128
71
9
72
10
73
8
0
VERTEX
8
OBJECT__19
10
0
20
0
30
0
70
128
71
7
72
8
73
4
0
VERTEX
8
OBJECT__19
10
0
20
0
30
0
70
128
71
5
72
6
73
4
0
VERTEX
8
OBJECT__19
10
0
20
0
30
0
70
128
71
3
72
5
73
1
0
SEQEND
8
OBJECT__19
0
POLYLINE
8
OBJECT__20
66
1
70
64
71
20
72
20
62
253
0
VERTEX
8
OBJECT__20
10
44.247002
20
-13.783000
30
15.852000
70
192
0
VERTEX
8
OBJECT__20
10
44.256001
20
-13.345000
30
15.804000
70
192
0
VERTEX
8
OBJECT__20
10
44.549999
20
-13.887000
30
10.288000
70
192
0
VERTEX
8
OBJECT__20
10
44.167000
20
-14.408000
30
10.270000
70
192
0
VERTEX
8
OBJECT__20
10
43.389999
20
-14.532000
30
15.791000
70
192
0
VERTEX
8
OBJECT__20
10
43.693001
20
-14.464000
30
15.835000
70
192
0
VERTEX
8
OBJECT__20
10
44.264000
20
-12.911000
30
15.756000
70
192
0
VERTEX
8
OBJECT__20
10
43.737000
20
-12.229000
30
15.590000
70
192
0
VERTEX
8
OBJECT__20
10
44.186001
20
-13.366000
30
10.169000
70
192
0
VERTEX
8
OBJECT__20
10
43.577000
20
-13.565000
30
10.078000
70
192
0
VERTEX
8
OBJECT__20
10
42.896000
20
-12.037000
30
15.426000
70
192
0
VERTEX
8
OBJECT__20
10
42.111000
20
-12.418000
30
15.336000
70
192
0
VERTEX
8
OBJECT__20
10
43.436001
20
-12.160000
30
15.531000
70
192
0
VERTEX
8
OBJECT__20
10
41.724998
20
-13.206000
30
15.359000
70
192
0
VERTEX
8
OBJECT__20
10
43.566002
20
-14.209000
30
10.141000
70
192
0
VERTEX
8
OBJECT__20
10
42.027000
20
-12.589000
30
15.341000
70
192
0
VERTEX
8
OBJECT__20
10
41.907001
20
-14.056000
30
15.486000
70
192
0
VERTEX
8
OBJECT__20
10
42.845001
20
-14.655000
30
15.713000
70
192
0
VERTEX
8
OBJECT__20
10
42.075001
20
-14.272000
30
15.539000
70
192
0
VERTEX
8
OBJECT__20
10
41.952999
20
-14.115000
30
15.501000
70
192
0
VERTEX
8
OBJECT__20
10
0
20
0
30
0
70
128
71
1
72
2
73
3
0
VERTEX
8
OBJECT__20
10
0
20
0
30
0
70
128
71
4
72
5
73
6
0
VERTEX
8
OBJECT__20
10
0
20
0
30
0
70
128
71
6
72
1
73
4
0
VERTEX
8
OBJECT__20
10
0
20
0
30
0
70
128
71
7
72
8
73
9
0
VERTEX
8
OBJECT__20
10
0
20
0
30
0
70
128
71
9
72
3
73
7
0
VERTEX
8
OBJECT__20
10
0
20
0
30
0
70
128
71
3
72
2
73
7
0
VERTEX
8
OBJECT__20
10
0
20
0
30
0
70
128
71
10
72
11
73
12
0
VERTEX
8
OBJECT__20
10
0
20
0
30
0
70
128
71
11
72
10
73
9
0
VERTEX
8
OBJECT__20
10
0
20
0
30
0
70
128
71
9
72
13
73
11
0
VERTEX
8
OBJECT__20
10
0
20
0
30
0
70
128
71
14
72
15
73
10
0
VERTEX
8
OBJECT__20
10
0
20
0
30
0
70
128
71
10
72
16
73
14
0
VERTEX
8
OBJECT__20
10
0
20
0
30
0
70
128
71
14
72
17
73
15
0
VERTEX
8
OBJECT__20
10
0
20
0
30
0
70
128
71
18
72
5
73
4
0
VERTEX
8
OBJECT__20
10
0
20
0
30
0
70
128
71
15
72
19
73
18
0
VERTEX
8
OBJECT__20
10
0
20
0
30
0
70
128
71
15
72
20
73
19
0
VERTEX
8
OBJECT__20
10
0
20
0
30
0
70
128
71
4
72
15
73
18
0
VERTEX
8
OBJECT__20
10
0
20
0
30
0
70
128
71
17
72
20
73
15
0
VERTEX
8
OBJECT__20
10
0
20
0
30
0
70
128
71
12
72
16
73
10
0
VERTEX
8
OBJECT__20
10
0
20
0
30
0
70
128
71
8
72
13
73
9
0
VERTEX
8
OBJECT__20
10
0
20
0
30
0
70
128
71
3
72
4
73
1
0
SEQEND
8
OBJECT__20
0
POLYLINE
8
OBJECT__21
66
1
70
64
71
13
72
13
62
253
0
VERTEX
8
OBJECT__21
10
44.735001
20
-13.166000
30
10.249000
70
192
0
VERTEX
8
OBJECT__21
10
45.018002
20
-13.887000
30
10.373000
70
192
0
VERTEX
8
OBJECT__21
10
44.549999
20
-13.887000
30
10.288000
70
192
0
VERTEX
8
OBJECT__21
10
44.027000
20
-12.867000
30
10.090000
70
192
0
VERTEX
8
OBJECT__21
10
44.186001
20
-13.366000
30
10.169000
70
192
0
VERTEX
8
OBJECT__21
10
43.577000
20
-13.565000
30
10.078000
70
192
0
VERTEX
8
OBJECT__21
10
44.709999
20
-14.608000
30
10.389000
70
192
0
VERTEX
8
OBJECT__21
10
44.167000
20
-14.408000
30
10.270000
70
192
0
VERTEX
8
OBJECT__21
10
43.000999
20
-13.887000
30
10.006000
70
192
0
VERTEX
8
OBJECT__21
10
43.566002
20
-14.209000
30
10.141000
70
192
0
VERTEX
8
OBJECT__21
10
43.991001
20
-14.907000
30
10.289000
70
192
0
VERTEX
8
OBJECT__21
10
43.283001
20
-14.608000
30
10.130000
70
192
0
VERTEX
8
OBJECT__21
10
43.308998
20
-13.166000
30
9.989000
70
192
0
VERTEX
8
OBJECT__21
10
0
20
0
30
0
70
128
71
1
72
2
73
3
0
VERTEX
8
OBJECT__21
10
0
20
0
30
0
70
128
71
4
72
5
73
6
0
VERTEX
8
OBJECT__21
10
0
20
0
30
0
70
128
71
3
72
5
73
1
0
VERTEX
8
OBJECT__21
10
0
20
0
30
0
70
128
71
7
72
8
73
3
0
VERTEX
8
OBJECT__21
10
0
20
0
30
0
70
128
71
9
72
6
73
10
0
VERTEX
8
OBJECT__21
10
0
20
0
30
0
70
128
71
5
72
4
73
1
0
VERTEX
8
OBJECT__21
10
0
20
0
30
0
70
128
71
7
72
11
73
8
0
VERTEX
8
OBJECT__21
10
0
20
0
30
0
70
128
71
11
72
12
73
10
0
VERTEX
8
OBJECT__21
10
0
20
0
30
0
70
128
71
9
72
13
73
6
0
VERTEX
8
OBJECT__21
10
0
20
0
30
0
70
128
71
3
72
2
73
7
0
VERTEX
8
OBJECT__21
10
0
20
0
30
0
70
128
71
10
72
12
73
9
0
VERTEX
8
OBJECT__21
10
0
20
0
30
0
70
128
71
10
72
8
73
11
0
VERTEX
8
OBJECT__21
10
0
20
0
30
0
70
128
71
6
72
13
73
4
0
SEQEND
8
OBJECT__21
0
POLYLINE
8
OBJECT__23
66
1
70
64
71
16
72
16
62
253
0
VERTEX
8
OBJECT__23
10
44.841999
20
-12.698000
30
11.562000
70
192
0
VERTEX
8
OBJECT__23
10
45.257000
20
-13.758000
30
11.745000
70
192
0
VERTEX
8
OBJECT__23
10
45.018002
20
-13.887000
30
10.373000
70
192
0
VERTEX
8
OBJECT__23
10
43.801998
20
-12.259000
30
11.329000
70
192
0
VERTEX
8
OBJECT__23
10
44.735001
20
-13.166000
30
10.249000
70
192
0
VERTEX
8
OBJECT__23
10
42.745998
20
-12.698000
30
11.181000
70
192
0
VERTEX
8
OBJECT__23
10
44.027000
20
-12.867000
30
10.090000
70
192
0
VERTEX
8
OBJECT__23
10
42.292999
20
-13.758000
30
11.205000
70
192
0
VERTEX
8
OBJECT__23
10
43.308998
20
-13.166000
30
9.989000
70
192
0
VERTEX
8
OBJECT__23
10
42.709000
20
-14.818000
30
11.387000
70
192
0
VERTEX
8
OBJECT__23
10
43.000999
20
-13.887000
30
10.006000
70
192
0
VERTEX
8
OBJECT__23
10
43.283001
20
-14.608000
30
10.130000
70
192
0
VERTEX
8
OBJECT__23
10
43.991001
20
-14.907000
30
10.289000
70
192
0
VERTEX
8
OBJECT__23
10
44.804001
20
-14.818000
30
11.769000
70
192
0
VERTEX
8
OBJECT__23
10
43.749001
20
-15.257000
30
11.620000
70
192
0
VERTEX
8
OBJECT__23
10
44.709999
20
-14.608000
30
10.389000
70
192
0
VERTEX
8
OBJECT__23
10
0
20
0
30
0
70
128
71
1
72
2
73
3
0
VERTEX
8
OBJECT__23
10
0
20
0
30
0
70
128
71
4
72
1
73
5
0
VERTEX
8
OBJECT__23
10
0
20
0
30
0
70
128
71
6
72
4
73
7
0
VERTEX
8
OBJECT__23
10
0
20
0
30
0
70
128
71
8
72
6
73
9
0
VERTEX
8
OBJECT__23
10
0
20
0
30
0
70
128
71
10
72
8
73
11
0
VERTEX
8
OBJECT__23
10
0
20
0
30
0
70
128
71
10
72
12
73
13
0
VERTEX
8
OBJECT__23
10
0
20
0
30
0
70
128
71
14
72
15
73
13
0
VERTEX
8
OBJECT__23
10
0
20
0
30
0
70
128
71
2
72
14
73
16
0
VERTEX
8
OBJECT__23
10
0
20
0
30
0
70
128
71
16
72
3
73
2
0
VERTEX
8
OBJECT__23
10
0
20
0
30
0
70
128
71
13
72
16
73
14
0
VERTEX
8
OBJECT__23
10
0
20
0
30
0
70
128
71
13
72
15
73
10
0
VERTEX
8
OBJECT__23
10
0
20
0
30
0
70
128
71
11
72
12
73
10
0
VERTEX
8
OBJECT__23
10
0
20
0
30
0
70
128
71
9
72
11
73
8
0
VERTEX
8
OBJECT__23
10
0
20
0
30
0
70
128
71
7
72
9
73
6
0
VERTEX
8
OBJECT__23
10
0
20
0
30
0
70
128
71
5
72
7
73
4
0
VERTEX
8
OBJECT__23
10
0
20
0
30
0
70
128
71
3
72
5
73
1
0
SEQEND
8
OBJECT__23
0
POLYLINE
8
OBJECT__24
66
1
70
64
71
16
72
16
62
253
0
VERTEX
8
OBJECT__24
10
57.983002
20
-20.511000
30
15.703000
70
192
0
VERTEX
8
OBJECT__24
10
56.942001
20
-20.948000
30
15.468000
70
192
0
VERTEX
8
OBJECT__24
10
57.319000
20
-20.653999
30
14.154000
70
192
0
VERTEX
8
OBJECT__24
10
58.448002
20
-19.455999
30
15.682000
70
192
0
VERTEX
8
OBJECT__24
10
58.027000
20
-20.357000
30
14.314000
70
192
0
VERTEX
8
OBJECT__24
10
58.064999
20
-18.402000
30
15.418000
70
192
0
VERTEX
8
OBJECT__24
10
58.344002
20
-19.639000
30
14.300000
70
192
0
VERTEX
8
OBJECT__24
10
57.057999
20
-17.965000
30
15.065000
70
192
0
VERTEX
8
OBJECT__24
10
58.083000
20
-18.921000
30
14.120000
70
192
0
VERTEX
8
OBJECT__24
10
56.016998
20
-18.402000
30
14.831000
70
192
0
VERTEX
8
OBJECT__24
10
57.397999
20
-18.624001
30
13.880000
70
192
0
VERTEX
8
OBJECT__24
10
56.688999
20
-18.921000
30
13.720000
70
192
0
VERTEX
8
OBJECT__24
10
56.373001
20
-19.639000
30
13.735000
70
192
0
VERTEX
8
OBJECT__24
10
55.935001
20
-20.511000
30
15.116000
70
192
0
VERTEX
8
OBJECT__24
10
55.551998
20
-19.455999
30
14.852000
70
192
0
VERTEX
8
OBJECT__24
10
56.633999
20
-20.357000
30
13.914000
70
192
0
VERTEX
8
OBJECT__24
10
0
20
0
30
0
70
128
71
1
72
2
73
3
0
VERTEX
8
OBJECT__24
10
0
20
0
30
0
70
128
71
4
72
1
73
5
0
VERTEX
8
OBJECT__24
10
0
20
0
30
0
70
128
71
6
72
4
73
7
0
VERTEX
8
OBJECT__24
10
0
20
0
30
0
70
128
71
8
72
6
73
9
0
VERTEX
8
OBJECT__24
10
0
20
0
30
0
70
128
71
10
72
8
73
11
0
VERTEX
8
OBJECT__24
10
0
20
0
30
0
70
128
71
10
72
12
73
13
0
VERTEX
8
OBJECT__24
10
0
20
0
30
0
70
128
71
14
72
15
73
13
0
VERTEX
8
OBJECT__24
10
0
20
0
30
0
70
128
71
2
72
14
73
16
0
VERTEX
8
OBJECT__24
10
0
20
0
30
0
70
128
71
16
72
3
73
2
0
VERTEX
8
OBJECT__24
10
0
20
0
30
0
70
128
71
13
72
16
73
14
0
VERTEX
8
OBJECT__24
10
0
20
0
30
0
70
128
71
13
72
15
73
10
0
VERTEX
8
OBJECT__24
10
0
20
0
30
0
70
128
71
11
72
12
73
10
0
VERTEX
8
OBJECT__24
10
0
20
0
30
0
70
128
71
9
72
11
73
8
0
VERTEX
8
OBJECT__24
10
0
20
0
30
0
70
128
71
7
72
9
73
6
0
VERTEX
8
OBJECT__24
10
0
20
0
30
0
70
128
71
5
72
7
73
4
0
VERTEX
8
OBJECT__24
10
0
20
0
30
0
70
128
71
3
72
5
73
1
0
SEQEND
8
OBJECT__24
0
POLYLINE
8
OBJECT__25
66
1
70
64
71
13
72
13
62
253
0
VERTEX
8
OBJECT__25
10
57.397999
20
-18.624001
30
13.880000
70
192
0
VERTEX
8
OBJECT__25
10
58.083000
20
-18.921000
30
14.120000
70
192
0
VERTEX
8
OBJECT__25
10
57.686001
20
-19.198999
30
14.047000
70
192
0
VERTEX
8
OBJECT__25
10
57.064999
20
-19.198999
30
13.868000
70
192
0
VERTEX
8
OBJECT__25
10
58.344002
20
-19.639000
30
14.300000
70
192
0
VERTEX
8
OBJECT__25
10
57.855000
20
-19.806999
30
14.184000
70
192
0
VERTEX
8
OBJECT__25
10
58.027000
20
-20.357000
30
14.314000
70
192
0
VERTEX
8
OBJECT__25
10
57.319000
20
-20.653999
30
14.154000
70
192
0
VERTEX
8
OBJECT__25
10
57.337002
20
-20.184000
30
14.091000
70
192
0
VERTEX
8
OBJECT__25
10
56.633999
20
-20.357000
30
13.914000
70
192
0
VERTEX
8
OBJECT__25
10
56.848999
20
-19.806999
30
13.896000
70
192
0
VERTEX
8
OBJECT__25
10
56.373001
20
-19.639000
30
13.735000
70
192
0
VERTEX
8
OBJECT__25
10
56.688999
20
-18.921000
30
13.720000
70
192
0
VERTEX
8
OBJECT__25
10
0
20
0
30
0
70
128
71
1
72
2
73
3
0
VERTEX
8
OBJECT__25
10
0
20
0
30
0
70
128
71
3
72
4
73
1
0
VERTEX
8
OBJECT__25
10
0
20
0
30
0
70
128
71
5
72
6
73
3
0
VERTEX
8
OBJECT__25
10
0
20
0
30
0
70
128
71
7
72
8
73
9
0
VERTEX
8
OBJECT__25
10
0
20
0
30
0
70
128
71
10
72
11
73
9
0
VERTEX
8
OBJECT__25
10
0
20
0
30
0
70
128
71
12
72
13
73
4
0
VERTEX
8
OBJECT__25
10
0
20
0
30
0
70
128
71
3
72
2
73
5
0
VERTEX
8
OBJECT__25
10
0
20
0
30
0
70
128
71
9
72
6
73
7
0
VERTEX
8
OBJECT__25
10
0
20
0
30
0
70
128
71
10
72
12
73
11
0
VERTEX
8
OBJECT__25
10
0
20
0
30
0
70
128
71
4
72
13
73
1
0
VERTEX
8
OBJECT__25
10
0
20
0
30
0
70
128
71
9
72
8
73
10
0
VERTEX
8
OBJECT__25
10
0
20
0
30
0
70
128
71
6
72
5
73
7
0
VERTEX
8
OBJECT__25
10
0
20
0
30
0
70
128
71
4
72
11
73
12
0
SEQEND
8
OBJECT__25
0
POLYLINE
8
OBJECT__27
66
1
70
64
71
20
72
20
62
253
0
VERTEX
8
OBJECT__27
10
57.337002
20
-20.184000
30
14.091000
70
192
0
VERTEX
8
OBJECT__27
10
56.997002
20
-19.396999
30
19.688000
70
192
0
VERTEX
8
OBJECT__27
10
57.011002
20
-19.273001
30
19.672001
70
192
0
VERTEX
8
OBJECT__27
10
56.395000
20
-20.033001
30
19.620001
70
192
0
VERTEX
8
OBJECT__27
10
55.787998
20
-20.125000
30
19.462000
70
192
0
VERTEX
8
OBJECT__27
10
57.097000
20
-18.532000
30
19.573999
70
192
0
VERTEX
8
OBJECT__27
10
56.650002
20
-17.816999
30
19.327999
70
192
0
VERTEX
8
OBJECT__27
10
57.686001
20
-19.198999
30
14.047000
70
192
0
VERTEX
8
OBJECT__27
10
57.855000
20
-19.806999
30
14.184000
70
192
0
VERTEX
8
OBJECT__27
10
55.854000
20
-17.565001
30
19.058001
70
192
0
VERTEX
8
OBJECT__27
10
57.064999
20
-19.198999
30
13.868000
70
192
0
VERTEX
8
OBJECT__27
10
56.644001
20
-17.815001
30
19.326000
70
192
0
VERTEX
8
OBJECT__27
10
54.606998
20
-18.641001
30
18.878000
70
192
0
VERTEX
8
OBJECT__27
10
56.848999
20
-19.806999
30
13.896000
70
192
0
VERTEX
8
OBJECT__27
10
55.160999
20
-17.844999
30
18.906000
70
192
0
VERTEX
8
OBJECT__27
10
55.056000
20
-17.886999
30
18.882999
70
192
0
VERTEX
8
OBJECT__27
10
54.844002
20
-19.724001
30
19.125000
70
192
0
VERTEX
8
OBJECT__27
10
55.555000
20
-20.160000
30
19.400999
70
192
0
VERTEX
8
OBJECT__27
10
54.676998
20
-19.267000
30
19.002001
70
192
0
VERTEX
8
OBJECT__27
10
54.702999
20
-19.497000
30
19.047001
70
192
0
VERTEX
8
OBJECT__27
10
0
20
0
30
0
70
128
71
1
72
2
73
3
0
VERTEX
8
OBJECT__27
10
0
20
0
30
0
70
128
71
1
72
4
73
2
0
VERTEX
8
OBJECT__27
10
0
20
0
30
0
70
128
71
1
72
5
73
4
0
VERTEX
8
OBJECT__27
10
0
20
0
30
0
70
128
71
6
72
7
73
8
0
VERTEX
8
OBJECT__27
10
0
20
0
30
0
70
128
71
8
72
9
73
6
0
VERTEX
8
OBJECT__27
10
0
20
0
30
0
70
128
71
9
72
3
73
6
0
VERTEX
8
OBJECT__27
10
0
20
0
30
0
70
128
71
10
72
11
73
8
0
VERTEX
8
OBJECT__27
10
0
20
0
30
0
70
128
71
8
72
12
73
10
0
VERTEX
8
OBJECT__27
10
0
20
0
30
0
70
128
71
13
72
14
73
11
0
VERTEX
8
OBJECT__27
10
0
20
0
30
0
70
128
71
11
72
15
73
16
0
VERTEX
8
OBJECT__27
10
0
20
0
30
0
70
128
71
11
72
16
73
13
0
VERTEX
8
OBJECT__27
10
0
20
0
30
0
70
128
71
17
72
18
73
1
0
VERTEX
8
OBJECT__27
10
0
20
0
30
0
70
128
71
1
72
14
73
17
0
VERTEX
8
OBJECT__27
10
0
20
0
30
0
70
128
71
14
72
19
73
20
0
VERTEX
8
OBJECT__27
10
0
20
0
30
0
70
128
71
20
72
17
73
14
0
VERTEX
8
OBJECT__27
10
0
20
0
30
0
70
128
71
18
72
5
73
1
0
VERTEX
8
OBJECT__27
10
0
20
0
30
0
70
128
71
13
72
19
73
14
0
VERTEX
8
OBJECT__27
10
0
20
0
30
0
70
128
71
10
72
15
73
11
0
VERTEX
8
OBJECT__27
10
0
20
0
30
0
70
128
71
7
72
12
73
8
0
VERTEX
8
OBJECT__27
10
0
20
0
30
0
70
128
71
3
72
9
73
1
0
SEQEND
8
OBJECT__27
0
POLYLINE
8
OBJECT__28
66
1
70
64
71
8
72
6
62
253
0
VERTEX
8
OBJECT__28
10
46.826000
20
2.439000
30
9.981000
70
192
0
VERTEX
8
OBJECT__28
10
45.112000
20
3.163000
30
9.625000
70
192
0
VERTEX
8
OBJECT__28
10
45.820000
20
3.464000
30
9.780000
70
192
0
VERTEX
8
OBJECT__28
10
45.826000
20
1.414000
30
9.753000
70
192
0
VERTEX
8
OBJECT__28
10
45.117001
20
1.714000
30
9.605000
70
192
0
VERTEX
8
OBJECT__28
10
44.820999
20
2.439000
30
9.552000
70
192
0
VERTEX
8
OBJECT__28
10
46.529999
20
3.163000
30
9.928000
70
192
0
VERTEX
8
OBJECT__28
10
46.534000
20
1.714000
30
9.909000
70
192
0
VERTEX
8
OBJECT__28
10
0
20
0
30
0
70
128
71
1
72
2
73
3
0
VERTEX
8
OBJECT__28
10
0
20
0
30
0
70
128
71
4
72
5
73
6
0
VERTEX
8
OBJECT__28
10
0
20
0
30
0
70
128
71
3
72
7
73
1
0
VERTEX
8
OBJECT__28
10
0
20
0
30
0
70
128
71
2
72
8
73
4
0
VERTEX
8
OBJECT__28
10
0
20
0
30
0
70
128
71
6
72
2
73
4
0
VERTEX
8
OBJECT__28
10
0
20
0
30
0
70
128
71
1
72
8
73
2
0
SEQEND
8
OBJECT__28
0
POLYLINE
8
OBJECT__29
66
1
70
64
71
16
72
16
62
253
0
VERTEX
8
OBJECT__29
10
44.330002
20
3.606000
30
11.064000
70
192
0
VERTEX
8
OBJECT__29
10
45.112000
20
3.163000
30
9.625000
70
192
0
VERTEX
8
OBJECT__29
10
44.820999
20
2.439000
30
9.552000
70
192
0
VERTEX
8
OBJECT__29
10
45.491001
20
4.098000
30
11.319000
70
192
0
VERTEX
8
OBJECT__29
10
45.820000
20
3.464000
30
9.780000
70
192
0
VERTEX
8
OBJECT__29
10
46.654999
20
3.606000
30
11.561000
70
192
0
VERTEX
8
OBJECT__29
10
46.529999
20
3.163000
30
9.928000
70
192
0
VERTEX
8
OBJECT__29
10
47.139999
20
2.417000
30
11.648000
70
192
0
VERTEX
8
OBJECT__29
10
46.826000
20
2.439000
30
9.981000
70
192
0
VERTEX
8
OBJECT__29
10
46.661999
20
1.229000
30
11.530000
70
192
0
VERTEX
8
OBJECT__29
10
46.534000
20
1.714000
30
9.909000
70
192
0
VERTEX
8
OBJECT__29
10
45.500999
20
0.736000
30
11.274000
70
192
0
VERTEX
8
OBJECT__29
10
45.826000
20
1.414000
30
9.753000
70
192
0
VERTEX
8
OBJECT__29
10
44.337002
20
1.229000
30
11.032000
70
192
0
VERTEX
8
OBJECT__29
10
45.117001
20
1.714000
30
9.605000
70
192
0
VERTEX
8
OBJECT__29
10
43.852001
20
2.417000
30
10.945000
70
192
0
VERTEX
8
OBJECT__29
10
0
20
0
30
0
70
128
71
1
72
2
73
3
0
VERTEX
8
OBJECT__29
10
0
20
0
30
0
70
128
71
1
72
4
73
5
0
VERTEX
8
OBJECT__29
10
0
20
0
30
0
70
128
71
4
72
6
73
7
0
VERTEX
8
OBJECT__29
10
0
20
0
30
0
70
128
71
6
72
8
73
9
0
VERTEX
8
OBJECT__29
10
0
20
0
30
0
70
128
71
8
72
10
73
11
0
VERTEX
8
OBJECT__29
10
0
20
0
30
0
70
128
71
12
72
13
73
11
0
VERTEX
8
OBJECT__29
10
0
20
0
30
0
70
128
71
12
72
14
73
15
0
VERTEX
8
OBJECT__29
10
0
20
0
30
0
70
128
71
14
72
16
73
3
0
VERTEX
8
OBJECT__29
10
0
20
0
30
0
70
128
71
3
72
15
73
14
0
VERTEX
8
OBJECT__29
10
0
20
0
30
0
70
128
71
15
72
13
73
12
0
VERTEX
8
OBJECT__29
10
0
20
0
30
0
70
128
71
11
72
10
73
12
0
VERTEX
8
OBJECT__29
10
0
20
0
30
0
70
128
71
11
72
9
73
8
0
VERTEX
8
OBJECT__29
10
0
20
0
30
0
70
128
71
9
72
7
73
6
0
VERTEX
8
OBJECT__29
10
0
20
0
30
0
70
128
71
7
72
5
73
4
0
VERTEX
8
OBJECT__29
10
0
20
0
30
0
70
128
71
5
72
2
73
1
0
VERTEX
8
OBJECT__29
10
0
20
0
30
0
70
128
71
3
72
16
73
1
0
SEQEND
8
OBJECT__29
0
POLYLINE
8
OBJECT__31
66
1
70
64
71
20
72
20
62
253
0
VERTEX
8
OBJECT__31
10
56.680000
20
17.841000
30
19.341000
70
192
0
VERTEX
8
OBJECT__31
10
57.868000
20
19.471001
30
14.138000
70
192
0
VERTEX
8
OBJECT__31
10
57.379002
20
19.094999
30
13.943000
70
192
0
VERTEX
8
OBJECT__31
10
55.907001
20
17.569000
30
19.073999
70
192
0
VERTEX
8
OBJECT__31
10
56.979000
20
19.433001
30
19.688999
70
192
0
VERTEX
8
OBJECT__31
10
57.652000
20
20.080000
30
14.166000
70
192
0
VERTEX
8
OBJECT__31
10
57.054001
20
18.483000
30
19.554001
70
192
0
VERTEX
8
OBJECT__31
10
57.104000
20
18.570999
30
19.583000
70
192
0
VERTEX
8
OBJECT__31
10
55.516998
20
20.152000
30
19.388000
70
192
0
VERTEX
8
OBJECT__31
10
57.030998
20
20.080000
30
13.987000
70
192
0
VERTEX
8
OBJECT__31
10
56.518002
20
19.893000
30
19.632999
70
192
0
VERTEX
8
OBJECT__31
10
56.359001
20
20.051001
30
19.613001
70
192
0
VERTEX
8
OBJECT__31
10
54.576000
20
18.875999
30
18.908001
70
192
0
VERTEX
8
OBJECT__31
10
54.723999
20
18.490999
30
18.886999
70
192
0
VERTEX
8
OBJECT__31
10
56.862000
20
19.471001
30
13.850000
70
192
0
VERTEX
8
OBJECT__31
10
55.092999
20
19.872999
30
19.221001
70
192
0
VERTEX
8
OBJECT__31
10
54.820999
20
19.694000
30
19.113001
70
192
0
VERTEX
8
OBJECT__31
10
55.087002
20
17.861000
30
18.886999
70
192
0
VERTEX
8
OBJECT__31
10
55.893002
20
17.563999
30
19.069000
70
192
0
VERTEX
8
OBJECT__31
10
54.889999
20
18.056999
30
18.863001
70
192
0
VERTEX
8
OBJECT__31
10
0
20
0
30
0
70
128
71
1
72
2
73
3
0
VERTEX
8
OBJECT__31
10
0
20
0
30
0
70
128
71
3
72
4
73
1
0
VERTEX
8
OBJECT__31
10
0
20
0
30
0
70
128
71
5
72
6
73
2
0
VERTEX
8
OBJECT__31
10
0
20
0
30
0
70
128
71
2
72
7
73
8
0
VERTEX
8
OBJECT__31
10
0
20
0
30
0
70
128
71
2
72
8
73
5
0
VERTEX
8
OBJECT__31
10
0
20
0
30
0
70
128
71
9
72
10
73
6
0
VERTEX
8
OBJECT__31
10
0
20
0
30
0
70
128
71
6
72
11
73
12
0
VERTEX
8
OBJECT__31
10
0
20
0
30
0
70
128
71
6
72
12
73
9
0
VERTEX
8
OBJECT__31
10
0
20
0
30
0
70
128
71
13
72
14
73
15
0
VERTEX
8
OBJECT__31
10
0
20
0
30
0
70
128
71
10
72
16
73
17
0
VERTEX
8
OBJECT__31
10
0
20
0
30
0
70
128
71
17
72
13
73
10
0
VERTEX
8
OBJECT__31
10
0
20
0
30
0
70
128
71
18
72
19
73
3
0
VERTEX
8
OBJECT__31
10
0
20
0
30
0
70
128
71
3
72
15
73
18
0
VERTEX
8
OBJECT__31
10
0
20
0
30
0
70
128
71
15
72
14
73
20
0
VERTEX
8
OBJECT__31
10
0
20
0
30
0
70
128
71
20
72
18
73
15
0
VERTEX
8
OBJECT__31
10
0
20
0
30
0
70
128
71
19
72
4
73
3
0
VERTEX
8
OBJECT__31
10
0
20
0
30
0
70
128
71
15
72
10
73
13
0
VERTEX
8
OBJECT__31
10
0
20
0
30
0
70
128
71
9
72
16
73
10
0
VERTEX
8
OBJECT__31
10
0
20
0
30
0
70
128
71
5
72
11
73
6
0
VERTEX
8
OBJECT__31
10
0
20
0
30
0
70
128
71
1
72
7
73
2
0
SEQEND
8
OBJECT__31
0
POLYLINE
8
OBJECT__32
66
1
70
64
71
13
72
13
62
253
0
VERTEX
8
OBJECT__32
10
58.083000
20
18.921000
30
14.120000
70
192
0
VERTEX
8
OBJECT__32
10
57.397999
20
18.624001
30
13.880000
70
192
0
VERTEX
8
OBJECT__32
10
57.379002
20
19.094999
30
13.943000
70
192
0
VERTEX
8
OBJECT__32
10
57.319000
20
20.653999
30
14.154000
70
192
0
VERTEX
8
OBJECT__32
10
57.652000
20
20.080000
30
14.166000
70
192
0
VERTEX
8
OBJECT__32
10
57.030998
20
20.080000
30
13.987000
70
192
0
VERTEX
8
OBJECT__32
10
58.344002
20
19.639000
30
14.300000
70
192
0
VERTEX
8
OBJECT__32
10
57.868000
20
19.471001
30
14.138000
70
192
0
VERTEX
8
OBJECT__32
10
58.027000
20
20.357000
30
14.314000
70
192
0
VERTEX
8
OBJECT__32
10
56.688999
20
18.921000
30
13.720000
70
192
0
VERTEX
8
OBJECT__32
10
56.862000
20
19.471001
30
13.850000
70
192
0
VERTEX
8
OBJECT__32
10
56.633999
20
20.357000
30
13.914000
70
192
0
VERTEX
8
OBJECT__32
10
56.373001
20
19.639000
30
13.735000
70
192
0
VERTEX
8
OBJECT__32
10
0
20
0
30
0
70
128
71
1
72
2
73
3
0
VERTEX
8
OBJECT__32
10
0
20
0
30
0
70
128
71
4
72
5
73
6
0
VERTEX
8
OBJECT__32
10
0
20
0
30
0
70
128
71
7
72
8
73
5
0
VERTEX
8
OBJECT__32
10
0
20
0
30
0
70
128
71
3
72
8
73
1
0
VERTEX
8
OBJECT__32
10
0
20
0
30
0
70
128
71
4
72
9
73
5
0
VERTEX
8
OBJECT__32
10
0
20
0
30
0
70
128
71
8
72
7
73
1
0
VERTEX
8
OBJECT__32
10
0
20
0
30
0
70
128
71
5
72
9
73
7
0
VERTEX
8
OBJECT__32
10
0
20
0
30
0
70
128
71
10
72
11
73
3
0
VERTEX
8
OBJECT__32
10
0
20
0
30
0
70
128
71
6
72
12
73
4
0
VERTEX
8
OBJECT__32
10
0
20
0
30
0
70
128
71
10
72
13
73
11
0
VERTEX
8
OBJECT__32
10
0
20
0
30
0
70
128
71
3
72
2
73
10
0
VERTEX
8
OBJECT__32
10
0
20
0
30
0
70
128
71
6
72
11
73
12
0
VERTEX
8
OBJECT__32
10
0
20
0
30
0
70
128
71
11
72
13
73
12
0
SEQEND
8
OBJECT__32
0
POLYLINE
8
OBJECT__34
66
1
70
64
71
16
72
16
62
253
0
VERTEX
8
OBJECT__34
10
58.064999
20
18.402000
30
15.418000
70
192
0
VERTEX
8
OBJECT__34
10
57.057999
20
17.965000
30
15.065000
70
192
0
VERTEX
8
OBJECT__34
10
57.397999
20
18.624001
30
13.880000
70
192
0
VERTEX
8
OBJECT__34
10
58.083000
20
18.921000
30
14.120000
70
192
0
VERTEX
8
OBJECT__34
10
58.344002
20
19.639000
30
14.300000
70
192
0
VERTEX
8
OBJECT__34
10
57.983002
20
20.511000
30
15.703000
70
192
0
VERTEX
8
OBJECT__34
10
58.448002
20
19.455999
30
15.682000
70
192
0
VERTEX
8
OBJECT__34
10
56.942001
20
20.948000
30
15.468000
70
192
0
VERTEX
8
OBJECT__34
10
58.027000
20
20.357000
30
14.314000
70
192
0
VERTEX
8
OBJECT__34
10
55.935001
20
20.511000
30
15.116000
70
192
0
VERTEX
8
OBJECT__34
10
57.319000
20
20.653999
30
14.154000
70
192
0
VERTEX
8
OBJECT__34
10
55.551998
20
19.455999
30
14.852000
70
192
0
VERTEX
8
OBJECT__34
10
56.633999
20
20.357000
30
13.914000
70
192
0
VERTEX
8
OBJECT__34
10
56.016998
20
18.402000
30
14.831000
70
192
0
VERTEX
8
OBJECT__34
10
56.373001
20
19.639000
30
13.735000
70
192
0
VERTEX
8
OBJECT__34
10
56.688999
20
18.921000
30
13.720000
70
192
0
VERTEX
8
OBJECT__34
10
0
20
0
30
0
70
128
71
1
72
2
73
3
0
VERTEX
8
OBJECT__34
10
0
20
0
30
0
70
128
71
1
72
4
73
5
0
VERTEX
8
OBJECT__34
10
0
20
0
30
0
70
128
71
6
72
7
73
5
0
VERTEX
8
OBJECT__34
10
0
20
0
30
0
70
128
71
8
72
6
73
9
0
VERTEX
8
OBJECT__34
10
0
20
0
30
0
70
128
71
10
72
8
73
11
0
VERTEX
8
OBJECT__34
10
0
20
0
30
0
70
128
71
12
72
10
73
13
0
VERTEX
8
OBJECT__34
10
0
20
0
30
0
70
128
71
14
72
12
73
15
0
VERTEX
8
OBJECT__34
10
0
20
0
30
0
70
128
71
2
72
14
73
16
0
VERTEX
8
OBJECT__34
10
0
20
0
30
0
70
128
71
16
72
3
73
2
0
VERTEX
8
OBJECT__34
10
0
20
0
30
0
70
128
71
15
72
16
73
14
0
VERTEX
8
OBJECT__34
10
0
20
0
30
0
70
128
71
13
72
15
73
12
0
VERTEX
8
OBJECT__34
10
0
20
0
30
0
70
128
71
11
72
13
73
10
0
VERTEX
8
OBJECT__34
10
0
20
0
30
0
70
128
71
9
72
11
73
8
0
VERTEX
8
OBJECT__34
10
0
20
0
30
0
70
128
71
5
72
9
73
6
0
VERTEX
8
OBJECT__34
10
0
20
0
30
0
70
128
71
5
72
7
73
1
0
VERTEX
8
OBJECT__34
10
0
20
0
30
0
70
128
71
3
72
4
73
1
0
SEQEND
8
OBJECT__34
0
POLYLINE
8
OBJECT__35
66
1
70
64
71
20
72
20
62
253
0
VERTEX
8
OBJECT__35
10
43.837002
20
12.300000
30
15.614000
70
192
0
VERTEX
8
OBJECT__35
10
44.297001
20
13.029000
30
15.775000
70
192
0
VERTEX
8
OBJECT__35
10
44.549999
20
13.887000
30
10.288000
70
192
0
VERTEX
8
OBJECT__35
10
44.186001
20
13.366000
30
10.169000
70
192
0
VERTEX
8
OBJECT__35
10
43.428001
20
12.164000
30
15.530000
70
192
0
VERTEX
8
OBJECT__35
10
44.167000
20
14.408000
30
10.270000
70
192
0
VERTEX
8
OBJECT__35
10
44.199001
20
13.898000
30
15.856000
70
192
0
VERTEX
8
OBJECT__35
10
43.584999
20
14.525000
30
15.823000
70
192
0
VERTEX
8
OBJECT__35
10
44.262001
20
13.339000
30
15.804000
70
192
0
VERTEX
8
OBJECT__35
10
43.566002
20
14.209000
30
10.141000
70
192
0
VERTEX
8
OBJECT__35
10
42.723999
20
14.635000
30
15.690000
70
192
0
VERTEX
8
OBJECT__35
10
41.993999
20
14.180000
30
15.515000
70
192
0
VERTEX
8
OBJECT__35
10
43.398998
20
14.548000
30
15.794000
70
192
0
VERTEX
8
OBJECT__35
10
41.714001
20
13.360000
30
15.375000
70
192
0
VERTEX
8
OBJECT__35
10
41.993999
20
12.572000
30
15.333000
70
192
0
VERTEX
8
OBJECT__35
10
43.577000
20
13.565000
30
10.078000
70
192
0
VERTEX
8
OBJECT__35
10
41.971001
20
14.111000
30
15.503000
70
192
0
VERTEX
8
OBJECT__35
10
43.019001
20
12.028000
30
15.445000
70
192
0
VERTEX
8
OBJECT__35
10
42.202999
20
12.334000
30
15.342000
70
192
0
VERTEX
8
OBJECT__35
10
42.007999
20
12.533000
30
15.331000
70
192
0
VERTEX
8
OBJECT__35
10
0
20
0
30
0
70
128
71
1
72
2
73
3
0
VERTEX
8
OBJECT__35
10
0
20
0
30
0
70
128
71
3
72
4
73
1
0
VERTEX
8
OBJECT__35
10
0
20
0
30
0
70
128
71
4
72
5
73
1
0
VERTEX
8
OBJECT__35
10
0
20
0
30
0
70
128
71
6
72
7
73
8
0
VERTEX
8
OBJECT__35
10
0
20
0
30
0
70
128
71
7
72
6
73
3
0
VERTEX
8
OBJECT__35
10
0
20
0
30
0
70
128
71
3
72
9
73
7
0
VERTEX
8
OBJECT__35
10
0
20
0
30
0
70
128
71
10
72
11
73
12
0
VERTEX
8
OBJECT__35
10
0
20
0
30
0
70
128
71
11
72
10
73
6
0
VERTEX
8
OBJECT__35
10
0
20
0
30
0
70
128
71
6
72
13
73
11
0
VERTEX
8
OBJECT__35
10
0
20
0
30
0
70
128
71
14
72
15
73
16
0
VERTEX
8
OBJECT__35
10
0
20
0
30
0
70
128
71
10
72
17
73
14
0
VERTEX
8
OBJECT__35
10
0
20
0
30
0
70
128
71
16
72
18
73
5
0
VERTEX
8
OBJECT__35
10
0
20
0
30
0
70
128
71
16
72
19
73
18
0
VERTEX
8
OBJECT__35
10
0
20
0
30
0
70
128
71
16
72
15
73
20
0
VERTEX
8
OBJECT__35
10
0
20
0
30
0
70
128
71
20
72
19
73
16
0
VERTEX
8
OBJECT__35
10
0
20
0
30
0
70
128
71
5
72
4
73
16
0
VERTEX
8
OBJECT__35
10
0
20
0
30
0
70
128
71
16
72
10
73
14
0
VERTEX
8
OBJECT__35
10
0
20
0
30
0
70
128
71
12
72
17
73
10
0
VERTEX
8
OBJECT__35
10
0
20
0
30
0
70
128
71
8
72
13
73
6
0
VERTEX
8
OBJECT__35
10
0
20
0
30
0
70
128
71
2
72
9
73
3
0
SEQEND
8
OBJECT__35
0
POLYLINE
8
OBJECT__36
66
1
70
64
71
13
72
13
62
253
0
VERTEX
8
OBJECT__36
10
44.709999
20
14.608000
30
10.389000
70
192
0
VERTEX
8
OBJECT__36
10
45.018002
20
13.887000
30
10.373000
70
192
0
VERTEX
8
OBJECT__36
10
44.549999
20
13.887000
30
10.288000
70
192
0
VERTEX
8
OBJECT__36
10
44.735001
20
13.166000
30
10.249000
70
192
0
VERTEX
8
OBJECT__36
10
44.186001
20
13.366000
30
10.169000
70
192
0
VERTEX
8
OBJECT__36
10
43.000999
20
13.887000
30
10.006000
70
192
0
VERTEX
8
OBJECT__36
10
43.566002
20
14.209000
30
10.141000
70
192
0
VERTEX
8
OBJECT__36
10
43.577000
20
13.565000
30
10.078000
70
192
0
VERTEX
8
OBJECT__36
10
44.167000
20
14.408000
30
10.270000
70
192
0
VERTEX
8
OBJECT__36
10
44.027000
20
12.867000
30
10.090000
70
192
0
VERTEX
8
OBJECT__36
10
43.308998
20
13.166000
30
9.989000
70
192
0
VERTEX
8
OBJECT__36
10
43.283001
20
14.608000
30
10.130000
70
192
0
VERTEX
8
OBJECT__36
10
43.991001
20
14.907000
30
10.289000
70
192
0
VERTEX
8
OBJECT__36
10
0
20
0
30
0
70
128
71
1
72
2
73
3
0
VERTEX
8
OBJECT__36
10
0
20
0
30
0
70
128
71
4
72
5
73
3
0
VERTEX
8
OBJECT__36
10
0
20
0
30
0
70
128
71
6
72
7
73
8
0
VERTEX
8
OBJECT__36
10
0
20
0
30
0
70
128
71
3
72
9
73
1
0
VERTEX
8
OBJECT__36
10
0
20
0
30
0
70
128
71
4
72
10
73
5
0
VERTEX
8
OBJECT__36
10
0
20
0
30
0
70
128
71
10
72
11
73
8
0
VERTEX
8
OBJECT__36
10
0
20
0
30
0
70
128
71
6
72
12
73
7
0
VERTEX
8
OBJECT__36
10
0
20
0
30
0
70
128
71
3
72
2
73
4
0
VERTEX
8
OBJECT__36
10
0
20
0
30
0
70
128
71
8
72
11
73
6
0
VERTEX
8
OBJECT__36
10
0
20
0
30
0
70
128
71
13
72
9
73
7
0
VERTEX
8
OBJECT__36
10
0
20
0
30
0
70
128
71
8
72
5
73
10
0
VERTEX
8
OBJECT__36
10
0
20
0
30
0
70
128
71
9
72
13
73
1
0
VERTEX
8
OBJECT__36
10
0
20
0
30
0
70
128
71
7
72
12
73
13
0
SEQEND
8
OBJECT__36
0
POLYLINE
8
OBJECT__38
66
1
70
64
71
16
72
16
62
253
0
VERTEX
8
OBJECT__38
10
44.804001
20
14.818000
30
11.769000
70
192
0
VERTEX
8
OBJECT__38
10
45.257000
20
13.758000
30
11.745000
70
192
0
VERTEX
8
OBJECT__38
10
45.018002
20
13.887000
30
10.373000
70
192
0
VERTEX
8
OBJECT__38
10
44.709999
20
14.608000
30
10.389000
70
192
0
VERTEX
8
OBJECT__38
10
43.991001
20
14.907000
30
10.289000
70
192
0
VERTEX
8
OBJECT__38
10
42.709000
20
14.818000
30
11.387000
70
192
0
VERTEX
8
OBJECT__38
10
43.749001
20
15.257000
30
11.620000
70
192
0
VERTEX
8
OBJECT__38
10
43.283001
20
14.608000
30
10.130000
70
192
0
VERTEX
8
OBJECT__38
10
43.000999
20
13.887000
30
10.006000
70
192
0
VERTEX
8
OBJECT__38
10
42.292999
20
13.758000
30
11.205000
70
192
0
VERTEX
8
OBJECT__38
10
43.308998
20
13.166000
30
9.989000
70
192
0
VERTEX
8
OBJECT__38
10
42.745998
20
12.698000
30
11.181000
70
192
0
VERTEX
8
OBJECT__38
10
44.027000
20
12.867000
30
10.090000
70
192
0
VERTEX
8
OBJECT__38
10
43.801998
20
12.259000
30
11.329000
70
192
0
VERTEX
8
OBJECT__38
10
44.735001
20
13.166000
30
10.249000
70
192
0
VERTEX
8
OBJECT__38
10
44.841999
20
12.698000
30
11.562000
70
192
0
VERTEX
8
OBJECT__38
10
0
20
0
30
0
70
128
71
1
72
2
73
3
0
VERTEX
8
OBJECT__38
10
0
20
0
30
0
70
128
71
1
72
4
73
5
0
VERTEX
8
OBJECT__38
10
0
20
0
30
0
70
128
71
6
72
7
73
5
0
VERTEX
8
OBJECT__38
10
0
20
0
30
0
70
128
71
6
72
8
73
9
0
VERTEX
8
OBJECT__38
10
0
20
0
30
0
70
128
71
10
72
9
73
11
0
VERTEX
8
OBJECT__38
10
0
20
0
30
0
70
128
71
12
72
11
73
13
0
VERTEX
8
OBJECT__38
10
0
20
0
30
0
70
128
71
14
72
13
73
15
0
VERTEX
8
OBJECT__38
10
0
20
0
30
0
70
128
71
16
72
15
73
3
0
VERTEX
8
OBJECT__38
10
0
20
0
30
0
70
128
71
3
72
2
73
16
0
VERTEX
8
OBJECT__38
10
0
20
0
30
0
70
128
71
15
72
16
73
14
0
VERTEX
8
OBJECT__38
10
0
20
0
30
0
70
128
71
13
72
14
73
12
0
VERTEX
8
OBJECT__38
10
0
20
0
30
0
70
128
71
11
72
12
73
10
0
VERTEX
8
OBJECT__38
10
0
20
0
30
0
70
128
71
9
72
10
73
6
0
VERTEX
8
OBJECT__38
10
0
20
0
30
0
70
128
71
5
72
8
73
6
0
VERTEX
8
OBJECT__38
10
0
20
0
30
0
70
128
71
5
72
7
73
1
0
VERTEX
8
OBJECT__38
10
0
20
0
30
0
70
128
71
3
72
4
73
1
0
SEQEND
8
OBJECT__38
0
POLYLINE
8
OBJECT__39
66
1
70
64
71
8
72
6
62
253
0
VERTEX
8
OBJECT__39
10
68.274002
20
7.669000
30
16.277000
70
192
0
VERTEX
8
OBJECT__39
10
68.292000
20
6.220000
30
16.224001
70
192
0
VERTEX
8
OBJECT__39
10
67.612000
20
5.920000
30
15.973000
70
192
0
VERTEX
8
OBJECT__39
10
66.924004
20
6.220000
30
15.744000
70
192
0
VERTEX
8
OBJECT__39
10
66.905998
20
7.669000
30
15.797000
70
192
0
VERTEX
8
OBJECT__39
10
67.585999
20
7.969000
30
16.048000
70
192
0
VERTEX
8
OBJECT__39
10
68.566002
20
6.945000
30
16.350000
70
192
0
VERTEX
8
OBJECT__39
10
66.632004
20
6.945000
30
15.671000
70
192
0
VERTEX
8
OBJECT__39
10
0
20
0
30
0
70
128
71
1
72
2
73
3
0
VERTEX
8
OBJECT__39
10
0
20
0
30
0
70
128
71
4
72
5
73
6
0
VERTEX
8
OBJECT__39
10
0
20
0
30
0
70
128
71
1
72
7
73
2
0
VERTEX
8
OBJECT__39
10
0
20
0
30
0
70
128
71
4
72
8
73
5
0
VERTEX
8
OBJECT__39
10
0
20
0
30
0
70
128
71
6
72
1
73
4
0
VERTEX
8
OBJECT__39
10
0
20
0
30
0
70
128
71
3
72
4
73
1
0
SEQEND
8
OBJECT__39
0
POLYLINE
8
OBJECT__40
66
1
70
64
71
16
72
16
62
253
0
VERTEX
8
OBJECT__40
10
65.944000
20
8.072000
30
17.136000
70
192
0
VERTEX
8
OBJECT__40
10
66.905998
20
7.669000
30
15.797000
70
192
0
VERTEX
8
OBJECT__40
10
66.632004
20
6.945000
30
15.671000
70
192
0
VERTEX
8
OBJECT__40
10
67.059998
20
8.564000
30
17.548000
70
192
0
VERTEX
8
OBJECT__40
10
67.585999
20
7.969000
30
16.048000
70
192
0
VERTEX
8
OBJECT__40
10
68.188004
20
8.072000
30
17.923000
70
192
0
VERTEX
8
OBJECT__40
10
68.274002
20
7.669000
30
16.277000
70
192
0
VERTEX
8
OBJECT__40
10
68.667999
20
6.884000
30
18.042999
70
192
0
VERTEX
8
OBJECT__40
10
68.566002
20
6.945000
30
16.350000
70
192
0
VERTEX
8
OBJECT__40
10
68.218002
20
5.696000
30
17.836000
70
192
0
VERTEX
8
OBJECT__40
10
68.292000
20
6.220000
30
16.224001
70
192
0
VERTEX
8
OBJECT__40
10
67.102997
20
5.204000
30
17.424999
70
192
0
VERTEX
8
OBJECT__40
10
67.612000
20
5.920000
30
15.973000
70
192
0
VERTEX
8
OBJECT__40
10
65.974998
20
5.696000
30
17.049000
70
192
0
VERTEX
8
OBJECT__40
10
66.924004
20
6.220000
30
15.744000
70
192
0
VERTEX
8
OBJECT__40
10
65.495003
20
6.884000
30
16.930000
70
192
0
VERTEX
8
OBJECT__40
10
0
20
0
30
0
70
128
71
1
72
2
73
3
0
VERTEX
8
OBJECT__40
10
0
20
0
30
0
70
128
71
1
72
4
73
5
0
VERTEX
8
OBJECT__40
10
0
20
0
30
0
70
128
71
4
72
6
73
7
0
VERTEX
8
OBJECT__40
10
0
20
0
30
0
70
128
71
6
72
8
73
9
0
VERTEX
8
OBJECT__40
10
0
20
0
30
0
70
128
71
10
72
11
73
9
0
VERTEX
8
OBJECT__40
10
0
20
0
30
0
70
128
71
12
72
13
73
11
0
VERTEX
8
OBJECT__40
10
0
20
0
30
0
70
128
71
14
72
15
73
13
0
VERTEX
8
OBJECT__40
10
0
20
0
30
0
70
128
71
16
72
3
73
15
0
VERTEX
8
OBJECT__40
10
0
20
0
30
0
70
128
71
15
72
14
73
16
0
VERTEX
8
OBJECT__40
10
0
20
0
30
0
70
128
71
13
72
12
73
14
0
VERTEX
8
OBJECT__40
10
0
20
0
30
0
70
128
71
11
72
10
73
12
0
VERTEX
8
OBJECT__40
10
0
20
0
30
0
70
128
71
9
72
8
73
10
0
VERTEX
8
OBJECT__40
10
0
20
0
30
0
70
128
71
9
72
7
73
6
0
VERTEX
8
OBJECT__40
10
0
20
0
30
0
70
128
71
7
72
5
73
4
0
VERTEX
8
OBJECT__40
10
0
20
0
30
0
70
128
71
5
72
2
73
1
0
VERTEX
8
OBJECT__40
10
0
20
0
30
0
70
128
71
3
72
16
73
1
0
SEQEND
8
OBJECT__40
0
POLYLINE
8
OBJECT__42
66
1
70
64
71
8
72
6
62
253
0
VERTEX
8
OBJECT__42
10
64.960999
20
-11.115000
30
15.327000
70
192
0
VERTEX
8
OBJECT__42
10
63.606998
20
-9.671000
30
14.793000
70
192
0
VERTEX
8
OBJECT__42
10
64.300003
20
-9.370000
30
15.003000
70
192
0
VERTEX
8
OBJECT__42
10
64.266998
20
-11.417000
30
15.117000
70
192
0
VERTEX
8
OBJECT__42
10
64.984001
20
-9.668000
30
15.246000
70
192
0
VERTEX
8
OBJECT__42
10
63.584000
20
-11.119000
30
14.874000
70
192
0
VERTEX
8
OBJECT__42
10
63.310001
20
-10.396000
30
14.740000
70
192
0
VERTEX
8
OBJECT__42
10
65.257004
20
-10.391000
30
15.381000
70
192
0
VERTEX
8
OBJECT__42
10
0
20
0
30
0
70
128
71
1
72
2
73
3
0
VERTEX
8
OBJECT__42
10
0
20
0
30
0
70
128
71
2
72
1
73
4
0
VERTEX
8
OBJECT__42
10
0
20
0
30
0
70
128
71
3
72
5
73
1
0
VERTEX
8
OBJECT__42
10
0
20
0
30
0
70
128
71
4
72
6
73
2
0
VERTEX
8
OBJECT__42
10
0
20
0
30
0
70
128
71
6
72
7
73
2
0
VERTEX
8
OBJECT__42
10
0
20
0
30
0
70
128
71
5
72
8
73
1
0
SEQEND
8
OBJECT__42
0
POLYLINE
8
OBJECT__43
66
1
70
64
71
16
72
16
62
253
0
VERTEX
8
OBJECT__43
10
63.821999
20
-8.624000
30
16.450001
70
192
0
VERTEX
8
OBJECT__43
10
64.943001
20
-9.113000
30
16.849001
70
192
0
VERTEX
8
OBJECT__43
10
64.984001
20
-9.668000
30
15.246000
70
192
0
VERTEX
8
OBJECT__43
10
65.391998
20
-10.299000
30
17.070000
70
192
0
VERTEX
8
OBJECT__43
10
65.257004
20
-10.391000
30
15.381000
70
192
0
VERTEX
8
OBJECT__43
10
64.904999
20
-11.487000
30
16.982000
70
192
0
VERTEX
8
OBJECT__43
10
64.960999
20
-11.115000
30
15.327000
70
192
0
VERTEX
8
OBJECT__43
10
63.768002
20
-11.981000
30
16.638000
70
192
0
VERTEX
8
OBJECT__43
10
64.266998
20
-11.417000
30
15.117000
70
192
0
VERTEX
8
OBJECT__43
10
62.646999
20
-11.492000
30
16.239000
70
192
0
VERTEX
8
OBJECT__43
10
63.584000
20
-11.119000
30
14.874000
70
192
0
VERTEX
8
OBJECT__43
10
62.198002
20
-10.306000
30
16.018000
70
192
0
VERTEX
8
OBJECT__43
10
63.310001
20
-10.396000
30
14.740000
70
192
0
VERTEX
8
OBJECT__43
10
62.685001
20
-9.119000
30
16.106001
70
192
0
VERTEX
8
OBJECT__43
10
63.606998
20
-9.671000
30
14.793000
70
192
0
VERTEX
8
OBJECT__43
10
64.300003
20
-9.370000
30
15.003000
70
192
0
VERTEX
8
OBJECT__43
10
0
20
0
30
0
70
128
71
1
72
2
73
3
0
VERTEX
8
OBJECT__43
10
0
20
0
30
0
70
128
71
2
72
4
73
5
0
VERTEX
8
OBJECT__43
10
0
20
0
30
0
70
128
71
4
72
6
73
7
0
VERTEX
8
OBJECT__43
10
0
20
0
30
0
70
128
71
6
72
8
73
9
0
VERTEX
8
OBJECT__43
10
0
20
0
30
0
70
128
71
8
72
10
73
11
0
VERTEX
8
OBJECT__43
10
0
20
0
30
0
70
128
71
10
72
12
73
13
0
VERTEX
8
OBJECT__43
10
0
20
0
30
0
70
128
71
12
72
14
73
15
0
VERTEX
8
OBJECT__43
10
0
20
0
30
0
70
128
71
14
72
1
73
16
0
VERTEX
8
OBJECT__43
10
0
20
0
30
0
70
128
71
16
72
15
73
14
0
VERTEX
8
OBJECT__43
10
0
20
0
30
0
70
128
71
15
72
13
73
12
0
VERTEX
8
OBJECT__43
10
0
20
0
30
0
70
128
71
13
72
11
73
10
0
VERTEX
8
OBJECT__43
10
0
20
0
30
0
70
128
71
11
72
9
73
8
0
VERTEX
8
OBJECT__43
10
0
20
0
30
0
70
128
71
9
72
7
73
6
0
VERTEX
8
OBJECT__43
10
0
20
0
30
0
70
128
71
7
72
5
73
4
0
VERTEX
8
OBJECT__43
10
0
20
0
30
0
70
128
71
5
72
3
73
2
0
VERTEX
8
OBJECT__43
10
0
20
0
30
0
70
128
71
3
72
16
73
1
0
SEQEND
8
OBJECT__43
0
POLYLINE
8
OBJECT__45
66
1
70
64
71
20
72
20
62
253
0
VERTEX
8
OBJECT__45
10
50.113998
20
-18.690001
30
12.014000
70
192
0
VERTEX
8
OBJECT__45
10
50.095001
20
-17.924000
30
17.618999
70
192
0
VERTEX
8
OBJECT__45
10
50.099998
20
-17.848000
30
17.608999
70
192
0
VERTEX
8
OBJECT__45
10
49.509998
20
-18.579000
30
17.587000
70
192
0
VERTEX
8
OBJECT__45
10
48.849998
20
-18.698999
30
17.459000
70
192
0
VERTEX
8
OBJECT__45
10
50.159000
20
-17.056000
30
17.503000
70
192
0
VERTEX
8
OBJECT__45
10
49.699001
20
-16.389999
30
17.301001
70
192
0
VERTEX
8
OBJECT__45
10
50.465000
20
-17.705000
30
11.963000
70
192
0
VERTEX
8
OBJECT__45
10
50.638000
20
-18.316000
30
12.084000
70
192
0
VERTEX
8
OBJECT__45
10
48.855000
20
-16.129000
30
17.075001
70
192
0
VERTEX
8
OBJECT__45
10
49.834999
20
-17.701000
30
11.818000
70
192
0
VERTEX
8
OBJECT__45
10
49.674999
20
-16.355000
30
17.291000
70
192
0
VERTEX
8
OBJECT__45
10
47.633999
20
-17.243999
30
16.969999
70
192
0
VERTEX
8
OBJECT__45
10
49.618000
20
-18.309000
30
11.849000
70
192
0
VERTEX
8
OBJECT__45
10
48.208000
20
-16.410000
30
16.973000
70
192
0
VERTEX
8
OBJECT__45
10
48.057999
20
-16.475000
30
16.950001
70
192
0
VERTEX
8
OBJECT__45
10
47.922001
20
-18.319000
30
17.195000
70
192
0
VERTEX
8
OBJECT__45
10
48.661999
20
-18.733000
30
17.422001
70
192
0
VERTEX
8
OBJECT__45
10
47.723999
20
-17.818001
30
17.077000
70
192
0
VERTEX
8
OBJECT__45
10
47.768002
20
-18.097000
30
17.128000
70
192
0
VERTEX
8
OBJECT__45
10
0
20
0
30
0
70
128
71
1
72
2
73
3
0
VERTEX
8
OBJECT__45
10
0
20
0
30
0
70
128
71
1
72
4
73
2
0
VERTEX
8
OBJECT__45
10
0
20
0
30
0
70
128
71
1
72
5
73
4
0
VERTEX
8
OBJECT__45
10
0
20
0
30
0
70
128
71
6
72
7
73
8
0
VERTEX
8
OBJECT__45
10
0
20
0
30
0
70
128
71
9
72
3
73
6
0
VERTEX
8
OBJECT__45
10
0
20
0
30
0
70
128
71
10
72
11
73
8
0
VERTEX
8
OBJECT__45
10
0
20
0
30
0
70
128
71
8
72
7
73
12
0
VERTEX
8
OBJECT__45
10
0
20
0
30
0
70
128
71
8
72
12
73
10
0
VERTEX
8
OBJECT__45
10
0
20
0
30
0
70
128
71
13
72
14
73
11
0
VERTEX
8
OBJECT__45
10
0
20
0
30
0
70
128
71
11
72
15
73
16
0
VERTEX
8
OBJECT__45
10
0
20
0
30
0
70
128
71
11
72
16
73
13
0
VERTEX
8
OBJECT__45
10
0
20
0
30
0
70
128
71
17
72
18
73
1
0
VERTEX
8
OBJECT__45
10
0
20
0
30
0
70
128
71
1
72
14
73
17
0
VERTEX
8
OBJECT__45
10
0
20
0
30
0
70
128
71
14
72
19
73
20
0
VERTEX
8
OBJECT__45
10
0
20
0
30
0
70
128
71
20
72
17
73
14
0
VERTEX
8
OBJECT__45
10
0
20
0
30
0
70
128
71
18
72
5
73
1
0
VERTEX
8
OBJECT__45
10
0
20
0
30
0
70
128
71
13
72
19
73
14
0
VERTEX
8
OBJECT__45
10
0
20
0
30
0
70
128
71
10
72
15
73
11
0
VERTEX
8
OBJECT__45
10
0
20
0
30
0
70
128
71
8
72
9
73
6
0
VERTEX
8
OBJECT__45
10
0
20
0
30
0
70
128
71
3
72
9
73
1
0
SEQEND
8
OBJECT__45
0
POLYLINE
8
OBJECT__46
66
1
70
64
71
13
72
13
62
253
0
VERTEX
8
OBJECT__46
10
50.169998
20
-17.128000
30
11.819000
70
192
0
VERTEX
8
OBJECT__46
10
50.465000
20
-17.705000
30
11.963000
70
192
0
VERTEX
8
OBJECT__46
10
49.834999
20
-17.701000
30
11.818000
70
192
0
VERTEX
8
OBJECT__46
10
50.866001
20
-17.430000
30
12.018000
70
192
0
VERTEX
8
OBJECT__46
10
51.132999
20
-18.150999
30
12.176000
70
192
0
VERTEX
8
OBJECT__46
10
50.638000
20
-18.316000
30
12.084000
70
192
0
VERTEX
8
OBJECT__46
10
50.813999
20
-18.868000
30
12.198000
70
192
0
VERTEX
8
OBJECT__46
10
50.098000
20
-19.160999
30
12.072000
70
192
0
VERTEX
8
OBJECT__46
10
50.113998
20
-18.690001
30
12.014000
70
192
0
VERTEX
8
OBJECT__46
10
49.402000
20
-18.858000
30
11.872000
70
192
0
VERTEX
8
OBJECT__46
10
49.618000
20
-18.309000
30
11.849000
70
192
0
VERTEX
8
OBJECT__46
10
49.134998
20
-18.136999
30
11.715000
70
192
0
VERTEX
8
OBJECT__46
10
49.452999
20
-17.421000
30
11.693000
70
192
0
VERTEX
8
OBJECT__46
10
0
20
0
30
0
70
128
71
1
72
2
73
3
0
VERTEX
8
OBJECT__46
10
0
20
0
30
0
70
128
71
1
72
4
73
2
0
VERTEX
8
OBJECT__46
10
0
20
0
30
0
70
128
71
5
72
6
73
2
0
VERTEX
8
OBJECT__46
10
0
20
0
30
0
70
128
71
7
72
8
73
9
0
VERTEX
8
OBJECT__46
10
0
20
0
30
0
70
128
71
10
72
11
73
9
0
VERTEX
8
OBJECT__46
10
0
20
0
30
0
70
128
71
12
72
13
73
3
0
VERTEX
8
OBJECT__46
10
0
20
0
30
0
70
128
71
2
72
4
73
5
0
VERTEX
8
OBJECT__46
10
0
20
0
30
0
70
128
71
9
72
6
73
7
0
VERTEX
8
OBJECT__46
10
0
20
0
30
0
70
128
71
10
72
12
73
11
0
VERTEX
8
OBJECT__46
10
0
20
0
30
0
70
128
71
3
72
13
73
1
0
VERTEX
8
OBJECT__46
10
0
20
0
30
0
70
128
71
9
72
8
73
10
0
VERTEX
8
OBJECT__46
10
0
20
0
30
0
70
128
71
6
72
5
73
7
0
VERTEX
8
OBJECT__46
10
0
20
0
30
0
70
128
71
3
72
11
73
12
0
SEQEND
8
OBJECT__46
0
POLYLINE
8
OBJECT__48
66
1
70
64
71
16
72
16
62
253
0
VERTEX
8
OBJECT__48
10
49.789001
20
-19.469000
30
13.401000
70
192
0
VERTEX
8
OBJECT__48
10
50.098000
20
-19.160999
30
12.072000
70
192
0
VERTEX
8
OBJECT__48
10
50.813999
20
-18.868000
30
12.198000
70
192
0
VERTEX
8
OBJECT__48
10
50.842999
20
-19.039000
30
13.585000
70
192
0
VERTEX
8
OBJECT__48
10
51.132999
20
-18.150999
30
12.176000
70
192
0
VERTEX
8
OBJECT__48
10
51.310001
20
-17.986000
30
13.553000
70
192
0
VERTEX
8
OBJECT__48
10
50.866001
20
-17.430000
30
12.018000
70
192
0
VERTEX
8
OBJECT__48
10
50.917999
20
-16.927000
30
13.322000
70
192
0
VERTEX
8
OBJECT__48
10
50.169998
20
-17.128000
30
11.819000
70
192
0
VERTEX
8
OBJECT__48
10
49.896000
20
-16.482000
30
13.028000
70
192
0
VERTEX
8
OBJECT__48
10
49.452999
20
-17.421000
30
11.693000
70
192
0
VERTEX
8
OBJECT__48
10
48.842999
20
-16.912001
30
12.844000
70
192
0
VERTEX
8
OBJECT__48
10
49.134998
20
-18.136999
30
11.715000
70
192
0
VERTEX
8
OBJECT__48
10
48.375000
20
-17.965000
30
12.876000
70
192
0
VERTEX
8
OBJECT__48
10
49.402000
20
-18.858000
30
11.872000
70
192
0
VERTEX
8
OBJECT__48
10
48.766998
20
-19.024000
30
13.107000
70
192
0
VERTEX
8
OBJECT__48
10
0
20
0
30
0
70
128
71
1
72
2
73
3
0
VERTEX
8
OBJECT__48
10
0
20
0
30
0
70
128
71
4
72
3
73
5
0
VERTEX
8
OBJECT__48
10
0
20
0
30
0
70
128
71
6
72
5
73
7
0
VERTEX
8
OBJECT__48
10
0
20
0
30
0
70
128
71
8
72
7
73
9
0
VERTEX
8
OBJECT__48
10
0
20
0
30
0
70
128
71
10
72
9
73
11
0
VERTEX
8
OBJECT__48
10
0
20
0
30
0
70
128
71
12
72
11
73
13
0
VERTEX
8
OBJECT__48
10
0
20
0
30
0
70
128
71
14
72
13
73
15
0
VERTEX
8
OBJECT__48
10
0
20
0
30
0
70
128
71
16
72
15
73
2
0
VERTEX
8
OBJECT__48
10
0
20
0
30
0
70
128
71
2
72
1
73
16
0
VERTEX
8
OBJECT__48
10
0
20
0
30
0
70
128
71
15
72
16
73
14
0
VERTEX
8
OBJECT__48
10
0
20
0
30
0
70
128
71
13
72
14
73
12
0
VERTEX
8
OBJECT__48
10
0
20
0
30
0
70
128
71
11
72
12
73
10
0
VERTEX
8
OBJECT__48
10
0
20
0
30
0
70
128
71
9
72
10
73
8
0
VERTEX
8
OBJECT__48
10
0
20
0
30
0
70
128
71
7
72
8
73
6
0
VERTEX
8
OBJECT__48
10
0
20
0
30
0
70
128
71
5
72
6
73
4
0
VERTEX
8
OBJECT__48
10
0
20
0
30
0
70
128
71
3
72
4
73
1
0
SEQEND
8
OBJECT__48
0
POLYLINE
8
OBJECT__49
66
1
70
64
71
20
72
20
62
253
0
VERTEX
8
OBJECT__49
10
63.562000
20
16.362000
30
21.368999
70
192
0
VERTEX
8
OBJECT__49
10
65.083000
20
17.972000
30
16.238001
70
192
0
VERTEX
8
OBJECT__49
10
64.601997
20
17.599001
30
16.021000
70
192
0
VERTEX
8
OBJECT__49
10
62.840000
20
16.146999
30
21.080000
70
192
0
VERTEX
8
OBJECT__49
10
63.926998
20
17.934999
30
21.742001
70
192
0
VERTEX
8
OBJECT__49
10
64.873001
20
18.583000
30
16.249001
70
192
0
VERTEX
8
OBJECT__49
10
63.987000
20
17.028000
30
21.622999
70
192
0
VERTEX
8
OBJECT__49
10
64.011002
20
17.066999
30
21.636999
70
192
0
VERTEX
8
OBJECT__49
10
62.522999
20
18.731001
30
21.368999
70
192
0
VERTEX
8
OBJECT__49
10
62.046001
20
18.447001
30
21.156000
70
192
0
VERTEX
8
OBJECT__49
10
64.261002
20
18.587999
30
16.038000
70
192
0
VERTEX
8
OBJECT__49
10
63.455002
20
18.462000
30
21.657000
70
192
0
VERTEX
8
OBJECT__49
10
63.346001
20
18.584000
30
21.636999
70
192
0
VERTEX
8
OBJECT__49
10
61.542000
20
17.507999
30
20.833000
70
192
0
VERTEX
8
OBJECT__49
10
61.688000
20
17.059999
30
20.815001
70
192
0
VERTEX
8
OBJECT__49
10
64.094002
20
17.979000
30
15.897000
70
192
0
VERTEX
8
OBJECT__49
10
61.819000
20
18.311001
30
21.055000
70
192
0
VERTEX
8
OBJECT__49
10
61.999001
20
16.468000
30
20.833000
70
192
0
VERTEX
8
OBJECT__49
10
62.777000
20
16.128000
30
21.055000
70
192
0
VERTEX
8
OBJECT__49
10
61.813999
20
16.674000
30
20.799999
70
192
0
VERTEX
8
OBJECT__49
10
0
20
0
30
0
70
128
71
1
72
2
73
3
0
VERTEX
8
OBJECT__49
10
0
20
0
30
0
70
128
71
3
72
4
73
1
0
VERTEX
8
OBJECT__49
10
0
20
0
30
0
70
128
71
5
72
6
73
2
0
VERTEX
8
OBJECT__49
10
0
20
0
30
0
70
128
71
2
72
7
73
8
0
VERTEX
8
OBJECT__49
10
0
20
0
30
0
70
128
71
2
72
8
73
5
0
VERTEX
8
OBJECT__49
10
0
20
0
30
0
70
128
71
9
72
10
73
11
0
VERTEX
8
OBJECT__49
10
0
20
0
30
0
70
128
71
6
72
12
73
13
0
VERTEX
8
OBJECT__49
10
0
20
0
30
0
70
128
71
13
72
9
73
6
0
VERTEX
8
OBJECT__49
10
0
20
0
30
0
70
128
71
14
72
15
73
16
0
VERTEX
8
OBJECT__49
10
0
20
0
30
0
70
128
71
11
72
10
73
17
0
VERTEX
8
OBJECT__49
10
0
20
0
30
0
70
128
71
17
72
14
73
11
0
VERTEX
8
OBJECT__49
10
0
20
0
30
0
70
128
71
18
72
19
73
3
0
VERTEX
8
OBJECT__49
10
0
20
0
30
0
70
128
71
3
72
16
73
18
0
VERTEX
8
OBJECT__49
10
0
20
0
30
0
70
128
71
16
72
15
73
20
0
VERTEX
8
OBJECT__49
10
0
20
0
30
0
70
128
71
20
72
18
73
16
0
VERTEX
8
OBJECT__49
10
0
20
0
30
0
70
128
71
19
72
4
73
3
0
VERTEX
8
OBJECT__49
10
0
20
0
30
0
70
128
71
16
72
11
73
14
0
VERTEX
8
OBJECT__49
10
0
20
0
30
0
70
128
71
11
72
6
73
9
0
VERTEX
8
OBJECT__49
10
0
20
0
30
0
70
128
71
5
72
12
73
6
0
VERTEX
8
OBJECT__49
10
0
20
0
30
0
70
128
71
1
72
7
73
2
0
SEQEND
8
OBJECT__49
0
POLYLINE
8
OBJECT__50
66
1
70
64
71
13
72
13
62
253
0
VERTEX
8
OBJECT__50
10
65.293999
20
17.421000
30
16.235001
70
192
0
VERTEX
8
OBJECT__50
10
64.619003
20
17.128000
30
15.962000
70
192
0
VERTEX
8
OBJECT__50
10
64.601997
20
17.599001
30
16.021000
70
192
0
VERTEX
8
OBJECT__50
10
63.923000
20
17.430000
30
15.763000
70
192
0
VERTEX
8
OBJECT__50
10
64.094002
20
17.979000
30
15.897000
70
192
0
VERTEX
8
OBJECT__50
10
64.545998
20
19.160999
30
16.215000
70
192
0
VERTEX
8
OBJECT__50
10
64.873001
20
18.583000
30
16.249001
70
192
0
VERTEX
8
OBJECT__50
10
64.261002
20
18.587999
30
16.038000
70
192
0
VERTEX
8
OBJECT__50
10
65.083000
20
17.972000
30
16.238001
70
192
0
VERTEX
8
OBJECT__50
10
63.613998
20
18.150999
30
15.754000
70
192
0
VERTEX
8
OBJECT__50
10
63.872002
20
18.868000
30
15.942000
70
192
0
VERTEX
8
OBJECT__50
10
65.241997
20
18.858000
30
16.415001
70
192
0
VERTEX
8
OBJECT__50
10
65.552002
20
18.136999
30
16.423000
70
192
0
VERTEX
8
OBJECT__50
10
0
20
0
30
0
70
128
71
1
72
2
73
3
0
VERTEX
8
OBJECT__50
10
0
20
0
30
0
70
128
71
4
72
5
73
3
0
VERTEX
8
OBJECT__50
10
0
20
0
30
0
70
128
71
6
72
7
73
8
0
VERTEX
8
OBJECT__50
10
0
20
0
30
0
70
128
71
3
72
9
73
1
0
VERTEX
8
OBJECT__50
10
0
20
0
30
0
70
128
71
4
72
10
73
5
0
VERTEX
8
OBJECT__50
10
0
20
0
30
0
70
128
71
10
72
11
73
8
0
VERTEX
8
OBJECT__50
10
0
20
0
30
0
70
128
71
6
72
12
73
7
0
VERTEX
8
OBJECT__50
10
0
20
0
30
0
70
128
71
13
72
9
73
7
0
VERTEX
8
OBJECT__50
10
0
20
0
30
0
70
128
71
3
72
2
73
4
0
VERTEX
8
OBJECT__50
10
0
20
0
30
0
70
128
71
8
72
11
73
6
0
VERTEX
8
OBJECT__50
10
0
20
0
30
0
70
128
71
9
72
13
73
1
0
VERTEX
8
OBJECT__50
10
0
20
0
30
0
70
128
71
7
72
12
73
13
0
VERTEX
8
OBJECT__50
10
0
20
0
30
0
70
128
71
8
72
5
73
10
0
SEQEND
8
OBJECT__50
0
POLYLINE
8
OBJECT__52
66
1
70
64
71
16
72
16
62
253
0
VERTEX
8
OBJECT__52
10
64.210999
20
16.482000
30
17.132999
70
192
0
VERTEX
8
OBJECT__52
10
64.619003
20
17.128000
30
15.962000
70
192
0
VERTEX
8
OBJECT__52
10
65.293999
20
17.421000
30
16.235001
70
192
0
VERTEX
8
OBJECT__52
10
65.202003
20
16.912001
30
17.534000
70
192
0
VERTEX
8
OBJECT__52
10
65.552002
20
18.136999
30
16.423000
70
192
0
VERTEX
8
OBJECT__52
10
65.125999
20
19.024000
30
17.798000
70
192
0
VERTEX
8
OBJECT__52
10
65.581001
20
17.965000
30
17.809999
70
192
0
VERTEX
8
OBJECT__52
10
64.103996
20
19.469000
30
17.506001
70
192
0
VERTEX
8
OBJECT__52
10
65.241997
20
18.858000
30
16.415001
70
192
0
VERTEX
8
OBJECT__52
10
64.545998
20
19.160999
30
16.215000
70
192
0
VERTEX
8
OBJECT__52
10
63.872002
20
18.868000
30
15.942000
70
192
0
VERTEX
8
OBJECT__52
10
63.112999
20
19.039000
30
17.104000
70
192
0
VERTEX
8
OBJECT__52
10
63.613998
20
18.150999
30
15.754000
70
192
0
VERTEX
8
OBJECT__52
10
63.188000
20
16.927000
30
16.840000
70
192
0
VERTEX
8
OBJECT__52
10
62.733002
20
17.986000
30
16.827999
70
192
0
VERTEX
8
OBJECT__52
10
63.923000
20
17.430000
30
15.763000
70
192
0
VERTEX
8
OBJECT__52
10
0
20
0
30
0
70
128
71
1
72
2
73
3
0
VERTEX
8
OBJECT__52
10
0
20
0
30
0
70
128
71
4
72
3
73
5
0
VERTEX
8
OBJECT__52
10
0
20
0
30
0
70
128
71
6
72
7
73
5
0
VERTEX
8
OBJECT__52
10
0
20
0
30
0
70
128
71
8
72
6
73
9
0
VERTEX
8
OBJECT__52
10
0
20
0
30
0
70
128
71
8
72
10
73
11
0
VERTEX
8
OBJECT__52
10
0
20
0
30
0
70
128
71
12
72
11
73
13
0
VERTEX
8
OBJECT__52
10
0
20
0
30
0
70
128
71
14
72
15
73
13
0
VERTEX
8
OBJECT__52
10
0
20
0
30
0
70
128
71
14
72
16
73
2
0
VERTEX
8
OBJECT__52
10
0
20
0
30
0
70
128
71
2
72
1
73
14
0
VERTEX
8
OBJECT__52
10
0
20
0
30
0
70
128
71
13
72
16
73
14
0
VERTEX
8
OBJECT__52
10
0
20
0
30
0
70
128
71
13
72
15
73
12
0
VERTEX
8
OBJECT__52
10
0
20
0
30
0
70
128
71
11
72
12
73
8
0
VERTEX
8
OBJECT__52
10
0
20
0
30
0
70
128
71
9
72
10
73
8
0
VERTEX
8
OBJECT__52
10
0
20
0
30
0
70
128
71
5
72
9
73
6
0
VERTEX
8
OBJECT__52
10
0
20
0
30
0
70
128
71
5
72
7
73
4
0
VERTEX
8
OBJECT__52
10
0
20
0
30
0
70
128
71
3
72
4
73
1
0
SEQEND
8
OBJECT__52
0
POLYLINE
8
OBJECT__53
66
1
70
64
71
20
72
20
62
253
0
VERTEX
8
OBJECT__53
10
40.345001
20
-7.604000
30
14.659000
70
192
0
VERTEX
8
OBJECT__53
10
40.460999
20
-7.516000
30
9.098000
70
192
0
VERTEX
8
OBJECT__53
10
40.081001
20
-8.038000
30
9.069000
70
192
0
VERTEX
8
OBJECT__53
10
39.469002
20
-8.411000
30
14.590000
70
192
0
VERTEX
8
OBJECT__53
10
39.826000
20
-8.313000
30
14.632000
70
192
0
VERTEX
8
OBJECT__53
10
40.313000
20
-6.729000
30
14.602000
70
192
0
VERTEX
8
OBJECT__53
10
39.744999
20
-6.070000
30
14.485000
70
192
0
VERTEX
8
OBJECT__53
10
40.089001
20
-6.993000
30
9.014000
70
192
0
VERTEX
8
OBJECT__53
10
40.331001
20
-7.226000
30
14.634000
70
192
0
VERTEX
8
OBJECT__53
10
39.480000
20
-7.193000
30
8.932000
70
192
0
VERTEX
8
OBJECT__53
10
38.889000
20
-5.916000
30
14.361000
70
192
0
VERTEX
8
OBJECT__53
10
38.122002
20
-6.335000
30
14.283000
70
192
0
VERTEX
8
OBJECT__53
10
39.498001
20
-6.026000
30
14.450000
70
192
0
VERTEX
8
OBJECT__53
10
37.778000
20
-7.143000
30
14.286000
70
192
0
VERTEX
8
OBJECT__53
10
39.473999
20
-7.838000
30
8.966000
70
192
0
VERTEX
8
OBJECT__53
10
38.070000
20
-6.457000
30
14.283000
70
192
0
VERTEX
8
OBJECT__53
10
38.008999
20
-7.986000
30
14.368000
70
192
0
VERTEX
8
OBJECT__53
10
38.985001
20
-8.543000
30
14.533000
70
192
0
VERTEX
8
OBJECT__53
10
38.188999
20
-8.195000
30
14.405000
70
192
0
VERTEX
8
OBJECT__53
10
38.021000
20
-7.999000
30
14.370000
70
192
0
VERTEX
8
OBJECT__53
10
0
20
0
30
0
70
128
71
1
72
2
73
3
0
VERTEX
8
OBJECT__53
10
0
20
0
30
0
70
128
71
3
72
4
73
5
0
VERTEX
8
OBJECT__53
10
0
20
0
30
0
70
128
71
3
72
5
73
1
0
VERTEX
8
OBJECT__53
10
0
20
0
30
0
70
128
71
6
72
7
73
8
0
VERTEX
8
OBJECT__53
10
0
20
0
30
0
70
128
71
8
72
2
73
6
0
VERTEX
8
OBJECT__53
10
0
20
0
30
0
70
128
71
2
72
9
73
6
0
VERTEX
8
OBJECT__53
10
0
20
0
30
0
70
128
71
10
72
11
73
12
0
VERTEX
8
OBJECT__53
10
0
20
0
30
0
70
128
71
11
72
10
73
8
0
VERTEX
8
OBJECT__53
10
0
20
0
30
0
70
128
71
8
72
13
73
11
0
VERTEX
8
OBJECT__53
10
0
20
0
30
0
70
128
71
14
72
15
73
10
0
VERTEX
8
OBJECT__53
10
0
20
0
30
0
70
128
71
10
72
16
73
14
0
VERTEX
8
OBJECT__53
10
0
20
0
30
0
70
128
71
14
72
17
73
15
0
VERTEX
8
OBJECT__53
10
0
20
0
30
0
70
128
71
18
72
4
73
3
0
VERTEX
8
OBJECT__53
10
0
20
0
30
0
70
128
71
15
72
19
73
18
0
VERTEX
8
OBJECT__53
10
0
20
0
30
0
70
128
71
15
72
20
73
19
0
VERTEX
8
OBJECT__53
10
0
20
0
30
0
70
128
71
3
72
15
73
18
0
VERTEX
8
OBJECT__53
10
0
20
0
30
0
70
128
71
17
72
20
73
15
0
VERTEX
8
OBJECT__53
10
0
20
0
30
0
70
128
71
12
72
16
73
10
0
VERTEX
8
OBJECT__53
10
0
20
0
30
0
70
128
71
7
72
13
73
8
0
VERTEX
8
OBJECT__53
10
0
20
0
30
0
70
128
71
1
72
9
73
2
0
SEQEND
8
OBJECT__53
0
POLYLINE
8
OBJECT__54
66
1
70
64
71
13
72
13
62
253
0
VERTEX
8
OBJECT__54
10
40.627998
20
-8.239000
30
9.162000
70
192
0
VERTEX
8
OBJECT__54
10
40.081001
20
-8.038000
30
9.069000
70
192
0
VERTEX
8
OBJECT__54
10
40.460999
20
-7.516000
30
9.098000
70
192
0
VERTEX
8
OBJECT__54
10
40.639000
20
-6.792000
30
9.086000
70
192
0
VERTEX
8
OBJECT__54
10
40.930000
20
-7.516000
30
9.169000
70
192
0
VERTEX
8
OBJECT__54
10
39.909000
20
-8.539000
30
9.070000
70
192
0
VERTEX
8
OBJECT__54
10
39.195000
20
-8.239000
30
8.946000
70
192
0
VERTEX
8
OBJECT__54
10
39.473999
20
-7.838000
30
8.966000
70
192
0
VERTEX
8
OBJECT__54
10
38.903999
20
-7.516000
30
8.863000
70
192
0
VERTEX
8
OBJECT__54
10
39.206001
20
-6.792000
30
8.869000
70
192
0
VERTEX
8
OBJECT__54
10
39.480000
20
-7.193000
30
8.932000
70
192
0
VERTEX
8
OBJECT__54
10
40.089001
20
-6.993000
30
9.014000
70
192
0
VERTEX
8
OBJECT__54
10
39.924999
20
-6.492000
30
8.962000
70
192
0
VERTEX
8
OBJECT__54
10
0
20
0
30
0
70
128
71
1
72
2
73
3
0
VERTEX
8
OBJECT__54
10
0
20
0
30
0
70
128
71
4
72
5
73
3
0
VERTEX
8
OBJECT__54
10
0
20
0
30
0
70
128
71
1
72
6
73
2
0
VERTEX
8
OBJECT__54
10
0
20
0
30
0
70
128
71
6
72
7
73
8
0
VERTEX
8
OBJECT__54
10
0
20
0
30
0
70
128
71
9
72
10
73
11
0
VERTEX
8
OBJECT__54
10
0
20
0
30
0
70
128
71
3
72
12
73
4
0
VERTEX
8
OBJECT__54
10
0
20
0
30
0
70
128
71
8
72
2
73
6
0
VERTEX
8
OBJECT__54
10
0
20
0
30
0
70
128
71
11
72
8
73
9
0
VERTEX
8
OBJECT__54
10
0
20
0
30
0
70
128
71
12
72
13
73
4
0
VERTEX
8
OBJECT__54
10
0
20
0
30
0
70
128
71
8
72
7
73
9
0
VERTEX
8
OBJECT__54
10
0
20
0
30
0
70
128
71
3
72
5
73
1
0
VERTEX
8
OBJECT__54
10
0
20
0
30
0
70
128
71
12
72
11
73
13
0
VERTEX
8
OBJECT__54
10
0
20
0
30
0
70
128
71
11
72
10
73
13
0
SEQEND
8
OBJECT__54
0
POLYLINE
8
OBJECT__56
66
1
70
64
71
16
72
16
62
253
0
VERTEX
8
OBJECT__56
10
41.209999
20
-7.446000
30
10.537000
70
192
0
VERTEX
8
OBJECT__56
10
40.930000
20
-7.516000
30
9.169000
70
192
0
VERTEX
8
OBJECT__56
10
40.639000
20
-6.792000
30
9.086000
70
192
0
VERTEX
8
OBJECT__56
10
40.782001
20
-6.382000
30
10.415000
70
192
0
VERTEX
8
OBJECT__56
10
39.924999
20
-6.492000
30
8.962000
70
192
0
VERTEX
8
OBJECT__56
10
39.733002
20
-5.942000
30
10.233000
70
192
0
VERTEX
8
OBJECT__56
10
39.206001
20
-6.792000
30
8.869000
70
192
0
VERTEX
8
OBJECT__56
10
38.231998
20
-7.446000
30
10.087000
70
192
0
VERTEX
8
OBJECT__56
10
38.675999
20
-6.382000
30
10.097000
70
192
0
VERTEX
8
OBJECT__56
10
38.903999
20
-7.516000
30
8.863000
70
192
0
VERTEX
8
OBJECT__56
10
39.195000
20
-8.239000
30
8.946000
70
192
0
VERTEX
8
OBJECT__56
10
39.709000
20
-8.950000
30
10.391000
70
192
0
VERTEX
8
OBJECT__56
10
38.659000
20
-8.509000
30
10.209000
70
192
0
VERTEX
8
OBJECT__56
10
40.764999
20
-8.509000
30
10.527000
70
192
0
VERTEX
8
OBJECT__56
10
39.909000
20
-8.539000
30
9.070000
70
192
0
VERTEX
8
OBJECT__56
10
40.627998
20
-8.239000
30
9.162000
70
192
0
VERTEX
8
OBJECT__56
10
0
20
0
30
0
70
128
71
1
72
2
73
3
0
VERTEX
8
OBJECT__56
10
0
20
0
30
0
70
128
71
4
72
3
73
5
0
VERTEX
8
OBJECT__56
10
0
20
0
30
0
70
128
71
6
72
5
73
7
0
VERTEX
8
OBJECT__56
10
0
20
0
30
0
70
128
71
8
72
9
73
7
0
VERTEX
8
OBJECT__56
10
0
20
0
30
0
70
128
71
8
72
10
73
11
0
VERTEX
8
OBJECT__56
10
0
20
0
30
0
70
128
71
12
72
13
73
11
0
VERTEX
8
OBJECT__56
10
0
20
0
30
0
70
128
71
14
72
12
73
15
0
VERTEX
8
OBJECT__56
10
0
20
0
30
0
70
128
71
1
72
14
73
16
0
VERTEX
8
OBJECT__56
10
0
20
0
30
0
70
128
71
16
72
2
73
1
0
VERTEX
8
OBJECT__56
10
0
20
0
30
0
70
128
71
15
72
16
73
14
0
VERTEX
8
OBJECT__56
10
0
20
0
30
0
70
128
71
11
72
15
73
12
0
VERTEX
8
OBJECT__56
10
0
20
0
30
0
70
128
71
11
72
13
73
8
0
VERTEX
8
OBJECT__56
10
0
20
0
30
0
70
128
71
7
72
10
73
8
0
VERTEX
8
OBJECT__56
10
0
20
0
30
0
70
128
71
7
72
9
73
6
0
VERTEX
8
OBJECT__56
10
0
20
0
30
0
70
128
71
5
72
6
73
4
0
VERTEX
8
OBJECT__56
10
0
20
0
30
0
70
128
71
3
72
4
73
1
0
SEQEND
8
OBJECT__56
0
POLYLINE
8
OBJECT__57
66
1
70
64
71
20
72
20
62
253
0
VERTEX
8
OBJECT__57
10
69.855003
20
12.909000
30
23.384001
70
192
0
VERTEX
8
OBJECT__57
10
71.218002
20
13.887000
30
18.048000
70
192
0
VERTEX
8
OBJECT__57
10
70.884003
20
13.366000
30
17.860001
70
192
0
VERTEX
8
OBJECT__57
10
69.091003
20
12.158000
30
22.978001
70
192
0
VERTEX
8
OBJECT__57
10
69.375999
20
12.228000
30
23.104000
70
192
0
VERTEX
8
OBJECT__57
10
69.819000
20
13.781000
30
23.474001
70
192
0
VERTEX
8
OBJECT__57
10
69.282997
20
14.463000
30
23.334999
70
192
0
VERTEX
8
OBJECT__57
10
70.846001
20
14.408000
30
17.955000
70
192
0
VERTEX
8
OBJECT__57
10
69.836998
20
13.342000
30
23.427999
70
192
0
VERTEX
8
OBJECT__57
10
67.769997
20
14.274000
30
22.688999
70
192
0
VERTEX
8
OBJECT__57
10
67.698997
20
14.097000
30
22.638000
70
192
0
VERTEX
8
OBJECT__57
10
68.484001
20
14.655000
30
23.028999
70
192
0
VERTEX
8
OBJECT__57
10
68.995003
20
14.532000
30
23.225000
70
192
0
VERTEX
8
OBJECT__57
10
67.455002
20
13.485000
30
22.464001
70
192
0
VERTEX
8
OBJECT__57
10
67.677002
20
12.636000
30
22.452999
70
192
0
VERTEX
8
OBJECT__57
10
70.306000
20
13.565000
30
17.650999
70
192
0
VERTEX
8
OBJECT__57
10
70.281998
20
14.209000
30
17.709999
70
192
0
VERTEX
8
OBJECT__57
10
68.592003
20
12.037000
30
22.757999
70
192
0
VERTEX
8
OBJECT__57
10
67.847000
20
12.420000
30
22.497000
70
192
0
VERTEX
8
OBJECT__57
10
67.723999
20
12.576000
30
22.465000
70
192
0
VERTEX
8
OBJECT__57
10
0
20
0
30
0
70
128
71
1
72
2
73
3
0
VERTEX
8
OBJECT__57
10
0
20
0
30
0
70
128
71
3
72
4
73
5
0
VERTEX
8
OBJECT__57
10
0
20
0
30
0
70
128
71
3
72
5
73
1
0
VERTEX
8
OBJECT__57
10
0
20
0
30
0
70
128
71
6
72
7
73
8
0
VERTEX
8
OBJECT__57
10
0
20
0
30
0
70
128
71
8
72
2
73
6
0
VERTEX
8
OBJECT__57
10
0
20
0
30
0
70
128
71
2
72
9
73
6
0
VERTEX
8
OBJECT__57
10
0
20
0
30
0
70
128
71
8
72
10
73
11
0
VERTEX
8
OBJECT__57
10
0
20
0
30
0
70
128
71
8
72
12
73
10
0
VERTEX
8
OBJECT__57
10
0
20
0
30
0
70
128
71
8
72
13
73
12
0
VERTEX
8
OBJECT__57
10
0
20
0
30
0
70
128
71
14
72
15
73
16
0
VERTEX
8
OBJECT__57
10
0
20
0
30
0
70
128
71
17
72
11
73
14
0
VERTEX
8
OBJECT__57
10
0
20
0
30
0
70
128
71
16
72
17
73
14
0
VERTEX
8
OBJECT__57
10
0
20
0
30
0
70
128
71
18
72
3
73
16
0
VERTEX
8
OBJECT__57
10
0
20
0
30
0
70
128
71
16
72
19
73
18
0
VERTEX
8
OBJECT__57
10
0
20
0
30
0
70
128
71
16
72
20
73
19
0
VERTEX
8
OBJECT__57
10
0
20
0
30
0
70
128
71
18
72
4
73
3
0
VERTEX
8
OBJECT__57
10
0
20
0
30
0
70
128
71
15
72
20
73
16
0
VERTEX
8
OBJECT__57
10
0
20
0
30
0
70
128
71
11
72
17
73
8
0
VERTEX
8
OBJECT__57
10
0
20
0
30
0
70
128
71
7
72
13
73
8
0
VERTEX
8
OBJECT__57
10
0
20
0
30
0
70
128
71
1
72
9
73
2
0
SEQEND
8
OBJECT__57
0
POLYLINE
8
OBJECT__58
66
1
70
64
71
13
72
13
62
253
0
VERTEX
8
OBJECT__58
10
71.355003
20
14.608000
30
18.179001
70
192
0
VERTEX
8
OBJECT__58
10
71.660004
20
13.887000
30
18.223000
70
192
0
VERTEX
8
OBJECT__58
10
71.218002
20
13.887000
30
18.048000
70
192
0
VERTEX
8
OBJECT__58
10
71.406998
20
13.166000
30
18.046000
70
192
0
VERTEX
8
OBJECT__58
10
70.884003
20
13.366000
30
17.860001
70
192
0
VERTEX
8
OBJECT__58
10
70.846001
20
14.408000
30
17.955000
70
192
0
VERTEX
8
OBJECT__58
10
70.745003
20
12.867000
30
17.750999
70
192
0
VERTEX
8
OBJECT__58
10
70.059998
20
13.166000
30
17.511000
70
192
0
VERTEX
8
OBJECT__58
10
70.306000
20
13.565000
30
17.650999
70
192
0
VERTEX
8
OBJECT__58
10
69.754997
20
13.887000
30
17.466000
70
192
0
VERTEX
8
OBJECT__58
10
70.007004
20
14.608000
30
17.643000
70
192
0
VERTEX
8
OBJECT__58
10
70.281998
20
14.209000
30
17.709999
70
192
0
VERTEX
8
OBJECT__58
10
70.669998
20
14.907000
30
17.938999
70
192
0
VERTEX
8
OBJECT__58
10
0
20
0
30
0
70
128
71
1
72
2
73
3
0
VERTEX
8
OBJECT__58
10
0
20
0
30
0
70
128
71
4
72
5
73
3
0
VERTEX
8
OBJECT__58
10
0
20
0
30
0
70
128
71
3
72
6
73
1
0
VERTEX
8
OBJECT__58
10
0
20
0
30
0
70
128
71
4
72
7
73
5
0
VERTEX
8
OBJECT__58
10
0
20
0
30
0
70
128
71
3
72
2
73
4
0
VERTEX
8
OBJECT__58
10
0
20
0
30
0
70
128
71
7
72
8
73
9
0
VERTEX
8
OBJECT__58
10
0
20
0
30
0
70
128
71
10
72
11
73
12
0
VERTEX
8
OBJECT__58
10
0
20
0
30
0
70
128
71
9
72
5
73
7
0
VERTEX
8
OBJECT__58
10
0
20
0
30
0
70
128
71
12
72
9
73
10
0
VERTEX
8
OBJECT__58
10
0
20
0
30
0
70
128
71
13
72
6
73
12
0
VERTEX
8
OBJECT__58
10
0
20
0
30
0
70
128
71
9
72
8
73
10
0
VERTEX
8
OBJECT__58
10
0
20
0
30
0
70
128
71
6
72
13
73
1
0
VERTEX
8
OBJECT__58
10
0
20
0
30
0
70
128
71
12
72
11
73
13
0
SEQEND
8
OBJECT__58
0
POLYLINE
8
OBJECT__60
66
1
70
64
71
16
72
16
62
253
0
VERTEX
8
OBJECT__60
10
71.176003
20
14.818000
30
19.549999
70
192
0
VERTEX
8
OBJECT__60
10
71.624001
20
13.758000
30
19.615000
70
192
0
VERTEX
8
OBJECT__60
10
71.660004
20
13.887000
30
18.223000
70
192
0
VERTEX
8
OBJECT__60
10
71.355003
20
14.608000
30
18.179001
70
192
0
VERTEX
8
OBJECT__60
10
70.669998
20
14.907000
30
17.938999
70
192
0
VERTEX
8
OBJECT__60
10
69.195999
20
14.818000
30
18.763000
70
192
0
VERTEX
8
OBJECT__60
10
70.169998
20
15.257000
30
19.197001
70
192
0
VERTEX
8
OBJECT__60
10
70.007004
20
14.608000
30
17.643000
70
192
0
VERTEX
8
OBJECT__60
10
69.754997
20
13.887000
30
17.466000
70
192
0
VERTEX
8
OBJECT__60
10
68.824997
20
13.758000
30
18.503000
70
192
0
VERTEX
8
OBJECT__60
10
70.059998
20
13.166000
30
17.511000
70
192
0
VERTEX
8
OBJECT__60
10
70.279999
20
12.259000
30
18.921000
70
192
0
VERTEX
8
OBJECT__60
10
69.274002
20
12.698000
30
18.568001
70
192
0
VERTEX
8
OBJECT__60
10
71.252998
20
12.698000
30
19.355000
70
192
0
VERTEX
8
OBJECT__60
10
70.745003
20
12.867000
30
17.750999
70
192
0
VERTEX
8
OBJECT__60
10
71.406998
20
13.166000
30
18.046000
70
192
0
VERTEX
8
OBJECT__60
10
0
20
0
30
0
70
128
71
1
72
2
73
3
0
VERTEX
8
OBJECT__60
10
0
20
0
30
0
70
128
71
1
72
4
73
5
0
VERTEX
8
OBJECT__60
10
0
20
0
30
0
70
128
71
6
72
7
73
5
0
VERTEX
8
OBJECT__60
10
0
20
0
30
0
70
128
71
6
72
8
73
9
0
VERTEX
8
OBJECT__60
10
0
20
0
30
0
70
128
71
10
72
9
73
11
0
VERTEX
8
OBJECT__60
10
0
20
0
30
0
70
128
71
12
72
13
73
11
0
VERTEX
8
OBJECT__60
10
0
20
0
30
0
70
128
71
14
72
12
73
15
0
VERTEX
8
OBJECT__60
10
0
20
0
30
0
70
128
71
2
72
14
73
16
0
VERTEX
8
OBJECT__60
10
0
20
0
30
0
70
128
71
16
72
3
73
2
0
VERTEX
8
OBJECT__60
10
0
20
0
30
0
70
128
71
15
72
16
73
14
0
VERTEX
8
OBJECT__60
10
0
20
0
30
0
70
128
71
11
72
15
73
12
0
VERTEX
8
OBJECT__60
10
0
20
0
30
0
70
128
71
11
72
13
73
10
0
VERTEX
8
OBJECT__60
10
0
20
0
30
0
70
128
71
9
72
10
73
6
0
VERTEX
8
OBJECT__60
10
0
20
0
30
0
70
128
71
5
72
8
73
6
0
VERTEX
8
OBJECT__60
10
0
20
0
30
0
70
128
71
5
72
7
73
1
0
VERTEX
8
OBJECT__60
10
0
20
0
30
0
70
128
71
3
72
4
73
1
0
SEQEND
8
OBJECT__60
0
POLYLINE
8
OBJECT__61
66
1
70
64
71
8
72
6
62
253
0
VERTEX
8
OBJECT__61
10
50.240002
20
9.668000
30
11.019000
70
192
0
VERTEX
8
OBJECT__61
10
51.625000
20
11.119000
30
11.445000
70
192
0
VERTEX
8
OBJECT__61
10
51.928001
20
10.396000
30
11.476000
70
192
0
VERTEX
8
OBJECT__61
10
50.916000
20
11.417000
30
11.289000
70
192
0
VERTEX
8
OBJECT__61
10
49.937000
20
10.391000
30
10.988000
70
192
0
VERTEX
8
OBJECT__61
10
51.647999
20
9.671000
30
11.364000
70
192
0
VERTEX
8
OBJECT__61
10
50.216999
20
11.115000
30
11.099000
70
192
0
VERTEX
8
OBJECT__61
10
50.949001
20
9.370000
30
11.175000
70
192
0
VERTEX
8
OBJECT__61
10
0
20
0
30
0
70
128
71
1
72
2
73
3
0
VERTEX
8
OBJECT__61
10
0
20
0
30
0
70
128
71
4
72
1
73
5
0
VERTEX
8
OBJECT__61
10
0
20
0
30
0
70
128
71
3
72
6
73
1
0
VERTEX
8
OBJECT__61
10
0
20
0
30
0
70
128
71
5
72
7
73
4
0
VERTEX
8
OBJECT__61
10
0
20
0
30
0
70
128
71
4
72
2
73
1
0
VERTEX
8
OBJECT__61
10
0
20
0
30
0
70
128
71
6
72
8
73
1
0
SEQEND
8
OBJECT__61
0
POLYLINE
8
OBJECT__62
66
1
70
64
71
16
72
16
62
253
0
VERTEX
8
OBJECT__62
10
50.534000
20
11.981000
30
12.843000
70
192
0
VERTEX
8
OBJECT__62
10
51.695999
20
11.492000
30
13.099000
70
192
0
VERTEX
8
OBJECT__62
10
51.625000
20
11.119000
30
11.445000
70
192
0
VERTEX
8
OBJECT__62
10
52.193001
20
10.306000
30
13.150000
70
192
0
VERTEX
8
OBJECT__62
10
51.928001
20
10.396000
30
11.476000
70
192
0
VERTEX
8
OBJECT__62
10
51.734001
20
9.119000
30
12.966000
70
192
0
VERTEX
8
OBJECT__62
10
51.647999
20
9.671000
30
11.364000
70
192
0
VERTEX
8
OBJECT__62
10
50.587002
20
8.624000
30
12.655000
70
192
0
VERTEX
8
OBJECT__62
10
50.949001
20
9.370000
30
11.175000
70
192
0
VERTEX
8
OBJECT__62
10
49.424999
20
9.113000
30
12.399000
70
192
0
VERTEX
8
OBJECT__62
10
50.240002
20
9.668000
30
11.019000
70
192
0
VERTEX
8
OBJECT__62
10
48.928001
20
10.299000
30
12.349000
70
192
0
VERTEX
8
OBJECT__62
10
49.937000
20
10.391000
30
10.988000
70
192
0
VERTEX
8
OBJECT__62
10
49.387001
20
11.487000
30
12.532000
70
192
0
VERTEX
8
OBJECT__62
10
50.216999
20
11.115000
30
11.099000
70
192
0
VERTEX
8
OBJECT__62
10
50.916000
20
11.417000
30
11.289000
70
192
0
VERTEX
8
OBJECT__62
10
0
20
0
30
0
70
128
71
1
72
2
73
3
0
VERTEX
8
OBJECT__62
10
0
20
0
30
0
70
128
71
2
72
4
73
5
0
VERTEX
8
OBJECT__62
10
0
20
0
30
0
70
128
71
4
72
6
73
7
0
VERTEX
8
OBJECT__62
10
0
20
0
30
0
70
128
71
6
72
8
73
9
0
VERTEX
8
OBJECT__62
10
0
20
0
30
0
70
128
71
8
72
10
73
11
0
VERTEX
8
OBJECT__62
10
0
20
0
30
0
70
128
71
10
72
12
73
13
0
VERTEX
8
OBJECT__62
10
0
20
0
30
0
70
128
71
12
72
14
73
15
0
VERTEX
8
OBJECT__62
10
0
20
0
30
0
70
128
71
14
72
1
73
16
0
VERTEX
8
OBJECT__62
10
0
20
0
30
0
70
128
71
16
72
15
73
14
0
VERTEX
8
OBJECT__62
10
0
20
0
30
0
70
128
71
15
72
13
73
12
0
VERTEX
8
OBJECT__62
10
0
20
0
30
0
70
128
71
13
72
11
73
10
0
VERTEX
8
OBJECT__62
10
0
20
0
30
0
70
128
71
11
72
9
73
8
0
VERTEX
8
OBJECT__62
10
0
20
0
30
0
70
128
71
9
72
7
73
6
0
VERTEX
8
OBJECT__62
10
0
20
0
30
0
70
128
71
7
72
5
73
4
0
VERTEX
8
OBJECT__62
10
0
20
0
30
0
70
128
71
5
72
3
73
2
0
VERTEX
8
OBJECT__62
10
0
20
0
30
0
70
128
71
3
72
16
73
1
0
SEQEND
8
OBJECT__62
0
POLYLINE
8
OBJECT__64
66
1
70
64
71
20
72
20
62
253
0
VERTEX
8
OBJECT__64
10
49.541000
20
16.271999
30
17.249001
70
192
0
VERTEX
8
OBJECT__64
10
50.108002
20
16.905001
30
17.469000
70
192
0
VERTEX
8
OBJECT__64
10
50.650002
20
17.979000
30
12.042000
70
192
0
VERTEX
8
OBJECT__64
10
50.153000
20
17.599001
30
11.877000
70
192
0
VERTEX
8
OBJECT__64
10
48.951000
20
16.187000
30
17.105000
70
192
0
VERTEX
8
OBJECT__64
10
50.432999
20
18.587999
30
12.073000
70
192
0
VERTEX
8
OBJECT__64
10
50.150002
20
17.770000
30
17.608000
70
192
0
VERTEX
8
OBJECT__64
10
49.646999
20
18.490000
30
17.604000
70
192
0
VERTEX
8
OBJECT__64
10
50.115002
20
17.042000
30
17.492001
70
192
0
VERTEX
8
OBJECT__64
10
48.820000
20
18.749001
30
17.459000
70
192
0
VERTEX
8
OBJECT__64
10
49.803001
20
18.583000
30
11.928000
70
192
0
VERTEX
8
OBJECT__64
10
49.626999
20
18.497000
30
17.601000
70
192
0
VERTEX
8
OBJECT__64
10
47.627998
20
17.680000
30
17.035000
70
192
0
VERTEX
8
OBJECT__64
10
47.747002
20
17.027000
30
16.962999
70
192
0
VERTEX
8
OBJECT__64
10
49.630001
20
17.972000
30
11.807000
70
192
0
VERTEX
8
OBJECT__64
10
48.116001
20
18.466000
30
17.261000
70
192
0
VERTEX
8
OBJECT__64
10
48.032001
20
18.431999
30
17.237000
70
192
0
VERTEX
8
OBJECT__64
10
48.433998
20
16.232000
30
16.997000
70
192
0
VERTEX
8
OBJECT__64
10
48.695999
20
16.150000
30
17.042999
70
192
0
VERTEX
8
OBJECT__64
10
47.785000
20
16.820999
30
16.941000
70
192
0
VERTEX
8
OBJECT__64
10
0
20
0
30
0
70
128
71
1
72
2
73
3
0
VERTEX
8
OBJECT__64
10
0
20
0
30
0
70
128
71
3
72
4
73
1
0
VERTEX
8
OBJECT__64
10
0
20
0
30
0
70
128
71
4
72
5
73
1
0
VERTEX
8
OBJECT__64
10
0
20
0
30
0
70
128
71
6
72
7
73
8
0
VERTEX
8
OBJECT__64
10
0
20
0
30
0
70
128
71
7
72
6
73
3
0
VERTEX
8
OBJECT__64
10
0
20
0
30
0
70
128
71
3
72
9
73
7
0
VERTEX
8
OBJECT__64
10
0
20
0
30
0
70
128
71
10
72
11
73
6
0
VERTEX
8
OBJECT__64
10
0
20
0
30
0
70
128
71
6
72
12
73
10
0
VERTEX
8
OBJECT__64
10
0
20
0
30
0
70
128
71
13
72
14
73
15
0
VERTEX
8
OBJECT__64
10
0
20
0
30
0
70
128
71
11
72
16
73
17
0
VERTEX
8
OBJECT__64
10
0
20
0
30
0
70
128
71
17
72
13
73
11
0
VERTEX
8
OBJECT__64
10
0
20
0
30
0
70
128
71
4
72
18
73
19
0
VERTEX
8
OBJECT__64
10
0
20
0
30
0
70
128
71
18
72
4
73
15
0
VERTEX
8
OBJECT__64
10
0
20
0
30
0
70
128
71
15
72
14
73
20
0
VERTEX
8
OBJECT__64
10
0
20
0
30
0
70
128
71
15
72
20
73
18
0
VERTEX
8
OBJECT__64
10
0
20
0
30
0
70
128
71
19
72
5
73
4
0
VERTEX
8
OBJECT__64
10
0
20
0
30
0
70
128
71
15
72
11
73
13
0
VERTEX
8
OBJECT__64
10
0
20
0
30
0
70
128
71
10
72
16
73
11
0
VERTEX
8
OBJECT__64
10
0
20
0
30
0
70
128
71
8
72
12
73
6
0
VERTEX
8
OBJECT__64
10
0
20
0
30
0
70
128
71
2
72
9
73
3
0
SEQEND
8
OBJECT__64
0
POLYLINE
8
OBJECT__65
66
1
70
64
71
13
72
13
62
253
0
VERTEX
8
OBJECT__65
10
50.098000
20
19.160999
30
12.072000
70
192
0
VERTEX
8
OBJECT__65
10
50.813999
20
18.868000
30
12.198000
70
192
0
VERTEX
8
OBJECT__65
10
50.432999
20
18.587999
30
12.073000
70
192
0
VERTEX
8
OBJECT__65
10
49.134998
20
18.136999
30
11.715000
70
192
0
VERTEX
8
OBJECT__65
10
49.402000
20
18.858000
30
11.872000
70
192
0
VERTEX
8
OBJECT__65
10
49.803001
20
18.583000
30
11.928000
70
192
0
VERTEX
8
OBJECT__65
10
50.866001
20
17.430000
30
12.018000
70
192
0
VERTEX
8
OBJECT__65
10
50.169998
20
17.128000
30
11.819000
70
192
0
VERTEX
8
OBJECT__65
10
50.153000
20
17.599001
30
11.877000
70
192
0
VERTEX
8
OBJECT__65
10
49.452999
20
17.421000
30
11.693000
70
192
0
VERTEX
8
OBJECT__65
10
49.630001
20
17.972000
30
11.807000
70
192
0
VERTEX
8
OBJECT__65
10
51.132999
20
18.150999
30
12.176000
70
192
0
VERTEX
8
OBJECT__65
10
50.650002
20
17.979000
30
12.042000
70
192
0
VERTEX
8
OBJECT__65
10
0
20
0
30
0
70
128
71
1
72
2
73
3
0
VERTEX
8
OBJECT__65
10
0
20
0
30
0
70
128
71
4
72
5
73
6
0
VERTEX
8
OBJECT__65
10
0
20
0
30
0
70
128
71
3
72
6
73
1
0
VERTEX
8
OBJECT__65
10
0
20
0
30
0
70
128
71
7
72
8
73
9
0
VERTEX
8
OBJECT__65
10
0
20
0
30
0
70
128
71
10
72
11
73
9
0
VERTEX
8
OBJECT__65
10
0
20
0
30
0
70
128
71
6
72
5
73
1
0
VERTEX
8
OBJECT__65
10
0
20
0
30
0
70
128
71
12
72
13
73
3
0
VERTEX
8
OBJECT__65
10
0
20
0
30
0
70
128
71
9
72
13
73
7
0
VERTEX
8
OBJECT__65
10
0
20
0
30
0
70
128
71
10
72
4
73
11
0
VERTEX
8
OBJECT__65
10
0
20
0
30
0
70
128
71
3
72
2
73
12
0
VERTEX
8
OBJECT__65
10
0
20
0
30
0
70
128
71
9
72
8
73
10
0
VERTEX
8
OBJECT__65
10
0
20
0
30
0
70
128
71
13
72
12
73
7
0
VERTEX
8
OBJECT__65
10
0
20
0
30
0
70
128
71
6
72
11
73
4
0
SEQEND
8
OBJECT__65
0
POLYLINE
8
OBJECT__67
66
1
70
64
71
16
72
16
62
253
0
VERTEX
8
OBJECT__67
10
49.896000
20
16.482000
30
13.028000
70
192
0
VERTEX
8
OBJECT__67
10
50.169998
20
17.128000
30
11.819000
70
192
0
VERTEX
8
OBJECT__67
10
50.866001
20
17.430000
30
12.018000
70
192
0
VERTEX
8
OBJECT__67
10
51.310001
20
17.986000
30
13.553000
70
192
0
VERTEX
8
OBJECT__67
10
50.917999
20
16.927000
30
13.322000
70
192
0
VERTEX
8
OBJECT__67
10
50.842999
20
19.039000
30
13.585000
70
192
0
VERTEX
8
OBJECT__67
10
51.132999
20
18.150999
30
12.176000
70
192
0
VERTEX
8
OBJECT__67
10
49.789001
20
19.469000
30
13.401000
70
192
0
VERTEX
8
OBJECT__67
10
50.813999
20
18.868000
30
12.198000
70
192
0
VERTEX
8
OBJECT__67
10
48.766998
20
19.024000
30
13.107000
70
192
0
VERTEX
8
OBJECT__67
10
50.098000
20
19.160999
30
12.072000
70
192
0
VERTEX
8
OBJECT__67
10
49.402000
20
18.858000
30
11.872000
70
192
0
VERTEX
8
OBJECT__67
10
49.134998
20
18.136999
30
11.715000
70
192
0
VERTEX
8
OBJECT__67
10
48.842999
20
16.912001
30
12.844000
70
192
0
VERTEX
8
OBJECT__67
10
48.375000
20
17.965000
30
12.876000
70
192
0
VERTEX
8
OBJECT__67
10
49.452999
20
17.421000
30
11.693000
70
192
0
VERTEX
8
OBJECT__67
10
0
20
0
30
0
70
128
71
1
72
2
73
3
0
VERTEX
8
OBJECT__67
10
0
20
0
30
0
70
128
71
4
72
5
73
3
0
VERTEX
8
OBJECT__67
10
0
20
0
30
0
70
128
71
6
72
4
73
7
0
VERTEX
8
OBJECT__67
10
0
20
0
30
0
70
128
71
8
72
6
73
9
0
VERTEX
8
OBJECT__67
10
0
20
0
30
0
70
128
71
10
72
8
73
11
0
VERTEX
8
OBJECT__67
10
0
20
0
30
0
70
128
71
10
72
12
73
13
0
VERTEX
8
OBJECT__67
10
0
20
0
30
0
70
128
71
14
72
15
73
13
0
VERTEX
8
OBJECT__67
10
0
20
0
30
0
70
128
71
14
72
16
73
2
0
VERTEX
8
OBJECT__67
10
0
20
0
30
0
70
128
71
2
72
1
73
14
0
VERTEX
8
OBJECT__67
10
0
20
0
30
0
70
128
71
13
72
16
73
14
0
VERTEX
8
OBJECT__67
10
0
20
0
30
0
70
128
71
13
72
15
73
10
0
VERTEX
8
OBJECT__67
10
0
20
0
30
0
70
128
71
11
72
12
73
10
0
VERTEX
8
OBJECT__67
10
0
20
0
30
0
70
128
71
9
72
11
73
8
0
VERTEX
8
OBJECT__67
10
0
20
0
30
0
70
128
71
7
72
9
73
6
0
VERTEX
8
OBJECT__67
10
0
20
0
30
0
70
128
71
3
72
7
73
4
0
VERTEX
8
OBJECT__67
10
0
20
0
30
0
70
128
71
3
72
5
73
1
0
SEQEND
8
OBJECT__67
0
POLYLINE
8
OBJECT__68
66
1
70
64
71
20
72
20
62
253
0
VERTEX
8
OBJECT__68
10
73.744003
20
6.724000
30
24.559000
70
192
0
VERTEX
8
OBJECT__68
10
75.304001
20
7.516000
30
19.237000
70
192
0
VERTEX
8
OBJECT__68
10
74.967003
20
6.993000
30
19.059999
70
192
0
VERTEX
8
OBJECT__68
10
73.001999
20
6.024000
30
24.177000
70
192
0
VERTEX
8
OBJECT__68
10
73.231003
20
6.067000
30
24.283001
70
192
0
VERTEX
8
OBJECT__68
10
73.276001
20
8.309000
30
24.451000
70
192
0
VERTEX
8
OBJECT__68
10
74.945000
20
8.038000
30
19.111000
70
192
0
VERTEX
8
OBJECT__68
10
73.754997
20
7.224000
30
24.596001
70
192
0
VERTEX
8
OBJECT__68
10
73.762001
20
7.599000
30
24.624001
70
192
0
VERTEX
8
OBJECT__68
10
71.773003
20
8.199000
30
23.764000
70
192
0
VERTEX
8
OBJECT__68
10
71.666000
20
7.970000
30
23.701000
70
192
0
VERTEX
8
OBJECT__68
10
72.500000
20
8.543000
30
24.115999
70
192
0
VERTEX
8
OBJECT__68
10
72.938004
20
8.411000
30
24.305000
70
192
0
VERTEX
8
OBJECT__68
10
71.414001
20
7.426000
30
23.551001
70
192
0
VERTEX
8
OBJECT__68
10
71.581001
20
6.565000
30
23.570000
70
192
0
VERTEX
8
OBJECT__68
10
74.398003
20
7.193000
30
18.826000
70
192
0
VERTEX
8
OBJECT__68
10
74.384003
20
7.838000
30
18.857000
70
192
0
VERTEX
8
OBJECT__68
10
72.445999
20
5.917000
30
23.917999
70
192
0
VERTEX
8
OBJECT__68
10
71.735001
20
6.339000
30
23.625000
70
192
0
VERTEX
8
OBJECT__68
10
71.658997
20
6.451000
30
23.597000
70
192
0
VERTEX
8
OBJECT__68
10
0
20
0
30
0
70
128
71
1
72
2
73
3
0
VERTEX
8
OBJECT__68
10
0
20
0
30
0
70
128
71
3
72
4
73
5
0
VERTEX
8
OBJECT__68
10
0
20
0
30
0
70
128
71
3
72
5
73
1
0
VERTEX
8
OBJECT__68
10
0
20
0
30
0
70
128
71
6
72
7
73
2
0
VERTEX
8
OBJECT__68
10
0
20
0
30
0
70
128
71
2
72
8
73
9
0
VERTEX
8
OBJECT__68
10
0
20
0
30
0
70
128
71
2
72
9
73
6
0
VERTEX
8
OBJECT__68
10
0
20
0
30
0
70
128
71
7
72
10
73
11
0
VERTEX
8
OBJECT__68
10
0
20
0
30
0
70
128
71
7
72
12
73
10
0
VERTEX
8
OBJECT__68
10
0
20
0
30
0
70
128
71
7
72
13
73
12
0
VERTEX
8
OBJECT__68
10
0
20
0
30
0
70
128
71
14
72
15
73
16
0
VERTEX
8
OBJECT__68
10
0
20
0
30
0
70
128
71
17
72
11
73
14
0
VERTEX
8
OBJECT__68
10
0
20
0
30
0
70
128
71
16
72
17
73
14
0
VERTEX
8
OBJECT__68
10
0
20
0
30
0
70
128
71
18
72
3
73
16
0
VERTEX
8
OBJECT__68
10
0
20
0
30
0
70
128
71
16
72
19
73
18
0
VERTEX
8
OBJECT__68
10
0
20
0
30
0
70
128
71
16
72
20
73
19
0
VERTEX
8
OBJECT__68
10
0
20
0
30
0
70
128
71
18
72
4
73
3
0
VERTEX
8
OBJECT__68
10
0
20
0
30
0
70
128
71
15
72
20
73
16
0
VERTEX
8
OBJECT__68
10
0
20
0
30
0
70
128
71
11
72
17
73
7
0
VERTEX
8
OBJECT__68
10
0
20
0
30
0
70
128
71
6
72
13
73
7
0
VERTEX
8
OBJECT__68
10
0
20
0
30
0
70
128
71
1
72
8
73
2
0
SEQEND
8
OBJECT__68
0
POLYLINE
8
OBJECT__69
66
1
70
64
71
13
72
13
62
253
0
VERTEX
8
OBJECT__69
10
73.859001
20
7.516000
30
18.611000
70
192
0
VERTEX
8
OBJECT__69
10
74.119003
20
8.239000
30
18.766001
70
192
0
VERTEX
8
OBJECT__69
10
74.384003
20
7.838000
30
18.857000
70
192
0
VERTEX
8
OBJECT__69
10
74.398003
20
7.193000
30
18.826000
70
192
0
VERTEX
8
OBJECT__69
10
74.778000
20
8.539000
30
19.068001
70
192
0
VERTEX
8
OBJECT__69
10
74.945000
20
8.038000
30
19.111000
70
192
0
VERTEX
8
OBJECT__69
10
75.449997
20
8.239000
30
19.341999
70
192
0
VERTEX
8
OBJECT__69
10
75.739998
20
7.516000
30
19.424999
70
192
0
VERTEX
8
OBJECT__69
10
75.304001
20
7.516000
30
19.237000
70
192
0
VERTEX
8
OBJECT__69
10
75.480003
20
6.792000
30
19.271000
70
192
0
VERTEX
8
OBJECT__69
10
74.967003
20
6.993000
30
19.059999
70
192
0
VERTEX
8
OBJECT__69
10
74.820999
20
6.492000
30
18.968000
70
192
0
VERTEX
8
OBJECT__69
10
74.150002
20
6.792000
30
18.695000
70
192
0
VERTEX
8
OBJECT__69
10
0
20
0
30
0
70
128
71
1
72
2
73
3
0
VERTEX
8
OBJECT__69
10
0
20
0
30
0
70
128
71
3
72
4
73
1
0
VERTEX
8
OBJECT__69
10
0
20
0
30
0
70
128
71
5
72
6
73
3
0
VERTEX
8
OBJECT__69
10
0
20
0
30
0
70
128
71
7
72
8
73
9
0
VERTEX
8
OBJECT__69
10
0
20
0
30
0
70
128
71
10
72
11
73
9
0
VERTEX
8
OBJECT__69
10
0
20
0
30
0
70
128
71
3
72
2
73
5
0
VERTEX
8
OBJECT__69
10
0
20
0
30
0
70
128
71
9
72
6
73
7
0
VERTEX
8
OBJECT__69
10
0
20
0
30
0
70
128
71
10
72
12
73
11
0
VERTEX
8
OBJECT__69
10
0
20
0
30
0
70
128
71
12
72
13
73
4
0
VERTEX
8
OBJECT__69
10
0
20
0
30
0
70
128
71
6
72
5
73
7
0
VERTEX
8
OBJECT__69
10
0
20
0
30
0
70
128
71
4
72
11
73
12
0
VERTEX
8
OBJECT__69
10
0
20
0
30
0
70
128
71
9
72
8
73
10
0
VERTEX
8
OBJECT__69
10
0
20
0
30
0
70
128
71
4
72
13
73
1
0
SEQEND
8
OBJECT__69
0
POLYLINE
8
OBJECT__71
66
1
70
64
71
16
72
16
62
253
0
VERTEX
8
OBJECT__71
10
75.234001
20
8.509000
30
20.695999
70
192
0
VERTEX
8
OBJECT__71
10
75.661003
20
7.446000
30
20.820000
70
192
0
VERTEX
8
OBJECT__71
10
75.739998
20
7.516000
30
19.424999
70
192
0
VERTEX
8
OBJECT__71
10
74.247002
20
8.950000
30
20.295000
70
192
0
VERTEX
8
OBJECT__71
10
75.449997
20
8.239000
30
19.341999
70
192
0
VERTEX
8
OBJECT__71
10
73.278999
20
8.509000
30
19.851000
70
192
0
VERTEX
8
OBJECT__71
10
74.778000
20
8.539000
30
19.068001
70
192
0
VERTEX
8
OBJECT__71
10
74.119003
20
8.239000
30
18.766001
70
192
0
VERTEX
8
OBJECT__71
10
73.859001
20
7.516000
30
18.611000
70
192
0
VERTEX
8
OBJECT__71
10
73.323997
20
6.382000
30
19.747000
70
192
0
VERTEX
8
OBJECT__71
10
72.897003
20
7.446000
30
19.622999
70
192
0
VERTEX
8
OBJECT__71
10
74.150002
20
6.792000
30
18.695000
70
192
0
VERTEX
8
OBJECT__71
10
74.820999
20
6.492000
30
18.968000
70
192
0
VERTEX
8
OBJECT__71
10
74.310997
20
5.942000
30
20.148001
70
192
0
VERTEX
8
OBJECT__71
10
75.480003
20
6.792000
30
19.271000
70
192
0
VERTEX
8
OBJECT__71
10
75.278999
20
6.382000
30
20.591999
70
192
0
VERTEX
8
OBJECT__71
10
0
20
0
30
0
70
128
71
1
72
2
73
3
0
VERTEX
8
OBJECT__71
10
0
20
0
30
0
70
128
71
4
72
1
73
5
0
VERTEX
8
OBJECT__71
10
0
20
0
30
0
70
128
71
6
72
4
73
7
0
VERTEX
8
OBJECT__71
10
0
20
0
30
0
70
128
71
6
72
8
73
9
0
VERTEX
8
OBJECT__71
10
0
20
0
30
0
70
128
71
10
72
11
73
9
0
VERTEX
8
OBJECT__71
10
0
20
0
30
0
70
128
71
10
72
12
73
13
0
VERTEX
8
OBJECT__71
10
0
20
0
30
0
70
128
71
14
72
13
73
15
0
VERTEX
8
OBJECT__71
10
0
20
0
30
0
70
128
71
16
72
15
73
3
0
VERTEX
8
OBJECT__71
10
0
20
0
30
0
70
128
71
3
72
2
73
16
0
VERTEX
8
OBJECT__71
10
0
20
0
30
0
70
128
71
15
72
16
73
14
0
VERTEX
8
OBJECT__71
10
0
20
0
30
0
70
128
71
13
72
14
73
10
0
VERTEX
8
OBJECT__71
10
0
20
0
30
0
70
128
71
9
72
12
73
10
0
VERTEX
8
OBJECT__71
10
0
20
0
30
0
70
128
71
9
72
11
73
6
0
VERTEX
8
OBJECT__71
10
0
20
0
30
0
70
128
71
7
72
8
73
6
0
VERTEX
8
OBJECT__71
10
0
20
0
30
0
70
128
71
5
72
7
73
4
0
VERTEX
8
OBJECT__71
10
0
20
0
30
0
70
128
71
3
72
5
73
1
0
SEQEND
8
OBJECT__71
0
POLYLINE
8
OBJECT__72
66
1
70
64
71
8
72
6
62
253
0
VERTEX
8
OBJECT__72
10
54.550999
20
-12.982000
30
12.331000
70
192
0
VERTEX
8
OBJECT__72
10
55.977001
20
-11.537000
30
12.616000
70
192
0
VERTEX
8
OBJECT__72
10
56.252998
20
-12.261000
30
12.743000
70
192
0
VERTEX
8
OBJECT__72
10
54.275002
20
-12.259000
30
12.205000
70
192
0
VERTEX
8
OBJECT__72
10
54.577999
20
-11.536000
30
12.236000
70
192
0
VERTEX
8
OBJECT__72
10
55.283001
20
-11.237000
30
12.406000
70
192
0
VERTEX
8
OBJECT__72
10
55.950001
20
-12.984000
30
12.712000
70
192
0
VERTEX
8
OBJECT__72
10
55.244999
20
-13.282000
30
12.541000
70
192
0
VERTEX
8
OBJECT__72
10
0
20
0
30
0
70
128
71
1
72
2
73
3
0
VERTEX
8
OBJECT__72
10
0
20
0
30
0
70
128
71
4
72
5
73
6
0
VERTEX
8
OBJECT__72
10
0
20
0
30
0
70
128
71
3
72
7
73
1
0
VERTEX
8
OBJECT__72
10
0
20
0
30
0
70
128
71
2
72
1
73
4
0
VERTEX
8
OBJECT__72
10
0
20
0
30
0
70
128
71
6
72
2
73
4
0
VERTEX
8
OBJECT__72
10
0
20
0
30
0
70
128
71
7
72
8
73
1
0
SEQEND
8
OBJECT__72
0
POLYLINE
8
OBJECT__73
66
1
70
64
71
16
72
16
62
253
0
VERTEX
8
OBJECT__73
10
56.023998
20
-10.968000
30
14.214000
70
192
0
VERTEX
8
OBJECT__73
10
55.977001
20
-11.537000
30
12.616000
70
192
0
VERTEX
8
OBJECT__73
10
55.283001
20
-11.237000
30
12.406000
70
192
0
VERTEX
8
OBJECT__73
10
56.476002
20
-12.154000
30
14.422000
70
192
0
VERTEX
8
OBJECT__73
10
56.252998
20
-12.261000
30
12.743000
70
192
0
VERTEX
8
OBJECT__73
10
55.979000
20
-13.340000
30
14.371000
70
192
0
VERTEX
8
OBJECT__73
10
55.950001
20
-12.984000
30
12.712000
70
192
0
VERTEX
8
OBJECT__73
10
54.821999
20
-13.830000
30
14.091000
70
192
0
VERTEX
8
OBJECT__73
10
55.244999
20
-13.282000
30
12.541000
70
192
0
VERTEX
8
OBJECT__73
10
53.685001
20
-13.338000
30
13.746000
70
192
0
VERTEX
8
OBJECT__73
10
54.550999
20
-12.982000
30
12.331000
70
192
0
VERTEX
8
OBJECT__73
10
53.231998
20
-12.151000
30
13.539000
70
192
0
VERTEX
8
OBJECT__73
10
54.275002
20
-12.259000
30
12.205000
70
192
0
VERTEX
8
OBJECT__73
10
53.730000
20
-10.966000
30
13.590000
70
192
0
VERTEX
8
OBJECT__73
10
54.577999
20
-11.536000
30
12.236000
70
192
0
VERTEX
8
OBJECT__73
10
54.886002
20
-10.476000
30
13.870000
70
192
0
VERTEX
8
OBJECT__73
10
0
20
0
30
0
70
128
71
1
72
2
73
3
0
VERTEX
8
OBJECT__73
10
0
20
0
30
0
70
128
71
4
72
5
73
2
0
VERTEX
8
OBJECT__73
10
0
20
0
30
0
70
128
71
4
72
6
73
7
0
VERTEX
8
OBJECT__73
10
0
20
0
30
0
70
128
71
6
72
8
73
9
0
VERTEX
8
OBJECT__73
10
0
20
0
30
0
70
128
71
8
72
10
73
11
0
VERTEX
8
OBJECT__73
10
0
20
0
30
0
70
128
71
10
72
12
73
13
0
VERTEX
8
OBJECT__73
10
0
20
0
30
0
70
128
71
14
72
15
73
13
0
VERTEX
8
OBJECT__73
10
0
20
0
30
0
70
128
71
14
72
16
73
3
0
VERTEX
8
OBJECT__73
10
0
20
0
30
0
70
128
71
3
72
15
73
14
0
VERTEX
8
OBJECT__73
10
0
20
0
30
0
70
128
71
13
72
12
73
14
0
VERTEX
8
OBJECT__73
10
0
20
0
30
0
70
128
71
13
72
11
73
10
0
VERTEX
8
OBJECT__73
10
0
20
0
30
0
70
128
71
11
72
9
73
8
0
VERTEX
8
OBJECT__73
10
0
20
0
30
0
70
128
71
9
72
7
73
6
0
VERTEX
8
OBJECT__73
10
0
20
0
30
0
70
128
71
7
72
5
73
4
0
VERTEX
8
OBJECT__73
10
0
20
0
30
0
70
128
71
2
72
1
73
4
0
VERTEX
8
OBJECT__73
10
0
20
0
30
0
70
128
71
3
72
16
73
1
0
SEQEND
8
OBJECT__73
0
POLYLINE
8
OBJECT__75
66
1
70
64
71
20
72
20
62
253
0
VERTEX
8
OBJECT__75
10
72.560997
20
-8.546000
30
24.143000
70
192
0
VERTEX
8
OBJECT__75
10
74.945000
20
-8.038000
30
19.111000
70
192
0
VERTEX
8
OBJECT__75
10
74.384003
20
-7.838000
30
18.857000
70
192
0
VERTEX
8
OBJECT__75
10
71.670998
20
-7.963000
30
23.702999
70
192
0
VERTEX
8
OBJECT__75
10
71.818001
20
-8.243000
30
23.787001
70
192
0
VERTEX
8
OBJECT__75
10
73.327003
20
-8.269000
30
24.472000
70
192
0
VERTEX
8
OBJECT__75
10
73.779999
20
-7.534000
30
24.628000
70
192
0
VERTEX
8
OBJECT__75
10
75.304001
20
-7.516000
30
19.237000
70
192
0
VERTEX
8
OBJECT__75
10
72.933998
20
-8.411000
30
24.302999
70
192
0
VERTEX
8
OBJECT__75
10
73.177002
20
-6.036000
30
24.257000
70
192
0
VERTEX
8
OBJECT__75
10
73.007004
20
-6.013000
30
24.177999
70
192
0
VERTEX
8
OBJECT__75
10
73.721001
20
-6.662000
30
24.544001
70
192
0
VERTEX
8
OBJECT__75
10
73.759003
20
-7.227000
30
24.598000
70
192
0
VERTEX
8
OBJECT__75
10
72.386002
20
-5.930000
30
23.892000
70
192
0
VERTEX
8
OBJECT__75
10
71.694000
20
-6.391000
30
23.608999
70
192
0
VERTEX
8
OBJECT__75
10
74.398003
20
-7.193000
30
18.826000
70
192
0
VERTEX
8
OBJECT__75
10
74.967003
20
-6.993000
30
19.059999
70
192
0
VERTEX
8
OBJECT__75
10
71.404999
20
-7.216000
30
23.533001
70
192
0
VERTEX
8
OBJECT__75
10
71.422997
20
-7.492000
30
23.559999
70
192
0
VERTEX
8
OBJECT__75
10
71.671997
20
-6.454000
30
23.604000
70
192
0
VERTEX
8
OBJECT__75
10
0
20
0
30
0
70
128
71
1
72
2
73
3
0
VERTEX
8
OBJECT__75
10
0
20
0
30
0
70
128
71
3
72
4
73
5
0
VERTEX
8
OBJECT__75
10
0
20
0
30
0
70
128
71
3
72
5
73
1
0
VERTEX
8
OBJECT__75
10
0
20
0
30
0
70
128
71
6
72
7
73
8
0
VERTEX
8
OBJECT__75
10
0
20
0
30
0
70
128
71
8
72
2
73
6
0
VERTEX
8
OBJECT__75
10
0
20
0
30
0
70
128
71
2
72
9
73
6
0
VERTEX
8
OBJECT__75
10
0
20
0
30
0
70
128
71
8
72
10
73
11
0
VERTEX
8
OBJECT__75
10
0
20
0
30
0
70
128
71
8
72
12
73
10
0
VERTEX
8
OBJECT__75
10
0
20
0
30
0
70
128
71
8
72
13
73
12
0
VERTEX
8
OBJECT__75
10
0
20
0
30
0
70
128
71
14
72
15
73
16
0
VERTEX
8
OBJECT__75
10
0
20
0
30
0
70
128
71
16
72
17
73
14
0
VERTEX
8
OBJECT__75
10
0
20
0
30
0
70
128
71
17
72
11
73
14
0
VERTEX
8
OBJECT__75
10
0
20
0
30
0
70
128
71
3
72
18
73
19
0
VERTEX
8
OBJECT__75
10
0
20
0
30
0
70
128
71
18
72
3
73
16
0
VERTEX
8
OBJECT__75
10
0
20
0
30
0
70
128
71
16
72
20
73
18
0
VERTEX
8
OBJECT__75
10
0
20
0
30
0
70
128
71
19
72
4
73
3
0
VERTEX
8
OBJECT__75
10
0
20
0
30
0
70
128
71
15
72
20
73
16
0
VERTEX
8
OBJECT__75
10
0
20
0
30
0
70
128
71
11
72
17
73
8
0
VERTEX
8
OBJECT__75
10
0
20
0
30
0
70
128
71
7
72
13
73
8
0
VERTEX
8
OBJECT__75
10
0
20
0
30
0
70
128
71
1
72
9
73
2
0
SEQEND
8
OBJECT__75
0
POLYLINE
8
OBJECT__76
66
1
70
64
71
13
72
13
62
253
0
VERTEX
8
OBJECT__76
10
75.449997
20
-8.239000
30
19.341999
70
192
0
VERTEX
8
OBJECT__76
10
74.945000
20
-8.038000
30
19.111000
70
192
0
VERTEX
8
OBJECT__76
10
75.304001
20
-7.516000
30
19.237000
70
192
0
VERTEX
8
OBJECT__76
10
75.480003
20
-6.792000
30
19.271000
70
192
0
VERTEX
8
OBJECT__76
10
75.739998
20
-7.516000
30
19.424999
70
192
0
VERTEX
8
OBJECT__76
10
74.778000
20
-8.539000
30
19.068001
70
192
0
VERTEX
8
OBJECT__76
10
74.119003
20
-8.239000
30
18.766001
70
192
0
VERTEX
8
OBJECT__76
10
74.384003
20
-7.838000
30
18.857000
70
192
0
VERTEX
8
OBJECT__76
10
73.859001
20
-7.516000
30
18.611000
70
192
0
VERTEX
8
OBJECT__76
10
74.398003
20
-7.193000
30
18.826000
70
192
0
VERTEX
8
OBJECT__76
10
74.820999
20
-6.492000
30
18.968000
70
192
0
VERTEX
8
OBJECT__76
10
74.967003
20
-6.993000
30
19.059999
70
192
0
VERTEX
8
OBJECT__76
10
74.150002
20
-6.792000
30
18.695000
70
192
0
VERTEX
8
OBJECT__76
10
0
20
0
30
0
70
128
71
1
72
2
73
3
0
VERTEX
8
OBJECT__76
10
0
20
0
30
0
70
128
71
4
72
5
73
3
0
VERTEX
8
OBJECT__76
10
0
20
0
30
0
70
128
71
1
72
6
73
2
0
VERTEX
8
OBJECT__76
10
0
20
0
30
0
70
128
71
6
72
7
73
8
0
VERTEX
8
OBJECT__76
10
0
20
0
30
0
70
128
71
9
72
10
73
8
0
VERTEX
8
OBJECT__76
10
0
20
0
30
0
70
128
71
11
72
12
73
10
0
VERTEX
8
OBJECT__76
10
0
20
0
30
0
70
128
71
3
72
12
73
4
0
VERTEX
8
OBJECT__76
10
0
20
0
30
0
70
128
71
8
72
2
73
6
0
VERTEX
8
OBJECT__76
10
0
20
0
30
0
70
128
71
9
72
13
73
10
0
VERTEX
8
OBJECT__76
10
0
20
0
30
0
70
128
71
12
72
11
73
4
0
VERTEX
8
OBJECT__76
10
0
20
0
30
0
70
128
71
8
72
7
73
9
0
VERTEX
8
OBJECT__76
10
0
20
0
30
0
70
128
71
3
72
5
73
1
0
VERTEX
8
OBJECT__76
10
0
20
0
30
0
70
128
71
10
72
13
73
11
0
SEQEND
8
OBJECT__76
0
POLYLINE
8
OBJECT__78
66
1
70
64
71
16
72
16
62
253
0
VERTEX
8
OBJECT__78
10
75.278999
20
-6.382000
30
20.591999
70
192
0
VERTEX
8
OBJECT__78
10
75.661003
20
-7.446000
30
20.820000
70
192
0
VERTEX
8
OBJECT__78
10
75.739998
20
-7.516000
30
19.424999
70
192
0
VERTEX
8
OBJECT__78
10
74.310997
20
-5.942000
30
20.148001
70
192
0
VERTEX
8
OBJECT__78
10
75.480003
20
-6.792000
30
19.271000
70
192
0
VERTEX
8
OBJECT__78
10
74.820999
20
-6.492000
30
18.968000
70
192
0
VERTEX
8
OBJECT__78
10
74.150002
20
-6.792000
30
18.695000
70
192
0
VERTEX
8
OBJECT__78
10
73.323997
20
-6.382000
30
19.747000
70
192
0
VERTEX
8
OBJECT__78
10
73.859001
20
-7.516000
30
18.611000
70
192
0
VERTEX
8
OBJECT__78
10
72.897003
20
-7.446000
30
19.622999
70
192
0
VERTEX
8
OBJECT__78
10
74.119003
20
-8.239000
30
18.766001
70
192
0
VERTEX
8
OBJECT__78
10
73.278999
20
-8.509000
30
19.851000
70
192
0
VERTEX
8
OBJECT__78
10
74.778000
20
-8.539000
30
19.068001
70
192
0
VERTEX
8
OBJECT__78
10
74.247002
20
-8.950000
30
20.295000
70
192
0
VERTEX
8
OBJECT__78
10
75.449997
20
-8.239000
30
19.341999
70
192
0
VERTEX
8
OBJECT__78
10
75.234001
20
-8.509000
30
20.695999
70
192
0
VERTEX
8
OBJECT__78
10
0
20
0
30
0
70
128
71
1
72
2
73
3
0
VERTEX
8
OBJECT__78
10
0
20
0
30
0
70
128
71
4
72
1
73
5
0
VERTEX
8
OBJECT__78
10
0
20
0
30
0
70
128
71
4
72
6
73
7
0
VERTEX
8
OBJECT__78
10
0
20
0
30
0
70
128
71
8
72
7
73
9
0
VERTEX
8
OBJECT__78
10
0
20
0
30
0
70
128
71
10
72
9
73
11
0
VERTEX
8
OBJECT__78
10
0
20
0
30
0
70
128
71
12
72
11
73
13
0
VERTEX
8
OBJECT__78
10
0
20
0
30
0
70
128
71
14
72
13
73
15
0
VERTEX
8
OBJECT__78
10
0
20
0
30
0
70
128
71
16
72
15
73
3
0
VERTEX
8
OBJECT__78
10
0
20
0
30
0
70
128
71
3
72
2
73
16
0
VERTEX
8
OBJECT__78
10
0
20
0
30
0
70
128
71
15
72
16
73
14
0
VERTEX
8
OBJECT__78
10
0
20
0
30
0
70
128
71
13
72
14
73
12
0
VERTEX
8
OBJECT__78
10
0
20
0
30
0
70
128
71
11
72
12
73
10
0
VERTEX
8
OBJECT__78
10
0
20
0
30
0
70
128
71
9
72
10
73
8
0
VERTEX
8
OBJECT__78
10
0
20
0
30
0
70
128
71
7
72
8
73
4
0
VERTEX
8
OBJECT__78
10
0
20
0
30
0
70
128
71
5
72
6
73
4
0
VERTEX
8
OBJECT__78
10
0
20
0
30
0
70
128
71
3
72
5
73
1
0
SEQEND
8
OBJECT__78
0
POLYLINE
8
OBJECT__79
66
1
70
64
71
32
72
32
62
253
0
VERTEX
8
OBJECT__79
10
0.000000
20
10.239000
30
37.969002
70
192
0
VERTEX
8
OBJECT__79
10
0.000000
20
8.235000
30
34.321999
70
192
0
VERTEX
8
OBJECT__79
10
0.000000
20
5.283000
30
37.653999
70
192
0
VERTEX
8
OBJECT__79
10
0.000000
20
7.097000
30
40.862000
70
192
0
VERTEX
8
OBJECT__79
10
0.000000
20
12.272000
30
34.213001
70
192
0
VERTEX
8
OBJECT__79
10
0.000000
20
12.975000
30
30.000000
70
192
0
VERTEX
8
OBJECT__79
10
0.000000
20
9.300000
30
30.000000
70
192
0
VERTEX
8
OBJECT__79
10
0.000000
20
-1.071000
30
17.069000
70
192
0
VERTEX
8
OBJECT__79
10
0.000000
20
-5.212000
30
18.118000
70
192
0
VERTEX
8
OBJECT__79
10
0.000000
20
-3.298000
30
21.304001
70
192
0
VERTEX
8
OBJECT__79
10
0.000000
20
-1.071000
30
42.931000
70
192
0
VERTEX
8
OBJECT__79
10
0.000000
20
1.121000
30
39.231998
70
192
0
VERTEX
8
OBJECT__79
10
0.000000
20
-3.298000
30
38.695999
70
192
0
VERTEX
8
OBJECT__79
10
0.000000
20
12.272000
30
25.787001
70
192
0
VERTEX
8
OBJECT__79
10
0.000000
20
8.235000
30
25.677999
70
192
0
VERTEX
8
OBJECT__79
10
0.000000
20
10.239000
30
22.031000
70
192
0
VERTEX
8
OBJECT__79
10
0.000000
20
7.097000
30
19.138000
70
192
0
VERTEX
8
OBJECT__79
10
0.000000
20
5.283000
30
22.346001
70
192
0
VERTEX
8
OBJECT__79
10
0.000000
20
3.185000
30
17.422001
70
192
0
VERTEX
8
OBJECT__79
10
0.000000
20
1.121000
30
20.768000
70
192
0
VERTEX
8
OBJECT__79
10
0.000000
20
-11.411000
30
36.174999
70
192
0
VERTEX
8
OBJECT__79
10
0.000000
20
-6.961000
30
36.167000
70
192
0
VERTEX
8
OBJECT__79
10
0.000000
20
-9.030000
30
32.226002
70
192
0
VERTEX
8
OBJECT__79
10
0.000000
20
-8.788000
30
39.546001
70
192
0
VERTEX
8
OBJECT__79
10
0.000000
20
-5.212000
30
41.882000
70
192
0
VERTEX
8
OBJECT__79
10
0.000000
20
-8.788000
30
20.454000
70
192
0
VERTEX
8
OBJECT__79
10
0.000000
20
-9.030000
30
27.774000
70
192
0
VERTEX
8
OBJECT__79
10
0.000000
20
-12.798000
30
27.864000
70
192
0
VERTEX
8
OBJECT__79
10
0.000000
20
-12.798000
30
32.136002
70
192
0
VERTEX
8
OBJECT__79
10
0.000000
20
3.185000
30
42.577999
70
192
0
VERTEX
8
OBJECT__79
10
0.000000
20
-6.961000
30
23.833000
70
192
0
VERTEX
8
OBJECT__79
10
0.000000
20
-11.411000
30
23.825001
70
192
0
VERTEX
8
OBJECT__79
10
0
20
0
30
0
70
128
71
1
72
2
73
3
0
VERTEX
8
OBJECT__79
10
0
20
0
30
0
70
128
71
3
72
4
73
1
0
VERTEX
8
OBJECT__79
10
0
20
0
30
0
70
128
71
5
72
6
73
7
0
VERTEX
8
OBJECT__79
10
0
20
0
30
0
70
128
71
8
72
9
73
10
0
VERTEX
8
OBJECT__79
10
0
20
0
30
0
70
128
71
11
72
12
73
13
0
VERTEX
8
OBJECT__79
10
0
20
0
30
0
70
128
71
7
72
2
73
5
0
VERTEX
8
OBJECT__79
10
0
20
0
30
0
70
128
71
14
72
15
73
7
0
VERTEX
8
OBJECT__79
10
0
20
0
30
0
70
128
71
16
72
17
73
18
0
VERTEX
8
OBJECT__79
10
0
20
0
30
0
70
128
71
19
72
20
73
18
0
VERTEX
8
OBJECT__79
10
0
20
0
30
0
70
128
71
20
72
19
73
8
0
VERTEX
8
OBJECT__79
10
0
20
0
30
0
70
128
71
21
72
22
73
23
0
VERTEX
8
OBJECT__79
10
0
20
0
30
0
70
128
71
13
72
22
73
24
0
VERTEX
8
OBJECT__79
10
0
20
0
30
0
70
128
71
13
72
25
73
11
0
VERTEX
8
OBJECT__79
10
0
20
0
30
0
70
128
71
7
72
6
73
14
0
VERTEX
8
OBJECT__79
10
0
20
0
30
0
70
128
71
15
72
14
73
16
0
VERTEX
8
OBJECT__79
10
0
20
0
30
0
70
128
71
10
72
20
73
8
0
VERTEX
8
OBJECT__79
10
0
20
0
30
0
70
128
71
10
72
9
73
26
0
VERTEX
8
OBJECT__79
10
0
20
0
30
0
70
128
71
23
72
27
73
28
0
VERTEX
8
OBJECT__79
10
0
20
0
30
0
70
128
71
23
72
29
73
21
0
VERTEX
8
OBJECT__79
10
0
20
0
30
0
70
128
71
11
72
30
73
12
0
VERTEX
8
OBJECT__79
10
0
20
0
30
0
70
128
71
30
72
4
73
3
0
VERTEX
8
OBJECT__79
10
0
20
0
30
0
70
128
71
18
72
15
73
16
0
VERTEX
8
OBJECT__79
10
0
20
0
30
0
70
128
71
26
72
31
73
10
0
VERTEX
8
OBJECT__79
10
0
20
0
30
0
70
128
71
32
72
28
73
27
0
VERTEX
8
OBJECT__79
10
0
20
0
30
0
70
128
71
21
72
24
73
22
0
VERTEX
8
OBJECT__79
10
0
20
0
30
0
70
128
71
3
72
12
73
30
0
VERTEX
8
OBJECT__79
10
0
20
0
30
0
70
128
71
18
72
17
73
19
0
VERTEX
8
OBJECT__79
10
0
20
0
30
0
70
128
71
31
72
26
73
32
0
VERTEX
8
OBJECT__79
10
0
20
0
30
0
70
128
71
24
72
25
73
13
0
VERTEX
8
OBJECT__79
10
0
20
0
30
0
70
128
71
27
72
31
73
32
0
VERTEX
8
OBJECT__79
10
0
20
0
30
0
70
128
71
1
72
5
73
2
0
VERTEX
8
OBJECT__79
10
0
20
0
30
0
70
128
71
28
72
29
73
23
0
SEQEND
8
OBJECT__79
0
POLYLINE
8
OBJECT__80
66
1
70
64
71
39
72
39
62
253
0
VERTEX
8
OBJECT__80
10
0.000000
20
9.300000
30
30.000000
70
192
0
VERTEX
8
OBJECT__80
10
-1.800000
20
9.300000
30
30.000000
70
192
0
VERTEX
8
OBJECT__80
10
-1.800000
20
8.379000
30
34.035000
70
192
0
VERTEX
8
OBJECT__80
10
0.000000
20
8.235000
30
34.321999
70
192
0
VERTEX
8
OBJECT__80
10
-1.800000
20
8.183000
30
34.280998
70
192
0
VERTEX
8
OBJECT__80
10
-1.800000
20
5.798000
30
37.271000
70
192
0
VERTEX
8
OBJECT__80
10
0.000000
20
5.283000
30
37.653999
70
192
0
VERTEX
8
OBJECT__80
10
-1.800000
20
5.230000
30
37.544998
70
192
0
VERTEX
8
OBJECT__80
10
-1.800000
20
2.069000
30
39.067001
70
192
0
VERTEX
8
OBJECT__80
10
0.000000
20
1.121000
30
39.231998
70
192
0
VERTEX
8
OBJECT__80
10
-1.800000
20
1.121000
30
39.067001
70
192
0
VERTEX
8
OBJECT__80
10
-1.800000
20
-2.069000
30
39.067001
70
192
0
VERTEX
8
OBJECT__80
10
0.000000
20
-3.298000
30
38.695999
70
192
0
VERTEX
8
OBJECT__80
10
-1.800000
20
-3.212000
30
38.516998
70
192
0
VERTEX
8
OBJECT__80
10
-1.800000
20
-5.798000
30
37.271000
70
192
0
VERTEX
8
OBJECT__80
10
0.000000
20
-6.961000
30
36.167000
70
192
0
VERTEX
8
OBJECT__80
10
-1.800000
20
-6.789000
30
36.028999
70
192
0
VERTEX
8
OBJECT__80
10
-1.800000
20
-8.379000
30
34.035000
70
192
0
VERTEX
8
OBJECT__80
10
0.000000
20
-9.030000
30
32.226002
70
192
0
VERTEX
8
OBJECT__80
10
-1.800000
20
-8.804000
30
32.174000
70
192
0
VERTEX
8
OBJECT__80
10
-1.800000
20
-9.300000
30
30.000000
70
192
0
VERTEX
8
OBJECT__80
10
0.000000
20
-9.030000
30
27.774000
70
192
0
VERTEX
8
OBJECT__80
10
0.000000
20
-6.961000
30
23.833000
70
192
0
VERTEX
8
OBJECT__80
10
-1.800000
20
-8.379000
30
25.965000
70
192
0
VERTEX
8
OBJECT__80
10
-1.800000
20
-8.804000
30
27.826000
70
192
0
VERTEX
8
OBJECT__80
10
0.000000
20
-3.298000
30
21.304001
70
192
0
VERTEX
8
OBJECT__80
10
-1.800000
20
-5.798000
30
22.729000
70
192
0
VERTEX
8
OBJECT__80
10
-1.800000
20
-6.789000
30
23.971001
70
192
0
VERTEX
8
OBJECT__80
10
0.000000
20
1.121000
30
20.768000
70
192
0
VERTEX
8
OBJECT__80
10
-1.800000
20
-2.069000
30
20.933001
70
192
0
VERTEX
8
OBJECT__80
10
-1.800000
20
-3.212000
30
21.483000
70
192
0
VERTEX
8
OBJECT__80
10
0.000000
20
5.283000
30
22.346001
70
192
0
VERTEX
8
OBJECT__80
10
-1.800000
20
2.069000
30
20.933001
70
192
0
VERTEX
8
OBJECT__80
10
-1.800000
20
1.121000
30
20.933001
70
192
0
VERTEX
8
OBJECT__80
10
0.000000
20
8.235000
30
25.677999
70
192
0
VERTEX
8
OBJECT__80
10
-1.800000
20
5.798000
30
22.729000
70
192
0
VERTEX
8
OBJECT__80
10
-1.800000
20
5.230000
30
22.455000
70
192
0
VERTEX
8
OBJECT__80
10
-1.800000
20
8.379000
30
25.965000
70
192
0
VERTEX
8
OBJECT__80
10
-1.800000
20
8.183000
30
25.719000
70
192
0
VERTEX
8
OBJECT__80
10
0
20
0
30
0
70
128
71
1
72
2
73
3
0
VERTEX
8
OBJECT__80
10
0
20
0
30
0
70
128
71
3
72
4
73
1
0
VERTEX
8
OBJECT__80
10
0
20
0
30
0
70
128
71
4
72
5
73
6
0
VERTEX
8
OBJECT__80
10
0
20
0
30
0
70
128
71
6
72
7
73
4
0
VERTEX
8
OBJECT__80
10
0
20
0
30
0
70
128
71
7
72
8
73
9
0
VERTEX
8
OBJECT__80
10
0
20
0
30
0
70
128
71
9
72
10
73
7
0
VERTEX
8
OBJECT__80
10
0
20
0
30
0
70
128
71
10
72
11
73
12
0
VERTEX
8
OBJECT__80
10
0
20
0
30
0
70
128
71
12
72
13
73
10
0
VERTEX
8
OBJECT__80
10
0
20
0
30
0
70
128
71
13
72
14
73
15
0
VERTEX
8
OBJECT__80
10
0
20
0
30
0
70
128
71
15
72
16
73
13
0
VERTEX
8
OBJECT__80
10
0
20
0
30
0
70
128
71
16
72
17
73
18
0
VERTEX
8
OBJECT__80
10
0
20
0
30
0
70
128
71
18
72
19
73
16
0
VERTEX
8
OBJECT__80
10
0
20
0
30
0
70
128
71
19
72
20
73
21
0
VERTEX
8
OBJECT__80
10
0
20
0
30
0
70
128
71
21
72
22
73
19
0
VERTEX
8
OBJECT__80
10
0
20
0
30
0
70
128
71
23
72
22
73
24
0
VERTEX
8
OBJECT__80
10
0
20
0
30
0
70
128
71
22
72
25
73
24
0
VERTEX
8
OBJECT__80
10
0
20
0
30
0
70
128
71
26
72
23
73
27
0
VERTEX
8
OBJECT__80
10
0
20
0
30
0
70
128
71
23
72
28
73
27
0
VERTEX
8
OBJECT__80
10
0
20
0
30
0
70
128
71
29
72
26
73
30
0
VERTEX
8
OBJECT__80
10
0
20
0
30
0
70
128
71
26
72
31
73
30
0
VERTEX
8
OBJECT__80
10
0
20
0
30
0
70
128
71
32
72
29
73
33
0
VERTEX
8
OBJECT__80
10
0
20
0
30
0
70
128
71
29
72
34
73
33
0
VERTEX
8
OBJECT__80
10
0
20
0
30
0
70
128
71
35
72
32
73
36
0
VERTEX
8
OBJECT__80
10
0
20
0
30
0
70
128
71
32
72
37
73
36
0
VERTEX
8
OBJECT__80
10
0
20
0
30
0
70
128
71
1
72
35
73
38
0
VERTEX
8
OBJECT__80
10
0
20
0
30
0
70
128
71
35
72
39
73
38
0
VERTEX
8
OBJECT__80
10
0
20
0
30
0
70
128
71
38
72
2
73
1
0
VERTEX
8
OBJECT__80
10
0
20
0
30
0
70
128
71
36
72
39
73
35
0
VERTEX
8
OBJECT__80
10
0
20
0
30
0
70
128
71
33
72
37
73
32
0
VERTEX
8
OBJECT__80
10
0
20
0
30
0
70
128
71
30
72
34
73
29
0
VERTEX
8
OBJECT__80
10
0
20
0
30
0
70
128
71
27
72
31
73
26
0
VERTEX
8
OBJECT__80
10
0
20
0
30
0
70
128
71
24
72
28
73
23
0
VERTEX
8
OBJECT__80
10
0
20
0
30
0
70
128
71
21
72
25
73
22
0
VERTEX
8
OBJECT__80
10
0
20
0
30
0
70
128
71
18
72
20
73
19
0
VERTEX
8
OBJECT__80
10
0
20
0
30
0
70
128
71
15
72
17
73
16
0
VERTEX
8
OBJECT__80
10
0
20
0
30
0
70
128
71
12
72
14
73
13
0
VERTEX
8
OBJECT__80
10
0
20
0
30
0
70
128
71
9
72
11
73
10
0
VERTEX
8
OBJECT__80
10
0
20
0
30
0
70
128
71
6
72
8
73
7
0
VERTEX
8
OBJECT__80
10
0
20
0
30
0
70
128
71
3
72
5
73
4
0
SEQEND
8
OBJECT__80
0
POLYLINE
8
OBJECT__82
66
1
70
64
71
40
72
40
62
253
0
VERTEX
8
OBJECT__82
10
-2.978000
20
-10.477000
30
30.000000
70
192
0
VERTEX
8
OBJECT__82
10
-1.800000
20
-9.300000
30
30.000000
70
192
0
VERTEX
8
OBJECT__82
10
-1.800000
20
-8.804000
30
32.174000
70
192
0
VERTEX
8
OBJECT__82
10
-2.978000
20
-9.440000
30
34.546001
70
192
0
VERTEX
8
OBJECT__82
10
-1.800000
20
-8.379000
30
34.035000
70
192
0
VERTEX
8
OBJECT__82
10
-1.800000
20
-6.789000
30
36.028999
70
192
0
VERTEX
8
OBJECT__82
10
-2.978000
20
-6.533000
30
38.192001
70
192
0
VERTEX
8
OBJECT__82
10
-1.800000
20
-5.798000
30
37.271000
70
192
0
VERTEX
8
OBJECT__82
10
-1.800000
20
-3.212000
30
38.516998
70
192
0
VERTEX
8
OBJECT__82
10
-2.978000
20
-2.331000
30
40.215000
70
192
0
VERTEX
8
OBJECT__82
10
-1.800000
20
-2.069000
30
39.067001
70
192
0
VERTEX
8
OBJECT__82
10
-1.800000
20
1.121000
30
39.067001
70
192
0
VERTEX
8
OBJECT__82
10
-2.977000
20
2.331000
30
40.215000
70
192
0
VERTEX
8
OBJECT__82
10
-1.800000
20
2.069000
30
39.067001
70
192
0
VERTEX
8
OBJECT__82
10
-1.800000
20
5.230000
30
37.544998
70
192
0
VERTEX
8
OBJECT__82
10
-2.977000
20
6.533000
30
38.192001
70
192
0
VERTEX
8
OBJECT__82
10
-1.800000
20
5.798000
30
37.271000
70
192
0
VERTEX
8
OBJECT__82
10
-1.800000
20
8.183000
30
34.280998
70
192
0
VERTEX
8
OBJECT__82
10
-2.977000
20
9.440000
30
34.546001
70
192
0
VERTEX
8
OBJECT__82
10
-2.977000
20
10.477000
30
30.000000
70
192
0
VERTEX
8
OBJECT__82
10
-1.800000
20
8.379000
30
34.035000
70
192
0
VERTEX
8
OBJECT__82
10
-2.977000
20
9.440000
30
25.454000
70
192
0
VERTEX
8
OBJECT__82
10
-1.800000
20
9.300000
30
30.000000
70
192
0
VERTEX
8
OBJECT__82
10
-2.977000
20
6.533000
30
21.808001
70
192
0
VERTEX
8
OBJECT__82
10
-1.800000
20
8.183000
30
25.719000
70
192
0
VERTEX
8
OBJECT__82
10
-1.800000
20
8.379000
30
25.965000
70
192
0
VERTEX
8
OBJECT__82
10
-2.977000
20
2.331000
30
19.785000
70
192
0
VERTEX
8
OBJECT__82
10
-1.800000
20
5.230000
30
22.455000
70
192
0
VERTEX
8
OBJECT__82
10
-1.800000
20
5.798000
30
22.729000
70
192
0
VERTEX
8
OBJECT__82
10
-2.978000
20
-2.331000
30
19.785000
70
192
0
VERTEX
8
OBJECT__82
10
-1.800000
20
1.121000
30
20.933001
70
192
0
VERTEX
8
OBJECT__82
10
-1.800000
20
2.069000
30
20.933001
70
192
0
VERTEX
8
OBJECT__82
10
-2.978000
20
-6.533000
30
21.808001
70
192
0
VERTEX
8
OBJECT__82
10
-1.800000
20
-3.212000
30
21.483000
70
192
0
VERTEX
8
OBJECT__82
10
-1.800000
20
-2.069000
30
20.933001
70
192
0
VERTEX
8
OBJECT__82
10
-2.978000
20
-9.440000
30
25.454000
70
192
0
VERTEX
8
OBJECT__82
10
-1.800000
20
-6.789000
30
23.971001
70
192
0
VERTEX
8
OBJECT__82
10
-1.800000
20
-5.798000
30
22.729000
70
192
0
VERTEX
8
OBJECT__82
10
-1.800000
20
-8.804000
30
27.826000
70
192
0
VERTEX
8
OBJECT__82
10
-1.800000
20
-8.379000
30
25.965000
70
192
0
VERTEX
8
OBJECT__82
10
0
20
0
30
0
70
128
71
1
72
2
73
3
0
VERTEX
8
OBJECT__82
10
0
20
0
30
0
70
128
71
3
72
4
73
1
0
VERTEX
8
OBJECT__82
10
0
20
0
30
0
70
128
71
4
72
5
73
6
0
VERTEX
8
OBJECT__82
10
0
20
0
30
0
70
128
71
6
72
7
73
4
0
VERTEX
8
OBJECT__82
10
0
20
0
30
0
70
128
71
7
72
8
73
9
0
VERTEX
8
OBJECT__82
10
0
20
0
30
0
70
128
71
9
72
10
73
7
0
VERTEX
8
OBJECT__82
10
0
20
0
30
0
70
128
71
10
72
11
73
12
0
VERTEX
8
OBJECT__82
10
0
20
0
30
0
70
128
71
12
72
13
73
10
0
VERTEX
8
OBJECT__82
10
0
20
0
30
0
70
128
71
13
72
14
73
15
0
VERTEX
8
OBJECT__82
10
0
20
0
30
0
70
128
71
15
72
16
73
13
0
VERTEX
8
OBJECT__82
10
0
20
0
30
0
70
128
71
16
72
17
73
18
0
VERTEX
8
OBJECT__82
10
0
20
0
30
0
70
128
71
18
72
19
73
16
0
VERTEX
8
OBJECT__82
10
0
20
0
30
0
70
128
71
20
72
19
73
21
0
VERTEX
8
OBJECT__82
10
0
20
0
30
0
70
128
71
22
72
20
73
23
0
VERTEX
8
OBJECT__82
10
0
20
0
30
0
70
128
71
24
72
22
73
25
0
VERTEX
8
OBJECT__82
10
0
20
0
30
0
70
128
71
22
72
26
73
25
0
VERTEX
8
OBJECT__82
10
0
20
0
30
0
70
128
71
27
72
24
73
28
0
VERTEX
8
OBJECT__82
10
0
20
0
30
0
70
128
71
24
72
29
73
28
0
VERTEX
8
OBJECT__82
10
0
20
0
30
0
70
128
71
30
72
27
73
31
0
VERTEX
8
OBJECT__82
10
0
20
0
30
0
70
128
71
27
72
32
73
31
0
VERTEX
8
OBJECT__82
10
0
20
0
30
0
70
128
71
33
72
30
73
34
0
VERTEX
8
OBJECT__82
10
0
20
0
30
0
70
128
71
30
72
35
73
34
0
VERTEX
8
OBJECT__82
10
0
20
0
30
0
70
128
71
36
72
33
73
37
0
VERTEX
8
OBJECT__82
10
0
20
0
30
0
70
128
71
33
72
38
73
37
0
VERTEX
8
OBJECT__82
10
0
20
0
30
0
70
128
71
1
72
36
73
39
0
VERTEX
8
OBJECT__82
10
0
20
0
30
0
70
128
71
36
72
40
73
39
0
VERTEX
8
OBJECT__82
10
0
20
0
30
0
70
128
71
39
72
2
73
1
0
VERTEX
8
OBJECT__82
10
0
20
0
30
0
70
128
71
37
72
40
73
36
0
VERTEX
8
OBJECT__82
10
0
20
0
30
0
70
128
71
34
72
38
73
33
0
VERTEX
8
OBJECT__82
10
0
20
0
30
0
70
128
71
31
72
35
73
30
0
VERTEX
8
OBJECT__82
10
0
20
0
30
0
70
128
71
28
72
32
73
27
0
VERTEX
8
OBJECT__82
10
0
20
0
30
0
70
128
71
25
72
29
73
24
0
VERTEX
8
OBJECT__82
10
0
20
0
30
0
70
128
71
23
72
26
73
22
0
VERTEX
8
OBJECT__82
10
0
20
0
30
0
70
128
71
21
72
23
73
20
0
VERTEX
8
OBJECT__82
10
0
20
0
30
0
70
128
71
18
72
21
73
19
0
VERTEX
8
OBJECT__82
10
0
20
0
30
0
70
128
71
15
72
17
73
16
0
VERTEX
8
OBJECT__82
10
0
20
0
30
0
70
128
71
12
72
14
73
13
0
VERTEX
8
OBJECT__82
10
0
20
0
30
0
70
128
71
9
72
11
73
10
0
VERTEX
8
OBJECT__82
10
0
20
0
30
0
70
128
71
6
72
8
73
7
0
VERTEX
8
OBJECT__82
10
0
20
0
30
0
70
128
71
3
72
5
73
4
0
SEQEND
8
OBJECT__82
0
POLYLINE
8
OBJECT__83
66
1
70
64
71
28
72
28
62
253
0
VERTEX
8
OBJECT__83
10
-2.978000
20
9.440000
30
34.546001
70
192
0
VERTEX
8
OBJECT__83
10
-2.977000
20
10.478000
30
30.000000
70
192
0
VERTEX
8
OBJECT__83
10
-18.837000
20
10.478000
30
30.000000
70
192
0
VERTEX
8
OBJECT__83
10
-18.837000
20
6.533000
30
38.192001
70
192
0
VERTEX
8
OBJECT__83
10
-2.978000
20
6.533000
30
38.192001
70
192
0
VERTEX
8
OBJECT__83
10
-18.837000
20
2.331000
30
40.215000
70
192
0
VERTEX
8
OBJECT__83
10
-2.978000
20
2.331000
30
40.215000
70
192
0
VERTEX
8
OBJECT__83
10
-18.837000
20
-2.331000
30
40.215000
70
192
0
VERTEX
8
OBJECT__83
10
-2.978000
20
-2.331000
30
40.215000
70
192
0
VERTEX
8
OBJECT__83
10
-18.837000
20
-6.533000
30
38.192001
70
192
0
VERTEX
8
OBJECT__83
10
-2.978000
20
-6.533000
30
38.192001
70
192
0
VERTEX
8
OBJECT__83
10
-18.837000
20
-9.440000
30
34.546001
70
192
0
VERTEX
8
OBJECT__83
10
-2.978000
20
-9.440000
30
34.546001
70
192
0
VERTEX
8
OBJECT__83
10
-2.978000
20
-10.478000
30
30.000000
70
192
0
VERTEX
8
OBJECT__83
10
-18.837000
20
-9.440000
30
25.454000
70
192
0
VERTEX
8
OBJECT__83
10
-2.978000
20
-9.440000
30
25.454000
70
192
0
VERTEX
8
OBJECT__83
10
-2.978000
20
-6.533000
30
21.808001
70
192
0
VERTEX
8
OBJECT__83
10
-2.978000
20
-2.331000
30
19.785000
70
192
0
VERTEX
8
OBJECT__83
10
-18.837000
20
-6.533000
30
21.808001
70
192
0
VERTEX
8
OBJECT__83
10
-2.978000
20
2.331000
30
19.785000
70
192
0
VERTEX
8
OBJECT__83
10
-18.837000
20
-2.331000
30
19.785000
70
192
0
VERTEX
8
OBJECT__83
10
-2.978000
20
6.533000
30
21.808001
70
192
0
VERTEX
8
OBJECT__83
10
-18.837000
20
2.331000
30
19.785000
70
192
0
VERTEX
8
OBJECT__83
10
-2.978000
20
9.440000
30
25.454000
70
192
0
VERTEX
8
OBJECT__83
10
-18.837000
20
6.533000
30
21.808001
70
192
0
VERTEX
8
OBJECT__83
10
-18.837000
20
9.440000
30
25.454000
70
192
0
VERTEX
8
OBJECT__83
10
-18.837999
20
-10.477000
30
30.000000
70
192
0
VERTEX
8
OBJECT__83
10
-18.837000
20
9.440000
30
34.546001
70
192
0
VERTEX
8
OBJECT__83
10
0
20
0
30
0
70
128
71
1
72
2
73
3
0
VERTEX
8
OBJECT__83
10
0
20
0
30
0
70
128
71
4
72
5
73
1
0
VERTEX
8
OBJECT__83
10
0
20
0
30
0
70
128
71
6
72
7
73
5
0
VERTEX
8
OBJECT__83
10
0
20
0
30
0
70
128
71
8
72
9
73
7
0
VERTEX
8
OBJECT__83
10
0
20
0
30
0
70
128
71
10
72
11
73
9
0
VERTEX
8
OBJECT__83
10
0
20
0
30
0
70
128
71
12
72
13
73
11
0
VERTEX
8
OBJECT__83
10
0
20
0
30
0
70
128
71
14
72
13
73
12
0
VERTEX
8
OBJECT__83
10
0
20
0
30
0
70
128
71
15
72
16
73
14
0
VERTEX
8
OBJECT__83
10
0
20
0
30
0
70
128
71
17
72
16
73
15
0
VERTEX
8
OBJECT__83
10
0
20
0
30
0
70
128
71
18
72
17
73
19
0
VERTEX
8
OBJECT__83
10
0
20
0
30
0
70
128
71
20
72
18
73
21
0
VERTEX
8
OBJECT__83
10
0
20
0
30
0
70
128
71
22
72
20
73
23
0
VERTEX
8
OBJECT__83
10
0
20
0
30
0
70
128
71
24
72
22
73
25
0
VERTEX
8
OBJECT__83
10
0
20
0
30
0
70
128
71
3
72
2
73
24
0
VERTEX
8
OBJECT__83
10
0
20
0
30
0
70
128
71
24
72
26
73
3
0
VERTEX
8
OBJECT__83
10
0
20
0
30
0
70
128
71
25
72
26
73
24
0
VERTEX
8
OBJECT__83
10
0
20
0
30
0
70
128
71
23
72
25
73
22
0
VERTEX
8
OBJECT__83
10
0
20
0
30
0
70
128
71
21
72
23
73
20
0
VERTEX
8
OBJECT__83
10
0
20
0
30
0
70
128
71
19
72
21
73
18
0
VERTEX
8
OBJECT__83
10
0
20
0
30
0
70
128
71
15
72
19
73
17
0
VERTEX
8
OBJECT__83
10
0
20
0
30
0
70
128
71
14
72
27
73
15
0
VERTEX
8
OBJECT__83
10
0
20
0
30
0
70
128
71
12
72
27
73
14
0
VERTEX
8
OBJECT__83
10
0
20
0
30
0
70
128
71
11
72
10
73
12
0
VERTEX
8
OBJECT__83
10
0
20
0
30
0
70
128
71
9
72
8
73
10
0
VERTEX
8
OBJECT__83
10
0
20
0
30
0
70
128
71
7
72
6
73
8
0
VERTEX
8
OBJECT__83
10
0
20
0
30
0
70
128
71
5
72
4
73
6
0
VERTEX
8
OBJECT__83
10
0
20
0
30
0
70
128
71
1
72
28
73
4
0
VERTEX
8
OBJECT__83
10
0
20
0
30
0
70
128
71
3
72
28
73
1
0
SEQEND
8
OBJECT__83
0
POLYLINE
8
OBJECT__84
66
1
70
64
71
28
72
28
62
253
0
VERTEX
8
OBJECT__84
10
-18.837000
20
10.478000
30
30.000000
70
192
0
VERTEX
8
OBJECT__84
10
-20.000000
20
9.315000
30
30.000000
70
192
0
VERTEX
8
OBJECT__84
10
-20.000000
20
8.393000
30
34.042000
70
192
0
VERTEX
8
OBJECT__84
10
-18.837000
20
9.440000
30
34.546001
70
192
0
VERTEX
8
OBJECT__84
10
-20.000000
20
5.808000
30
37.283001
70
192
0
VERTEX
8
OBJECT__84
10
-18.837000
20
6.533000
30
38.192001
70
192
0
VERTEX
8
OBJECT__84
10
-20.000000
20
2.073000
30
39.081001
70
192
0
VERTEX
8
OBJECT__84
10
-18.837000
20
2.331000
30
40.215000
70
192
0
VERTEX
8
OBJECT__84
10
-20.000000
20
-2.073000
30
39.081001
70
192
0
VERTEX
8
OBJECT__84
10
-18.837000
20
-2.331000
30
40.215000
70
192
0
VERTEX
8
OBJECT__84
10
-20.000000
20
-5.808000
30
37.283001
70
192
0
VERTEX
8
OBJECT__84
10
-18.837999
20
-9.440000
30
34.546001
70
192
0
VERTEX
8
OBJECT__84
10
-18.837999
20
-6.533000
30
38.192001
70
192
0
VERTEX
8
OBJECT__84
10
-18.837999
20
-10.478000
30
30.000000
70
192
0
VERTEX
8
OBJECT__84
10
-20.000000
20
-8.393000
30
34.042000
70
192
0
VERTEX
8
OBJECT__84
10
-18.837999
20
-9.440000
30
25.454000
70
192
0
VERTEX
8
OBJECT__84
10
-20.000000
20
-9.315000
30
30.000000
70
192
0
VERTEX
8
OBJECT__84
10
-18.837999
20
-6.533000
30
21.808001
70
192
0
VERTEX
8
OBJECT__84
10
-20.000000
20
-8.393000
30
25.958000
70
192
0
VERTEX
8
OBJECT__84
10
-18.837000
20
-2.331000
30
19.785000
70
192
0
VERTEX
8
OBJECT__84
10
-20.000000
20
-5.808000
30
22.716999
70
192
0
VERTEX
8
OBJECT__84
10
-18.837000
20
2.331000
30
19.785000
70
192
0
VERTEX
8
OBJECT__84
10
-20.000000
20
-2.073000
30
20.919001
70
192
0
VERTEX
8
OBJECT__84
10
-18.837000
20
6.533000
30
21.808001
70
192
0
VERTEX
8
OBJECT__84
10
-20.000000
20
2.073000
30
20.919001
70
192
0
VERTEX
8
OBJECT__84
10
-20.000000
20
5.808000
30
22.716999
70
192
0
VERTEX
8
OBJECT__84
10
-20.000000
20
8.393000
30
25.958000
70
192
0
VERTEX
8
OBJECT__84
10
-18.837000
20
9.440000
30
25.454000
70
192
0
VERTEX
8
OBJECT__84
10
0
20
0
30
0
70
128
71
1
72
2
73
3
0
VERTEX
8
OBJECT__84
10
0
20
0
30
0
70
128
71
4
72
3
73
5
0
VERTEX
8
OBJECT__84
10
0
20
0
30
0
70
128
71
6
72
5
73
7
0
VERTEX
8
OBJECT__84
10
0
20
0
30
0
70
128
71
8
72
7
73
9
0
VERTEX
8
OBJECT__84
10
0
20
0
30
0
70
128
71
10
72
9
73
11
0
VERTEX
8
OBJECT__84
10
0
20
0
30
0
70
128
71
12
72
13
73
11
0
VERTEX
8
OBJECT__84
10
0
20
0
30
0
70
128
71
14
72
12
73
15
0
VERTEX
8
OBJECT__84
10
0
20
0
30
0
70
128
71
16
72
14
73
17
0
VERTEX
8
OBJECT__84
10
0
20
0
30
0
70
128
71
18
72
16
73
19
0
VERTEX
8
OBJECT__84
10
0
20
0
30
0
70
128
71
20
72
18
73
21
0
VERTEX
8
OBJECT__84
10
0
20
0
30
0
70
128
71
22
72
20
73
23
0
VERTEX
8
OBJECT__84
10
0
20
0
30
0
70
128
71
24
72
22
73
25
0
VERTEX
8
OBJECT__84
10
0
20
0
30
0
70
128
71
24
72
26
73
27
0
VERTEX
8
OBJECT__84
10
0
20
0
30
0
70
128
71
1
72
28
73
27
0
VERTEX
8
OBJECT__84
10
0
20
0
30
0
70
128
71
27
72
2
73
1
0
VERTEX
8
OBJECT__84
10
0
20
0
30
0
70
128
71
27
72
28
73
24
0
VERTEX
8
OBJECT__84
10
0
20
0
30
0
70
128
71
25
72
26
73
24
0
VERTEX
8
OBJECT__84
10
0
20
0
30
0
70
128
71
23
72
25
73
22
0
VERTEX
8
OBJECT__84
10
0
20
0
30
0
70
128
71
21
72
23
73
20
0
VERTEX
8
OBJECT__84
10
0
20
0
30
0
70
128
71
19
72
21
73
18
0
VERTEX
8
OBJECT__84
10
0
20
0
30
0
70
128
71
17
72
19
73
16
0
VERTEX
8
OBJECT__84
10
0
20
0
30
0
70
128
71
15
72
17
73
14
0
VERTEX
8
OBJECT__84
10
0
20
0
30
0
70
128
71
11
72
15
73
12
0
VERTEX
8
OBJECT__84
10
0
20
0
30
0
70
128
71
11
72
13
73
10
0
VERTEX
8
OBJECT__84
10
0
20
0
30
0
70
128
71
9
72
10
73
8
0
VERTEX
8
OBJECT__84
10
0
20
0
30
0
70
128
71
7
72
8
73
6
0
VERTEX
8
OBJECT__84
10
0
20
0
30
0
70
128
71
5
72
6
73
4
0
VERTEX
8
OBJECT__84
10
0
20
0
30
0
70
128
71
3
72
4
73
1
0
SEQEND
8
OBJECT__84
0
POLYLINE
8
OBJECT__85
66
1
70
64
71
14
72
12
62
253
0
VERTEX
8
OBJECT__85
10
-20.000000
20
5.808000
30
37.283001
70
192
0
VERTEX
8
OBJECT__85
10
-20.000000
20
8.393000
30
25.958000
70
192
0
VERTEX
8
OBJECT__85
10
-20.000000
20
5.808000
30
22.716999
70
192
0
VERTEX
8
OBJECT__85
10
-20.000000
20
8.393000
30
34.042000
70
192
0
VERTEX
8
OBJECT__85
10
-20.000000
20
2.073000
30
20.919001
70
192
0
VERTEX
8
OBJECT__85
10
-20.000000
20
-8.393000
30
25.958000
70
192
0
VERTEX
8
OBJECT__85
10
-20.000000
20
-9.315000
30
30.000000
70
192
0
VERTEX
8
OBJECT__85
10
-20.000000
20
-2.073000
30
20.919001
70
192
0
VERTEX
8
OBJECT__85
10
-20.000000
20
-5.808000
30
22.716999
70
192
0
VERTEX
8
OBJECT__85
10
-20.000000
20
9.315000
30
30.000000
70
192
0
VERTEX
8
OBJECT__85
10
-20.000000
20
-2.073000
30
39.081001
70
192
0
VERTEX
8
OBJECT__85
10
-20.000000
20
2.073000
30
39.081001
70
192
0
VERTEX
8
OBJECT__85
10
-20.000000
20
-8.393000
30
34.042000
70
192
0
VERTEX
8
OBJECT__85
10
-20.000000
20
-5.808000
30
37.283001
70
192
0
VERTEX
8
OBJECT__85
10
0
20
0
30
0
70
128
71
1
72
2
73
3
0
VERTEX
8
OBJECT__85
10
0
20
0
30
0
70
128
71
2
72
1
73
4
0
VERTEX
8
OBJECT__85
10
0
20
0
30
0
70
128
71
5
72
6
73
7
0
VERTEX
8
OBJECT__85
10
0
20
0
30
0
70
128
71
5
72
8
73
9
0
VERTEX
8
OBJECT__85
10
0
20
0
30
0
70
128
71
4
72
10
73
2
0
VERTEX
8
OBJECT__85
10
0
20
0
30
0
70
128
71
5
72
11
73
12
0
VERTEX
8
OBJECT__85
10
0
20
0
30
0
70
128
71
5
72
13
73
14
0
VERTEX
8
OBJECT__85
10
0
20
0
30
0
70
128
71
9
72
6
73
5
0
VERTEX
8
OBJECT__85
10
0
20
0
30
0
70
128
71
12
72
1
73
5
0
VERTEX
8
OBJECT__85
10
0
20
0
30
0
70
128
71
7
72
13
73
5
0
VERTEX
8
OBJECT__85
10
0
20
0
30
0
70
128
71
14
72
11
73
5
0
VERTEX
8
OBJECT__85
10
0
20
0
30
0
70
128
71
3
72
5
73
1
0
SEQEND
8
OBJECT__85
0
POLYLINE
8
OBJECT__86
66
1
70
64
71
20
72
20
62
253
0
VERTEX
8
OBJECT__86
10
38.493999
20
-1.064000
30
14.167000
70
192
0
VERTEX
8
OBJECT__86
10
38.980999
20
-0.337000
30
14.227000
70
192
0
VERTEX
8
OBJECT__86
10
39.025002
20
0.000000
30
8.680000
70
192
0
VERTEX
8
OBJECT__86
10
38.647999
20
-0.523000
30
8.627000
70
192
0
VERTEX
8
OBJECT__86
10
38.096001
20
-1.189000
30
14.119000
70
192
0
VERTEX
8
OBJECT__86
10
38.910999
20
0.538000
30
14.219000
70
192
0
VERTEX
8
OBJECT__86
10
38.313999
20
1.177000
30
14.145000
70
192
0
VERTEX
8
OBJECT__86
10
38.647999
20
0.523000
30
8.627000
70
192
0
VERTEX
8
OBJECT__86
10
38.955002
20
-0.006000
30
14.224000
70
192
0
VERTEX
8
OBJECT__86
10
38.039001
20
0.323000
30
8.542000
70
192
0
VERTEX
8
OBJECT__86
10
37.451000
20
1.300000
30
14.040000
70
192
0
VERTEX
8
OBJECT__86
10
36.701000
20
0.854000
30
13.948000
70
192
0
VERTEX
8
OBJECT__86
10
38.110001
20
1.206000
30
14.120000
70
192
0
VERTEX
8
OBJECT__86
10
36.391998
20
0.033000
30
13.910000
70
192
0
VERTEX
8
OBJECT__86
10
36.653000
20
-0.778000
30
13.942000
70
192
0
VERTEX
8
OBJECT__86
10
38.039001
20
-0.323000
30
8.542000
70
192
0
VERTEX
8
OBJECT__86
10
36.669998
20
0.771000
30
13.944000
70
192
0
VERTEX
8
OBJECT__86
10
37.661999
20
-1.325000
30
14.065000
70
192
0
VERTEX
8
OBJECT__86
10
36.849998
20
-1.005000
30
13.966000
70
192
0
VERTEX
8
OBJECT__86
10
36.660000
20
-0.803000
30
13.943000
70
192
0
VERTEX
8
OBJECT__86
10
0
20
0
30
0
70
128
71
1
72
2
73
3
0
VERTEX
8
OBJECT__86
10
0
20
0
30
0
70
128
71
3
72
4
73
1
0
VERTEX
8
OBJECT__86
10
0
20
0
30
0
70
128
71
4
72
5
73
1
0
VERTEX
8
OBJECT__86
10
0
20
0
30
0
70
128
71
6
72
7
73
8
0
VERTEX
8
OBJECT__86
10
0
20
0
30
0
70
128
71
8
72
3
73
6
0
VERTEX
8
OBJECT__86
10
0
20
0
30
0
70
128
71
3
72
9
73
6
0
VERTEX
8
OBJECT__86
10
0
20
0
30
0
70
128
71
10
72
11
73
12
0
VERTEX
8
OBJECT__86
10
0
20
0
30
0
70
128
71
11
72
10
73
8
0
VERTEX
8
OBJECT__86
10
0
20
0
30
0
70
128
71
8
72
13
73
11
0
VERTEX
8
OBJECT__86
10
0
20
0
30
0
70
128
71
14
72
15
73
16
0
VERTEX
8
OBJECT__86
10
0
20
0
30
0
70
128
71
10
72
17
73
14
0
VERTEX
8
OBJECT__86
10
0
20
0
30
0
70
128
71
16
72
18
73
5
0
VERTEX
8
OBJECT__86
10
0
20
0
30
0
70
128
71
16
72
19
73
18
0
VERTEX
8
OBJECT__86
10
0
20
0
30
0
70
128
71
16
72
15
73
20
0
VERTEX
8
OBJECT__86
10
0
20
0
30
0
70
128
71
20
72
19
73
16
0
VERTEX
8
OBJECT__86
10
0
20
0
30
0
70
128
71
5
72
4
73
16
0
VERTEX
8
OBJECT__86
10
0
20
0
30
0
70
128
71
16
72
10
73
14
0
VERTEX
8
OBJECT__86
10
0
20
0
30
0
70
128
71
12
72
17
73
10
0
VERTEX
8
OBJECT__86
10
0
20
0
30
0
70
128
71
7
72
13
73
8
0
VERTEX
8
OBJECT__86
10
0
20
0
30
0
70
128
71
2
72
9
73
3
0
SEQEND
8
OBJECT__86
0
POLYLINE
8
OBJECT__87
66
1
70
64
71
13
72
13
62
253
0
VERTEX
8
OBJECT__87
10
39.198002
20
0.725000
30
8.705000
70
192
0
VERTEX
8
OBJECT__87
10
39.494999
20
0.000000
30
8.746000
70
192
0
VERTEX
8
OBJECT__87
10
39.025002
20
0.000000
30
8.680000
70
192
0
VERTEX
8
OBJECT__87
10
39.198002
20
-0.725000
30
8.705000
70
192
0
VERTEX
8
OBJECT__87
10
38.647999
20
-0.523000
30
8.627000
70
192
0
VERTEX
8
OBJECT__87
10
38.647999
20
0.523000
30
8.627000
70
192
0
VERTEX
8
OBJECT__87
10
38.480000
20
-1.025000
30
8.604000
70
192
0
VERTEX
8
OBJECT__87
10
37.465000
20
0.000000
30
8.461000
70
192
0
VERTEX
8
OBJECT__87
10
38.039001
20
0.323000
30
8.542000
70
192
0
VERTEX
8
OBJECT__87
10
38.039001
20
-0.323000
30
8.542000
70
192
0
VERTEX
8
OBJECT__87
10
38.480000
20
1.025000
30
8.604000
70
192
0
VERTEX
8
OBJECT__87
10
37.762001
20
-0.725000
30
8.503000
70
192
0
VERTEX
8
OBJECT__87
10
37.762001
20
0.725000
30
8.503000
70
192
0
VERTEX
8
OBJECT__87
10
0
20
0
30
0
70
128
71
1
72
2
73
3
0
VERTEX
8
OBJECT__87
10
0
20
0
30
0
70
128
71
4
72
5
73
3
0
VERTEX
8
OBJECT__87
10
0
20
0
30
0
70
128
71
3
72
6
73
1
0
VERTEX
8
OBJECT__87
10
0
20
0
30
0
70
128
71
4
72
7
73
5
0
VERTEX
8
OBJECT__87
10
0
20
0
30
0
70
128
71
8
72
9
73
10
0
VERTEX
8
OBJECT__87
10
0
20
0
30
0
70
128
71
11
72
6
73
9
0
VERTEX
8
OBJECT__87
10
0
20
0
30
0
70
128
71
3
72
2
73
4
0
VERTEX
8
OBJECT__87
10
0
20
0
30
0
70
128
71
7
72
12
73
10
0
VERTEX
8
OBJECT__87
10
0
20
0
30
0
70
128
71
8
72
13
73
9
0
VERTEX
8
OBJECT__87
10
0
20
0
30
0
70
128
71
6
72
11
73
1
0
VERTEX
8
OBJECT__87
10
0
20
0
30
0
70
128
71
10
72
12
73
8
0
VERTEX
8
OBJECT__87
10
0
20
0
30
0
70
128
71
10
72
5
73
7
0
VERTEX
8
OBJECT__87
10
0
20
0
30
0
70
128
71
9
72
13
73
11
0
SEQEND
8
OBJECT__87
0
POLYLINE
8
OBJECT__89
66
1
70
64
71
16
72
16
62
253
0
VERTEX
8
OBJECT__89
10
39.352001
20
1.065000
30
10.052000
70
192
0
VERTEX
8
OBJECT__89
10
39.789001
20
0.000000
30
10.113000
70
192
0
VERTEX
8
OBJECT__89
10
39.494999
20
0.000000
30
8.746000
70
192
0
VERTEX
8
OBJECT__89
10
38.297001
20
1.506000
30
9.904000
70
192
0
VERTEX
8
OBJECT__89
10
39.198002
20
0.725000
30
8.705000
70
192
0
VERTEX
8
OBJECT__89
10
37.243000
20
1.065000
30
9.756000
70
192
0
VERTEX
8
OBJECT__89
10
38.480000
20
1.025000
30
8.604000
70
192
0
VERTEX
8
OBJECT__89
10
37.762001
20
0.725000
30
8.503000
70
192
0
VERTEX
8
OBJECT__89
10
37.465000
20
0.000000
30
8.461000
70
192
0
VERTEX
8
OBJECT__89
10
37.243000
20
-1.065000
30
9.756000
70
192
0
VERTEX
8
OBJECT__89
10
36.806000
20
0.000000
30
9.694000
70
192
0
VERTEX
8
OBJECT__89
10
37.762001
20
-0.725000
30
8.503000
70
192
0
VERTEX
8
OBJECT__89
10
38.480000
20
-1.025000
30
8.604000
70
192
0
VERTEX
8
OBJECT__89
10
38.297001
20
-1.506000
30
9.904000
70
192
0
VERTEX
8
OBJECT__89
10
39.198002
20
-0.725000
30
8.705000
70
192
0
VERTEX
8
OBJECT__89
10
39.352001
20
-1.065000
30
10.052000
70
192
0
VERTEX
8
OBJECT__89
10
0
20
0
30
0
70
128
71
1
72
2
73
3
0
VERTEX
8
OBJECT__89
10
0
20
0
30
0
70
128
71
4
72
1
73
5
0
VERTEX
8
OBJECT__89
10
0
20
0
30
0
70
128
71
6
72
4
73
7
0
VERTEX
8
OBJECT__89
10
0
20
0
30
0
70
128
71
6
72
8
73
9
0
VERTEX
8
OBJECT__89
10
0
20
0
30
0
70
128
71
10
72
11
73
9
0
VERTEX
8
OBJECT__89
10
0
20
0
30
0
70
128
71
10
72
12
73
13
0
VERTEX
8
OBJECT__89
10
0
20
0
30
0
70
128
71
14
72
13
73
15
0
VERTEX
8
OBJECT__89
10
0
20
0
30
0
70
128
71
16
72
15
73
3
0
VERTEX
8
OBJECT__89
10
0
20
0
30
0
70
128
71
3
72
2
73
16
0
VERTEX
8
OBJECT__89
10
0
20
0
30
0
70
128
71
15
72
16
73
14
0
VERTEX
8
OBJECT__89
10
0
20
0
30
0
70
128
71
13
72
14
73
10
0
VERTEX
8
OBJECT__89
10
0
20
0
30
0
70
128
71
9
72
12
73
10
0
VERTEX
8
OBJECT__89
10
0
20
0
30
0
70
128
71
9
72
11
73
6
0
VERTEX
8
OBJECT__89
10
0
20
0
30
0
70
128
71
7
72
8
73
6
0
VERTEX
8
OBJECT__89
10
0
20
0
30
0
70
128
71
5
72
7
73
4
0
VERTEX
8
OBJECT__89
10
0
20
0
30
0
70
128
71
3
72
5
73
1
0
SEQEND
8
OBJECT__89
0
POLYLINE
8
OBJECT__90
66
1
70
64
71
8
72
6
62
253
0
VERTEX
8
OBJECT__90
10
60.933998
20
12.259000
30
14.114000
70
192
0
VERTEX
8
OBJECT__90
10
60.660000
20
11.536000
30
13.980000
70
192
0
VERTEX
8
OBJECT__90
10
59.972000
20
11.237000
30
13.751000
70
192
0
VERTEX
8
OBJECT__90
10
58.971001
20
12.261000
30
13.522000
70
192
0
VERTEX
8
OBJECT__90
10
59.244999
20
12.984000
30
13.657000
70
192
0
VERTEX
8
OBJECT__90
10
59.932999
20
13.282000
30
13.886000
70
192
0
VERTEX
8
OBJECT__90
10
59.271999
20
11.537000
30
13.561000
70
192
0
VERTEX
8
OBJECT__90
10
60.632999
20
12.982000
30
14.075000
70
192
0
VERTEX
8
OBJECT__90
10
0
20
0
30
0
70
128
71
1
72
2
73
3
0
VERTEX
8
OBJECT__90
10
0
20
0
30
0
70
128
71
4
72
5
73
6
0
VERTEX
8
OBJECT__90
10
0
20
0
30
0
70
128
71
7
72
8
73
1
0
VERTEX
8
OBJECT__90
10
0
20
0
30
0
70
128
71
8
72
7
73
4
0
VERTEX
8
OBJECT__90
10
0
20
0
30
0
70
128
71
6
72
8
73
4
0
VERTEX
8
OBJECT__90
10
0
20
0
30
0
70
128
71
3
72
7
73
1
0
SEQEND
8
OBJECT__90
0
POLYLINE
8
OBJECT__91
66
1
70
64
71
16
72
16
62
253
0
VERTEX
8
OBJECT__91
10
59.470001
20
13.830000
30
15.423000
70
192
0
VERTEX
8
OBJECT__91
10
60.617001
20
13.338000
30
15.734000
70
192
0
VERTEX
8
OBJECT__91
10
60.632999
20
12.982000
30
14.075000
70
192
0
VERTEX
8
OBJECT__91
10
61.111000
20
12.151000
30
15.798000
70
192
0
VERTEX
8
OBJECT__91
10
60.933998
20
12.259000
30
14.114000
70
192
0
VERTEX
8
OBJECT__91
10
60.661999
20
10.966000
30
15.578000
70
192
0
VERTEX
8
OBJECT__91
10
60.660000
20
11.536000
30
13.980000
70
192
0
VERTEX
8
OBJECT__91
10
59.533001
20
10.476000
30
15.202000
70
192
0
VERTEX
8
OBJECT__91
10
59.972000
20
11.237000
30
13.751000
70
192
0
VERTEX
8
OBJECT__91
10
58.386002
20
10.968000
30
14.891000
70
192
0
VERTEX
8
OBJECT__91
10
59.271999
20
11.537000
30
13.561000
70
192
0
VERTEX
8
OBJECT__91
10
57.891998
20
12.154000
30
14.828000
70
192
0
VERTEX
8
OBJECT__91
10
58.971001
20
12.261000
30
13.522000
70
192
0
VERTEX
8
OBJECT__91
10
58.341000
20
13.340000
30
15.048000
70
192
0
VERTEX
8
OBJECT__91
10
59.244999
20
12.984000
30
13.657000
70
192
0
VERTEX
8
OBJECT__91
10
59.932999
20
13.282000
30
13.886000
70
192
0
VERTEX
8
OBJECT__91
10
0
20
0
30
0
70
128
71
1
72
2
73
3
0
VERTEX
8
OBJECT__91
10
0
20
0
30
0
70
128
71
2
72
4
73
5
0
VERTEX
8
OBJECT__91
10
0
20
0
30
0
70
128
71
4
72
6
73
7
0
VERTEX
8
OBJECT__91
10
0
20
0
30
0
70
128
71
6
72
8
73
9
0
VERTEX
8
OBJECT__91
10
0
20
0
30
0
70
128
71
10
72
11
73
9
0
VERTEX
8
OBJECT__91
10
0
20
0
30
0
70
128
71
10
72
12
73
13
0
VERTEX
8
OBJECT__91
10
0
20
0
30
0
70
128
71
12
72
14
73
15
0
VERTEX
8
OBJECT__91
10
0
20
0
30
0
70
128
71
1
72
16
73
15
0
VERTEX
8
OBJECT__91
10
0
20
0
30
0
70
128
71
15
72
14
73
1
0
VERTEX
8
OBJECT__91
10
0
20
0
30
0
70
128
71
15
72
13
73
12
0
VERTEX
8
OBJECT__91
10
0
20
0
30
0
70
128
71
13
72
11
73
10
0
VERTEX
8
OBJECT__91
10
0
20
0
30
0
70
128
71
9
72
8
73
10
0
VERTEX
8
OBJECT__91
10
0
20
0
30
0
70
128
71
9
72
7
73
6
0
VERTEX
8
OBJECT__91
10
0
20
0
30
0
70
128
71
7
72
5
73
4
0
VERTEX
8
OBJECT__91
10
0
20
0
30
0
70
128
71
5
72
3
73
2
0
VERTEX
8
OBJECT__91
10
0
20
0
30
0
70
128
71
3
72
16
73
1
0
SEQEND
8
OBJECT__91
0
POLYLINE
8
OBJECT__93
66
1
70
64
71
20
72
20
62
253
0
VERTEX
8
OBJECT__93
10
39.900002
20
6.174000
30
14.513000
70
192
0
VERTEX
8
OBJECT__93
10
40.368999
20
6.909000
30
14.620000
70
192
0
VERTEX
8
OBJECT__93
10
40.460999
20
7.516000
30
9.098000
70
192
0
VERTEX
8
OBJECT__93
10
40.089001
20
6.993000
30
9.014000
70
192
0
VERTEX
8
OBJECT__93
10
39.485001
20
6.036000
30
14.449000
70
192
0
VERTEX
8
OBJECT__93
10
40.081001
20
8.038000
30
9.069000
70
192
0
VERTEX
8
OBJECT__93
10
40.277000
20
7.781000
30
14.661000
70
192
0
VERTEX
8
OBJECT__93
10
39.664001
20
8.408000
30
14.616000
70
192
0
VERTEX
8
OBJECT__93
10
40.335999
20
7.216000
30
14.635000
70
192
0
VERTEX
8
OBJECT__93
10
39.473999
20
7.838000
30
8.966000
70
192
0
VERTEX
8
OBJECT__93
10
38.799999
20
8.516000
30
14.506000
70
192
0
VERTEX
8
OBJECT__93
10
38.062000
20
8.057000
30
14.379000
70
192
0
VERTEX
8
OBJECT__93
10
39.480999
20
8.431000
30
14.593000
70
192
0
VERTEX
8
OBJECT__93
10
37.775002
20
7.233000
30
14.291000
70
192
0
VERTEX
8
OBJECT__93
10
38.049000
20
6.446000
30
14.280000
70
192
0
VERTEX
8
OBJECT__93
10
39.480000
20
7.193000
30
8.932000
70
192
0
VERTEX
8
OBJECT__93
10
38.040001
20
7.993000
30
14.372000
70
192
0
VERTEX
8
OBJECT__93
10
39.076000
20
5.899000
30
14.385000
70
192
0
VERTEX
8
OBJECT__93
10
38.257999
20
6.205000
30
14.293000
70
192
0
VERTEX
8
OBJECT__93
10
38.063000
20
6.404000
30
14.279000
70
192
0
VERTEX
8
OBJECT__93
10
0
20
0
30
0
70
128
71
1
72
2
73
3
0
VERTEX
8
OBJECT__93
10
0
20
0
30
0
70
128
71
3
72
4
73
1
0
VERTEX
8
OBJECT__93
10
0
20
0
30
0
70
128
71
4
72
5
73
1
0
VERTEX
8
OBJECT__93
10
0
20
0
30
0
70
128
71
6
72
7
73
8
0
VERTEX
8
OBJECT__93
10
0
20
0
30
0
70
128
71
7
72
6
73
3
0
VERTEX
8
OBJECT__93
10
0
20
0
30
0
70
128
71
3
72
9
73
7
0
VERTEX
8
OBJECT__93
10
0
20
0
30
0
70
128
71
10
72
11
73
12
0
VERTEX
8
OBJECT__93
10
0
20
0
30
0
70
128
71
11
72
10
73
6
0
VERTEX
8
OBJECT__93
10
0
20
0
30
0
70
128
71
6
72
13
73
11
0
VERTEX
8
OBJECT__93
10
0
20
0
30
0
70
128
71
14
72
15
73
16
0
VERTEX
8
OBJECT__93
10
0
20
0
30
0
70
128
71
10
72
17
73
14
0
VERTEX
8
OBJECT__93
10
0
20
0
30
0
70
128
71
16
72
18
73
5
0
VERTEX
8
OBJECT__93
10
0
20
0
30
0
70
128
71
16
72
19
73
18
0
VERTEX
8
OBJECT__93
10
0
20
0
30
0
70
128
71
16
72
15
73
20
0
VERTEX
8
OBJECT__93
10
0
20
0
30
0
70
128
71
20
72
19
73
16
0
VERTEX
8
OBJECT__93
10
0
20
0
30
0
70
128
71
5
72
4
73
16
0
VERTEX
8
OBJECT__93
10
0
20
0
30
0
70
128
71
16
72
10
73
14
0
VERTEX
8
OBJECT__93
10
0
20
0
30
0
70
128
71
12
72
17
73
10
0
VERTEX
8
OBJECT__93
10
0
20
0
30
0
70
128
71
8
72
13
73
6
0
VERTEX
8
OBJECT__93
10
0
20
0
30
0
70
128
71
2
72
9
73
3
0
SEQEND
8
OBJECT__93
0
POLYLINE
8
OBJECT__94
66
1
70
64
71
13
72
13
62
253
0
VERTEX
8
OBJECT__94
10
40.627998
20
8.239000
30
9.162000
70
192
0
VERTEX
8
OBJECT__94
10
40.930000
20
7.516000
30
9.169000
70
192
0
VERTEX
8
OBJECT__94
10
40.460999
20
7.516000
30
9.098000
70
192
0
VERTEX
8
OBJECT__94
10
40.639000
20
6.792000
30
9.086000
70
192
0
VERTEX
8
OBJECT__94
10
40.089001
20
6.993000
30
9.014000
70
192
0
VERTEX
8
OBJECT__94
10
40.081001
20
8.038000
30
9.069000
70
192
0
VERTEX
8
OBJECT__94
10
39.924999
20
6.492000
30
8.962000
70
192
0
VERTEX
8
OBJECT__94
10
39.206001
20
6.792000
30
8.869000
70
192
0
VERTEX
8
OBJECT__94
10
39.480000
20
7.193000
30
8.932000
70
192
0
VERTEX
8
OBJECT__94
10
38.903999
20
7.516000
30
8.863000
70
192
0
VERTEX
8
OBJECT__94
10
39.473999
20
7.838000
30
8.966000
70
192
0
VERTEX
8
OBJECT__94
10
39.195000
20
8.239000
30
8.946000
70
192
0
VERTEX
8
OBJECT__94
10
39.909000
20
8.539000
30
9.070000
70
192
0
VERTEX
8
OBJECT__94
10
0
20
0
30
0
70
128
71
1
72
2
73
3
0
VERTEX
8
OBJECT__94
10
0
20
0
30
0
70
128
71
4
72
5
73
3
0
VERTEX
8
OBJECT__94
10
0
20
0
30
0
70
128
71
3
72
6
73
1
0
VERTEX
8
OBJECT__94
10
0
20
0
30
0
70
128
71
4
72
7
73
5
0
VERTEX
8
OBJECT__94
10
0
20
0
30
0
70
128
71
3
72
2
73
4
0
VERTEX
8
OBJECT__94
10
0
20
0
30
0
70
128
71
7
72
8
73
9
0
VERTEX
8
OBJECT__94
10
0
20
0
30
0
70
128
71
10
72
11
73
9
0
VERTEX
8
OBJECT__94
10
0
20
0
30
0
70
128
71
9
72
5
73
7
0
VERTEX
8
OBJECT__94
10
0
20
0
30
0
70
128
71
10
72
12
73
11
0
VERTEX
8
OBJECT__94
10
0
20
0
30
0
70
128
71
13
72
6
73
11
0
VERTEX
8
OBJECT__94
10
0
20
0
30
0
70
128
71
9
72
8
73
10
0
VERTEX
8
OBJECT__94
10
0
20
0
30
0
70
128
71
6
72
13
73
1
0
VERTEX
8
OBJECT__94
10
0
20
0
30
0
70
128
71
11
72
12
73
13
0
SEQEND
8
OBJECT__94
0
POLYLINE
8
OBJECT__96
66
1
70
64
71
16
72
16
62
253
0
VERTEX
8
OBJECT__96
10
40.764999
20
8.509000
30
10.527000
70
192
0
VERTEX
8
OBJECT__96
10
41.209999
20
7.446000
30
10.537000
70
192
0
VERTEX
8
OBJECT__96
10
40.930000
20
7.516000
30
9.169000
70
192
0
VERTEX
8
OBJECT__96
10
39.709000
20
8.950000
30
10.391000
70
192
0
VERTEX
8
OBJECT__96
10
40.627998
20
8.239000
30
9.162000
70
192
0
VERTEX
8
OBJECT__96
10
38.659000
20
8.509000
30
10.209000
70
192
0
VERTEX
8
OBJECT__96
10
39.909000
20
8.539000
30
9.070000
70
192
0
VERTEX
8
OBJECT__96
10
39.195000
20
8.239000
30
8.946000
70
192
0
VERTEX
8
OBJECT__96
10
38.903999
20
7.516000
30
8.863000
70
192
0
VERTEX
8
OBJECT__96
10
38.675999
20
6.382000
30
10.097000
70
192
0
VERTEX
8
OBJECT__96
10
38.231998
20
7.446000
30
10.087000
70
192
0
VERTEX
8
OBJECT__96
10
39.733002
20
5.942000
30
10.233000
70
192
0
VERTEX
8
OBJECT__96
10
39.206001
20
6.792000
30
8.869000
70
192
0
VERTEX
8
OBJECT__96
10
40.782001
20
6.382000
30
10.415000
70
192
0
VERTEX
8
OBJECT__96
10
39.924999
20
6.492000
30
8.962000
70
192
0
VERTEX
8
OBJECT__96
10
40.639000
20
6.792000
30
9.086000
70
192
0
VERTEX
8
OBJECT__96
10
0
20
0
30
0
70
128
71
1
72
2
73
3
0
VERTEX
8
OBJECT__96
10
0
20
0
30
0
70
128
71
4
72
1
73
5
0
VERTEX
8
OBJECT__96
10
0
20
0
30
0
70
128
71
6
72
4
73
7
0
VERTEX
8
OBJECT__96
10
0
20
0
30
0
70
128
71
6
72
8
73
9
0
VERTEX
8
OBJECT__96
10
0
20
0
30
0
70
128
71
10
72
11
73
9
0
VERTEX
8
OBJECT__96
10
0
20
0
30
0
70
128
71
12
72
10
73
13
0
VERTEX
8
OBJECT__96
10
0
20
0
30
0
70
128
71
14
72
12
73
15
0
VERTEX
8
OBJECT__96
10
0
20
0
30
0
70
128
71
2
72
14
73
16
0
VERTEX
8
OBJECT__96
10
0
20
0
30
0
70
128
71
16
72
3
73
2
0
VERTEX
8
OBJECT__96
10
0
20
0
30
0
70
128
71
15
72
16
73
14
0
VERTEX
8
OBJECT__96
10
0
20
0
30
0
70
128
71
13
72
15
73
12
0
VERTEX
8
OBJECT__96
10
0
20
0
30
0
70
128
71
9
72
13
73
10
0
VERTEX
8
OBJECT__96
10
0
20
0
30
0
70
128
71
9
72
11
73
6
0
VERTEX
8
OBJECT__96
10
0
20
0
30
0
70
128
71
7
72
8
73
6
0
VERTEX
8
OBJECT__96
10
0
20
0
30
0
70
128
71
5
72
7
73
4
0
VERTEX
8
OBJECT__96
10
0
20
0
30
0
70
128
71
3
72
5
73
1
0
SEQEND
8
OBJECT__96
0
POLYLINE
8
OBJECT__97
66
1
70
64
71
108
72
106
62
253
0
VERTEX
8
OBJECT__97
10
0.000000
20
6.586000
30
0.555000
70
192
0
VERTEX
8
OBJECT__97
10
0.000000
20
-8.694000
30
0.940000
70
192
0
VERTEX
8
OBJECT__97
10
0.000000
20
-12.179000
30
1.875000
70
192
0
VERTEX
8
OBJECT__97
10
0.000000
20
-7.107000
30
0.625000
70
192
0
VERTEX
8
OBJECT__97
10
0.000000
20
-6.586000
30
0.557000
70
192
0
VERTEX
8
OBJECT__97
10
0.000000
20
3.677000
30
0.166000
70
192
0
VERTEX
8
OBJECT__97
10
0.000000
20
24.246000
30
8.417000
70
192
0
VERTEX
8
OBJECT__97
10
0.000000
20
-23.150000
30
7.500000
70
192
0
VERTEX
8
OBJECT__97
10
0.000000
20
-23.818001
30
8.018000
70
192
0
VERTEX
8
OBJECT__97
10
0.000000
20
-18.919001
30
4.807000
70
192
0
VERTEX
8
OBJECT__97
10
0.000000
20
-20.355000
30
5.595000
70
192
0
VERTEX
8
OBJECT__97
10
0.000000
20
0.000000
30
0.000000
70
192
0
VERTEX
8
OBJECT__97
10
0.000000
20
-12.969000
30
2.144000
70
192
0
VERTEX
8
OBJECT__97
10
0.000000
20
10.658000
30
1.425000
70
192
0
VERTEX
8
OBJECT__97
10
0.000000
20
7.107000
30
0.625000
70
192
0
VERTEX
8
OBJECT__97
10
0.000000
20
12.961000
30
2.164000
70
192
0
VERTEX
8
OBJECT__97
10
0.000000
20
12.179000
30
1.875000
70
192
0
VERTEX
8
OBJECT__97
10
0.000000
20
18.920000
30
4.805000
70
192
0
VERTEX
8
OBJECT__97
10
0.000000
20
16.944000
30
3.750000
70
192
0
VERTEX
8
OBJECT__97
10
0.000000
20
-30.587999
30
15.428000
70
192
0
VERTEX
8
OBJECT__97
10
0.000000
20
-30.881001
30
15.880000
70
192
0
VERTEX
8
OBJECT__97
10
0.000000
20
-28.726999
30
12.898000
70
192
0
VERTEX
8
OBJECT__97
10
0.000000
20
-30.311001
30
15.000000
70
192
0
VERTEX
8
OBJECT__97
10
0.000000
20
-24.256001
30
8.404000
70
192
0
VERTEX
8
OBJECT__97
10
0.000000
20
-26.261999
30
10.169000
70
192
0
VERTEX
8
OBJECT__97
10
0.000000
20
-16.944000
30
3.750000
70
192
0
VERTEX
8
OBJECT__97
10
0.000000
20
-17.325001
30
3.933000
70
192
0
VERTEX
8
OBJECT__97
10
0.000000
20
-13.687000
30
2.389000
70
192
0
VERTEX
8
OBJECT__97
10
0.000000
20
-3.477000
30
0.148000
70
192
0
VERTEX
8
OBJECT__97
10
0.000000
20
15.533000
30
3.116000
70
192
0
VERTEX
8
OBJECT__97
10
0.000000
20
21.673000
30
6.493000
70
192
0
VERTEX
8
OBJECT__97
10
0.000000
20
20.021000
30
5.392000
70
192
0
VERTEX
8
OBJECT__97
10
0.000000
20
-13.344000
30
57.699001
70
192
0
VERTEX
8
OBJECT__97
10
0.000000
20
-6.813000
30
59.405998
70
192
0
VERTEX
8
OBJECT__97
10
0.000000
20
-3.673000
30
59.834000
70
192
0
VERTEX
8
OBJECT__97
10
0.000000
20
-26.615000
30
10.548000
70
192
0
VERTEX
8
OBJECT__97
10
0.000000
20
-28.423000
30
12.494000
70
192
0
VERTEX
8
OBJECT__97
10
0.000000
20
23.150000
30
7.500000
70
192
0
VERTEX
8
OBJECT__97
10
0.000000
20
0.000000
30
60.000000
70
192
0
VERTEX
8
OBJECT__97
10
0.000000
20
22.861000
30
7.283000
70
192
0
VERTEX
8
OBJECT__97
10
0.000000
20
-32.133999
30
18.153999
70
192
0
VERTEX
8
OBJECT__97
10
0.000000
20
33.366001
30
21.018000
70
192
0
VERTEX
8
OBJECT__97
10
0.000000
20
33.181999
30
20.458000
70
192
0
VERTEX
8
OBJECT__97
10
0.000000
20
34.257999
30
23.980000
70
192
0
VERTEX
8
OBJECT__97
10
0.000000
20
34.119999
30
23.313999
70
192
0
VERTEX
8
OBJECT__97
10
0.000000
20
34.791000
30
26.990999
70
192
0
VERTEX
8
OBJECT__97
10
0.000000
20
34.717999
30
26.202000
70
192
0
VERTEX
8
OBJECT__97
10
0.000000
20
35.000000
30
30.000000
70
192
0
VERTEX
8
OBJECT__97
10
0.000000
20
34.984001
30
29.099001
70
192
0
VERTEX
8
OBJECT__97
10
0.000000
20
2.148000
30
59.943001
70
192
0
VERTEX
8
OBJECT__97
10
0.000000
20
-10.848000
30
58.522999
70
192
0
VERTEX
8
OBJECT__97
10
0.000000
20
-7.303000
30
59.340000
70
192
0
VERTEX
8
OBJECT__97
10
0.000000
20
3.424000
30
59.818001
70
192
0
VERTEX
8
OBJECT__97
10
0.000000
20
-19.358999
30
54.946999
70
192
0
VERTEX
8
OBJECT__97
10
0.000000
20
-17.516001
30
55.973000
70
192
0
VERTEX
8
OBJECT__97
10
0.000000
20
-14.267000
30
57.394001
70
192
0
VERTEX
8
OBJECT__97
10
0.000000
20
-24.641001
30
51.249001
70
192
0
VERTEX
8
OBJECT__97
10
0.000000
20
-23.368999
30
52.333000
70
192
0
VERTEX
8
OBJECT__97
10
0.000000
20
-28.995001
30
46.736000
70
192
0
VERTEX
8
OBJECT__97
10
0.000000
20
-28.167999
30
47.806000
70
192
0
VERTEX
8
OBJECT__97
10
0.000000
20
-32.250999
30
41.563999
70
192
0
VERTEX
8
OBJECT__97
10
0.000000
20
-31.752001
30
42.619999
70
192
0
VERTEX
8
OBJECT__97
10
0.000000
20
26.601000
30
10.562000
70
192
0
VERTEX
8
OBJECT__97
10
0.000000
20
25.700001
30
9.635000
70
192
0
VERTEX
8
OBJECT__97
10
0.000000
20
30.572001
30
15.437000
70
192
0
VERTEX
8
OBJECT__97
10
0.000000
20
30.311001
30
15.000000
70
192
0
VERTEX
8
OBJECT__97
10
0.000000
20
32.127998
30
18.155001
70
192
0
VERTEX
8
OBJECT__97
10
0.000000
20
31.902000
30
17.659000
70
192
0
VERTEX
8
OBJECT__97
10
0.000000
20
-34.973000
30
31.171000
70
192
0
VERTEX
8
OBJECT__97
10
0.000000
20
32.377998
30
41.391998
70
192
0
VERTEX
8
OBJECT__97
10
0.000000
20
33.520000
30
38.631001
70
192
0
VERTEX
8
OBJECT__97
10
0.000000
20
29.150000
30
46.604000
70
192
0
VERTEX
8
OBJECT__97
10
0.000000
20
30.919001
30
44.058998
70
192
0
VERTEX
8
OBJECT__97
10
0.000000
20
24.726000
30
51.233002
70
192
0
VERTEX
8
OBJECT__97
10
0.000000
20
27.080999
30
49.005001
70
192
0
VERTEX
8
OBJECT__97
10
0.000000
20
9.375000
30
58.903999
70
192
0
VERTEX
8
OBJECT__97
10
0.000000
20
12.828000
30
57.911999
70
192
0
VERTEX
8
OBJECT__97
10
0.000000
20
-20.563000
30
54.277000
70
192
0
VERTEX
8
OBJECT__97
10
0.000000
20
-25.913000
30
50.165001
70
192
0
VERTEX
8
OBJECT__97
10
0.000000
20
-30.120001
30
45.279999
70
192
0
VERTEX
8
OBJECT__97
10
0.000000
20
28.716999
30
12.907000
70
192
0
VERTEX
8
OBJECT__97
10
0.000000
20
27.992001
30
11.991000
70
192
0
VERTEX
8
OBJECT__97
10
0.000000
20
29.851999
30
14.339000
70
192
0
VERTEX
8
OBJECT__97
10
0.000000
20
34.340000
30
35.797001
70
192
0
VERTEX
8
OBJECT__97
10
0.000000
20
34.834000
30
32.915001
70
192
0
VERTEX
8
OBJECT__97
10
0.000000
20
32.278000
30
41.576000
70
192
0
VERTEX
8
OBJECT__97
10
0.000000
20
29.020000
30
46.755001
70
192
0
VERTEX
8
OBJECT__97
10
0.000000
20
24.667000
30
51.278999
70
192
0
VERTEX
8
OBJECT__97
10
0.000000
20
19.375000
30
54.974998
70
192
0
VERTEX
8
OBJECT__97
10
0.000000
20
22.099001
30
53.264000
70
192
0
VERTEX
8
OBJECT__97
10
0.000000
20
6.810000
30
59.393002
70
192
0
VERTEX
8
OBJECT__97
10
0.000000
20
5.800000
30
59.584999
70
192
0
VERTEX
8
OBJECT__97
10
0.000000
20
13.347000
30
57.709999
70
192
0
VERTEX
8
OBJECT__97
10
0.000000
20
-34.271999
30
35.917000
70
192
0
VERTEX
8
OBJECT__97
10
0.000000
20
-34.033001
30
37.004002
70
192
0
VERTEX
8
OBJECT__97
10
0.000000
20
34.304001
30
35.923000
70
192
0
VERTEX
8
OBJECT__97
10
0.000000
20
-33.058998
30
39.851002
70
192
0
VERTEX
8
OBJECT__97
10
0.000000
20
-34.671001
30
34.101002
70
192
0
VERTEX
8
OBJECT__97
10
0.000000
20
-34.327000
30
24.146999
70
192
0
VERTEX
8
OBJECT__97
10
0.000000
20
-34.833000
30
27.072001
70
192
0
VERTEX
8
OBJECT__97
10
0.000000
20
-32.341000
30
18.531000
70
192
0
VERTEX
8
OBJECT__97
10
0.000000
20
-34.278000
30
23.976999
70
192
0
VERTEX
8
OBJECT__97
10
0.000000
20
-33.377998
30
21.014999
70
192
0
VERTEX
8
OBJECT__97
10
0.000000
20
-33.493999
30
21.294001
70
192
0
VERTEX
8
OBJECT__97
10
0.000000
20
16.438999
30
56.469002
70
192
0
VERTEX
8
OBJECT__97
10
0.000000
20
19.223000
30
55.070000
70
192
0
VERTEX
8
OBJECT__97
10
0.000000
20
16.122999
30
56.626999
70
192
0
VERTEX
8
OBJECT__97
10
0.000000
20
-35.000000
30
30.000000
70
192
0
VERTEX
8
OBJECT__97
10
0
20
0
30
0
70
128
71
1
72
2
73
3
0
VERTEX
8
OBJECT__97
10
0
20
0
30
0
70
128
71
1
72
4
73
2
0
VERTEX
8
OBJECT__97
10
0
20
0
30
0
70
128
71
5
72
1
73
6
0
VERTEX
8
OBJECT__97
10
0
20
0
30
0
70
128
71
7
72
8
73
9
0
VERTEX
8
OBJECT__97
10
0
20
0
30
0
70
128
71
7
72
10
73
11
0
VERTEX
8
OBJECT__97
10
0
20
0
30
0
70
128
71
1
72
5
73
4
0
VERTEX
8
OBJECT__97
10
0
20
0
30
0
70
128
71
6
72
12
73
5
0
VERTEX
8
OBJECT__97
10
0
20
0
30
0
70
128
71
13
72
14
73
15
0
VERTEX
8
OBJECT__97
10
0
20
0
30
0
70
128
71
13
72
16
73
17
0
VERTEX
8
OBJECT__97
10
0
20
0
30
0
70
128
71
13
72
18
73
19
0
VERTEX
8
OBJECT__97
10
0
20
0
30
0
70
128
71
7
72
20
73
21
0
VERTEX
8
OBJECT__97
10
0
20
0
30
0
70
128
71
7
72
22
73
23
0
VERTEX
8
OBJECT__97
10
0
20
0
30
0
70
128
71
7
72
24
73
25
0
VERTEX
8
OBJECT__97
10
0
20
0
30
0
70
128
71
11
72
8
73
7
0
VERTEX
8
OBJECT__97
10
0
20
0
30
0
70
128
71
7
72
26
73
27
0
VERTEX
8
OBJECT__97
10
0
20
0
30
0
70
128
71
7
72
13
73
28
0
VERTEX
8
OBJECT__97
10
0
20
0
30
0
70
128
71
12
72
29
73
5
0
VERTEX
8
OBJECT__97
10
0
20
0
30
0
70
128
71
17
72
14
73
13
0
VERTEX
8
OBJECT__97
10
0
20
0
30
0
70
128
71
19
72
30
73
13
0
VERTEX
8
OBJECT__97
10
0
20
0
30
0
70
128
71
13
72
31
73
32
0
VERTEX
8
OBJECT__97
10
0
20
0
30
0
70
128
71
33
72
34
73
35
0
VERTEX
8
OBJECT__97
10
0
20
0
30
0
70
128
71
23
72
20
73
7
0
VERTEX
8
OBJECT__97
10
0
20
0
30
0
70
128
71
7
72
36
73
37
0
VERTEX
8
OBJECT__97
10
0
20
0
30
0
70
128
71
9
72
24
73
7
0
VERTEX
8
OBJECT__97
10
0
20
0
30
0
70
128
71
28
72
26
73
7
0
VERTEX
8
OBJECT__97
10
0
20
0
30
0
70
128
71
15
72
1
73
13
0
VERTEX
8
OBJECT__97
10
0
20
0
30
0
70
128
71
32
72
18
73
13
0
VERTEX
8
OBJECT__97
10
0
20
0
30
0
70
128
71
13
72
7
73
38
0
VERTEX
8
OBJECT__97
10
0
20
0
30
0
70
128
71
35
72
39
73
33
0
VERTEX
8
OBJECT__97
10
0
20
0
30
0
70
128
71
37
72
22
73
7
0
VERTEX
8
OBJECT__97
10
0
20
0
30
0
70
128
71
27
72
10
73
7
0
VERTEX
8
OBJECT__97
10
0
20
0
30
0
70
128
71
30
72
16
73
13
0
VERTEX
8
OBJECT__97
10
0
20
0
30
0
70
128
71
38
72
40
73
13
0
VERTEX
8
OBJECT__97
10
0
20
0
30
0
70
128
71
41
72
42
73
43
0
VERTEX
8
OBJECT__97
10
0
20
0
30
0
70
128
71
41
72
44
73
45
0
VERTEX
8
OBJECT__97
10
0
20
0
30
0
70
128
71
41
72
46
73
47
0
VERTEX
8
OBJECT__97
10
0
20
0
30
0
70
128
71
41
72
48
73
49
0
VERTEX
8
OBJECT__97
10
0
20
0
30
0
70
128
71
39
72
50
73
33
0
VERTEX
8
OBJECT__97
10
0
20
0
30
0
70
128
71
33
72
51
73
52
0
VERTEX
8
OBJECT__97
10
0
20
0
30
0
70
128
71
53
72
54
73
55
0
VERTEX
8
OBJECT__97
10
0
20
0
30
0
70
128
71
25
72
36
73
7
0
VERTEX
8
OBJECT__97
10
0
20
0
30
0
70
128
71
40
72
31
73
13
0
VERTEX
8
OBJECT__97
10
0
20
0
30
0
70
128
71
45
72
42
73
41
0
VERTEX
8
OBJECT__97
10
0
20
0
30
0
70
128
71
49
72
46
73
41
0
VERTEX
8
OBJECT__97
10
0
20
0
30
0
70
128
71
52
72
34
73
33
0
VERTEX
8
OBJECT__97
10
0
20
0
30
0
70
128
71
55
72
56
73
53
0
VERTEX
8
OBJECT__97
10
0
20
0
30
0
70
128
71
53
72
57
73
58
0
VERTEX
8
OBJECT__97
10
0
20
0
30
0
70
128
71
53
72
59
73
60
0
VERTEX
8
OBJECT__97
10
0
20
0
30
0
70
128
71
53
72
61
73
62
0
VERTEX
8
OBJECT__97
10
0
20
0
30
0
70
128
71
3
72
13
73
1
0
VERTEX
8
OBJECT__97
10
0
20
0
30
0
70
128
71
41
72
63
73
64
0
VERTEX
8
OBJECT__97
10
0
20
0
30
0
70
128
71
41
72
65
73
66
0
VERTEX
8
OBJECT__97
10
0
20
0
30
0
70
128
71
41
72
67
73
68
0
VERTEX
8
OBJECT__97
10
0
20
0
30
0
70
128
71
47
72
44
73
41
0
VERTEX
8
OBJECT__97
10
0
20
0
30
0
70
128
71
69
72
70
73
71
0
VERTEX
8
OBJECT__97
10
0
20
0
30
0
70
128
71
69
72
72
73
73
0
VERTEX
8
OBJECT__97
10
0
20
0
30
0
70
128
71
69
72
74
73
75
0
VERTEX
8
OBJECT__97
10
0
20
0
30
0
70
128
71
61
72
76
73
77
0
VERTEX
8
OBJECT__97
10
0
20
0
30
0
70
128
71
56
72
33
73
53
0
VERTEX
8
OBJECT__97
10
0
20
0
30
0
70
128
71
58
72
78
73
53
0
VERTEX
8
OBJECT__97
10
0
20
0
30
0
70
128
71
60
72
79
73
53
0
VERTEX
8
OBJECT__97
10
0
20
0
30
0
70
128
71
62
72
80
73
53
0
VERTEX
8
OBJECT__97
10
0
20
0
30
0
70
128
71
64
72
7
73
41
0
VERTEX
8
OBJECT__97
10
0
20
0
30
0
70
128
71
41
72
81
73
82
0
VERTEX
8
OBJECT__97
10
0
20
0
30
0
70
128
71
66
72
83
73
41
0
VERTEX
8
OBJECT__97
10
0
20
0
30
0
70
128
71
43
72
67
73
41
0
VERTEX
8
OBJECT__97
10
0
20
0
30
0
70
128
71
69
72
84
73
85
0
VERTEX
8
OBJECT__97
10
0
20
0
30
0
70
128
71
69
72
86
73
70
0
VERTEX
8
OBJECT__97
10
0
20
0
30
0
70
128
71
69
72
87
73
72
0
VERTEX
8
OBJECT__97
10
0
20
0
30
0
70
128
71
69
72
88
73
74
0
VERTEX
8
OBJECT__97
10
0
20
0
30
0
70
128
71
69
72
89
73
90
0
VERTEX
8
OBJECT__97
10
0
20
0
30
0
70
128
71
61
72
91
73
76
0
VERTEX
8
OBJECT__97
10
0
20
0
30
0
70
128
71
61
72
53
73
92
0
VERTEX
8
OBJECT__97
10
0
20
0
30
0
70
128
71
78
72
54
73
53
0
VERTEX
8
OBJECT__97
10
0
20
0
30
0
70
128
71
80
72
59
73
53
0
VERTEX
8
OBJECT__97
10
0
20
0
30
0
70
128
71
93
72
94
73
95
0
VERTEX
8
OBJECT__97
10
0
20
0
30
0
70
128
71
82
72
63
73
41
0
VERTEX
8
OBJECT__97
10
0
20
0
30
0
70
128
71
68
72
65
73
41
0
VERTEX
8
OBJECT__97
10
0
20
0
30
0
70
128
71
69
72
96
73
84
0
VERTEX
8
OBJECT__97
10
0
20
0
30
0
70
128
71
73
72
86
73
69
0
VERTEX
8
OBJECT__97
10
0
20
0
30
0
70
128
71
90
72
88
73
69
0
VERTEX
8
OBJECT__97
10
0
20
0
30
0
70
128
71
92
72
91
73
61
0
VERTEX
8
OBJECT__97
10
0
20
0
30
0
70
128
71
79
72
57
73
53
0
VERTEX
8
OBJECT__97
10
0
20
0
30
0
70
128
71
95
72
97
73
93
0
VERTEX
8
OBJECT__97
10
0
20
0
30
0
70
128
71
93
72
69
73
98
0
VERTEX
8
OBJECT__97
10
0
20
0
30
0
70
128
71
48
72
99
73
100
0
VERTEX
8
OBJECT__97
10
0
20
0
30
0
70
128
71
48
72
41
73
101
0
VERTEX
8
OBJECT__97
10
0
20
0
30
0
70
128
71
83
72
81
73
41
0
VERTEX
8
OBJECT__97
10
0
20
0
30
0
70
128
71
85
72
48
73
69
0
VERTEX
8
OBJECT__97
10
0
20
0
30
0
70
128
71
75
72
87
73
69
0
VERTEX
8
OBJECT__97
10
0
20
0
30
0
70
128
71
50
72
53
73
33
0
VERTEX
8
OBJECT__97
10
0
20
0
30
0
70
128
71
98
72
94
73
93
0
VERTEX
8
OBJECT__97
10
0
20
0
30
0
70
128
71
48
72
102
73
99
0
VERTEX
8
OBJECT__97
10
0
20
0
30
0
70
128
71
48
72
103
73
104
0
VERTEX
8
OBJECT__97
10
0
20
0
30
0
70
128
71
21
72
41
73
7
0
VERTEX
8
OBJECT__97
10
0
20
0
30
0
70
128
71
71
72
96
73
69
0
VERTEX
8
OBJECT__97
10
0
20
0
30
0
70
128
71
69
72
105
73
106
0
VERTEX
8
OBJECT__97
10
0
20
0
30
0
70
128
71
69
72
93
73
107
0
VERTEX
8
OBJECT__97
10
0
20
0
30
0
70
128
71
97
72
61
73
93
0
VERTEX
8
OBJECT__97
10
0
20
0
30
0
70
128
71
100
72
108
73
48
0
VERTEX
8
OBJECT__97
10
0
20
0
30
0
70
128
71
101
72
103
73
48
0
VERTEX
8
OBJECT__97
10
0
20
0
30
0
70
128
71
106
72
89
73
69
0
VERTEX
8
OBJECT__97
10
0
20
0
30
0
70
128
71
77
72
93
73
61
0
VERTEX
8
OBJECT__97
10
0
20
0
30
0
70
128
71
104
72
102
73
48
0
VERTEX
8
OBJECT__97
10
0
20
0
30
0
70
128
71
107
72
105
73
69
0
VERTEX
8
OBJECT__97
10
0
20
0
30
0
70
128
71
108
72
69
73
48
0
SEQEND
8
OBJECT__97
0
POLYLINE
8
OBJECT__98
66
1
70
64
71
341
72
502
62
253
0
VERTEX
8
OBJECT__98
10
14.659000
20
0.000000
30
4.203000
70
192
0
VERTEX
8
OBJECT__98
10
14.904000
20
-5.977000
30
4.542000
70
192
0
VERTEX
8
OBJECT__98
10
0.000000
20
-3.477000
30
0.148000
70
192
0
VERTEX
8
OBJECT__98
10
0.000000
20
-6.586000
30
0.557000
70
192
0
VERTEX
8
OBJECT__98
10
0.000000
20
2.148000
30
59.943001
70
192
0
VERTEX
8
OBJECT__98
10
44.758999
20
0.000000
30
47.166000
70
192
0
VERTEX
8
OBJECT__98
10
44.662998
20
3.109000
30
47.016998
70
192
0
VERTEX
8
OBJECT__98
10
0.000000
20
3.424000
30
59.818001
70
192
0
VERTEX
8
OBJECT__98
10
29.573999
20
-3.881000
30
8.480000
70
192
0
VERTEX
8
OBJECT__98
10
21.989000
20
0.000000
30
6.305000
70
192
0
VERTEX
8
OBJECT__98
10
29.318001
20
0.000000
30
8.407000
70
192
0
VERTEX
8
OBJECT__98
10
80.291000
20
0.000000
30
28.507000
70
192
0
VERTEX
8
OBJECT__98
10
84.110001
20
0.000000
30
24.118000
70
192
0
VERTEX
8
OBJECT__98
10
83.746002
20
2.758000
30
24.014000
70
192
0
VERTEX
8
OBJECT__98
10
0.000000
20
-34.973000
30
31.171000
70
192
0
VERTEX
8
OBJECT__98
10
0.000000
20
-35.000000
30
30.000000
70
192
0
VERTEX
8
OBJECT__98
10
28.357000
20
-31.750000
30
23.131001
70
192
0
VERTEX
8
OBJECT__98
10
31.179001
20
-31.125000
30
27.089001
70
192
0
VERTEX
8
OBJECT__98
10
0.000000
20
-34.271999
30
35.917000
70
192
0
VERTEX
8
OBJECT__98
10
0.000000
20
-34.671001
30
34.101002
70
192
0
VERTEX
8
OBJECT__98
10
9.734000
20
-25.393999
30
10.691000
70
192
0
VERTEX
8
OBJECT__98
10
9.244000
20
-23.145000
30
8.940000
70
192
0
VERTEX
8
OBJECT__98
10
18.488001
20
-22.018000
30
9.494000
70
192
0
VERTEX
8
OBJECT__98
10
8.419000
20
-18.059000
30
5.992000
70
192
0
VERTEX
8
OBJECT__98
10
7.817000
20
-12.369000
30
3.844000
70
192
0
VERTEX
8
OBJECT__98
10
15.635000
20
-11.767000
30
5.551000
70
192
0
VERTEX
8
OBJECT__98
10
0.000000
20
-12.969000
30
2.144000
70
192
0
VERTEX
8
OBJECT__98
10
0.000000
20
-12.179000
30
1.875000
70
192
0
VERTEX
8
OBJECT__98
10
0.000000
20
-8.694000
30
0.940000
70
192
0
VERTEX
8
OBJECT__98
10
0.000000
20
-7.107000
30
0.625000
70
192
0
VERTEX
8
OBJECT__98
10
16.837999
20
-17.180000
30
7.214000
70
192
0
VERTEX
8
OBJECT__98
10
0.000000
20
-16.944000
30
3.750000
70
192
0
VERTEX
8
OBJECT__98
10
0.000000
20
-13.687000
30
2.389000
70
192
0
VERTEX
8
OBJECT__98
10
0.000000
20
-18.919001
30
4.807000
70
192
0
VERTEX
8
OBJECT__98
10
0.000000
20
-17.325001
30
3.933000
70
192
0
VERTEX
8
OBJECT__98
10
0.000000
20
-23.150000
30
7.500000
70
192
0
VERTEX
8
OBJECT__98
10
0.000000
20
-20.355000
30
5.595000
70
192
0
VERTEX
8
OBJECT__98
10
0.000000
20
-24.256001
30
8.404000
70
192
0
VERTEX
8
OBJECT__98
10
0.000000
20
-23.818001
30
8.018000
70
192
0
VERTEX
8
OBJECT__98
10
0.000000
20
-32.341000
30
18.531000
70
192
0
VERTEX
8
OBJECT__98
10
0.000000
20
-32.133999
30
18.153999
70
192
0
VERTEX
8
OBJECT__98
10
22.944000
20
-29.166000
30
15.651000
70
192
0
VERTEX
8
OBJECT__98
10
24.252001
20
-30.291000
30
17.459000
70
192
0
VERTEX
8
OBJECT__98
10
0.000000
20
-33.377998
30
21.014999
70
192
0
VERTEX
8
OBJECT__98
10
21.702000
20
-27.750999
30
13.936000
70
192
0
VERTEX
8
OBJECT__98
10
0.000000
20
-30.587999
30
15.428000
70
192
0
VERTEX
8
OBJECT__98
10
10.271000
20
-27.410000
30
12.609000
70
192
0
VERTEX
8
OBJECT__98
10
0.000000
20
-30.311001
30
15.000000
70
192
0
VERTEX
8
OBJECT__98
10
0.000000
20
-28.726999
30
12.898000
70
192
0
VERTEX
8
OBJECT__98
10
0.000000
20
-26.261999
30
10.169000
70
192
0
VERTEX
8
OBJECT__98
10
0.000000
20
-26.615000
30
10.548000
70
192
0
VERTEX
8
OBJECT__98
10
19.469000
20
-24.158001
30
10.849000
70
192
0
VERTEX
8
OBJECT__98
10
0.000000
20
-28.423000
30
12.494000
70
192
0
VERTEX
8
OBJECT__98
10
0.000000
20
-30.881001
30
15.880000
70
192
0
VERTEX
8
OBJECT__98
10
0.000000
20
-34.327000
30
24.146999
70
192
0
VERTEX
8
OBJECT__98
10
0.000000
20
-34.278000
30
23.976999
70
192
0
VERTEX
8
OBJECT__98
10
25.606001
20
-31.103001
30
19.329000
70
192
0
VERTEX
8
OBJECT__98
10
26.982000
20
-31.590000
30
21.231001
70
192
0
VERTEX
8
OBJECT__98
10
0.000000
20
-34.833000
30
27.072001
70
192
0
VERTEX
8
OBJECT__98
10
0.000000
20
-33.493999
30
21.294001
70
192
0
VERTEX
8
OBJECT__98
10
0.000000
20
-23.368999
30
52.333000
70
192
0
VERTEX
8
OBJECT__98
10
0.000000
20
-24.641001
30
51.249001
70
192
0
VERTEX
8
OBJECT__98
10
39.425999
20
-22.378000
30
39.112000
70
192
0
VERTEX
8
OBJECT__98
10
41.612000
20
-17.579000
30
42.383999
70
192
0
VERTEX
8
OBJECT__98
10
0.000000
20
-20.563000
30
54.277000
70
192
0
VERTEX
8
OBJECT__98
10
0.000000
20
-19.358999
30
54.946999
70
192
0
VERTEX
8
OBJECT__98
10
0.000000
20
-31.752001
30
42.619999
70
192
0
VERTEX
8
OBJECT__98
10
0.000000
20
-32.250999
30
41.563999
70
192
0
VERTEX
8
OBJECT__98
10
34.068001
20
-29.289000
30
31.236000
70
192
0
VERTEX
8
OBJECT__98
10
36.866001
20
-26.332001
30
35.321999
70
192
0
VERTEX
8
OBJECT__98
10
0.000000
20
-30.120001
30
45.279999
70
192
0
VERTEX
8
OBJECT__98
10
0.000000
20
-28.995001
30
46.736000
70
192
0
VERTEX
8
OBJECT__98
10
0.000000
20
-34.033001
30
37.004002
70
192
0
VERTEX
8
OBJECT__98
10
0.000000
20
-33.058998
30
39.851002
70
192
0
VERTEX
8
OBJECT__98
10
0.000000
20
-28.167999
30
47.806000
70
192
0
VERTEX
8
OBJECT__98
10
0.000000
20
-25.913000
30
50.165001
70
192
0
VERTEX
8
OBJECT__98
10
0.000000
20
-10.848000
30
58.522999
70
192
0
VERTEX
8
OBJECT__98
10
0.000000
20
-13.344000
30
57.699001
70
192
0
VERTEX
8
OBJECT__98
10
43.299999
20
-12.115000
30
44.936001
70
192
0
VERTEX
8
OBJECT__98
10
44.381001
20
-6.183000
30
46.584000
70
192
0
VERTEX
8
OBJECT__98
10
0.000000
20
-7.303000
30
59.340000
70
192
0
VERTEX
8
OBJECT__98
10
0.000000
20
-6.813000
30
59.405998
70
192
0
VERTEX
8
OBJECT__98
10
0.000000
20
-17.516001
30
55.973000
70
192
0
VERTEX
8
OBJECT__98
10
0.000000
20
-14.267000
30
57.394001
70
192
0
VERTEX
8
OBJECT__98
10
0.000000
20
-3.673000
30
59.834000
70
192
0
VERTEX
8
OBJECT__98
10
0.000000
20
0.000000
30
60.000000
70
192
0
VERTEX
8
OBJECT__98
10
0.000000
20
34.984001
30
29.099001
70
192
0
VERTEX
8
OBJECT__98
10
28.357000
20
31.750000
30
23.131001
70
192
0
VERTEX
8
OBJECT__98
10
26.982000
20
31.590000
30
21.231001
70
192
0
VERTEX
8
OBJECT__98
10
0.000000
20
34.791000
30
26.990999
70
192
0
VERTEX
8
OBJECT__98
10
36.866001
20
26.332001
30
35.321999
70
192
0
VERTEX
8
OBJECT__98
10
0.000000
20
29.020000
30
46.755001
70
192
0
VERTEX
8
OBJECT__98
10
19.712999
20
23.524000
30
45.196999
70
192
0
VERTEX
8
OBJECT__98
10
0.000000
20
27.080999
30
49.005001
70
192
0
VERTEX
8
OBJECT__98
10
0.000000
20
24.726000
30
51.233002
70
192
0
VERTEX
8
OBJECT__98
10
0.000000
20
24.667000
30
51.278999
70
192
0
VERTEX
8
OBJECT__98
10
0.000000
20
16.122999
30
56.626999
70
192
0
VERTEX
8
OBJECT__98
10
43.299999
20
12.115000
30
44.936001
70
192
0
VERTEX
8
OBJECT__98
10
42.526001
20
14.918000
30
43.762001
70
192
0
VERTEX
8
OBJECT__98
10
0.000000
20
16.438999
30
56.469002
70
192
0
VERTEX
8
OBJECT__98
10
0.000000
20
12.828000
30
57.911999
70
192
0
VERTEX
8
OBJECT__98
10
44.381001
20
6.183000
30
46.584000
70
192
0
VERTEX
8
OBJECT__98
10
0.000000
20
13.347000
30
57.709999
70
192
0
VERTEX
8
OBJECT__98
10
0.000000
20
9.375000
30
58.903999
70
192
0
VERTEX
8
OBJECT__98
10
0.000000
20
5.800000
30
59.584999
70
192
0
VERTEX
8
OBJECT__98
10
0.000000
20
6.810000
30
59.393002
70
192
0
VERTEX
8
OBJECT__98
10
20.806000
20
18.479000
30
48.682999
70
192
0
VERTEX
8
OBJECT__98
10
41.612000
20
17.579000
30
42.383999
70
192
0
VERTEX
8
OBJECT__98
10
39.425999
20
22.378000
30
39.112000
70
192
0
VERTEX
8
OBJECT__98
10
0.000000
20
19.375000
30
54.974998
70
192
0
VERTEX
8
OBJECT__98
10
0.000000
20
19.223000
30
55.070000
70
192
0
VERTEX
8
OBJECT__98
10
0.000000
20
22.099001
30
53.264000
70
192
0
VERTEX
8
OBJECT__98
10
0.000000
20
33.520000
30
38.631001
70
192
0
VERTEX
8
OBJECT__98
10
34.068001
20
29.289000
30
31.236000
70
192
0
VERTEX
8
OBJECT__98
10
31.179001
20
31.125000
30
27.089001
70
192
0
VERTEX
8
OBJECT__98
10
0.000000
20
34.304001
30
35.923000
70
192
0
VERTEX
8
OBJECT__98
10
0.000000
20
32.377998
30
41.391998
70
192
0
VERTEX
8
OBJECT__98
10
0.000000
20
30.919001
30
44.058998
70
192
0
VERTEX
8
OBJECT__98
10
0.000000
20
32.278000
30
41.576000
70
192
0
VERTEX
8
OBJECT__98
10
0.000000
20
29.150000
30
46.604000
70
192
0
VERTEX
8
OBJECT__98
10
0.000000
20
34.834000
30
32.915001
70
192
0
VERTEX
8
OBJECT__98
10
0.000000
20
34.340000
30
35.797001
70
192
0
VERTEX
8
OBJECT__98
10
0.000000
20
35.000000
30
30.000000
70
192
0
VERTEX
8
OBJECT__98
10
9.244000
20
23.145000
30
8.940000
70
192
0
VERTEX
8
OBJECT__98
10
18.488001
20
22.018000
30
9.494000
70
192
0
VERTEX
8
OBJECT__98
10
17.608000
20
19.681000
30
8.279000
70
192
0
VERTEX
8
OBJECT__98
10
0.000000
20
31.902000
30
17.659000
70
192
0
VERTEX
8
OBJECT__98
10
22.944000
20
29.166000
30
15.651000
70
192
0
VERTEX
8
OBJECT__98
10
21.702000
20
27.750999
30
13.936000
70
192
0
VERTEX
8
OBJECT__98
10
0.000000
20
30.572001
30
15.437000
70
192
0
VERTEX
8
OBJECT__98
10
0.000000
20
34.119999
30
23.313999
70
192
0
VERTEX
8
OBJECT__98
10
25.606001
20
31.103001
30
19.329000
70
192
0
VERTEX
8
OBJECT__98
10
24.252001
20
30.291000
30
17.459000
70
192
0
VERTEX
8
OBJECT__98
10
0.000000
20
33.366001
30
21.018000
70
192
0
VERTEX
8
OBJECT__98
10
0.000000
20
34.717999
30
26.202000
70
192
0
VERTEX
8
OBJECT__98
10
0.000000
20
34.257999
30
23.980000
70
192
0
VERTEX
8
OBJECT__98
10
0.000000
20
33.181999
30
20.458000
70
192
0
VERTEX
8
OBJECT__98
10
0.000000
20
32.127998
30
18.155001
70
192
0
VERTEX
8
OBJECT__98
10
10.271000
20
27.410000
30
12.609000
70
192
0
VERTEX
8
OBJECT__98
10
20.542000
20
26.076000
30
12.333000
70
192
0
VERTEX
8
OBJECT__98
10
19.469000
20
24.158001
30
10.849000
70
192
0
VERTEX
8
OBJECT__98
10
0.000000
20
29.851999
30
14.339000
70
192
0
VERTEX
8
OBJECT__98
10
0.000000
20
30.311001
30
15.000000
70
192
0
VERTEX
8
OBJECT__98
10
0.000000
20
28.716999
30
12.907000
70
192
0
VERTEX
8
OBJECT__98
10
0.000000
20
27.992001
30
11.991000
70
192
0
VERTEX
8
OBJECT__98
10
9.734000
20
25.393999
30
10.691000
70
192
0
VERTEX
8
OBJECT__98
10
0.000000
20
26.601000
30
10.562000
70
192
0
VERTEX
8
OBJECT__98
10
0.000000
20
25.700001
30
9.635000
70
192
0
VERTEX
8
OBJECT__98
10
0.000000
20
24.246000
30
8.417000
70
192
0
VERTEX
8
OBJECT__98
10
7.817000
20
12.369000
30
3.844000
70
192
0
VERTEX
8
OBJECT__98
10
15.635000
20
11.767000
30
5.551000
70
192
0
VERTEX
8
OBJECT__98
10
14.904000
20
5.977000
30
4.542000
70
192
0
VERTEX
8
OBJECT__98
10
8.419000
20
18.059000
30
5.992000
70
192
0
VERTEX
8
OBJECT__98
10
16.837999
20
17.180000
30
7.214000
70
192
0
VERTEX
8
OBJECT__98
10
0.000000
20
22.861000
30
7.283000
70
192
0
VERTEX
8
OBJECT__98
10
0.000000
20
23.150000
30
7.500000
70
192
0
VERTEX
8
OBJECT__98
10
8.804000
20
20.688999
30
7.369000
70
192
0
VERTEX
8
OBJECT__98
10
0.000000
20
21.673000
30
6.493000
70
192
0
VERTEX
8
OBJECT__98
10
0.000000
20
20.021000
30
5.392000
70
192
0
VERTEX
8
OBJECT__98
10
0.000000
20
18.920000
30
4.805000
70
192
0
VERTEX
8
OBJECT__98
10
0.000000
20
15.533000
30
3.116000
70
192
0
VERTEX
8
OBJECT__98
10
0.000000
20
16.944000
30
3.750000
70
192
0
VERTEX
8
OBJECT__98
10
0.000000
20
12.961000
30
2.164000
70
192
0
VERTEX
8
OBJECT__98
10
0.000000
20
0.000000
30
0.000000
70
192
0
VERTEX
8
OBJECT__98
10
7.452000
20
6.283000
30
2.539000
70
192
0
VERTEX
8
OBJECT__98
10
0.000000
20
3.677000
30
0.166000
70
192
0
VERTEX
8
OBJECT__98
10
0.000000
20
6.586000
30
0.555000
70
192
0
VERTEX
8
OBJECT__98
10
0.000000
20
10.658000
30
1.425000
70
192
0
VERTEX
8
OBJECT__98
10
0.000000
20
12.179000
30
1.875000
70
192
0
VERTEX
8
OBJECT__98
10
0.000000
20
7.107000
30
0.625000
70
192
0
VERTEX
8
OBJECT__98
10
61.358002
20
0.000000
30
41.804001
70
192
0
VERTEX
8
OBJECT__98
10
66.554001
20
0.000000
30
39.186001
70
192
0
VERTEX
8
OBJECT__98
10
66.416000
20
2.950000
30
39.053001
70
192
0
VERTEX
8
OBJECT__98
10
51.264000
20
27.659000
30
14.700000
70
192
0
VERTEX
8
OBJECT__98
10
38.409000
20
29.511000
30
17.007000
70
192
0
VERTEX
8
OBJECT__98
10
42.535999
20
30.125000
30
19.697001
70
192
0
VERTEX
8
OBJECT__98
10
49.625000
20
29.312000
30
17.980000
70
192
0
VERTEX
8
OBJECT__98
10
56.714001
20
28.500000
30
16.263000
70
192
0
VERTEX
8
OBJECT__98
10
54.845001
20
28.434000
30
15.727000
70
192
0
VERTEX
8
OBJECT__98
10
71.472000
20
0.000000
30
36.077000
70
192
0
VERTEX
8
OBJECT__98
10
76.065002
20
0.000000
30
32.506001
70
192
0
VERTEX
8
OBJECT__98
10
75.921997
20
2.870000
30
32.410999
70
192
0
VERTEX
8
OBJECT__98
10
72.108002
20
20.374001
30
24.749001
70
192
0
VERTEX
8
OBJECT__98
10
75.414001
20
20.829000
30
21.625000
70
192
0
VERTEX
8
OBJECT__98
10
71.876999
20
23.426001
30
20.611000
70
192
0
VERTEX
8
OBJECT__98
10
76.055000
20
20.007999
30
21.808001
70
192
0
VERTEX
8
OBJECT__98
10
80.152000
20
2.831000
30
28.438999
70
192
0
VERTEX
8
OBJECT__98
10
75.540001
20
16.004999
30
26.283001
70
192
0
VERTEX
8
OBJECT__98
10
78.124001
20
11.030000
30
27.473000
70
192
0
VERTEX
8
OBJECT__98
10
80.122002
20
14.808000
30
22.975000
70
192
0
VERTEX
8
OBJECT__98
10
81.807999
20
10.771000
30
23.458000
70
192
0
VERTEX
8
OBJECT__98
10
79.737999
20
5.629000
30
28.238001
70
192
0
VERTEX
8
OBJECT__98
10
83.094002
20
7.689000
30
23.827000
70
192
0
VERTEX
8
OBJECT__98
10
83.380997
20
5.521000
30
23.909000
70
192
0
VERTEX
8
OBJECT__98
10
79.428001
20
15.696000
30
22.775999
70
192
0
VERTEX
8
OBJECT__98
10
73.865997
20
11.185000
30
31.093000
70
192
0
VERTEX
8
OBJECT__98
10
75.500000
20
5.708000
30
32.134998
70
192
0
VERTEX
8
OBJECT__98
10
71.274002
20
16.230000
30
29.493999
70
192
0
VERTEX
8
OBJECT__98
10
59.264999
20
27.040001
30
22.691000
70
192
0
VERTEX
8
OBJECT__98
10
62.287998
20
27.903999
30
17.861000
70
192
0
VERTEX
8
OBJECT__98
10
62.124001
20
27.921000
30
17.813999
70
192
0
VERTEX
8
OBJECT__98
10
67.218002
20
26.080999
30
19.275000
70
192
0
VERTEX
8
OBJECT__98
10
67.973999
20
23.974001
30
22.962999
70
192
0
VERTEX
8
OBJECT__98
10
69.318001
20
25.305000
30
19.877001
70
192
0
VERTEX
8
OBJECT__98
10
63.799000
20
24.311001
30
25.150000
70
192
0
VERTEX
8
OBJECT__98
10
67.863998
20
20.660000
30
27.466999
70
192
0
VERTEX
8
OBJECT__98
10
54.466000
20
28.735001
30
20.246000
70
192
0
VERTEX
8
OBJECT__98
10
55.113998
20
24.985001
30
29.108000
70
192
0
VERTEX
8
OBJECT__98
10
58.847000
20
21.233000
30
32.244999
70
192
0
VERTEX
8
OBJECT__98
10
63.437000
20
20.945999
30
29.972000
70
192
0
VERTEX
8
OBJECT__98
10
71.330002
20
2.910000
30
35.959999
70
192
0
VERTEX
8
OBJECT__98
10
69.297997
20
11.340000
30
34.351002
70
192
0
VERTEX
8
OBJECT__98
10
70.911003
20
5.788000
30
35.622002
70
192
0
VERTEX
8
OBJECT__98
10
66.757004
20
16.455000
30
32.412998
70
192
0
VERTEX
8
OBJECT__98
10
64.457001
20
11.495000
30
37.220001
70
192
0
VERTEX
8
OBJECT__98
10
66.011002
20
5.867000
30
38.667000
70
192
0
VERTEX
8
OBJECT__98
10
62.019001
20
16.680000
30
35.016998
70
192
0
VERTEX
8
OBJECT__98
10
51.009998
20
27.790001
30
25.819000
70
192
0
VERTEX
8
OBJECT__98
10
46.743000
20
29.532000
30
22.604000
70
192
0
VERTEX
8
OBJECT__98
10
27.732000
20
20.891001
30
10.049000
70
192
0
VERTEX
8
OBJECT__98
10
35.463001
20
17.986000
30
10.169000
70
192
0
VERTEX
8
OBJECT__98
10
33.758999
20
15.362000
30
9.680000
70
192
0
VERTEX
8
OBJECT__98
10
36.167000
20
18.851000
30
10.371000
70
192
0
VERTEX
8
OBJECT__98
10
37.051998
20
19.677000
30
10.625000
70
192
0
VERTEX
8
OBJECT__98
10
34.416000
20
27.673000
30
14.405000
70
192
0
VERTEX
8
OBJECT__98
10
45.931999
20
26.082001
30
13.171000
70
192
0
VERTEX
8
OBJECT__98
10
43.419998
20
24.875999
30
12.451000
70
192
0
VERTEX
8
OBJECT__98
10
48.528999
20
27.068001
30
13.915000
70
192
0
VERTEX
8
OBJECT__98
10
36.377998
20
28.740000
30
15.684000
70
192
0
VERTEX
8
OBJECT__98
10
47.540001
20
26.854000
30
13.632000
70
192
0
VERTEX
8
OBJECT__98
10
30.813999
20
24.740999
30
12.057000
70
192
0
VERTEX
8
OBJECT__98
10
40.916000
20
23.284000
30
11.732000
70
192
0
VERTEX
8
OBJECT__98
10
39.056000
20
21.548000
30
11.199000
70
192
0
VERTEX
8
OBJECT__98
10
41.089001
20
23.399000
30
11.782000
70
192
0
VERTEX
8
OBJECT__98
10
32.553001
20
26.330999
30
13.191000
70
192
0
VERTEX
8
OBJECT__98
10
43.015999
20
24.681999
30
12.335000
70
192
0
VERTEX
8
OBJECT__98
10
29.202999
20
22.921000
30
11.007000
70
192
0
VERTEX
8
OBJECT__98
10
23.452000
20
11.165000
30
7.259000
70
192
0
VERTEX
8
OBJECT__98
10
31.031000
20
9.918000
30
8.898000
70
192
0
VERTEX
8
OBJECT__98
10
29.889000
20
5.787000
30
8.571000
70
192
0
VERTEX
8
OBJECT__98
10
31.278999
20
10.559000
30
8.969000
70
192
0
VERTEX
8
OBJECT__98
10
22.356001
20
5.671000
30
6.545000
70
192
0
VERTEX
8
OBJECT__98
10
25.257000
20
16.301001
30
8.435000
70
192
0
VERTEX
8
OBJECT__98
10
31.587000
20
11.354000
30
9.057000
70
192
0
VERTEX
8
OBJECT__98
10
32.743000
20
13.798000
30
9.389000
70
192
0
VERTEX
8
OBJECT__98
10
29.573999
20
3.881000
30
8.480000
70
192
0
VERTEX
8
OBJECT__98
10
29.819000
20
5.363000
30
8.550000
70
192
0
VERTEX
8
OBJECT__98
10
35.446999
20
30.937000
30
21.414000
70
192
0
VERTEX
8
OBJECT__98
10
55.932999
20
0.000000
30
43.905998
70
192
0
VERTEX
8
OBJECT__98
10
55.813000
20
3.029000
30
43.757000
70
192
0
VERTEX
8
OBJECT__98
10
46.077000
20
25.658001
30
32.445999
70
192
0
VERTEX
8
OBJECT__98
10
49.275002
20
21.805000
30
36.043999
70
192
0
VERTEX
8
OBJECT__98
10
54.118000
20
21.518999
30
34.272999
70
192
0
VERTEX
8
OBJECT__98
10
61.228001
20
2.990000
30
41.660000
70
192
0
VERTEX
8
OBJECT__98
10
59.381001
20
11.650000
30
39.674999
70
192
0
VERTEX
8
OBJECT__98
10
60.846001
20
5.946000
30
41.243000
70
192
0
VERTEX
8
OBJECT__98
10
57.090000
20
16.905001
30
37.284000
70
192
0
VERTEX
8
OBJECT__98
10
54.112000
20
11.805000
30
41.694000
70
192
0
VERTEX
8
OBJECT__98
10
55.460999
20
6.025000
30
43.325001
70
192
0
VERTEX
8
OBJECT__98
10
52.005001
20
17.129999
30
39.200001
70
192
0
VERTEX
8
OBJECT__98
10
42.582001
20
28.539000
30
28.642000
70
192
0
VERTEX
8
OBJECT__98
10
38.973000
20
30.327999
30
24.878000
70
192
0
VERTEX
8
OBJECT__98
10
23.110001
20
21.455000
30
9.772000
70
192
0
VERTEX
8
OBJECT__98
10
25.677999
20
25.408001
30
12.195000
70
192
0
VERTEX
8
OBJECT__98
10
54.466000
20
-28.735001
30
20.246000
70
192
0
VERTEX
8
OBJECT__98
10
49.625000
20
-29.312000
30
17.980000
70
192
0
VERTEX
8
OBJECT__98
10
56.714001
20
-28.500000
30
16.263000
70
192
0
VERTEX
8
OBJECT__98
10
39.056000
20
-21.548000
30
11.199000
70
192
0
VERTEX
8
OBJECT__98
10
27.732000
20
-20.891001
30
10.049000
70
192
0
VERTEX
8
OBJECT__98
10
25.257000
20
-16.301001
30
8.435000
70
192
0
VERTEX
8
OBJECT__98
10
23.452000
20
-11.165000
30
7.259000
70
192
0
VERTEX
8
OBJECT__98
10
31.278999
20
-10.559000
30
8.969000
70
192
0
VERTEX
8
OBJECT__98
10
31.587000
20
-11.354000
30
9.057000
70
192
0
VERTEX
8
OBJECT__98
10
32.743000
20
-13.798000
30
9.389000
70
192
0
VERTEX
8
OBJECT__98
10
29.889000
20
-5.787000
30
8.571000
70
192
0
VERTEX
8
OBJECT__98
10
31.031000
20
-9.918000
30
8.898000
70
192
0
VERTEX
8
OBJECT__98
10
29.819000
20
-5.363000
30
8.550000
70
192
0
VERTEX
8
OBJECT__98
10
33.758999
20
-15.362000
30
9.680000
70
192
0
VERTEX
8
OBJECT__98
10
35.463001
20
-17.986000
30
10.169000
70
192
0
VERTEX
8
OBJECT__98
10
36.167000
20
-18.851000
30
10.371000
70
192
0
VERTEX
8
OBJECT__98
10
45.931999
20
-26.082001
30
13.171000
70
192
0
VERTEX
8
OBJECT__98
10
47.540001
20
-26.854000
30
13.632000
70
192
0
VERTEX
8
OBJECT__98
10
20.542000
20
-26.076000
30
12.333000
70
192
0
VERTEX
8
OBJECT__98
10
41.089001
20
-23.399000
30
11.782000
70
192
0
VERTEX
8
OBJECT__98
10
43.015999
20
-24.681999
30
12.335000
70
192
0
VERTEX
8
OBJECT__98
10
40.916000
20
-23.284000
30
11.732000
70
192
0
VERTEX
8
OBJECT__98
10
43.419998
20
-24.875999
30
12.451000
70
192
0
VERTEX
8
OBJECT__98
10
51.264000
20
-27.659000
30
14.700000
70
192
0
VERTEX
8
OBJECT__98
10
48.528999
20
-27.068001
30
13.915000
70
192
0
VERTEX
8
OBJECT__98
10
53.986000
20
-28.247999
30
15.480000
70
192
0
VERTEX
8
OBJECT__98
10
54.845001
20
-28.434000
30
15.727000
70
192
0
VERTEX
8
OBJECT__98
10
42.535999
20
-30.125000
30
19.697001
70
192
0
VERTEX
8
OBJECT__98
10
35.446999
20
-30.937000
30
21.414000
70
192
0
VERTEX
8
OBJECT__98
10
38.973000
20
-30.327999
30
24.878000
70
192
0
VERTEX
8
OBJECT__98
10
75.540001
20
-16.004999
30
26.283001
70
192
0
VERTEX
8
OBJECT__98
10
72.108002
20
-20.374001
30
24.749001
70
192
0
VERTEX
8
OBJECT__98
10
76.055000
20
-20.007999
30
21.808001
70
192
0
VERTEX
8
OBJECT__98
10
46.743000
20
-29.532000
30
22.604000
70
192
0
VERTEX
8
OBJECT__98
10
67.973999
20
-23.974001
30
22.962999
70
192
0
VERTEX
8
OBJECT__98
10
63.308998
20
-26.666000
30
21.023001
70
192
0
VERTEX
8
OBJECT__98
10
67.218002
20
-26.080999
30
19.275000
70
192
0
VERTEX
8
OBJECT__98
10
69.318001
20
-25.305000
30
19.877001
70
192
0
VERTEX
8
OBJECT__98
10
62.124001
20
-27.922001
30
17.813999
70
192
0
VERTEX
8
OBJECT__98
10
59.264999
20
-27.040001
30
22.691000
70
192
0
VERTEX
8
OBJECT__98
10
62.287998
20
-27.903999
30
17.861000
70
192
0
VERTEX
8
OBJECT__98
10
71.876999
20
-23.426001
30
20.610001
70
192
0
VERTEX
8
OBJECT__98
10
75.414001
20
-20.829000
30
21.625000
70
192
0
VERTEX
8
OBJECT__98
10
63.799000
20
-24.311001
30
25.150000
70
192
0
VERTEX
8
OBJECT__98
10
67.863998
20
-20.660000
30
27.466999
70
192
0
VERTEX
8
OBJECT__98
10
59.507999
20
-24.648001
30
27.202000
70
192
0
VERTEX
8
OBJECT__98
10
55.113998
20
-24.985001
30
29.108000
70
192
0
VERTEX
8
OBJECT__98
10
51.009998
20
-27.790001
30
25.819000
70
192
0
VERTEX
8
OBJECT__98
10
63.437000
20
-20.945999
30
29.972000
70
192
0
VERTEX
8
OBJECT__98
10
58.847000
20
-21.233000
30
32.244999
70
192
0
VERTEX
8
OBJECT__98
10
66.757004
20
-16.455000
30
32.412998
70
192
0
VERTEX
8
OBJECT__98
10
79.737999
20
-5.629000
30
28.238001
70
192
0
VERTEX
8
OBJECT__98
10
78.124001
20
-11.030000
30
27.473000
70
192
0
VERTEX
8
OBJECT__98
10
81.807999
20
-10.771000
30
23.458000
70
192
0
VERTEX
8
OBJECT__98
10
83.094002
20
-7.689000
30
23.827000
70
192
0
VERTEX
8
OBJECT__98
10
71.274002
20
-16.230000
30
29.493999
70
192
0
VERTEX
8
OBJECT__98
10
79.428001
20
-15.696000
30
22.775999
70
192
0
VERTEX
8
OBJECT__98
10
80.122002
20
-14.808000
30
22.975000
70
192
0
VERTEX
8
OBJECT__98
10
73.865997
20
-11.185000
30
31.093000
70
192
0
VERTEX
8
OBJECT__98
10
75.500000
20
-5.708000
30
32.134998
70
192
0
VERTEX
8
OBJECT__98
10
83.380997
20
-5.521000
30
23.909000
70
192
0
VERTEX
8
OBJECT__98
10
70.911003
20
-5.788000
30
35.622002
70
192
0
VERTEX
8
OBJECT__98
10
69.297997
20
-11.340000
30
34.351002
70
192
0
VERTEX
8
OBJECT__98
10
62.019001
20
-16.680000
30
35.016998
70
192
0
VERTEX
8
OBJECT__98
10
64.457001
20
-11.495000
30
37.220001
70
192
0
VERTEX
8
OBJECT__98
10
66.011002
20
-5.867000
30
38.667000
70
192
0
VERTEX
8
OBJECT__98
10
57.090000
20
-16.905001
30
37.284000
70
192
0
VERTEX
8
OBJECT__98
10
54.118000
20
-21.518999
30
34.272999
70
192
0
VERTEX
8
OBJECT__98
10
46.077000
20
-25.658001
30
32.445999
70
192
0
VERTEX
8
OBJECT__98
10
42.582001
20
-28.539000
30
28.642000
70
192
0
VERTEX
8
OBJECT__98
10
49.275002
20
-21.806000
30
36.043999
70
192
0
VERTEX
8
OBJECT__98
10
60.846001
20
-5.946000
30
41.243000
70
192
0
VERTEX
8
OBJECT__98
10
59.381001
20
-11.650000
30
39.674999
70
192
0
VERTEX
8
OBJECT__98
10
52.005001
20
-17.129999
30
39.200001
70
192
0
VERTEX
8
OBJECT__98
10
54.112000
20
-11.805000
30
41.694000
70
192
0
VERTEX
8
OBJECT__98
10
55.460999
20
-6.025000
30
43.325001
70
192
0
VERTEX
8
OBJECT__98
10
37.051998
20
-19.677000
30
10.625000
70
192
0
VERTEX
8
OBJECT__98
10
0
20
0
30
0
70
128
71
1
72
2
73
3
0
VERTEX
8
OBJECT__98
10
0
20
0
30
0
70
128
71
2
72
4
73
3
0
VERTEX
8
OBJECT__98
10
0
20
0
30
0
70
128
71
5
72
6
73
7
0
VERTEX
8
OBJECT__98
10
0
20
0
30
0
70
128
71
7
72
8
73
5
0
VERTEX
8
OBJECT__98
10
0
20
0
30
0
70
128
71
9
72
2
73
10
0
VERTEX
8
OBJECT__98
10
0
20
0
30
0
70
128
71
2
72
1
73
10
0
VERTEX
8
OBJECT__98
10
0
20
0
30
0
70
128
71
10
72
11
73
9
0
VERTEX
8
OBJECT__98
10
0
20
0
30
0
70
128
71
12
72
13
73
14
0
VERTEX
8
OBJECT__98
10
0
20
0
30
0
70
128
71
15
72
16
73
17
0
VERTEX
8
OBJECT__98
10
0
20
0
30
0
70
128
71
18
72
19
73
20
0
VERTEX
8
OBJECT__98
10
0
20
0
30
0
70
128
71
20
72
15
73
18
0
VERTEX
8
OBJECT__98
10
0
20
0
30
0
70
128
71
21
72
22
73
23
0
VERTEX
8
OBJECT__98
10
0
20
0
30
0
70
128
71
24
72
25
73
26
0
VERTEX
8
OBJECT__98
10
0
20
0
30
0
70
128
71
25
72
27
73
28
0
VERTEX
8
OBJECT__98
10
0
20
0
30
0
70
128
71
28
72
29
73
25
0
VERTEX
8
OBJECT__98
10
0
20
0
30
0
70
128
71
29
72
30
73
25
0
VERTEX
8
OBJECT__98
10
0
20
0
30
0
70
128
71
2
72
26
73
25
0
VERTEX
8
OBJECT__98
10
0
20
0
30
0
70
128
71
25
72
4
73
2
0
VERTEX
8
OBJECT__98
10
0
20
0
30
0
70
128
71
22
72
24
73
31
0
VERTEX
8
OBJECT__98
10
0
20
0
30
0
70
128
71
25
72
24
73
32
0
VERTEX
8
OBJECT__98
10
0
20
0
30
0
70
128
71
32
72
33
73
25
0
VERTEX
8
OBJECT__98
10
0
20
0
30
0
70
128
71
24
72
34
73
35
0
VERTEX
8
OBJECT__98
10
0
20
0
30
0
70
128
71
35
72
32
73
24
0
VERTEX
8
OBJECT__98
10
0
20
0
30
0
70
128
71
22
72
36
73
37
0
VERTEX
8
OBJECT__98
10
0
20
0
30
0
70
128
71
37
72
24
73
22
0
VERTEX
8
OBJECT__98
10
0
20
0
30
0
70
128
71
22
72
38
73
39
0
VERTEX
8
OBJECT__98
10
0
20
0
30
0
70
128
71
39
72
36
73
22
0
VERTEX
8
OBJECT__98
10
0
20
0
30
0
70
128
71
40
72
41
73
42
0
VERTEX
8
OBJECT__98
10
0
20
0
30
0
70
128
71
43
72
44
73
40
0
VERTEX
8
OBJECT__98
10
0
20
0
30
0
70
128
71
45
72
46
73
47
0
VERTEX
8
OBJECT__98
10
0
20
0
30
0
70
128
71
47
72
46
73
48
0
VERTEX
8
OBJECT__98
10
0
20
0
30
0
70
128
71
48
72
49
73
47
0
VERTEX
8
OBJECT__98
10
0
20
0
30
0
70
128
71
50
72
38
73
22
0
VERTEX
8
OBJECT__98
10
0
20
0
30
0
70
128
71
21
72
51
73
50
0
VERTEX
8
OBJECT__98
10
0
20
0
30
0
70
128
71
47
72
21
73
52
0
VERTEX
8
OBJECT__98
10
0
20
0
30
0
70
128
71
53
72
51
73
21
0
VERTEX
8
OBJECT__98
10
0
20
0
30
0
70
128
71
47
72
49
73
53
0
VERTEX
8
OBJECT__98
10
0
20
0
30
0
70
128
71
54
72
46
73
45
0
VERTEX
8
OBJECT__98
10
0
20
0
30
0
70
128
71
42
72
41
73
54
0
VERTEX
8
OBJECT__98
10
0
20
0
30
0
70
128
71
55
72
56
73
57
0
VERTEX
8
OBJECT__98
10
0
20
0
30
0
70
128
71
58
72
59
73
55
0
VERTEX
8
OBJECT__98
10
0
20
0
30
0
70
128
71
60
72
44
73
43
0
VERTEX
8
OBJECT__98
10
0
20
0
30
0
70
128
71
57
72
56
73
60
0
VERTEX
8
OBJECT__98
10
0
20
0
30
0
70
128
71
16
72
59
73
58
0
VERTEX
8
OBJECT__98
10
0
20
0
30
0
70
128
71
61
72
62
73
63
0
VERTEX
8
OBJECT__98
10
0
20
0
30
0
70
128
71
64
72
65
73
61
0
VERTEX
8
OBJECT__98
10
0
20
0
30
0
70
128
71
64
72
66
73
65
0
VERTEX
8
OBJECT__98
10
0
20
0
30
0
70
128
71
67
72
68
73
69
0
VERTEX
8
OBJECT__98
10
0
20
0
30
0
70
128
71
70
72
71
73
67
0
VERTEX
8
OBJECT__98
10
0
20
0
30
0
70
128
71
70
72
72
73
71
0
VERTEX
8
OBJECT__98
10
0
20
0
30
0
70
128
71
73
72
19
73
18
0
VERTEX
8
OBJECT__98
10
0
20
0
30
0
70
128
71
69
72
74
73
73
0
VERTEX
8
OBJECT__98
10
0
20
0
30
0
70
128
71
69
72
68
73
74
0
VERTEX
8
OBJECT__98
10
0
20
0
30
0
70
128
71
75
72
72
73
70
0
VERTEX
8
OBJECT__98
10
0
20
0
30
0
70
128
71
63
72
76
73
75
0
VERTEX
8
OBJECT__98
10
0
20
0
30
0
70
128
71
63
72
62
73
76
0
VERTEX
8
OBJECT__98
10
0
20
0
30
0
70
128
71
77
72
78
73
79
0
VERTEX
8
OBJECT__98
10
0
20
0
30
0
70
128
71
80
72
81
73
77
0
VERTEX
8
OBJECT__98
10
0
20
0
30
0
70
128
71
80
72
82
73
81
0
VERTEX
8
OBJECT__98
10
0
20
0
30
0
70
128
71
83
72
66
73
64
0
VERTEX
8
OBJECT__98
10
0
20
0
30
0
70
128
71
79
72
84
73
83
0
VERTEX
8
OBJECT__98
10
0
20
0
30
0
70
128
71
79
72
78
73
84
0
VERTEX
8
OBJECT__98
10
0
20
0
30
0
70
128
71
85
72
82
73
80
0
VERTEX
8
OBJECT__98
10
0
20
0
30
0
70
128
71
6
72
86
73
85
0
VERTEX
8
OBJECT__98
10
0
20
0
30
0
70
128
71
87
72
88
73
89
0
VERTEX
8
OBJECT__98
10
0
20
0
30
0
70
128
71
89
72
90
73
87
0
VERTEX
8
OBJECT__98
10
0
20
0
30
0
70
128
71
91
72
92
73
93
0
VERTEX
8
OBJECT__98
10
0
20
0
30
0
70
128
71
93
72
92
73
94
0
VERTEX
8
OBJECT__98
10
0
20
0
30
0
70
128
71
94
72
95
73
93
0
VERTEX
8
OBJECT__98
10
0
20
0
30
0
70
128
71
95
72
96
73
93
0
VERTEX
8
OBJECT__98
10
0
20
0
30
0
70
128
71
97
72
98
73
99
0
VERTEX
8
OBJECT__98
10
0
20
0
30
0
70
128
71
99
72
100
73
97
0
VERTEX
8
OBJECT__98
10
0
20
0
30
0
70
128
71
101
72
102
73
98
0
VERTEX
8
OBJECT__98
10
0
20
0
30
0
70
128
71
98
72
103
73
101
0
VERTEX
8
OBJECT__98
10
0
20
0
30
0
70
128
71
101
72
104
73
102
0
VERTEX
8
OBJECT__98
10
0
20
0
30
0
70
128
71
105
72
7
73
102
0
VERTEX
8
OBJECT__98
10
0
20
0
30
0
70
128
71
102
72
106
73
105
0
VERTEX
8
OBJECT__98
10
0
20
0
30
0
70
128
71
107
72
108
73
109
0
VERTEX
8
OBJECT__98
10
0
20
0
30
0
70
128
71
107
72
110
73
111
0
VERTEX
8
OBJECT__98
10
0
20
0
30
0
70
128
71
99
72
108
73
107
0
VERTEX
8
OBJECT__98
10
0
20
0
30
0
70
128
71
107
72
100
73
99
0
VERTEX
8
OBJECT__98
10
0
20
0
30
0
70
128
71
107
72
93
73
96
0
VERTEX
8
OBJECT__98
10
0
20
0
30
0
70
128
71
96
72
112
73
107
0
VERTEX
8
OBJECT__98
10
0
20
0
30
0
70
128
71
113
72
114
73
115
0
VERTEX
8
OBJECT__98
10
0
20
0
30
0
70
128
71
115
72
116
73
113
0
VERTEX
8
OBJECT__98
10
0
20
0
30
0
70
128
71
113
72
117
73
114
0
VERTEX
8
OBJECT__98
10
0
20
0
30
0
70
128
71
118
72
91
73
114
0
VERTEX
8
OBJECT__98
10
0
20
0
30
0
70
128
71
114
72
119
73
118
0
VERTEX
8
OBJECT__98
10
0
20
0
30
0
70
128
71
118
72
120
73
91
0
VERTEX
8
OBJECT__98
10
0
20
0
30
0
70
128
71
115
72
121
73
122
0
VERTEX
8
OBJECT__98
10
0
20
0
30
0
70
128
71
115
72
123
73
121
0
VERTEX
8
OBJECT__98
10
0
20
0
30
0
70
128
71
123
72
115
73
88
0
VERTEX
8
OBJECT__98
10
0
20
0
30
0
70
128
71
124
72
125
73
126
0
VERTEX
8
OBJECT__98
10
0
20
0
30
0
70
128
71
127
72
128
73
129
0
VERTEX
8
OBJECT__98
10
0
20
0
30
0
70
128
71
129
72
130
73
127
0
VERTEX
8
OBJECT__98
10
0
20
0
30
0
70
128
71
131
72
132
73
133
0
VERTEX
8
OBJECT__98
10
0
20
0
30
0
70
128
71
133
72
134
73
131
0
VERTEX
8
OBJECT__98
10
0
20
0
30
0
70
128
71
135
72
89
73
132
0
VERTEX
8
OBJECT__98
10
0
20
0
30
0
70
128
71
132
72
136
73
135
0
VERTEX
8
OBJECT__98
10
0
20
0
30
0
70
128
71
137
72
133
73
128
0
VERTEX
8
OBJECT__98
10
0
20
0
30
0
70
128
71
128
72
138
73
137
0
VERTEX
8
OBJECT__98
10
0
20
0
30
0
70
128
71
139
72
140
73
141
0
VERTEX
8
OBJECT__98
10
0
20
0
30
0
70
128
71
139
72
142
73
143
0
VERTEX
8
OBJECT__98
10
0
20
0
30
0
70
128
71
139
72
144
73
142
0
VERTEX
8
OBJECT__98
10
0
20
0
30
0
70
128
71
129
72
140
73
139
0
VERTEX
8
OBJECT__98
10
0
20
0
30
0
70
128
71
139
72
130
73
129
0
VERTEX
8
OBJECT__98
10
0
20
0
30
0
70
128
71
145
72
139
73
146
0
VERTEX
8
OBJECT__98
10
0
20
0
30
0
70
128
71
146
72
147
73
145
0
VERTEX
8
OBJECT__98
10
0
20
0
30
0
70
128
71
146
72
141
73
125
0
VERTEX
8
OBJECT__98
10
0
20
0
30
0
70
128
71
148
72
146
73
124
0
VERTEX
8
OBJECT__98
10
0
20
0
30
0
70
128
71
124
72
149
73
148
0
VERTEX
8
OBJECT__98
10
0
20
0
30
0
70
128
71
150
72
151
73
152
0
VERTEX
8
OBJECT__98
10
0
20
0
30
0
70
128
71
153
72
154
73
151
0
VERTEX
8
OBJECT__98
10
0
20
0
30
0
70
128
71
124
72
155
73
156
0
VERTEX
8
OBJECT__98
10
0
20
0
30
0
70
128
71
157
72
158
73
155
0
VERTEX
8
OBJECT__98
10
0
20
0
30
0
70
128
71
155
72
124
73
157
0
VERTEX
8
OBJECT__98
10
0
20
0
30
0
70
128
71
157
72
126
73
154
0
VERTEX
8
OBJECT__98
10
0
20
0
30
0
70
128
71
157
72
153
73
159
0
VERTEX
8
OBJECT__98
10
0
20
0
30
0
70
128
71
153
72
160
73
159
0
VERTEX
8
OBJECT__98
10
0
20
0
30
0
70
128
71
153
72
150
73
161
0
VERTEX
8
OBJECT__98
10
0
20
0
30
0
70
128
71
161
72
162
73
153
0
VERTEX
8
OBJECT__98
10
0
20
0
30
0
70
128
71
150
72
163
73
161
0
VERTEX
8
OBJECT__98
10
0
20
0
30
0
70
128
71
1
72
164
73
165
0
VERTEX
8
OBJECT__98
10
0
20
0
30
0
70
128
71
165
72
164
73
166
0
VERTEX
8
OBJECT__98
10
0
20
0
30
0
70
128
71
166
72
167
73
165
0
VERTEX
8
OBJECT__98
10
0
20
0
30
0
70
128
71
150
72
168
73
169
0
VERTEX
8
OBJECT__98
10
0
20
0
30
0
70
128
71
165
72
170
73
168
0
VERTEX
8
OBJECT__98
10
0
20
0
30
0
70
128
71
165
72
167
73
170
0
VERTEX
8
OBJECT__98
10
0
20
0
30
0
70
128
71
168
72
150
73
165
0
VERTEX
8
OBJECT__98
10
0
20
0
30
0
70
128
71
171
72
172
73
173
0
VERTEX
8
OBJECT__98
10
0
20
0
30
0
70
128
71
174
72
175
73
176
0
VERTEX
8
OBJECT__98
10
0
20
0
30
0
70
128
71
176
72
177
73
174
0
VERTEX
8
OBJECT__98
10
0
20
0
30
0
70
128
71
177
72
178
73
179
0
VERTEX
8
OBJECT__98
10
0
20
0
30
0
70
128
71
180
72
181
73
182
0
VERTEX
8
OBJECT__98
10
0
20
0
30
0
70
128
71
183
72
184
73
185
0
VERTEX
8
OBJECT__98
10
0
20
0
30
0
70
128
71
183
72
186
73
184
0
VERTEX
8
OBJECT__98
10
0
20
0
30
0
70
128
71
181
72
12
73
187
0
VERTEX
8
OBJECT__98
10
0
20
0
30
0
70
128
71
188
72
189
73
190
0
VERTEX
8
OBJECT__98
10
0
20
0
30
0
70
128
71
189
72
191
73
190
0
VERTEX
8
OBJECT__98
10
0
20
0
30
0
70
128
71
192
72
193
73
191
0
VERTEX
8
OBJECT__98
10
0
20
0
30
0
70
128
71
192
72
194
73
193
0
VERTEX
8
OBJECT__98
10
0
20
0
30
0
70
128
71
187
72
14
73
194
0
VERTEX
8
OBJECT__98
10
0
20
0
30
0
70
128
71
188
72
195
73
186
0
VERTEX
8
OBJECT__98
10
0
20
0
30
0
70
128
71
196
72
189
73
188
0
VERTEX
8
OBJECT__98
10
0
20
0
30
0
70
128
71
197
72
192
73
189
0
VERTEX
8
OBJECT__98
10
0
20
0
30
0
70
128
71
182
72
187
73
192
0
VERTEX
8
OBJECT__98
10
0
20
0
30
0
70
128
71
198
72
188
73
183
0
VERTEX
8
OBJECT__98
10
0
20
0
30
0
70
128
71
199
72
200
73
201
0
VERTEX
8
OBJECT__98
10
0
20
0
30
0
70
128
71
199
72
202
73
200
0
VERTEX
8
OBJECT__98
10
0
20
0
30
0
70
128
71
203
72
185
73
204
0
VERTEX
8
OBJECT__98
10
0
20
0
30
0
70
128
71
202
72
199
73
205
0
VERTEX
8
OBJECT__98
10
0
20
0
30
0
70
128
71
205
72
203
73
202
0
VERTEX
8
OBJECT__98
10
0
20
0
30
0
70
128
71
206
72
183
73
203
0
VERTEX
8
OBJECT__98
10
0
20
0
30
0
70
128
71
207
72
201
73
178
0
VERTEX
8
OBJECT__98
10
0
20
0
30
0
70
128
71
208
72
209
73
210
0
VERTEX
8
OBJECT__98
10
0
20
0
30
0
70
128
71
210
72
205
73
208
0
VERTEX
8
OBJECT__98
10
0
20
0
30
0
70
128
71
172
72
180
73
211
0
VERTEX
8
OBJECT__98
10
0
20
0
30
0
70
128
71
212
72
196
73
198
0
VERTEX
8
OBJECT__98
10
0
20
0
30
0
70
128
71
213
72
197
73
196
0
VERTEX
8
OBJECT__98
10
0
20
0
30
0
70
128
71
211
72
182
73
197
0
VERTEX
8
OBJECT__98
10
0
20
0
30
0
70
128
71
214
72
198
73
206
0
VERTEX
8
OBJECT__98
10
0
20
0
30
0
70
128
71
215
72
212
73
214
0
VERTEX
8
OBJECT__98
10
0
20
0
30
0
70
128
71
216
72
213
73
212
0
VERTEX
8
OBJECT__98
10
0
20
0
30
0
70
128
71
173
72
211
73
213
0
VERTEX
8
OBJECT__98
10
0
20
0
30
0
70
128
71
217
72
214
73
210
0
VERTEX
8
OBJECT__98
10
0
20
0
30
0
70
128
71
218
72
199
73
207
0
VERTEX
8
OBJECT__98
10
0
20
0
30
0
70
128
71
208
72
205
73
199
0
VERTEX
8
OBJECT__98
10
0
20
0
30
0
70
128
71
219
72
207
73
177
0
VERTEX
8
OBJECT__98
10
0
20
0
30
0
70
128
71
220
72
221
73
222
0
VERTEX
8
OBJECT__98
10
0
20
0
30
0
70
128
71
220
72
223
73
221
0
VERTEX
8
OBJECT__98
10
0
20
0
30
0
70
128
71
220
72
224
73
223
0
VERTEX
8
OBJECT__98
10
0
20
0
30
0
70
128
71
225
72
226
73
227
0
VERTEX
8
OBJECT__98
10
0
20
0
30
0
70
128
71
175
72
174
73
228
0
VERTEX
8
OBJECT__98
10
0
20
0
30
0
70
128
71
229
72
230
73
226
0
VERTEX
8
OBJECT__98
10
0
20
0
30
0
70
128
71
229
72
228
73
230
0
VERTEX
8
OBJECT__98
10
0
20
0
30
0
70
128
71
231
72
232
73
233
0
VERTEX
8
OBJECT__98
10
0
20
0
30
0
70
128
71
231
72
234
73
232
0
VERTEX
8
OBJECT__98
10
0
20
0
30
0
70
128
71
235
72
236
73
234
0
VERTEX
8
OBJECT__98
10
0
20
0
30
0
70
128
71
235
72
227
73
236
0
VERTEX
8
OBJECT__98
10
0
20
0
30
0
70
128
71
237
72
233
73
224
0
VERTEX
8
OBJECT__98
10
0
20
0
30
0
70
128
71
238
72
239
73
240
0
VERTEX
8
OBJECT__98
10
0
20
0
30
0
70
128
71
238
72
241
73
239
0
VERTEX
8
OBJECT__98
10
0
20
0
30
0
70
128
71
240
72
242
73
238
0
VERTEX
8
OBJECT__98
10
0
20
0
30
0
70
128
71
243
72
244
73
241
0
VERTEX
8
OBJECT__98
10
0
20
0
30
0
70
128
71
243
72
245
73
244
0
VERTEX
8
OBJECT__98
10
0
20
0
30
0
70
128
71
243
72
222
73
245
0
VERTEX
8
OBJECT__98
10
0
20
0
30
0
70
128
71
10
72
242
73
246
0
VERTEX
8
OBJECT__98
10
0
20
0
30
0
70
128
71
242
72
247
73
246
0
VERTEX
8
OBJECT__98
10
0
20
0
30
0
70
128
71
89
72
88
73
248
0
VERTEX
8
OBJECT__98
10
0
20
0
30
0
70
128
71
175
72
132
73
89
0
VERTEX
8
OBJECT__98
10
0
20
0
30
0
70
128
71
248
72
175
73
89
0
VERTEX
8
OBJECT__98
10
0
20
0
30
0
70
128
71
6
72
249
73
250
0
VERTEX
8
OBJECT__98
10
0
20
0
30
0
70
128
71
251
72
252
73
253
0
VERTEX
8
OBJECT__98
10
0
20
0
30
0
70
128
71
253
72
208
73
251
0
VERTEX
8
OBJECT__98
10
0
20
0
30
0
70
128
71
249
72
171
73
254
0
VERTEX
8
OBJECT__98
10
0
20
0
30
0
70
128
71
255
72
215
73
217
0
VERTEX
8
OBJECT__98
10
0
20
0
30
0
70
128
71
256
72
216
73
215
0
VERTEX
8
OBJECT__98
10
0
20
0
30
0
70
128
71
254
72
173
73
216
0
VERTEX
8
OBJECT__98
10
0
20
0
30
0
70
128
71
257
72
217
73
209
0
VERTEX
8
OBJECT__98
10
0
20
0
30
0
70
128
71
258
72
255
73
257
0
VERTEX
8
OBJECT__98
10
0
20
0
30
0
70
128
71
259
72
256
73
255
0
VERTEX
8
OBJECT__98
10
0
20
0
30
0
70
128
71
250
72
254
73
256
0
VERTEX
8
OBJECT__98
10
0
20
0
30
0
70
128
71
260
72
257
73
253
0
VERTEX
8
OBJECT__98
10
0
20
0
30
0
70
128
71
261
72
218
73
219
0
VERTEX
8
OBJECT__98
10
0
20
0
30
0
70
128
71
251
72
208
73
218
0
VERTEX
8
OBJECT__98
10
0
20
0
30
0
70
128
71
262
72
219
73
176
0
VERTEX
8
OBJECT__98
10
0
20
0
30
0
70
128
71
109
72
252
73
251
0
VERTEX
8
OBJECT__98
10
0
20
0
30
0
70
128
71
260
72
99
73
98
0
VERTEX
8
OBJECT__98
10
0
20
0
30
0
70
128
71
260
72
108
73
99
0
VERTEX
8
OBJECT__98
10
0
20
0
30
0
70
128
71
102
72
259
73
258
0
VERTEX
8
OBJECT__98
10
0
20
0
30
0
70
128
71
7
72
250
73
259
0
VERTEX
8
OBJECT__98
10
0
20
0
30
0
70
128
71
108
72
260
73
252
0
VERTEX
8
OBJECT__98
10
0
20
0
30
0
70
128
71
114
72
261
73
262
0
VERTEX
8
OBJECT__98
10
0
20
0
30
0
70
128
71
91
72
251
73
261
0
VERTEX
8
OBJECT__98
10
0
20
0
30
0
70
128
71
115
72
262
73
248
0
VERTEX
8
OBJECT__98
10
0
20
0
30
0
70
128
71
126
72
125
73
263
0
VERTEX
8
OBJECT__98
10
0
20
0
30
0
70
128
71
243
72
154
73
126
0
VERTEX
8
OBJECT__98
10
0
20
0
30
0
70
128
71
263
72
243
73
126
0
VERTEX
8
OBJECT__98
10
0
20
0
30
0
70
128
71
128
72
225
73
235
0
VERTEX
8
OBJECT__98
10
0
20
0
30
0
70
128
71
132
72
175
73
229
0
VERTEX
8
OBJECT__98
10
0
20
0
30
0
70
128
71
133
72
229
73
225
0
VERTEX
8
OBJECT__98
10
0
20
0
30
0
70
128
71
264
72
237
73
220
0
VERTEX
8
OBJECT__98
10
0
20
0
30
0
70
128
71
264
72
231
73
237
0
VERTEX
8
OBJECT__98
10
0
20
0
30
0
70
128
71
235
72
231
73
264
0
VERTEX
8
OBJECT__98
10
0
20
0
30
0
70
128
71
264
72
129
73
235
0
VERTEX
8
OBJECT__98
10
0
20
0
30
0
70
128
71
263
72
141
73
140
0
VERTEX
8
OBJECT__98
10
0
20
0
30
0
70
128
71
263
72
125
73
141
0
VERTEX
8
OBJECT__98
10
0
20
0
30
0
70
128
71
151
72
238
73
242
0
VERTEX
8
OBJECT__98
10
0
20
0
30
0
70
128
71
154
72
243
73
238
0
VERTEX
8
OBJECT__98
10
0
20
0
30
0
70
128
71
152
72
242
73
10
0
VERTEX
8
OBJECT__98
10
0
20
0
30
0
70
128
71
265
72
266
73
267
0
VERTEX
8
OBJECT__98
10
0
20
0
30
0
70
128
71
268
72
52
73
269
0
VERTEX
8
OBJECT__98
10
0
20
0
30
0
70
128
71
52
72
23
73
269
0
VERTEX
8
OBJECT__98
10
0
20
0
30
0
70
128
71
270
72
271
73
272
0
VERTEX
8
OBJECT__98
10
0
20
0
30
0
70
128
71
272
72
273
73
270
0
VERTEX
8
OBJECT__98
10
0
20
0
30
0
70
128
71
273
72
274
73
270
0
VERTEX
8
OBJECT__98
10
0
20
0
30
0
70
128
71
275
72
276
73
271
0
VERTEX
8
OBJECT__98
10
0
20
0
30
0
70
128
71
271
72
26
73
275
0
VERTEX
8
OBJECT__98
10
0
20
0
30
0
70
128
71
2
72
277
73
275
0
VERTEX
8
OBJECT__98
10
0
20
0
30
0
70
128
71
275
72
26
73
2
0
VERTEX
8
OBJECT__98
10
0
20
0
30
0
70
128
71
269
72
270
73
278
0
VERTEX
8
OBJECT__98
10
0
20
0
30
0
70
128
71
278
72
279
73
269
0
VERTEX
8
OBJECT__98
10
0
20
0
30
0
70
128
71
279
72
280
73
269
0
VERTEX
8
OBJECT__98
10
0
20
0
30
0
70
128
71
31
72
26
73
271
0
VERTEX
8
OBJECT__98
10
0
20
0
30
0
70
128
71
23
72
31
73
270
0
VERTEX
8
OBJECT__98
10
0
20
0
30
0
70
128
71
43
72
42
73
281
0
VERTEX
8
OBJECT__98
10
0
20
0
30
0
70
128
71
281
72
282
73
43
0
VERTEX
8
OBJECT__98
10
0
20
0
30
0
70
128
71
45
72
283
73
284
0
VERTEX
8
OBJECT__98
10
0
20
0
30
0
70
128
71
284
72
285
73
45
0
VERTEX
8
OBJECT__98
10
0
20
0
30
0
70
128
71
283
72
52
73
268
0
VERTEX
8
OBJECT__98
10
0
20
0
30
0
70
128
71
268
72
286
73
283
0
VERTEX
8
OBJECT__98
10
0
20
0
30
0
70
128
71
42
72
45
73
287
0
VERTEX
8
OBJECT__98
10
0
20
0
30
0
70
128
71
58
72
57
73
288
0
VERTEX
8
OBJECT__98
10
0
20
0
30
0
70
128
71
57
72
43
73
289
0
VERTEX
8
OBJECT__98
10
0
20
0
30
0
70
128
71
290
72
291
73
266
0
VERTEX
8
OBJECT__98
10
0
20
0
30
0
70
128
71
266
72
292
73
290
0
VERTEX
8
OBJECT__98
10
0
20
0
30
0
70
128
71
292
72
58
73
290
0
VERTEX
8
OBJECT__98
10
0
20
0
30
0
70
128
71
292
72
293
73
58
0
VERTEX
8
OBJECT__98
10
0
20
0
30
0
70
128
71
293
72
17
73
58
0
VERTEX
8
OBJECT__98
10
0
20
0
30
0
70
128
71
294
72
293
73
292
0
VERTEX
8
OBJECT__98
10
0
20
0
30
0
70
128
71
295
72
296
73
297
0
VERTEX
8
OBJECT__98
10
0
20
0
30
0
70
128
71
298
72
292
73
266
0
VERTEX
8
OBJECT__98
10
0
20
0
30
0
70
128
71
299
72
300
73
301
0
VERTEX
8
OBJECT__98
10
0
20
0
30
0
70
128
71
301
72
302
73
299
0
VERTEX
8
OBJECT__98
10
0
20
0
30
0
70
128
71
303
72
300
73
304
0
VERTEX
8
OBJECT__98
10
0
20
0
30
0
70
128
71
300
72
303
73
305
0
VERTEX
8
OBJECT__98
10
0
20
0
30
0
70
128
71
305
72
301
73
300
0
VERTEX
8
OBJECT__98
10
0
20
0
30
0
70
128
71
296
72
299
73
306
0
VERTEX
8
OBJECT__98
10
0
20
0
30
0
70
128
71
306
72
307
73
296
0
VERTEX
8
OBJECT__98
10
0
20
0
30
0
70
128
71
308
72
304
73
300
0
VERTEX
8
OBJECT__98
10
0
20
0
30
0
70
128
71
309
72
308
73
299
0
VERTEX
8
OBJECT__98
10
0
20
0
30
0
70
128
71
304
72
310
73
311
0
VERTEX
8
OBJECT__98
10
0
20
0
30
0
70
128
71
304
72
308
73
310
0
VERTEX
8
OBJECT__98
10
0
20
0
30
0
70
128
71
312
72
298
73
265
0
VERTEX
8
OBJECT__98
10
0
20
0
30
0
70
128
71
313
72
310
73
308
0
VERTEX
8
OBJECT__98
10
0
20
0
30
0
70
128
71
314
72
311
73
310
0
VERTEX
8
OBJECT__98
10
0
20
0
30
0
70
128
71
315
72
313
73
309
0
VERTEX
8
OBJECT__98
10
0
20
0
30
0
70
128
71
316
72
317
73
318
0
VERTEX
8
OBJECT__98
10
0
20
0
30
0
70
128
71
318
72
319
73
316
0
VERTEX
8
OBJECT__98
10
0
20
0
30
0
70
128
71
320
72
309
73
296
0
VERTEX
8
OBJECT__98
10
0
20
0
30
0
70
128
71
295
72
321
73
322
0
VERTEX
8
OBJECT__98
10
0
20
0
30
0
70
128
71
322
72
317
73
295
0
VERTEX
8
OBJECT__98
10
0
20
0
30
0
70
128
71
323
72
320
73
295
0
VERTEX
8
OBJECT__98
10
0
20
0
30
0
70
128
71
324
72
323
73
317
0
VERTEX
8
OBJECT__98
10
0
20
0
30
0
70
128
71
12
72
316
73
325
0
VERTEX
8
OBJECT__98
10
0
20
0
30
0
70
128
71
181
72
324
73
316
0
VERTEX
8
OBJECT__98
10
0
20
0
30
0
70
128
71
326
72
327
73
323
0
VERTEX
8
OBJECT__98
10
0
20
0
30
0
70
128
71
328
72
314
73
313
0
VERTEX
8
OBJECT__98
10
0
20
0
30
0
70
128
71
327
72
315
73
320
0
VERTEX
8
OBJECT__98
10
0
20
0
30
0
70
128
71
329
72
328
73
315
0
VERTEX
8
OBJECT__98
10
0
20
0
30
0
70
128
71
330
72
329
73
327
0
VERTEX
8
OBJECT__98
10
0
20
0
30
0
70
128
71
180
72
326
73
324
0
VERTEX
8
OBJECT__98
10
0
20
0
30
0
70
128
71
172
72
330
73
326
0
VERTEX
8
OBJECT__98
10
0
20
0
30
0
70
128
71
331
72
332
73
314
0
VERTEX
8
OBJECT__98
10
0
20
0
30
0
70
128
71
18
72
17
73
293
0
VERTEX
8
OBJECT__98
10
0
20
0
30
0
70
128
71
333
72
334
73
312
0
VERTEX
8
OBJECT__98
10
0
20
0
30
0
70
128
71
334
72
294
73
298
0
VERTEX
8
OBJECT__98
10
0
20
0
30
0
70
128
71
333
72
311
73
332
0
VERTEX
8
OBJECT__98
10
0
20
0
30
0
70
128
71
311
72
314
73
332
0
VERTEX
8
OBJECT__98
10
0
20
0
30
0
70
128
71
70
72
69
73
334
0
VERTEX
8
OBJECT__98
10
0
20
0
30
0
70
128
71
69
72
18
73
294
0
VERTEX
8
OBJECT__98
10
0
20
0
30
0
70
128
71
63
72
70
73
333
0
VERTEX
8
OBJECT__98
10
0
20
0
30
0
70
128
71
64
72
63
73
335
0
VERTEX
8
OBJECT__98
10
0
20
0
30
0
70
128
71
336
72
337
73
329
0
VERTEX
8
OBJECT__98
10
0
20
0
30
0
70
128
71
338
72
335
73
332
0
VERTEX
8
OBJECT__98
10
0
20
0
30
0
70
128
71
337
72
331
73
328
0
VERTEX
8
OBJECT__98
10
0
20
0
30
0
70
128
71
339
72
338
73
331
0
VERTEX
8
OBJECT__98
10
0
20
0
30
0
70
128
71
340
72
339
73
337
0
VERTEX
8
OBJECT__98
10
0
20
0
30
0
70
128
71
171
72
336
73
330
0
VERTEX
8
OBJECT__98
10
0
20
0
30
0
70
128
71
249
72
340
73
336
0
VERTEX
8
OBJECT__98
10
0
20
0
30
0
70
128
71
80
72
79
73
339
0
VERTEX
8
OBJECT__98
10
0
20
0
30
0
70
128
71
79
72
64
73
338
0
VERTEX
8
OBJECT__98
10
0
20
0
30
0
70
128
71
6
72
80
73
340
0
VERTEX
8
OBJECT__98
10
0
20
0
30
0
70
128
71
340
72
249
73
6
0
VERTEX
8
OBJECT__98
10
0
20
0
30
0
70
128
71
338
72
339
73
79
0
VERTEX
8
OBJECT__98
10
0
20
0
30
0
70
128
71
339
72
340
73
80
0
VERTEX
8
OBJECT__98
10
0
20
0
30
0
70
128
71
336
72
171
73
249
0
VERTEX
8
OBJECT__98
10
0
20
0
30
0
70
128
71
330
72
172
73
171
0
VERTEX
8
OBJECT__98
10
0
20
0
30
0
70
128
71
337
72
336
73
340
0
VERTEX
8
OBJECT__98
10
0
20
0
30
0
70
128
71
331
72
337
73
339
0
VERTEX
8
OBJECT__98
10
0
20
0
30
0
70
128
71
328
72
329
73
337
0
VERTEX
8
OBJECT__98
10
0
20
0
30
0
70
128
71
332
72
331
73
338
0
VERTEX
8
OBJECT__98
10
0
20
0
30
0
70
128
71
329
72
330
73
336
0
VERTEX
8
OBJECT__98
10
0
20
0
30
0
70
128
71
335
72
338
73
64
0
VERTEX
8
OBJECT__98
10
0
20
0
30
0
70
128
71
333
72
335
73
63
0
VERTEX
8
OBJECT__98
10
0
20
0
30
0
70
128
71
294
72
334
73
69
0
VERTEX
8
OBJECT__98
10
0
20
0
30
0
70
128
71
334
72
333
73
70
0
VERTEX
8
OBJECT__98
10
0
20
0
30
0
70
128
71
332
72
335
73
333
0
VERTEX
8
OBJECT__98
10
0
20
0
30
0
70
128
71
298
72
312
73
334
0
VERTEX
8
OBJECT__98
10
0
20
0
30
0
70
128
71
312
72
311
73
333
0
VERTEX
8
OBJECT__98
10
0
20
0
30
0
70
128
71
293
72
294
73
18
0
VERTEX
8
OBJECT__98
10
0
20
0
30
0
70
128
71
314
72
328
73
331
0
VERTEX
8
OBJECT__98
10
0
20
0
30
0
70
128
71
326
72
180
73
172
0
VERTEX
8
OBJECT__98
10
0
20
0
30
0
70
128
71
324
72
181
73
180
0
VERTEX
8
OBJECT__98
10
0
20
0
30
0
70
128
71
327
72
326
73
330
0
VERTEX
8
OBJECT__98
10
0
20
0
30
0
70
128
71
315
72
327
73
329
0
VERTEX
8
OBJECT__98
10
0
20
0
30
0
70
128
71
320
72
323
73
327
0
VERTEX
8
OBJECT__98
10
0
20
0
30
0
70
128
71
313
72
315
73
328
0
VERTEX
8
OBJECT__98
10
0
20
0
30
0
70
128
71
323
72
324
73
326
0
VERTEX
8
OBJECT__98
10
0
20
0
30
0
70
128
71
316
72
12
73
181
0
VERTEX
8
OBJECT__98
10
0
20
0
30
0
70
128
71
325
72
13
73
12
0
VERTEX
8
OBJECT__98
10
0
20
0
30
0
70
128
71
317
72
316
73
324
0
VERTEX
8
OBJECT__98
10
0
20
0
30
0
70
128
71
295
72
317
73
323
0
VERTEX
8
OBJECT__98
10
0
20
0
30
0
70
128
71
322
72
318
73
317
0
VERTEX
8
OBJECT__98
10
0
20
0
30
0
70
128
71
296
72
295
73
320
0
VERTEX
8
OBJECT__98
10
0
20
0
30
0
70
128
71
319
72
325
73
316
0
VERTEX
8
OBJECT__98
10
0
20
0
30
0
70
128
71
309
72
320
73
315
0
VERTEX
8
OBJECT__98
10
0
20
0
30
0
70
128
71
310
72
313
73
314
0
VERTEX
8
OBJECT__98
10
0
20
0
30
0
70
128
71
308
72
309
73
313
0
VERTEX
8
OBJECT__98
10
0
20
0
30
0
70
128
71
265
72
304
73
312
0
VERTEX
8
OBJECT__98
10
0
20
0
30
0
70
128
71
311
72
312
73
304
0
VERTEX
8
OBJECT__98
10
0
20
0
30
0
70
128
71
299
72
296
73
309
0
VERTEX
8
OBJECT__98
10
0
20
0
30
0
70
128
71
300
72
299
73
308
0
VERTEX
8
OBJECT__98
10
0
20
0
30
0
70
128
71
307
72
297
73
296
0
VERTEX
8
OBJECT__98
10
0
20
0
30
0
70
128
71
304
72
265
73
303
0
VERTEX
8
OBJECT__98
10
0
20
0
30
0
70
128
71
302
72
306
73
299
0
VERTEX
8
OBJECT__98
10
0
20
0
30
0
70
128
71
266
72
265
73
298
0
VERTEX
8
OBJECT__98
10
0
20
0
30
0
70
128
71
297
72
321
73
295
0
VERTEX
8
OBJECT__98
10
0
20
0
30
0
70
128
71
292
72
298
73
294
0
VERTEX
8
OBJECT__98
10
0
20
0
30
0
70
128
71
291
72
267
73
266
0
VERTEX
8
OBJECT__98
10
0
20
0
30
0
70
128
71
289
72
288
73
57
0
VERTEX
8
OBJECT__98
10
0
20
0
30
0
70
128
71
288
72
290
73
58
0
VERTEX
8
OBJECT__98
10
0
20
0
30
0
70
128
71
287
72
281
73
42
0
VERTEX
8
OBJECT__98
10
0
20
0
30
0
70
128
71
286
72
284
73
283
0
VERTEX
8
OBJECT__98
10
0
20
0
30
0
70
128
71
285
72
287
73
45
0
VERTEX
8
OBJECT__98
10
0
20
0
30
0
70
128
71
282
72
289
73
43
0
VERTEX
8
OBJECT__98
10
0
20
0
30
0
70
128
71
270
72
269
73
23
0
VERTEX
8
OBJECT__98
10
0
20
0
30
0
70
128
71
271
72
270
73
31
0
VERTEX
8
OBJECT__98
10
0
20
0
30
0
70
128
71
280
72
341
73
269
0
VERTEX
8
OBJECT__98
10
0
20
0
30
0
70
128
71
276
72
272
73
271
0
VERTEX
8
OBJECT__98
10
0
20
0
30
0
70
128
71
274
72
278
73
270
0
VERTEX
8
OBJECT__98
10
0
20
0
30
0
70
128
71
269
72
341
73
268
0
VERTEX
8
OBJECT__98
10
0
20
0
30
0
70
128
71
267
72
303
73
265
0
VERTEX
8
OBJECT__98
10
0
20
0
30
0
70
128
71
10
72
1
73
152
0
VERTEX
8
OBJECT__98
10
0
20
0
30
0
70
128
71
238
72
151
73
154
0
VERTEX
8
OBJECT__98
10
0
20
0
30
0
70
128
71
242
72
152
73
151
0
VERTEX
8
OBJECT__98
10
0
20
0
30
0
70
128
71
140
72
264
73
263
0
VERTEX
8
OBJECT__98
10
0
20
0
30
0
70
128
71
264
72
140
73
129
0
VERTEX
8
OBJECT__98
10
0
20
0
30
0
70
128
71
220
72
263
73
264
0
VERTEX
8
OBJECT__98
10
0
20
0
30
0
70
128
71
225
72
128
73
133
0
VERTEX
8
OBJECT__98
10
0
20
0
30
0
70
128
71
229
72
133
73
132
0
VERTEX
8
OBJECT__98
10
0
20
0
30
0
70
128
71
235
72
129
73
128
0
VERTEX
8
OBJECT__98
10
0
20
0
30
0
70
128
71
263
72
220
73
243
0
VERTEX
8
OBJECT__98
10
0
20
0
30
0
70
128
71
248
72
88
73
115
0
VERTEX
8
OBJECT__98
10
0
20
0
30
0
70
128
71
261
72
114
73
91
0
VERTEX
8
OBJECT__98
10
0
20
0
30
0
70
128
71
262
72
115
73
114
0
VERTEX
8
OBJECT__98
10
0
20
0
30
0
70
128
71
252
72
109
73
108
0
VERTEX
8
OBJECT__98
10
0
20
0
30
0
70
128
71
259
72
102
73
7
0
VERTEX
8
OBJECT__98
10
0
20
0
30
0
70
128
71
258
72
98
73
102
0
VERTEX
8
OBJECT__98
10
0
20
0
30
0
70
128
71
98
72
258
73
260
0
VERTEX
8
OBJECT__98
10
0
20
0
30
0
70
128
71
251
72
91
73
109
0
VERTEX
8
OBJECT__98
10
0
20
0
30
0
70
128
71
176
72
248
73
262
0
VERTEX
8
OBJECT__98
10
0
20
0
30
0
70
128
71
218
72
261
73
251
0
VERTEX
8
OBJECT__98
10
0
20
0
30
0
70
128
71
219
72
262
73
261
0
VERTEX
8
OBJECT__98
10
0
20
0
30
0
70
128
71
253
72
252
73
260
0
VERTEX
8
OBJECT__98
10
0
20
0
30
0
70
128
71
256
72
259
73
250
0
VERTEX
8
OBJECT__98
10
0
20
0
30
0
70
128
71
255
72
258
73
259
0
VERTEX
8
OBJECT__98
10
0
20
0
30
0
70
128
71
257
72
260
73
258
0
VERTEX
8
OBJECT__98
10
0
20
0
30
0
70
128
71
209
72
253
73
257
0
VERTEX
8
OBJECT__98
10
0
20
0
30
0
70
128
71
216
72
256
73
254
0
VERTEX
8
OBJECT__98
10
0
20
0
30
0
70
128
71
215
72
255
73
256
0
VERTEX
8
OBJECT__98
10
0
20
0
30
0
70
128
71
217
72
257
73
255
0
VERTEX
8
OBJECT__98
10
0
20
0
30
0
70
128
71
254
72
250
73
249
0
VERTEX
8
OBJECT__98
10
0
20
0
30
0
70
128
71
253
72
209
73
208
0
VERTEX
8
OBJECT__98
10
0
20
0
30
0
70
128
71
250
72
7
73
6
0
VERTEX
8
OBJECT__98
10
0
20
0
30
0
70
128
71
248
72
176
73
175
0
VERTEX
8
OBJECT__98
10
0
20
0
30
0
70
128
71
246
72
11
73
10
0
VERTEX
8
OBJECT__98
10
0
20
0
30
0
70
128
71
241
72
238
73
243
0
VERTEX
8
OBJECT__98
10
0
20
0
30
0
70
128
71
240
72
247
73
242
0
VERTEX
8
OBJECT__98
10
0
20
0
30
0
70
128
71
224
72
220
73
237
0
VERTEX
8
OBJECT__98
10
0
20
0
30
0
70
128
71
234
72
231
73
235
0
VERTEX
8
OBJECT__98
10
0
20
0
30
0
70
128
71
233
72
237
73
231
0
VERTEX
8
OBJECT__98
10
0
20
0
30
0
70
128
71
226
72
225
73
229
0
VERTEX
8
OBJECT__98
10
0
20
0
30
0
70
128
71
228
72
229
73
175
0
VERTEX
8
OBJECT__98
10
0
20
0
30
0
70
128
71
227
72
235
73
225
0
VERTEX
8
OBJECT__98
10
0
20
0
30
0
70
128
71
222
72
243
73
220
0
VERTEX
8
OBJECT__98
10
0
20
0
30
0
70
128
71
177
72
176
73
219
0
VERTEX
8
OBJECT__98
10
0
20
0
30
0
70
128
71
199
72
218
73
208
0
VERTEX
8
OBJECT__98
10
0
20
0
30
0
70
128
71
207
72
219
73
218
0
VERTEX
8
OBJECT__98
10
0
20
0
30
0
70
128
71
210
72
209
73
217
0
VERTEX
8
OBJECT__98
10
0
20
0
30
0
70
128
71
213
72
216
73
173
0
VERTEX
8
OBJECT__98
10
0
20
0
30
0
70
128
71
212
72
215
73
216
0
VERTEX
8
OBJECT__98
10
0
20
0
30
0
70
128
71
214
72
217
73
215
0
VERTEX
8
OBJECT__98
10
0
20
0
30
0
70
128
71
206
72
210
73
214
0
VERTEX
8
OBJECT__98
10
0
20
0
30
0
70
128
71
197
72
213
73
211
0
VERTEX
8
OBJECT__98
10
0
20
0
30
0
70
128
71
196
72
212
73
213
0
VERTEX
8
OBJECT__98
10
0
20
0
30
0
70
128
71
198
72
214
73
212
0
VERTEX
8
OBJECT__98
10
0
20
0
30
0
70
128
71
211
72
173
73
172
0
VERTEX
8
OBJECT__98
10
0
20
0
30
0
70
128
71
210
72
206
73
205
0
VERTEX
8
OBJECT__98
10
0
20
0
30
0
70
128
71
178
72
177
73
207
0
VERTEX
8
OBJECT__98
10
0
20
0
30
0
70
128
71
203
72
205
73
206
0
VERTEX
8
OBJECT__98
10
0
20
0
30
0
70
128
71
204
72
202
73
203
0
VERTEX
8
OBJECT__98
10
0
20
0
30
0
70
128
71
201
72
207
73
199
0
VERTEX
8
OBJECT__98
10
0
20
0
30
0
70
128
71
183
72
206
73
198
0
VERTEX
8
OBJECT__98
10
0
20
0
30
0
70
128
71
192
72
197
73
182
0
VERTEX
8
OBJECT__98
10
0
20
0
30
0
70
128
71
189
72
196
73
197
0
VERTEX
8
OBJECT__98
10
0
20
0
30
0
70
128
71
188
72
198
73
196
0
VERTEX
8
OBJECT__98
10
0
20
0
30
0
70
128
71
186
72
183
73
188
0
VERTEX
8
OBJECT__98
10
0
20
0
30
0
70
128
71
194
72
192
73
187
0
VERTEX
8
OBJECT__98
10
0
20
0
30
0
70
128
71
191
72
189
73
192
0
VERTEX
8
OBJECT__98
10
0
20
0
30
0
70
128
71
190
72
195
73
188
0
VERTEX
8
OBJECT__98
10
0
20
0
30
0
70
128
71
187
72
182
73
181
0
VERTEX
8
OBJECT__98
10
0
20
0
30
0
70
128
71
185
72
203
73
183
0
VERTEX
8
OBJECT__98
10
0
20
0
30
0
70
128
71
182
72
211
73
180
0
VERTEX
8
OBJECT__98
10
0
20
0
30
0
70
128
71
177
72
179
73
174
0
VERTEX
8
OBJECT__98
10
0
20
0
30
0
70
128
71
173
72
254
73
171
0
VERTEX
8
OBJECT__98
10
0
20
0
30
0
70
128
71
169
72
163
73
150
0
VERTEX
8
OBJECT__98
10
0
20
0
30
0
70
128
71
165
72
152
73
1
0
VERTEX
8
OBJECT__98
10
0
20
0
30
0
70
128
71
162
72
160
73
153
0
VERTEX
8
OBJECT__98
10
0
20
0
30
0
70
128
71
159
72
158
73
157
0
VERTEX
8
OBJECT__98
10
0
20
0
30
0
70
128
71
154
72
153
73
157
0
VERTEX
8
OBJECT__98
10
0
20
0
30
0
70
128
71
156
72
149
73
124
0
VERTEX
8
OBJECT__98
10
0
20
0
30
0
70
128
71
151
72
150
73
153
0
VERTEX
8
OBJECT__98
10
0
20
0
30
0
70
128
71
152
72
165
73
150
0
VERTEX
8
OBJECT__98
10
0
20
0
30
0
70
128
71
148
72
147
73
146
0
VERTEX
8
OBJECT__98
10
0
20
0
30
0
70
128
71
125
72
124
73
146
0
VERTEX
8
OBJECT__98
10
0
20
0
30
0
70
128
71
145
72
144
73
139
0
VERTEX
8
OBJECT__98
10
0
20
0
30
0
70
128
71
143
72
130
73
139
0
VERTEX
8
OBJECT__98
10
0
20
0
30
0
70
128
71
141
72
146
73
139
0
VERTEX
8
OBJECT__98
10
0
20
0
30
0
70
128
71
137
72
134
73
133
0
VERTEX
8
OBJECT__98
10
0
20
0
30
0
70
128
71
135
72
90
73
89
0
VERTEX
8
OBJECT__98
10
0
20
0
30
0
70
128
71
131
72
136
73
132
0
VERTEX
8
OBJECT__98
10
0
20
0
30
0
70
128
71
127
72
138
73
128
0
VERTEX
8
OBJECT__98
10
0
20
0
30
0
70
128
71
126
72
157
73
124
0
VERTEX
8
OBJECT__98
10
0
20
0
30
0
70
128
71
122
72
116
73
115
0
VERTEX
8
OBJECT__98
10
0
20
0
30
0
70
128
71
120
72
92
73
91
0
VERTEX
8
OBJECT__98
10
0
20
0
30
0
70
128
71
117
72
119
73
114
0
VERTEX
8
OBJECT__98
10
0
20
0
30
0
70
128
71
112
72
110
73
107
0
VERTEX
8
OBJECT__98
10
0
20
0
30
0
70
128
71
111
72
100
73
107
0
VERTEX
8
OBJECT__98
10
0
20
0
30
0
70
128
71
109
72
93
73
107
0
VERTEX
8
OBJECT__98
10
0
20
0
30
0
70
128
71
105
72
8
73
7
0
VERTEX
8
OBJECT__98
10
0
20
0
30
0
70
128
71
104
72
106
73
102
0
VERTEX
8
OBJECT__98
10
0
20
0
30
0
70
128
71
97
72
103
73
98
0
VERTEX
8
OBJECT__98
10
0
20
0
30
0
70
128
71
93
72
109
73
91
0
VERTEX
8
OBJECT__98
10
0
20
0
30
0
70
128
71
87
72
123
73
88
0
VERTEX
8
OBJECT__98
10
0
20
0
30
0
70
128
71
80
72
6
73
85
0
VERTEX
8
OBJECT__98
10
0
20
0
30
0
70
128
71
64
72
79
73
83
0
VERTEX
8
OBJECT__98
10
0
20
0
30
0
70
128
71
79
72
80
73
77
0
VERTEX
8
OBJECT__98
10
0
20
0
30
0
70
128
71
70
72
63
73
75
0
VERTEX
8
OBJECT__98
10
0
20
0
30
0
70
128
71
18
72
69
73
73
0
VERTEX
8
OBJECT__98
10
0
20
0
30
0
70
128
71
69
72
70
73
67
0
VERTEX
8
OBJECT__98
10
0
20
0
30
0
70
128
71
63
72
64
73
61
0
VERTEX
8
OBJECT__98
10
0
20
0
30
0
70
128
71
58
72
17
73
16
0
VERTEX
8
OBJECT__98
10
0
20
0
30
0
70
128
71
43
72
57
73
60
0
VERTEX
8
OBJECT__98
10
0
20
0
30
0
70
128
71
57
72
58
73
55
0
VERTEX
8
OBJECT__98
10
0
20
0
30
0
70
128
71
45
72
42
73
54
0
VERTEX
8
OBJECT__98
10
0
20
0
30
0
70
128
71
21
72
47
73
53
0
VERTEX
8
OBJECT__98
10
0
20
0
30
0
70
128
71
52
72
283
73
47
0
VERTEX
8
OBJECT__98
10
0
20
0
30
0
70
128
71
22
72
21
73
50
0
VERTEX
8
OBJECT__98
10
0
20
0
30
0
70
128
71
47
72
283
73
45
0
VERTEX
8
OBJECT__98
10
0
20
0
30
0
70
128
71
42
72
43
73
40
0
VERTEX
8
OBJECT__98
10
0
20
0
30
0
70
128
71
37
72
34
73
24
0
VERTEX
8
OBJECT__98
10
0
20
0
30
0
70
128
71
33
72
27
73
25
0
VERTEX
8
OBJECT__98
10
0
20
0
30
0
70
128
71
31
72
23
73
22
0
VERTEX
8
OBJECT__98
10
0
20
0
30
0
70
128
71
30
72
4
73
25
0
VERTEX
8
OBJECT__98
10
0
20
0
30
0
70
128
71
26
72
31
73
24
0
VERTEX
8
OBJECT__98
10
0
20
0
30
0
70
128
71
23
72
52
73
21
0
VERTEX
8
OBJECT__98
10
0
20
0
30
0
70
128
71
17
72
18
73
15
0
VERTEX
8
OBJECT__98
10
0
20
0
30
0
70
128
71
14
72
187
73
12
0
VERTEX
8
OBJECT__98
10
0
20
0
30
0
70
128
71
9
72
277
73
2
0
VERTEX
8
OBJECT__98
10
0
20
0
30
0
70
128
71
5
72
86
73
6
0
VERTEX
8
OBJECT__98
10
0
20
0
30
0
70
128
71
3
72
164
73
1
0
SEQEND
8
OBJECT__98
0
POLYLINE
8
OBJECT__100
66
1
70
64
71
95
72
95
62
253
0
VERTEX
8
OBJECT__100
10
83.122002
20
7.689000
30
23.731001
70
192
0
VERTEX
8
OBJECT__100
10
83.380997
20
5.521000
30
23.909000
70
192
0
VERTEX
8
OBJECT__100
10
83.746002
20
2.758000
30
24.014000
70
192
0
VERTEX
8
OBJECT__100
10
84.138000
20
0.000000
30
24.021999
70
192
0
VERTEX
8
OBJECT__100
10
83.094002
20
7.689000
30
23.827000
70
192
0
VERTEX
8
OBJECT__100
10
80.150002
20
14.808000
30
22.879000
70
192
0
VERTEX
8
OBJECT__100
10
80.122002
20
14.808000
30
22.975000
70
192
0
VERTEX
8
OBJECT__100
10
81.807999
20
10.771000
30
23.458000
70
192
0
VERTEX
8
OBJECT__100
10
75.441002
20
20.829000
30
21.528000
70
192
0
VERTEX
8
OBJECT__100
10
76.055000
20
20.007999
30
21.808001
70
192
0
VERTEX
8
OBJECT__100
10
79.428001
20
15.696000
30
22.775999
70
192
0
VERTEX
8
OBJECT__100
10
75.414001
20
20.829000
30
21.625000
70
192
0
VERTEX
8
OBJECT__100
10
69.346001
20
25.305000
30
19.781000
70
192
0
VERTEX
8
OBJECT__100
10
71.876999
20
23.426001
30
20.611000
70
192
0
VERTEX
8
OBJECT__100
10
69.318001
20
25.305000
30
19.877001
70
192
0
VERTEX
8
OBJECT__100
10
62.316002
20
27.903999
30
17.764999
70
192
0
VERTEX
8
OBJECT__100
10
62.287998
20
27.903999
30
17.861000
70
192
0
VERTEX
8
OBJECT__100
10
67.218002
20
26.080999
30
19.275000
70
192
0
VERTEX
8
OBJECT__100
10
54.872002
20
28.434000
30
15.630000
70
192
0
VERTEX
8
OBJECT__100
10
56.714001
20
28.500000
30
16.263000
70
192
0
VERTEX
8
OBJECT__100
10
62.124001
20
27.921000
30
17.813999
70
192
0
VERTEX
8
OBJECT__100
10
54.845001
20
28.434000
30
15.727000
70
192
0
VERTEX
8
OBJECT__100
10
47.568001
20
26.854000
30
13.536000
70
192
0
VERTEX
8
OBJECT__100
10
48.528999
20
27.068001
30
13.915000
70
192
0
VERTEX
8
OBJECT__100
10
51.264000
20
27.659000
30
14.700000
70
192
0
VERTEX
8
OBJECT__100
10
47.540001
20
26.854000
30
13.632000
70
192
0
VERTEX
8
OBJECT__100
10
40.943001
20
23.284000
30
11.636000
70
192
0
VERTEX
8
OBJECT__100
10
43.419998
20
24.875999
30
12.451000
70
192
0
VERTEX
8
OBJECT__100
10
41.089001
20
23.399000
30
11.782000
70
192
0
VERTEX
8
OBJECT__100
10
43.015999
20
24.681999
30
12.335000
70
192
0
VERTEX
8
OBJECT__100
10
45.931999
20
26.082001
30
13.171000
70
192
0
VERTEX
8
OBJECT__100
10
40.916000
20
23.284000
30
11.732000
70
192
0
VERTEX
8
OBJECT__100
10
35.491001
20
17.986000
30
10.073000
70
192
0
VERTEX
8
OBJECT__100
10
37.051998
20
19.677000
30
10.625000
70
192
0
VERTEX
8
OBJECT__100
10
39.056000
20
21.548000
30
11.199000
70
192
0
VERTEX
8
OBJECT__100
10
35.463001
20
17.986000
30
10.169000
70
192
0
VERTEX
8
OBJECT__100
10
36.167000
20
18.851000
30
10.371000
70
192
0
VERTEX
8
OBJECT__100
10
31.614000
20
11.354000
30
8.961000
70
192
0
VERTEX
8
OBJECT__100
10
32.743000
20
13.798000
30
9.389000
70
192
0
VERTEX
8
OBJECT__100
10
33.758999
20
15.362000
30
9.680000
70
192
0
VERTEX
8
OBJECT__100
10
31.587000
20
11.354000
30
9.057000
70
192
0
VERTEX
8
OBJECT__100
10
29.601000
20
3.881000
30
8.384000
70
192
0
VERTEX
8
OBJECT__100
10
29.889000
20
5.787000
30
8.571000
70
192
0
VERTEX
8
OBJECT__100
10
29.819000
20
5.363000
30
8.550000
70
192
0
VERTEX
8
OBJECT__100
10
31.031000
20
9.918000
30
8.898000
70
192
0
VERTEX
8
OBJECT__100
10
29.573999
20
3.881000
30
8.480000
70
192
0
VERTEX
8
OBJECT__100
10
31.278999
20
10.559000
30
8.969000
70
192
0
VERTEX
8
OBJECT__100
10
29.601000
20
-3.881000
30
8.384000
70
192
0
VERTEX
8
OBJECT__100
10
29.318001
20
0.000000
30
8.407000
70
192
0
VERTEX
8
OBJECT__100
10
29.573999
20
-3.881000
30
8.480000
70
192
0
VERTEX
8
OBJECT__100
10
29.889000
20
-5.787000
30
8.571000
70
192
0
VERTEX
8
OBJECT__100
10
29.819000
20
-5.363000
30
8.550000
70
192
0
VERTEX
8
OBJECT__100
10
31.614000
20
-11.354000
30
8.961000
70
192
0
VERTEX
8
OBJECT__100
10
31.031000
20
-9.918000
30
8.898000
70
192
0
VERTEX
8
OBJECT__100
10
31.278999
20
-10.559000
30
8.969000
70
192
0
VERTEX
8
OBJECT__100
10
31.587000
20
-11.354000
30
9.057000
70
192
0
VERTEX
8
OBJECT__100
10
35.491001
20
-17.986000
30
10.073000
70
192
0
VERTEX
8
OBJECT__100
10
33.758999
20
-15.362000
30
9.680000
70
192
0
VERTEX
8
OBJECT__100
10
32.743000
20
-13.798000
30
9.389000
70
192
0
VERTEX
8
OBJECT__100
10
35.463001
20
-17.986000
30
10.169000
70
192
0
VERTEX
8
OBJECT__100
10
37.051998
20
-19.677000
30
10.625000
70
192
0
VERTEX
8
OBJECT__100
10
36.167000
20
-18.851000
30
10.371000
70
192
0
VERTEX
8
OBJECT__100
10
40.943001
20
-23.284000
30
11.636000
70
192
0
VERTEX
8
OBJECT__100
10
39.056000
20
-21.548000
30
11.199000
70
192
0
VERTEX
8
OBJECT__100
10
40.916000
20
-23.284000
30
11.732000
70
192
0
VERTEX
8
OBJECT__100
10
43.015999
20
-24.681999
30
12.335000
70
192
0
VERTEX
8
OBJECT__100
10
41.089001
20
-23.399000
30
11.782000
70
192
0
VERTEX
8
OBJECT__100
10
47.568001
20
-26.854000
30
13.536000
70
192
0
VERTEX
8
OBJECT__100
10
45.931999
20
-26.082001
30
13.171000
70
192
0
VERTEX
8
OBJECT__100
10
43.419998
20
-24.875999
30
12.451000
70
192
0
VERTEX
8
OBJECT__100
10
47.540001
20
-26.854000
30
13.632000
70
192
0
VERTEX
8
OBJECT__100
10
54.872002
20
-28.434000
30
15.630000
70
192
0
VERTEX
8
OBJECT__100
10
51.264000
20
-27.659000
30
14.700000
70
192
0
VERTEX
8
OBJECT__100
10
48.528999
20
-27.068001
30
13.915000
70
192
0
VERTEX
8
OBJECT__100
10
54.845001
20
-28.434000
30
15.727000
70
192
0
VERTEX
8
OBJECT__100
10
53.986000
20
-28.247999
30
15.480000
70
192
0
VERTEX
8
OBJECT__100
10
62.316002
20
-27.903999
30
17.764999
70
192
0
VERTEX
8
OBJECT__100
10
56.714001
20
-28.500000
30
16.263000
70
192
0
VERTEX
8
OBJECT__100
10
62.126999
20
-27.938000
30
17.815001
70
192
0
VERTEX
8
OBJECT__100
10
62.287998
20
-27.903999
30
17.861000
70
192
0
VERTEX
8
OBJECT__100
10
69.346001
20
-25.305000
30
19.781000
70
192
0
VERTEX
8
OBJECT__100
10
67.218002
20
-26.080999
30
19.275000
70
192
0
VERTEX
8
OBJECT__100
10
69.318001
20
-25.305000
30
19.877001
70
192
0
VERTEX
8
OBJECT__100
10
75.441002
20
-20.829000
30
21.528000
70
192
0
VERTEX
8
OBJECT__100
10
75.414001
20
-20.829000
30
21.625000
70
192
0
VERTEX
8
OBJECT__100
10
71.876999
20
-23.426001
30
20.610001
70
192
0
VERTEX
8
OBJECT__100
10
80.150002
20
-14.808000
30
22.879000
70
192
0
VERTEX
8
OBJECT__100
10
79.428001
20
-15.696000
30
22.775999
70
192
0
VERTEX
8
OBJECT__100
10
76.055000
20
-20.007999
30
21.808001
70
192
0
VERTEX
8
OBJECT__100
10
80.122002
20
-14.808000
30
22.975000
70
192
0
VERTEX
8
OBJECT__100
10
83.122002
20
-7.689000
30
23.731001
70
192
0
VERTEX
8
OBJECT__100
10
81.807999
20
-10.771000
30
23.458000
70
192
0
VERTEX
8
OBJECT__100
10
83.094002
20
-7.689000
30
23.827000
70
192
0
VERTEX
8
OBJECT__100
10
84.110001
20
0.000000
30
24.118000
70
192
0
VERTEX
8
OBJECT__100
10
83.380997
20
-5.521000
30
23.909000
70
192
0
VERTEX
8
OBJECT__100
10
0
20
0
30
0
70
128
71
1
72
2
73
3
0
VERTEX
8
OBJECT__100
10
0
20
0
30
0
70
128
71
3
72
4
73
1
0
VERTEX
8
OBJECT__100
10
0
20
0
30
0
70
128
71
1
72
5
73
2
0
VERTEX
8
OBJECT__100
10
0
20
0
30
0
70
128
71
6
72
7
73
8
0
VERTEX
8
OBJECT__100
10
0
20
0
30
0
70
128
71
8
72
1
73
6
0
VERTEX
8
OBJECT__100
10
0
20
0
30
0
70
128
71
9
72
10
73
11
0
VERTEX
8
OBJECT__100
10
0
20
0
30
0
70
128
71
11
72
6
73
9
0
VERTEX
8
OBJECT__100
10
0
20
0
30
0
70
128
71
9
72
12
73
10
0
VERTEX
8
OBJECT__100
10
0
20
0
30
0
70
128
71
9
72
13
73
14
0
VERTEX
8
OBJECT__100
10
0
20
0
30
0
70
128
71
13
72
15
73
14
0
VERTEX
8
OBJECT__100
10
0
20
0
30
0
70
128
71
16
72
17
73
18
0
VERTEX
8
OBJECT__100
10
0
20
0
30
0
70
128
71
18
72
13
73
16
0
VERTEX
8
OBJECT__100
10
0
20
0
30
0
70
128
71
16
72
19
73
20
0
VERTEX
8
OBJECT__100
10
0
20
0
30
0
70
128
71
20
72
21
73
16
0
VERTEX
8
OBJECT__100
10
0
20
0
30
0
70
128
71
19
72
22
73
20
0
VERTEX
8
OBJECT__100
10
0
20
0
30
0
70
128
71
23
72
24
73
25
0
VERTEX
8
OBJECT__100
10
0
20
0
30
0
70
128
71
25
72
19
73
23
0
VERTEX
8
OBJECT__100
10
0
20
0
30
0
70
128
71
23
72
26
73
24
0
VERTEX
8
OBJECT__100
10
0
20
0
30
0
70
128
71
23
72
27
73
28
0
VERTEX
8
OBJECT__100
10
0
20
0
30
0
70
128
71
27
72
29
73
30
0
VERTEX
8
OBJECT__100
10
0
20
0
30
0
70
128
71
30
72
28
73
27
0
VERTEX
8
OBJECT__100
10
0
20
0
30
0
70
128
71
28
72
31
73
23
0
VERTEX
8
OBJECT__100
10
0
20
0
30
0
70
128
71
27
72
32
73
29
0
VERTEX
8
OBJECT__100
10
0
20
0
30
0
70
128
71
33
72
34
73
35
0
VERTEX
8
OBJECT__100
10
0
20
0
30
0
70
128
71
35
72
27
73
33
0
VERTEX
8
OBJECT__100
10
0
20
0
30
0
70
128
71
33
72
36
73
37
0
VERTEX
8
OBJECT__100
10
0
20
0
30
0
70
128
71
37
72
34
73
33
0
VERTEX
8
OBJECT__100
10
0
20
0
30
0
70
128
71
38
72
39
73
40
0
VERTEX
8
OBJECT__100
10
0
20
0
30
0
70
128
71
38
72
41
73
39
0
VERTEX
8
OBJECT__100
10
0
20
0
30
0
70
128
71
40
72
33
73
38
0
VERTEX
8
OBJECT__100
10
0
20
0
30
0
70
128
71
38
72
42
73
43
0
VERTEX
8
OBJECT__100
10
0
20
0
30
0
70
128
71
42
72
44
73
43
0
VERTEX
8
OBJECT__100
10
0
20
0
30
0
70
128
71
43
72
45
73
38
0
VERTEX
8
OBJECT__100
10
0
20
0
30
0
70
128
71
42
72
46
73
44
0
VERTEX
8
OBJECT__100
10
0
20
0
30
0
70
128
71
45
72
47
73
38
0
VERTEX
8
OBJECT__100
10
0
20
0
30
0
70
128
71
42
72
48
73
49
0
VERTEX
8
OBJECT__100
10
0
20
0
30
0
70
128
71
48
72
50
73
49
0
VERTEX
8
OBJECT__100
10
0
20
0
30
0
70
128
71
48
72
51
73
52
0
VERTEX
8
OBJECT__100
10
0
20
0
30
0
70
128
71
53
72
54
73
51
0
VERTEX
8
OBJECT__100
10
0
20
0
30
0
70
128
71
53
72
55
73
54
0
VERTEX
8
OBJECT__100
10
0
20
0
30
0
70
128
71
53
72
56
73
55
0
VERTEX
8
OBJECT__100
10
0
20
0
30
0
70
128
71
51
72
48
73
53
0
VERTEX
8
OBJECT__100
10
0
20
0
30
0
70
128
71
53
72
57
73
58
0
VERTEX
8
OBJECT__100
10
0
20
0
30
0
70
128
71
58
72
59
73
53
0
VERTEX
8
OBJECT__100
10
0
20
0
30
0
70
128
71
57
72
60
73
58
0
VERTEX
8
OBJECT__100
10
0
20
0
30
0
70
128
71
57
72
61
73
62
0
VERTEX
8
OBJECT__100
10
0
20
0
30
0
70
128
71
57
72
63
73
64
0
VERTEX
8
OBJECT__100
10
0
20
0
30
0
70
128
71
64
72
61
73
57
0
VERTEX
8
OBJECT__100
10
0
20
0
30
0
70
128
71
63
72
65
73
64
0
VERTEX
8
OBJECT__100
10
0
20
0
30
0
70
128
71
63
72
66
73
67
0
VERTEX
8
OBJECT__100
10
0
20
0
30
0
70
128
71
68
72
69
73
70
0
VERTEX
8
OBJECT__100
10
0
20
0
30
0
70
128
71
70
72
63
73
68
0
VERTEX
8
OBJECT__100
10
0
20
0
30
0
70
128
71
68
72
71
73
69
0
VERTEX
8
OBJECT__100
10
0
20
0
30
0
70
128
71
70
72
66
73
63
0
VERTEX
8
OBJECT__100
10
0
20
0
30
0
70
128
71
68
72
72
73
73
0
VERTEX
8
OBJECT__100
10
0
20
0
30
0
70
128
71
73
72
74
73
68
0
VERTEX
8
OBJECT__100
10
0
20
0
30
0
70
128
71
72
72
75
73
76
0
VERTEX
8
OBJECT__100
10
0
20
0
30
0
70
128
71
76
72
73
73
72
0
VERTEX
8
OBJECT__100
10
0
20
0
30
0
70
128
71
78
72
75
73
77
0
VERTEX
8
OBJECT__100
10
0
20
0
30
0
70
128
71
77
72
79
73
78
0
VERTEX
8
OBJECT__100
10
0
20
0
30
0
70
128
71
77
72
80
73
79
0
VERTEX
8
OBJECT__100
10
0
20
0
30
0
70
128
71
77
72
81
73
82
0
VERTEX
8
OBJECT__100
10
0
20
0
30
0
70
128
71
81
72
83
73
82
0
VERTEX
8
OBJECT__100
10
0
20
0
30
0
70
128
71
84
72
85
73
86
0
VERTEX
8
OBJECT__100
10
0
20
0
30
0
70
128
71
86
72
81
73
84
0
VERTEX
8
OBJECT__100
10
0
20
0
30
0
70
128
71
84
72
87
73
88
0
VERTEX
8
OBJECT__100
10
0
20
0
30
0
70
128
71
88
72
89
73
84
0
VERTEX
8
OBJECT__100
10
0
20
0
30
0
70
128
71
87
72
90
73
88
0
VERTEX
8
OBJECT__100
10
0
20
0
30
0
70
128
71
87
72
91
73
92
0
VERTEX
8
OBJECT__100
10
0
20
0
30
0
70
128
71
91
72
93
73
92
0
VERTEX
8
OBJECT__100
10
0
20
0
30
0
70
128
71
4
72
94
73
95
0
VERTEX
8
OBJECT__100
10
0
20
0
30
0
70
128
71
95
72
91
73
4
0
VERTEX
8
OBJECT__100
10
0
20
0
30
0
70
128
71
95
72
93
73
91
0
VERTEX
8
OBJECT__100
10
0
20
0
30
0
70
128
71
92
72
90
73
87
0
VERTEX
8
OBJECT__100
10
0
20
0
30
0
70
128
71
89
72
85
73
84
0
VERTEX
8
OBJECT__100
10
0
20
0
30
0
70
128
71
86
72
83
73
81
0
VERTEX
8
OBJECT__100
10
0
20
0
30
0
70
128
71
82
72
80
73
77
0
VERTEX
8
OBJECT__100
10
0
20
0
30
0
70
128
71
75
72
72
73
77
0
VERTEX
8
OBJECT__100
10
0
20
0
30
0
70
128
71
74
72
71
73
68
0
VERTEX
8
OBJECT__100
10
0
20
0
30
0
70
128
71
67
72
65
73
63
0
VERTEX
8
OBJECT__100
10
0
20
0
30
0
70
128
71
62
72
60
73
57
0
VERTEX
8
OBJECT__100
10
0
20
0
30
0
70
128
71
59
72
56
73
53
0
VERTEX
8
OBJECT__100
10
0
20
0
30
0
70
128
71
52
72
50
73
48
0
VERTEX
8
OBJECT__100
10
0
20
0
30
0
70
128
71
49
72
46
73
42
0
VERTEX
8
OBJECT__100
10
0
20
0
30
0
70
128
71
47
72
41
73
38
0
VERTEX
8
OBJECT__100
10
0
20
0
30
0
70
128
71
40
72
36
73
33
0
VERTEX
8
OBJECT__100
10
0
20
0
30
0
70
128
71
35
72
32
73
27
0
VERTEX
8
OBJECT__100
10
0
20
0
30
0
70
128
71
31
72
26
73
23
0
VERTEX
8
OBJECT__100
10
0
20
0
30
0
70
128
71
25
72
22
73
19
0
VERTEX
8
OBJECT__100
10
0
20
0
30
0
70
128
71
21
72
17
73
16
0
VERTEX
8
OBJECT__100
10
0
20
0
30
0
70
128
71
18
72
15
73
13
0
VERTEX
8
OBJECT__100
10
0
20
0
30
0
70
128
71
14
72
12
73
9
0
VERTEX
8
OBJECT__100
10
0
20
0
30
0
70
128
71
11
72
7
73
6
0
VERTEX
8
OBJECT__100
10
0
20
0
30
0
70
128
71
8
72
5
73
1
0
VERTEX
8
OBJECT__100
10
0
20
0
30
0
70
128
71
3
72
94
73
4
0
SEQEND
8
OBJECT__100
0
POLYLINE
8
OBJECT__101
66
1
70
64
71
23
72
21
62
253
0
VERTEX
8
OBJECT__101
10
83.122002
20
7.689000
30
23.731001
70
192
0
VERTEX
8
OBJECT__101
10
83.122002
20
-7.689000
30
23.731001
70
192
0
VERTEX
8
OBJECT__101
10
80.150002
20
-14.808000
30
22.879000
70
192
0
VERTEX
8
OBJECT__101
10
84.138000
20
0.000000
30
24.021999
70
192
0
VERTEX
8
OBJECT__101
10
75.441002
20
-20.829000
30
21.528000
70
192
0
VERTEX
8
OBJECT__101
10
75.441002
20
20.829000
30
21.528000
70
192
0
VERTEX
8
OBJECT__101
10
80.150002
20
14.808000
30
22.879000
70
192
0
VERTEX
8
OBJECT__101
10
54.872002
20
28.434000
30
15.630000
70
192
0
VERTEX
8
OBJECT__101
10
62.316002
20
27.903999
30
17.764999
70
192
0
VERTEX
8
OBJECT__101
10
40.943001
20
-23.284000
30
11.636000
70
192
0
VERTEX
8
OBJECT__101
10
29.601000
20
3.881000
30
8.384000
70
192
0
VERTEX
8
OBJECT__101
10
31.614000
20
11.354000
30
8.961000
70
192
0
VERTEX
8
OBJECT__101
10
35.491001
20
17.986000
30
10.073000
70
192
0
VERTEX
8
OBJECT__101
10
54.872002
20
-28.434000
30
15.630000
70
192
0
VERTEX
8
OBJECT__101
10
47.568001
20
-26.854000
30
13.536000
70
192
0
VERTEX
8
OBJECT__101
10
69.346001
20
25.305000
30
19.781000
70
192
0
VERTEX
8
OBJECT__101
10
29.601000
20
-3.881000
30
8.384000
70
192
0
VERTEX
8
OBJECT__101
10
35.491001
20
-17.986000
30
10.073000
70
192
0
VERTEX
8
OBJECT__101
10
62.316002
20
-27.903999
30
17.764999
70
192
0
VERTEX
8
OBJECT__101
10
69.346001
20
-25.305000
30
19.781000
70
192
0
VERTEX
8
OBJECT__101
10
40.943001
20
23.284000
30
11.636000
70
192
0
VERTEX
8
OBJECT__101
10
47.568001
20
26.854000
30
13.536000
70
192
0
VERTEX
8
OBJECT__101
10
31.614000
20
-11.354000
30
8.961000
70
192
0
VERTEX
8
OBJECT__101
10
0
20
0
30
0
70
128
71
1
72
2
73
3
0
VERTEX
8
OBJECT__101
10
0
20
0
30
0
70
128
71
1
72
4
73
2
0
VERTEX
8
OBJECT__101
10
0
20
0
30
0
70
128
71
5
72
6
73
7
0
VERTEX
8
OBJECT__101
10
0
20
0
30
0
70
128
71
5
72
8
73
9
0
VERTEX
8
OBJECT__101
10
0
20
0
30
0
70
128
71
10
72
11
73
12
0
VERTEX
8
OBJECT__101
10
0
20
0
30
0
70
128
71
13
72
14
73
15
0
VERTEX
8
OBJECT__101
10
0
20
0
30
0
70
128
71
7
72
1
73
5
0
VERTEX
8
OBJECT__101
10
0
20
0
30
0
70
128
71
9
72
16
73
5
0
VERTEX
8
OBJECT__101
10
0
20
0
30
0
70
128
71
10
72
17
73
11
0
VERTEX
8
OBJECT__101
10
0
20
0
30
0
70
128
71
17
72
10
73
18
0
VERTEX
8
OBJECT__101
10
0
20
0
30
0
70
128
71
13
72
19
73
14
0
VERTEX
8
OBJECT__101
10
0
20
0
30
0
70
128
71
13
72
5
73
20
0
VERTEX
8
OBJECT__101
10
0
20
0
30
0
70
128
71
16
72
6
73
5
0
VERTEX
8
OBJECT__101
10
0
20
0
30
0
70
128
71
5
72
21
73
22
0
VERTEX
8
OBJECT__101
10
0
20
0
30
0
70
128
71
18
72
23
73
17
0
VERTEX
8
OBJECT__101
10
0
20
0
30
0
70
128
71
20
72
19
73
13
0
VERTEX
8
OBJECT__101
10
0
20
0
30
0
70
128
71
22
72
8
73
5
0
VERTEX
8
OBJECT__101
10
0
20
0
30
0
70
128
71
15
72
10
73
13
0
VERTEX
8
OBJECT__101
10
0
20
0
30
0
70
128
71
5
72
13
73
21
0
VERTEX
8
OBJECT__101
10
0
20
0
30
0
70
128
71
3
72
5
73
1
0
VERTEX
8
OBJECT__101
10
0
20
0
30
0
70
128
71
12
72
13
73
10
0
SEQEND
8
OBJECT__101
0
POLYLINE
8
OBJECT__102
66
1
70
64
71
8
72
6
62
253
0
VERTEX
8
OBJECT__102
10
48.617001
20
-6.945000
30
10.506000
70
192
0
VERTEX
8
OBJECT__102
10
46.916000
20
-6.220000
30
10.095000
70
192
0
VERTEX
8
OBJECT__102
10
47.625999
20
-5.920000
30
10.242000
70
192
0
VERTEX
8
OBJECT__102
10
47.609001
20
-7.969000
30
10.320000
70
192
0
VERTEX
8
OBJECT__102
10
46.903999
20
-7.669000
30
10.150000
70
192
0
VERTEX
8
OBJECT__102
10
48.331001
20
-6.220000
30
10.413000
70
192
0
VERTEX
8
OBJECT__102
10
48.318001
20
-7.669000
30
10.468000
70
192
0
VERTEX
8
OBJECT__102
10
46.617001
20
-6.945000
30
10.056000
70
192
0
VERTEX
8
OBJECT__102
10
0
20
0
30
0
70
128
71
1
72
2
73
3
0
VERTEX
8
OBJECT__102
10
0
20
0
30
0
70
128
71
2
72
4
73
5
0
VERTEX
8
OBJECT__102
10
0
20
0
30
0
70
128
71
3
72
6
73
1
0
VERTEX
8
OBJECT__102
10
0
20
0
30
0
70
128
71
2
72
7
73
4
0
VERTEX
8
OBJECT__102
10
0
20
0
30
0
70
128
71
5
72
8
73
2
0
VERTEX
8
OBJECT__102
10
0
20
0
30
0
70
128
71
1
72
7
73
2
0
SEQEND
8
OBJECT__102
0
POLYLINE
8
OBJECT__103
66
1
70
64
71
16
72
16
62
253
0
VERTEX
8
OBJECT__103
10
46.125000
20
-5.696000
30
11.501000
70
192
0
VERTEX
8
OBJECT__103
10
46.916000
20
-6.220000
30
10.095000
70
192
0
VERTEX
8
OBJECT__103
10
46.617001
20
-6.945000
30
10.056000
70
192
0
VERTEX
8
OBJECT__103
10
47.289001
20
-5.204000
30
11.743000
70
192
0
VERTEX
8
OBJECT__103
10
47.625999
20
-5.920000
30
10.242000
70
192
0
VERTEX
8
OBJECT__103
10
48.444000
20
-5.696000
30
12.023000
70
192
0
VERTEX
8
OBJECT__103
10
48.331001
20
-6.220000
30
10.413000
70
192
0
VERTEX
8
OBJECT__103
10
48.915001
20
-6.884000
30
12.176000
70
192
0
VERTEX
8
OBJECT__103
10
48.617001
20
-6.945000
30
10.506000
70
192
0
VERTEX
8
OBJECT__103
10
48.424000
20
-8.072000
30
12.112000
70
192
0
VERTEX
8
OBJECT__103
10
48.318001
20
-7.669000
30
10.468000
70
192
0
VERTEX
8
OBJECT__103
10
47.259998
20
-8.564000
30
11.870000
70
192
0
VERTEX
8
OBJECT__103
10
47.609001
20
-7.969000
30
10.320000
70
192
0
VERTEX
8
OBJECT__103
10
46.104000
20
-8.072000
30
11.591000
70
192
0
VERTEX
8
OBJECT__103
10
46.903999
20
-7.669000
30
10.150000
70
192
0
VERTEX
8
OBJECT__103
10
45.633999
20
-6.884000
30
11.438000
70
192
0
VERTEX
8
OBJECT__103
10
0
20
0
30
0
70
128
71
1
72
2
73
3
0
VERTEX
8
OBJECT__103
10
0
20
0
30
0
70
128
71
1
72
4
73
5
0
VERTEX
8
OBJECT__103
10
0
20
0
30
0
70
128
71
6
72
7
73
5
0
VERTEX
8
OBJECT__103
10
0
20
0
30
0
70
128
71
8
72
9
73
7
0
VERTEX
8
OBJECT__103
10
0
20
0
30
0
70
128
71
8
72
10
73
11
0
VERTEX
8
OBJECT__103
10
0
20
0
30
0
70
128
71
10
72
12
73
13
0
VERTEX
8
OBJECT__103
10
0
20
0
30
0
70
128
71
12
72
14
73
15
0
VERTEX
8
OBJECT__103
10
0
20
0
30
0
70
128
71
16
72
3
73
15
0
VERTEX
8
OBJECT__103
10
0
20
0
30
0
70
128
71
15
72
14
73
16
0
VERTEX
8
OBJECT__103
10
0
20
0
30
0
70
128
71
15
72
13
73
12
0
VERTEX
8
OBJECT__103
10
0
20
0
30
0
70
128
71
13
72
11
73
10
0
VERTEX
8
OBJECT__103
10
0
20
0
30
0
70
128
71
11
72
9
73
8
0
VERTEX
8
OBJECT__103
10
0
20
0
30
0
70
128
71
7
72
6
73
8
0
VERTEX
8
OBJECT__103
10
0
20
0
30
0
70
128
71
5
72
4
73
6
0
VERTEX
8
OBJECT__103
10
0
20
0
30
0
70
128
71
5
72
2
73
1
0
VERTEX
8
OBJECT__103
10
0
20
0
30
0
70
128
71
3
72
16
73
1
0
SEQEND
8
OBJECT__103
0
ENDSEC
0
EOF
