999
Converted by 3D Exploration 
999
XDimension Software, LLC
999
http://www.xdsoft.com/explorer/
0
SECTION
2
HEADER
9
$ACADVER
1
AC1008
9
$UCSORG
10
0.0
20
0.0
30
0.0
9
$UCSXDIR
10
1.0
20
0.0
30
0.0
9
$TILEMODE
70
1
9
$UCSYDIR
10
0.0
20
1.0
30
0.0
9
$EXTMIN
10
-30.915001
20
-30.000000
30
-30.000000
9
$EXTMAX
10
90.617996
20
75.017998
30
185.425003
0
ENDSEC
0
SECTION
2
TABLES
0
TABLE
2
LTYPE
70
1
0
LTYPE
2
CONTINUOUS
70
64
3
Solid line
72
65
73
0
40
0.0
0
ENDTAB
0
TABLE
2
LAYER
70
60
0
LAYER
2
OBJECT__0
70
0
62
253
6
CONTINUOUS
0
LAYER
2
OBJECT__1
70
0
62
253
6
CONTINUOUS
0
LAYER
2
OBJECT__3
70
0
62
253
6
CONTINUOUS
0
LAYER
2
OBJECT__4
70
0
62
253
6
CONTINUOUS
0
LAYER
2
OBJECT__6
70
0
62
253
6
CONTINUOUS
0
LAYER
2
OBJECT__7
70
0
62
253
6
CONTINUOUS
0
LAYER
2
OBJECT__9
70
0
62
253
6
CONTINUOUS
0
LAYER
2
OBJECT__10
70
0
62
253
6
CONTINUOUS
0
LAYER
2
OBJECT__11
70
0
62
253
6
CONTINUOUS
0
LAYER
2
OBJECT__12
70
0
62
253
6
CONTINUOUS
0
LAYER
2
OBJECT__13
70
0
62
253
6
CONTINUOUS
0
LAYER
2
OBJECT__15
70
0
62
253
6
CONTINUOUS
0
LAYER
2
OBJECT__16
70
0
62
253
6
CONTINUOUS
0
LAYER
2
OBJECT__17
70
0
62
253
6
CONTINUOUS
0
LAYER
2
OBJECT__18
70
0
62
253
6
CONTINUOUS
0
LAYER
2
OBJECT__19
70
0
62
253
6
CONTINUOUS
0
LAYER
2
OBJECT__20
70
0
62
253
6
CONTINUOUS
0
LAYER
2
OBJECT__22
70
0
62
253
6
CONTINUOUS
0
LAYER
2
OBJECT__23
70
0
62
253
6
CONTINUOUS
0
LAYER
2
OBJECT__24
70
0
62
253
6
CONTINUOUS
0
LAYER
2
OBJECT__25
70
0
62
253
6
CONTINUOUS
0
LAYER
2
OBJECT__26
70
0
62
253
6
CONTINUOUS
0
LAYER
2
OBJECT__27
70
0
62
253
6
CONTINUOUS
0
LAYER
2
OBJECT__28
70
0
62
253
6
CONTINUOUS
0
LAYER
2
OBJECT__30
70
0
62
253
6
CONTINUOUS
0
LAYER
2
OBJECT__31
70
0
62
253
6
CONTINUOUS
0
LAYER
2
OBJECT__32
70
0
62
253
6
CONTINUOUS
0
LAYER
2
OBJECT__33
70
0
62
253
6
CONTINUOUS
0
LAYER
2
OBJECT__35
70
0
62
253
6
CONTINUOUS
0
LAYER
2
OBJECT__36
70
0
62
253
6
CONTINUOUS
0
LAYER
2
OBJECT__37
70
0
62
253
6
CONTINUOUS
0
LAYER
2
OBJECT__38
70
0
62
253
6
CONTINUOUS
0
LAYER
2
OBJECT__39
70
0
62
253
6
CONTINUOUS
0
LAYER
2
OBJECT__40
70
0
62
253
6
CONTINUOUS
0
LAYER
2
OBJECT__41
70
0
62
253
6
CONTINUOUS
0
LAYER
2
OBJECT__43
70
0
62
253
6
CONTINUOUS
0
LAYER
2
OBJECT__45
70
0
62
253
6
CONTINUOUS
0
LAYER
2
OBJECT__47
70
0
62
253
6
CONTINUOUS
0
LAYER
2
OBJECT__49
70
0
62
253
6
CONTINUOUS
0
LAYER
2
OBJECT__50
70
0
62
253
6
CONTINUOUS
0
LAYER
2
OBJECT__52
70
0
62
253
6
CONTINUOUS
0
LAYER
2
OBJECT__53
70
0
62
253
6
CONTINUOUS
0
LAYER
2
OBJECT__54
70
0
62
253
6
CONTINUOUS
0
LAYER
2
OBJECT__56
70
0
62
253
6
CONTINUOUS
0
LAYER
2
OBJECT__57
70
0
62
253
6
CONTINUOUS
0
LAYER
2
OBJECT__58
70
0
62
253
6
CONTINUOUS
0
LAYER
2
OBJECT__59
70
0
62
253
6
CONTINUOUS
0
ENDTAB
0
TABLE
2
STYLE
70
1
0
STYLE
2
STANDARD
70
0
40
0.0
41
1.0
50
0.0
71
0
42
0.2
3
txt
4
1
0
ENDTAB
0
TABLE
2
UCS
70
0
0
ENDTAB
0
ENDSEC
0
SECTION
2
ENTITIES
0
POLYLINE
8
OBJECT__0
66
1
70
64
71
22
72
20
62
253
0
VERTEX
8
OBJECT__0
10
68.384003
20
6.428000
30
172.983002
70
192
0
VERTEX
8
OBJECT__0
10
71.410004
20
8.796000
30
166.770004
70
192
0
VERTEX
8
OBJECT__0
10
73.639999
20
8.121000
30
166.029007
70
192
0
VERTEX
8
OBJECT__0
10
65.541000
20
9.868000
30
168.651001
70
192
0
VERTEX
8
OBJECT__0
10
64.417000
20
9.977000
30
168.979996
70
192
0
VERTEX
8
OBJECT__0
10
69.978996
20
0.000000
30
174.593002
70
192
0
VERTEX
8
OBJECT__0
10
82.070000
20
1.944000
30
163.194000
70
192
0
VERTEX
8
OBJECT__0
10
82.453003
20
0.488000
30
163.063995
70
192
0
VERTEX
8
OBJECT__0
10
80.917999
20
3.749000
30
163.582993
70
192
0
VERTEX
8
OBJECT__0
10
78.155998
20
6.032000
30
164.514999
70
192
0
VERTEX
8
OBJECT__0
10
76.871002
20
6.627000
30
164.945999
70
192
0
VERTEX
8
OBJECT__0
10
79.692001
20
-4.936000
30
163.996994
70
192
0
VERTEX
8
OBJECT__0
10
76.931000
20
-6.664000
30
164.925995
70
192
0
VERTEX
8
OBJECT__0
10
80.306999
20
-4.389000
30
163.789001
70
192
0
VERTEX
8
OBJECT__0
10
82.425003
20
0.001000
30
163.074005
70
192
0
VERTEX
8
OBJECT__0
10
82.366997
20
-1.021000
30
163.093994
70
192
0
VERTEX
8
OBJECT__0
10
81.572998
20
-2.877000
30
163.362000
70
192
0
VERTEX
8
OBJECT__0
10
68.384003
20
-6.428000
30
172.983002
70
192
0
VERTEX
8
OBJECT__0
10
76.424004
20
-6.982000
30
165.097000
70
192
0
VERTEX
8
OBJECT__0
10
74.595001
20
-7.773000
30
165.710007
70
192
0
VERTEX
8
OBJECT__0
10
69.262001
20
-9.294000
30
167.475006
70
192
0
VERTEX
8
OBJECT__0
10
64.417000
20
-9.977000
30
168.979996
70
192
0
VERTEX
8
OBJECT__0
10
0
20
0
30
0
70
128
71
1
72
2
73
3
0
VERTEX
8
OBJECT__0
10
0
20
0
30
0
70
128
71
1
72
4
73
2
0
VERTEX
8
OBJECT__0
10
0
20
0
30
0
70
128
71
1
72
5
73
4
0
VERTEX
8
OBJECT__0
10
0
20
0
30
0
70
128
71
6
72
7
73
8
0
VERTEX
8
OBJECT__0
10
0
20
0
30
0
70
128
71
6
72
9
73
7
0
VERTEX
8
OBJECT__0
10
0
20
0
30
0
70
128
71
6
72
10
73
9
0
VERTEX
8
OBJECT__0
10
0
20
0
30
0
70
128
71
6
72
1
73
11
0
VERTEX
8
OBJECT__0
10
0
20
0
30
0
70
128
71
11
72
10
73
6
0
VERTEX
8
OBJECT__0
10
0
20
0
30
0
70
128
71
6
72
12
73
13
0
VERTEX
8
OBJECT__0
10
0
20
0
30
0
70
128
71
6
72
14
73
12
0
VERTEX
8
OBJECT__0
10
0
20
0
30
0
70
128
71
6
72
15
73
16
0
VERTEX
8
OBJECT__0
10
0
20
0
30
0
70
128
71
16
72
17
73
6
0
VERTEX
8
OBJECT__0
10
0
20
0
30
0
70
128
71
17
72
14
73
6
0
VERTEX
8
OBJECT__0
10
0
20
0
30
0
70
128
71
18
72
13
73
19
0
VERTEX
8
OBJECT__0
10
0
20
0
30
0
70
128
71
19
72
20
73
18
0
VERTEX
8
OBJECT__0
10
0
20
0
30
0
70
128
71
20
72
21
73
18
0
VERTEX
8
OBJECT__0
10
0
20
0
30
0
70
128
71
21
72
22
73
18
0
VERTEX
8
OBJECT__0
10
0
20
0
30
0
70
128
71
13
72
18
73
6
0
VERTEX
8
OBJECT__0
10
0
20
0
30
0
70
128
71
8
72
15
73
6
0
VERTEX
8
OBJECT__0
10
0
20
0
30
0
70
128
71
3
72
11
73
1
0
SEQEND
8
OBJECT__0
0
POLYLINE
8
OBJECT__1
66
1
70
64
71
10
72
8
62
253
0
VERTEX
8
OBJECT__1
10
64.417000
20
9.977000
30
168.979996
70
192
0
VERTEX
8
OBJECT__1
10
68.384003
20
6.428000
30
172.983002
70
192
0
VERTEX
8
OBJECT__1
10
67.971001
20
6.542000
30
172.567001
70
192
0
VERTEX
8
OBJECT__1
10
69.716003
20
0.000000
30
174.326996
70
192
0
VERTEX
8
OBJECT__1
10
69.978996
20
0.000000
30
174.593002
70
192
0
VERTEX
8
OBJECT__1
10
68.384003
20
-6.428000
30
172.983002
70
192
0
VERTEX
8
OBJECT__1
10
67.971001
20
-6.542000
30
172.567001
70
192
0
VERTEX
8
OBJECT__1
10
64.417000
20
-9.977000
30
168.979996
70
192
0
VERTEX
8
OBJECT__1
10
63.613998
20
-9.801000
30
168.169998
70
192
0
VERTEX
8
OBJECT__1
10
63.613998
20
9.801000
30
168.169998
70
192
0
VERTEX
8
OBJECT__1
10
0
20
0
30
0
70
128
71
1
72
2
73
3
0
VERTEX
8
OBJECT__1
10
0
20
0
30
0
70
128
71
4
72
3
73
2
0
VERTEX
8
OBJECT__1
10
0
20
0
30
0
70
128
71
2
72
5
73
4
0
VERTEX
8
OBJECT__1
10
0
20
0
30
0
70
128
71
4
72
5
73
6
0
VERTEX
8
OBJECT__1
10
0
20
0
30
0
70
128
71
6
72
7
73
4
0
VERTEX
8
OBJECT__1
10
0
20
0
30
0
70
128
71
8
72
9
73
7
0
VERTEX
8
OBJECT__1
10
0
20
0
30
0
70
128
71
7
72
6
73
8
0
VERTEX
8
OBJECT__1
10
0
20
0
30
0
70
128
71
3
72
10
73
1
0
SEQEND
8
OBJECT__1
0
POLYLINE
8
OBJECT__3
66
1
70
64
71
23
72
23
62
253
0
VERTEX
8
OBJECT__3
10
0.000000
20
69.017998
30
62.757999
70
192
0
VERTEX
8
OBJECT__3
10
0.000000
20
75.017998
30
62.764999
70
192
0
VERTEX
8
OBJECT__3
10
9.191000
20
75.014000
30
65.462997
70
192
0
VERTEX
8
OBJECT__3
10
15.464000
20
69.005997
30
72.695000
70
192
0
VERTEX
8
OBJECT__3
10
9.191000
20
69.014000
30
65.456001
70
192
0
VERTEX
8
OBJECT__3
10
16.827000
20
68.995003
30
82.177002
70
192
0
VERTEX
8
OBJECT__3
10
15.464000
20
75.005997
30
72.703003
70
192
0
VERTEX
8
OBJECT__3
10
12.848000
20
68.984001
30
90.889999
70
192
0
VERTEX
8
OBJECT__3
10
16.827000
20
74.995003
30
82.183998
70
192
0
VERTEX
8
OBJECT__3
10
4.789000
20
68.977997
30
96.069000
70
192
0
VERTEX
8
OBJECT__3
10
12.848000
20
74.984001
30
90.897003
70
192
0
VERTEX
8
OBJECT__3
10
4.789000
20
74.977997
30
96.075996
70
192
0
VERTEX
8
OBJECT__3
10
-4.789000
20
74.977997
30
96.075996
70
192
0
VERTEX
8
OBJECT__3
10
0.000000
20
68.976997
30
96.757004
70
192
0
VERTEX
8
OBJECT__3
10
-4.789000
20
68.977997
30
96.069000
70
192
0
VERTEX
8
OBJECT__3
10
-12.848000
20
74.984001
30
90.897003
70
192
0
VERTEX
8
OBJECT__3
10
-12.848000
20
68.984001
30
90.889999
70
192
0
VERTEX
8
OBJECT__3
10
-16.827000
20
74.995003
30
82.183998
70
192
0
VERTEX
8
OBJECT__3
10
-16.827000
20
68.995003
30
82.177002
70
192
0
VERTEX
8
OBJECT__3
10
-15.464000
20
75.005997
30
72.703003
70
192
0
VERTEX
8
OBJECT__3
10
-15.464000
20
69.005997
30
72.695000
70
192
0
VERTEX
8
OBJECT__3
10
-9.191000
20
75.014000
30
65.462997
70
192
0
VERTEX
8
OBJECT__3
10
-9.191000
20
69.014000
30
65.456001
70
192
0
VERTEX
8
OBJECT__3
10
0
20
0
30
0
70
128
71
1
72
2
73
3
0
VERTEX
8
OBJECT__3
10
0
20
0
30
0
70
128
71
4
72
5
73
3
0
VERTEX
8
OBJECT__3
10
0
20
0
30
0
70
128
71
6
72
4
73
7
0
VERTEX
8
OBJECT__3
10
0
20
0
30
0
70
128
71
8
72
6
73
9
0
VERTEX
8
OBJECT__3
10
0
20
0
30
0
70
128
71
10
72
8
73
11
0
VERTEX
8
OBJECT__3
10
0
20
0
30
0
70
128
71
12
72
13
73
14
0
VERTEX
8
OBJECT__3
10
0
20
0
30
0
70
128
71
13
72
15
73
14
0
VERTEX
8
OBJECT__3
10
0
20
0
30
0
70
128
71
16
72
17
73
15
0
VERTEX
8
OBJECT__3
10
0
20
0
30
0
70
128
71
18
72
19
73
17
0
VERTEX
8
OBJECT__3
10
0
20
0
30
0
70
128
71
20
72
21
73
19
0
VERTEX
8
OBJECT__3
10
0
20
0
30
0
70
128
71
22
72
23
73
21
0
VERTEX
8
OBJECT__3
10
0
20
0
30
0
70
128
71
1
72
23
73
22
0
VERTEX
8
OBJECT__3
10
0
20
0
30
0
70
128
71
22
72
2
73
1
0
VERTEX
8
OBJECT__3
10
0
20
0
30
0
70
128
71
21
72
20
73
22
0
VERTEX
8
OBJECT__3
10
0
20
0
30
0
70
128
71
19
72
18
73
20
0
VERTEX
8
OBJECT__3
10
0
20
0
30
0
70
128
71
17
72
16
73
18
0
VERTEX
8
OBJECT__3
10
0
20
0
30
0
70
128
71
15
72
13
73
16
0
VERTEX
8
OBJECT__3
10
0
20
0
30
0
70
128
71
14
72
10
73
12
0
VERTEX
8
OBJECT__3
10
0
20
0
30
0
70
128
71
11
72
12
73
10
0
VERTEX
8
OBJECT__3
10
0
20
0
30
0
70
128
71
9
72
11
73
8
0
VERTEX
8
OBJECT__3
10
0
20
0
30
0
70
128
71
7
72
9
73
6
0
VERTEX
8
OBJECT__3
10
0
20
0
30
0
70
128
71
3
72
7
73
4
0
VERTEX
8
OBJECT__3
10
0
20
0
30
0
70
128
71
3
72
5
73
1
0
SEQEND
8
OBJECT__3
0
POLYLINE
8
OBJECT__4
66
1
70
64
71
11
72
9
62
253
0
VERTEX
8
OBJECT__4
10
-15.464000
20
75.005997
30
72.703003
70
192
0
VERTEX
8
OBJECT__4
10
9.191000
20
75.014000
30
65.462997
70
192
0
VERTEX
8
OBJECT__4
10
0.000000
20
75.017998
30
62.764999
70
192
0
VERTEX
8
OBJECT__4
10
-16.827000
20
74.995003
30
82.183998
70
192
0
VERTEX
8
OBJECT__4
10
4.789000
20
74.977997
30
96.075996
70
192
0
VERTEX
8
OBJECT__4
10
12.848000
20
74.984001
30
90.897003
70
192
0
VERTEX
8
OBJECT__4
10
-12.848000
20
74.984001
30
90.897003
70
192
0
VERTEX
8
OBJECT__4
10
-4.789000
20
74.977997
30
96.075996
70
192
0
VERTEX
8
OBJECT__4
10
-9.191000
20
75.014000
30
65.462997
70
192
0
VERTEX
8
OBJECT__4
10
16.827000
20
74.995003
30
82.183998
70
192
0
VERTEX
8
OBJECT__4
10
15.464000
20
75.005997
30
72.703003
70
192
0
VERTEX
8
OBJECT__4
10
0
20
0
30
0
70
128
71
1
72
2
73
3
0
VERTEX
8
OBJECT__4
10
0
20
0
30
0
70
128
71
4
72
5
73
6
0
VERTEX
8
OBJECT__4
10
0
20
0
30
0
70
128
71
4
72
7
73
8
0
VERTEX
8
OBJECT__4
10
0
20
0
30
0
70
128
71
3
72
9
73
1
0
VERTEX
8
OBJECT__4
10
0
20
0
30
0
70
128
71
4
72
10
73
11
0
VERTEX
8
OBJECT__4
10
0
20
0
30
0
70
128
71
8
72
5
73
4
0
VERTEX
8
OBJECT__4
10
0
20
0
30
0
70
128
71
11
72
2
73
4
0
VERTEX
8
OBJECT__4
10
0
20
0
30
0
70
128
71
1
72
4
73
2
0
VERTEX
8
OBJECT__4
10
0
20
0
30
0
70
128
71
6
72
10
73
4
0
SEQEND
8
OBJECT__4
0
POLYLINE
8
OBJECT__6
66
1
70
64
71
15
72
13
62
253
0
VERTEX
8
OBJECT__6
10
22.294001
20
-20.073999
30
0.000000
70
192
0
VERTEX
8
OBJECT__6
10
0.000000
20
-30.000000
30
0.000000
70
192
0
VERTEX
8
OBJECT__6
10
-12.202000
20
-27.406000
30
0.000000
70
192
0
VERTEX
8
OBJECT__6
10
-25.981001
20
15.000000
30
0.000000
70
192
0
VERTEX
8
OBJECT__6
10
29.836000
20
3.136000
30
0.000000
70
192
0
VERTEX
8
OBJECT__6
10
28.532000
20
-9.271000
30
0.000000
70
192
0
VERTEX
8
OBJECT__6
10
17.634001
20
24.271000
30
0.000000
70
192
0
VERTEX
8
OBJECT__6
10
25.981001
20
15.000000
30
0.000000
70
192
0
VERTEX
8
OBJECT__6
10
-6.237000
20
29.344000
30
0.000000
70
192
0
VERTEX
8
OBJECT__6
10
6.237000
20
29.344000
30
0.000000
70
192
0
VERTEX
8
OBJECT__6
10
12.202000
20
-27.406000
30
0.000000
70
192
0
VERTEX
8
OBJECT__6
10
-17.634001
20
24.271000
30
0.000000
70
192
0
VERTEX
8
OBJECT__6
10
-28.532000
20
-9.271000
30
0.000000
70
192
0
VERTEX
8
OBJECT__6
10
-29.836000
20
3.136000
30
0.000000
70
192
0
VERTEX
8
OBJECT__6
10
-22.294001
20
-20.073999
30
0.000000
70
192
0
VERTEX
8
OBJECT__6
10
0
20
0
30
0
70
128
71
1
72
2
73
3
0
VERTEX
8
OBJECT__6
10
0
20
0
30
0
70
128
71
4
72
5
73
6
0
VERTEX
8
OBJECT__6
10
0
20
0
30
0
70
128
71
4
72
7
73
8
0
VERTEX
8
OBJECT__6
10
0
20
0
30
0
70
128
71
4
72
9
73
10
0
VERTEX
8
OBJECT__6
10
0
20
0
30
0
70
128
71
1
72
11
73
2
0
VERTEX
8
OBJECT__6
10
0
20
0
30
0
70
128
71
8
72
5
73
4
0
VERTEX
8
OBJECT__6
10
0
20
0
30
0
70
128
71
4
72
12
73
9
0
VERTEX
8
OBJECT__6
10
0
20
0
30
0
70
128
71
1
72
13
73
14
0
VERTEX
8
OBJECT__6
10
0
20
0
30
0
70
128
71
3
72
15
73
1
0
VERTEX
8
OBJECT__6
10
0
20
0
30
0
70
128
71
10
72
7
73
4
0
VERTEX
8
OBJECT__6
10
0
20
0
30
0
70
128
71
15
72
13
73
1
0
VERTEX
8
OBJECT__6
10
0
20
0
30
0
70
128
71
14
72
4
73
1
0
VERTEX
8
OBJECT__6
10
0
20
0
30
0
70
128
71
6
72
1
73
4
0
SEQEND
8
OBJECT__6
0
POLYLINE
8
OBJECT__7
66
1
70
64
71
30
72
30
62
253
0
VERTEX
8
OBJECT__7
10
-12.202000
20
-27.406000
30
6.000000
70
192
0
VERTEX
8
OBJECT__7
10
-12.202000
20
-27.406000
30
0.000000
70
192
0
VERTEX
8
OBJECT__7
10
0.000000
20
-30.000000
30
0.000000
70
192
0
VERTEX
8
OBJECT__7
10
-22.294001
20
-20.073999
30
6.000000
70
192
0
VERTEX
8
OBJECT__7
10
-22.294001
20
-20.073999
30
0.000000
70
192
0
VERTEX
8
OBJECT__7
10
-28.532000
20
-9.271000
30
6.000000
70
192
0
VERTEX
8
OBJECT__7
10
-28.532000
20
-9.271000
30
0.000000
70
192
0
VERTEX
8
OBJECT__7
10
-29.836000
20
3.136000
30
6.000000
70
192
0
VERTEX
8
OBJECT__7
10
-29.836000
20
3.136000
30
0.000000
70
192
0
VERTEX
8
OBJECT__7
10
-25.981001
20
15.000000
30
6.000000
70
192
0
VERTEX
8
OBJECT__7
10
-25.981001
20
15.000000
30
0.000000
70
192
0
VERTEX
8
OBJECT__7
10
-17.634001
20
24.271000
30
6.000000
70
192
0
VERTEX
8
OBJECT__7
10
-17.634001
20
24.271000
30
0.000000
70
192
0
VERTEX
8
OBJECT__7
10
-6.237000
20
29.344000
30
6.000000
70
192
0
VERTEX
8
OBJECT__7
10
-6.237000
20
29.344000
30
0.000000
70
192
0
VERTEX
8
OBJECT__7
10
6.237000
20
29.344000
30
6.000000
70
192
0
VERTEX
8
OBJECT__7
10
6.237000
20
29.344000
30
0.000000
70
192
0
VERTEX
8
OBJECT__7
10
17.634001
20
24.271000
30
0.000000
70
192
0
VERTEX
8
OBJECT__7
10
25.981001
20
15.000000
30
0.000000
70
192
0
VERTEX
8
OBJECT__7
10
17.634001
20
24.271000
30
6.000000
70
192
0
VERTEX
8
OBJECT__7
10
29.836000
20
3.136000
30
0.000000
70
192
0
VERTEX
8
OBJECT__7
10
25.981001
20
15.000000
30
6.000000
70
192
0
VERTEX
8
OBJECT__7
10
28.532000
20
-9.271000
30
0.000000
70
192
0
VERTEX
8
OBJECT__7
10
29.836000
20
3.136000
30
6.000000
70
192
0
VERTEX
8
OBJECT__7
10
22.294001
20
-20.073999
30
0.000000
70
192
0
VERTEX
8
OBJECT__7
10
28.532000
20
-9.271000
30
6.000000
70
192
0
VERTEX
8
OBJECT__7
10
12.202000
20
-27.406000
30
0.000000
70
192
0
VERTEX
8
OBJECT__7
10
22.294001
20
-20.073999
30
6.000000
70
192
0
VERTEX
8
OBJECT__7
10
12.202000
20
-27.406000
30
6.000000
70
192
0
VERTEX
8
OBJECT__7
10
0.000000
20
-30.000000
30
6.000000
70
192
0
VERTEX
8
OBJECT__7
10
0
20
0
30
0
70
128
71
1
72
2
73
3
0
VERTEX
8
OBJECT__7
10
0
20
0
30
0
70
128
71
4
72
5
73
2
0
VERTEX
8
OBJECT__7
10
0
20
0
30
0
70
128
71
6
72
7
73
5
0
VERTEX
8
OBJECT__7
10
0
20
0
30
0
70
128
71
8
72
9
73
7
0
VERTEX
8
OBJECT__7
10
0
20
0
30
0
70
128
71
10
72
11
73
9
0
VERTEX
8
OBJECT__7
10
0
20
0
30
0
70
128
71
12
72
13
73
11
0
VERTEX
8
OBJECT__7
10
0
20
0
30
0
70
128
71
14
72
15
73
13
0
VERTEX
8
OBJECT__7
10
0
20
0
30
0
70
128
71
16
72
17
73
15
0
VERTEX
8
OBJECT__7
10
0
20
0
30
0
70
128
71
18
72
17
73
16
0
VERTEX
8
OBJECT__7
10
0
20
0
30
0
70
128
71
19
72
18
73
20
0
VERTEX
8
OBJECT__7
10
0
20
0
30
0
70
128
71
21
72
19
73
22
0
VERTEX
8
OBJECT__7
10
0
20
0
30
0
70
128
71
23
72
21
73
24
0
VERTEX
8
OBJECT__7
10
0
20
0
30
0
70
128
71
25
72
23
73
26
0
VERTEX
8
OBJECT__7
10
0
20
0
30
0
70
128
71
27
72
25
73
28
0
VERTEX
8
OBJECT__7
10
0
20
0
30
0
70
128
71
3
72
27
73
29
0
VERTEX
8
OBJECT__7
10
0
20
0
30
0
70
128
71
29
72
30
73
3
0
VERTEX
8
OBJECT__7
10
0
20
0
30
0
70
128
71
28
72
29
73
27
0
VERTEX
8
OBJECT__7
10
0
20
0
30
0
70
128
71
26
72
28
73
25
0
VERTEX
8
OBJECT__7
10
0
20
0
30
0
70
128
71
24
72
26
73
23
0
VERTEX
8
OBJECT__7
10
0
20
0
30
0
70
128
71
22
72
24
73
21
0
VERTEX
8
OBJECT__7
10
0
20
0
30
0
70
128
71
20
72
22
73
19
0
VERTEX
8
OBJECT__7
10
0
20
0
30
0
70
128
71
16
72
20
73
18
0
VERTEX
8
OBJECT__7
10
0
20
0
30
0
70
128
71
15
72
14
73
16
0
VERTEX
8
OBJECT__7
10
0
20
0
30
0
70
128
71
13
72
12
73
14
0
VERTEX
8
OBJECT__7
10
0
20
0
30
0
70
128
71
11
72
10
73
12
0
VERTEX
8
OBJECT__7
10
0
20
0
30
0
70
128
71
9
72
8
73
10
0
VERTEX
8
OBJECT__7
10
0
20
0
30
0
70
128
71
7
72
6
73
8
0
VERTEX
8
OBJECT__7
10
0
20
0
30
0
70
128
71
5
72
4
73
6
0
VERTEX
8
OBJECT__7
10
0
20
0
30
0
70
128
71
2
72
1
73
4
0
VERTEX
8
OBJECT__7
10
0
20
0
30
0
70
128
71
3
72
30
73
1
0
SEQEND
8
OBJECT__7
0
POLYLINE
8
OBJECT__9
66
1
70
64
71
29
72
29
62
253
0
VERTEX
8
OBJECT__9
10
22.294001
20
-20.073999
30
6.000000
70
192
0
VERTEX
8
OBJECT__9
10
19.546000
20
-15.587000
30
6.000000
70
192
0
VERTEX
8
OBJECT__9
10
10.847000
20
-22.524000
30
6.000000
70
192
0
VERTEX
8
OBJECT__9
10
28.532000
20
-9.271000
30
6.000000
70
192
0
VERTEX
8
OBJECT__9
10
24.372999
20
-5.563000
30
6.000000
70
192
0
VERTEX
8
OBJECT__9
10
12.202000
20
-27.406000
30
6.000000
70
192
0
VERTEX
8
OBJECT__9
10
0.000000
20
-25.000000
30
6.000000
70
192
0
VERTEX
8
OBJECT__9
10
29.836000
20
3.136000
30
6.000000
70
192
0
VERTEX
8
OBJECT__9
10
24.372999
20
5.563000
30
6.000000
70
192
0
VERTEX
8
OBJECT__9
10
25.981001
20
15.000000
30
6.000000
70
192
0
VERTEX
8
OBJECT__9
10
19.546000
20
15.587000
30
6.000000
70
192
0
VERTEX
8
OBJECT__9
10
-6.237000
20
29.344000
30
6.000000
70
192
0
VERTEX
8
OBJECT__9
10
-17.634001
20
24.271000
30
6.000000
70
192
0
VERTEX
8
OBJECT__9
10
-10.847000
20
22.524000
30
6.000000
70
192
0
VERTEX
8
OBJECT__9
10
17.634001
20
24.271000
30
6.000000
70
192
0
VERTEX
8
OBJECT__9
10
10.847000
20
22.524000
30
6.000000
70
192
0
VERTEX
8
OBJECT__9
10
6.237000
20
29.344000
30
6.000000
70
192
0
VERTEX
8
OBJECT__9
10
0.000000
20
25.000000
30
6.000000
70
192
0
VERTEX
8
OBJECT__9
10
-25.981001
20
15.000000
30
6.000000
70
192
0
VERTEX
8
OBJECT__9
10
-19.546000
20
15.587000
30
6.000000
70
192
0
VERTEX
8
OBJECT__9
10
-29.836000
20
3.136000
30
6.000000
70
192
0
VERTEX
8
OBJECT__9
10
-24.372999
20
5.563000
30
6.000000
70
192
0
VERTEX
8
OBJECT__9
10
-28.532000
20
-9.271000
30
6.000000
70
192
0
VERTEX
8
OBJECT__9
10
-24.372999
20
-5.563000
30
6.000000
70
192
0
VERTEX
8
OBJECT__9
10
-22.294001
20
-20.073999
30
6.000000
70
192
0
VERTEX
8
OBJECT__9
10
-19.546000
20
-15.587000
30
6.000000
70
192
0
VERTEX
8
OBJECT__9
10
-12.202000
20
-27.406000
30
6.000000
70
192
0
VERTEX
8
OBJECT__9
10
-10.847000
20
-22.524000
30
6.000000
70
192
0
VERTEX
8
OBJECT__9
10
0.000000
20
-30.000000
30
6.000000
70
192
0
VERTEX
8
OBJECT__9
10
0
20
0
30
0
70
128
71
1
72
2
73
3
0
VERTEX
8
OBJECT__9
10
0
20
0
30
0
70
128
71
4
72
5
73
2
0
VERTEX
8
OBJECT__9
10
0
20
0
30
0
70
128
71
6
72
3
73
7
0
VERTEX
8
OBJECT__9
10
0
20
0
30
0
70
128
71
2
72
1
73
4
0
VERTEX
8
OBJECT__9
10
0
20
0
30
0
70
128
71
3
72
6
73
1
0
VERTEX
8
OBJECT__9
10
0
20
0
30
0
70
128
71
8
72
9
73
5
0
VERTEX
8
OBJECT__9
10
0
20
0
30
0
70
128
71
5
72
4
73
8
0
VERTEX
8
OBJECT__9
10
0
20
0
30
0
70
128
71
10
72
11
73
9
0
VERTEX
8
OBJECT__9
10
0
20
0
30
0
70
128
71
12
72
13
73
14
0
VERTEX
8
OBJECT__9
10
0
20
0
30
0
70
128
71
9
72
8
73
10
0
VERTEX
8
OBJECT__9
10
0
20
0
30
0
70
128
71
15
72
16
73
11
0
VERTEX
8
OBJECT__9
10
0
20
0
30
0
70
128
71
17
72
18
73
16
0
VERTEX
8
OBJECT__9
10
0
20
0
30
0
70
128
71
14
72
18
73
12
0
VERTEX
8
OBJECT__9
10
0
20
0
30
0
70
128
71
11
72
10
73
15
0
VERTEX
8
OBJECT__9
10
0
20
0
30
0
70
128
71
18
72
17
73
12
0
VERTEX
8
OBJECT__9
10
0
20
0
30
0
70
128
71
13
72
19
73
20
0
VERTEX
8
OBJECT__9
10
0
20
0
30
0
70
128
71
19
72
21
73
22
0
VERTEX
8
OBJECT__9
10
0
20
0
30
0
70
128
71
16
72
15
73
17
0
VERTEX
8
OBJECT__9
10
0
20
0
30
0
70
128
71
22
72
20
73
19
0
VERTEX
8
OBJECT__9
10
0
20
0
30
0
70
128
71
21
72
23
73
24
0
VERTEX
8
OBJECT__9
10
0
20
0
30
0
70
128
71
23
72
25
73
26
0
VERTEX
8
OBJECT__9
10
0
20
0
30
0
70
128
71
20
72
14
73
13
0
VERTEX
8
OBJECT__9
10
0
20
0
30
0
70
128
71
26
72
24
73
23
0
VERTEX
8
OBJECT__9
10
0
20
0
30
0
70
128
71
25
72
27
73
28
0
VERTEX
8
OBJECT__9
10
0
20
0
30
0
70
128
71
27
72
29
73
7
0
VERTEX
8
OBJECT__9
10
0
20
0
30
0
70
128
71
24
72
22
73
21
0
VERTEX
8
OBJECT__9
10
0
20
0
30
0
70
128
71
7
72
28
73
27
0
VERTEX
8
OBJECT__9
10
0
20
0
30
0
70
128
71
28
72
26
73
25
0
VERTEX
8
OBJECT__9
10
0
20
0
30
0
70
128
71
7
72
29
73
6
0
SEQEND
8
OBJECT__9
0
POLYLINE
8
OBJECT__10
66
1
70
64
71
28
72
28
62
253
0
VERTEX
8
OBJECT__10
10
-10.847000
20
-22.524000
30
10.000000
70
192
0
VERTEX
8
OBJECT__10
10
-10.847000
20
-22.524000
30
6.000000
70
192
0
VERTEX
8
OBJECT__10
10
0.000000
20
-25.000000
30
6.000000
70
192
0
VERTEX
8
OBJECT__10
10
-19.546000
20
-15.587000
30
10.000000
70
192
0
VERTEX
8
OBJECT__10
10
-19.546000
20
-15.587000
30
6.000000
70
192
0
VERTEX
8
OBJECT__10
10
-24.372999
20
-5.563000
30
10.000000
70
192
0
VERTEX
8
OBJECT__10
10
-24.372999
20
-5.563000
30
6.000000
70
192
0
VERTEX
8
OBJECT__10
10
-24.372999
20
5.563000
30
10.000000
70
192
0
VERTEX
8
OBJECT__10
10
-24.372999
20
5.563000
30
6.000000
70
192
0
VERTEX
8
OBJECT__10
10
-19.546000
20
15.587000
30
10.000000
70
192
0
VERTEX
8
OBJECT__10
10
-19.546000
20
15.587000
30
6.000000
70
192
0
VERTEX
8
OBJECT__10
10
-10.847000
20
22.524000
30
10.000000
70
192
0
VERTEX
8
OBJECT__10
10
-10.847000
20
22.524000
30
6.000000
70
192
0
VERTEX
8
OBJECT__10
10
0.000000
20
25.000000
30
10.000000
70
192
0
VERTEX
8
OBJECT__10
10
0.000000
20
25.000000
30
6.000000
70
192
0
VERTEX
8
OBJECT__10
10
10.847000
20
22.524000
30
10.000000
70
192
0
VERTEX
8
OBJECT__10
10
10.847000
20
22.524000
30
6.000000
70
192
0
VERTEX
8
OBJECT__10
10
19.546000
20
15.587000
30
6.000000
70
192
0
VERTEX
8
OBJECT__10
10
24.372999
20
5.563000
30
6.000000
70
192
0
VERTEX
8
OBJECT__10
10
19.546000
20
15.587000
30
10.000000
70
192
0
VERTEX
8
OBJECT__10
10
24.372999
20
-5.563000
30
6.000000
70
192
0
VERTEX
8
OBJECT__10
10
24.372999
20
5.563000
30
10.000000
70
192
0
VERTEX
8
OBJECT__10
10
19.546000
20
-15.587000
30
6.000000
70
192
0
VERTEX
8
OBJECT__10
10
24.372999
20
-5.563000
30
10.000000
70
192
0
VERTEX
8
OBJECT__10
10
10.847000
20
-22.524000
30
6.000000
70
192
0
VERTEX
8
OBJECT__10
10
19.546000
20
-15.587000
30
10.000000
70
192
0
VERTEX
8
OBJECT__10
10
0.000000
20
-25.000000
30
10.000000
70
192
0
VERTEX
8
OBJECT__10
10
10.847000
20
-22.524000
30
10.000000
70
192
0
VERTEX
8
OBJECT__10
10
0
20
0
30
0
70
128
71
1
72
2
73
3
0
VERTEX
8
OBJECT__10
10
0
20
0
30
0
70
128
71
4
72
5
73
2
0
VERTEX
8
OBJECT__10
10
0
20
0
30
0
70
128
71
6
72
7
73
5
0
VERTEX
8
OBJECT__10
10
0
20
0
30
0
70
128
71
8
72
9
73
7
0
VERTEX
8
OBJECT__10
10
0
20
0
30
0
70
128
71
10
72
11
73
9
0
VERTEX
8
OBJECT__10
10
0
20
0
30
0
70
128
71
12
72
13
73
11
0
VERTEX
8
OBJECT__10
10
0
20
0
30
0
70
128
71
14
72
15
73
13
0
VERTEX
8
OBJECT__10
10
0
20
0
30
0
70
128
71
16
72
17
73
15
0
VERTEX
8
OBJECT__10
10
0
20
0
30
0
70
128
71
18
72
17
73
16
0
VERTEX
8
OBJECT__10
10
0
20
0
30
0
70
128
71
19
72
18
73
20
0
VERTEX
8
OBJECT__10
10
0
20
0
30
0
70
128
71
21
72
19
73
22
0
VERTEX
8
OBJECT__10
10
0
20
0
30
0
70
128
71
23
72
21
73
24
0
VERTEX
8
OBJECT__10
10
0
20
0
30
0
70
128
71
25
72
23
73
26
0
VERTEX
8
OBJECT__10
10
0
20
0
30
0
70
128
71
27
72
3
73
25
0
VERTEX
8
OBJECT__10
10
0
20
0
30
0
70
128
71
25
72
28
73
27
0
VERTEX
8
OBJECT__10
10
0
20
0
30
0
70
128
71
26
72
28
73
25
0
VERTEX
8
OBJECT__10
10
0
20
0
30
0
70
128
71
24
72
26
73
23
0
VERTEX
8
OBJECT__10
10
0
20
0
30
0
70
128
71
22
72
24
73
21
0
VERTEX
8
OBJECT__10
10
0
20
0
30
0
70
128
71
20
72
22
73
19
0
VERTEX
8
OBJECT__10
10
0
20
0
30
0
70
128
71
16
72
20
73
18
0
VERTEX
8
OBJECT__10
10
0
20
0
30
0
70
128
71
15
72
14
73
16
0
VERTEX
8
OBJECT__10
10
0
20
0
30
0
70
128
71
13
72
12
73
14
0
VERTEX
8
OBJECT__10
10
0
20
0
30
0
70
128
71
11
72
10
73
12
0
VERTEX
8
OBJECT__10
10
0
20
0
30
0
70
128
71
9
72
8
73
10
0
VERTEX
8
OBJECT__10
10
0
20
0
30
0
70
128
71
7
72
6
73
8
0
VERTEX
8
OBJECT__10
10
0
20
0
30
0
70
128
71
5
72
4
73
6
0
VERTEX
8
OBJECT__10
10
0
20
0
30
0
70
128
71
2
72
1
73
4
0
VERTEX
8
OBJECT__10
10
0
20
0
30
0
70
128
71
3
72
27
73
1
0
SEQEND
8
OBJECT__10
0
POLYLINE
8
OBJECT__11
66
1
70
64
71
14
72
12
62
253
0
VERTEX
8
OBJECT__11
10
24.372999
20
5.563000
30
10.000000
70
192
0
VERTEX
8
OBJECT__11
10
0.000000
20
-25.000000
30
10.000000
70
192
0
VERTEX
8
OBJECT__11
10
10.847000
20
-22.524000
30
10.000000
70
192
0
VERTEX
8
OBJECT__11
10
-19.546000
20
-15.587000
30
10.000000
70
192
0
VERTEX
8
OBJECT__11
10
-10.847000
20
-22.524000
30
10.000000
70
192
0
VERTEX
8
OBJECT__11
10
-24.372999
20
-5.563000
30
10.000000
70
192
0
VERTEX
8
OBJECT__11
10
0.000000
20
25.000000
30
10.000000
70
192
0
VERTEX
8
OBJECT__11
10
-10.847000
20
22.524000
30
10.000000
70
192
0
VERTEX
8
OBJECT__11
10
19.546000
20
15.587000
30
10.000000
70
192
0
VERTEX
8
OBJECT__11
10
10.847000
20
22.524000
30
10.000000
70
192
0
VERTEX
8
OBJECT__11
10
19.546000
20
-15.587000
30
10.000000
70
192
0
VERTEX
8
OBJECT__11
10
-19.546000
20
15.587000
30
10.000000
70
192
0
VERTEX
8
OBJECT__11
10
-24.372999
20
5.563000
30
10.000000
70
192
0
VERTEX
8
OBJECT__11
10
24.372999
20
-5.563000
30
10.000000
70
192
0
VERTEX
8
OBJECT__11
10
0
20
0
30
0
70
128
71
1
72
2
73
3
0
VERTEX
8
OBJECT__11
10
0
20
0
30
0
70
128
71
1
72
4
73
5
0
VERTEX
8
OBJECT__11
10
0
20
0
30
0
70
128
71
6
72
7
73
8
0
VERTEX
8
OBJECT__11
10
0
20
0
30
0
70
128
71
6
72
9
73
10
0
VERTEX
8
OBJECT__11
10
0
20
0
30
0
70
128
71
3
72
11
73
1
0
VERTEX
8
OBJECT__11
10
0
20
0
30
0
70
128
71
1
72
6
73
4
0
VERTEX
8
OBJECT__11
10
0
20
0
30
0
70
128
71
8
72
12
73
6
0
VERTEX
8
OBJECT__11
10
0
20
0
30
0
70
128
71
6
72
1
73
9
0
VERTEX
8
OBJECT__11
10
0
20
0
30
0
70
128
71
5
72
2
73
1
0
VERTEX
8
OBJECT__11
10
0
20
0
30
0
70
128
71
10
72
7
73
6
0
VERTEX
8
OBJECT__11
10
0
20
0
30
0
70
128
71
12
72
13
73
6
0
VERTEX
8
OBJECT__11
10
0
20
0
30
0
70
128
71
11
72
14
73
1
0
SEQEND
8
OBJECT__11
0
POLYLINE
8
OBJECT__12
66
1
70
64
71
26
72
26
62
253
0
VERTEX
8
OBJECT__12
10
17.320999
20
48.000000
30
69.699997
70
192
0
VERTEX
8
OBJECT__12
10
14.464000
20
48.000000
30
68.165001
70
192
0
VERTEX
8
OBJECT__12
10
18.035999
20
48.000000
30
75.583000
70
192
0
VERTEX
8
OBJECT__12
10
10.000000
20
48.000000
30
62.379002
70
192
0
VERTEX
8
OBJECT__12
10
8.027000
20
48.000000
30
63.032001
70
192
0
VERTEX
8
OBJECT__12
10
0.000000
20
48.000000
30
59.700001
70
192
0
VERTEX
8
OBJECT__12
10
0.000000
20
48.000000
30
61.200001
70
192
0
VERTEX
8
OBJECT__12
10
-10.000000
20
48.000000
30
62.379002
70
192
0
VERTEX
8
OBJECT__12
10
-8.027000
20
48.000000
30
63.032001
70
192
0
VERTEX
8
OBJECT__12
10
-17.320999
20
48.000000
30
69.699997
70
192
0
VERTEX
8
OBJECT__12
10
-20.000000
20
48.000000
30
79.699997
70
192
0
VERTEX
8
OBJECT__12
10
-18.035999
20
48.000000
30
75.583000
70
192
0
VERTEX
8
OBJECT__12
10
-14.464000
20
48.000000
30
68.165001
70
192
0
VERTEX
8
OBJECT__12
10
-18.035999
20
48.000000
30
83.817001
70
192
0
VERTEX
8
OBJECT__12
10
-17.320999
20
48.000000
30
89.699997
70
192
0
VERTEX
8
OBJECT__12
10
-14.464000
20
48.000000
30
91.235001
70
192
0
VERTEX
8
OBJECT__12
10
-10.000000
20
48.000000
30
97.021004
70
192
0
VERTEX
8
OBJECT__12
10
-8.027000
20
48.000000
30
96.367996
70
192
0
VERTEX
8
OBJECT__12
10
0.000000
20
48.000000
30
99.699997
70
192
0
VERTEX
8
OBJECT__12
10
10.000000
20
48.000000
30
97.021004
70
192
0
VERTEX
8
OBJECT__12
10
8.027000
20
48.000000
30
96.367996
70
192
0
VERTEX
8
OBJECT__12
10
17.320999
20
48.000000
30
89.699997
70
192
0
VERTEX
8
OBJECT__12
10
14.464000
20
48.000000
30
91.235001
70
192
0
VERTEX
8
OBJECT__12
10
20.000000
20
48.000000
30
79.699997
70
192
0
VERTEX
8
OBJECT__12
10
18.035999
20
48.000000
30
83.817001
70
192
0
VERTEX
8
OBJECT__12
10
0.000000
20
48.000000
30
98.199997
70
192
0
VERTEX
8
OBJECT__12
10
0
20
0
30
0
70
128
71
1
72
2
73
3
0
VERTEX
8
OBJECT__12
10
0
20
0
30
0
70
128
71
4
72
5
73
2
0
VERTEX
8
OBJECT__12
10
0
20
0
30
0
70
128
71
6
72
7
73
5
0
VERTEX
8
OBJECT__12
10
0
20
0
30
0
70
128
71
6
72
8
73
9
0
VERTEX
8
OBJECT__12
10
0
20
0
30
0
70
128
71
10
72
11
73
12
0
VERTEX
8
OBJECT__12
10
0
20
0
30
0
70
128
71
2
72
1
73
4
0
VERTEX
8
OBJECT__12
10
0
20
0
30
0
70
128
71
9
72
7
73
6
0
VERTEX
8
OBJECT__12
10
0
20
0
30
0
70
128
71
8
72
10
73
13
0
VERTEX
8
OBJECT__12
10
0
20
0
30
0
70
128
71
11
72
14
73
12
0
VERTEX
8
OBJECT__12
10
0
20
0
30
0
70
128
71
5
72
4
73
6
0
VERTEX
8
OBJECT__12
10
0
20
0
30
0
70
128
71
12
72
13
73
10
0
VERTEX
8
OBJECT__12
10
0
20
0
30
0
70
128
71
15
72
16
73
14
0
VERTEX
8
OBJECT__12
10
0
20
0
30
0
70
128
71
17
72
18
73
16
0
VERTEX
8
OBJECT__12
10
0
20
0
30
0
70
128
71
19
72
20
73
21
0
VERTEX
8
OBJECT__12
10
0
20
0
30
0
70
128
71
20
72
22
73
23
0
VERTEX
8
OBJECT__12
10
0
20
0
30
0
70
128
71
22
72
24
73
25
0
VERTEX
8
OBJECT__12
10
0
20
0
30
0
70
128
71
13
72
9
73
8
0
VERTEX
8
OBJECT__12
10
0
20
0
30
0
70
128
71
16
72
15
73
17
0
VERTEX
8
OBJECT__12
10
0
20
0
30
0
70
128
71
23
72
21
73
20
0
VERTEX
8
OBJECT__12
10
0
20
0
30
0
70
128
71
24
72
3
73
25
0
VERTEX
8
OBJECT__12
10
0
20
0
30
0
70
128
71
14
72
11
73
15
0
VERTEX
8
OBJECT__12
10
0
20
0
30
0
70
128
71
19
72
26
73
18
0
VERTEX
8
OBJECT__12
10
0
20
0
30
0
70
128
71
25
72
23
73
22
0
VERTEX
8
OBJECT__12
10
0
20
0
30
0
70
128
71
18
72
17
73
19
0
VERTEX
8
OBJECT__12
10
0
20
0
30
0
70
128
71
3
72
24
73
1
0
VERTEX
8
OBJECT__12
10
0
20
0
30
0
70
128
71
21
72
26
73
19
0
SEQEND
8
OBJECT__12
0
POLYLINE
8
OBJECT__13
66
1
70
64
71
40
72
40
62
253
0
VERTEX
8
OBJECT__13
10
-20.000000
20
48.000000
30
79.699997
70
192
0
VERTEX
8
OBJECT__13
10
-18.572001
20
9.276000
30
87.121002
70
192
0
VERTEX
8
OBJECT__13
10
-17.035000
20
12.275000
30
89.519997
70
192
0
VERTEX
8
OBJECT__13
10
-20.000000
20
0.000000
30
79.699997
70
192
0
VERTEX
8
OBJECT__13
10
-17.320999
20
48.000000
30
89.699997
70
192
0
VERTEX
8
OBJECT__13
10
-14.502000
20
17.216000
30
93.473000
70
192
0
VERTEX
8
OBJECT__13
10
-9.855000
20
21.393000
30
96.814003
70
192
0
VERTEX
8
OBJECT__13
10
-10.000000
20
48.000000
30
97.021004
70
192
0
VERTEX
8
OBJECT__13
10
-8.441000
20
22.664000
30
97.831001
70
192
0
VERTEX
8
OBJECT__13
10
-1.382000
20
24.940001
30
99.652000
70
192
0
VERTEX
8
OBJECT__13
10
0.000000
20
48.000000
30
99.699997
70
192
0
VERTEX
8
OBJECT__13
10
10.000000
20
48.000000
30
97.021004
70
192
0
VERTEX
8
OBJECT__13
10
-0.021000
20
24.754999
30
99.503998
70
192
0
VERTEX
8
OBJECT__13
10
5.654000
20
23.980000
30
98.884003
70
192
0
VERTEX
8
OBJECT__13
10
17.320999
20
48.000000
30
89.699997
70
192
0
VERTEX
8
OBJECT__13
10
11.940000
20
20.056000
30
95.745003
70
192
0
VERTEX
8
OBJECT__13
10
16.844999
20
13.476000
30
90.481003
70
192
0
VERTEX
8
OBJECT__13
10
9.876000
20
21.344000
30
96.775002
70
192
0
VERTEX
8
OBJECT__13
10
20.000000
20
48.000000
30
79.699997
70
192
0
VERTEX
8
OBJECT__13
10
17.184000
20
12.426000
30
89.640999
70
192
0
VERTEX
8
OBJECT__13
10
19.611000
20
4.905000
30
83.624001
70
192
0
VERTEX
8
OBJECT__13
10
19.611000
20
4.905000
30
75.776001
70
192
0
VERTEX
8
OBJECT__13
10
17.184000
20
12.426000
30
69.759003
70
192
0
VERTEX
8
OBJECT__13
10
20.000000
20
0.000000
30
79.699997
70
192
0
VERTEX
8
OBJECT__13
10
17.320999
20
48.000000
30
69.699997
70
192
0
VERTEX
8
OBJECT__13
10
11.940000
20
20.056000
30
63.654999
70
192
0
VERTEX
8
OBJECT__13
10
9.876000
20
21.344000
30
62.625000
70
192
0
VERTEX
8
OBJECT__13
10
16.844999
20
13.476000
30
68.918999
70
192
0
VERTEX
8
OBJECT__13
10
10.000000
20
48.000000
30
62.379002
70
192
0
VERTEX
8
OBJECT__13
10
5.654000
20
23.980000
30
60.515999
70
192
0
VERTEX
8
OBJECT__13
10
-0.021000
20
24.754999
30
59.896000
70
192
0
VERTEX
8
OBJECT__13
10
-10.000000
20
48.000000
30
62.379002
70
192
0
VERTEX
8
OBJECT__13
10
0.000000
20
48.000000
30
59.700001
70
192
0
VERTEX
8
OBJECT__13
10
-1.382000
20
24.940001
30
59.748001
70
192
0
VERTEX
8
OBJECT__13
10
-8.441000
20
22.664000
30
61.569000
70
192
0
VERTEX
8
OBJECT__13
10
-17.320999
20
48.000000
30
69.699997
70
192
0
VERTEX
8
OBJECT__13
10
-9.855000
20
21.393000
30
62.585999
70
192
0
VERTEX
8
OBJECT__13
10
-14.502000
20
17.216000
30
65.927002
70
192
0
VERTEX
8
OBJECT__13
10
-17.035000
20
12.275000
30
69.879997
70
192
0
VERTEX
8
OBJECT__13
10
-18.572001
20
9.276000
30
72.278999
70
192
0
VERTEX
8
OBJECT__13
10
0
20
0
30
0
70
128
71
1
72
2
73
3
0
VERTEX
8
OBJECT__13
10
0
20
0
30
0
70
128
71
1
72
4
73
2
0
VERTEX
8
OBJECT__13
10
0
20
0
30
0
70
128
71
5
72
6
73
7
0
VERTEX
8
OBJECT__13
10
0
20
0
30
0
70
128
71
5
72
3
73
6
0
VERTEX
8
OBJECT__13
10
0
20
0
30
0
70
128
71
8
72
9
73
10
0
VERTEX
8
OBJECT__13
10
0
20
0
30
0
70
128
71
8
72
7
73
9
0
VERTEX
8
OBJECT__13
10
0
20
0
30
0
70
128
71
10
72
11
73
8
0
VERTEX
8
OBJECT__13
10
0
20
0
30
0
70
128
71
12
72
11
73
13
0
VERTEX
8
OBJECT__13
10
0
20
0
30
0
70
128
71
13
72
14
73
12
0
VERTEX
8
OBJECT__13
10
0
20
0
30
0
70
128
71
15
72
16
73
17
0
VERTEX
8
OBJECT__13
10
0
20
0
30
0
70
128
71
15
72
12
73
18
0
VERTEX
8
OBJECT__13
10
0
20
0
30
0
70
128
71
18
72
16
73
15
0
VERTEX
8
OBJECT__13
10
0
20
0
30
0
70
128
71
19
72
15
73
20
0
VERTEX
8
OBJECT__13
10
0
20
0
30
0
70
128
71
20
72
21
73
19
0
VERTEX
8
OBJECT__13
10
0
20
0
30
0
70
128
71
19
72
22
73
23
0
VERTEX
8
OBJECT__13
10
0
20
0
30
0
70
128
71
19
72
24
73
22
0
VERTEX
8
OBJECT__13
10
0
20
0
30
0
70
128
71
25
72
26
73
27
0
VERTEX
8
OBJECT__13
10
0
20
0
30
0
70
128
71
25
72
23
73
28
0
VERTEX
8
OBJECT__13
10
0
20
0
30
0
70
128
71
28
72
26
73
25
0
VERTEX
8
OBJECT__13
10
0
20
0
30
0
70
128
71
29
72
30
73
31
0
VERTEX
8
OBJECT__13
10
0
20
0
30
0
70
128
71
29
72
27
73
30
0
VERTEX
8
OBJECT__13
10
0
20
0
30
0
70
128
71
32
72
33
73
34
0
VERTEX
8
OBJECT__13
10
0
20
0
30
0
70
128
71
34
72
35
73
32
0
VERTEX
8
OBJECT__13
10
0
20
0
30
0
70
128
71
33
72
31
73
34
0
VERTEX
8
OBJECT__13
10
0
20
0
30
0
70
128
71
36
72
32
73
37
0
VERTEX
8
OBJECT__13
10
0
20
0
30
0
70
128
71
37
72
38
73
36
0
VERTEX
8
OBJECT__13
10
0
20
0
30
0
70
128
71
1
72
36
73
39
0
VERTEX
8
OBJECT__13
10
0
20
0
30
0
70
128
71
39
72
40
73
1
0
VERTEX
8
OBJECT__13
10
0
20
0
30
0
70
128
71
40
72
4
73
1
0
VERTEX
8
OBJECT__13
10
0
20
0
30
0
70
128
71
38
72
39
73
36
0
VERTEX
8
OBJECT__13
10
0
20
0
30
0
70
128
71
35
72
37
73
32
0
VERTEX
8
OBJECT__13
10
0
20
0
30
0
70
128
71
31
72
33
73
29
0
VERTEX
8
OBJECT__13
10
0
20
0
30
0
70
128
71
27
72
29
73
25
0
VERTEX
8
OBJECT__13
10
0
20
0
30
0
70
128
71
23
72
25
73
19
0
VERTEX
8
OBJECT__13
10
0
20
0
30
0
70
128
71
21
72
24
73
19
0
VERTEX
8
OBJECT__13
10
0
20
0
30
0
70
128
71
17
72
20
73
15
0
VERTEX
8
OBJECT__13
10
0
20
0
30
0
70
128
71
14
72
18
73
12
0
VERTEX
8
OBJECT__13
10
0
20
0
30
0
70
128
71
10
72
13
73
11
0
VERTEX
8
OBJECT__13
10
0
20
0
30
0
70
128
71
7
72
8
73
5
0
VERTEX
8
OBJECT__13
10
0
20
0
30
0
70
128
71
3
72
5
73
1
0
SEQEND
8
OBJECT__13
0
POLYLINE
8
OBJECT__15
66
1
70
64
71
36
72
42
62
253
0
VERTEX
8
OBJECT__15
10
-18.403999
20
8.315000
30
88.014999
70
192
0
VERTEX
8
OBJECT__15
10
-18.572001
20
7.421000
30
88.975998
70
192
0
VERTEX
8
OBJECT__15
10
-17.035000
20
9.820000
30
91.974998
70
192
0
VERTEX
8
OBJECT__15
10
-13.976000
20
15.245000
30
94.945000
70
192
0
VERTEX
8
OBJECT__15
10
-17.035000
20
12.275000
30
89.519997
70
192
0
VERTEX
8
OBJECT__15
10
-14.502000
20
17.216000
30
93.473000
70
192
0
VERTEX
8
OBJECT__15
10
-14.502000
20
13.773000
30
96.916000
70
192
0
VERTEX
8
OBJECT__15
10
-9.855000
20
17.114000
30
101.093002
70
192
0
VERTEX
8
OBJECT__15
10
-7.802000
20
19.711000
30
99.411003
70
192
0
VERTEX
8
OBJECT__15
10
-9.855000
20
21.393000
30
96.814003
70
192
0
VERTEX
8
OBJECT__15
10
-8.441000
20
22.664000
30
97.831001
70
192
0
VERTEX
8
OBJECT__15
10
-8.441000
20
18.131001
30
102.363998
70
192
0
VERTEX
8
OBJECT__15
10
-1.382000
20
19.952000
30
104.639999
70
192
0
VERTEX
8
OBJECT__15
10
-1.240000
20
21.422001
30
101.122002
70
192
0
VERTEX
8
OBJECT__15
10
5.144000
20
20.716999
30
100.417000
70
192
0
VERTEX
8
OBJECT__15
10
-0.021000
20
19.804001
30
104.455002
70
192
0
VERTEX
8
OBJECT__15
10
5.654000
20
23.980000
30
98.884003
70
192
0
VERTEX
8
OBJECT__15
10
-0.021000
20
24.754999
30
99.503998
70
192
0
VERTEX
8
OBJECT__15
10
5.654000
20
19.184000
30
103.680000
70
192
0
VERTEX
8
OBJECT__15
10
9.876000
20
17.075001
30
101.043999
70
192
0
VERTEX
8
OBJECT__15
10
11.301000
20
17.620001
30
97.320000
70
192
0
VERTEX
8
OBJECT__15
10
9.876000
20
21.344000
30
96.775002
70
192
0
VERTEX
8
OBJECT__15
10
11.940000
20
20.056000
30
95.745003
70
192
0
VERTEX
8
OBJECT__15
10
11.940000
20
16.045000
30
99.755997
70
192
0
VERTEX
8
OBJECT__15
10
16.844999
20
10.781000
30
93.176003
70
192
0
VERTEX
8
OBJECT__15
10
16.500999
20
12.019000
30
91.719002
70
192
0
VERTEX
8
OBJECT__15
10
16.844999
20
13.476000
30
90.481003
70
192
0
VERTEX
8
OBJECT__15
10
19.563000
20
4.410000
30
84.110001
70
192
0
VERTEX
8
OBJECT__15
10
17.184000
20
9.941000
30
92.125999
70
192
0
VERTEX
8
OBJECT__15
10
19.611000
20
4.905000
30
83.624001
70
192
0
VERTEX
8
OBJECT__15
10
17.184000
20
12.426000
30
89.640999
70
192
0
VERTEX
8
OBJECT__15
10
20.000000
20
0.000000
30
79.699997
70
192
0
VERTEX
8
OBJECT__15
10
19.611000
20
3.924000
30
84.605003
70
192
0
VERTEX
8
OBJECT__15
10
-1.382000
20
24.940001
30
99.652000
70
192
0
VERTEX
8
OBJECT__15
10
-18.572001
20
9.276000
30
87.121002
70
192
0
VERTEX
8
OBJECT__15
10
-20.000000
20
0.000000
30
79.699997
70
192
0
VERTEX
8
OBJECT__15
10
0
20
0
30
0
70
128
71
1
72
2
73
3
0
VERTEX
8
OBJECT__15
10
0
20
0
30
0
70
128
71
3
72
4
73
1
0
VERTEX
8
OBJECT__15
10
0
20
0
30
0
70
128
71
1
72
4
73
5
0
VERTEX
8
OBJECT__15
10
0
20
0
30
0
70
128
71
4
72
6
73
5
0
VERTEX
8
OBJECT__15
10
0
20
0
30
0
70
128
71
4
72
7
73
8
0
VERTEX
8
OBJECT__15
10
0
20
0
30
0
70
128
71
8
72
9
73
4
0
VERTEX
8
OBJECT__15
10
0
20
0
30
0
70
128
71
4
72
9
73
10
0
VERTEX
8
OBJECT__15
10
0
20
0
30
0
70
128
71
9
72
11
73
10
0
VERTEX
8
OBJECT__15
10
0
20
0
30
0
70
128
71
12
72
13
73
14
0
VERTEX
8
OBJECT__15
10
0
20
0
30
0
70
128
71
11
72
9
73
14
0
VERTEX
8
OBJECT__15
10
0
20
0
30
0
70
128
71
15
72
14
73
16
0
VERTEX
8
OBJECT__15
10
0
20
0
30
0
70
128
71
14
72
13
73
16
0
VERTEX
8
OBJECT__15
10
0
20
0
30
0
70
128
71
15
72
17
73
18
0
VERTEX
8
OBJECT__15
10
0
20
0
30
0
70
128
71
18
72
14
73
15
0
VERTEX
8
OBJECT__15
10
0
20
0
30
0
70
128
71
15
72
19
73
20
0
VERTEX
8
OBJECT__15
10
0
20
0
30
0
70
128
71
20
72
21
73
15
0
VERTEX
8
OBJECT__15
10
0
20
0
30
0
70
128
71
15
72
21
73
22
0
VERTEX
8
OBJECT__15
10
0
20
0
30
0
70
128
71
21
72
23
73
22
0
VERTEX
8
OBJECT__15
10
0
20
0
30
0
70
128
71
21
72
24
73
25
0
VERTEX
8
OBJECT__15
10
0
20
0
30
0
70
128
71
21
72
26
73
27
0
VERTEX
8
OBJECT__15
10
0
20
0
30
0
70
128
71
28
72
26
73
29
0
VERTEX
8
OBJECT__15
10
0
20
0
30
0
70
128
71
26
72
25
73
29
0
VERTEX
8
OBJECT__15
10
0
20
0
30
0
70
128
71
28
72
30
73
31
0
VERTEX
8
OBJECT__15
10
0
20
0
30
0
70
128
71
31
72
26
73
28
0
VERTEX
8
OBJECT__15
10
0
20
0
30
0
70
128
71
30
72
28
73
32
0
VERTEX
8
OBJECT__15
10
0
20
0
30
0
70
128
71
28
72
33
73
32
0
VERTEX
8
OBJECT__15
10
0
20
0
30
0
70
128
71
31
72
27
73
26
0
VERTEX
8
OBJECT__15
10
0
20
0
30
0
70
128
71
29
72
33
73
28
0
VERTEX
8
OBJECT__15
10
0
20
0
30
0
70
128
71
27
72
23
73
21
0
VERTEX
8
OBJECT__15
10
0
20
0
30
0
70
128
71
25
72
26
73
21
0
VERTEX
8
OBJECT__15
10
0
20
0
30
0
70
128
71
22
72
17
73
15
0
VERTEX
8
OBJECT__15
10
0
20
0
30
0
70
128
71
20
72
24
73
21
0
VERTEX
8
OBJECT__15
10
0
20
0
30
0
70
128
71
18
72
34
73
14
0
VERTEX
8
OBJECT__15
10
0
20
0
30
0
70
128
71
16
72
19
73
15
0
VERTEX
8
OBJECT__15
10
0
20
0
30
0
70
128
71
14
72
34
73
11
0
VERTEX
8
OBJECT__15
10
0
20
0
30
0
70
128
71
14
72
9
73
12
0
VERTEX
8
OBJECT__15
10
0
20
0
30
0
70
128
71
10
72
6
73
4
0
VERTEX
8
OBJECT__15
10
0
20
0
30
0
70
128
71
8
72
12
73
9
0
VERTEX
8
OBJECT__15
10
0
20
0
30
0
70
128
71
5
72
35
73
1
0
VERTEX
8
OBJECT__15
10
0
20
0
30
0
70
128
71
3
72
7
73
4
0
VERTEX
8
OBJECT__15
10
0
20
0
30
0
70
128
71
36
72
1
73
35
0
VERTEX
8
OBJECT__15
10
0
20
0
30
0
70
128
71
36
72
2
73
1
0
SEQEND
8
OBJECT__15
0
POLYLINE
8
OBJECT__16
66
1
70
64
71
36
72
42
62
253
0
VERTEX
8
OBJECT__16
10
-18.403999
20
8.315000
30
71.385002
70
192
0
VERTEX
8
OBJECT__16
10
-18.572001
20
9.276000
30
72.278999
70
192
0
VERTEX
8
OBJECT__16
10
-17.035000
20
12.275000
30
69.879997
70
192
0
VERTEX
8
OBJECT__16
10
-13.976000
20
15.245000
30
64.455002
70
192
0
VERTEX
8
OBJECT__16
10
-17.035000
20
9.820000
30
67.425003
70
192
0
VERTEX
8
OBJECT__16
10
-14.502000
20
13.773000
30
62.484001
70
192
0
VERTEX
8
OBJECT__16
10
-14.502000
20
17.216000
30
65.927002
70
192
0
VERTEX
8
OBJECT__16
10
-9.855000
20
21.393000
30
62.585999
70
192
0
VERTEX
8
OBJECT__16
10
-7.802000
20
19.711000
30
59.988998
70
192
0
VERTEX
8
OBJECT__16
10
-9.855000
20
17.114000
30
58.306999
70
192
0
VERTEX
8
OBJECT__16
10
-8.441000
20
18.131001
30
57.035999
70
192
0
VERTEX
8
OBJECT__16
10
-8.441000
20
22.664000
30
61.569000
70
192
0
VERTEX
8
OBJECT__16
10
-1.382000
20
24.940001
30
59.748001
70
192
0
VERTEX
8
OBJECT__16
10
-1.240000
20
21.422001
30
58.278000
70
192
0
VERTEX
8
OBJECT__16
10
5.144000
20
20.716999
30
58.983002
70
192
0
VERTEX
8
OBJECT__16
10
-0.021000
20
24.754999
30
59.896000
70
192
0
VERTEX
8
OBJECT__16
10
5.654000
20
19.184000
30
55.720001
70
192
0
VERTEX
8
OBJECT__16
10
-0.021000
20
19.804001
30
54.945000
70
192
0
VERTEX
8
OBJECT__16
10
5.654000
20
23.980000
30
60.515999
70
192
0
VERTEX
8
OBJECT__16
10
9.876000
20
21.344000
30
62.625000
70
192
0
VERTEX
8
OBJECT__16
10
11.301000
20
17.620001
30
62.080002
70
192
0
VERTEX
8
OBJECT__16
10
9.876000
20
17.075001
30
58.355999
70
192
0
VERTEX
8
OBJECT__16
10
11.940000
20
16.045000
30
59.644001
70
192
0
VERTEX
8
OBJECT__16
10
11.940000
20
20.056000
30
63.654999
70
192
0
VERTEX
8
OBJECT__16
10
16.844999
20
13.476000
30
68.918999
70
192
0
VERTEX
8
OBJECT__16
10
16.500999
20
12.019000
30
67.681000
70
192
0
VERTEX
8
OBJECT__16
10
16.844999
20
10.781000
30
66.223999
70
192
0
VERTEX
8
OBJECT__16
10
19.563000
20
4.410000
30
75.290001
70
192
0
VERTEX
8
OBJECT__16
10
17.184000
20
12.426000
30
69.759003
70
192
0
VERTEX
8
OBJECT__16
10
19.611000
20
3.924000
30
74.794998
70
192
0
VERTEX
8
OBJECT__16
10
17.184000
20
9.941000
30
67.274002
70
192
0
VERTEX
8
OBJECT__16
10
20.000000
20
0.000000
30
79.699997
70
192
0
VERTEX
8
OBJECT__16
10
19.611000
20
4.905000
30
75.776001
70
192
0
VERTEX
8
OBJECT__16
10
-1.382000
20
19.952000
30
54.759998
70
192
0
VERTEX
8
OBJECT__16
10
-18.572001
20
7.421000
30
70.424004
70
192
0
VERTEX
8
OBJECT__16
10
-20.000000
20
0.000000
30
79.699997
70
192
0
VERTEX
8
OBJECT__16
10
0
20
0
30
0
70
128
71
1
72
2
73
3
0
VERTEX
8
OBJECT__16
10
0
20
0
30
0
70
128
71
3
72
4
73
1
0
VERTEX
8
OBJECT__16
10
0
20
0
30
0
70
128
71
1
72
4
73
5
0
VERTEX
8
OBJECT__16
10
0
20
0
30
0
70
128
71
4
72
6
73
5
0
VERTEX
8
OBJECT__16
10
0
20
0
30
0
70
128
71
4
72
7
73
8
0
VERTEX
8
OBJECT__16
10
0
20
0
30
0
70
128
71
8
72
9
73
4
0
VERTEX
8
OBJECT__16
10
0
20
0
30
0
70
128
71
4
72
9
73
10
0
VERTEX
8
OBJECT__16
10
0
20
0
30
0
70
128
71
9
72
11
73
10
0
VERTEX
8
OBJECT__16
10
0
20
0
30
0
70
128
71
12
72
13
73
14
0
VERTEX
8
OBJECT__16
10
0
20
0
30
0
70
128
71
11
72
9
73
14
0
VERTEX
8
OBJECT__16
10
0
20
0
30
0
70
128
71
15
72
14
73
16
0
VERTEX
8
OBJECT__16
10
0
20
0
30
0
70
128
71
14
72
13
73
16
0
VERTEX
8
OBJECT__16
10
0
20
0
30
0
70
128
71
15
72
17
73
18
0
VERTEX
8
OBJECT__16
10
0
20
0
30
0
70
128
71
18
72
14
73
15
0
VERTEX
8
OBJECT__16
10
0
20
0
30
0
70
128
71
15
72
19
73
20
0
VERTEX
8
OBJECT__16
10
0
20
0
30
0
70
128
71
20
72
21
73
15
0
VERTEX
8
OBJECT__16
10
0
20
0
30
0
70
128
71
15
72
21
73
22
0
VERTEX
8
OBJECT__16
10
0
20
0
30
0
70
128
71
21
72
23
73
22
0
VERTEX
8
OBJECT__16
10
0
20
0
30
0
70
128
71
21
72
24
73
25
0
VERTEX
8
OBJECT__16
10
0
20
0
30
0
70
128
71
21
72
26
73
27
0
VERTEX
8
OBJECT__16
10
0
20
0
30
0
70
128
71
28
72
26
73
29
0
VERTEX
8
OBJECT__16
10
0
20
0
30
0
70
128
71
26
72
25
73
29
0
VERTEX
8
OBJECT__16
10
0
20
0
30
0
70
128
71
28
72
30
73
31
0
VERTEX
8
OBJECT__16
10
0
20
0
30
0
70
128
71
31
72
26
73
28
0
VERTEX
8
OBJECT__16
10
0
20
0
30
0
70
128
71
30
72
28
73
32
0
VERTEX
8
OBJECT__16
10
0
20
0
30
0
70
128
71
28
72
33
73
32
0
VERTEX
8
OBJECT__16
10
0
20
0
30
0
70
128
71
31
72
27
73
26
0
VERTEX
8
OBJECT__16
10
0
20
0
30
0
70
128
71
29
72
33
73
28
0
VERTEX
8
OBJECT__16
10
0
20
0
30
0
70
128
71
27
72
23
73
21
0
VERTEX
8
OBJECT__16
10
0
20
0
30
0
70
128
71
25
72
26
73
21
0
VERTEX
8
OBJECT__16
10
0
20
0
30
0
70
128
71
22
72
17
73
15
0
VERTEX
8
OBJECT__16
10
0
20
0
30
0
70
128
71
20
72
24
73
21
0
VERTEX
8
OBJECT__16
10
0
20
0
30
0
70
128
71
18
72
34
73
14
0
VERTEX
8
OBJECT__16
10
0
20
0
30
0
70
128
71
16
72
19
73
15
0
VERTEX
8
OBJECT__16
10
0
20
0
30
0
70
128
71
14
72
34
73
11
0
VERTEX
8
OBJECT__16
10
0
20
0
30
0
70
128
71
14
72
9
73
12
0
VERTEX
8
OBJECT__16
10
0
20
0
30
0
70
128
71
10
72
6
73
4
0
VERTEX
8
OBJECT__16
10
0
20
0
30
0
70
128
71
8
72
12
73
9
0
VERTEX
8
OBJECT__16
10
0
20
0
30
0
70
128
71
5
72
35
73
1
0
VERTEX
8
OBJECT__16
10
0
20
0
30
0
70
128
71
3
72
7
73
4
0
VERTEX
8
OBJECT__16
10
0
20
0
30
0
70
128
71
36
72
1
73
35
0
VERTEX
8
OBJECT__16
10
0
20
0
30
0
70
128
71
36
72
2
73
1
0
SEQEND
8
OBJECT__16
0
POLYLINE
8
OBJECT__17
66
1
70
64
71
52
72
54
62
253
0
VERTEX
8
OBJECT__17
10
17.320999
20
-10.000000
30
10.000000
70
192
0
VERTEX
8
OBJECT__17
10
20.000000
20
0.000000
30
10.000000
70
192
0
VERTEX
8
OBJECT__17
10
20.000000
20
0.000000
30
79.699997
70
192
0
VERTEX
8
OBJECT__17
10
17.320999
20
-10.000000
30
111.000000
70
192
0
VERTEX
8
OBJECT__17
10
10.000000
20
-17.320999
30
10.000000
70
192
0
VERTEX
8
OBJECT__17
10
0.000000
20
-20.000000
30
111.000000
70
192
0
VERTEX
8
OBJECT__17
10
0.000000
20
-20.000000
30
10.000000
70
192
0
VERTEX
8
OBJECT__17
10
-10.000000
20
-17.320999
30
10.000000
70
192
0
VERTEX
8
OBJECT__17
10
-17.320999
20
-10.000000
30
111.000000
70
192
0
VERTEX
8
OBJECT__17
10
-17.320999
20
-10.000000
30
10.000000
70
192
0
VERTEX
8
OBJECT__17
10
-20.000000
20
0.000000
30
79.699997
70
192
0
VERTEX
8
OBJECT__17
10
-20.000000
20
0.000000
30
111.000000
70
192
0
VERTEX
8
OBJECT__17
10
20.000000
20
0.000000
30
111.000000
70
192
0
VERTEX
8
OBJECT__17
10
19.611000
20
3.924000
30
84.605003
70
192
0
VERTEX
8
OBJECT__17
10
17.184000
20
9.941000
30
92.125999
70
192
0
VERTEX
8
OBJECT__17
10
17.320999
20
10.000000
30
111.000000
70
192
0
VERTEX
8
OBJECT__17
10
11.940000
20
16.045000
30
99.755997
70
192
0
VERTEX
8
OBJECT__17
10
9.876000
20
17.075001
30
101.043999
70
192
0
VERTEX
8
OBJECT__17
10
16.844999
20
10.781000
30
93.176003
70
192
0
VERTEX
8
OBJECT__17
10
0.000000
20
20.000000
30
111.000000
70
192
0
VERTEX
8
OBJECT__17
10
10.000000
20
17.320999
30
111.000000
70
192
0
VERTEX
8
OBJECT__17
10
5.654000
20
19.184000
30
103.680000
70
192
0
VERTEX
8
OBJECT__17
10
-10.000000
20
17.320999
30
111.000000
70
192
0
VERTEX
8
OBJECT__17
10
-1.382000
20
19.952000
30
104.639999
70
192
0
VERTEX
8
OBJECT__17
10
-8.441000
20
18.131001
30
102.363998
70
192
0
VERTEX
8
OBJECT__17
10
-0.021000
20
19.804001
30
104.455002
70
192
0
VERTEX
8
OBJECT__17
10
-17.320999
20
10.000000
30
111.000000
70
192
0
VERTEX
8
OBJECT__17
10
-9.855000
20
17.114000
30
101.093002
70
192
0
VERTEX
8
OBJECT__17
10
-14.502000
20
13.773000
30
96.916000
70
192
0
VERTEX
8
OBJECT__17
10
-17.035000
20
9.820000
30
91.974998
70
192
0
VERTEX
8
OBJECT__17
10
-18.572001
20
7.421000
30
88.975998
70
192
0
VERTEX
8
OBJECT__17
10
-20.000000
20
0.000000
30
10.000000
70
192
0
VERTEX
8
OBJECT__17
10
-18.572001
20
7.421000
30
70.424004
70
192
0
VERTEX
8
OBJECT__17
10
-17.035000
20
9.820000
30
67.425003
70
192
0
VERTEX
8
OBJECT__17
10
-17.320999
20
10.000000
30
10.000000
70
192
0
VERTEX
8
OBJECT__17
10
-14.502000
20
13.773000
30
62.484001
70
192
0
VERTEX
8
OBJECT__17
10
-9.855000
20
17.114000
30
58.306999
70
192
0
VERTEX
8
OBJECT__17
10
-10.000000
20
17.320999
30
10.000000
70
192
0
VERTEX
8
OBJECT__17
10
-8.441000
20
18.131001
30
57.035999
70
192
0
VERTEX
8
OBJECT__17
10
-1.382000
20
19.952000
30
54.759998
70
192
0
VERTEX
8
OBJECT__17
10
0.000000
20
20.000000
30
10.000000
70
192
0
VERTEX
8
OBJECT__17
10
10.000000
20
17.320999
30
10.000000
70
192
0
VERTEX
8
OBJECT__17
10
-0.021000
20
19.804001
30
54.945000
70
192
0
VERTEX
8
OBJECT__17
10
5.654000
20
19.184000
30
55.720001
70
192
0
VERTEX
8
OBJECT__17
10
17.320999
20
10.000000
30
10.000000
70
192
0
VERTEX
8
OBJECT__17
10
11.940000
20
16.045000
30
59.644001
70
192
0
VERTEX
8
OBJECT__17
10
16.844999
20
10.781000
30
66.223999
70
192
0
VERTEX
8
OBJECT__17
10
9.876000
20
17.075001
30
58.355999
70
192
0
VERTEX
8
OBJECT__17
10
17.184000
20
9.941000
30
67.274002
70
192
0
VERTEX
8
OBJECT__17
10
19.611000
20
3.924000
30
74.794998
70
192
0
VERTEX
8
OBJECT__17
10
-10.000000
20
-17.320999
30
111.000000
70
192
0
VERTEX
8
OBJECT__17
10
10.000000
20
-17.320999
30
111.000000
70
192
0
VERTEX
8
OBJECT__17
10
0
20
0
30
0
70
128
71
1
72
2
73
3
0
VERTEX
8
OBJECT__17
10
0
20
0
30
0
70
128
71
3
72
4
73
1
0
VERTEX
8
OBJECT__17
10
0
20
0
30
0
70
128
71
5
72
1
73
4
0
VERTEX
8
OBJECT__17
10
0
20
0
30
0
70
128
71
6
72
7
73
5
0
VERTEX
8
OBJECT__17
10
0
20
0
30
0
70
128
71
8
72
7
73
6
0
VERTEX
8
OBJECT__17
10
0
20
0
30
0
70
128
71
9
72
10
73
8
0
VERTEX
8
OBJECT__17
10
0
20
0
30
0
70
128
71
10
72
9
73
11
0
VERTEX
8
OBJECT__17
10
0
20
0
30
0
70
128
71
9
72
12
73
11
0
VERTEX
8
OBJECT__17
10
0
20
0
30
0
70
128
71
13
72
14
73
15
0
VERTEX
8
OBJECT__17
10
0
20
0
30
0
70
128
71
13
72
3
73
14
0
VERTEX
8
OBJECT__17
10
0
20
0
30
0
70
128
71
16
72
17
73
18
0
VERTEX
8
OBJECT__17
10
0
20
0
30
0
70
128
71
16
72
15
73
19
0
VERTEX
8
OBJECT__17
10
0
20
0
30
0
70
128
71
19
72
17
73
16
0
VERTEX
8
OBJECT__17
10
0
20
0
30
0
70
128
71
20
72
21
73
22
0
VERTEX
8
OBJECT__17
10
0
20
0
30
0
70
128
71
21
72
18
73
22
0
VERTEX
8
OBJECT__17
10
0
20
0
30
0
70
128
71
23
72
20
73
24
0
VERTEX
8
OBJECT__17
10
0
20
0
30
0
70
128
71
24
72
25
73
23
0
VERTEX
8
OBJECT__17
10
0
20
0
30
0
70
128
71
20
72
26
73
24
0
VERTEX
8
OBJECT__17
10
0
20
0
30
0
70
128
71
27
72
23
73
28
0
VERTEX
8
OBJECT__17
10
0
20
0
30
0
70
128
71
28
72
29
73
27
0
VERTEX
8
OBJECT__17
10
0
20
0
30
0
70
128
71
12
72
27
73
30
0
VERTEX
8
OBJECT__17
10
0
20
0
30
0
70
128
71
30
72
31
73
12
0
VERTEX
8
OBJECT__17
10
0
20
0
30
0
70
128
71
32
72
33
73
34
0
VERTEX
8
OBJECT__17
10
0
20
0
30
0
70
128
71
32
72
11
73
33
0
VERTEX
8
OBJECT__17
10
0
20
0
30
0
70
128
71
35
72
36
73
37
0
VERTEX
8
OBJECT__17
10
0
20
0
30
0
70
128
71
35
72
34
73
36
0
VERTEX
8
OBJECT__17
10
0
20
0
30
0
70
128
71
38
72
39
73
40
0
VERTEX
8
OBJECT__17
10
0
20
0
30
0
70
128
71
38
72
37
73
39
0
VERTEX
8
OBJECT__17
10
0
20
0
30
0
70
128
71
40
72
41
73
38
0
VERTEX
8
OBJECT__17
10
0
20
0
30
0
70
128
71
42
72
41
73
43
0
VERTEX
8
OBJECT__17
10
0
20
0
30
0
70
128
71
43
72
44
73
42
0
VERTEX
8
OBJECT__17
10
0
20
0
30
0
70
128
71
45
72
46
73
47
0
VERTEX
8
OBJECT__17
10
0
20
0
30
0
70
128
71
45
72
42
73
48
0
VERTEX
8
OBJECT__17
10
0
20
0
30
0
70
128
71
48
72
46
73
45
0
VERTEX
8
OBJECT__17
10
0
20
0
30
0
70
128
71
2
72
45
73
49
0
VERTEX
8
OBJECT__17
10
0
20
0
30
0
70
128
71
49
72
50
73
2
0
VERTEX
8
OBJECT__17
10
0
20
0
30
0
70
128
71
50
72
3
73
2
0
VERTEX
8
OBJECT__17
10
0
20
0
30
0
70
128
71
47
72
49
73
45
0
VERTEX
8
OBJECT__17
10
0
20
0
30
0
70
128
71
44
72
48
73
42
0
VERTEX
8
OBJECT__17
10
0
20
0
30
0
70
128
71
40
72
43
73
41
0
VERTEX
8
OBJECT__17
10
0
20
0
30
0
70
128
71
37
72
38
73
35
0
VERTEX
8
OBJECT__17
10
0
20
0
30
0
70
128
71
34
72
35
73
32
0
VERTEX
8
OBJECT__17
10
0
20
0
30
0
70
128
71
31
72
11
73
12
0
VERTEX
8
OBJECT__17
10
0
20
0
30
0
70
128
71
29
72
30
73
27
0
VERTEX
8
OBJECT__17
10
0
20
0
30
0
70
128
71
25
72
28
73
23
0
VERTEX
8
OBJECT__17
10
0
20
0
30
0
70
128
71
22
72
26
73
20
0
VERTEX
8
OBJECT__17
10
0
20
0
30
0
70
128
71
18
72
21
73
16
0
VERTEX
8
OBJECT__17
10
0
20
0
30
0
70
128
71
15
72
16
73
13
0
VERTEX
8
OBJECT__17
10
0
20
0
30
0
70
128
71
11
72
32
73
10
0
VERTEX
8
OBJECT__17
10
0
20
0
30
0
70
128
71
8
72
51
73
9
0
VERTEX
8
OBJECT__17
10
0
20
0
30
0
70
128
71
6
72
51
73
8
0
VERTEX
8
OBJECT__17
10
0
20
0
30
0
70
128
71
5
72
52
73
6
0
VERTEX
8
OBJECT__17
10
0
20
0
30
0
70
128
71
4
72
52
73
5
0
VERTEX
8
OBJECT__17
10
0
20
0
30
0
70
128
71
3
72
13
73
4
0
SEQEND
8
OBJECT__17
0
POLYLINE
8
OBJECT__18
66
1
70
64
71
12
72
10
62
253
0
VERTEX
8
OBJECT__18
10
-10.000000
20
-17.320999
30
111.000000
70
192
0
VERTEX
8
OBJECT__18
10
20.000000
20
0.000000
30
111.000000
70
192
0
VERTEX
8
OBJECT__18
10
17.320999
20
10.000000
30
111.000000
70
192
0
VERTEX
8
OBJECT__18
10
-17.320999
20
10.000000
30
111.000000
70
192
0
VERTEX
8
OBJECT__18
10
-20.000000
20
0.000000
30
111.000000
70
192
0
VERTEX
8
OBJECT__18
10
-17.320999
20
-10.000000
30
111.000000
70
192
0
VERTEX
8
OBJECT__18
10
0.000000
20
20.000000
30
111.000000
70
192
0
VERTEX
8
OBJECT__18
10
-10.000000
20
17.320999
30
111.000000
70
192
0
VERTEX
8
OBJECT__18
10
17.320999
20
-10.000000
30
111.000000
70
192
0
VERTEX
8
OBJECT__18
10
0.000000
20
-20.000000
30
111.000000
70
192
0
VERTEX
8
OBJECT__18
10
10.000000
20
-17.320999
30
111.000000
70
192
0
VERTEX
8
OBJECT__18
10
10.000000
20
17.320999
30
111.000000
70
192
0
VERTEX
8
OBJECT__18
10
0
20
0
30
0
70
128
71
1
72
2
73
3
0
VERTEX
8
OBJECT__18
10
0
20
0
30
0
70
128
71
4
72
5
73
6
0
VERTEX
8
OBJECT__18
10
0
20
0
30
0
70
128
71
1
72
7
73
8
0
VERTEX
8
OBJECT__18
10
0
20
0
30
0
70
128
71
1
72
9
73
2
0
VERTEX
8
OBJECT__18
10
0
20
0
30
0
70
128
71
9
72
1
73
10
0
VERTEX
8
OBJECT__18
10
0
20
0
30
0
70
128
71
8
72
4
73
1
0
VERTEX
8
OBJECT__18
10
0
20
0
30
0
70
128
71
10
72
11
73
9
0
VERTEX
8
OBJECT__18
10
0
20
0
30
0
70
128
71
1
72
12
73
7
0
VERTEX
8
OBJECT__18
10
0
20
0
30
0
70
128
71
6
72
1
73
4
0
VERTEX
8
OBJECT__18
10
0
20
0
30
0
70
128
71
3
72
12
73
1
0
SEQEND
8
OBJECT__18
0
POLYLINE
8
OBJECT__19
66
1
70
64
71
33
72
33
62
253
0
VERTEX
8
OBJECT__19
10
55.811001
20
0.000000
30
161.005005
70
192
0
VERTEX
8
OBJECT__19
10
55.813999
20
0.000000
30
160.298004
70
192
0
VERTEX
8
OBJECT__19
10
56.050999
20
2.556000
30
160.537003
70
192
0
VERTEX
8
OBJECT__19
10
56.695000
20
4.687000
30
161.897003
70
192
0
VERTEX
8
OBJECT__19
10
56.744999
20
4.937000
30
161.238007
70
192
0
VERTEX
8
OBJECT__19
10
57.849998
20
6.983000
30
162.352005
70
192
0
VERTEX
8
OBJECT__19
10
59.110001
20
8.119000
30
164.335007
70
192
0
VERTEX
8
OBJECT__19
10
62.410000
20
9.375000
30
167.664001
70
192
0
VERTEX
8
OBJECT__19
10
60.966000
20
9.539000
30
165.496994
70
192
0
VERTEX
8
OBJECT__19
10
59.289001
20
8.552000
30
163.804993
70
192
0
VERTEX
8
OBJECT__19
10
66.239998
20
8.552000
30
170.819000
70
192
0
VERTEX
8
OBJECT__19
10
65.709000
20
8.119000
30
170.994003
70
192
0
VERTEX
8
OBJECT__19
10
68.124001
20
4.687000
30
173.431000
70
192
0
VERTEX
8
OBJECT__19
10
67.680000
20
6.983000
30
172.272003
70
192
0
VERTEX
8
OBJECT__19
10
69.008003
20
0.000000
30
174.322998
70
192
0
VERTEX
8
OBJECT__19
10
69.478996
20
2.556000
30
174.087997
70
192
0
VERTEX
8
OBJECT__19
10
68.783997
20
4.937000
30
173.386993
70
192
0
VERTEX
8
OBJECT__19
10
68.124001
20
-4.687000
30
173.431000
70
192
0
VERTEX
8
OBJECT__19
10
69.478996
20
-2.556000
30
174.087997
70
192
0
VERTEX
8
OBJECT__19
10
69.716003
20
0.000000
30
174.326996
70
192
0
VERTEX
8
OBJECT__19
10
68.783997
20
-4.937000
30
173.386993
70
192
0
VERTEX
8
OBJECT__19
10
66.239998
20
-8.552000
30
170.819000
70
192
0
VERTEX
8
OBJECT__19
10
65.709000
20
-8.119000
30
170.994003
70
192
0
VERTEX
8
OBJECT__19
10
64.564003
20
-9.539000
30
169.128006
70
192
0
VERTEX
8
OBJECT__19
10
62.410000
20
-9.375000
30
167.664001
70
192
0
VERTEX
8
OBJECT__19
10
62.764999
20
-9.875000
30
167.311996
70
192
0
VERTEX
8
OBJECT__19
10
60.966000
20
-9.539000
30
165.496994
70
192
0
VERTEX
8
OBJECT__19
10
59.110001
20
-8.119000
30
164.335007
70
192
0
VERTEX
8
OBJECT__19
10
59.289001
20
-8.552000
30
163.804993
70
192
0
VERTEX
8
OBJECT__19
10
57.849998
20
-6.983000
30
162.352005
70
192
0
VERTEX
8
OBJECT__19
10
56.695000
20
-4.687000
30
161.897003
70
192
0
VERTEX
8
OBJECT__19
10
56.744999
20
-4.937000
30
161.238007
70
192
0
VERTEX
8
OBJECT__19
10
62.764999
20
9.875000
30
167.311996
70
192
0
VERTEX
8
OBJECT__19
10
0
20
0
30
0
70
128
71
1
72
2
73
3
0
VERTEX
8
OBJECT__19
10
0
20
0
30
0
70
128
71
3
72
4
73
1
0
VERTEX
8
OBJECT__19
10
0
20
0
30
0
70
128
71
4
72
5
73
6
0
VERTEX
8
OBJECT__19
10
0
20
0
30
0
70
128
71
6
72
7
73
4
0
VERTEX
8
OBJECT__19
10
0
20
0
30
0
70
128
71
8
72
7
73
9
0
VERTEX
8
OBJECT__19
10
0
20
0
30
0
70
128
71
7
72
10
73
9
0
VERTEX
8
OBJECT__19
10
0
20
0
30
0
70
128
71
11
72
12
73
8
0
VERTEX
8
OBJECT__19
10
0
20
0
30
0
70
128
71
13
72
12
73
14
0
VERTEX
8
OBJECT__19
10
0
20
0
30
0
70
128
71
12
72
11
73
14
0
VERTEX
8
OBJECT__19
10
0
20
0
30
0
70
128
71
15
72
13
73
16
0
VERTEX
8
OBJECT__19
10
0
20
0
30
0
70
128
71
13
72
17
73
16
0
VERTEX
8
OBJECT__19
10
0
20
0
30
0
70
128
71
18
72
15
73
19
0
VERTEX
8
OBJECT__19
10
0
20
0
30
0
70
128
71
15
72
20
73
19
0
VERTEX
8
OBJECT__19
10
0
20
0
30
0
70
128
71
21
72
22
73
23
0
VERTEX
8
OBJECT__19
10
0
20
0
30
0
70
128
71
23
72
22
73
24
0
VERTEX
8
OBJECT__19
10
0
20
0
30
0
70
128
71
24
72
25
73
23
0
VERTEX
8
OBJECT__19
10
0
20
0
30
0
70
128
71
25
72
26
73
27
0
VERTEX
8
OBJECT__19
10
0
20
0
30
0
70
128
71
27
72
28
73
25
0
VERTEX
8
OBJECT__19
10
0
20
0
30
0
70
128
71
28
72
29
73
30
0
VERTEX
8
OBJECT__19
10
0
20
0
30
0
70
128
71
30
72
31
73
28
0
VERTEX
8
OBJECT__19
10
0
20
0
30
0
70
128
71
32
72
2
73
1
0
VERTEX
8
OBJECT__19
10
0
20
0
30
0
70
128
71
1
72
31
73
32
0
VERTEX
8
OBJECT__19
10
0
20
0
30
0
70
128
71
30
72
32
73
31
0
VERTEX
8
OBJECT__19
10
0
20
0
30
0
70
128
71
27
72
29
73
28
0
VERTEX
8
OBJECT__19
10
0
20
0
30
0
70
128
71
24
72
26
73
25
0
VERTEX
8
OBJECT__19
10
0
20
0
30
0
70
128
71
23
72
18
73
21
0
VERTEX
8
OBJECT__19
10
0
20
0
30
0
70
128
71
19
72
21
73
18
0
VERTEX
8
OBJECT__19
10
0
20
0
30
0
70
128
71
16
72
20
73
15
0
VERTEX
8
OBJECT__19
10
0
20
0
30
0
70
128
71
14
72
17
73
13
0
VERTEX
8
OBJECT__19
10
0
20
0
30
0
70
128
71
8
72
33
73
11
0
VERTEX
8
OBJECT__19
10
0
20
0
30
0
70
128
71
9
72
33
73
8
0
VERTEX
8
OBJECT__19
10
0
20
0
30
0
70
128
71
6
72
10
73
7
0
VERTEX
8
OBJECT__19
10
0
20
0
30
0
70
128
71
3
72
5
73
4
0
SEQEND
8
OBJECT__19
0
POLYLINE
8
OBJECT__20
66
1
70
64
71
39
72
39
62
253
0
VERTEX
8
OBJECT__20
10
59.157001
20
8.877000
30
163.671997
70
192
0
VERTEX
8
OBJECT__20
10
59.289001
20
8.552000
30
163.804993
70
192
0
VERTEX
8
OBJECT__20
10
57.849998
20
6.983000
30
162.352005
70
192
0
VERTEX
8
OBJECT__20
10
61.512001
20
10.094000
30
166.048004
70
192
0
VERTEX
8
OBJECT__20
10
60.966000
20
9.539000
30
165.496994
70
192
0
VERTEX
8
OBJECT__20
10
61.512001
20
-10.094000
30
166.048004
70
192
0
VERTEX
8
OBJECT__20
10
60.966000
20
-9.539000
30
165.496994
70
192
0
VERTEX
8
OBJECT__20
10
62.764999
20
-9.875000
30
167.311996
70
192
0
VERTEX
8
OBJECT__20
10
57.237999
20
6.589000
30
161.735001
70
192
0
VERTEX
8
OBJECT__20
10
56.744999
20
4.937000
30
161.238007
70
192
0
VERTEX
8
OBJECT__20
10
64.017998
20
10.094000
30
168.576996
70
192
0
VERTEX
8
OBJECT__20
10
62.764999
20
9.875000
30
167.311996
70
192
0
VERTEX
8
OBJECT__20
10
66.372002
20
-8.877000
30
170.953003
70
192
0
VERTEX
8
OBJECT__20
10
64.017998
20
-10.094000
30
168.576996
70
192
0
VERTEX
8
OBJECT__20
10
64.564003
20
-9.539000
30
169.128006
70
192
0
VERTEX
8
OBJECT__20
10
59.157001
20
-8.877000
30
163.671997
70
192
0
VERTEX
8
OBJECT__20
10
59.289001
20
-8.552000
30
163.804993
70
192
0
VERTEX
8
OBJECT__20
10
57.237999
20
-6.589000
30
161.735001
70
192
0
VERTEX
8
OBJECT__20
10
57.849998
20
-6.983000
30
162.352005
70
192
0
VERTEX
8
OBJECT__20
10
55.985001
20
3.506000
30
160.470993
70
192
0
VERTEX
8
OBJECT__20
10
66.372002
20
8.877000
30
170.953003
70
192
0
VERTEX
8
OBJECT__20
10
68.292000
20
6.589000
30
172.889999
70
192
0
VERTEX
8
OBJECT__20
10
67.680000
20
6.983000
30
172.272003
70
192
0
VERTEX
8
OBJECT__20
10
69.543999
20
3.506000
30
174.154007
70
192
0
VERTEX
8
OBJECT__20
10
68.783997
20
4.937000
30
173.386993
70
192
0
VERTEX
8
OBJECT__20
10
69.978996
20
0.000000
30
174.593002
70
192
0
VERTEX
8
OBJECT__20
10
69.716003
20
0.000000
30
174.326996
70
192
0
VERTEX
8
OBJECT__20
10
69.478996
20
2.556000
30
174.087997
70
192
0
VERTEX
8
OBJECT__20
10
55.549999
20
0.000000
30
160.031998
70
192
0
VERTEX
8
OBJECT__20
10
56.050999
20
2.556000
30
160.537003
70
192
0
VERTEX
8
OBJECT__20
10
69.543999
20
-3.506000
30
174.154007
70
192
0
VERTEX
8
OBJECT__20
10
69.478996
20
-2.556000
30
174.087997
70
192
0
VERTEX
8
OBJECT__20
10
68.292000
20
-6.589000
30
172.889999
70
192
0
VERTEX
8
OBJECT__20
10
68.783997
20
-4.937000
30
173.386993
70
192
0
VERTEX
8
OBJECT__20
10
55.985001
20
-3.506000
30
160.470993
70
192
0
VERTEX
8
OBJECT__20
10
56.744999
20
-4.937000
30
161.238007
70
192
0
VERTEX
8
OBJECT__20
10
66.239998
20
8.552000
30
170.819000
70
192
0
VERTEX
8
OBJECT__20
10
55.813999
20
0.000000
30
160.298004
70
192
0
VERTEX
8
OBJECT__20
10
66.239998
20
-8.552000
30
170.819000
70
192
0
VERTEX
8
OBJECT__20
10
0
20
0
30
0
70
128
71
1
72
2
73
3
0
VERTEX
8
OBJECT__20
10
0
20
0
30
0
70
128
71
1
72
4
73
5
0
VERTEX
8
OBJECT__20
10
0
20
0
30
0
70
128
71
6
72
7
73
8
0
VERTEX
8
OBJECT__20
10
0
20
0
30
0
70
128
71
9
72
3
73
10
0
VERTEX
8
OBJECT__20
10
0
20
0
30
0
70
128
71
5
72
2
73
1
0
VERTEX
8
OBJECT__20
10
0
20
0
30
0
70
128
71
4
72
11
73
12
0
VERTEX
8
OBJECT__20
10
0
20
0
30
0
70
128
71
13
72
14
73
15
0
VERTEX
8
OBJECT__20
10
0
20
0
30
0
70
128
71
8
72
14
73
6
0
VERTEX
8
OBJECT__20
10
0
20
0
30
0
70
128
71
16
72
17
73
7
0
VERTEX
8
OBJECT__20
10
0
20
0
30
0
70
128
71
16
72
18
73
19
0
VERTEX
8
OBJECT__20
10
0
20
0
30
0
70
128
71
10
72
20
73
9
0
VERTEX
8
OBJECT__20
10
0
20
0
30
0
70
128
71
12
72
5
73
4
0
VERTEX
8
OBJECT__20
10
0
20
0
30
0
70
128
71
21
72
22
73
23
0
VERTEX
8
OBJECT__20
10
0
20
0
30
0
70
128
71
22
72
24
73
25
0
VERTEX
8
OBJECT__20
10
0
20
0
30
0
70
128
71
26
72
27
73
28
0
VERTEX
8
OBJECT__20
10
0
20
0
30
0
70
128
71
8
72
15
73
14
0
VERTEX
8
OBJECT__20
10
0
20
0
30
0
70
128
71
19
72
17
73
16
0
VERTEX
8
OBJECT__20
10
0
20
0
30
0
70
128
71
29
72
20
73
30
0
VERTEX
8
OBJECT__20
10
0
20
0
30
0
70
128
71
3
72
9
73
1
0
VERTEX
8
OBJECT__20
10
0
20
0
30
0
70
128
71
25
72
23
73
22
0
VERTEX
8
OBJECT__20
10
0
20
0
30
0
70
128
71
28
72
24
73
26
0
VERTEX
8
OBJECT__20
10
0
20
0
30
0
70
128
71
26
72
31
73
32
0
VERTEX
8
OBJECT__20
10
0
20
0
30
0
70
128
71
31
72
33
73
34
0
VERTEX
8
OBJECT__20
10
0
20
0
30
0
70
128
71
7
72
6
73
16
0
VERTEX
8
OBJECT__20
10
0
20
0
30
0
70
128
71
18
72
35
73
36
0
VERTEX
8
OBJECT__20
10
0
20
0
30
0
70
128
71
10
72
30
73
20
0
VERTEX
8
OBJECT__20
10
0
20
0
30
0
70
128
71
37
72
12
73
11
0
VERTEX
8
OBJECT__20
10
0
20
0
30
0
70
128
71
28
72
25
73
24
0
VERTEX
8
OBJECT__20
10
0
20
0
30
0
70
128
71
34
72
32
73
31
0
VERTEX
8
OBJECT__20
10
0
20
0
30
0
70
128
71
36
72
19
73
18
0
VERTEX
8
OBJECT__20
10
0
20
0
30
0
70
128
71
38
72
36
73
35
0
VERTEX
8
OBJECT__20
10
0
20
0
30
0
70
128
71
11
72
21
73
37
0
VERTEX
8
OBJECT__20
10
0
20
0
30
0
70
128
71
32
72
27
73
26
0
VERTEX
8
OBJECT__20
10
0
20
0
30
0
70
128
71
39
72
34
73
33
0
VERTEX
8
OBJECT__20
10
0
20
0
30
0
70
128
71
35
72
29
73
38
0
VERTEX
8
OBJECT__20
10
0
20
0
30
0
70
128
71
23
72
37
73
21
0
VERTEX
8
OBJECT__20
10
0
20
0
30
0
70
128
71
15
72
39
73
13
0
VERTEX
8
OBJECT__20
10
0
20
0
30
0
70
128
71
33
72
13
73
39
0
VERTEX
8
OBJECT__20
10
0
20
0
30
0
70
128
71
30
72
38
73
29
0
SEQEND
8
OBJECT__20
0
POLYLINE
8
OBJECT__22
66
1
70
64
71
69
72
69
62
253
0
VERTEX
8
OBJECT__22
10
64.017998
20
-10.094000
30
168.576996
70
192
0
VERTEX
8
OBJECT__22
10
64.397003
20
-10.321000
30
166.003006
70
192
0
VERTEX
8
OBJECT__22
10
62.515999
20
-10.185000
30
165.500000
70
192
0
VERTEX
8
OBJECT__22
10
67.226997
20
-10.154000
30
166.020996
70
192
0
VERTEX
8
OBJECT__22
10
66.372002
20
-8.877000
30
170.953003
70
192
0
VERTEX
8
OBJECT__22
10
72.514000
20
-9.132000
30
165.074005
70
192
0
VERTEX
8
OBJECT__22
10
72.421997
20
-9.164000
30
165.098007
70
192
0
VERTEX
8
OBJECT__22
10
67.883003
20
-10.074000
30
165.951996
70
192
0
VERTEX
8
OBJECT__22
10
61.512001
20
-10.094000
30
166.048004
70
192
0
VERTEX
8
OBJECT__22
10
57.237999
20
-6.589000
30
161.735001
70
192
0
VERTEX
8
OBJECT__22
10
59.157001
20
-8.877000
30
163.671997
70
192
0
VERTEX
8
OBJECT__22
10
59.060001
20
-8.288000
30
162.425003
70
192
0
VERTEX
8
OBJECT__22
10
58.525002
20
-7.349000
30
161.567001
70
192
0
VERTEX
8
OBJECT__22
10
59.389000
20
-8.664000
30
162.878006
70
192
0
VERTEX
8
OBJECT__22
10
60.903000
20
-9.726000
30
164.501007
70
192
0
VERTEX
8
OBJECT__22
10
62.237999
20
-10.106000
30
165.328003
70
192
0
VERTEX
8
OBJECT__22
10
55.985001
20
-3.506000
30
160.470993
70
192
0
VERTEX
8
OBJECT__22
10
57.827000
20
-5.995000
30
160.417999
70
192
0
VERTEX
8
OBJECT__22
10
57.980000
20
-6.392000
30
160.692993
70
192
0
VERTEX
8
OBJECT__22
10
58.092999
20
-6.591000
30
160.873993
70
192
0
VERTEX
8
OBJECT__22
10
55.549999
20
0.000000
30
160.031998
70
192
0
VERTEX
8
OBJECT__22
10
57.109001
20
-3.047000
30
159.044998
70
192
0
VERTEX
8
OBJECT__22
10
56.895000
20
-0.377000
30
158.610992
70
192
0
VERTEX
8
OBJECT__22
10
57.194000
20
-3.573000
30
159.214996
70
192
0
VERTEX
8
OBJECT__22
10
56.894001
20
0.000000
30
158.610992
70
192
0
VERTEX
8
OBJECT__22
10
56.894001
20
0.357000
30
158.610001
70
192
0
VERTEX
8
OBJECT__22
10
57.105000
20
3.023000
30
159.037994
70
192
0
VERTEX
8
OBJECT__22
10
55.985001
20
3.506000
30
160.470993
70
192
0
VERTEX
8
OBJECT__22
10
57.223000
20
3.736000
30
159.272995
70
192
0
VERTEX
8
OBJECT__22
10
57.875000
20
6.125000
30
160.505005
70
192
0
VERTEX
8
OBJECT__22
10
57.237999
20
6.589000
30
161.735001
70
192
0
VERTEX
8
OBJECT__22
10
58.076000
20
6.615000
30
160.860001
70
192
0
VERTEX
8
OBJECT__22
10
59.157001
20
8.877000
30
163.671997
70
192
0
VERTEX
8
OBJECT__22
10
59.240002
20
8.502000
30
162.677994
70
192
0
VERTEX
8
OBJECT__22
10
60.814999
20
9.686000
30
164.427002
70
192
0
VERTEX
8
OBJECT__22
10
58.523998
20
7.351000
30
161.561996
70
192
0
VERTEX
8
OBJECT__22
10
58.096001
20
6.665000
30
160.897003
70
192
0
VERTEX
8
OBJECT__22
10
61.512001
20
10.094000
30
166.048004
70
192
0
VERTEX
8
OBJECT__22
10
66.372002
20
8.877000
30
170.953003
70
192
0
VERTEX
8
OBJECT__22
10
67.325996
20
10.143000
30
166.011002
70
192
0
VERTEX
8
OBJECT__22
10
70.524002
20
9.619000
30
165.514999
70
192
0
VERTEX
8
OBJECT__22
10
64.017998
20
10.094000
30
168.576996
70
192
0
VERTEX
8
OBJECT__22
10
64.648003
20
10.321000
30
166.033005
70
192
0
VERTEX
8
OBJECT__22
10
62.583000
20
10.195000
30
165.529007
70
192
0
VERTEX
8
OBJECT__22
10
62.248001
20
10.099000
30
165.320007
70
192
0
VERTEX
8
OBJECT__22
10
68.292000
20
6.589000
30
172.889999
70
192
0
VERTEX
8
OBJECT__22
10
74.710999
20
8.454000
30
164.524002
70
192
0
VERTEX
8
OBJECT__22
10
77.009003
20
7.523000
30
163.897003
70
192
0
VERTEX
8
OBJECT__22
10
72.499001
20
9.070000
30
165.048004
70
192
0
VERTEX
8
OBJECT__22
10
69.543999
20
3.506000
30
174.154007
70
192
0
VERTEX
8
OBJECT__22
10
80.249001
20
5.633000
30
162.957001
70
192
0
VERTEX
8
OBJECT__22
10
80.683998
20
5.296000
30
162.828003
70
192
0
VERTEX
8
OBJECT__22
10
77.249001
20
7.383000
30
163.828003
70
192
0
VERTEX
8
OBJECT__22
10
82.227997
20
3.703000
30
162.360001
70
192
0
VERTEX
8
OBJECT__22
10
69.978996
20
0.000000
30
174.593002
70
192
0
VERTEX
8
OBJECT__22
10
82.540001
20
3.381000
30
162.266006
70
192
0
VERTEX
8
OBJECT__22
10
83.482002
20
1.563000
30
161.977005
70
192
0
VERTEX
8
OBJECT__22
10
82.440002
20
-3.517000
30
162.296997
70
192
0
VERTEX
8
OBJECT__22
10
82.250999
20
-3.708000
30
162.354004
70
192
0
VERTEX
8
OBJECT__22
10
83.721001
20
0.000000
30
161.903000
70
192
0
VERTEX
8
OBJECT__22
10
83.730003
20
-0.065000
30
161.899994
70
192
0
VERTEX
8
OBJECT__22
10
83.442001
20
-1.683000
30
161.988998
70
192
0
VERTEX
8
OBJECT__22
10
69.543999
20
-3.506000
30
174.154007
70
192
0
VERTEX
8
OBJECT__22
10
80.264999
20
-5.621000
30
162.953003
70
192
0
VERTEX
8
OBJECT__22
10
77.306999
20
-7.382000
30
163.813004
70
192
0
VERTEX
8
OBJECT__22
10
80.667999
20
-5.309000
30
162.832001
70
192
0
VERTEX
8
OBJECT__22
10
77.286003
20
-7.392000
30
163.819000
70
192
0
VERTEX
8
OBJECT__22
10
76.632004
20
-7.694000
30
164.003006
70
192
0
VERTEX
8
OBJECT__22
10
68.292000
20
-6.589000
30
172.889999
70
192
0
VERTEX
8
OBJECT__22
10
0
20
0
30
0
70
128
71
1
72
2
73
3
0
VERTEX
8
OBJECT__22
10
0
20
0
30
0
70
128
71
4
72
2
73
1
0
VERTEX
8
OBJECT__22
10
0
20
0
30
0
70
128
71
5
72
6
73
7
0
VERTEX
8
OBJECT__22
10
0
20
0
30
0
70
128
71
7
72
8
73
5
0
VERTEX
8
OBJECT__22
10
0
20
0
30
0
70
128
71
8
72
4
73
5
0
VERTEX
8
OBJECT__22
10
0
20
0
30
0
70
128
71
1
72
5
73
4
0
VERTEX
8
OBJECT__22
10
0
20
0
30
0
70
128
71
3
72
9
73
1
0
VERTEX
8
OBJECT__22
10
0
20
0
30
0
70
128
71
10
72
11
73
12
0
VERTEX
8
OBJECT__22
10
0
20
0
30
0
70
128
71
12
72
13
73
10
0
VERTEX
8
OBJECT__22
10
0
20
0
30
0
70
128
71
11
72
14
73
12
0
VERTEX
8
OBJECT__22
10
0
20
0
30
0
70
128
71
11
72
9
73
15
0
VERTEX
8
OBJECT__22
10
0
20
0
30
0
70
128
71
15
72
14
73
11
0
VERTEX
8
OBJECT__22
10
0
20
0
30
0
70
128
71
9
72
16
73
15
0
VERTEX
8
OBJECT__22
10
0
20
0
30
0
70
128
71
17
72
10
73
18
0
VERTEX
8
OBJECT__22
10
0
20
0
30
0
70
128
71
10
72
19
73
18
0
VERTEX
8
OBJECT__22
10
0
20
0
30
0
70
128
71
10
72
20
73
19
0
VERTEX
8
OBJECT__22
10
0
20
0
30
0
70
128
71
21
72
17
73
22
0
VERTEX
8
OBJECT__22
10
0
20
0
30
0
70
128
71
22
72
23
73
21
0
VERTEX
8
OBJECT__22
10
0
20
0
30
0
70
128
71
17
72
24
73
22
0
VERTEX
8
OBJECT__22
10
0
20
0
30
0
70
128
71
23
72
25
73
21
0
VERTEX
8
OBJECT__22
10
0
20
0
30
0
70
128
71
21
72
26
73
27
0
VERTEX
8
OBJECT__22
10
0
20
0
30
0
70
128
71
21
72
25
73
26
0
VERTEX
8
OBJECT__22
10
0
20
0
30
0
70
128
71
27
72
28
73
21
0
VERTEX
8
OBJECT__22
10
0
20
0
30
0
70
128
71
28
72
29
73
30
0
VERTEX
8
OBJECT__22
10
0
20
0
30
0
70
128
71
30
72
31
73
28
0
VERTEX
8
OBJECT__22
10
0
20
0
30
0
70
128
71
30
72
32
73
31
0
VERTEX
8
OBJECT__22
10
0
20
0
30
0
70
128
71
33
72
34
73
35
0
VERTEX
8
OBJECT__22
10
0
20
0
30
0
70
128
71
31
72
36
73
34
0
VERTEX
8
OBJECT__22
10
0
20
0
30
0
70
128
71
31
72
37
73
36
0
VERTEX
8
OBJECT__22
10
0
20
0
30
0
70
128
71
31
72
32
73
37
0
VERTEX
8
OBJECT__22
10
0
20
0
30
0
70
128
71
34
72
33
73
31
0
VERTEX
8
OBJECT__22
10
0
20
0
30
0
70
128
71
35
72
38
73
33
0
VERTEX
8
OBJECT__22
10
0
20
0
30
0
70
128
71
39
72
40
73
41
0
VERTEX
8
OBJECT__22
10
0
20
0
30
0
70
128
71
40
72
39
73
42
0
VERTEX
8
OBJECT__22
10
0
20
0
30
0
70
128
71
42
72
43
73
40
0
VERTEX
8
OBJECT__22
10
0
20
0
30
0
70
128
71
42
72
38
73
44
0
VERTEX
8
OBJECT__22
10
0
20
0
30
0
70
128
71
44
72
43
73
42
0
VERTEX
8
OBJECT__22
10
0
20
0
30
0
70
128
71
38
72
45
73
44
0
VERTEX
8
OBJECT__22
10
0
20
0
30
0
70
128
71
46
72
47
73
48
0
VERTEX
8
OBJECT__22
10
0
20
0
30
0
70
128
71
46
72
39
73
49
0
VERTEX
8
OBJECT__22
10
0
20
0
30
0
70
128
71
49
72
47
73
46
0
VERTEX
8
OBJECT__22
10
0
20
0
30
0
70
128
71
50
72
51
73
52
0
VERTEX
8
OBJECT__22
10
0
20
0
30
0
70
128
71
50
72
46
73
53
0
VERTEX
8
OBJECT__22
10
0
20
0
30
0
70
128
71
53
72
51
73
50
0
VERTEX
8
OBJECT__22
10
0
20
0
30
0
70
128
71
52
72
54
73
50
0
VERTEX
8
OBJECT__22
10
0
20
0
30
0
70
128
71
55
72
56
73
57
0
VERTEX
8
OBJECT__22
10
0
20
0
30
0
70
128
71
55
72
50
73
54
0
VERTEX
8
OBJECT__22
10
0
20
0
30
0
70
128
71
54
72
56
73
55
0
VERTEX
8
OBJECT__22
10
0
20
0
30
0
70
128
71
55
72
58
73
59
0
VERTEX
8
OBJECT__22
10
0
20
0
30
0
70
128
71
55
72
60
73
61
0
VERTEX
8
OBJECT__22
10
0
20
0
30
0
70
128
71
61
72
62
73
55
0
VERTEX
8
OBJECT__22
10
0
20
0
30
0
70
128
71
62
72
58
73
55
0
VERTEX
8
OBJECT__22
10
0
20
0
30
0
70
128
71
59
72
63
73
55
0
VERTEX
8
OBJECT__22
10
0
20
0
30
0
70
128
71
63
72
64
73
65
0
VERTEX
8
OBJECT__22
10
0
20
0
30
0
70
128
71
63
72
59
73
66
0
VERTEX
8
OBJECT__22
10
0
20
0
30
0
70
128
71
66
72
64
73
63
0
VERTEX
8
OBJECT__22
10
0
20
0
30
0
70
128
71
5
72
67
73
68
0
VERTEX
8
OBJECT__22
10
0
20
0
30
0
70
128
71
69
72
65
73
67
0
VERTEX
8
OBJECT__22
10
0
20
0
30
0
70
128
71
67
72
5
73
69
0
VERTEX
8
OBJECT__22
10
0
20
0
30
0
70
128
71
68
72
6
73
5
0
VERTEX
8
OBJECT__22
10
0
20
0
30
0
70
128
71
65
72
69
73
63
0
VERTEX
8
OBJECT__22
10
0
20
0
30
0
70
128
71
57
72
60
73
55
0
VERTEX
8
OBJECT__22
10
0
20
0
30
0
70
128
71
48
72
53
73
46
0
VERTEX
8
OBJECT__22
10
0
20
0
30
0
70
128
71
41
72
49
73
39
0
VERTEX
8
OBJECT__22
10
0
20
0
30
0
70
128
71
35
72
45
73
38
0
VERTEX
8
OBJECT__22
10
0
20
0
30
0
70
128
71
27
72
29
73
28
0
VERTEX
8
OBJECT__22
10
0
20
0
30
0
70
128
71
18
72
24
73
17
0
VERTEX
8
OBJECT__22
10
0
20
0
30
0
70
128
71
13
72
20
73
10
0
VERTEX
8
OBJECT__22
10
0
20
0
30
0
70
128
71
3
72
16
73
9
0
SEQEND
8
OBJECT__22
0
POLYLINE
8
OBJECT__23
66
1
70
64
71
82
72
84
62
253
0
VERTEX
8
OBJECT__23
10
88.242996
20
11.325000
30
172.028000
70
192
0
VERTEX
8
OBJECT__23
10
35.293999
20
11.416000
30
166.141998
70
192
0
VERTEX
8
OBJECT__23
10
34.627998
20
10.753000
30
171.565994
70
192
0
VERTEX
8
OBJECT__23
10
87.299004
20
9.959000
30
179.718002
70
192
0
VERTEX
8
OBJECT__23
10
35.362999
20
11.202000
30
165.582001
70
192
0
VERTEX
8
OBJECT__23
10
86.682999
20
3.933000
30
184.735992
70
192
0
VERTEX
8
OBJECT__23
10
34.076000
20
7.626000
30
176.061996
70
192
0
VERTEX
8
OBJECT__23
10
34.445000
20
9.715000
30
173.057999
70
192
0
VERTEX
8
OBJECT__23
10
33.833000
20
3.826000
30
178.041000
70
192
0
VERTEX
8
OBJECT__23
10
33.764000
20
2.752000
30
178.600998
70
192
0
VERTEX
8
OBJECT__23
10
33.764000
20
-2.752000
30
178.600998
70
192
0
VERTEX
8
OBJECT__23
10
86.682999
20
-3.933000
30
184.735992
70
192
0
VERTEX
8
OBJECT__23
10
86.598999
20
0.000000
30
185.425003
70
192
0
VERTEX
8
OBJECT__23
10
33.833000
20
-3.826000
30
178.041000
70
192
0
VERTEX
8
OBJECT__23
10
34.076000
20
-7.626000
30
176.061996
70
192
0
VERTEX
8
OBJECT__23
10
87.299004
20
-9.959000
30
179.718002
70
192
0
VERTEX
8
OBJECT__23
10
88.242996
20
-11.325000
30
172.028000
70
192
0
VERTEX
8
OBJECT__23
10
34.627998
20
-10.753000
30
171.565994
70
192
0
VERTEX
8
OBJECT__23
10
35.293999
20
-11.416000
30
166.141998
70
192
0
VERTEX
8
OBJECT__23
10
34.445000
20
-9.715000
30
173.057999
70
192
0
VERTEX
8
OBJECT__23
10
89.073997
20
7.392000
30
165.266998
70
192
0
VERTEX
8
OBJECT__23
10
80.683998
20
5.296000
30
162.828003
70
192
0
VERTEX
8
OBJECT__23
10
80.249001
20
5.633000
30
162.957001
70
192
0
VERTEX
8
OBJECT__23
10
82.540001
20
3.381000
30
162.266006
70
192
0
VERTEX
8
OBJECT__23
10
82.227997
20
3.703000
30
162.360001
70
192
0
VERTEX
8
OBJECT__23
10
83.482002
20
1.563000
30
161.977005
70
192
0
VERTEX
8
OBJECT__23
10
89.401001
20
0.000000
30
162.595993
70
192
0
VERTEX
8
OBJECT__23
10
83.721001
20
0.000000
30
161.903000
70
192
0
VERTEX
8
OBJECT__23
10
35.921001
20
9.464000
30
161.033997
70
192
0
VERTEX
8
OBJECT__23
10
59.240002
20
8.502000
30
162.677994
70
192
0
VERTEX
8
OBJECT__23
10
58.523998
20
7.351000
30
161.561996
70
192
0
VERTEX
8
OBJECT__23
10
36.168999
20
7.173000
30
159.020004
70
192
0
VERTEX
8
OBJECT__23
10
60.814999
20
9.686000
30
164.427002
70
192
0
VERTEX
8
OBJECT__23
10
62.583000
20
10.195000
30
165.529007
70
192
0
VERTEX
8
OBJECT__23
10
62.248001
20
10.099000
30
165.320007
70
192
0
VERTEX
8
OBJECT__23
10
64.648003
20
10.321000
30
166.033005
70
192
0
VERTEX
8
OBJECT__23
10
74.710999
20
8.454000
30
164.524002
70
192
0
VERTEX
8
OBJECT__23
10
72.499001
20
9.070000
30
165.048004
70
192
0
VERTEX
8
OBJECT__23
10
77.009003
20
7.523000
30
163.897003
70
192
0
VERTEX
8
OBJECT__23
10
77.249001
20
7.383000
30
163.828003
70
192
0
VERTEX
8
OBJECT__23
10
70.524002
20
9.619000
30
165.514999
70
192
0
VERTEX
8
OBJECT__23
10
67.325996
20
10.143000
30
166.011002
70
192
0
VERTEX
8
OBJECT__23
10
36.366001
20
5.344000
30
157.410995
70
192
0
VERTEX
8
OBJECT__23
10
57.105000
20
3.023000
30
159.037994
70
192
0
VERTEX
8
OBJECT__23
10
56.894001
20
0.357000
30
158.610001
70
192
0
VERTEX
8
OBJECT__23
10
57.223000
20
3.736000
30
159.272995
70
192
0
VERTEX
8
OBJECT__23
10
57.875000
20
6.125000
30
160.505005
70
192
0
VERTEX
8
OBJECT__23
10
36.527000
20
0.000000
30
156.104004
70
192
0
VERTEX
8
OBJECT__23
10
58.096001
20
6.665000
30
160.897003
70
192
0
VERTEX
8
OBJECT__23
10
58.076000
20
6.615000
30
160.860001
70
192
0
VERTEX
8
OBJECT__23
10
36.168999
20
-7.173000
30
159.020004
70
192
0
VERTEX
8
OBJECT__23
10
57.980000
20
-6.392000
30
160.692993
70
192
0
VERTEX
8
OBJECT__23
10
58.092999
20
-6.591000
30
160.873993
70
192
0
VERTEX
8
OBJECT__23
10
57.194000
20
-3.573000
30
159.214996
70
192
0
VERTEX
8
OBJECT__23
10
36.366001
20
-5.344000
30
157.410995
70
192
0
VERTEX
8
OBJECT__23
10
56.895000
20
-0.377000
30
158.610992
70
192
0
VERTEX
8
OBJECT__23
10
57.109001
20
-3.047000
30
159.044998
70
192
0
VERTEX
8
OBJECT__23
10
56.894001
20
0.000000
30
158.610992
70
192
0
VERTEX
8
OBJECT__23
10
57.827000
20
-5.995000
30
160.417999
70
192
0
VERTEX
8
OBJECT__23
10
76.632004
20
-7.694000
30
164.003006
70
192
0
VERTEX
8
OBJECT__23
10
77.286003
20
-7.392000
30
163.819000
70
192
0
VERTEX
8
OBJECT__23
10
72.421997
20
-9.164000
30
165.098007
70
192
0
VERTEX
8
OBJECT__23
10
72.514000
20
-9.132000
30
165.074005
70
192
0
VERTEX
8
OBJECT__23
10
67.226997
20
-10.154000
30
166.020996
70
192
0
VERTEX
8
OBJECT__23
10
67.883003
20
-10.074000
30
165.951996
70
192
0
VERTEX
8
OBJECT__23
10
35.362999
20
-11.202000
30
165.582001
70
192
0
VERTEX
8
OBJECT__23
10
64.397003
20
-10.321000
30
166.003006
70
192
0
VERTEX
8
OBJECT__23
10
62.515999
20
-10.185000
30
165.500000
70
192
0
VERTEX
8
OBJECT__23
10
60.903000
20
-9.726000
30
164.501007
70
192
0
VERTEX
8
OBJECT__23
10
62.237999
20
-10.106000
30
165.328003
70
192
0
VERTEX
8
OBJECT__23
10
35.921001
20
-9.464000
30
161.033997
70
192
0
VERTEX
8
OBJECT__23
10
58.525002
20
-7.349000
30
161.567001
70
192
0
VERTEX
8
OBJECT__23
10
59.060001
20
-8.288000
30
162.425003
70
192
0
VERTEX
8
OBJECT__23
10
59.389000
20
-8.664000
30
162.878006
70
192
0
VERTEX
8
OBJECT__23
10
89.073997
20
-7.392000
30
165.266998
70
192
0
VERTEX
8
OBJECT__23
10
83.442001
20
-1.683000
30
161.988998
70
192
0
VERTEX
8
OBJECT__23
10
80.667999
20
-5.309000
30
162.832001
70
192
0
VERTEX
8
OBJECT__23
10
82.250999
20
-3.708000
30
162.354004
70
192
0
VERTEX
8
OBJECT__23
10
77.306999
20
-7.382000
30
163.813004
70
192
0
VERTEX
8
OBJECT__23
10
80.264999
20
-5.621000
30
162.953003
70
192
0
VERTEX
8
OBJECT__23
10
82.440002
20
-3.517000
30
162.296997
70
192
0
VERTEX
8
OBJECT__23
10
83.730003
20
-0.065000
30
161.899994
70
192
0
VERTEX
8
OBJECT__23
10
0
20
0
30
0
70
128
71
1
72
2
73
3
0
VERTEX
8
OBJECT__23
10
0
20
0
30
0
70
128
71
3
72
4
73
1
0
VERTEX
8
OBJECT__23
10
0
20
0
30
0
70
128
71
1
72
5
73
2
0
VERTEX
8
OBJECT__23
10
0
20
0
30
0
70
128
71
6
72
4
73
7
0
VERTEX
8
OBJECT__23
10
0
20
0
30
0
70
128
71
4
72
8
73
7
0
VERTEX
8
OBJECT__23
10
0
20
0
30
0
70
128
71
6
72
9
73
10
0
VERTEX
8
OBJECT__23
10
0
20
0
30
0
70
128
71
11
72
12
73
13
0
VERTEX
8
OBJECT__23
10
0
20
0
30
0
70
128
71
13
72
10
73
11
0
VERTEX
8
OBJECT__23
10
0
20
0
30
0
70
128
71
11
72
14
73
12
0
VERTEX
8
OBJECT__23
10
0
20
0
30
0
70
128
71
12
72
14
73
15
0
VERTEX
8
OBJECT__23
10
0
20
0
30
0
70
128
71
15
72
16
73
12
0
VERTEX
8
OBJECT__23
10
0
20
0
30
0
70
128
71
17
72
16
73
18
0
VERTEX
8
OBJECT__23
10
0
20
0
30
0
70
128
71
18
72
19
73
17
0
VERTEX
8
OBJECT__23
10
0
20
0
30
0
70
128
71
16
72
20
73
18
0
VERTEX
8
OBJECT__23
10
0
20
0
30
0
70
128
71
21
72
22
73
23
0
VERTEX
8
OBJECT__23
10
0
20
0
30
0
70
128
71
21
72
24
73
25
0
VERTEX
8
OBJECT__23
10
0
20
0
30
0
70
128
71
25
72
22
73
21
0
VERTEX
8
OBJECT__23
10
0
20
0
30
0
70
128
71
21
72
26
73
24
0
VERTEX
8
OBJECT__23
10
0
20
0
30
0
70
128
71
27
72
28
73
26
0
VERTEX
8
OBJECT__23
10
0
20
0
30
0
70
128
71
26
72
21
73
27
0
VERTEX
8
OBJECT__23
10
0
20
0
30
0
70
128
71
29
72
30
73
31
0
VERTEX
8
OBJECT__23
10
0
20
0
30
0
70
128
71
31
72
32
73
29
0
VERTEX
8
OBJECT__23
10
0
20
0
30
0
70
128
71
5
72
33
73
30
0
VERTEX
8
OBJECT__23
10
0
20
0
30
0
70
128
71
5
72
34
73
35
0
VERTEX
8
OBJECT__23
10
0
20
0
30
0
70
128
71
35
72
33
73
5
0
VERTEX
8
OBJECT__23
10
0
20
0
30
0
70
128
71
5
72
1
73
36
0
VERTEX
8
OBJECT__23
10
0
20
0
30
0
70
128
71
1
72
37
73
38
0
VERTEX
8
OBJECT__23
10
0
20
0
30
0
70
128
71
1
72
39
73
37
0
VERTEX
8
OBJECT__23
10
0
20
0
30
0
70
128
71
1
72
21
73
40
0
VERTEX
8
OBJECT__23
10
0
20
0
30
0
70
128
71
40
72
39
73
1
0
VERTEX
8
OBJECT__23
10
0
20
0
30
0
70
128
71
38
72
41
73
1
0
VERTEX
8
OBJECT__23
10
0
20
0
30
0
70
128
71
41
72
42
73
1
0
VERTEX
8
OBJECT__23
10
0
20
0
30
0
70
128
71
42
72
36
73
1
0
VERTEX
8
OBJECT__23
10
0
20
0
30
0
70
128
71
36
72
34
73
5
0
VERTEX
8
OBJECT__23
10
0
20
0
30
0
70
128
71
43
72
44
73
45
0
VERTEX
8
OBJECT__23
10
0
20
0
30
0
70
128
71
46
72
44
73
43
0
VERTEX
8
OBJECT__23
10
0
20
0
30
0
70
128
71
43
72
32
73
46
0
VERTEX
8
OBJECT__23
10
0
20
0
30
0
70
128
71
32
72
47
73
46
0
VERTEX
8
OBJECT__23
10
0
20
0
30
0
70
128
71
45
72
48
73
43
0
VERTEX
8
OBJECT__23
10
0
20
0
30
0
70
128
71
32
72
49
73
50
0
VERTEX
8
OBJECT__23
10
0
20
0
30
0
70
128
71
50
72
47
73
32
0
VERTEX
8
OBJECT__23
10
0
20
0
30
0
70
128
71
32
72
31
73
49
0
VERTEX
8
OBJECT__23
10
0
20
0
30
0
70
128
71
51
72
52
73
53
0
VERTEX
8
OBJECT__23
10
0
20
0
30
0
70
128
71
54
72
51
73
55
0
VERTEX
8
OBJECT__23
10
0
20
0
30
0
70
128
71
55
72
48
73
56
0
VERTEX
8
OBJECT__23
10
0
20
0
30
0
70
128
71
56
72
57
73
55
0
VERTEX
8
OBJECT__23
10
0
20
0
30
0
70
128
71
55
72
57
73
54
0
VERTEX
8
OBJECT__23
10
0
20
0
30
0
70
128
71
48
72
58
73
56
0
VERTEX
8
OBJECT__23
10
0
20
0
30
0
70
128
71
54
72
59
73
51
0
VERTEX
8
OBJECT__23
10
0
20
0
30
0
70
128
71
59
72
52
73
51
0
VERTEX
8
OBJECT__23
10
0
20
0
30
0
70
128
71
17
72
60
73
61
0
VERTEX
8
OBJECT__23
10
0
20
0
30
0
70
128
71
17
72
62
73
63
0
VERTEX
8
OBJECT__23
10
0
20
0
30
0
70
128
71
63
72
60
73
17
0
VERTEX
8
OBJECT__23
10
0
20
0
30
0
70
128
71
17
72
64
73
65
0
VERTEX
8
OBJECT__23
10
0
20
0
30
0
70
128
71
17
72
66
73
67
0
VERTEX
8
OBJECT__23
10
0
20
0
30
0
70
128
71
67
72
64
73
17
0
VERTEX
8
OBJECT__23
10
0
20
0
30
0
70
128
71
65
72
62
73
17
0
VERTEX
8
OBJECT__23
10
0
20
0
30
0
70
128
71
66
72
68
73
67
0
VERTEX
8
OBJECT__23
10
0
20
0
30
0
70
128
71
66
72
69
73
70
0
VERTEX
8
OBJECT__23
10
0
20
0
30
0
70
128
71
71
72
51
73
72
0
VERTEX
8
OBJECT__23
10
0
20
0
30
0
70
128
71
73
72
66
73
71
0
VERTEX
8
OBJECT__23
10
0
20
0
30
0
70
128
71
72
72
73
73
71
0
VERTEX
8
OBJECT__23
10
0
20
0
30
0
70
128
71
73
72
74
73
66
0
VERTEX
8
OBJECT__23
10
0
20
0
30
0
70
128
71
74
72
69
73
66
0
VERTEX
8
OBJECT__23
10
0
20
0
30
0
70
128
71
70
72
68
73
66
0
VERTEX
8
OBJECT__23
10
0
20
0
30
0
70
128
71
27
72
75
73
76
0
VERTEX
8
OBJECT__23
10
0
20
0
30
0
70
128
71
75
72
77
73
78
0
VERTEX
8
OBJECT__23
10
0
20
0
30
0
70
128
71
75
72
61
73
79
0
VERTEX
8
OBJECT__23
10
0
20
0
30
0
70
128
71
79
72
80
73
75
0
VERTEX
8
OBJECT__23
10
0
20
0
30
0
70
128
71
80
72
77
73
75
0
VERTEX
8
OBJECT__23
10
0
20
0
30
0
70
128
71
78
72
81
73
75
0
VERTEX
8
OBJECT__23
10
0
20
0
30
0
70
128
71
81
72
76
73
75
0
VERTEX
8
OBJECT__23
10
0
20
0
30
0
70
128
71
76
72
82
73
27
0
VERTEX
8
OBJECT__23
10
0
20
0
30
0
70
128
71
82
72
28
73
27
0
VERTEX
8
OBJECT__23
10
0
20
0
30
0
70
128
71
61
72
75
73
17
0
VERTEX
8
OBJECT__23
10
0
20
0
30
0
70
128
71
53
72
72
73
51
0
VERTEX
8
OBJECT__23
10
0
20
0
30
0
70
128
71
45
72
58
73
48
0
VERTEX
8
OBJECT__23
10
0
20
0
30
0
70
128
71
29
72
5
73
30
0
VERTEX
8
OBJECT__23
10
0
20
0
30
0
70
128
71
23
72
40
73
21
0
VERTEX
8
OBJECT__23
10
0
20
0
30
0
70
128
71
19
72
66
73
17
0
VERTEX
8
OBJECT__23
10
0
20
0
30
0
70
128
71
15
72
20
73
16
0
VERTEX
8
OBJECT__23
10
0
20
0
30
0
70
128
71
10
72
13
73
6
0
VERTEX
8
OBJECT__23
10
0
20
0
30
0
70
128
71
7
72
9
73
6
0
VERTEX
8
OBJECT__23
10
0
20
0
30
0
70
128
71
3
72
8
73
4
0
SEQEND
8
OBJECT__23
0
POLYLINE
8
OBJECT__24
66
1
70
64
71
10
72
8
62
253
0
VERTEX
8
OBJECT__24
10
89.073997
20
-7.392000
30
165.266998
70
192
0
VERTEX
8
OBJECT__24
10
86.682999
20
-3.933000
30
184.735992
70
192
0
VERTEX
8
OBJECT__24
10
87.299004
20
-9.959000
30
179.718002
70
192
0
VERTEX
8
OBJECT__24
10
89.401001
20
0.000000
30
162.595993
70
192
0
VERTEX
8
OBJECT__24
10
89.073997
20
7.392000
30
165.266998
70
192
0
VERTEX
8
OBJECT__24
10
88.242996
20
11.325000
30
172.028000
70
192
0
VERTEX
8
OBJECT__24
10
88.242996
20
-11.325000
30
172.028000
70
192
0
VERTEX
8
OBJECT__24
10
87.299004
20
9.959000
30
179.718002
70
192
0
VERTEX
8
OBJECT__24
10
86.598999
20
0.000000
30
185.425003
70
192
0
VERTEX
8
OBJECT__24
10
86.682999
20
3.933000
30
184.735992
70
192
0
VERTEX
8
OBJECT__24
10
0
20
0
30
0
70
128
71
1
72
2
73
3
0
VERTEX
8
OBJECT__24
10
0
20
0
30
0
70
128
71
4
72
5
73
6
0
VERTEX
8
OBJECT__24
10
0
20
0
30
0
70
128
71
3
72
7
73
1
0
VERTEX
8
OBJECT__24
10
0
20
0
30
0
70
128
71
6
72
8
73
4
0
VERTEX
8
OBJECT__24
10
0
20
0
30
0
70
128
71
4
72
9
73
2
0
VERTEX
8
OBJECT__24
10
0
20
0
30
0
70
128
71
8
72
10
73
4
0
VERTEX
8
OBJECT__24
10
0
20
0
30
0
70
128
71
10
72
9
73
4
0
VERTEX
8
OBJECT__24
10
0
20
0
30
0
70
128
71
1
72
4
73
2
0
SEQEND
8
OBJECT__24
0
POLYLINE
8
OBJECT__25
66
1
70
64
71
121
72
199
62
253
0
VERTEX
8
OBJECT__25
10
10.183000
20
-5.344000
30
127.816002
70
192
0
VERTEX
8
OBJECT__25
10
11.500000
20
0.000000
30
127.816002
70
192
0
VERTEX
8
OBJECT__25
10
12.108000
20
0.000000
30
133.671997
70
192
0
VERTEX
8
OBJECT__25
10
13.906000
20
0.000000
30
139.278000
70
192
0
VERTEX
8
OBJECT__25
10
12.700000
20
-5.344000
30
139.807999
70
192
0
VERTEX
8
OBJECT__25
10
16.818001
20
0.000000
30
144.395004
70
192
0
VERTEX
8
OBJECT__25
10
15.747000
20
-5.344000
30
145.162003
70
192
0
VERTEX
8
OBJECT__25
10
20.719999
20
0.000000
30
148.804993
70
192
0
VERTEX
8
OBJECT__25
10
19.827999
20
-5.344000
30
149.774994
70
192
0
VERTEX
8
OBJECT__25
10
25.443001
20
0.000000
30
152.319000
70
192
0
VERTEX
8
OBJECT__25
10
24.771000
20
-5.344000
30
153.451004
70
192
0
VERTEX
8
OBJECT__25
10
30.789000
20
0.000000
30
154.787003
70
192
0
VERTEX
8
OBJECT__25
10
30.363001
20
-5.344000
30
156.033005
70
192
0
VERTEX
8
OBJECT__25
10
36.527000
20
0.000000
30
156.104004
70
192
0
VERTEX
8
OBJECT__25
10
10.819000
20
-5.344000
30
133.942993
70
192
0
VERTEX
8
OBJECT__25
10
7.247000
20
-9.464000
30
134.692993
70
192
0
VERTEX
8
OBJECT__25
10
8.562000
20
-7.173000
30
127.816002
70
192
0
VERTEX
8
OBJECT__25
10
6.533000
20
-9.464000
30
127.816002
70
192
0
VERTEX
8
OBJECT__25
10
9.359000
20
-9.464000
30
141.276001
70
192
0
VERTEX
8
OBJECT__25
10
12.778000
20
-9.464000
30
147.285004
70
192
0
VERTEX
8
OBJECT__25
10
17.358999
20
-9.464000
30
152.462997
70
192
0
VERTEX
8
OBJECT__25
10
22.906000
20
-9.464000
30
156.589005
70
192
0
VERTEX
8
OBJECT__25
10
29.183001
20
-9.464000
30
159.487000
70
192
0
VERTEX
8
OBJECT__25
10
36.366001
20
-5.344000
30
157.410995
70
192
0
VERTEX
8
OBJECT__25
10
36.168999
20
-7.173000
30
159.020004
70
192
0
VERTEX
8
OBJECT__25
10
2.210000
20
-11.416000
30
135.750000
70
192
0
VERTEX
8
OBJECT__25
10
1.950000
20
-11.202000
30
127.816002
70
192
0
VERTEX
8
OBJECT__25
10
1.386000
20
-11.416000
30
127.816002
70
192
0
VERTEX
8
OBJECT__25
10
4.647000
20
-11.416000
30
143.345993
70
192
0
VERTEX
8
OBJECT__25
10
8.592000
20
-11.416000
30
150.279007
70
192
0
VERTEX
8
OBJECT__25
10
13.877000
20
-11.416000
30
156.253006
70
192
0
VERTEX
8
OBJECT__25
10
20.278000
20
-11.416000
30
161.014008
70
192
0
VERTEX
8
OBJECT__25
10
27.520000
20
-11.416000
30
164.358002
70
192
0
VERTEX
8
OBJECT__25
10
35.362999
20
-11.202000
30
165.582001
70
192
0
VERTEX
8
OBJECT__25
10
35.921001
20
-9.464000
30
161.033997
70
192
0
VERTEX
8
OBJECT__25
10
-3.137000
20
-10.753000
30
136.873001
70
192
0
VERTEX
8
OBJECT__25
10
-4.078000
20
-10.753000
30
127.816002
70
192
0
VERTEX
8
OBJECT__25
10
0.000000
20
-11.500000
30
127.816002
70
192
0
VERTEX
8
OBJECT__25
10
-0.356000
20
-10.753000
30
145.542999
70
192
0
VERTEX
8
OBJECT__25
10
4.147000
20
-10.753000
30
153.457001
70
192
0
VERTEX
8
OBJECT__25
10
10.181000
20
-10.753000
30
160.276993
70
192
0
VERTEX
8
OBJECT__25
10
17.487000
20
-10.753000
30
165.710999
70
192
0
VERTEX
8
OBJECT__25
10
25.754000
20
-10.753000
30
169.529007
70
192
0
VERTEX
8
OBJECT__25
10
35.293999
20
-11.416000
30
166.141998
70
192
0
VERTEX
8
OBJECT__25
10
-7.571000
20
-7.626000
30
137.804001
70
192
0
VERTEX
8
OBJECT__25
10
-5.581000
20
-9.715000
30
127.816002
70
192
0
VERTEX
8
OBJECT__25
10
-8.608000
20
-7.626000
30
127.816002
70
192
0
VERTEX
8
OBJECT__25
10
-4.504000
20
-7.626000
30
147.365005
70
192
0
VERTEX
8
OBJECT__25
10
0.463000
20
-7.626000
30
156.091995
70
192
0
VERTEX
8
OBJECT__25
10
7.116000
20
-7.626000
30
163.613007
70
192
0
VERTEX
8
OBJECT__25
10
15.173000
20
-7.626000
30
169.606003
70
192
0
VERTEX
8
OBJECT__25
10
24.289000
20
-7.626000
30
173.815002
70
192
0
VERTEX
8
OBJECT__25
10
34.627998
20
-10.753000
30
171.565994
70
192
0
VERTEX
8
OBJECT__25
10
34.445000
20
-9.715000
30
173.057999
70
192
0
VERTEX
8
OBJECT__25
10
-10.074000
20
-2.752000
30
138.330002
70
192
0
VERTEX
8
OBJECT__25
10
-10.602000
20
-3.826000
30
127.816002
70
192
0
VERTEX
8
OBJECT__25
10
-11.166000
20
-2.752000
30
127.816002
70
192
0
VERTEX
8
OBJECT__25
10
-6.846000
20
-2.752000
30
148.393997
70
192
0
VERTEX
8
OBJECT__25
10
-1.618000
20
-2.752000
30
157.580002
70
192
0
VERTEX
8
OBJECT__25
10
5.386000
20
-2.752000
30
165.496994
70
192
0
VERTEX
8
OBJECT__25
10
13.867000
20
-2.752000
30
171.804993
70
192
0
VERTEX
8
OBJECT__25
10
23.462999
20
-2.752000
30
176.235992
70
192
0
VERTEX
8
OBJECT__25
10
34.076000
20
-7.626000
30
176.061996
70
192
0
VERTEX
8
OBJECT__25
10
33.833000
20
-3.826000
30
178.041000
70
192
0
VERTEX
8
OBJECT__25
10
-10.074000
20
2.752000
30
138.330002
70
192
0
VERTEX
8
OBJECT__25
10
-6.846000
20
2.752000
30
148.393997
70
192
0
VERTEX
8
OBJECT__25
10
-1.618000
20
2.752000
30
157.580002
70
192
0
VERTEX
8
OBJECT__25
10
5.386000
20
2.752000
30
165.496994
70
192
0
VERTEX
8
OBJECT__25
10
13.867000
20
2.752000
30
171.804993
70
192
0
VERTEX
8
OBJECT__25
10
23.462999
20
2.752000
30
176.235992
70
192
0
VERTEX
8
OBJECT__25
10
33.764000
20
-2.752000
30
178.600998
70
192
0
VERTEX
8
OBJECT__25
10
33.764000
20
2.752000
30
178.600998
70
192
0
VERTEX
8
OBJECT__25
10
-7.571000
20
7.626000
30
137.804001
70
192
0
VERTEX
8
OBJECT__25
10
-8.608000
20
7.626000
30
127.816002
70
192
0
VERTEX
8
OBJECT__25
10
-10.602000
20
3.826000
30
127.816002
70
192
0
VERTEX
8
OBJECT__25
10
-4.504000
20
7.626000
30
147.365005
70
192
0
VERTEX
8
OBJECT__25
10
0.463000
20
7.626000
30
156.091995
70
192
0
VERTEX
8
OBJECT__25
10
7.116000
20
7.626000
30
163.613007
70
192
0
VERTEX
8
OBJECT__25
10
15.173000
20
7.626000
30
169.606003
70
192
0
VERTEX
8
OBJECT__25
10
24.289000
20
7.626000
30
173.815002
70
192
0
VERTEX
8
OBJECT__25
10
33.833000
20
3.826000
30
178.041000
70
192
0
VERTEX
8
OBJECT__25
10
-3.137000
20
10.753000
30
136.873001
70
192
0
VERTEX
8
OBJECT__25
10
-4.078000
20
10.753000
30
127.816002
70
192
0
VERTEX
8
OBJECT__25
10
-5.581000
20
9.715000
30
127.816002
70
192
0
VERTEX
8
OBJECT__25
10
-0.356000
20
10.753000
30
145.542999
70
192
0
VERTEX
8
OBJECT__25
10
4.147000
20
10.753000
30
153.457001
70
192
0
VERTEX
8
OBJECT__25
10
10.181000
20
10.753000
30
160.276993
70
192
0
VERTEX
8
OBJECT__25
10
17.487000
20
10.753000
30
165.710999
70
192
0
VERTEX
8
OBJECT__25
10
25.754000
20
10.753000
30
169.529007
70
192
0
VERTEX
8
OBJECT__25
10
34.445000
20
9.715000
30
173.057999
70
192
0
VERTEX
8
OBJECT__25
10
34.076000
20
7.626000
30
176.061996
70
192
0
VERTEX
8
OBJECT__25
10
2.210000
20
11.416000
30
135.750000
70
192
0
VERTEX
8
OBJECT__25
10
1.386000
20
11.416000
30
127.816002
70
192
0
VERTEX
8
OBJECT__25
10
4.647000
20
11.416000
30
143.345993
70
192
0
VERTEX
8
OBJECT__25
10
8.592000
20
11.416000
30
150.279007
70
192
0
VERTEX
8
OBJECT__25
10
13.877000
20
11.416000
30
156.253006
70
192
0
VERTEX
8
OBJECT__25
10
20.278000
20
11.416000
30
161.014008
70
192
0
VERTEX
8
OBJECT__25
10
27.520000
20
11.416000
30
164.358002
70
192
0
VERTEX
8
OBJECT__25
10
34.627998
20
10.753000
30
171.565994
70
192
0
VERTEX
8
OBJECT__25
10
35.293999
20
11.416000
30
166.141998
70
192
0
VERTEX
8
OBJECT__25
10
1.950000
20
11.202000
30
127.816002
70
192
0
VERTEX
8
OBJECT__25
10
7.247000
20
9.464000
30
134.692993
70
192
0
VERTEX
8
OBJECT__25
10
6.533000
20
9.464000
30
127.816002
70
192
0
VERTEX
8
OBJECT__25
10
9.359000
20
9.464000
30
141.276001
70
192
0
VERTEX
8
OBJECT__25
10
12.778000
20
9.464000
30
147.285004
70
192
0
VERTEX
8
OBJECT__25
10
17.358999
20
9.464000
30
152.462997
70
192
0
VERTEX
8
OBJECT__25
10
22.906000
20
9.464000
30
156.589005
70
192
0
VERTEX
8
OBJECT__25
10
29.183001
20
9.464000
30
159.487000
70
192
0
VERTEX
8
OBJECT__25
10
35.362999
20
11.202000
30
165.582001
70
192
0
VERTEX
8
OBJECT__25
10
35.921001
20
9.464000
30
161.033997
70
192
0
VERTEX
8
OBJECT__25
10
10.819000
20
5.344000
30
133.942993
70
192
0
VERTEX
8
OBJECT__25
10
10.183000
20
5.344000
30
127.816002
70
192
0
VERTEX
8
OBJECT__25
10
8.562000
20
7.173000
30
127.816002
70
192
0
VERTEX
8
OBJECT__25
10
12.700000
20
5.344000
30
139.807999
70
192
0
VERTEX
8
OBJECT__25
10
15.747000
20
5.344000
30
145.162003
70
192
0
VERTEX
8
OBJECT__25
10
19.827999
20
5.344000
30
149.774994
70
192
0
VERTEX
8
OBJECT__25
10
24.771000
20
5.344000
30
153.451004
70
192
0
VERTEX
8
OBJECT__25
10
30.363001
20
5.344000
30
156.033005
70
192
0
VERTEX
8
OBJECT__25
10
36.168999
20
7.173000
30
159.020004
70
192
0
VERTEX
8
OBJECT__25
10
36.366001
20
5.344000
30
157.410995
70
192
0
VERTEX
8
OBJECT__25
10
-11.166000
20
2.752000
30
127.816002
70
192
0
VERTEX
8
OBJECT__25
10
0
20
0
30
0
70
128
71
1
72
2
73
3
0
VERTEX
8
OBJECT__25
10
0
20
0
30
0
70
128
71
3
72
4
73
5
0
VERTEX
8
OBJECT__25
10
0
20
0
30
0
70
128
71
4
72
6
73
7
0
VERTEX
8
OBJECT__25
10
0
20
0
30
0
70
128
71
6
72
8
73
9
0
VERTEX
8
OBJECT__25
10
0
20
0
30
0
70
128
71
8
72
10
73
11
0
VERTEX
8
OBJECT__25
10
0
20
0
30
0
70
128
71
10
72
12
73
13
0
VERTEX
8
OBJECT__25
10
0
20
0
30
0
70
128
71
13
72
12
73
14
0
VERTEX
8
OBJECT__25
10
0
20
0
30
0
70
128
71
15
72
16
73
17
0
VERTEX
8
OBJECT__25
10
0
20
0
30
0
70
128
71
16
72
18
73
17
0
VERTEX
8
OBJECT__25
10
0
20
0
30
0
70
128
71
15
72
5
73
19
0
VERTEX
8
OBJECT__25
10
0
20
0
30
0
70
128
71
5
72
7
73
20
0
VERTEX
8
OBJECT__25
10
0
20
0
30
0
70
128
71
7
72
9
73
21
0
VERTEX
8
OBJECT__25
10
0
20
0
30
0
70
128
71
9
72
11
73
22
0
VERTEX
8
OBJECT__25
10
0
20
0
30
0
70
128
71
11
72
13
73
23
0
VERTEX
8
OBJECT__25
10
0
20
0
30
0
70
128
71
13
72
24
73
25
0
VERTEX
8
OBJECT__25
10
0
20
0
30
0
70
128
71
25
72
23
73
13
0
VERTEX
8
OBJECT__25
10
0
20
0
30
0
70
128
71
26
72
27
73
18
0
VERTEX
8
OBJECT__25
10
0
20
0
30
0
70
128
71
26
72
28
73
27
0
VERTEX
8
OBJECT__25
10
0
20
0
30
0
70
128
71
16
72
19
73
29
0
VERTEX
8
OBJECT__25
10
0
20
0
30
0
70
128
71
19
72
20
73
30
0
VERTEX
8
OBJECT__25
10
0
20
0
30
0
70
128
71
20
72
21
73
31
0
VERTEX
8
OBJECT__25
10
0
20
0
30
0
70
128
71
21
72
22
73
32
0
VERTEX
8
OBJECT__25
10
0
20
0
30
0
70
128
71
22
72
23
73
33
0
VERTEX
8
OBJECT__25
10
0
20
0
30
0
70
128
71
34
72
33
73
23
0
VERTEX
8
OBJECT__25
10
0
20
0
30
0
70
128
71
23
72
35
73
34
0
VERTEX
8
OBJECT__25
10
0
20
0
30
0
70
128
71
36
72
37
73
38
0
VERTEX
8
OBJECT__25
10
0
20
0
30
0
70
128
71
38
72
26
73
36
0
VERTEX
8
OBJECT__25
10
0
20
0
30
0
70
128
71
26
72
29
73
39
0
VERTEX
8
OBJECT__25
10
0
20
0
30
0
70
128
71
29
72
30
73
40
0
VERTEX
8
OBJECT__25
10
0
20
0
30
0
70
128
71
30
72
31
73
41
0
VERTEX
8
OBJECT__25
10
0
20
0
30
0
70
128
71
31
72
32
73
42
0
VERTEX
8
OBJECT__25
10
0
20
0
30
0
70
128
71
32
72
33
73
43
0
VERTEX
8
OBJECT__25
10
0
20
0
30
0
70
128
71
43
72
33
73
44
0
VERTEX
8
OBJECT__25
10
0
20
0
30
0
70
128
71
36
72
45
73
46
0
VERTEX
8
OBJECT__25
10
0
20
0
30
0
70
128
71
45
72
47
73
46
0
VERTEX
8
OBJECT__25
10
0
20
0
30
0
70
128
71
36
72
39
73
48
0
VERTEX
8
OBJECT__25
10
0
20
0
30
0
70
128
71
39
72
40
73
49
0
VERTEX
8
OBJECT__25
10
0
20
0
30
0
70
128
71
40
72
41
73
50
0
VERTEX
8
OBJECT__25
10
0
20
0
30
0
70
128
71
41
72
42
73
51
0
VERTEX
8
OBJECT__25
10
0
20
0
30
0
70
128
71
42
72
43
73
52
0
VERTEX
8
OBJECT__25
10
0
20
0
30
0
70
128
71
43
72
53
73
54
0
VERTEX
8
OBJECT__25
10
0
20
0
30
0
70
128
71
54
72
52
73
43
0
VERTEX
8
OBJECT__25
10
0
20
0
30
0
70
128
71
45
72
55
73
56
0
VERTEX
8
OBJECT__25
10
0
20
0
30
0
70
128
71
55
72
57
73
56
0
VERTEX
8
OBJECT__25
10
0
20
0
30
0
70
128
71
45
72
48
73
58
0
VERTEX
8
OBJECT__25
10
0
20
0
30
0
70
128
71
48
72
49
73
59
0
VERTEX
8
OBJECT__25
10
0
20
0
30
0
70
128
71
49
72
50
73
60
0
VERTEX
8
OBJECT__25
10
0
20
0
30
0
70
128
71
50
72
51
73
61
0
VERTEX
8
OBJECT__25
10
0
20
0
30
0
70
128
71
51
72
52
73
62
0
VERTEX
8
OBJECT__25
10
0
20
0
30
0
70
128
71
52
72
63
73
64
0
VERTEX
8
OBJECT__25
10
0
20
0
30
0
70
128
71
64
72
62
73
52
0
VERTEX
8
OBJECT__25
10
0
20
0
30
0
70
128
71
57
72
55
73
65
0
VERTEX
8
OBJECT__25
10
0
20
0
30
0
70
128
71
55
72
58
73
66
0
VERTEX
8
OBJECT__25
10
0
20
0
30
0
70
128
71
58
72
59
73
67
0
VERTEX
8
OBJECT__25
10
0
20
0
30
0
70
128
71
59
72
60
73
68
0
VERTEX
8
OBJECT__25
10
0
20
0
30
0
70
128
71
60
72
61
73
69
0
VERTEX
8
OBJECT__25
10
0
20
0
30
0
70
128
71
61
72
62
73
70
0
VERTEX
8
OBJECT__25
10
0
20
0
30
0
70
128
71
71
72
72
73
70
0
VERTEX
8
OBJECT__25
10
0
20
0
30
0
70
128
71
73
72
74
73
75
0
VERTEX
8
OBJECT__25
10
0
20
0
30
0
70
128
71
75
72
65
73
73
0
VERTEX
8
OBJECT__25
10
0
20
0
30
0
70
128
71
65
72
66
73
76
0
VERTEX
8
OBJECT__25
10
0
20
0
30
0
70
128
71
66
72
67
73
77
0
VERTEX
8
OBJECT__25
10
0
20
0
30
0
70
128
71
67
72
68
73
78
0
VERTEX
8
OBJECT__25
10
0
20
0
30
0
70
128
71
68
72
69
73
79
0
VERTEX
8
OBJECT__25
10
0
20
0
30
0
70
128
71
69
72
70
73
80
0
VERTEX
8
OBJECT__25
10
0
20
0
30
0
70
128
71
80
72
70
73
81
0
VERTEX
8
OBJECT__25
10
0
20
0
30
0
70
128
71
70
72
72
73
81
0
VERTEX
8
OBJECT__25
10
0
20
0
30
0
70
128
71
82
72
83
73
84
0
VERTEX
8
OBJECT__25
10
0
20
0
30
0
70
128
71
84
72
73
73
82
0
VERTEX
8
OBJECT__25
10
0
20
0
30
0
70
128
71
73
72
76
73
85
0
VERTEX
8
OBJECT__25
10
0
20
0
30
0
70
128
71
76
72
77
73
86
0
VERTEX
8
OBJECT__25
10
0
20
0
30
0
70
128
71
77
72
78
73
87
0
VERTEX
8
OBJECT__25
10
0
20
0
30
0
70
128
71
78
72
79
73
88
0
VERTEX
8
OBJECT__25
10
0
20
0
30
0
70
128
71
79
72
80
73
89
0
VERTEX
8
OBJECT__25
10
0
20
0
30
0
70
128
71
89
72
80
73
90
0
VERTEX
8
OBJECT__25
10
0
20
0
30
0
70
128
71
80
72
91
73
90
0
VERTEX
8
OBJECT__25
10
0
20
0
30
0
70
128
71
82
72
92
73
93
0
VERTEX
8
OBJECT__25
10
0
20
0
30
0
70
128
71
82
72
85
73
94
0
VERTEX
8
OBJECT__25
10
0
20
0
30
0
70
128
71
85
72
86
73
95
0
VERTEX
8
OBJECT__25
10
0
20
0
30
0
70
128
71
86
72
87
73
96
0
VERTEX
8
OBJECT__25
10
0
20
0
30
0
70
128
71
87
72
88
73
97
0
VERTEX
8
OBJECT__25
10
0
20
0
30
0
70
128
71
88
72
89
73
98
0
VERTEX
8
OBJECT__25
10
0
20
0
30
0
70
128
71
89
72
99
73
100
0
VERTEX
8
OBJECT__25
10
0
20
0
30
0
70
128
71
101
72
92
73
102
0
VERTEX
8
OBJECT__25
10
0
20
0
30
0
70
128
71
102
72
103
73
101
0
VERTEX
8
OBJECT__25
10
0
20
0
30
0
70
128
71
92
72
94
73
104
0
VERTEX
8
OBJECT__25
10
0
20
0
30
0
70
128
71
94
72
95
73
105
0
VERTEX
8
OBJECT__25
10
0
20
0
30
0
70
128
71
95
72
96
73
106
0
VERTEX
8
OBJECT__25
10
0
20
0
30
0
70
128
71
96
72
97
73
107
0
VERTEX
8
OBJECT__25
10
0
20
0
30
0
70
128
71
97
72
98
73
108
0
VERTEX
8
OBJECT__25
10
0
20
0
30
0
70
128
71
98
72
109
73
110
0
VERTEX
8
OBJECT__25
10
0
20
0
30
0
70
128
71
98
72
100
73
109
0
VERTEX
8
OBJECT__25
10
0
20
0
30
0
70
128
71
111
72
112
73
113
0
VERTEX
8
OBJECT__25
10
0
20
0
30
0
70
128
71
113
72
102
73
111
0
VERTEX
8
OBJECT__25
10
0
20
0
30
0
70
128
71
102
72
104
73
114
0
VERTEX
8
OBJECT__25
10
0
20
0
30
0
70
128
71
104
72
105
73
115
0
VERTEX
8
OBJECT__25
10
0
20
0
30
0
70
128
71
105
72
106
73
116
0
VERTEX
8
OBJECT__25
10
0
20
0
30
0
70
128
71
106
72
107
73
117
0
VERTEX
8
OBJECT__25
10
0
20
0
30
0
70
128
71
107
72
108
73
118
0
VERTEX
8
OBJECT__25
10
0
20
0
30
0
70
128
71
118
72
108
73
119
0
VERTEX
8
OBJECT__25
10
0
20
0
30
0
70
128
71
108
72
110
73
119
0
VERTEX
8
OBJECT__25
10
0
20
0
30
0
70
128
71
111
72
3
73
2
0
VERTEX
8
OBJECT__25
10
0
20
0
30
0
70
128
71
111
72
114
73
4
0
VERTEX
8
OBJECT__25
10
0
20
0
30
0
70
128
71
114
72
115
73
6
0
VERTEX
8
OBJECT__25
10
0
20
0
30
0
70
128
71
115
72
116
73
8
0
VERTEX
8
OBJECT__25
10
0
20
0
30
0
70
128
71
116
72
117
73
10
0
VERTEX
8
OBJECT__25
10
0
20
0
30
0
70
128
71
117
72
118
73
12
0
VERTEX
8
OBJECT__25
10
0
20
0
30
0
70
128
71
120
72
14
73
12
0
VERTEX
8
OBJECT__25
10
0
20
0
30
0
70
128
71
12
72
118
73
120
0
VERTEX
8
OBJECT__25
10
0
20
0
30
0
70
128
71
12
72
10
73
117
0
VERTEX
8
OBJECT__25
10
0
20
0
30
0
70
128
71
10
72
8
73
116
0
VERTEX
8
OBJECT__25
10
0
20
0
30
0
70
128
71
8
72
6
73
115
0
VERTEX
8
OBJECT__25
10
0
20
0
30
0
70
128
71
6
72
4
73
114
0
VERTEX
8
OBJECT__25
10
0
20
0
30
0
70
128
71
4
72
3
73
111
0
VERTEX
8
OBJECT__25
10
0
20
0
30
0
70
128
71
2
72
112
73
111
0
VERTEX
8
OBJECT__25
10
0
20
0
30
0
70
128
71
119
72
120
73
118
0
VERTEX
8
OBJECT__25
10
0
20
0
30
0
70
128
71
118
72
117
73
107
0
VERTEX
8
OBJECT__25
10
0
20
0
30
0
70
128
71
117
72
116
73
106
0
VERTEX
8
OBJECT__25
10
0
20
0
30
0
70
128
71
116
72
115
73
105
0
VERTEX
8
OBJECT__25
10
0
20
0
30
0
70
128
71
115
72
114
73
104
0
VERTEX
8
OBJECT__25
10
0
20
0
30
0
70
128
71
114
72
111
73
102
0
VERTEX
8
OBJECT__25
10
0
20
0
30
0
70
128
71
113
72
103
73
102
0
VERTEX
8
OBJECT__25
10
0
20
0
30
0
70
128
71
110
72
108
73
98
0
VERTEX
8
OBJECT__25
10
0
20
0
30
0
70
128
71
108
72
107
73
97
0
VERTEX
8
OBJECT__25
10
0
20
0
30
0
70
128
71
107
72
106
73
96
0
VERTEX
8
OBJECT__25
10
0
20
0
30
0
70
128
71
106
72
105
73
95
0
VERTEX
8
OBJECT__25
10
0
20
0
30
0
70
128
71
105
72
104
73
94
0
VERTEX
8
OBJECT__25
10
0
20
0
30
0
70
128
71
104
72
102
73
92
0
VERTEX
8
OBJECT__25
10
0
20
0
30
0
70
128
71
101
72
93
73
92
0
VERTEX
8
OBJECT__25
10
0
20
0
30
0
70
128
71
100
72
98
73
89
0
VERTEX
8
OBJECT__25
10
0
20
0
30
0
70
128
71
98
72
97
73
88
0
VERTEX
8
OBJECT__25
10
0
20
0
30
0
70
128
71
97
72
96
73
87
0
VERTEX
8
OBJECT__25
10
0
20
0
30
0
70
128
71
96
72
95
73
86
0
VERTEX
8
OBJECT__25
10
0
20
0
30
0
70
128
71
95
72
94
73
85
0
VERTEX
8
OBJECT__25
10
0
20
0
30
0
70
128
71
94
72
92
73
82
0
VERTEX
8
OBJECT__25
10
0
20
0
30
0
70
128
71
93
72
83
73
82
0
VERTEX
8
OBJECT__25
10
0
20
0
30
0
70
128
71
90
72
99
73
89
0
VERTEX
8
OBJECT__25
10
0
20
0
30
0
70
128
71
89
72
88
73
79
0
VERTEX
8
OBJECT__25
10
0
20
0
30
0
70
128
71
88
72
87
73
78
0
VERTEX
8
OBJECT__25
10
0
20
0
30
0
70
128
71
87
72
86
73
77
0
VERTEX
8
OBJECT__25
10
0
20
0
30
0
70
128
71
86
72
85
73
76
0
VERTEX
8
OBJECT__25
10
0
20
0
30
0
70
128
71
85
72
82
73
73
0
VERTEX
8
OBJECT__25
10
0
20
0
30
0
70
128
71
84
72
74
73
73
0
VERTEX
8
OBJECT__25
10
0
20
0
30
0
70
128
71
81
72
91
73
80
0
VERTEX
8
OBJECT__25
10
0
20
0
30
0
70
128
71
80
72
79
73
69
0
VERTEX
8
OBJECT__25
10
0
20
0
30
0
70
128
71
79
72
78
73
68
0
VERTEX
8
OBJECT__25
10
0
20
0
30
0
70
128
71
78
72
77
73
67
0
VERTEX
8
OBJECT__25
10
0
20
0
30
0
70
128
71
77
72
76
73
66
0
VERTEX
8
OBJECT__25
10
0
20
0
30
0
70
128
71
76
72
73
73
65
0
VERTEX
8
OBJECT__25
10
0
20
0
30
0
70
128
71
75
72
121
73
65
0
VERTEX
8
OBJECT__25
10
0
20
0
30
0
70
128
71
70
72
62
73
71
0
VERTEX
8
OBJECT__25
10
0
20
0
30
0
70
128
71
70
72
69
73
61
0
VERTEX
8
OBJECT__25
10
0
20
0
30
0
70
128
71
69
72
68
73
60
0
VERTEX
8
OBJECT__25
10
0
20
0
30
0
70
128
71
68
72
67
73
59
0
VERTEX
8
OBJECT__25
10
0
20
0
30
0
70
128
71
67
72
66
73
58
0
VERTEX
8
OBJECT__25
10
0
20
0
30
0
70
128
71
66
72
65
73
55
0
VERTEX
8
OBJECT__25
10
0
20
0
30
0
70
128
71
65
72
121
73
57
0
VERTEX
8
OBJECT__25
10
0
20
0
30
0
70
128
71
64
72
71
73
62
0
VERTEX
8
OBJECT__25
10
0
20
0
30
0
70
128
71
62
72
61
73
51
0
VERTEX
8
OBJECT__25
10
0
20
0
30
0
70
128
71
61
72
60
73
50
0
VERTEX
8
OBJECT__25
10
0
20
0
30
0
70
128
71
60
72
59
73
49
0
VERTEX
8
OBJECT__25
10
0
20
0
30
0
70
128
71
59
72
58
73
48
0
VERTEX
8
OBJECT__25
10
0
20
0
30
0
70
128
71
58
72
55
73
45
0
VERTEX
8
OBJECT__25
10
0
20
0
30
0
70
128
71
56
72
47
73
45
0
VERTEX
8
OBJECT__25
10
0
20
0
30
0
70
128
71
54
72
63
73
52
0
VERTEX
8
OBJECT__25
10
0
20
0
30
0
70
128
71
52
72
51
73
42
0
VERTEX
8
OBJECT__25
10
0
20
0
30
0
70
128
71
51
72
50
73
41
0
VERTEX
8
OBJECT__25
10
0
20
0
30
0
70
128
71
50
72
49
73
40
0
VERTEX
8
OBJECT__25
10
0
20
0
30
0
70
128
71
49
72
48
73
39
0
VERTEX
8
OBJECT__25
10
0
20
0
30
0
70
128
71
48
72
45
73
36
0
VERTEX
8
OBJECT__25
10
0
20
0
30
0
70
128
71
46
72
37
73
36
0
VERTEX
8
OBJECT__25
10
0
20
0
30
0
70
128
71
44
72
53
73
43
0
VERTEX
8
OBJECT__25
10
0
20
0
30
0
70
128
71
43
72
42
73
32
0
VERTEX
8
OBJECT__25
10
0
20
0
30
0
70
128
71
42
72
41
73
31
0
VERTEX
8
OBJECT__25
10
0
20
0
30
0
70
128
71
41
72
40
73
30
0
VERTEX
8
OBJECT__25
10
0
20
0
30
0
70
128
71
40
72
39
73
29
0
VERTEX
8
OBJECT__25
10
0
20
0
30
0
70
128
71
39
72
36
73
26
0
VERTEX
8
OBJECT__25
10
0
20
0
30
0
70
128
71
38
72
28
73
26
0
VERTEX
8
OBJECT__25
10
0
20
0
30
0
70
128
71
34
72
44
73
33
0
VERTEX
8
OBJECT__25
10
0
20
0
30
0
70
128
71
33
72
32
73
22
0
VERTEX
8
OBJECT__25
10
0
20
0
30
0
70
128
71
32
72
31
73
21
0
VERTEX
8
OBJECT__25
10
0
20
0
30
0
70
128
71
31
72
30
73
20
0
VERTEX
8
OBJECT__25
10
0
20
0
30
0
70
128
71
30
72
29
73
19
0
VERTEX
8
OBJECT__25
10
0
20
0
30
0
70
128
71
29
72
26
73
16
0
VERTEX
8
OBJECT__25
10
0
20
0
30
0
70
128
71
18
72
16
73
26
0
VERTEX
8
OBJECT__25
10
0
20
0
30
0
70
128
71
25
72
35
73
23
0
VERTEX
8
OBJECT__25
10
0
20
0
30
0
70
128
71
23
72
22
73
11
0
VERTEX
8
OBJECT__25
10
0
20
0
30
0
70
128
71
22
72
21
73
9
0
VERTEX
8
OBJECT__25
10
0
20
0
30
0
70
128
71
21
72
20
73
7
0
VERTEX
8
OBJECT__25
10
0
20
0
30
0
70
128
71
20
72
19
73
5
0
VERTEX
8
OBJECT__25
10
0
20
0
30
0
70
128
71
19
72
16
73
15
0
VERTEX
8
OBJECT__25
10
0
20
0
30
0
70
128
71
17
72
1
73
15
0
VERTEX
8
OBJECT__25
10
0
20
0
30
0
70
128
71
14
72
24
73
13
0
VERTEX
8
OBJECT__25
10
0
20
0
30
0
70
128
71
13
72
11
73
10
0
VERTEX
8
OBJECT__25
10
0
20
0
30
0
70
128
71
11
72
9
73
8
0
VERTEX
8
OBJECT__25
10
0
20
0
30
0
70
128
71
9
72
7
73
6
0
VERTEX
8
OBJECT__25
10
0
20
0
30
0
70
128
71
7
72
5
73
4
0
VERTEX
8
OBJECT__25
10
0
20
0
30
0
70
128
71
5
72
15
73
3
0
VERTEX
8
OBJECT__25
10
0
20
0
30
0
70
128
71
3
72
15
73
1
0
SEQEND
8
OBJECT__25
0
POLYLINE
8
OBJECT__26
66
1
70
64
71
32
72
32
62
253
0
VERTEX
8
OBJECT__26
10
11.500000
20
0.000000
30
123.500000
70
192
0
VERTEX
8
OBJECT__26
10
8.810000
20
7.392000
30
123.500000
70
192
0
VERTEX
8
OBJECT__26
10
10.183000
20
5.344000
30
127.816002
70
192
0
VERTEX
8
OBJECT__26
10
8.562000
20
7.173000
30
127.816002
70
192
0
VERTEX
8
OBJECT__26
10
1.997000
20
11.325000
30
123.500000
70
192
0
VERTEX
8
OBJECT__26
10
1.950000
20
11.202000
30
127.816002
70
192
0
VERTEX
8
OBJECT__26
10
6.533000
20
9.464000
30
127.816002
70
192
0
VERTEX
8
OBJECT__26
10
-5.750000
20
9.959000
30
123.500000
70
192
0
VERTEX
8
OBJECT__26
10
-4.078000
20
10.753000
30
127.816002
70
192
0
VERTEX
8
OBJECT__26
10
1.386000
20
11.416000
30
127.816002
70
192
0
VERTEX
8
OBJECT__26
10
-5.581000
20
9.715000
30
127.816002
70
192
0
VERTEX
8
OBJECT__26
10
-10.806000
20
3.933000
30
123.500000
70
192
0
VERTEX
8
OBJECT__26
10
-10.602000
20
3.826000
30
127.816002
70
192
0
VERTEX
8
OBJECT__26
10
-8.608000
20
7.626000
30
127.816002
70
192
0
VERTEX
8
OBJECT__26
10
-10.806000
20
-3.933000
30
123.500000
70
192
0
VERTEX
8
OBJECT__26
10
-11.166000
20
-2.752000
30
127.816002
70
192
0
VERTEX
8
OBJECT__26
10
-11.166000
20
2.752000
30
127.816002
70
192
0
VERTEX
8
OBJECT__26
10
-10.602000
20
-3.826000
30
127.816002
70
192
0
VERTEX
8
OBJECT__26
10
-5.750000
20
-9.959000
30
123.500000
70
192
0
VERTEX
8
OBJECT__26
10
-8.608000
20
-7.626000
30
127.816002
70
192
0
VERTEX
8
OBJECT__26
10
-5.581000
20
-9.715000
30
127.816002
70
192
0
VERTEX
8
OBJECT__26
10
0.000000
20
-11.500000
30
123.500000
70
192
0
VERTEX
8
OBJECT__26
10
0.000000
20
-11.500000
30
127.816002
70
192
0
VERTEX
8
OBJECT__26
10
-4.078000
20
-10.753000
30
127.816002
70
192
0
VERTEX
8
OBJECT__26
10
1.997000
20
-11.325000
30
123.500000
70
192
0
VERTEX
8
OBJECT__26
10
1.386000
20
-11.416000
30
127.816002
70
192
0
VERTEX
8
OBJECT__26
10
1.950000
20
-11.202000
30
127.816002
70
192
0
VERTEX
8
OBJECT__26
10
8.810000
20
-7.392000
30
123.500000
70
192
0
VERTEX
8
OBJECT__26
10
6.533000
20
-9.464000
30
127.816002
70
192
0
VERTEX
8
OBJECT__26
10
8.562000
20
-7.173000
30
127.816002
70
192
0
VERTEX
8
OBJECT__26
10
11.500000
20
0.000000
30
127.816002
70
192
0
VERTEX
8
OBJECT__26
10
10.183000
20
-5.344000
30
127.816002
70
192
0
VERTEX
8
OBJECT__26
10
0
20
0
30
0
70
128
71
1
72
2
73
3
0
VERTEX
8
OBJECT__26
10
0
20
0
30
0
70
128
71
2
72
4
73
3
0
VERTEX
8
OBJECT__26
10
0
20
0
30
0
70
128
71
5
72
6
73
7
0
VERTEX
8
OBJECT__26
10
0
20
0
30
0
70
128
71
7
72
2
73
5
0
VERTEX
8
OBJECT__26
10
0
20
0
30
0
70
128
71
5
72
8
73
9
0
VERTEX
8
OBJECT__26
10
0
20
0
30
0
70
128
71
9
72
10
73
5
0
VERTEX
8
OBJECT__26
10
0
20
0
30
0
70
128
71
8
72
11
73
9
0
VERTEX
8
OBJECT__26
10
0
20
0
30
0
70
128
71
12
72
13
73
14
0
VERTEX
8
OBJECT__26
10
0
20
0
30
0
70
128
71
14
72
8
73
12
0
VERTEX
8
OBJECT__26
10
0
20
0
30
0
70
128
71
12
72
15
73
16
0
VERTEX
8
OBJECT__26
10
0
20
0
30
0
70
128
71
16
72
17
73
12
0
VERTEX
8
OBJECT__26
10
0
20
0
30
0
70
128
71
15
72
18
73
16
0
VERTEX
8
OBJECT__26
10
0
20
0
30
0
70
128
71
15
72
19
73
20
0
VERTEX
8
OBJECT__26
10
0
20
0
30
0
70
128
71
19
72
21
73
20
0
VERTEX
8
OBJECT__26
10
0
20
0
30
0
70
128
71
22
72
23
73
24
0
VERTEX
8
OBJECT__26
10
0
20
0
30
0
70
128
71
24
72
19
73
22
0
VERTEX
8
OBJECT__26
10
0
20
0
30
0
70
128
71
22
72
25
73
26
0
VERTEX
8
OBJECT__26
10
0
20
0
30
0
70
128
71
26
72
23
73
22
0
VERTEX
8
OBJECT__26
10
0
20
0
30
0
70
128
71
25
72
27
73
26
0
VERTEX
8
OBJECT__26
10
0
20
0
30
0
70
128
71
25
72
28
73
29
0
VERTEX
8
OBJECT__26
10
0
20
0
30
0
70
128
71
28
72
30
73
29
0
VERTEX
8
OBJECT__26
10
0
20
0
30
0
70
128
71
1
72
31
73
32
0
VERTEX
8
OBJECT__26
10
0
20
0
30
0
70
128
71
32
72
28
73
1
0
VERTEX
8
OBJECT__26
10
0
20
0
30
0
70
128
71
32
72
30
73
28
0
VERTEX
8
OBJECT__26
10
0
20
0
30
0
70
128
71
29
72
27
73
25
0
VERTEX
8
OBJECT__26
10
0
20
0
30
0
70
128
71
24
72
21
73
19
0
VERTEX
8
OBJECT__26
10
0
20
0
30
0
70
128
71
20
72
18
73
15
0
VERTEX
8
OBJECT__26
10
0
20
0
30
0
70
128
71
17
72
13
73
12
0
VERTEX
8
OBJECT__26
10
0
20
0
30
0
70
128
71
14
72
11
73
8
0
VERTEX
8
OBJECT__26
10
0
20
0
30
0
70
128
71
10
72
6
73
5
0
VERTEX
8
OBJECT__26
10
0
20
0
30
0
70
128
71
7
72
4
73
2
0
VERTEX
8
OBJECT__26
10
0
20
0
30
0
70
128
71
3
72
31
73
1
0
SEQEND
8
OBJECT__26
0
POLYLINE
8
OBJECT__27
66
1
70
64
71
27
72
27
62
253
0
VERTEX
8
OBJECT__27
10
0.000000
20
10.850000
30
123.500000
70
192
0
VERTEX
8
OBJECT__27
10
6.974000
20
8.312000
30
123.500000
70
192
0
VERTEX
8
OBJECT__27
10
3.696000
20
10.155000
30
122.849998
70
192
0
VERTEX
8
OBJECT__27
10
7.392000
20
8.810000
30
122.849998
70
192
0
VERTEX
8
OBJECT__27
10
10.685000
20
1.884000
30
123.500000
70
192
0
VERTEX
8
OBJECT__27
10
11.325000
20
1.997000
30
122.849998
70
192
0
VERTEX
8
OBJECT__27
10
9.359000
20
5.403000
30
122.849998
70
192
0
VERTEX
8
OBJECT__27
10
9.396000
20
-5.425000
30
123.500000
70
192
0
VERTEX
8
OBJECT__27
10
9.959000
20
-5.750000
30
122.849998
70
192
0
VERTEX
8
OBJECT__27
10
10.642000
20
-1.877000
30
122.849998
70
192
0
VERTEX
8
OBJECT__27
10
3.711000
20
-10.196000
30
123.500000
70
192
0
VERTEX
8
OBJECT__27
10
6.946000
20
-8.278000
30
122.849998
70
192
0
VERTEX
8
OBJECT__27
10
3.933000
20
-10.806000
30
122.849998
70
192
0
VERTEX
8
OBJECT__27
10
-3.711000
20
-10.196000
30
123.500000
70
192
0
VERTEX
8
OBJECT__27
10
0.000000
20
-10.806000
30
122.849998
70
192
0
VERTEX
8
OBJECT__27
10
-3.933000
20
-10.806000
30
122.849998
70
192
0
VERTEX
8
OBJECT__27
10
-9.396000
20
-5.425000
30
123.500000
70
192
0
VERTEX
8
OBJECT__27
10
-6.946000
20
-8.278000
30
122.849998
70
192
0
VERTEX
8
OBJECT__27
10
-9.959000
20
-5.750000
30
122.849998
70
192
0
VERTEX
8
OBJECT__27
10
-10.685000
20
1.884000
30
123.500000
70
192
0
VERTEX
8
OBJECT__27
10
-10.642000
20
-1.877000
30
122.849998
70
192
0
VERTEX
8
OBJECT__27
10
-11.325000
20
1.997000
30
122.849998
70
192
0
VERTEX
8
OBJECT__27
10
-6.974000
20
8.312000
30
123.500000
70
192
0
VERTEX
8
OBJECT__27
10
-9.359000
20
5.403000
30
122.849998
70
192
0
VERTEX
8
OBJECT__27
10
-7.392000
20
8.810000
30
122.849998
70
192
0
VERTEX
8
OBJECT__27
10
-3.696000
20
10.155000
30
122.849998
70
192
0
VERTEX
8
OBJECT__27
10
0.000000
20
11.500000
30
122.849998
70
192
0
VERTEX
8
OBJECT__27
10
0
20
0
30
0
70
128
71
1
72
2
73
3
0
VERTEX
8
OBJECT__27
10
0
20
0
30
0
70
128
71
2
72
4
73
3
0
VERTEX
8
OBJECT__27
10
0
20
0
30
0
70
128
71
5
72
6
73
7
0
VERTEX
8
OBJECT__27
10
0
20
0
30
0
70
128
71
7
72
2
73
5
0
VERTEX
8
OBJECT__27
10
0
20
0
30
0
70
128
71
8
72
9
73
10
0
VERTEX
8
OBJECT__27
10
0
20
0
30
0
70
128
71
10
72
5
73
8
0
VERTEX
8
OBJECT__27
10
0
20
0
30
0
70
128
71
8
72
11
73
12
0
VERTEX
8
OBJECT__27
10
0
20
0
30
0
70
128
71
11
72
13
73
12
0
VERTEX
8
OBJECT__27
10
0
20
0
30
0
70
128
71
11
72
14
73
15
0
VERTEX
8
OBJECT__27
10
0
20
0
30
0
70
128
71
14
72
16
73
15
0
VERTEX
8
OBJECT__27
10
0
20
0
30
0
70
128
71
14
72
17
73
18
0
VERTEX
8
OBJECT__27
10
0
20
0
30
0
70
128
71
17
72
19
73
18
0
VERTEX
8
OBJECT__27
10
0
20
0
30
0
70
128
71
17
72
20
73
21
0
VERTEX
8
OBJECT__27
10
0
20
0
30
0
70
128
71
20
72
22
73
21
0
VERTEX
8
OBJECT__27
10
0
20
0
30
0
70
128
71
20
72
23
73
24
0
VERTEX
8
OBJECT__27
10
0
20
0
30
0
70
128
71
23
72
25
73
24
0
VERTEX
8
OBJECT__27
10
0
20
0
30
0
70
128
71
23
72
1
73
26
0
VERTEX
8
OBJECT__27
10
0
20
0
30
0
70
128
71
1
72
27
73
26
0
VERTEX
8
OBJECT__27
10
0
20
0
30
0
70
128
71
26
72
25
73
23
0
VERTEX
8
OBJECT__27
10
0
20
0
30
0
70
128
71
24
72
22
73
20
0
VERTEX
8
OBJECT__27
10
0
20
0
30
0
70
128
71
21
72
19
73
17
0
VERTEX
8
OBJECT__27
10
0
20
0
30
0
70
128
71
18
72
16
73
14
0
VERTEX
8
OBJECT__27
10
0
20
0
30
0
70
128
71
15
72
13
73
11
0
VERTEX
8
OBJECT__27
10
0
20
0
30
0
70
128
71
12
72
9
73
8
0
VERTEX
8
OBJECT__27
10
0
20
0
30
0
70
128
71
10
72
6
73
5
0
VERTEX
8
OBJECT__27
10
0
20
0
30
0
70
128
71
7
72
4
73
2
0
VERTEX
8
OBJECT__27
10
0
20
0
30
0
70
128
71
3
72
27
73
1
0
SEQEND
8
OBJECT__27
0
POLYLINE
8
OBJECT__28
66
1
70
64
71
27
72
27
62
253
0
VERTEX
8
OBJECT__28
10
0.000000
20
-11.500000
30
122.500000
70
192
0
VERTEX
8
OBJECT__28
10
7.392000
20
-8.810000
30
122.500000
70
192
0
VERTEX
8
OBJECT__28
10
3.933000
20
-10.806000
30
122.849998
70
192
0
VERTEX
8
OBJECT__28
10
0.000000
20
-10.806000
30
122.849998
70
192
0
VERTEX
8
OBJECT__28
10
6.946000
20
-8.278000
30
122.849998
70
192
0
VERTEX
8
OBJECT__28
10
11.325000
20
-1.997000
30
122.500000
70
192
0
VERTEX
8
OBJECT__28
10
10.642000
20
-1.877000
30
122.849998
70
192
0
VERTEX
8
OBJECT__28
10
9.959000
20
-5.750000
30
122.849998
70
192
0
VERTEX
8
OBJECT__28
10
9.959000
20
5.750000
30
122.500000
70
192
0
VERTEX
8
OBJECT__28
10
11.325000
20
1.997000
30
122.849998
70
192
0
VERTEX
8
OBJECT__28
10
9.359000
20
5.403000
30
122.849998
70
192
0
VERTEX
8
OBJECT__28
10
3.933000
20
10.806000
30
122.500000
70
192
0
VERTEX
8
OBJECT__28
10
7.392000
20
8.810000
30
122.849998
70
192
0
VERTEX
8
OBJECT__28
10
3.696000
20
10.155000
30
122.849998
70
192
0
VERTEX
8
OBJECT__28
10
-3.933000
20
10.806000
30
122.500000
70
192
0
VERTEX
8
OBJECT__28
10
0.000000
20
11.500000
30
122.849998
70
192
0
VERTEX
8
OBJECT__28
10
-3.696000
20
10.155000
30
122.849998
70
192
0
VERTEX
8
OBJECT__28
10
-9.959000
20
5.750000
30
122.500000
70
192
0
VERTEX
8
OBJECT__28
10
-9.359000
20
5.403000
30
122.849998
70
192
0
VERTEX
8
OBJECT__28
10
-7.392000
20
8.810000
30
122.849998
70
192
0
VERTEX
8
OBJECT__28
10
-11.325000
20
-1.997000
30
122.500000
70
192
0
VERTEX
8
OBJECT__28
10
-10.642000
20
-1.877000
30
122.849998
70
192
0
VERTEX
8
OBJECT__28
10
-11.325000
20
1.997000
30
122.849998
70
192
0
VERTEX
8
OBJECT__28
10
-7.392000
20
-8.810000
30
122.500000
70
192
0
VERTEX
8
OBJECT__28
10
-6.946000
20
-8.278000
30
122.849998
70
192
0
VERTEX
8
OBJECT__28
10
-9.959000
20
-5.750000
30
122.849998
70
192
0
VERTEX
8
OBJECT__28
10
-3.933000
20
-10.806000
30
122.849998
70
192
0
VERTEX
8
OBJECT__28
10
0
20
0
30
0
70
128
71
1
72
2
73
3
0
VERTEX
8
OBJECT__28
10
0
20
0
30
0
70
128
71
3
72
4
73
1
0
VERTEX
8
OBJECT__28
10
0
20
0
30
0
70
128
71
2
72
5
73
3
0
VERTEX
8
OBJECT__28
10
0
20
0
30
0
70
128
71
6
72
7
73
8
0
VERTEX
8
OBJECT__28
10
0
20
0
30
0
70
128
71
8
72
2
73
6
0
VERTEX
8
OBJECT__28
10
0
20
0
30
0
70
128
71
8
72
5
73
2
0
VERTEX
8
OBJECT__28
10
0
20
0
30
0
70
128
71
6
72
9
73
10
0
VERTEX
8
OBJECT__28
10
0
20
0
30
0
70
128
71
10
72
7
73
6
0
VERTEX
8
OBJECT__28
10
0
20
0
30
0
70
128
71
9
72
11
73
10
0
VERTEX
8
OBJECT__28
10
0
20
0
30
0
70
128
71
9
72
12
73
13
0
VERTEX
8
OBJECT__28
10
0
20
0
30
0
70
128
71
13
72
11
73
9
0
VERTEX
8
OBJECT__28
10
0
20
0
30
0
70
128
71
12
72
14
73
13
0
VERTEX
8
OBJECT__28
10
0
20
0
30
0
70
128
71
12
72
15
73
16
0
VERTEX
8
OBJECT__28
10
0
20
0
30
0
70
128
71
16
72
14
73
12
0
VERTEX
8
OBJECT__28
10
0
20
0
30
0
70
128
71
15
72
17
73
16
0
VERTEX
8
OBJECT__28
10
0
20
0
30
0
70
128
71
18
72
19
73
20
0
VERTEX
8
OBJECT__28
10
0
20
0
30
0
70
128
71
20
72
15
73
18
0
VERTEX
8
OBJECT__28
10
0
20
0
30
0
70
128
71
20
72
17
73
15
0
VERTEX
8
OBJECT__28
10
0
20
0
30
0
70
128
71
21
72
22
73
23
0
VERTEX
8
OBJECT__28
10
0
20
0
30
0
70
128
71
23
72
18
73
21
0
VERTEX
8
OBJECT__28
10
0
20
0
30
0
70
128
71
23
72
19
73
18
0
VERTEX
8
OBJECT__28
10
0
20
0
30
0
70
128
71
24
72
25
73
26
0
VERTEX
8
OBJECT__28
10
0
20
0
30
0
70
128
71
26
72
21
73
24
0
VERTEX
8
OBJECT__28
10
0
20
0
30
0
70
128
71
26
72
22
73
21
0
VERTEX
8
OBJECT__28
10
0
20
0
30
0
70
128
71
1
72
4
73
27
0
VERTEX
8
OBJECT__28
10
0
20
0
30
0
70
128
71
27
72
24
73
1
0
VERTEX
8
OBJECT__28
10
0
20
0
30
0
70
128
71
27
72
25
73
24
0
SEQEND
8
OBJECT__28
0
POLYLINE
8
OBJECT__30
66
1
70
64
71
21
72
21
62
253
0
VERTEX
8
OBJECT__30
10
8.650000
20
-13.460000
30
122.500000
70
192
0
VERTEX
8
OBJECT__30
10
7.392000
20
-8.810000
30
122.500000
70
192
0
VERTEX
8
OBJECT__30
10
0.000000
20
-11.500000
30
122.500000
70
192
0
VERTEX
8
OBJECT__30
10
14.554000
20
-6.647000
30
122.500000
70
192
0
VERTEX
8
OBJECT__30
10
11.325000
20
-1.997000
30
122.500000
70
192
0
VERTEX
8
OBJECT__30
10
15.837000
20
2.277000
30
122.500000
70
192
0
VERTEX
8
OBJECT__30
10
12.092000
20
10.478000
30
122.500000
70
192
0
VERTEX
8
OBJECT__30
10
9.959000
20
5.750000
30
122.500000
70
192
0
VERTEX
8
OBJECT__30
10
-3.933000
20
10.806000
30
122.500000
70
192
0
VERTEX
8
OBJECT__30
10
3.933000
20
10.806000
30
122.500000
70
192
0
VERTEX
8
OBJECT__30
10
0.000000
20
16.000000
30
122.500000
70
192
0
VERTEX
8
OBJECT__30
10
4.508000
20
15.352000
30
122.500000
70
192
0
VERTEX
8
OBJECT__30
10
-12.092000
20
10.478000
30
122.500000
70
192
0
VERTEX
8
OBJECT__30
10
-9.959000
20
5.750000
30
122.500000
70
192
0
VERTEX
8
OBJECT__30
10
-4.508000
20
15.352000
30
122.500000
70
192
0
VERTEX
8
OBJECT__30
10
-15.837000
20
2.277000
30
122.500000
70
192
0
VERTEX
8
OBJECT__30
10
-11.325000
20
-1.997000
30
122.500000
70
192
0
VERTEX
8
OBJECT__30
10
-14.554000
20
-6.647000
30
122.500000
70
192
0
VERTEX
8
OBJECT__30
10
-8.650000
20
-13.460000
30
122.500000
70
192
0
VERTEX
8
OBJECT__30
10
-7.392000
20
-8.810000
30
122.500000
70
192
0
VERTEX
8
OBJECT__30
10
0.000000
20
-16.000000
30
122.500000
70
192
0
VERTEX
8
OBJECT__30
10
0
20
0
30
0
70
128
71
1
72
2
73
3
0
VERTEX
8
OBJECT__30
10
0
20
0
30
0
70
128
71
4
72
5
73
2
0
VERTEX
8
OBJECT__30
10
0
20
0
30
0
70
128
71
6
72
7
73
8
0
VERTEX
8
OBJECT__30
10
0
20
0
30
0
70
128
71
2
72
1
73
4
0
VERTEX
8
OBJECT__30
10
0
20
0
30
0
70
128
71
8
72
5
73
6
0
VERTEX
8
OBJECT__30
10
0
20
0
30
0
70
128
71
9
72
10
73
11
0
VERTEX
8
OBJECT__30
10
0
20
0
30
0
70
128
71
5
72
4
73
6
0
VERTEX
8
OBJECT__30
10
0
20
0
30
0
70
128
71
7
72
12
73
10
0
VERTEX
8
OBJECT__30
10
0
20
0
30
0
70
128
71
10
72
12
73
11
0
VERTEX
8
OBJECT__30
10
0
20
0
30
0
70
128
71
13
72
14
73
9
0
VERTEX
8
OBJECT__30
10
0
20
0
30
0
70
128
71
10
72
8
73
7
0
VERTEX
8
OBJECT__30
10
0
20
0
30
0
70
128
71
9
72
15
73
13
0
VERTEX
8
OBJECT__30
10
0
20
0
30
0
70
128
71
16
72
17
73
14
0
VERTEX
8
OBJECT__30
10
0
20
0
30
0
70
128
71
11
72
15
73
9
0
VERTEX
8
OBJECT__30
10
0
20
0
30
0
70
128
71
16
72
18
73
17
0
VERTEX
8
OBJECT__30
10
0
20
0
30
0
70
128
71
14
72
13
73
16
0
VERTEX
8
OBJECT__30
10
0
20
0
30
0
70
128
71
18
72
19
73
20
0
VERTEX
8
OBJECT__30
10
0
20
0
30
0
70
128
71
20
72
17
73
18
0
VERTEX
8
OBJECT__30
10
0
20
0
30
0
70
128
71
19
72
21
73
3
0
VERTEX
8
OBJECT__30
10
0
20
0
30
0
70
128
71
3
72
20
73
19
0
VERTEX
8
OBJECT__30
10
0
20
0
30
0
70
128
71
3
72
21
73
1
0
SEQEND
8
OBJECT__30
0
POLYLINE
8
OBJECT__31
66
1
70
64
71
23
72
23
62
253
0
VERTEX
8
OBJECT__31
10
8.650000
20
-13.460000
30
111.000000
70
192
0
VERTEX
8
OBJECT__31
10
8.650000
20
-13.460000
30
122.500000
70
192
0
VERTEX
8
OBJECT__31
10
0.000000
20
-16.000000
30
122.500000
70
192
0
VERTEX
8
OBJECT__31
10
14.554000
20
-6.647000
30
111.000000
70
192
0
VERTEX
8
OBJECT__31
10
14.554000
20
-6.647000
30
122.500000
70
192
0
VERTEX
8
OBJECT__31
10
15.837000
20
2.277000
30
111.000000
70
192
0
VERTEX
8
OBJECT__31
10
15.837000
20
2.277000
30
122.500000
70
192
0
VERTEX
8
OBJECT__31
10
12.092000
20
10.478000
30
111.000000
70
192
0
VERTEX
8
OBJECT__31
10
12.092000
20
10.478000
30
122.500000
70
192
0
VERTEX
8
OBJECT__31
10
4.508000
20
15.352000
30
111.000000
70
192
0
VERTEX
8
OBJECT__31
10
4.508000
20
15.352000
30
122.500000
70
192
0
VERTEX
8
OBJECT__31
10
-4.508000
20
15.352000
30
111.000000
70
192
0
VERTEX
8
OBJECT__31
10
0.000000
20
16.000000
30
122.500000
70
192
0
VERTEX
8
OBJECT__31
10
-4.508000
20
15.352000
30
122.500000
70
192
0
VERTEX
8
OBJECT__31
10
-12.092000
20
10.478000
30
111.000000
70
192
0
VERTEX
8
OBJECT__31
10
-12.092000
20
10.478000
30
122.500000
70
192
0
VERTEX
8
OBJECT__31
10
-15.837000
20
2.277000
30
111.000000
70
192
0
VERTEX
8
OBJECT__31
10
-15.837000
20
2.277000
30
122.500000
70
192
0
VERTEX
8
OBJECT__31
10
-14.554000
20
-6.647000
30
111.000000
70
192
0
VERTEX
8
OBJECT__31
10
-14.554000
20
-6.647000
30
122.500000
70
192
0
VERTEX
8
OBJECT__31
10
-8.650000
20
-13.460000
30
111.000000
70
192
0
VERTEX
8
OBJECT__31
10
-8.650000
20
-13.460000
30
122.500000
70
192
0
VERTEX
8
OBJECT__31
10
0.000000
20
-16.000000
30
111.000000
70
192
0
VERTEX
8
OBJECT__31
10
0
20
0
30
0
70
128
71
1
72
2
73
3
0
VERTEX
8
OBJECT__31
10
0
20
0
30
0
70
128
71
4
72
5
73
2
0
VERTEX
8
OBJECT__31
10
0
20
0
30
0
70
128
71
6
72
7
73
5
0
VERTEX
8
OBJECT__31
10
0
20
0
30
0
70
128
71
8
72
9
73
7
0
VERTEX
8
OBJECT__31
10
0
20
0
30
0
70
128
71
10
72
11
73
9
0
VERTEX
8
OBJECT__31
10
0
20
0
30
0
70
128
71
10
72
12
73
13
0
VERTEX
8
OBJECT__31
10
0
20
0
30
0
70
128
71
12
72
14
73
13
0
VERTEX
8
OBJECT__31
10
0
20
0
30
0
70
128
71
15
72
16
73
14
0
VERTEX
8
OBJECT__31
10
0
20
0
30
0
70
128
71
17
72
18
73
16
0
VERTEX
8
OBJECT__31
10
0
20
0
30
0
70
128
71
19
72
20
73
18
0
VERTEX
8
OBJECT__31
10
0
20
0
30
0
70
128
71
21
72
22
73
20
0
VERTEX
8
OBJECT__31
10
0
20
0
30
0
70
128
71
23
72
3
73
22
0
VERTEX
8
OBJECT__31
10
0
20
0
30
0
70
128
71
22
72
21
73
23
0
VERTEX
8
OBJECT__31
10
0
20
0
30
0
70
128
71
20
72
19
73
21
0
VERTEX
8
OBJECT__31
10
0
20
0
30
0
70
128
71
18
72
17
73
19
0
VERTEX
8
OBJECT__31
10
0
20
0
30
0
70
128
71
16
72
15
73
17
0
VERTEX
8
OBJECT__31
10
0
20
0
30
0
70
128
71
14
72
12
73
15
0
VERTEX
8
OBJECT__31
10
0
20
0
30
0
70
128
71
13
72
11
73
10
0
VERTEX
8
OBJECT__31
10
0
20
0
30
0
70
128
71
9
72
8
73
10
0
VERTEX
8
OBJECT__31
10
0
20
0
30
0
70
128
71
7
72
6
73
8
0
VERTEX
8
OBJECT__31
10
0
20
0
30
0
70
128
71
5
72
4
73
6
0
VERTEX
8
OBJECT__31
10
0
20
0
30
0
70
128
71
2
72
1
73
4
0
VERTEX
8
OBJECT__31
10
0
20
0
30
0
70
128
71
3
72
23
73
1
0
SEQEND
8
OBJECT__31
0
POLYLINE
8
OBJECT__32
66
1
70
64
71
9
72
7
62
253
0
VERTEX
8
OBJECT__32
10
90.617996
20
0.000000
30
153.789993
70
192
0
VERTEX
8
OBJECT__32
10
84.801003
20
-9.848000
30
147.919998
70
192
0
VERTEX
8
OBJECT__32
10
80.058998
20
-8.660000
30
143.134995
70
192
0
VERTEX
8
OBJECT__32
10
88.971001
20
-6.428000
30
152.128006
70
192
0
VERTEX
8
OBJECT__32
10
76.964996
20
3.420000
30
140.011993
70
192
0
VERTEX
8
OBJECT__32
10
80.058998
20
8.660000
30
143.134995
70
192
0
VERTEX
8
OBJECT__32
10
76.964996
20
-3.420000
30
140.011993
70
192
0
VERTEX
8
OBJECT__32
10
84.801003
20
9.848000
30
147.919998
70
192
0
VERTEX
8
OBJECT__32
10
88.971001
20
6.428000
30
152.128006
70
192
0
VERTEX
8
OBJECT__32
10
0
20
0
30
0
70
128
71
1
72
2
73
3
0
VERTEX
8
OBJECT__32
10
0
20
0
30
0
70
128
71
1
72
4
73
2
0
VERTEX
8
OBJECT__32
10
0
20
0
30
0
70
128
71
1
72
5
73
6
0
VERTEX
8
OBJECT__32
10
0
20
0
30
0
70
128
71
3
72
7
73
1
0
VERTEX
8
OBJECT__32
10
0
20
0
30
0
70
128
71
6
72
8
73
1
0
VERTEX
8
OBJECT__32
10
0
20
0
30
0
70
128
71
8
72
9
73
1
0
VERTEX
8
OBJECT__32
10
0
20
0
30
0
70
128
71
7
72
5
73
1
0
SEQEND
8
OBJECT__32
0
POLYLINE
8
OBJECT__33
66
1
70
64
71
19
72
19
62
253
0
VERTEX
8
OBJECT__33
10
88.971001
20
-6.428000
30
152.128006
70
192
0
VERTEX
8
OBJECT__33
10
90.617996
20
0.000000
30
153.789993
70
192
0
VERTEX
8
OBJECT__33
10
73.570000
20
0.000000
30
170.682999
70
192
0
VERTEX
8
OBJECT__33
10
84.801003
20
-9.848000
30
147.919998
70
192
0
VERTEX
8
OBJECT__33
10
71.922997
20
-6.428000
30
169.020996
70
192
0
VERTEX
8
OBJECT__33
10
80.058998
20
-8.660000
30
143.134995
70
192
0
VERTEX
8
OBJECT__33
10
67.753998
20
-9.848000
30
164.813004
70
192
0
VERTEX
8
OBJECT__33
10
76.964996
20
-3.420000
30
140.011993
70
192
0
VERTEX
8
OBJECT__33
10
63.012001
20
-8.660000
30
160.028000
70
192
0
VERTEX
8
OBJECT__33
10
76.964996
20
3.420000
30
140.011993
70
192
0
VERTEX
8
OBJECT__33
10
59.574001
20
-1.520000
30
156.559006
70
192
0
VERTEX
8
OBJECT__33
10
59.917000
20
-3.420000
30
156.904999
70
192
0
VERTEX
8
OBJECT__33
10
59.917000
20
3.420000
30
156.904999
70
192
0
VERTEX
8
OBJECT__33
10
63.012001
20
8.660000
30
160.028000
70
192
0
VERTEX
8
OBJECT__33
10
67.753998
20
9.848000
30
164.813004
70
192
0
VERTEX
8
OBJECT__33
10
84.801003
20
9.848000
30
147.919998
70
192
0
VERTEX
8
OBJECT__33
10
80.058998
20
8.660000
30
143.134995
70
192
0
VERTEX
8
OBJECT__33
10
88.971001
20
6.428000
30
152.128006
70
192
0
VERTEX
8
OBJECT__33
10
71.922997
20
6.428000
30
169.020996
70
192
0
VERTEX
8
OBJECT__33
10
0
20
0
30
0
70
128
71
1
72
2
73
3
0
VERTEX
8
OBJECT__33
10
0
20
0
30
0
70
128
71
4
72
1
73
5
0
VERTEX
8
OBJECT__33
10
0
20
0
30
0
70
128
71
6
72
4
73
7
0
VERTEX
8
OBJECT__33
10
0
20
0
30
0
70
128
71
8
72
6
73
9
0
VERTEX
8
OBJECT__33
10
0
20
0
30
0
70
128
71
10
72
8
73
11
0
VERTEX
8
OBJECT__33
10
0
20
0
30
0
70
128
71
8
72
12
73
11
0
VERTEX
8
OBJECT__33
10
0
20
0
30
0
70
128
71
10
72
13
73
14
0
VERTEX
8
OBJECT__33
10
0
20
0
30
0
70
128
71
15
72
16
73
17
0
VERTEX
8
OBJECT__33
10
0
20
0
30
0
70
128
71
18
72
16
73
15
0
VERTEX
8
OBJECT__33
10
0
20
0
30
0
70
128
71
3
72
2
73
18
0
VERTEX
8
OBJECT__33
10
0
20
0
30
0
70
128
71
18
72
19
73
3
0
VERTEX
8
OBJECT__33
10
0
20
0
30
0
70
128
71
15
72
19
73
18
0
VERTEX
8
OBJECT__33
10
0
20
0
30
0
70
128
71
17
72
14
73
15
0
VERTEX
8
OBJECT__33
10
0
20
0
30
0
70
128
71
14
72
17
73
10
0
VERTEX
8
OBJECT__33
10
0
20
0
30
0
70
128
71
11
72
13
73
10
0
VERTEX
8
OBJECT__33
10
0
20
0
30
0
70
128
71
9
72
12
73
8
0
VERTEX
8
OBJECT__33
10
0
20
0
30
0
70
128
71
7
72
9
73
6
0
VERTEX
8
OBJECT__33
10
0
20
0
30
0
70
128
71
5
72
7
73
4
0
VERTEX
8
OBJECT__33
10
0
20
0
30
0
70
128
71
3
72
5
73
1
0
SEQEND
8
OBJECT__33
0
POLYLINE
8
OBJECT__35
66
1
70
64
71
20
72
20
62
253
0
VERTEX
8
OBJECT__35
10
59.574001
20
-1.520000
30
156.559006
70
192
0
VERTEX
8
OBJECT__35
10
62.664001
20
-0.845000
30
159.677002
70
192
0
VERTEX
8
OBJECT__35
10
62.678001
20
0.965000
30
159.690994
70
192
0
VERTEX
8
OBJECT__35
10
59.917000
20
-3.420000
30
156.904999
70
192
0
VERTEX
8
OBJECT__35
10
63.143002
20
-2.780000
30
160.160004
70
192
0
VERTEX
8
OBJECT__35
10
59.917000
20
3.420000
30
156.904999
70
192
0
VERTEX
8
OBJECT__35
10
64.015999
20
4.258000
30
161.042007
70
192
0
VERTEX
8
OBJECT__35
10
67.753998
20
-9.848000
30
164.813004
70
192
0
VERTEX
8
OBJECT__35
10
67.870003
20
-5.224000
30
164.929993
70
192
0
VERTEX
8
OBJECT__35
10
65.193001
20
-5.224000
30
162.229004
70
192
0
VERTEX
8
OBJECT__35
10
71.922997
20
-6.428000
30
169.020996
70
192
0
VERTEX
8
OBJECT__35
10
69.919998
20
-2.780000
30
166.998993
70
192
0
VERTEX
8
OBJECT__35
10
67.753998
20
9.848000
30
164.813004
70
192
0
VERTEX
8
OBJECT__35
10
66.530998
20
5.559000
30
163.580002
70
192
0
VERTEX
8
OBJECT__35
10
69.045998
20
4.258000
30
166.117996
70
192
0
VERTEX
8
OBJECT__35
10
63.012001
20
8.660000
30
160.028000
70
192
0
VERTEX
8
OBJECT__35
10
63.012001
20
-8.660000
30
160.028000
70
192
0
VERTEX
8
OBJECT__35
10
73.570000
20
0.000000
30
170.682999
70
192
0
VERTEX
8
OBJECT__35
10
70.385002
20
0.965000
30
167.468002
70
192
0
VERTEX
8
OBJECT__35
10
71.922997
20
6.428000
30
169.020996
70
192
0
VERTEX
8
OBJECT__35
10
0
20
0
30
0
70
128
71
1
72
2
73
3
0
VERTEX
8
OBJECT__35
10
0
20
0
30
0
70
128
71
4
72
5
73
2
0
VERTEX
8
OBJECT__35
10
0
20
0
30
0
70
128
71
6
72
3
73
7
0
VERTEX
8
OBJECT__35
10
0
20
0
30
0
70
128
71
2
72
1
73
4
0
VERTEX
8
OBJECT__35
10
0
20
0
30
0
70
128
71
8
72
9
73
10
0
VERTEX
8
OBJECT__35
10
0
20
0
30
0
70
128
71
11
72
12
73
9
0
VERTEX
8
OBJECT__35
10
0
20
0
30
0
70
128
71
13
72
14
73
15
0
VERTEX
8
OBJECT__35
10
0
20
0
30
0
70
128
71
16
72
7
73
14
0
VERTEX
8
OBJECT__35
10
0
20
0
30
0
70
128
71
3
72
6
73
1
0
VERTEX
8
OBJECT__35
10
0
20
0
30
0
70
128
71
17
72
10
73
5
0
VERTEX
8
OBJECT__35
10
0
20
0
30
0
70
128
71
9
72
8
73
11
0
VERTEX
8
OBJECT__35
10
0
20
0
30
0
70
128
71
18
72
19
73
12
0
VERTEX
8
OBJECT__35
10
0
20
0
30
0
70
128
71
20
72
15
73
19
0
VERTEX
8
OBJECT__35
10
0
20
0
30
0
70
128
71
14
72
13
73
16
0
VERTEX
8
OBJECT__35
10
0
20
0
30
0
70
128
71
5
72
4
73
17
0
VERTEX
8
OBJECT__35
10
0
20
0
30
0
70
128
71
12
72
11
73
18
0
VERTEX
8
OBJECT__35
10
0
20
0
30
0
70
128
71
15
72
20
73
13
0
VERTEX
8
OBJECT__35
10
0
20
0
30
0
70
128
71
10
72
17
73
8
0
VERTEX
8
OBJECT__35
10
0
20
0
30
0
70
128
71
7
72
16
73
6
0
VERTEX
8
OBJECT__35
10
0
20
0
30
0
70
128
71
19
72
18
73
20
0
SEQEND
8
OBJECT__35
0
POLYLINE
8
OBJECT__36
66
1
70
64
71
25
72
25
62
253
0
VERTEX
8
OBJECT__36
10
66.530998
20
5.559000
30
163.580002
70
192
0
VERTEX
8
OBJECT__36
10
65.981003
20
4.750000
30
164.125000
70
192
0
VERTEX
8
OBJECT__36
10
67.600998
20
3.912000
30
165.759995
70
192
0
VERTEX
8
OBJECT__36
10
69.045998
20
4.258000
30
166.117996
70
192
0
VERTEX
8
OBJECT__36
10
70.385002
20
0.965000
30
167.468002
70
192
0
VERTEX
8
OBJECT__36
10
68.129997
20
3.639000
30
166.294006
70
192
0
VERTEX
8
OBJECT__36
10
69.919998
20
-2.780000
30
166.998993
70
192
0
VERTEX
8
OBJECT__36
10
69.324997
20
0.000000
30
167.498993
70
192
0
VERTEX
8
OBJECT__36
10
69.274002
20
0.825000
30
167.447998
70
192
0
VERTEX
8
OBJECT__36
10
68.876999
20
-2.375000
30
167.046997
70
192
0
VERTEX
8
OBJECT__36
10
67.556000
20
-3.949000
30
165.714005
70
192
0
VERTEX
8
OBJECT__36
10
67.870003
20
-5.224000
30
164.929993
70
192
0
VERTEX
8
OBJECT__36
10
67.125000
20
-4.464000
30
165.279007
70
192
0
VERTEX
8
OBJECT__36
10
64.837997
20
-4.464000
30
162.970993
70
192
0
VERTEX
8
OBJECT__36
10
63.143002
20
-2.780000
30
160.160004
70
192
0
VERTEX
8
OBJECT__36
10
65.193001
20
-5.224000
30
162.229004
70
192
0
VERTEX
8
OBJECT__36
10
64.405998
20
-3.949000
30
162.535995
70
192
0
VERTEX
8
OBJECT__36
10
62.678001
20
0.965000
30
159.690994
70
192
0
VERTEX
8
OBJECT__36
10
62.664001
20
-0.845000
30
159.677002
70
192
0
VERTEX
8
OBJECT__36
10
62.785999
20
0.037000
30
160.901001
70
192
0
VERTEX
8
OBJECT__36
10
63.085999
20
-2.375000
30
161.203003
70
192
0
VERTEX
8
OBJECT__36
10
64.015999
20
4.258000
30
161.042007
70
192
0
VERTEX
8
OBJECT__36
10
62.688999
20
0.825000
30
160.802002
70
192
0
VERTEX
8
OBJECT__36
10
64.361000
20
3.912000
30
162.490005
70
192
0
VERTEX
8
OBJECT__36
10
63.832001
20
3.639000
30
161.955994
70
192
0
VERTEX
8
OBJECT__36
10
0
20
0
30
0
70
128
71
1
72
2
73
3
0
VERTEX
8
OBJECT__36
10
0
20
0
30
0
70
128
71
3
72
4
73
1
0
VERTEX
8
OBJECT__36
10
0
20
0
30
0
70
128
71
5
72
4
73
6
0
VERTEX
8
OBJECT__36
10
0
20
0
30
0
70
128
71
7
72
5
73
8
0
VERTEX
8
OBJECT__36
10
0
20
0
30
0
70
128
71
5
72
9
73
8
0
VERTEX
8
OBJECT__36
10
0
20
0
30
0
70
128
71
7
72
10
73
11
0
VERTEX
8
OBJECT__36
10
0
20
0
30
0
70
128
71
11
72
12
73
7
0
VERTEX
8
OBJECT__36
10
0
20
0
30
0
70
128
71
12
72
13
73
14
0
VERTEX
8
OBJECT__36
10
0
20
0
30
0
70
128
71
15
72
16
73
17
0
VERTEX
8
OBJECT__36
10
0
20
0
30
0
70
128
71
16
72
14
73
17
0
VERTEX
8
OBJECT__36
10
0
20
0
30
0
70
128
71
18
72
19
73
20
0
VERTEX
8
OBJECT__36
10
0
20
0
30
0
70
128
71
21
72
20
73
19
0
VERTEX
8
OBJECT__36
10
0
20
0
30
0
70
128
71
19
72
15
73
21
0
VERTEX
8
OBJECT__36
10
0
20
0
30
0
70
128
71
22
72
18
73
23
0
VERTEX
8
OBJECT__36
10
0
20
0
30
0
70
128
71
1
72
22
73
24
0
VERTEX
8
OBJECT__36
10
0
20
0
30
0
70
128
71
22
72
25
73
24
0
VERTEX
8
OBJECT__36
10
0
20
0
30
0
70
128
71
24
72
2
73
1
0
VERTEX
8
OBJECT__36
10
0
20
0
30
0
70
128
71
23
72
25
73
22
0
VERTEX
8
OBJECT__36
10
0
20
0
30
0
70
128
71
20
72
23
73
18
0
VERTEX
8
OBJECT__36
10
0
20
0
30
0
70
128
71
17
72
21
73
15
0
VERTEX
8
OBJECT__36
10
0
20
0
30
0
70
128
71
14
72
16
73
12
0
VERTEX
8
OBJECT__36
10
0
20
0
30
0
70
128
71
11
72
13
73
12
0
VERTEX
8
OBJECT__36
10
0
20
0
30
0
70
128
71
8
72
10
73
7
0
VERTEX
8
OBJECT__36
10
0
20
0
30
0
70
128
71
6
72
9
73
5
0
VERTEX
8
OBJECT__36
10
0
20
0
30
0
70
128
71
3
72
6
73
4
0
SEQEND
8
OBJECT__36
0
POLYLINE
8
OBJECT__37
66
1
70
64
71
22
72
22
62
253
0
VERTEX
8
OBJECT__37
10
65.004997
20
-4.114000
30
168.436005
70
192
0
VERTEX
8
OBJECT__37
10
67.556000
20
-3.949000
30
165.714005
70
192
0
VERTEX
8
OBJECT__37
10
68.876999
20
-2.375000
30
167.046997
70
192
0
VERTEX
8
OBJECT__37
10
66.676003
20
0.000000
30
170.123001
70
192
0
VERTEX
8
OBJECT__37
10
61.660999
20
-4.114000
30
165.061996
70
192
0
VERTEX
8
OBJECT__37
10
64.837997
20
-4.464000
30
162.970993
70
192
0
VERTEX
8
OBJECT__37
10
67.125000
20
-4.464000
30
165.279007
70
192
0
VERTEX
8
OBJECT__37
10
64.405998
20
-3.949000
30
162.535995
70
192
0
VERTEX
8
OBJECT__37
10
59.988998
20
0.000000
30
163.375000
70
192
0
VERTEX
8
OBJECT__37
10
63.085999
20
-2.375000
30
161.203003
70
192
0
VERTEX
8
OBJECT__37
10
62.785999
20
0.037000
30
160.901001
70
192
0
VERTEX
8
OBJECT__37
10
61.660999
20
4.114000
30
165.061996
70
192
0
VERTEX
8
OBJECT__37
10
63.832001
20
3.639000
30
161.955994
70
192
0
VERTEX
8
OBJECT__37
10
64.361000
20
3.912000
30
162.490005
70
192
0
VERTEX
8
OBJECT__37
10
62.688999
20
0.825000
30
160.802002
70
192
0
VERTEX
8
OBJECT__37
10
62.825001
20
4.695000
30
166.235992
70
192
0
VERTEX
8
OBJECT__37
10
65.004997
20
4.114000
30
168.436005
70
192
0
VERTEX
8
OBJECT__37
10
67.600998
20
3.912000
30
165.759995
70
192
0
VERTEX
8
OBJECT__37
10
65.981003
20
4.750000
30
164.125000
70
192
0
VERTEX
8
OBJECT__37
10
69.274002
20
0.825000
30
167.447998
70
192
0
VERTEX
8
OBJECT__37
10
68.129997
20
3.639000
30
166.294006
70
192
0
VERTEX
8
OBJECT__37
10
69.324997
20
0.000000
30
167.498993
70
192
0
VERTEX
8
OBJECT__37
10
0
20
0
30
0
70
128
71
1
72
2
73
3
0
VERTEX
8
OBJECT__37
10
0
20
0
30
0
70
128
71
3
72
4
73
1
0
VERTEX
8
OBJECT__37
10
0
20
0
30
0
70
128
71
1
72
5
73
6
0
VERTEX
8
OBJECT__37
10
0
20
0
30
0
70
128
71
6
72
7
73
1
0
VERTEX
8
OBJECT__37
10
0
20
0
30
0
70
128
71
5
72
8
73
6
0
VERTEX
8
OBJECT__37
10
0
20
0
30
0
70
128
71
5
72
9
73
10
0
VERTEX
8
OBJECT__37
10
0
20
0
30
0
70
128
71
9
72
11
73
10
0
VERTEX
8
OBJECT__37
10
0
20
0
30
0
70
128
71
9
72
12
73
13
0
VERTEX
8
OBJECT__37
10
0
20
0
30
0
70
128
71
12
72
14
73
13
0
VERTEX
8
OBJECT__37
10
0
20
0
30
0
70
128
71
13
72
15
73
9
0
VERTEX
8
OBJECT__37
10
0
20
0
30
0
70
128
71
14
72
12
73
16
0
VERTEX
8
OBJECT__37
10
0
20
0
30
0
70
128
71
17
72
18
73
19
0
VERTEX
8
OBJECT__37
10
0
20
0
30
0
70
128
71
19
72
16
73
17
0
VERTEX
8
OBJECT__37
10
0
20
0
30
0
70
128
71
4
72
20
73
21
0
VERTEX
8
OBJECT__37
10
0
20
0
30
0
70
128
71
21
72
17
73
4
0
VERTEX
8
OBJECT__37
10
0
20
0
30
0
70
128
71
4
72
22
73
20
0
VERTEX
8
OBJECT__37
10
0
20
0
30
0
70
128
71
21
72
18
73
17
0
VERTEX
8
OBJECT__37
10
0
20
0
30
0
70
128
71
16
72
19
73
14
0
VERTEX
8
OBJECT__37
10
0
20
0
30
0
70
128
71
15
72
11
73
9
0
VERTEX
8
OBJECT__37
10
0
20
0
30
0
70
128
71
10
72
8
73
5
0
VERTEX
8
OBJECT__37
10
0
20
0
30
0
70
128
71
7
72
2
73
1
0
VERTEX
8
OBJECT__37
10
0
20
0
30
0
70
128
71
3
72
22
73
4
0
SEQEND
8
OBJECT__37
0
POLYLINE
8
OBJECT__38
66
1
70
64
71
17
72
17
62
253
0
VERTEX
8
OBJECT__38
10
64.470001
20
9.159000
30
167.895996
70
192
0
VERTEX
8
OBJECT__38
10
68.348000
20
5.978000
30
171.809998
70
192
0
VERTEX
8
OBJECT__38
10
65.004997
20
4.114000
30
168.436005
70
192
0
VERTEX
8
OBJECT__38
10
62.338001
20
9.192000
30
165.744995
70
192
0
VERTEX
8
OBJECT__38
10
62.825001
20
4.695000
30
166.235992
70
192
0
VERTEX
8
OBJECT__38
10
61.660999
20
4.114000
30
165.061996
70
192
0
VERTEX
8
OBJECT__38
10
57.181999
20
3.181000
30
160.542007
70
192
0
VERTEX
8
OBJECT__38
10
60.060001
20
8.054000
30
163.445999
70
192
0
VERTEX
8
OBJECT__38
10
69.878998
20
0.000000
30
173.354996
70
192
0
VERTEX
8
OBJECT__38
10
66.676003
20
0.000000
30
170.123001
70
192
0
VERTEX
8
OBJECT__38
10
64.470001
20
-9.159000
30
167.895996
70
192
0
VERTEX
8
OBJECT__38
10
60.060001
20
-8.054000
30
163.445999
70
192
0
VERTEX
8
OBJECT__38
10
61.660999
20
-4.114000
30
165.061996
70
192
0
VERTEX
8
OBJECT__38
10
68.348000
20
-5.978000
30
171.809998
70
192
0
VERTEX
8
OBJECT__38
10
65.004997
20
-4.114000
30
168.436005
70
192
0
VERTEX
8
OBJECT__38
10
57.181999
20
-3.181000
30
160.542007
70
192
0
VERTEX
8
OBJECT__38
10
59.988998
20
0.000000
30
163.375000
70
192
0
VERTEX
8
OBJECT__38
10
0
20
0
30
0
70
128
71
1
72
2
73
3
0
VERTEX
8
OBJECT__38
10
0
20
0
30
0
70
128
71
4
72
5
73
6
0
VERTEX
8
OBJECT__38
10
0
20
0
30
0
70
128
71
5
72
4
73
1
0
VERTEX
8
OBJECT__38
10
0
20
0
30
0
70
128
71
7
72
8
73
6
0
VERTEX
8
OBJECT__38
10
0
20
0
30
0
70
128
71
3
72
5
73
1
0
VERTEX
8
OBJECT__38
10
0
20
0
30
0
70
128
71
6
72
8
73
4
0
VERTEX
8
OBJECT__38
10
0
20
0
30
0
70
128
71
2
72
9
73
10
0
VERTEX
8
OBJECT__38
10
0
20
0
30
0
70
128
71
11
72
12
73
13
0
VERTEX
8
OBJECT__38
10
0
20
0
30
0
70
128
71
10
72
3
73
2
0
VERTEX
8
OBJECT__38
10
0
20
0
30
0
70
128
71
14
72
15
73
10
0
VERTEX
8
OBJECT__38
10
0
20
0
30
0
70
128
71
13
72
15
73
11
0
VERTEX
8
OBJECT__38
10
0
20
0
30
0
70
128
71
16
72
17
73
13
0
VERTEX
8
OBJECT__38
10
0
20
0
30
0
70
128
71
10
72
9
73
14
0
VERTEX
8
OBJECT__38
10
0
20
0
30
0
70
128
71
13
72
12
73
16
0
VERTEX
8
OBJECT__38
10
0
20
0
30
0
70
128
71
15
72
14
73
11
0
VERTEX
8
OBJECT__38
10
0
20
0
30
0
70
128
71
6
72
17
73
7
0
VERTEX
8
OBJECT__38
10
0
20
0
30
0
70
128
71
17
72
16
73
7
0
SEQEND
8
OBJECT__38
0
POLYLINE
8
OBJECT__39
66
1
70
64
71
20
72
20
62
253
0
VERTEX
8
OBJECT__39
10
68.348000
20
-5.978000
30
171.809998
70
192
0
VERTEX
8
OBJECT__39
10
69.878998
20
0.000000
30
173.354996
70
192
0
VERTEX
8
OBJECT__39
10
68.814003
20
0.000000
30
174.410995
70
192
0
VERTEX
8
OBJECT__39
10
64.470001
20
-9.159000
30
167.895996
70
192
0
VERTEX
8
OBJECT__39
10
67.281998
20
-5.978000
30
172.865005
70
192
0
VERTEX
8
OBJECT__39
10
60.060001
20
-8.054000
30
163.445999
70
192
0
VERTEX
8
OBJECT__39
10
63.403999
20
-9.159000
30
168.951996
70
192
0
VERTEX
8
OBJECT__39
10
57.181999
20
-3.181000
30
160.542007
70
192
0
VERTEX
8
OBJECT__39
10
58.993999
20
-8.054000
30
164.501999
70
192
0
VERTEX
8
OBJECT__39
10
56.116001
20
3.181000
30
161.597000
70
192
0
VERTEX
8
OBJECT__39
10
57.181999
20
3.181000
30
160.542007
70
192
0
VERTEX
8
OBJECT__39
10
58.993999
20
8.054000
30
164.501999
70
192
0
VERTEX
8
OBJECT__39
10
60.060001
20
8.054000
30
163.445999
70
192
0
VERTEX
8
OBJECT__39
10
61.272999
20
9.192000
30
166.800995
70
192
0
VERTEX
8
OBJECT__39
10
63.403999
20
9.159000
30
168.951996
70
192
0
VERTEX
8
OBJECT__39
10
64.470001
20
9.159000
30
167.895996
70
192
0
VERTEX
8
OBJECT__39
10
62.338001
20
9.192000
30
165.744995
70
192
0
VERTEX
8
OBJECT__39
10
67.281998
20
5.978000
30
172.865005
70
192
0
VERTEX
8
OBJECT__39
10
68.348000
20
5.978000
30
171.809998
70
192
0
VERTEX
8
OBJECT__39
10
56.116001
20
-3.181000
30
161.597000
70
192
0
VERTEX
8
OBJECT__39
10
0
20
0
30
0
70
128
71
1
72
2
73
3
0
VERTEX
8
OBJECT__39
10
0
20
0
30
0
70
128
71
4
72
1
73
5
0
VERTEX
8
OBJECT__39
10
0
20
0
30
0
70
128
71
6
72
4
73
7
0
VERTEX
8
OBJECT__39
10
0
20
0
30
0
70
128
71
8
72
6
73
9
0
VERTEX
8
OBJECT__39
10
0
20
0
30
0
70
128
71
10
72
11
73
8
0
VERTEX
8
OBJECT__39
10
0
20
0
30
0
70
128
71
12
72
13
73
11
0
VERTEX
8
OBJECT__39
10
0
20
0
30
0
70
128
71
13
72
12
73
14
0
VERTEX
8
OBJECT__39
10
0
20
0
30
0
70
128
71
15
72
16
73
17
0
VERTEX
8
OBJECT__39
10
0
20
0
30
0
70
128
71
17
72
14
73
15
0
VERTEX
8
OBJECT__39
10
0
20
0
30
0
70
128
71
18
72
19
73
16
0
VERTEX
8
OBJECT__39
10
0
20
0
30
0
70
128
71
3
72
2
73
19
0
VERTEX
8
OBJECT__39
10
0
20
0
30
0
70
128
71
19
72
18
73
3
0
VERTEX
8
OBJECT__39
10
0
20
0
30
0
70
128
71
16
72
15
73
18
0
VERTEX
8
OBJECT__39
10
0
20
0
30
0
70
128
71
14
72
17
73
13
0
VERTEX
8
OBJECT__39
10
0
20
0
30
0
70
128
71
11
72
10
73
12
0
VERTEX
8
OBJECT__39
10
0
20
0
30
0
70
128
71
8
72
20
73
10
0
VERTEX
8
OBJECT__39
10
0
20
0
30
0
70
128
71
9
72
20
73
8
0
VERTEX
8
OBJECT__39
10
0
20
0
30
0
70
128
71
7
72
9
73
6
0
VERTEX
8
OBJECT__39
10
0
20
0
30
0
70
128
71
5
72
7
73
4
0
VERTEX
8
OBJECT__39
10
0
20
0
30
0
70
128
71
3
72
5
73
1
0
SEQEND
8
OBJECT__39
0
POLYLINE
8
OBJECT__40
66
1
70
64
71
58
72
74
62
253
0
VERTEX
8
OBJECT__40
10
-14.345000
20
52.206001
30
85.641998
70
192
0
VERTEX
8
OBJECT__40
10
-15.527000
20
52.206001
30
79.699997
70
192
0
VERTEX
8
OBJECT__40
10
-17.802000
20
48.000000
30
83.240997
70
192
0
VERTEX
8
OBJECT__40
10
-18.063000
20
48.000000
30
81.478996
70
192
0
VERTEX
8
OBJECT__40
10
-18.150000
20
48.000000
30
79.699997
70
192
0
VERTEX
8
OBJECT__40
10
-16.768999
20
48.000000
30
86.646004
70
192
0
VERTEX
8
OBJECT__40
10
-15.092000
20
48.000000
30
89.783997
70
192
0
VERTEX
8
OBJECT__40
10
-10.979000
20
52.206001
30
90.679001
70
192
0
VERTEX
8
OBJECT__40
10
-6.946000
20
48.000000
30
96.469002
70
192
0
VERTEX
8
OBJECT__40
10
-5.942000
20
52.206001
30
94.044998
70
192
0
VERTEX
8
OBJECT__40
10
0.000000
20
48.000000
30
97.849998
70
192
0
VERTEX
8
OBJECT__40
10
0.000000
20
52.206001
30
95.226997
70
192
0
VERTEX
8
OBJECT__40
10
6.946000
20
48.000000
30
96.469002
70
192
0
VERTEX
8
OBJECT__40
10
5.942000
20
52.206001
30
94.044998
70
192
0
VERTEX
8
OBJECT__40
10
10.979000
20
52.206001
30
90.679001
70
192
0
VERTEX
8
OBJECT__40
10
10.084000
20
48.000000
30
94.792000
70
192
0
VERTEX
8
OBJECT__40
10
12.834000
20
48.000000
30
92.533997
70
192
0
VERTEX
8
OBJECT__40
10
15.092000
20
48.000000
30
89.783997
70
192
0
VERTEX
8
OBJECT__40
10
14.345000
20
52.206001
30
85.641998
70
192
0
VERTEX
8
OBJECT__40
10
15.527000
20
52.206001
30
79.699997
70
192
0
VERTEX
8
OBJECT__40
10
17.802000
20
48.000000
30
83.240997
70
192
0
VERTEX
8
OBJECT__40
10
16.768999
20
48.000000
30
86.646004
70
192
0
VERTEX
8
OBJECT__40
10
14.345000
20
52.206001
30
73.758003
70
192
0
VERTEX
8
OBJECT__40
10
17.802000
20
48.000000
30
76.158997
70
192
0
VERTEX
8
OBJECT__40
10
18.150000
20
48.000000
30
79.699997
70
192
0
VERTEX
8
OBJECT__40
10
10.979000
20
52.206001
30
68.721001
70
192
0
VERTEX
8
OBJECT__40
10
15.092000
20
48.000000
30
69.615997
70
192
0
VERTEX
8
OBJECT__40
10
16.768999
20
48.000000
30
72.753998
70
192
0
VERTEX
8
OBJECT__40
10
12.834000
20
48.000000
30
66.865997
70
192
0
VERTEX
8
OBJECT__40
10
6.946000
20
48.000000
30
62.931000
70
192
0
VERTEX
8
OBJECT__40
10
5.942000
20
52.206001
30
65.355003
70
192
0
VERTEX
8
OBJECT__40
10
0.000000
20
48.000000
30
61.549999
70
192
0
VERTEX
8
OBJECT__40
10
0.000000
20
52.206001
30
64.172997
70
192
0
VERTEX
8
OBJECT__40
10
-6.946000
20
48.000000
30
62.931000
70
192
0
VERTEX
8
OBJECT__40
10
-5.942000
20
52.206001
30
65.355003
70
192
0
VERTEX
8
OBJECT__40
10
-10.084000
20
48.000000
30
64.608002
70
192
0
VERTEX
8
OBJECT__40
10
-10.979000
20
52.206001
30
68.721001
70
192
0
VERTEX
8
OBJECT__40
10
-12.834000
20
48.000000
30
66.865997
70
192
0
VERTEX
8
OBJECT__40
10
-15.092000
20
48.000000
30
69.615997
70
192
0
VERTEX
8
OBJECT__40
10
-14.345000
20
52.206001
30
73.758003
70
192
0
VERTEX
8
OBJECT__40
10
-11.040000
20
55.637001
30
84.273003
70
192
0
VERTEX
8
OBJECT__40
10
-8.450000
20
55.637001
30
88.150002
70
192
0
VERTEX
8
OBJECT__40
10
-4.573000
20
55.637001
30
90.739998
70
192
0
VERTEX
8
OBJECT__40
10
0.000000
20
55.637001
30
91.650002
70
192
0
VERTEX
8
OBJECT__40
10
4.573000
20
55.637001
30
90.739998
70
192
0
VERTEX
8
OBJECT__40
10
8.450000
20
55.637001
30
88.150002
70
192
0
VERTEX
8
OBJECT__40
10
11.040000
20
55.637001
30
84.273003
70
192
0
VERTEX
8
OBJECT__40
10
11.950000
20
55.637001
30
79.699997
70
192
0
VERTEX
8
OBJECT__40
10
11.040000
20
55.637001
30
75.126999
70
192
0
VERTEX
8
OBJECT__40
10
8.450000
20
55.637001
30
71.250000
70
192
0
VERTEX
8
OBJECT__40
10
4.573000
20
55.637001
30
68.660004
70
192
0
VERTEX
8
OBJECT__40
10
0.000000
20
55.637001
30
67.750000
70
192
0
VERTEX
8
OBJECT__40
10
-4.573000
20
55.637001
30
68.660004
70
192
0
VERTEX
8
OBJECT__40
10
-8.450000
20
55.637001
30
71.250000
70
192
0
VERTEX
8
OBJECT__40
10
-11.040000
20
55.637001
30
75.126999
70
192
0
VERTEX
8
OBJECT__40
10
-11.950000
20
55.637001
30
79.699997
70
192
0
VERTEX
8
OBJECT__40
10
-16.768999
20
48.000000
30
72.753998
70
192
0
VERTEX
8
OBJECT__40
10
-12.834000
20
48.000000
30
92.533997
70
192
0
VERTEX
8
OBJECT__40
10
0
20
0
30
0
70
128
71
1
72
2
73
3
0
VERTEX
8
OBJECT__40
10
0
20
0
30
0
70
128
71
2
72
4
73
3
0
VERTEX
8
OBJECT__40
10
0
20
0
30
0
70
128
71
2
72
5
73
4
0
VERTEX
8
OBJECT__40
10
0
20
0
30
0
70
128
71
1
72
6
73
7
0
VERTEX
8
OBJECT__40
10
0
20
0
30
0
70
128
71
7
72
8
73
1
0
VERTEX
8
OBJECT__40
10
0
20
0
30
0
70
128
71
9
72
10
73
8
0
VERTEX
8
OBJECT__40
10
0
20
0
30
0
70
128
71
11
72
12
73
10
0
VERTEX
8
OBJECT__40
10
0
20
0
30
0
70
128
71
11
72
13
73
14
0
VERTEX
8
OBJECT__40
10
0
20
0
30
0
70
128
71
15
72
14
73
16
0
VERTEX
8
OBJECT__40
10
0
20
0
30
0
70
128
71
14
72
13
73
16
0
VERTEX
8
OBJECT__40
10
0
20
0
30
0
70
128
71
15
72
17
73
18
0
VERTEX
8
OBJECT__40
10
0
20
0
30
0
70
128
71
18
72
19
73
15
0
VERTEX
8
OBJECT__40
10
0
20
0
30
0
70
128
71
20
72
19
73
21
0
VERTEX
8
OBJECT__40
10
0
20
0
30
0
70
128
71
19
72
22
73
21
0
VERTEX
8
OBJECT__40
10
0
20
0
30
0
70
128
71
23
72
20
73
24
0
VERTEX
8
OBJECT__40
10
0
20
0
30
0
70
128
71
20
72
25
73
24
0
VERTEX
8
OBJECT__40
10
0
20
0
30
0
70
128
71
26
72
23
73
27
0
VERTEX
8
OBJECT__40
10
0
20
0
30
0
70
128
71
23
72
28
73
27
0
VERTEX
8
OBJECT__40
10
0
20
0
30
0
70
128
71
29
72
30
73
31
0
VERTEX
8
OBJECT__40
10
0
20
0
30
0
70
128
71
32
72
33
73
31
0
VERTEX
8
OBJECT__40
10
0
20
0
30
0
70
128
71
34
72
35
73
33
0
VERTEX
8
OBJECT__40
10
0
20
0
30
0
70
128
71
35
72
34
73
36
0
VERTEX
8
OBJECT__40
10
0
20
0
30
0
70
128
71
36
72
37
73
35
0
VERTEX
8
OBJECT__40
10
0
20
0
30
0
70
128
71
37
72
38
73
39
0
VERTEX
8
OBJECT__40
10
0
20
0
30
0
70
128
71
39
72
40
73
37
0
VERTEX
8
OBJECT__40
10
0
20
0
30
0
70
128
71
5
72
2
73
40
0
VERTEX
8
OBJECT__40
10
0
20
0
30
0
70
128
71
2
72
1
73
41
0
VERTEX
8
OBJECT__40
10
0
20
0
30
0
70
128
71
8
72
42
73
41
0
VERTEX
8
OBJECT__40
10
0
20
0
30
0
70
128
71
8
72
10
73
43
0
VERTEX
8
OBJECT__40
10
0
20
0
30
0
70
128
71
10
72
12
73
44
0
VERTEX
8
OBJECT__40
10
0
20
0
30
0
70
128
71
12
72
14
73
45
0
VERTEX
8
OBJECT__40
10
0
20
0
30
0
70
128
71
14
72
15
73
46
0
VERTEX
8
OBJECT__40
10
0
20
0
30
0
70
128
71
15
72
19
73
47
0
VERTEX
8
OBJECT__40
10
0
20
0
30
0
70
128
71
20
72
48
73
47
0
VERTEX
8
OBJECT__40
10
0
20
0
30
0
70
128
71
23
72
49
73
48
0
VERTEX
8
OBJECT__40
10
0
20
0
30
0
70
128
71
26
72
50
73
49
0
VERTEX
8
OBJECT__40
10
0
20
0
30
0
70
128
71
31
72
51
73
50
0
VERTEX
8
OBJECT__40
10
0
20
0
30
0
70
128
71
31
72
33
73
52
0
VERTEX
8
OBJECT__40
10
0
20
0
30
0
70
128
71
33
72
35
73
53
0
VERTEX
8
OBJECT__40
10
0
20
0
30
0
70
128
71
35
72
37
73
54
0
VERTEX
8
OBJECT__40
10
0
20
0
30
0
70
128
71
40
72
55
73
54
0
VERTEX
8
OBJECT__40
10
0
20
0
30
0
70
128
71
40
72
2
73
56
0
VERTEX
8
OBJECT__40
10
0
20
0
30
0
70
128
71
56
72
55
73
40
0
VERTEX
8
OBJECT__40
10
0
20
0
30
0
70
128
71
54
72
37
73
40
0
VERTEX
8
OBJECT__40
10
0
20
0
30
0
70
128
71
54
72
53
73
35
0
VERTEX
8
OBJECT__40
10
0
20
0
30
0
70
128
71
53
72
52
73
33
0
VERTEX
8
OBJECT__40
10
0
20
0
30
0
70
128
71
52
72
51
73
31
0
VERTEX
8
OBJECT__40
10
0
20
0
30
0
70
128
71
50
72
26
73
31
0
VERTEX
8
OBJECT__40
10
0
20
0
30
0
70
128
71
49
72
23
73
26
0
VERTEX
8
OBJECT__40
10
0
20
0
30
0
70
128
71
48
72
20
73
23
0
VERTEX
8
OBJECT__40
10
0
20
0
30
0
70
128
71
47
72
19
73
20
0
VERTEX
8
OBJECT__40
10
0
20
0
30
0
70
128
71
47
72
46
73
15
0
VERTEX
8
OBJECT__40
10
0
20
0
30
0
70
128
71
46
72
45
73
14
0
VERTEX
8
OBJECT__40
10
0
20
0
30
0
70
128
71
45
72
44
73
12
0
VERTEX
8
OBJECT__40
10
0
20
0
30
0
70
128
71
44
72
43
73
10
0
VERTEX
8
OBJECT__40
10
0
20
0
30
0
70
128
71
43
72
42
73
8
0
VERTEX
8
OBJECT__40
10
0
20
0
30
0
70
128
71
41
72
1
73
8
0
VERTEX
8
OBJECT__40
10
0
20
0
30
0
70
128
71
41
72
56
73
2
0
VERTEX
8
OBJECT__40
10
0
20
0
30
0
70
128
71
40
72
57
73
5
0
VERTEX
8
OBJECT__40
10
0
20
0
30
0
70
128
71
39
72
57
73
40
0
VERTEX
8
OBJECT__40
10
0
20
0
30
0
70
128
71
36
72
38
73
37
0
VERTEX
8
OBJECT__40
10
0
20
0
30
0
70
128
71
33
72
32
73
34
0
VERTEX
8
OBJECT__40
10
0
20
0
30
0
70
128
71
31
72
30
73
32
0
VERTEX
8
OBJECT__40
10
0
20
0
30
0
70
128
71
31
72
26
73
29
0
VERTEX
8
OBJECT__40
10
0
20
0
30
0
70
128
71
27
72
29
73
26
0
VERTEX
8
OBJECT__40
10
0
20
0
30
0
70
128
71
24
72
28
73
23
0
VERTEX
8
OBJECT__40
10
0
20
0
30
0
70
128
71
21
72
25
73
20
0
VERTEX
8
OBJECT__40
10
0
20
0
30
0
70
128
71
18
72
22
73
19
0
VERTEX
8
OBJECT__40
10
0
20
0
30
0
70
128
71
16
72
17
73
15
0
VERTEX
8
OBJECT__40
10
0
20
0
30
0
70
128
71
14
72
12
73
11
0
VERTEX
8
OBJECT__40
10
0
20
0
30
0
70
128
71
10
72
9
73
11
0
VERTEX
8
OBJECT__40
10
0
20
0
30
0
70
128
71
8
72
58
73
9
0
VERTEX
8
OBJECT__40
10
0
20
0
30
0
70
128
71
7
72
58
73
8
0
VERTEX
8
OBJECT__40
10
0
20
0
30
0
70
128
71
3
72
6
73
1
0
SEQEND
8
OBJECT__40
0
POLYLINE
8
OBJECT__41
66
1
70
64
71
50
72
50
62
253
0
VERTEX
8
OBJECT__41
10
11.503000
20
48.000000
30
94.125000
70
192
0
VERTEX
8
OBJECT__41
10
14.425000
20
48.000000
30
91.203003
70
192
0
VERTEX
8
OBJECT__41
10
12.834000
20
48.000000
30
92.533997
70
192
0
VERTEX
8
OBJECT__41
10
16.622999
20
48.000000
30
87.705002
70
192
0
VERTEX
8
OBJECT__41
10
16.768999
20
48.000000
30
86.646004
70
192
0
VERTEX
8
OBJECT__41
10
15.092000
20
48.000000
30
89.783997
70
192
0
VERTEX
8
OBJECT__41
10
17.987000
20
48.000000
30
83.806000
70
192
0
VERTEX
8
OBJECT__41
10
17.802000
20
48.000000
30
83.240997
70
192
0
VERTEX
8
OBJECT__41
10
18.450001
20
48.000000
30
79.699997
70
192
0
VERTEX
8
OBJECT__41
10
18.150000
20
48.000000
30
79.699997
70
192
0
VERTEX
8
OBJECT__41
10
17.987000
20
48.000000
30
75.594002
70
192
0
VERTEX
8
OBJECT__41
10
17.802000
20
48.000000
30
76.158997
70
192
0
VERTEX
8
OBJECT__41
10
16.622999
20
48.000000
30
71.695000
70
192
0
VERTEX
8
OBJECT__41
10
16.768999
20
48.000000
30
72.753998
70
192
0
VERTEX
8
OBJECT__41
10
14.425000
20
48.000000
30
68.196999
70
192
0
VERTEX
8
OBJECT__41
10
15.092000
20
48.000000
30
69.615997
70
192
0
VERTEX
8
OBJECT__41
10
-17.987000
20
48.000000
30
83.806000
70
192
0
VERTEX
8
OBJECT__41
10
-17.802000
20
48.000000
30
83.240997
70
192
0
VERTEX
8
OBJECT__41
10
-18.063000
20
48.000000
30
81.478996
70
192
0
VERTEX
8
OBJECT__41
10
11.503000
20
48.000000
30
65.275002
70
192
0
VERTEX
8
OBJECT__41
10
12.834000
20
48.000000
30
66.865997
70
192
0
VERTEX
8
OBJECT__41
10
-11.503000
20
48.000000
30
65.275002
70
192
0
VERTEX
8
OBJECT__41
10
-14.425000
20
48.000000
30
68.196999
70
192
0
VERTEX
8
OBJECT__41
10
-12.834000
20
48.000000
30
66.865997
70
192
0
VERTEX
8
OBJECT__41
10
-18.450001
20
48.000000
30
79.699997
70
192
0
VERTEX
8
OBJECT__41
10
-16.622999
20
48.000000
30
87.705002
70
192
0
VERTEX
8
OBJECT__41
10
-16.768999
20
48.000000
30
86.646004
70
192
0
VERTEX
8
OBJECT__41
10
8.005000
20
48.000000
30
96.322998
70
192
0
VERTEX
8
OBJECT__41
10
10.084000
20
48.000000
30
94.792000
70
192
0
VERTEX
8
OBJECT__41
10
-15.092000
20
48.000000
30
69.615997
70
192
0
VERTEX
8
OBJECT__41
10
-16.622999
20
48.000000
30
71.695000
70
192
0
VERTEX
8
OBJECT__41
10
-16.768999
20
48.000000
30
72.753998
70
192
0
VERTEX
8
OBJECT__41
10
-14.425000
20
48.000000
30
91.203003
70
192
0
VERTEX
8
OBJECT__41
10
-15.092000
20
48.000000
30
89.783997
70
192
0
VERTEX
8
OBJECT__41
10
0.000000
20
48.000000
30
98.150002
70
192
0
VERTEX
8
OBJECT__41
10
6.946000
20
48.000000
30
96.469002
70
192
0
VERTEX
8
OBJECT__41
10
-8.005000
20
48.000000
30
63.077000
70
192
0
VERTEX
8
OBJECT__41
10
-10.084000
20
48.000000
30
64.608002
70
192
0
VERTEX
8
OBJECT__41
10
-11.503000
20
48.000000
30
94.125000
70
192
0
VERTEX
8
OBJECT__41
10
-12.834000
20
48.000000
30
92.533997
70
192
0
VERTEX
8
OBJECT__41
10
6.946000
20
48.000000
30
62.931000
70
192
0
VERTEX
8
OBJECT__41
10
0.000000
20
48.000000
30
61.250000
70
192
0
VERTEX
8
OBJECT__41
10
-6.946000
20
48.000000
30
62.931000
70
192
0
VERTEX
8
OBJECT__41
10
-18.150000
20
48.000000
30
79.699997
70
192
0
VERTEX
8
OBJECT__41
10
-17.987000
20
48.000000
30
75.594002
70
192
0
VERTEX
8
OBJECT__41
10
-6.946000
20
48.000000
30
96.469002
70
192
0
VERTEX
8
OBJECT__41
10
8.005000
20
48.000000
30
63.077000
70
192
0
VERTEX
8
OBJECT__41
10
0.000000
20
48.000000
30
61.549999
70
192
0
VERTEX
8
OBJECT__41
10
-8.005000
20
48.000000
30
96.322998
70
192
0
VERTEX
8
OBJECT__41
10
0.000000
20
48.000000
30
97.849998
70
192
0
VERTEX
8
OBJECT__41
10
0
20
0
30
0
70
128
71
1
72
2
73
3
0
VERTEX
8
OBJECT__41
10
0
20
0
30
0
70
128
71
4
72
5
73
6
0
VERTEX
8
OBJECT__41
10
0
20
0
30
0
70
128
71
7
72
8
73
5
0
VERTEX
8
OBJECT__41
10
0
20
0
30
0
70
128
71
2
72
6
73
3
0
VERTEX
8
OBJECT__41
10
0
20
0
30
0
70
128
71
5
72
4
73
7
0
VERTEX
8
OBJECT__41
10
0
20
0
30
0
70
128
71
9
72
10
73
8
0
VERTEX
8
OBJECT__41
10
0
20
0
30
0
70
128
71
9
72
11
73
12
0
VERTEX
8
OBJECT__41
10
0
20
0
30
0
70
128
71
6
72
2
73
4
0
VERTEX
8
OBJECT__41
10
0
20
0
30
0
70
128
71
12
72
10
73
9
0
VERTEX
8
OBJECT__41
10
0
20
0
30
0
70
128
71
11
72
13
73
14
0
VERTEX
8
OBJECT__41
10
0
20
0
30
0
70
128
71
13
72
15
73
16
0
VERTEX
8
OBJECT__41
10
0
20
0
30
0
70
128
71
8
72
7
73
9
0
VERTEX
8
OBJECT__41
10
0
20
0
30
0
70
128
71
16
72
14
73
13
0
VERTEX
8
OBJECT__41
10
0
20
0
30
0
70
128
71
17
72
18
73
19
0
VERTEX
8
OBJECT__41
10
0
20
0
30
0
70
128
71
14
72
12
73
11
0
VERTEX
8
OBJECT__41
10
0
20
0
30
0
70
128
71
15
72
20
73
21
0
VERTEX
8
OBJECT__41
10
0
20
0
30
0
70
128
71
22
72
23
73
24
0
VERTEX
8
OBJECT__41
10
0
20
0
30
0
70
128
71
19
72
25
73
17
0
VERTEX
8
OBJECT__41
10
0
20
0
30
0
70
128
71
17
72
26
73
27
0
VERTEX
8
OBJECT__41
10
0
20
0
30
0
70
128
71
28
72
1
73
29
0
VERTEX
8
OBJECT__41
10
0
20
0
30
0
70
128
71
21
72
16
73
15
0
VERTEX
8
OBJECT__41
10
0
20
0
30
0
70
128
71
23
72
30
73
24
0
VERTEX
8
OBJECT__41
10
0
20
0
30
0
70
128
71
31
72
32
73
30
0
VERTEX
8
OBJECT__41
10
0
20
0
30
0
70
128
71
27
72
18
73
17
0
VERTEX
8
OBJECT__41
10
0
20
0
30
0
70
128
71
26
72
33
73
34
0
VERTEX
8
OBJECT__41
10
0
20
0
30
0
70
128
71
35
72
28
73
36
0
VERTEX
8
OBJECT__41
10
0
20
0
30
0
70
128
71
3
72
29
73
1
0
VERTEX
8
OBJECT__41
10
0
20
0
30
0
70
128
71
37
72
22
73
38
0
VERTEX
8
OBJECT__41
10
0
20
0
30
0
70
128
71
30
72
23
73
31
0
VERTEX
8
OBJECT__41
10
0
20
0
30
0
70
128
71
34
72
27
73
26
0
VERTEX
8
OBJECT__41
10
0
20
0
30
0
70
128
71
33
72
39
73
40
0
VERTEX
8
OBJECT__41
10
0
20
0
30
0
70
128
71
29
72
36
73
28
0
VERTEX
8
OBJECT__41
10
0
20
0
30
0
70
128
71
41
72
21
73
20
0
VERTEX
8
OBJECT__41
10
0
20
0
30
0
70
128
71
42
72
37
73
43
0
VERTEX
8
OBJECT__41
10
0
20
0
30
0
70
128
71
24
72
38
73
22
0
VERTEX
8
OBJECT__41
10
0
20
0
30
0
70
128
71
44
72
32
73
45
0
VERTEX
8
OBJECT__41
10
0
20
0
30
0
70
128
71
40
72
34
73
33
0
VERTEX
8
OBJECT__41
10
0
20
0
30
0
70
128
71
46
72
40
73
39
0
VERTEX
8
OBJECT__41
10
0
20
0
30
0
70
128
71
20
72
47
73
41
0
VERTEX
8
OBJECT__41
10
0
20
0
30
0
70
128
71
42
72
48
73
41
0
VERTEX
8
OBJECT__41
10
0
20
0
30
0
70
128
71
38
72
43
73
37
0
VERTEX
8
OBJECT__41
10
0
20
0
30
0
70
128
71
45
72
25
73
44
0
VERTEX
8
OBJECT__41
10
0
20
0
30
0
70
128
71
39
72
49
73
46
0
VERTEX
8
OBJECT__41
10
0
20
0
30
0
70
128
71
35
72
50
73
46
0
VERTEX
8
OBJECT__41
10
0
20
0
30
0
70
128
71
41
72
47
73
42
0
VERTEX
8
OBJECT__41
10
0
20
0
30
0
70
128
71
32
72
31
73
45
0
VERTEX
8
OBJECT__41
10
0
20
0
30
0
70
128
71
46
72
49
73
35
0
VERTEX
8
OBJECT__41
10
0
20
0
30
0
70
128
71
43
72
48
73
42
0
VERTEX
8
OBJECT__41
10
0
20
0
30
0
70
128
71
36
72
50
73
35
0
VERTEX
8
OBJECT__41
10
0
20
0
30
0
70
128
71
19
72
44
73
25
0
SEQEND
8
OBJECT__41
0
POLYLINE
8
OBJECT__43
66
1
70
64
71
6
72
4
62
253
0
VERTEX
8
OBJECT__43
10
55.813999
20
0.000000
30
160.298004
70
192
0
VERTEX
8
OBJECT__43
10
56.862999
20
-5.217000
30
161.356995
70
192
0
VERTEX
8
OBJECT__43
10
56.060001
20
-3.787000
30
160.546997
70
192
0
VERTEX
8
OBJECT__43
10
55.549999
20
0.000000
30
160.031998
70
192
0
VERTEX
8
OBJECT__43
10
56.060001
20
3.787000
30
160.546997
70
192
0
VERTEX
8
OBJECT__43
10
56.862999
20
5.217000
30
161.356995
70
192
0
VERTEX
8
OBJECT__43
10
0
20
0
30
0
70
128
71
1
72
2
73
3
0
VERTEX
8
OBJECT__43
10
0
20
0
30
0
70
128
71
1
72
4
73
5
0
VERTEX
8
OBJECT__43
10
0
20
0
30
0
70
128
71
5
72
6
73
1
0
VERTEX
8
OBJECT__43
10
0
20
0
30
0
70
128
71
3
72
4
73
1
0
SEQEND
8
OBJECT__43
0
POLYLINE
8
OBJECT__45
66
1
70
64
71
12
72
12
62
253
0
VERTEX
8
OBJECT__45
10
-26.055000
20
-2.000000
30
50.756001
70
192
0
VERTEX
8
OBJECT__45
10
-27.957001
20
0.000000
30
50.138000
70
192
0
VERTEX
8
OBJECT__45
10
-12.073000
20
0.000000
30
1.253000
70
192
0
VERTEX
8
OBJECT__45
10
-11.361000
20
-1.500000
30
1.253000
70
192
0
VERTEX
8
OBJECT__45
10
-24.153000
20
0.000000
30
51.374001
70
192
0
VERTEX
8
OBJECT__45
10
-9.951000
20
-1.558000
30
1.253000
70
192
0
VERTEX
8
OBJECT__45
10
-8.721000
20
-1.609000
30
1.253000
70
192
0
VERTEX
8
OBJECT__45
10
-8.053000
20
0.823000
30
1.253000
70
192
0
VERTEX
8
OBJECT__45
10
-10.076000
20
1.794000
30
1.253000
70
192
0
VERTEX
8
OBJECT__45
10
-8.253000
20
0.096000
30
1.253000
70
192
0
VERTEX
8
OBJECT__45
10
-26.055000
20
2.000000
30
50.756001
70
192
0
VERTEX
8
OBJECT__45
10
-10.413000
20
1.955000
30
1.253000
70
192
0
VERTEX
8
OBJECT__45
10
0
20
0
30
0
70
128
71
1
72
2
73
3
0
VERTEX
8
OBJECT__45
10
0
20
0
30
0
70
128
71
3
72
4
73
1
0
VERTEX
8
OBJECT__45
10
0
20
0
30
0
70
128
71
5
72
1
73
6
0
VERTEX
8
OBJECT__45
10
0
20
0
30
0
70
128
71
6
72
7
73
5
0
VERTEX
8
OBJECT__45
10
0
20
0
30
0
70
128
71
5
72
8
73
9
0
VERTEX
8
OBJECT__45
10
0
20
0
30
0
70
128
71
5
72
10
73
8
0
VERTEX
8
OBJECT__45
10
0
20
0
30
0
70
128
71
11
72
9
73
12
0
VERTEX
8
OBJECT__45
10
0
20
0
30
0
70
128
71
12
72
2
73
11
0
VERTEX
8
OBJECT__45
10
0
20
0
30
0
70
128
71
12
72
3
73
2
0
VERTEX
8
OBJECT__45
10
0
20
0
30
0
70
128
71
9
72
11
73
5
0
VERTEX
8
OBJECT__45
10
0
20
0
30
0
70
128
71
7
72
10
73
5
0
VERTEX
8
OBJECT__45
10
0
20
0
30
0
70
128
71
4
72
6
73
1
0
SEQEND
8
OBJECT__45
0
POLYLINE
8
OBJECT__47
66
1
70
64
71
11
72
9
62
253
0
VERTEX
8
OBJECT__47
10
86.769997
20
-1.452000
30
184.031006
70
192
0
VERTEX
8
OBJECT__47
10
88.349998
20
-9.787000
30
171.158005
70
192
0
VERTEX
8
OBJECT__47
10
88.939003
20
-6.680000
30
166.358994
70
192
0
VERTEX
8
OBJECT__47
10
87.060997
20
-6.680000
30
181.662003
70
192
0
VERTEX
8
OBJECT__47
10
87.650002
20
-9.787000
30
176.863007
70
192
0
VERTEX
8
OBJECT__47
10
89.130997
20
4.237000
30
164.800995
70
192
0
VERTEX
8
OBJECT__47
10
88.000000
20
10.200000
30
174.009995
70
192
0
VERTEX
8
OBJECT__47
10
87.328003
20
8.581000
30
179.483994
70
192
0
VERTEX
8
OBJECT__47
10
88.671997
20
8.581000
30
168.537003
70
192
0
VERTEX
8
OBJECT__47
10
89.230003
20
-1.452000
30
163.988998
70
192
0
VERTEX
8
OBJECT__47
10
86.869003
20
4.237000
30
183.218994
70
192
0
VERTEX
8
OBJECT__47
10
0
20
0
30
0
70
128
71
1
72
2
73
3
0
VERTEX
8
OBJECT__47
10
0
20
0
30
0
70
128
71
1
72
4
73
5
0
VERTEX
8
OBJECT__47
10
0
20
0
30
0
70
128
71
6
72
7
73
8
0
VERTEX
8
OBJECT__47
10
0
20
0
30
0
70
128
71
5
72
2
73
1
0
VERTEX
8
OBJECT__47
10
0
20
0
30
0
70
128
71
6
72
9
73
7
0
VERTEX
8
OBJECT__47
10
0
20
0
30
0
70
128
71
10
72
11
73
1
0
VERTEX
8
OBJECT__47
10
0
20
0
30
0
70
128
71
11
72
10
73
6
0
VERTEX
8
OBJECT__47
10
0
20
0
30
0
70
128
71
8
72
11
73
6
0
VERTEX
8
OBJECT__47
10
0
20
0
30
0
70
128
71
3
72
10
73
1
0
SEQEND
8
OBJECT__47
0
POLYLINE
8
OBJECT__49
66
1
70
64
71
6
72
4
62
253
0
VERTEX
8
OBJECT__49
10
-30.915001
20
-9.000000
30
51.700001
70
192
0
VERTEX
8
OBJECT__49
10
-21.132999
20
-9.000000
30
49.620998
70
192
0
VERTEX
8
OBJECT__49
10
-22.677999
20
-9.000000
30
54.376999
70
192
0
VERTEX
8
OBJECT__49
10
-29.368999
20
-9.000000
30
46.945000
70
192
0
VERTEX
8
OBJECT__49
10
-24.479000
20
-9.000000
30
45.905998
70
192
0
VERTEX
8
OBJECT__49
10
-27.569000
20
-9.000000
30
55.416000
70
192
0
VERTEX
8
OBJECT__49
10
0
20
0
30
0
70
128
71
1
72
2
73
3
0
VERTEX
8
OBJECT__49
10
0
20
0
30
0
70
128
71
2
72
1
73
4
0
VERTEX
8
OBJECT__49
10
0
20
0
30
0
70
128
71
4
72
5
73
2
0
VERTEX
8
OBJECT__49
10
0
20
0
30
0
70
128
71
3
72
6
73
1
0
SEQEND
8
OBJECT__49
0
POLYLINE
8
OBJECT__50
66
1
70
64
71
24
72
26
62
253
0
VERTEX
8
OBJECT__50
10
-30.915001
20
9.000000
30
51.700001
70
192
0
VERTEX
8
OBJECT__50
10
-30.915001
20
-9.000000
30
51.700001
70
192
0
VERTEX
8
OBJECT__50
10
-27.569000
20
-9.000000
30
55.416000
70
192
0
VERTEX
8
OBJECT__50
10
-29.368999
20
-9.000000
30
46.945000
70
192
0
VERTEX
8
OBJECT__50
10
-22.677999
20
9.000000
30
54.376999
70
192
0
VERTEX
8
OBJECT__50
10
-22.677999
20
-9.000000
30
54.376999
70
192
0
VERTEX
8
OBJECT__50
10
-21.132999
20
-9.000000
30
49.620998
70
192
0
VERTEX
8
OBJECT__50
10
-24.479000
20
9.000000
30
45.905998
70
192
0
VERTEX
8
OBJECT__50
10
-21.132999
20
9.000000
30
49.620998
70
192
0
VERTEX
8
OBJECT__50
10
-23.848000
20
2.036000
30
46.159000
70
192
0
VERTEX
8
OBJECT__50
10
-22.843000
20
1.332000
30
46.803001
70
192
0
VERTEX
8
OBJECT__50
10
-22.429001
20
0.203000
30
47.185001
70
192
0
VERTEX
8
OBJECT__50
10
-22.546000
20
-0.760000
30
47.068001
70
192
0
VERTEX
8
OBJECT__50
10
-24.479000
20
-9.000000
30
45.905998
70
192
0
VERTEX
8
OBJECT__50
10
-24.479000
20
-2.120000
30
45.905998
70
192
0
VERTEX
8
OBJECT__50
10
-23.285999
20
-1.761000
30
46.477001
70
192
0
VERTEX
8
OBJECT__50
10
-25.737000
20
-1.784000
30
45.668999
70
192
0
VERTEX
8
OBJECT__50
10
-26.698000
20
-0.816000
30
45.706001
70
192
0
VERTEX
8
OBJECT__50
10
-29.368999
20
9.000000
30
46.945000
70
192
0
VERTEX
8
OBJECT__50
10
-26.892000
20
0.170000
30
45.737000
70
192
0
VERTEX
8
OBJECT__50
10
-24.493000
20
2.034000
30
45.949001
70
192
0
VERTEX
8
OBJECT__50
10
-25.128000
20
2.032000
30
45.742001
70
192
0
VERTEX
8
OBJECT__50
10
-26.326000
20
1.335000
30
45.669998
70
192
0
VERTEX
8
OBJECT__50
10
-27.569000
20
9.000000
30
55.416000
70
192
0
VERTEX
8
OBJECT__50
10
0
20
0
30
0
70
128
71
1
72
2
73
3
0
VERTEX
8
OBJECT__50
10
0
20
0
30
0
70
128
71
4
72
2
73
1
0
VERTEX
8
OBJECT__50
10
0
20
0
30
0
70
128
71
5
72
6
73
7
0
VERTEX
8
OBJECT__50
10
0
20
0
30
0
70
128
71
3
72
6
73
5
0
VERTEX
8
OBJECT__50
10
0
20
0
30
0
70
128
71
8
72
9
73
10
0
VERTEX
8
OBJECT__50
10
0
20
0
30
0
70
128
71
9
72
11
73
10
0
VERTEX
8
OBJECT__50
10
0
20
0
30
0
70
128
71
9
72
12
73
11
0
VERTEX
8
OBJECT__50
10
0
20
0
30
0
70
128
71
7
72
13
73
12
0
VERTEX
8
OBJECT__50
10
0
20
0
30
0
70
128
71
7
72
14
73
15
0
VERTEX
8
OBJECT__50
10
0
20
0
30
0
70
128
71
15
72
16
73
7
0
VERTEX
8
OBJECT__50
10
0
20
0
30
0
70
128
71
16
72
13
73
7
0
VERTEX
8
OBJECT__50
10
0
20
0
30
0
70
128
71
12
72
9
73
7
0
VERTEX
8
OBJECT__50
10
0
20
0
30
0
70
128
71
4
72
17
73
15
0
VERTEX
8
OBJECT__50
10
0
20
0
30
0
70
128
71
4
72
18
73
17
0
VERTEX
8
OBJECT__50
10
0
20
0
30
0
70
128
71
4
72
19
73
20
0
VERTEX
8
OBJECT__50
10
0
20
0
30
0
70
128
71
20
72
18
73
4
0
VERTEX
8
OBJECT__50
10
0
20
0
30
0
70
128
71
8
72
21
73
22
0
VERTEX
8
OBJECT__50
10
0
20
0
30
0
70
128
71
22
72
19
73
8
0
VERTEX
8
OBJECT__50
10
0
20
0
30
0
70
128
71
22
72
23
73
19
0
VERTEX
8
OBJECT__50
10
0
20
0
30
0
70
128
71
23
72
20
73
19
0
VERTEX
8
OBJECT__50
10
0
20
0
30
0
70
128
71
15
72
14
73
4
0
VERTEX
8
OBJECT__50
10
0
20
0
30
0
70
128
71
10
72
21
73
8
0
VERTEX
8
OBJECT__50
10
0
20
0
30
0
70
128
71
5
72
24
73
3
0
VERTEX
8
OBJECT__50
10
0
20
0
30
0
70
128
71
7
72
9
73
5
0
VERTEX
8
OBJECT__50
10
0
20
0
30
0
70
128
71
1
72
19
73
4
0
VERTEX
8
OBJECT__50
10
0
20
0
30
0
70
128
71
3
72
24
73
1
0
SEQEND
8
OBJECT__50
0
POLYLINE
8
OBJECT__52
66
1
70
64
71
6
72
4
62
253
0
VERTEX
8
OBJECT__52
10
-27.569000
20
9.000000
30
55.416000
70
192
0
VERTEX
8
OBJECT__52
10
-22.677999
20
9.000000
30
54.376999
70
192
0
VERTEX
8
OBJECT__52
10
-21.132999
20
9.000000
30
49.620998
70
192
0
VERTEX
8
OBJECT__52
10
-24.479000
20
9.000000
30
45.905998
70
192
0
VERTEX
8
OBJECT__52
10
-29.368999
20
9.000000
30
46.945000
70
192
0
VERTEX
8
OBJECT__52
10
-30.915001
20
9.000000
30
51.700001
70
192
0
VERTEX
8
OBJECT__52
10
0
20
0
30
0
70
128
71
1
72
2
73
3
0
VERTEX
8
OBJECT__52
10
0
20
0
30
0
70
128
71
1
72
4
73
5
0
VERTEX
8
OBJECT__52
10
0
20
0
30
0
70
128
71
5
72
6
73
1
0
VERTEX
8
OBJECT__52
10
0
20
0
30
0
70
128
71
3
72
4
73
1
0
SEQEND
8
OBJECT__52
0
POLYLINE
8
OBJECT__53
66
1
70
64
71
6
72
4
62
253
0
VERTEX
8
OBJECT__53
10
3.897000
20
57.409000
30
153.744003
70
192
0
VERTEX
8
OBJECT__53
10
3.897000
20
61.909000
30
153.748993
70
192
0
VERTEX
8
OBJECT__53
10
0.000000
20
64.158997
30
153.751999
70
192
0
VERTEX
8
OBJECT__53
10
-3.897000
20
61.909000
30
153.748993
70
192
0
VERTEX
8
OBJECT__53
10
-3.897000
20
57.409000
30
153.744003
70
192
0
VERTEX
8
OBJECT__53
10
0.000000
20
55.159000
30
153.740997
70
192
0
VERTEX
8
OBJECT__53
10
0
20
0
30
0
70
128
71
1
72
2
73
3
0
VERTEX
8
OBJECT__53
10
0
20
0
30
0
70
128
71
1
72
4
73
5
0
VERTEX
8
OBJECT__53
10
0
20
0
30
0
70
128
71
5
72
6
73
1
0
VERTEX
8
OBJECT__53
10
0
20
0
30
0
70
128
71
3
72
4
73
1
0
SEQEND
8
OBJECT__53
0
POLYLINE
8
OBJECT__54
66
1
70
64
71
33
72
33
62
253
0
VERTEX
8
OBJECT__54
10
3.897000
20
57.409000
30
153.744003
70
192
0
VERTEX
8
OBJECT__54
10
2.248000
20
55.825001
30
99.614998
70
192
0
VERTEX
8
OBJECT__54
10
3.396000
20
56.771999
30
99.452003
70
192
0
VERTEX
8
OBJECT__54
10
0.865000
20
55.306999
30
99.723000
70
192
0
VERTEX
8
OBJECT__54
10
0.000000
20
55.159000
30
153.740997
70
192
0
VERTEX
8
OBJECT__54
10
-0.002000
20
55.283001
30
99.727997
70
192
0
VERTEX
8
OBJECT__54
10
0.000000
20
55.283001
30
99.727997
70
192
0
VERTEX
8
OBJECT__54
10
3.897000
20
61.909000
30
153.748993
70
192
0
VERTEX
8
OBJECT__54
10
4.185000
20
58.070999
30
99.302002
70
192
0
VERTEX
8
OBJECT__54
10
4.497000
20
59.555000
30
99.234001
70
192
0
VERTEX
8
OBJECT__54
10
4.307000
20
61.026001
30
99.278999
70
192
0
VERTEX
8
OBJECT__54
10
3.843000
20
57.507000
30
99.366997
70
192
0
VERTEX
8
OBJECT__54
10
0.000000
20
64.158997
30
153.751999
70
192
0
VERTEX
8
OBJECT__54
10
1.217000
20
64.056000
30
99.714996
70
192
0
VERTEX
8
OBJECT__54
10
0.000000
20
64.184998
30
99.742996
70
192
0
VERTEX
8
OBJECT__54
10
3.852000
20
61.952000
30
99.372002
70
192
0
VERTEX
8
OBJECT__54
10
3.657000
20
62.346001
30
99.412003
70
192
0
VERTEX
8
OBJECT__54
10
2.593000
20
63.401001
30
99.582001
70
192
0
VERTEX
8
OBJECT__54
10
-3.897000
20
61.909000
30
153.748993
70
192
0
VERTEX
8
OBJECT__54
10
-1.720000
20
63.882000
30
99.677002
70
192
0
VERTEX
8
OBJECT__54
10
-2.974000
20
63.101002
30
99.528000
70
192
0
VERTEX
8
OBJECT__54
10
-0.282000
20
64.214996
30
99.750000
70
192
0
VERTEX
8
OBJECT__54
10
-0.004000
20
64.184998
30
99.742996
70
192
0
VERTEX
8
OBJECT__54
10
-3.891000
20
61.969002
30
99.365997
70
192
0
VERTEX
8
OBJECT__54
10
-3.969000
20
57.603001
30
99.346001
70
192
0
VERTEX
8
OBJECT__54
10
-3.880000
20
57.487000
30
99.362000
70
192
0
VERTEX
8
OBJECT__54
10
-4.434000
20
60.493000
30
99.250000
70
192
0
VERTEX
8
OBJECT__54
10
-4.441000
20
58.995998
30
99.246002
70
192
0
VERTEX
8
OBJECT__54
10
-3.923000
20
61.928001
30
99.361000
70
192
0
VERTEX
8
OBJECT__54
10
-3.897000
20
57.409000
30
153.744003
70
192
0
VERTEX
8
OBJECT__54
10
-1.792000
20
55.596001
30
99.661003
70
192
0
VERTEX
8
OBJECT__54
10
-0.616000
20
55.265999
30
99.732002
70
192
0
VERTEX
8
OBJECT__54
10
-3.062000
20
56.426998
30
99.507004
70
192
0
VERTEX
8
OBJECT__54
10
0
20
0
30
0
70
128
71
1
72
2
73
3
0
VERTEX
8
OBJECT__54
10
0
20
0
30
0
70
128
71
1
72
4
73
2
0
VERTEX
8
OBJECT__54
10
0
20
0
30
0
70
128
71
5
72
6
73
7
0
VERTEX
8
OBJECT__54
10
0
20
0
30
0
70
128
71
7
72
1
73
5
0
VERTEX
8
OBJECT__54
10
0
20
0
30
0
70
128
71
7
72
4
73
1
0
VERTEX
8
OBJECT__54
10
0
20
0
30
0
70
128
71
8
72
9
73
10
0
VERTEX
8
OBJECT__54
10
0
20
0
30
0
70
128
71
10
72
11
73
8
0
VERTEX
8
OBJECT__54
10
0
20
0
30
0
70
128
71
8
72
1
73
12
0
VERTEX
8
OBJECT__54
10
0
20
0
30
0
70
128
71
12
72
9
73
8
0
VERTEX
8
OBJECT__54
10
0
20
0
30
0
70
128
71
13
72
8
73
14
0
VERTEX
8
OBJECT__54
10
0
20
0
30
0
70
128
71
14
72
15
73
13
0
VERTEX
8
OBJECT__54
10
0
20
0
30
0
70
128
71
8
72
16
73
17
0
VERTEX
8
OBJECT__54
10
0
20
0
30
0
70
128
71
17
72
18
73
8
0
VERTEX
8
OBJECT__54
10
0
20
0
30
0
70
128
71
18
72
14
73
8
0
VERTEX
8
OBJECT__54
10
0
20
0
30
0
70
128
71
19
72
20
73
21
0
VERTEX
8
OBJECT__54
10
0
20
0
30
0
70
128
71
19
72
22
73
20
0
VERTEX
8
OBJECT__54
10
0
20
0
30
0
70
128
71
13
72
23
73
22
0
VERTEX
8
OBJECT__54
10
0
20
0
30
0
70
128
71
22
72
19
73
13
0
VERTEX
8
OBJECT__54
10
0
20
0
30
0
70
128
71
21
72
24
73
19
0
VERTEX
8
OBJECT__54
10
0
20
0
30
0
70
128
71
19
72
25
73
26
0
VERTEX
8
OBJECT__54
10
0
20
0
30
0
70
128
71
19
72
27
73
28
0
VERTEX
8
OBJECT__54
10
0
20
0
30
0
70
128
71
19
72
29
73
27
0
VERTEX
8
OBJECT__54
10
0
20
0
30
0
70
128
71
19
72
24
73
29
0
VERTEX
8
OBJECT__54
10
0
20
0
30
0
70
128
71
28
72
25
73
19
0
VERTEX
8
OBJECT__54
10
0
20
0
30
0
70
128
71
30
72
31
73
32
0
VERTEX
8
OBJECT__54
10
0
20
0
30
0
70
128
71
30
72
26
73
33
0
VERTEX
8
OBJECT__54
10
0
20
0
30
0
70
128
71
33
72
31
73
30
0
VERTEX
8
OBJECT__54
10
0
20
0
30
0
70
128
71
32
72
5
73
30
0
VERTEX
8
OBJECT__54
10
0
20
0
30
0
70
128
71
32
72
6
73
5
0
VERTEX
8
OBJECT__54
10
0
20
0
30
0
70
128
71
26
72
30
73
19
0
VERTEX
8
OBJECT__54
10
0
20
0
30
0
70
128
71
15
72
23
73
13
0
VERTEX
8
OBJECT__54
10
0
20
0
30
0
70
128
71
11
72
16
73
8
0
VERTEX
8
OBJECT__54
10
0
20
0
30
0
70
128
71
3
72
12
73
1
0
SEQEND
8
OBJECT__54
0
POLYLINE
8
OBJECT__56
66
1
70
64
71
61
72
63
62
253
0
VERTEX
8
OBJECT__56
10
-17.320999
20
48.985001
30
89.734001
70
192
0
VERTEX
8
OBJECT__56
10
-10.000000
20
48.977001
30
97.054001
70
192
0
VERTEX
8
OBJECT__56
10
-10.000000
20
70.476997
30
97.080002
70
192
0
VERTEX
8
OBJECT__56
10
10.000000
20
70.476997
30
97.080002
70
192
0
VERTEX
8
OBJECT__56
10
10.000000
20
48.977001
30
97.054001
70
192
0
VERTEX
8
OBJECT__56
10
17.320999
20
48.985001
30
89.734001
70
192
0
VERTEX
8
OBJECT__56
10
0.000000
20
48.973999
30
99.734001
70
192
0
VERTEX
8
OBJECT__56
10
2.248000
20
55.825001
30
99.614998
70
192
0
VERTEX
8
OBJECT__56
10
3.396000
20
56.771999
30
99.452003
70
192
0
VERTEX
8
OBJECT__56
10
0.865000
20
55.306999
30
99.723000
70
192
0
VERTEX
8
OBJECT__56
10
4.185000
20
58.070999
30
99.302002
70
192
0
VERTEX
8
OBJECT__56
10
3.843000
20
57.507000
30
99.366997
70
192
0
VERTEX
8
OBJECT__56
10
4.497000
20
59.555000
30
99.234001
70
192
0
VERTEX
8
OBJECT__56
10
4.307000
20
61.026001
30
99.278999
70
192
0
VERTEX
8
OBJECT__56
10
3.657000
20
62.346001
30
99.412003
70
192
0
VERTEX
8
OBJECT__56
10
3.852000
20
61.952000
30
99.372002
70
192
0
VERTEX
8
OBJECT__56
10
2.593000
20
63.401001
30
99.582001
70
192
0
VERTEX
8
OBJECT__56
10
0.000000
20
70.473999
30
99.759003
70
192
0
VERTEX
8
OBJECT__56
10
1.217000
20
64.056000
30
99.714996
70
192
0
VERTEX
8
OBJECT__56
10
0.000000
20
64.184998
30
99.742996
70
192
0
VERTEX
8
OBJECT__56
10
-0.282000
20
64.214996
30
99.750000
70
192
0
VERTEX
8
OBJECT__56
10
-0.004000
20
64.184998
30
99.742996
70
192
0
VERTEX
8
OBJECT__56
10
-1.720000
20
63.882000
30
99.677002
70
192
0
VERTEX
8
OBJECT__56
10
-2.974000
20
63.101002
30
99.528000
70
192
0
VERTEX
8
OBJECT__56
10
-3.923000
20
61.928001
30
99.361000
70
192
0
VERTEX
8
OBJECT__56
10
-3.891000
20
61.969002
30
99.365997
70
192
0
VERTEX
8
OBJECT__56
10
-4.434000
20
60.493000
30
99.250000
70
192
0
VERTEX
8
OBJECT__56
10
-4.441000
20
58.995998
30
99.246002
70
192
0
VERTEX
8
OBJECT__56
10
-3.062000
20
56.426998
30
99.507004
70
192
0
VERTEX
8
OBJECT__56
10
-3.880000
20
57.487000
30
99.362000
70
192
0
VERTEX
8
OBJECT__56
10
-3.969000
20
57.603001
30
99.346001
70
192
0
VERTEX
8
OBJECT__56
10
-0.616000
20
55.265999
30
99.732002
70
192
0
VERTEX
8
OBJECT__56
10
-1.792000
20
55.596001
30
99.661003
70
192
0
VERTEX
8
OBJECT__56
10
0.000000
20
55.283001
30
99.727997
70
192
0
VERTEX
8
OBJECT__56
10
-0.002000
20
55.283001
30
99.727997
70
192
0
VERTEX
8
OBJECT__56
10
17.320999
20
70.485001
30
89.759003
70
192
0
VERTEX
8
OBJECT__56
10
19.893000
20
48.994999
30
81.804001
70
192
0
VERTEX
8
OBJECT__56
10
19.684999
20
49.993000
30
79.764999
70
192
0
VERTEX
8
OBJECT__56
10
20.000000
20
70.497002
30
79.759003
70
192
0
VERTEX
8
OBJECT__56
10
19.066999
20
52.959999
30
73.699997
70
192
0
VERTEX
8
OBJECT__56
10
16.955999
20
54.796001
30
69.945999
70
192
0
VERTEX
8
OBJECT__56
10
17.320999
20
70.509003
30
69.759003
70
192
0
VERTEX
8
OBJECT__56
10
15.074000
20
56.433998
30
66.598000
70
192
0
VERTEX
8
OBJECT__56
10
9.841000
20
58.373001
30
62.634998
70
192
0
VERTEX
8
OBJECT__56
10
10.000000
20
70.517998
30
62.438999
70
192
0
VERTEX
8
OBJECT__56
10
8.577000
20
58.841000
30
61.678001
70
192
0
VERTEX
8
OBJECT__56
10
0.656000
20
59.780998
30
59.757000
70
192
0
VERTEX
8
OBJECT__56
10
0.000000
20
70.521004
30
59.758999
70
192
0
VERTEX
8
OBJECT__56
10
0.021000
20
59.726002
30
59.868000
70
192
0
VERTEX
8
OBJECT__56
10
-7.375000
20
59.097000
30
61.154999
70
192
0
VERTEX
8
OBJECT__56
10
-10.000000
20
70.517998
30
62.438999
70
192
0
VERTEX
8
OBJECT__56
10
-17.320999
20
70.509003
30
69.759003
70
192
0
VERTEX
8
OBJECT__56
10
-9.789000
20
58.319000
30
62.745998
70
192
0
VERTEX
8
OBJECT__56
10
-14.180000
20
56.903000
30
65.639000
70
192
0
VERTEX
8
OBJECT__56
10
-20.000000
20
70.497002
30
79.759003
70
192
0
VERTEX
8
OBJECT__56
10
-16.993000
20
54.792999
30
69.953003
70
192
0
VERTEX
8
OBJECT__56
10
-18.629999
20
53.563999
30
72.463997
70
192
0
VERTEX
8
OBJECT__56
10
-17.320999
20
70.485001
30
89.759003
70
192
0
VERTEX
8
OBJECT__56
10
-19.985001
20
49.633999
30
80.497002
70
192
0
VERTEX
8
OBJECT__56
10
-19.893000
20
48.994999
30
81.804001
70
192
0
VERTEX
8
OBJECT__56
10
-19.861000
20
49.997002
30
79.757004
70
192
0
VERTEX
8
OBJECT__56
10
0
20
0
30
0
70
128
71
1
72
2
73
3
0
VERTEX
8
OBJECT__56
10
0
20
0
30
0
70
128
71
4
72
5
73
6
0
VERTEX
8
OBJECT__56
10
0
20
0
30
0
70
128
71
7
72
5
73
8
0
VERTEX
8
OBJECT__56
10
0
20
0
30
0
70
128
71
5
72
9
73
8
0
VERTEX
8
OBJECT__56
10
0
20
0
30
0
70
128
71
8
72
10
73
7
0
VERTEX
8
OBJECT__56
10
0
20
0
30
0
70
128
71
5
72
11
73
12
0
VERTEX
8
OBJECT__56
10
0
20
0
30
0
70
128
71
12
72
9
73
5
0
VERTEX
8
OBJECT__56
10
0
20
0
30
0
70
128
71
5
72
13
73
11
0
VERTEX
8
OBJECT__56
10
0
20
0
30
0
70
128
71
4
72
14
73
13
0
VERTEX
8
OBJECT__56
10
0
20
0
30
0
70
128
71
4
72
15
73
16
0
VERTEX
8
OBJECT__56
10
0
20
0
30
0
70
128
71
4
72
17
73
15
0
VERTEX
8
OBJECT__56
10
0
20
0
30
0
70
128
71
4
72
18
73
19
0
VERTEX
8
OBJECT__56
10
0
20
0
30
0
70
128
71
19
72
17
73
4
0
VERTEX
8
OBJECT__56
10
0
20
0
30
0
70
128
71
16
72
14
73
4
0
VERTEX
8
OBJECT__56
10
0
20
0
30
0
70
128
71
18
72
20
73
19
0
VERTEX
8
OBJECT__56
10
0
20
0
30
0
70
128
71
13
72
5
73
4
0
VERTEX
8
OBJECT__56
10
0
20
0
30
0
70
128
71
18
72
21
73
22
0
VERTEX
8
OBJECT__56
10
0
20
0
30
0
70
128
71
18
72
3
73
23
0
VERTEX
8
OBJECT__56
10
0
20
0
30
0
70
128
71
3
72
24
73
23
0
VERTEX
8
OBJECT__56
10
0
20
0
30
0
70
128
71
3
72
25
73
26
0
VERTEX
8
OBJECT__56
10
0
20
0
30
0
70
128
71
26
72
24
73
3
0
VERTEX
8
OBJECT__56
10
0
20
0
30
0
70
128
71
23
72
21
73
18
0
VERTEX
8
OBJECT__56
10
0
20
0
30
0
70
128
71
3
72
27
73
25
0
VERTEX
8
OBJECT__56
10
0
20
0
30
0
70
128
71
3
72
2
73
28
0
VERTEX
8
OBJECT__56
10
0
20
0
30
0
70
128
71
2
72
29
73
30
0
VERTEX
8
OBJECT__56
10
0
20
0
30
0
70
128
71
30
72
31
73
2
0
VERTEX
8
OBJECT__56
10
0
20
0
30
0
70
128
71
7
72
32
73
33
0
VERTEX
8
OBJECT__56
10
0
20
0
30
0
70
128
71
7
72
34
73
35
0
VERTEX
8
OBJECT__56
10
0
20
0
30
0
70
128
71
35
72
32
73
7
0
VERTEX
8
OBJECT__56
10
0
20
0
30
0
70
128
71
33
72
2
73
7
0
VERTEX
8
OBJECT__56
10
0
20
0
30
0
70
128
71
33
72
29
73
2
0
VERTEX
8
OBJECT__56
10
0
20
0
30
0
70
128
71
31
72
28
73
2
0
VERTEX
8
OBJECT__56
10
0
20
0
30
0
70
128
71
28
72
27
73
3
0
VERTEX
8
OBJECT__56
10
0
20
0
30
0
70
128
71
36
72
37
73
38
0
VERTEX
8
OBJECT__56
10
0
20
0
30
0
70
128
71
36
72
6
73
37
0
VERTEX
8
OBJECT__56
10
0
20
0
30
0
70
128
71
39
72
40
73
41
0
VERTEX
8
OBJECT__56
10
0
20
0
30
0
70
128
71
39
72
38
73
40
0
VERTEX
8
OBJECT__56
10
0
20
0
30
0
70
128
71
42
72
43
73
44
0
VERTEX
8
OBJECT__56
10
0
20
0
30
0
70
128
71
42
72
41
73
43
0
VERTEX
8
OBJECT__56
10
0
20
0
30
0
70
128
71
45
72
46
73
47
0
VERTEX
8
OBJECT__56
10
0
20
0
30
0
70
128
71
45
72
44
73
46
0
VERTEX
8
OBJECT__56
10
0
20
0
30
0
70
128
71
47
72
48
73
45
0
VERTEX
8
OBJECT__56
10
0
20
0
30
0
70
128
71
48
72
49
73
50
0
VERTEX
8
OBJECT__56
10
0
20
0
30
0
70
128
71
50
72
51
73
48
0
VERTEX
8
OBJECT__56
10
0
20
0
30
0
70
128
71
52
72
51
73
53
0
VERTEX
8
OBJECT__56
10
0
20
0
30
0
70
128
71
53
72
54
73
52
0
VERTEX
8
OBJECT__56
10
0
20
0
30
0
70
128
71
55
72
52
73
56
0
VERTEX
8
OBJECT__56
10
0
20
0
30
0
70
128
71
56
72
57
73
55
0
VERTEX
8
OBJECT__56
10
0
20
0
30
0
70
128
71
58
72
59
73
60
0
VERTEX
8
OBJECT__56
10
0
20
0
30
0
70
128
71
58
72
55
73
61
0
VERTEX
8
OBJECT__56
10
0
20
0
30
0
70
128
71
61
72
59
73
58
0
VERTEX
8
OBJECT__56
10
0
20
0
30
0
70
128
71
60
72
1
73
58
0
VERTEX
8
OBJECT__56
10
0
20
0
30
0
70
128
71
57
72
61
73
55
0
VERTEX
8
OBJECT__56
10
0
20
0
30
0
70
128
71
54
72
56
73
52
0
VERTEX
8
OBJECT__56
10
0
20
0
30
0
70
128
71
50
72
53
73
51
0
VERTEX
8
OBJECT__56
10
0
20
0
30
0
70
128
71
47
72
49
73
48
0
VERTEX
8
OBJECT__56
10
0
20
0
30
0
70
128
71
44
72
45
73
42
0
VERTEX
8
OBJECT__56
10
0
20
0
30
0
70
128
71
41
72
42
73
39
0
VERTEX
8
OBJECT__56
10
0
20
0
30
0
70
128
71
38
72
39
73
36
0
VERTEX
8
OBJECT__56
10
0
20
0
30
0
70
128
71
22
72
20
73
18
0
VERTEX
8
OBJECT__56
10
0
20
0
30
0
70
128
71
10
72
34
73
7
0
VERTEX
8
OBJECT__56
10
0
20
0
30
0
70
128
71
6
72
36
73
4
0
VERTEX
8
OBJECT__56
10
0
20
0
30
0
70
128
71
3
72
58
73
1
0
SEQEND
8
OBJECT__56
0
POLYLINE
8
OBJECT__57
66
1
70
64
71
17
72
15
62
253
0
VERTEX
8
OBJECT__57
10
9.430000
20
48.992001
30
84.135002
70
192
0
VERTEX
8
OBJECT__57
10
11.500000
20
48.991001
30
85.234001
70
192
0
VERTEX
8
OBJECT__57
10
10.000000
20
48.977001
30
97.054001
70
192
0
VERTEX
8
OBJECT__57
10
-9.430000
20
48.992001
30
84.135002
70
192
0
VERTEX
8
OBJECT__57
10
-9.179000
20
48.994999
30
81.804001
70
192
0
VERTEX
8
OBJECT__57
10
-10.000000
20
48.977001
30
97.054001
70
192
0
VERTEX
8
OBJECT__57
10
-11.500000
20
48.991001
30
85.234001
70
192
0
VERTEX
8
OBJECT__57
10
17.320999
20
48.985001
30
89.734001
70
192
0
VERTEX
8
OBJECT__57
10
0.000000
20
48.973999
30
99.734001
70
192
0
VERTEX
8
OBJECT__57
10
-17.320999
20
48.985001
30
89.734001
70
192
0
VERTEX
8
OBJECT__57
10
-13.570000
20
48.992001
30
84.135002
70
192
0
VERTEX
8
OBJECT__57
10
19.893000
20
48.994999
30
81.804001
70
192
0
VERTEX
8
OBJECT__57
10
13.570000
20
48.992001
30
84.135002
70
192
0
VERTEX
8
OBJECT__57
10
-19.893000
20
48.994999
30
81.804001
70
192
0
VERTEX
8
OBJECT__57
10
-13.821000
20
48.994999
30
81.804001
70
192
0
VERTEX
8
OBJECT__57
10
9.179000
20
48.994999
30
81.804001
70
192
0
VERTEX
8
OBJECT__57
10
13.821000
20
48.994999
30
81.804001
70
192
0
VERTEX
8
OBJECT__57
10
0
20
0
30
0
70
128
71
1
72
2
73
3
0
VERTEX
8
OBJECT__57
10
0
20
0
30
0
70
128
71
1
72
4
73
5
0
VERTEX
8
OBJECT__57
10
0
20
0
30
0
70
128
71
6
72
7
73
4
0
VERTEX
8
OBJECT__57
10
0
20
0
30
0
70
128
71
8
72
3
73
2
0
VERTEX
8
OBJECT__57
10
0
20
0
30
0
70
128
71
3
72
9
73
1
0
VERTEX
8
OBJECT__57
10
0
20
0
30
0
70
128
71
4
72
1
73
6
0
VERTEX
8
OBJECT__57
10
0
20
0
30
0
70
128
71
10
72
11
73
7
0
VERTEX
8
OBJECT__57
10
0
20
0
30
0
70
128
71
12
72
8
73
13
0
VERTEX
8
OBJECT__57
10
0
20
0
30
0
70
128
71
9
72
6
73
1
0
VERTEX
8
OBJECT__57
10
0
20
0
30
0
70
128
71
7
72
6
73
10
0
VERTEX
8
OBJECT__57
10
0
20
0
30
0
70
128
71
14
72
15
73
11
0
VERTEX
8
OBJECT__57
10
0
20
0
30
0
70
128
71
2
72
13
73
8
0
VERTEX
8
OBJECT__57
10
0
20
0
30
0
70
128
71
11
72
10
73
14
0
VERTEX
8
OBJECT__57
10
0
20
0
30
0
70
128
71
5
72
16
73
1
0
VERTEX
8
OBJECT__57
10
0
20
0
30
0
70
128
71
13
72
17
73
12
0
SEQEND
8
OBJECT__57
0
POLYLINE
8
OBJECT__58
66
1
70
64
71
25
72
23
62
253
0
VERTEX
8
OBJECT__58
10
-19.985001
20
49.633999
30
80.497002
70
192
0
VERTEX
8
OBJECT__58
10
-11.536000
20
49.763000
30
80.235001
70
192
0
VERTEX
8
OBJECT__58
10
-13.821000
20
48.994999
30
81.804001
70
192
0
VERTEX
8
OBJECT__58
10
-9.207000
20
49.027000
30
81.738998
70
192
0
VERTEX
8
OBJECT__58
10
0.021000
20
59.726002
30
59.868000
70
192
0
VERTEX
8
OBJECT__58
10
0.656000
20
59.780998
30
59.757000
70
192
0
VERTEX
8
OBJECT__58
10
-9.789000
20
58.319000
30
62.745998
70
192
0
VERTEX
8
OBJECT__58
10
-19.861000
20
49.997002
30
79.757004
70
192
0
VERTEX
8
OBJECT__58
10
-18.629999
20
53.563999
30
72.463997
70
192
0
VERTEX
8
OBJECT__58
10
-19.893000
20
48.994999
30
81.804001
70
192
0
VERTEX
8
OBJECT__58
10
8.577000
20
58.841000
30
61.678001
70
192
0
VERTEX
8
OBJECT__58
10
-7.375000
20
59.097000
30
61.154999
70
192
0
VERTEX
8
OBJECT__58
10
9.179000
20
48.994999
30
81.804001
70
192
0
VERTEX
8
OBJECT__58
10
-9.179000
20
48.994999
30
81.804001
70
192
0
VERTEX
8
OBJECT__58
10
19.066999
20
52.959999
30
73.699997
70
192
0
VERTEX
8
OBJECT__58
10
19.684999
20
49.993000
30
79.764999
70
192
0
VERTEX
8
OBJECT__58
10
13.793000
20
49.027000
30
81.738998
70
192
0
VERTEX
8
OBJECT__58
10
-16.993000
20
54.792999
30
69.953003
70
192
0
VERTEX
8
OBJECT__58
10
-14.180000
20
56.903000
30
65.639000
70
192
0
VERTEX
8
OBJECT__58
10
9.841000
20
58.373001
30
62.634998
70
192
0
VERTEX
8
OBJECT__58
10
11.464000
20
49.763000
30
80.235001
70
192
0
VERTEX
8
OBJECT__58
10
16.955999
20
54.796001
30
69.945999
70
192
0
VERTEX
8
OBJECT__58
10
15.074000
20
56.433998
30
66.598000
70
192
0
VERTEX
8
OBJECT__58
10
19.893000
20
48.994999
30
81.804001
70
192
0
VERTEX
8
OBJECT__58
10
13.821000
20
48.994999
30
81.804001
70
192
0
VERTEX
8
OBJECT__58
10
0
20
0
30
0
70
128
71
1
72
2
73
3
0
VERTEX
8
OBJECT__58
10
0
20
0
30
0
70
128
71
4
72
5
73
6
0
VERTEX
8
OBJECT__58
10
0
20
0
30
0
70
128
71
4
72
2
73
7
0
VERTEX
8
OBJECT__58
10
0
20
0
30
0
70
128
71
2
72
8
73
9
0
VERTEX
8
OBJECT__58
10
0
20
0
30
0
70
128
71
3
72
10
73
1
0
VERTEX
8
OBJECT__58
10
0
20
0
30
0
70
128
71
6
72
11
73
4
0
VERTEX
8
OBJECT__58
10
0
20
0
30
0
70
128
71
7
72
12
73
4
0
VERTEX
8
OBJECT__58
10
0
20
0
30
0
70
128
71
13
72
14
73
4
0
VERTEX
8
OBJECT__58
10
0
20
0
30
0
70
128
71
15
72
16
73
17
0
VERTEX
8
OBJECT__58
10
0
20
0
30
0
70
128
71
2
72
18
73
19
0
VERTEX
8
OBJECT__58
10
0
20
0
30
0
70
128
71
1
72
8
73
2
0
VERTEX
8
OBJECT__58
10
0
20
0
30
0
70
128
71
12
72
5
73
4
0
VERTEX
8
OBJECT__58
10
0
20
0
30
0
70
128
71
20
72
21
73
13
0
VERTEX
8
OBJECT__58
10
0
20
0
30
0
70
128
71
21
72
22
73
15
0
VERTEX
8
OBJECT__58
10
0
20
0
30
0
70
128
71
21
72
20
73
23
0
VERTEX
8
OBJECT__58
10
0
20
0
30
0
70
128
71
9
72
18
73
2
0
VERTEX
8
OBJECT__58
10
0
20
0
30
0
70
128
71
4
72
20
73
13
0
VERTEX
8
OBJECT__58
10
0
20
0
30
0
70
128
71
23
72
22
73
21
0
VERTEX
8
OBJECT__58
10
0
20
0
30
0
70
128
71
16
72
24
73
25
0
VERTEX
8
OBJECT__58
10
0
20
0
30
0
70
128
71
11
72
20
73
4
0
VERTEX
8
OBJECT__58
10
0
20
0
30
0
70
128
71
25
72
17
73
16
0
VERTEX
8
OBJECT__58
10
0
20
0
30
0
70
128
71
17
72
21
73
15
0
VERTEX
8
OBJECT__58
10
0
20
0
30
0
70
128
71
19
72
7
73
2
0
SEQEND
8
OBJECT__58
0
POLYLINE
8
OBJECT__59
66
1
70
64
71
28
72
30
62
253
0
VERTEX
8
OBJECT__59
10
10.000000
20
70.517998
30
62.438999
70
192
0
VERTEX
8
OBJECT__59
10
0.000000
20
70.521004
30
59.758999
70
192
0
VERTEX
8
OBJECT__59
10
3.798000
20
70.514999
30
64.581001
70
192
0
VERTEX
8
OBJECT__59
10
6.250000
20
70.498001
30
79.468002
70
192
0
VERTEX
8
OBJECT__59
10
6.407000
20
70.503998
30
74.044998
70
192
0
VERTEX
8
OBJECT__59
10
-1.897000
20
70.504997
30
73.026001
70
192
0
VERTEX
8
OBJECT__59
10
-3.798000
20
70.514999
30
64.581001
70
192
0
VERTEX
8
OBJECT__59
10
-10.000000
20
70.517998
30
62.438999
70
192
0
VERTEX
8
OBJECT__59
10
-10.577000
20
70.511002
30
68.008003
70
192
0
VERTEX
8
OBJECT__59
10
6.250000
20
70.496002
30
81.045998
70
192
0
VERTEX
8
OBJECT__59
10
16.337999
20
70.495003
30
81.615997
70
192
0
VERTEX
8
OBJECT__59
10
13.697000
20
70.499001
30
78.584999
70
192
0
VERTEX
8
OBJECT__59
10
-6.250000
20
70.498001
30
79.468002
70
192
0
VERTEX
8
OBJECT__59
10
20.000000
20
70.497002
30
79.759003
70
192
0
VERTEX
8
OBJECT__59
10
17.320999
20
70.509003
30
69.759003
70
192
0
VERTEX
8
OBJECT__59
10
15.080000
20
70.503998
30
74.125000
70
192
0
VERTEX
8
OBJECT__59
10
10.577000
20
70.511002
30
68.008003
70
192
0
VERTEX
8
OBJECT__59
10
-17.320999
20
70.509003
30
69.759003
70
192
0
VERTEX
8
OBJECT__59
10
-15.080000
20
70.503998
30
74.125000
70
192
0
VERTEX
8
OBJECT__59
10
17.320999
20
70.485001
30
89.759003
70
192
0
VERTEX
8
OBJECT__59
10
-9.901000
20
70.501999
30
75.690002
70
192
0
VERTEX
8
OBJECT__59
10
-16.337999
20
70.495003
30
81.615997
70
192
0
VERTEX
8
OBJECT__59
10
-6.250000
20
70.496002
30
81.045998
70
192
0
VERTEX
8
OBJECT__59
10
-10.000000
20
70.476997
30
97.080002
70
192
0
VERTEX
8
OBJECT__59
10
0.000000
20
70.473999
30
99.759003
70
192
0
VERTEX
8
OBJECT__59
10
-20.000000
20
70.497002
30
79.759003
70
192
0
VERTEX
8
OBJECT__59
10
10.000000
20
70.476997
30
97.080002
70
192
0
VERTEX
8
OBJECT__59
10
-17.320999
20
70.485001
30
89.759003
70
192
0
VERTEX
8
OBJECT__59
10
0
20
0
30
0
70
128
71
1
72
2
73
3
0
VERTEX
8
OBJECT__59
10
0
20
0
30
0
70
128
71
4
72
5
73
6
0
VERTEX
8
OBJECT__59
10
0
20
0
30
0
70
128
71
2
72
7
73
3
0
VERTEX
8
OBJECT__59
10
0
20
0
30
0
70
128
71
8
72
9
73
7
0
VERTEX
8
OBJECT__59
10
0
20
0
30
0
70
128
71
10
72
11
73
12
0
VERTEX
8
OBJECT__59
10
0
20
0
30
0
70
128
71
6
72
13
73
4
0
VERTEX
8
OBJECT__59
10
0
20
0
30
0
70
128
71
14
72
15
73
16
0
VERTEX
8
OBJECT__59
10
0
20
0
30
0
70
128
71
15
72
1
73
17
0
VERTEX
8
OBJECT__59
10
0
20
0
30
0
70
128
71
7
72
2
73
8
0
VERTEX
8
OBJECT__59
10
0
20
0
30
0
70
128
71
18
72
19
73
9
0
VERTEX
8
OBJECT__59
10
0
20
0
30
0
70
128
71
10
72
20
73
11
0
VERTEX
8
OBJECT__59
10
0
20
0
30
0
70
128
71
6
72
21
73
13
0
VERTEX
8
OBJECT__59
10
0
20
0
30
0
70
128
71
22
72
23
73
13
0
VERTEX
8
OBJECT__59
10
0
20
0
30
0
70
128
71
10
72
24
73
25
0
VERTEX
8
OBJECT__59
10
0
20
0
30
0
70
128
71
17
72
16
73
15
0
VERTEX
8
OBJECT__59
10
0
20
0
30
0
70
128
71
9
72
8
73
18
0
VERTEX
8
OBJECT__59
10
0
20
0
30
0
70
128
71
26
72
22
73
19
0
VERTEX
8
OBJECT__59
10
0
20
0
30
0
70
128
71
4
72
12
73
5
0
VERTEX
8
OBJECT__59
10
0
20
0
30
0
70
128
71
13
72
21
73
22
0
VERTEX
8
OBJECT__59
10
0
20
0
30
0
70
128
71
25
72
27
73
10
0
VERTEX
8
OBJECT__59
10
0
20
0
30
0
70
128
71
24
72
10
73
23
0
VERTEX
8
OBJECT__59
10
0
20
0
30
0
70
128
71
3
72
17
73
1
0
VERTEX
8
OBJECT__59
10
0
20
0
30
0
70
128
71
26
72
28
73
22
0
VERTEX
8
OBJECT__59
10
0
20
0
30
0
70
128
71
22
72
28
73
23
0
VERTEX
8
OBJECT__59
10
0
20
0
30
0
70
128
71
23
72
28
73
24
0
VERTEX
8
OBJECT__59
10
0
20
0
30
0
70
128
71
19
72
18
73
26
0
VERTEX
8
OBJECT__59
10
0
20
0
30
0
70
128
71
27
72
20
73
10
0
VERTEX
8
OBJECT__59
10
0
20
0
30
0
70
128
71
12
72
4
73
10
0
VERTEX
8
OBJECT__59
10
0
20
0
30
0
70
128
71
16
72
11
73
14
0
VERTEX
8
OBJECT__59
10
0
20
0
30
0
70
128
71
11
72
20
73
14
0
SEQEND
8
OBJECT__59
0
ENDSEC
0
EOF
