999
Converted by 3D Exploration 
999
XDimension Software, LLC
999
http://www.xdsoft.com/explorer/
0
SECTION
2
HEADER
9
$ACADVER
1
AC1008
9
$UCSORG
10
0.0
20
0.0
30
0.0
9
$UCSXDIR
10
1.0
20
0.0
30
0.0
9
$TILEMODE
70
1
9
$UCSYDIR
10
0.0
20
1.0
30
0.0
9
$EXTMIN
10
-31.024000
20
-30.000000
30
-30.000000
9
$EXTMAX
10
160.209000
20
75.017998
30
302.412994
0
ENDSEC
0
SECTION
2
TABLES
0
TABLE
2
LTYPE
70
1
0
LTYPE
2
CONTINUOUS
70
64
3
Solid line
72
65
73
0
40
0.0
0
ENDTAB
0
TABLE
2
LAYER
70
50
0
LAYER
2
OBJECT__0
70
0
62
253
6
CONTINUOUS
0
LAYER
2
OBJECT__1
70
0
62
253
6
CONTINUOUS
0
LAYER
2
OBJECT__3
70
0
62
253
6
CONTINUOUS
0
LAYER
2
OBJECT__4
70
0
62
253
6
CONTINUOUS
0
LAYER
2
OBJECT__6
70
0
62
253
6
CONTINUOUS
0
LAYER
2
OBJECT__7
70
0
62
253
6
CONTINUOUS
0
LAYER
2
OBJECT__8
70
0
62
253
6
CONTINUOUS
0
LAYER
2
OBJECT__10
70
0
62
253
6
CONTINUOUS
0
LAYER
2
OBJECT__11
70
0
62
253
6
CONTINUOUS
0
LAYER
2
OBJECT__12
70
0
62
253
6
CONTINUOUS
0
LAYER
2
OBJECT__13
70
0
62
253
6
CONTINUOUS
0
LAYER
2
OBJECT__14
70
0
62
253
6
CONTINUOUS
0
LAYER
2
OBJECT__16
70
0
62
253
6
CONTINUOUS
0
LAYER
2
OBJECT__18
70
0
62
253
6
CONTINUOUS
0
LAYER
2
OBJECT__19
70
0
62
253
6
CONTINUOUS
0
LAYER
2
OBJECT__21
70
0
62
253
6
CONTINUOUS
0
LAYER
2
OBJECT__22
70
0
62
253
6
CONTINUOUS
0
LAYER
2
OBJECT__23
70
0
62
253
6
CONTINUOUS
0
LAYER
2
OBJECT__25
70
0
62
253
6
CONTINUOUS
0
LAYER
2
OBJECT__26
70
0
62
253
6
CONTINUOUS
0
LAYER
2
OBJECT__28
70
0
62
253
6
CONTINUOUS
0
LAYER
2
OBJECT__29
70
0
62
253
6
CONTINUOUS
0
LAYER
2
OBJECT__30
70
0
62
253
6
CONTINUOUS
0
LAYER
2
OBJECT__31
70
0
62
253
6
CONTINUOUS
0
LAYER
2
OBJECT__32
70
0
62
253
6
CONTINUOUS
0
LAYER
2
OBJECT__33
70
0
62
253
6
CONTINUOUS
0
LAYER
2
OBJECT__35
70
0
62
253
6
CONTINUOUS
0
LAYER
2
OBJECT__36
70
0
62
253
6
CONTINUOUS
0
LAYER
2
OBJECT__37
70
0
62
253
6
CONTINUOUS
0
LAYER
2
OBJECT__38
70
0
62
253
6
CONTINUOUS
0
LAYER
2
OBJECT__39
70
0
62
253
6
CONTINUOUS
0
LAYER
2
OBJECT__41
70
0
62
253
6
CONTINUOUS
0
LAYER
2
OBJECT__42
70
0
62
253
6
CONTINUOUS
0
LAYER
2
OBJECT__43
70
0
62
253
6
CONTINUOUS
0
LAYER
2
OBJECT__44
70
0
62
253
6
CONTINUOUS
0
LAYER
2
OBJECT__45
70
0
62
253
6
CONTINUOUS
0
LAYER
2
OBJECT__46
70
0
62
253
6
CONTINUOUS
0
LAYER
2
OBJECT__48
70
0
62
253
6
CONTINUOUS
0
LAYER
2
OBJECT__49
70
0
62
253
6
CONTINUOUS
0
ENDTAB
0
TABLE
2
STYLE
70
1
0
STYLE
2
STANDARD
70
0
40
0.0
41
1.0
50
0.0
71
0
42
0.2
3
txt
4
1
0
ENDTAB
0
TABLE
2
UCS
70
0
0
ENDTAB
0
ENDSEC
0
SECTION
2
ENTITIES
0
POLYLINE
8
OBJECT__0
66
1
70
64
71
7
72
5
62
253
0
VERTEX
8
OBJECT__0
10
150.472000
20
-6.194000
30
274.912994
70
192
0
VERTEX
8
OBJECT__0
10
138.483994
20
8.951000
30
273.441010
70
192
0
VERTEX
8
OBJECT__0
10
147.041000
20
8.951000
30
274.492004
70
192
0
VERTEX
8
OBJECT__0
10
133.149002
20
2.211000
30
272.786011
70
192
0
VERTEX
8
OBJECT__0
10
142.761993
20
-9.935000
30
273.967010
70
192
0
VERTEX
8
OBJECT__0
10
152.376007
20
2.211000
30
275.147003
70
192
0
VERTEX
8
OBJECT__0
10
135.052994
20
-6.194000
30
273.019989
70
192
0
VERTEX
8
OBJECT__0
10
0
20
0
30
0
70
128
71
1
72
2
73
3
0
VERTEX
8
OBJECT__0
10
0
20
0
30
0
70
128
71
4
72
1
73
5
0
VERTEX
8
OBJECT__0
10
0
20
0
30
0
70
128
71
1
72
4
73
2
0
VERTEX
8
OBJECT__0
10
0
20
0
30
0
70
128
71
3
72
6
73
1
0
VERTEX
8
OBJECT__0
10
0
20
0
30
0
70
128
71
5
72
7
73
4
0
SEQEND
8
OBJECT__0
0
POLYLINE
8
OBJECT__1
66
1
70
64
71
14
72
14
62
253
0
VERTEX
8
OBJECT__1
10
135.052994
20
-6.194000
30
273.019989
70
192
0
VERTEX
8
OBJECT__1
10
142.761993
20
-9.935000
30
273.967010
70
192
0
VERTEX
8
OBJECT__1
10
141.531006
20
-9.935000
30
283.990997
70
192
0
VERTEX
8
OBJECT__1
10
131.917999
20
2.211000
30
282.811005
70
192
0
VERTEX
8
OBJECT__1
10
133.149002
20
2.211000
30
272.786011
70
192
0
VERTEX
8
OBJECT__1
10
138.483994
20
8.951000
30
273.441010
70
192
0
VERTEX
8
OBJECT__1
10
147.041000
20
8.951000
30
274.492004
70
192
0
VERTEX
8
OBJECT__1
10
137.253006
20
8.951000
30
283.466003
70
192
0
VERTEX
8
OBJECT__1
10
152.376007
20
2.211000
30
275.147003
70
192
0
VERTEX
8
OBJECT__1
10
145.809998
20
8.951000
30
284.516998
70
192
0
VERTEX
8
OBJECT__1
10
149.240997
20
-6.194000
30
284.937988
70
192
0
VERTEX
8
OBJECT__1
10
150.472000
20
-6.194000
30
274.912994
70
192
0
VERTEX
8
OBJECT__1
10
151.145004
20
2.211000
30
285.171997
70
192
0
VERTEX
8
OBJECT__1
10
133.822006
20
-6.194000
30
283.045013
70
192
0
VERTEX
8
OBJECT__1
10
0
20
0
30
0
70
128
71
1
72
2
73
3
0
VERTEX
8
OBJECT__1
10
0
20
0
30
0
70
128
71
4
72
5
73
1
0
VERTEX
8
OBJECT__1
10
0
20
0
30
0
70
128
71
6
72
5
73
4
0
VERTEX
8
OBJECT__1
10
0
20
0
30
0
70
128
71
7
72
6
73
8
0
VERTEX
8
OBJECT__1
10
0
20
0
30
0
70
128
71
9
72
7
73
10
0
VERTEX
8
OBJECT__1
10
0
20
0
30
0
70
128
71
11
72
12
73
9
0
VERTEX
8
OBJECT__1
10
0
20
0
30
0
70
128
71
2
72
12
73
11
0
VERTEX
8
OBJECT__1
10
0
20
0
30
0
70
128
71
11
72
3
73
2
0
VERTEX
8
OBJECT__1
10
0
20
0
30
0
70
128
71
9
72
13
73
11
0
VERTEX
8
OBJECT__1
10
0
20
0
30
0
70
128
71
10
72
13
73
9
0
VERTEX
8
OBJECT__1
10
0
20
0
30
0
70
128
71
8
72
10
73
7
0
VERTEX
8
OBJECT__1
10
0
20
0
30
0
70
128
71
4
72
8
73
6
0
VERTEX
8
OBJECT__1
10
0
20
0
30
0
70
128
71
1
72
14
73
4
0
VERTEX
8
OBJECT__1
10
0
20
0
30
0
70
128
71
3
72
14
73
1
0
SEQEND
8
OBJECT__1
0
POLYLINE
8
OBJECT__3
66
1
70
64
71
49
72
62
62
253
0
VERTEX
8
OBJECT__3
10
-15.527000
20
52.206001
30
79.699997
70
192
0
VERTEX
8
OBJECT__3
10
-18.150000
20
48.000000
30
79.699997
70
192
0
VERTEX
8
OBJECT__3
10
-17.622999
20
48.000000
30
84.043999
70
192
0
VERTEX
8
OBJECT__3
10
-13.749000
20
52.206001
30
86.916000
70
192
0
VERTEX
8
OBJECT__3
10
-16.971001
20
48.000000
30
86.136002
70
192
0
VERTEX
8
OBJECT__3
10
-16.070999
20
48.000000
30
88.135002
70
192
0
VERTEX
8
OBJECT__3
10
-10.311000
20
48.000000
30
94.638000
70
192
0
VERTEX
8
OBJECT__3
10
-8.820000
20
52.206001
30
92.478996
70
192
0
VERTEX
8
OBJECT__3
10
-1.872000
20
52.206001
30
95.113998
70
192
0
VERTEX
8
OBJECT__3
10
-6.436000
20
48.000000
30
96.670998
70
192
0
VERTEX
8
OBJECT__3
10
-2.188000
20
48.000000
30
97.718002
70
192
0
VERTEX
8
OBJECT__3
10
2.188000
20
48.000000
30
97.718002
70
192
0
VERTEX
8
OBJECT__3
10
5.506000
20
52.206001
30
94.218002
70
192
0
VERTEX
8
OBJECT__3
10
6.436000
20
48.000000
30
96.670998
70
192
0
VERTEX
8
OBJECT__3
10
10.311000
20
48.000000
30
94.638000
70
192
0
VERTEX
8
OBJECT__3
10
11.622000
20
52.206001
30
89.996002
70
192
0
VERTEX
8
OBJECT__3
10
15.076000
20
52.206001
30
83.416000
70
192
0
VERTEX
8
OBJECT__3
10
16.070999
20
48.000000
30
88.135002
70
192
0
VERTEX
8
OBJECT__3
10
13.586000
20
48.000000
30
91.736000
70
192
0
VERTEX
8
OBJECT__3
10
17.622999
20
48.000000
30
75.356003
70
192
0
VERTEX
8
OBJECT__3
10
15.076000
20
52.206001
30
75.984001
70
192
0
VERTEX
8
OBJECT__3
10
11.622000
20
52.206001
30
69.403999
70
192
0
VERTEX
8
OBJECT__3
10
16.070999
20
48.000000
30
71.264999
70
192
0
VERTEX
8
OBJECT__3
10
13.586000
20
48.000000
30
67.664001
70
192
0
VERTEX
8
OBJECT__3
10
10.311000
20
48.000000
30
64.762001
70
192
0
VERTEX
8
OBJECT__3
10
5.506000
20
52.206001
30
65.181999
70
192
0
VERTEX
8
OBJECT__3
10
-1.872000
20
52.206001
30
64.286003
70
192
0
VERTEX
8
OBJECT__3
10
2.188000
20
48.000000
30
61.681999
70
192
0
VERTEX
8
OBJECT__3
10
6.436000
20
48.000000
30
62.729000
70
192
0
VERTEX
8
OBJECT__3
10
-2.188000
20
48.000000
30
61.681999
70
192
0
VERTEX
8
OBJECT__3
10
-10.311000
20
48.000000
30
64.762001
70
192
0
VERTEX
8
OBJECT__3
10
-8.820000
20
52.206001
30
66.920998
70
192
0
VERTEX
8
OBJECT__3
10
-13.749000
20
52.206001
30
72.484001
70
192
0
VERTEX
8
OBJECT__3
10
-13.586000
20
48.000000
30
67.664001
70
192
0
VERTEX
8
OBJECT__3
10
-10.581000
20
55.637001
30
85.252998
70
192
0
VERTEX
8
OBJECT__3
10
-11.950000
20
55.637001
30
79.699997
70
192
0
VERTEX
8
OBJECT__3
10
-6.788000
20
55.637001
30
89.535004
70
192
0
VERTEX
8
OBJECT__3
10
-1.440000
20
55.637001
30
91.563004
70
192
0
VERTEX
8
OBJECT__3
10
4.238000
20
55.637001
30
90.873001
70
192
0
VERTEX
8
OBJECT__3
10
8.945000
20
55.637001
30
87.624001
70
192
0
VERTEX
8
OBJECT__3
10
11.603000
20
55.637001
30
82.559998
70
192
0
VERTEX
8
OBJECT__3
10
11.603000
20
55.637001
30
76.839996
70
192
0
VERTEX
8
OBJECT__3
10
8.945000
20
55.637001
30
71.776001
70
192
0
VERTEX
8
OBJECT__3
10
4.238000
20
55.637001
30
68.527000
70
192
0
VERTEX
8
OBJECT__3
10
-1.440000
20
55.637001
30
67.836998
70
192
0
VERTEX
8
OBJECT__3
10
-6.788000
20
55.637001
30
69.864998
70
192
0
VERTEX
8
OBJECT__3
10
-10.581000
20
55.637001
30
74.147003
70
192
0
VERTEX
8
OBJECT__3
10
-16.070999
20
48.000000
30
71.264999
70
192
0
VERTEX
8
OBJECT__3
10
17.622999
20
48.000000
30
84.043999
70
192
0
VERTEX
8
OBJECT__3
10
0
20
0
30
0
70
128
71
1
72
2
73
3
0
VERTEX
8
OBJECT__3
10
0
20
0
30
0
70
128
71
3
72
4
73
1
0
VERTEX
8
OBJECT__3
10
0
20
0
30
0
70
128
71
3
72
5
73
4
0
VERTEX
8
OBJECT__3
10
0
20
0
30
0
70
128
71
6
72
7
73
8
0
VERTEX
8
OBJECT__3
10
0
20
0
30
0
70
128
71
9
72
8
73
10
0
VERTEX
8
OBJECT__3
10
0
20
0
30
0
70
128
71
8
72
7
73
10
0
VERTEX
8
OBJECT__3
10
0
20
0
30
0
70
128
71
9
72
11
73
12
0
VERTEX
8
OBJECT__3
10
0
20
0
30
0
70
128
71
12
72
13
73
9
0
VERTEX
8
OBJECT__3
10
0
20
0
30
0
70
128
71
13
72
14
73
15
0
VERTEX
8
OBJECT__3
10
0
20
0
30
0
70
128
71
15
72
16
73
13
0
VERTEX
8
OBJECT__3
10
0
20
0
30
0
70
128
71
17
72
16
73
18
0
VERTEX
8
OBJECT__3
10
0
20
0
30
0
70
128
71
16
72
19
73
18
0
VERTEX
8
OBJECT__3
10
0
20
0
30
0
70
128
71
20
72
21
73
17
0
VERTEX
8
OBJECT__3
10
0
20
0
30
0
70
128
71
22
72
21
73
23
0
VERTEX
8
OBJECT__3
10
0
20
0
30
0
70
128
71
21
72
20
73
23
0
VERTEX
8
OBJECT__3
10
0
20
0
30
0
70
128
71
22
72
24
73
25
0
VERTEX
8
OBJECT__3
10
0
20
0
30
0
70
128
71
25
72
26
73
22
0
VERTEX
8
OBJECT__3
10
0
20
0
30
0
70
128
71
27
72
26
73
28
0
VERTEX
8
OBJECT__3
10
0
20
0
30
0
70
128
71
26
72
29
73
28
0
VERTEX
8
OBJECT__3
10
0
20
0
30
0
70
128
71
30
72
31
73
32
0
VERTEX
8
OBJECT__3
10
0
20
0
30
0
70
128
71
33
72
32
73
34
0
VERTEX
8
OBJECT__3
10
0
20
0
30
0
70
128
71
32
72
31
73
34
0
VERTEX
8
OBJECT__3
10
0
20
0
30
0
70
128
71
2
72
1
73
33
0
VERTEX
8
OBJECT__3
10
0
20
0
30
0
70
128
71
4
72
35
73
36
0
VERTEX
8
OBJECT__3
10
0
20
0
30
0
70
128
71
8
72
37
73
35
0
VERTEX
8
OBJECT__3
10
0
20
0
30
0
70
128
71
9
72
38
73
37
0
VERTEX
8
OBJECT__3
10
0
20
0
30
0
70
128
71
9
72
13
73
39
0
VERTEX
8
OBJECT__3
10
0
20
0
30
0
70
128
71
13
72
16
73
40
0
VERTEX
8
OBJECT__3
10
0
20
0
30
0
70
128
71
16
72
17
73
41
0
VERTEX
8
OBJECT__3
10
0
20
0
30
0
70
128
71
17
72
21
73
42
0
VERTEX
8
OBJECT__3
10
0
20
0
30
0
70
128
71
22
72
43
73
42
0
VERTEX
8
OBJECT__3
10
0
20
0
30
0
70
128
71
22
72
26
73
44
0
VERTEX
8
OBJECT__3
10
0
20
0
30
0
70
128
71
26
72
27
73
45
0
VERTEX
8
OBJECT__3
10
0
20
0
30
0
70
128
71
32
72
46
73
45
0
VERTEX
8
OBJECT__3
10
0
20
0
30
0
70
128
71
32
72
33
73
47
0
VERTEX
8
OBJECT__3
10
0
20
0
30
0
70
128
71
33
72
1
73
36
0
VERTEX
8
OBJECT__3
10
0
20
0
30
0
70
128
71
36
72
47
73
33
0
VERTEX
8
OBJECT__3
10
0
20
0
30
0
70
128
71
47
72
46
73
32
0
VERTEX
8
OBJECT__3
10
0
20
0
30
0
70
128
71
45
72
27
73
32
0
VERTEX
8
OBJECT__3
10
0
20
0
30
0
70
128
71
45
72
44
73
26
0
VERTEX
8
OBJECT__3
10
0
20
0
30
0
70
128
71
44
72
43
73
22
0
VERTEX
8
OBJECT__3
10
0
20
0
30
0
70
128
71
42
72
21
73
22
0
VERTEX
8
OBJECT__3
10
0
20
0
30
0
70
128
71
42
72
41
73
17
0
VERTEX
8
OBJECT__3
10
0
20
0
30
0
70
128
71
41
72
40
73
16
0
VERTEX
8
OBJECT__3
10
0
20
0
30
0
70
128
71
40
72
39
73
13
0
VERTEX
8
OBJECT__3
10
0
20
0
30
0
70
128
71
39
72
38
73
9
0
VERTEX
8
OBJECT__3
10
0
20
0
30
0
70
128
71
37
72
8
73
9
0
VERTEX
8
OBJECT__3
10
0
20
0
30
0
70
128
71
35
72
4
73
8
0
VERTEX
8
OBJECT__3
10
0
20
0
30
0
70
128
71
36
72
1
73
4
0
VERTEX
8
OBJECT__3
10
0
20
0
30
0
70
128
71
33
72
48
73
2
0
VERTEX
8
OBJECT__3
10
0
20
0
30
0
70
128
71
34
72
48
73
33
0
VERTEX
8
OBJECT__3
10
0
20
0
30
0
70
128
71
32
72
27
73
30
0
VERTEX
8
OBJECT__3
10
0
20
0
30
0
70
128
71
28
72
30
73
27
0
VERTEX
8
OBJECT__3
10
0
20
0
30
0
70
128
71
25
72
29
73
26
0
VERTEX
8
OBJECT__3
10
0
20
0
30
0
70
128
71
23
72
24
73
22
0
VERTEX
8
OBJECT__3
10
0
20
0
30
0
70
128
71
17
72
49
73
20
0
VERTEX
8
OBJECT__3
10
0
20
0
30
0
70
128
71
18
72
49
73
17
0
VERTEX
8
OBJECT__3
10
0
20
0
30
0
70
128
71
15
72
19
73
16
0
VERTEX
8
OBJECT__3
10
0
20
0
30
0
70
128
71
12
72
14
73
13
0
VERTEX
8
OBJECT__3
10
0
20
0
30
0
70
128
71
10
72
11
73
9
0
VERTEX
8
OBJECT__3
10
0
20
0
30
0
70
128
71
8
72
4
73
6
0
VERTEX
8
OBJECT__3
10
0
20
0
30
0
70
128
71
5
72
6
73
4
0
SEQEND
8
OBJECT__3
0
POLYLINE
8
OBJECT__4
66
1
70
64
71
43
72
43
62
253
0
VERTEX
8
OBJECT__4
10
10.845000
20
48.000000
30
64.774002
70
192
0
VERTEX
8
OBJECT__4
10
10.311000
20
48.000000
30
64.762001
70
192
0
VERTEX
8
OBJECT__4
10
13.586000
20
48.000000
30
67.664001
70
192
0
VERTEX
8
OBJECT__4
10
5.701000
20
48.000000
30
62.153000
70
192
0
VERTEX
8
OBJECT__4
10
6.436000
20
48.000000
30
62.729000
70
192
0
VERTEX
8
OBJECT__4
10
0.000000
20
48.000000
30
61.250000
70
192
0
VERTEX
8
OBJECT__4
10
2.188000
20
48.000000
30
61.681999
70
192
0
VERTEX
8
OBJECT__4
10
14.926000
20
48.000000
30
68.855003
70
192
0
VERTEX
8
OBJECT__4
10
-5.701000
20
48.000000
30
97.247002
70
192
0
VERTEX
8
OBJECT__4
10
0.000000
20
48.000000
30
98.150002
70
192
0
VERTEX
8
OBJECT__4
10
-2.188000
20
48.000000
30
97.718002
70
192
0
VERTEX
8
OBJECT__4
10
5.701000
20
48.000000
30
97.247002
70
192
0
VERTEX
8
OBJECT__4
10
6.436000
20
48.000000
30
96.670998
70
192
0
VERTEX
8
OBJECT__4
10
2.188000
20
48.000000
30
97.718002
70
192
0
VERTEX
8
OBJECT__4
10
10.845000
20
48.000000
30
94.625999
70
192
0
VERTEX
8
OBJECT__4
10
10.311000
20
48.000000
30
94.638000
70
192
0
VERTEX
8
OBJECT__4
10
14.926000
20
48.000000
30
90.544998
70
192
0
VERTEX
8
OBJECT__4
10
13.586000
20
48.000000
30
91.736000
70
192
0
VERTEX
8
OBJECT__4
10
-5.701000
20
48.000000
30
62.153000
70
192
0
VERTEX
8
OBJECT__4
10
-2.188000
20
48.000000
30
61.681999
70
192
0
VERTEX
8
OBJECT__4
10
-10.845000
20
48.000000
30
94.625999
70
192
0
VERTEX
8
OBJECT__4
10
-6.436000
20
48.000000
30
96.670998
70
192
0
VERTEX
8
OBJECT__4
10
16.070999
20
48.000000
30
88.135002
70
192
0
VERTEX
8
OBJECT__4
10
18.450001
20
48.000000
30
79.699997
70
192
0
VERTEX
8
OBJECT__4
10
17.622999
20
48.000000
30
75.356003
70
192
0
VERTEX
8
OBJECT__4
10
17.622999
20
48.000000
30
84.043999
70
192
0
VERTEX
8
OBJECT__4
10
17.547001
20
48.000000
30
73.999001
70
192
0
VERTEX
8
OBJECT__4
10
16.070999
20
48.000000
30
71.264999
70
192
0
VERTEX
8
OBJECT__4
10
17.547001
20
48.000000
30
85.401001
70
192
0
VERTEX
8
OBJECT__4
10
-10.311000
20
48.000000
30
64.762001
70
192
0
VERTEX
8
OBJECT__4
10
-17.547001
20
48.000000
30
85.401001
70
192
0
VERTEX
8
OBJECT__4
10
-14.926000
20
48.000000
30
90.544998
70
192
0
VERTEX
8
OBJECT__4
10
-16.070999
20
48.000000
30
88.135002
70
192
0
VERTEX
8
OBJECT__4
10
-10.845000
20
48.000000
30
64.774002
70
192
0
VERTEX
8
OBJECT__4
10
-14.926000
20
48.000000
30
68.855003
70
192
0
VERTEX
8
OBJECT__4
10
-13.586000
20
48.000000
30
67.664001
70
192
0
VERTEX
8
OBJECT__4
10
-17.547001
20
48.000000
30
73.999001
70
192
0
VERTEX
8
OBJECT__4
10
-16.070999
20
48.000000
30
71.264999
70
192
0
VERTEX
8
OBJECT__4
10
-18.450001
20
48.000000
30
79.699997
70
192
0
VERTEX
8
OBJECT__4
10
-17.622999
20
48.000000
30
84.043999
70
192
0
VERTEX
8
OBJECT__4
10
-16.971001
20
48.000000
30
86.136002
70
192
0
VERTEX
8
OBJECT__4
10
-10.311000
20
48.000000
30
94.638000
70
192
0
VERTEX
8
OBJECT__4
10
-18.150000
20
48.000000
30
79.699997
70
192
0
VERTEX
8
OBJECT__4
10
0
20
0
30
0
70
128
71
1
72
2
73
3
0
VERTEX
8
OBJECT__4
10
0
20
0
30
0
70
128
71
1
72
4
73
5
0
VERTEX
8
OBJECT__4
10
0
20
0
30
0
70
128
71
4
72
6
73
7
0
VERTEX
8
OBJECT__4
10
0
20
0
30
0
70
128
71
3
72
8
73
1
0
VERTEX
8
OBJECT__4
10
0
20
0
30
0
70
128
71
7
72
5
73
4
0
VERTEX
8
OBJECT__4
10
0
20
0
30
0
70
128
71
9
72
10
73
11
0
VERTEX
8
OBJECT__4
10
0
20
0
30
0
70
128
71
12
72
13
73
14
0
VERTEX
8
OBJECT__4
10
0
20
0
30
0
70
128
71
15
72
16
73
13
0
VERTEX
8
OBJECT__4
10
0
20
0
30
0
70
128
71
15
72
17
73
18
0
VERTEX
8
OBJECT__4
10
0
20
0
30
0
70
128
71
5
72
2
73
1
0
VERTEX
8
OBJECT__4
10
0
20
0
30
0
70
128
71
6
72
19
73
20
0
VERTEX
8
OBJECT__4
10
0
20
0
30
0
70
128
71
21
72
9
73
22
0
VERTEX
8
OBJECT__4
10
0
20
0
30
0
70
128
71
10
72
14
73
11
0
VERTEX
8
OBJECT__4
10
0
20
0
30
0
70
128
71
13
72
12
73
15
0
VERTEX
8
OBJECT__4
10
0
20
0
30
0
70
128
71
17
72
23
73
18
0
VERTEX
8
OBJECT__4
10
0
20
0
30
0
70
128
71
24
72
25
73
26
0
VERTEX
8
OBJECT__4
10
0
20
0
30
0
70
128
71
27
72
8
73
28
0
VERTEX
8
OBJECT__4
10
0
20
0
30
0
70
128
71
20
72
7
73
6
0
VERTEX
8
OBJECT__4
10
0
20
0
30
0
70
128
71
11
72
22
73
9
0
VERTEX
8
OBJECT__4
10
0
20
0
30
0
70
128
71
18
72
16
73
15
0
VERTEX
8
OBJECT__4
10
0
20
0
30
0
70
128
71
24
72
27
73
25
0
VERTEX
8
OBJECT__4
10
0
20
0
30
0
70
128
71
3
72
28
73
8
0
VERTEX
8
OBJECT__4
10
0
20
0
30
0
70
128
71
14
72
10
73
12
0
VERTEX
8
OBJECT__4
10
0
20
0
30
0
70
128
71
29
72
26
73
23
0
VERTEX
8
OBJECT__4
10
0
20
0
30
0
70
128
71
28
72
25
73
27
0
VERTEX
8
OBJECT__4
10
0
20
0
30
0
70
128
71
30
72
20
73
19
0
VERTEX
8
OBJECT__4
10
0
20
0
30
0
70
128
71
31
72
32
73
33
0
VERTEX
8
OBJECT__4
10
0
20
0
30
0
70
128
71
23
72
17
73
29
0
VERTEX
8
OBJECT__4
10
0
20
0
30
0
70
128
71
19
72
34
73
30
0
VERTEX
8
OBJECT__4
10
0
20
0
30
0
70
128
71
34
72
35
73
36
0
VERTEX
8
OBJECT__4
10
0
20
0
30
0
70
128
71
35
72
37
73
38
0
VERTEX
8
OBJECT__4
10
0
20
0
30
0
70
128
71
39
72
31
73
40
0
VERTEX
8
OBJECT__4
10
0
20
0
30
0
70
128
71
33
72
41
73
31
0
VERTEX
8
OBJECT__4
10
0
20
0
30
0
70
128
71
26
72
29
73
24
0
VERTEX
8
OBJECT__4
10
0
20
0
30
0
70
128
71
38
72
36
73
35
0
VERTEX
8
OBJECT__4
10
0
20
0
30
0
70
128
71
41
72
40
73
31
0
VERTEX
8
OBJECT__4
10
0
20
0
30
0
70
128
71
42
72
33
73
32
0
VERTEX
8
OBJECT__4
10
0
20
0
30
0
70
128
71
36
72
30
73
34
0
VERTEX
8
OBJECT__4
10
0
20
0
30
0
70
128
71
43
72
38
73
37
0
VERTEX
8
OBJECT__4
10
0
20
0
30
0
70
128
71
32
72
21
73
42
0
VERTEX
8
OBJECT__4
10
0
20
0
30
0
70
128
71
37
72
39
73
43
0
VERTEX
8
OBJECT__4
10
0
20
0
30
0
70
128
71
22
72
42
73
21
0
VERTEX
8
OBJECT__4
10
0
20
0
30
0
70
128
71
40
72
43
73
39
0
SEQEND
8
OBJECT__4
0
POLYLINE
8
OBJECT__6
66
1
70
64
71
30
72
30
62
253
0
VERTEX
8
OBJECT__6
10
10.845000
20
47.299999
30
64.774002
70
192
0
VERTEX
8
OBJECT__6
10
0.000000
20
47.299999
30
61.250000
70
192
0
VERTEX
8
OBJECT__6
10
5.701000
20
48.000000
30
62.153000
70
192
0
VERTEX
8
OBJECT__6
10
0.000000
20
48.000000
30
61.250000
70
192
0
VERTEX
8
OBJECT__6
10
17.547001
20
47.299999
30
73.999001
70
192
0
VERTEX
8
OBJECT__6
10
14.926000
20
48.000000
30
68.855003
70
192
0
VERTEX
8
OBJECT__6
10
10.845000
20
48.000000
30
64.774002
70
192
0
VERTEX
8
OBJECT__6
10
17.547001
20
47.299999
30
85.401001
70
192
0
VERTEX
8
OBJECT__6
10
18.450001
20
48.000000
30
79.699997
70
192
0
VERTEX
8
OBJECT__6
10
17.547001
20
48.000000
30
73.999001
70
192
0
VERTEX
8
OBJECT__6
10
10.845000
20
47.299999
30
94.625999
70
192
0
VERTEX
8
OBJECT__6
10
14.926000
20
48.000000
30
90.544998
70
192
0
VERTEX
8
OBJECT__6
10
17.547001
20
48.000000
30
85.401001
70
192
0
VERTEX
8
OBJECT__6
10
0.000000
20
47.299999
30
98.150002
70
192
0
VERTEX
8
OBJECT__6
10
5.701000
20
48.000000
30
97.247002
70
192
0
VERTEX
8
OBJECT__6
10
10.845000
20
48.000000
30
94.625999
70
192
0
VERTEX
8
OBJECT__6
10
-10.845000
20
47.299999
30
94.625999
70
192
0
VERTEX
8
OBJECT__6
10
-5.701000
20
48.000000
30
97.247002
70
192
0
VERTEX
8
OBJECT__6
10
0.000000
20
48.000000
30
98.150002
70
192
0
VERTEX
8
OBJECT__6
10
-17.547001
20
47.299999
30
85.401001
70
192
0
VERTEX
8
OBJECT__6
10
-14.926000
20
48.000000
30
90.544998
70
192
0
VERTEX
8
OBJECT__6
10
-10.845000
20
48.000000
30
94.625999
70
192
0
VERTEX
8
OBJECT__6
10
-17.547001
20
47.299999
30
73.999001
70
192
0
VERTEX
8
OBJECT__6
10
-18.450001
20
48.000000
30
79.699997
70
192
0
VERTEX
8
OBJECT__6
10
-17.547001
20
48.000000
30
85.401001
70
192
0
VERTEX
8
OBJECT__6
10
-10.845000
20
47.299999
30
64.774002
70
192
0
VERTEX
8
OBJECT__6
10
-14.926000
20
48.000000
30
68.855003
70
192
0
VERTEX
8
OBJECT__6
10
-17.547001
20
48.000000
30
73.999001
70
192
0
VERTEX
8
OBJECT__6
10
-5.701000
20
48.000000
30
62.153000
70
192
0
VERTEX
8
OBJECT__6
10
-10.845000
20
48.000000
30
64.774002
70
192
0
VERTEX
8
OBJECT__6
10
0
20
0
30
0
70
128
71
1
72
2
73
3
0
VERTEX
8
OBJECT__6
10
0
20
0
30
0
70
128
71
2
72
4
73
3
0
VERTEX
8
OBJECT__6
10
0
20
0
30
0
70
128
71
5
72
1
73
6
0
VERTEX
8
OBJECT__6
10
0
20
0
30
0
70
128
71
1
72
7
73
6
0
VERTEX
8
OBJECT__6
10
0
20
0
30
0
70
128
71
8
72
5
73
9
0
VERTEX
8
OBJECT__6
10
0
20
0
30
0
70
128
71
5
72
10
73
9
0
VERTEX
8
OBJECT__6
10
0
20
0
30
0
70
128
71
11
72
8
73
12
0
VERTEX
8
OBJECT__6
10
0
20
0
30
0
70
128
71
8
72
13
73
12
0
VERTEX
8
OBJECT__6
10
0
20
0
30
0
70
128
71
14
72
11
73
15
0
VERTEX
8
OBJECT__6
10
0
20
0
30
0
70
128
71
11
72
16
73
15
0
VERTEX
8
OBJECT__6
10
0
20
0
30
0
70
128
71
17
72
14
73
18
0
VERTEX
8
OBJECT__6
10
0
20
0
30
0
70
128
71
14
72
19
73
18
0
VERTEX
8
OBJECT__6
10
0
20
0
30
0
70
128
71
20
72
17
73
21
0
VERTEX
8
OBJECT__6
10
0
20
0
30
0
70
128
71
17
72
22
73
21
0
VERTEX
8
OBJECT__6
10
0
20
0
30
0
70
128
71
23
72
20
73
24
0
VERTEX
8
OBJECT__6
10
0
20
0
30
0
70
128
71
20
72
25
73
24
0
VERTEX
8
OBJECT__6
10
0
20
0
30
0
70
128
71
26
72
23
73
27
0
VERTEX
8
OBJECT__6
10
0
20
0
30
0
70
128
71
23
72
28
73
27
0
VERTEX
8
OBJECT__6
10
0
20
0
30
0
70
128
71
2
72
26
73
29
0
VERTEX
8
OBJECT__6
10
0
20
0
30
0
70
128
71
26
72
30
73
29
0
VERTEX
8
OBJECT__6
10
0
20
0
30
0
70
128
71
29
72
4
73
2
0
VERTEX
8
OBJECT__6
10
0
20
0
30
0
70
128
71
27
72
30
73
26
0
VERTEX
8
OBJECT__6
10
0
20
0
30
0
70
128
71
24
72
28
73
23
0
VERTEX
8
OBJECT__6
10
0
20
0
30
0
70
128
71
21
72
25
73
20
0
VERTEX
8
OBJECT__6
10
0
20
0
30
0
70
128
71
18
72
22
73
17
0
VERTEX
8
OBJECT__6
10
0
20
0
30
0
70
128
71
15
72
19
73
14
0
VERTEX
8
OBJECT__6
10
0
20
0
30
0
70
128
71
12
72
16
73
11
0
VERTEX
8
OBJECT__6
10
0
20
0
30
0
70
128
71
9
72
13
73
8
0
VERTEX
8
OBJECT__6
10
0
20
0
30
0
70
128
71
6
72
10
73
5
0
VERTEX
8
OBJECT__6
10
0
20
0
30
0
70
128
71
3
72
7
73
1
0
SEQEND
8
OBJECT__6
0
POLYLINE
8
OBJECT__7
66
1
70
64
71
19
72
19
62
253
0
VERTEX
8
OBJECT__7
10
0.000000
20
70.521004
30
59.758999
70
192
0
VERTEX
8
OBJECT__7
10
1.792000
20
70.498001
30
79.486000
70
192
0
VERTEX
8
OBJECT__7
10
3.013000
20
70.497002
30
79.677002
70
192
0
VERTEX
8
OBJECT__7
10
-11.756000
20
70.516998
30
63.578999
70
192
0
VERTEX
8
OBJECT__7
10
-19.021000
20
70.504997
30
73.579002
70
192
0
VERTEX
8
OBJECT__7
10
-4.594000
20
70.496002
30
80.904999
70
192
0
VERTEX
8
OBJECT__7
10
4.593000
20
70.496002
30
80.981003
70
192
0
VERTEX
8
OBJECT__7
10
19.021000
20
70.489998
30
85.940002
70
192
0
VERTEX
8
OBJECT__7
10
19.021000
20
70.504997
30
73.579002
70
192
0
VERTEX
8
OBJECT__7
10
-1.792000
20
70.498001
30
79.486000
70
192
0
VERTEX
8
OBJECT__7
10
-19.021000
20
70.489998
30
85.940002
70
192
0
VERTEX
8
OBJECT__7
10
-4.547000
20
70.496002
30
81.035004
70
192
0
VERTEX
8
OBJECT__7
10
0.000000
20
70.473999
30
99.759003
70
192
0
VERTEX
8
OBJECT__7
10
-4.485000
20
70.496002
30
81.045998
70
192
0
VERTEX
8
OBJECT__7
10
-4.508000
20
70.496002
30
81.044998
70
192
0
VERTEX
8
OBJECT__7
10
11.756000
20
70.516998
30
63.578999
70
192
0
VERTEX
8
OBJECT__7
10
-11.756000
20
70.477997
30
95.940002
70
192
0
VERTEX
8
OBJECT__7
10
11.756000
20
70.477997
30
95.940002
70
192
0
VERTEX
8
OBJECT__7
10
4.485000
20
70.496002
30
81.045998
70
192
0
VERTEX
8
OBJECT__7
10
0
20
0
30
0
70
128
71
1
72
2
73
3
0
VERTEX
8
OBJECT__7
10
0
20
0
30
0
70
128
71
4
72
5
73
6
0
VERTEX
8
OBJECT__7
10
0
20
0
30
0
70
128
71
7
72
8
73
9
0
VERTEX
8
OBJECT__7
10
0
20
0
30
0
70
128
71
1
72
10
73
2
0
VERTEX
8
OBJECT__7
10
0
20
0
30
0
70
128
71
10
72
1
73
4
0
VERTEX
8
OBJECT__7
10
0
20
0
30
0
70
128
71
11
72
12
73
6
0
VERTEX
8
OBJECT__7
10
0
20
0
30
0
70
128
71
13
72
14
73
15
0
VERTEX
8
OBJECT__7
10
0
20
0
30
0
70
128
71
16
72
3
73
7
0
VERTEX
8
OBJECT__7
10
0
20
0
30
0
70
128
71
6
72
10
73
4
0
VERTEX
8
OBJECT__7
10
0
20
0
30
0
70
128
71
6
72
5
73
11
0
VERTEX
8
OBJECT__7
10
0
20
0
30
0
70
128
71
15
72
17
73
13
0
VERTEX
8
OBJECT__7
10
0
20
0
30
0
70
128
71
13
72
18
73
19
0
VERTEX
8
OBJECT__7
10
0
20
0
30
0
70
128
71
18
72
8
73
7
0
VERTEX
8
OBJECT__7
10
0
20
0
30
0
70
128
71
3
72
16
73
1
0
VERTEX
8
OBJECT__7
10
0
20
0
30
0
70
128
71
15
72
12
73
17
0
VERTEX
8
OBJECT__7
10
0
20
0
30
0
70
128
71
7
72
19
73
18
0
VERTEX
8
OBJECT__7
10
0
20
0
30
0
70
128
71
11
72
17
73
12
0
VERTEX
8
OBJECT__7
10
0
20
0
30
0
70
128
71
9
72
16
73
7
0
VERTEX
8
OBJECT__7
10
0
20
0
30
0
70
128
71
19
72
14
73
13
0
SEQEND
8
OBJECT__7
0
POLYLINE
8
OBJECT__8
66
1
70
64
71
45
72
47
62
253
0
VERTEX
8
OBJECT__8
10
-19.021000
20
70.489998
30
85.940002
70
192
0
VERTEX
8
OBJECT__8
10
-19.021000
20
48.990002
30
85.914001
70
192
0
VERTEX
8
OBJECT__8
10
-11.756000
20
48.978001
30
95.914001
70
192
0
VERTEX
8
OBJECT__8
10
11.756000
20
70.477997
30
95.940002
70
192
0
VERTEX
8
OBJECT__8
10
11.756000
20
48.978001
30
95.914001
70
192
0
VERTEX
8
OBJECT__8
10
19.021000
20
48.990002
30
85.914001
70
192
0
VERTEX
8
OBJECT__8
10
0.000000
20
48.973999
30
99.734001
70
192
0
VERTEX
8
OBJECT__8
10
2.248000
20
55.825001
30
99.614998
70
192
0
VERTEX
8
OBJECT__8
10
4.185000
20
58.070999
30
99.302002
70
192
0
VERTEX
8
OBJECT__8
10
2.545000
20
56.169998
30
99.567001
70
192
0
VERTEX
8
OBJECT__8
10
4.307000
20
61.026001
30
99.278999
70
192
0
VERTEX
8
OBJECT__8
10
2.593000
20
63.401001
30
99.582001
70
192
0
VERTEX
8
OBJECT__8
10
4.256000
20
61.098000
30
99.288002
70
192
0
VERTEX
8
OBJECT__8
10
0.000000
20
70.473999
30
99.759003
70
192
0
VERTEX
8
OBJECT__8
10
-0.001000
20
64.135002
30
99.733002
70
192
0
VERTEX
8
OBJECT__8
10
-0.282000
20
64.214996
30
99.750000
70
192
0
VERTEX
8
OBJECT__8
10
-0.023000
20
64.141998
30
99.735001
70
192
0
VERTEX
8
OBJECT__8
10
-11.756000
20
70.477997
30
95.940002
70
192
0
VERTEX
8
OBJECT__8
10
-2.974000
20
63.101002
30
99.528000
70
192
0
VERTEX
8
OBJECT__8
10
-4.434000
20
60.493000
30
99.250000
70
192
0
VERTEX
8
OBJECT__8
10
-4.132000
20
61.032001
30
99.306999
70
192
0
VERTEX
8
OBJECT__8
10
-3.969000
20
57.603001
30
99.346001
70
192
0
VERTEX
8
OBJECT__8
10
-1.792000
20
55.596001
30
99.661003
70
192
0
VERTEX
8
OBJECT__8
10
-2.496000
20
56.244999
30
99.558998
70
192
0
VERTEX
8
OBJECT__8
10
-0.616000
20
55.265999
30
99.732002
70
192
0
VERTEX
8
OBJECT__8
10
-0.001000
20
55.386002
30
99.707001
70
192
0
VERTEX
8
OBJECT__8
10
19.021000
20
70.489998
30
85.940002
70
192
0
VERTEX
8
OBJECT__8
10
19.893000
20
48.994999
30
81.804001
70
192
0
VERTEX
8
OBJECT__8
10
18.612000
20
52.995998
30
73.625999
70
192
0
VERTEX
8
OBJECT__8
10
19.021000
20
70.504997
30
73.579002
70
192
0
VERTEX
8
OBJECT__8
10
18.309000
20
53.942001
30
71.692001
70
192
0
VERTEX
8
OBJECT__8
10
11.925000
20
57.856998
30
63.688999
70
192
0
VERTEX
8
OBJECT__8
10
11.756000
20
70.516998
30
63.578999
70
192
0
VERTEX
8
OBJECT__8
10
11.736000
20
57.894001
30
63.612999
70
192
0
VERTEX
8
OBJECT__8
10
2.414000
20
59.714001
30
59.893002
70
192
0
VERTEX
8
OBJECT__8
10
0.000000
20
70.521004
30
59.758999
70
192
0
VERTEX
8
OBJECT__8
10
0.065000
20
59.555000
30
60.219002
70
192
0
VERTEX
8
OBJECT__8
10
-7.730000
20
59.026001
30
61.299999
70
192
0
VERTEX
8
OBJECT__8
10
-11.756000
20
70.516998
30
63.578999
70
192
0
VERTEX
8
OBJECT__8
10
-19.021000
20
70.504997
30
73.579002
70
192
0
VERTEX
8
OBJECT__8
10
-11.354000
20
57.662998
30
64.085999
70
192
0
VERTEX
8
OBJECT__8
10
-15.847000
20
55.973000
30
67.541000
70
192
0
VERTEX
8
OBJECT__8
10
-19.809000
20
51.355000
30
76.978996
70
192
0
VERTEX
8
OBJECT__8
10
-19.893000
20
48.994999
30
81.804001
70
192
0
VERTEX
8
OBJECT__8
10
-18.469000
20
52.917000
30
73.787003
70
192
0
VERTEX
8
OBJECT__8
10
0
20
0
30
0
70
128
71
1
72
2
73
3
0
VERTEX
8
OBJECT__8
10
0
20
0
30
0
70
128
71
4
72
5
73
6
0
VERTEX
8
OBJECT__8
10
0
20
0
30
0
70
128
71
7
72
5
73
8
0
VERTEX
8
OBJECT__8
10
0
20
0
30
0
70
128
71
5
72
9
73
10
0
VERTEX
8
OBJECT__8
10
0
20
0
30
0
70
128
71
10
72
8
73
5
0
VERTEX
8
OBJECT__8
10
0
20
0
30
0
70
128
71
5
72
4
73
11
0
VERTEX
8
OBJECT__8
10
0
20
0
30
0
70
128
71
4
72
12
73
13
0
VERTEX
8
OBJECT__8
10
0
20
0
30
0
70
128
71
14
72
15
73
12
0
VERTEX
8
OBJECT__8
10
0
20
0
30
0
70
128
71
12
72
4
73
14
0
VERTEX
8
OBJECT__8
10
0
20
0
30
0
70
128
71
13
72
11
73
4
0
VERTEX
8
OBJECT__8
10
0
20
0
30
0
70
128
71
11
72
9
73
5
0
VERTEX
8
OBJECT__8
10
0
20
0
30
0
70
128
71
14
72
16
73
17
0
VERTEX
8
OBJECT__8
10
0
20
0
30
0
70
128
71
14
72
18
73
19
0
VERTEX
8
OBJECT__8
10
0
20
0
30
0
70
128
71
18
72
20
73
21
0
VERTEX
8
OBJECT__8
10
0
20
0
30
0
70
128
71
21
72
19
73
18
0
VERTEX
8
OBJECT__8
10
0
20
0
30
0
70
128
71
19
72
16
73
14
0
VERTEX
8
OBJECT__8
10
0
20
0
30
0
70
128
71
3
72
22
73
20
0
VERTEX
8
OBJECT__8
10
0
20
0
30
0
70
128
71
3
72
23
73
24
0
VERTEX
8
OBJECT__8
10
0
20
0
30
0
70
128
71
7
72
25
73
23
0
VERTEX
8
OBJECT__8
10
0
20
0
30
0
70
128
71
23
72
3
73
7
0
VERTEX
8
OBJECT__8
10
0
20
0
30
0
70
128
71
7
72
26
73
25
0
VERTEX
8
OBJECT__8
10
0
20
0
30
0
70
128
71
24
72
22
73
3
0
VERTEX
8
OBJECT__8
10
0
20
0
30
0
70
128
71
20
72
18
73
3
0
VERTEX
8
OBJECT__8
10
0
20
0
30
0
70
128
71
27
72
28
73
29
0
VERTEX
8
OBJECT__8
10
0
20
0
30
0
70
128
71
27
72
6
73
28
0
VERTEX
8
OBJECT__8
10
0
20
0
30
0
70
128
71
30
72
31
73
32
0
VERTEX
8
OBJECT__8
10
0
20
0
30
0
70
128
71
30
72
29
73
31
0
VERTEX
8
OBJECT__8
10
0
20
0
30
0
70
128
71
32
72
33
73
30
0
VERTEX
8
OBJECT__8
10
0
20
0
30
0
70
128
71
33
72
34
73
35
0
VERTEX
8
OBJECT__8
10
0
20
0
30
0
70
128
71
35
72
36
73
33
0
VERTEX
8
OBJECT__8
10
0
20
0
30
0
70
128
71
36
72
37
73
38
0
VERTEX
8
OBJECT__8
10
0
20
0
30
0
70
128
71
38
72
39
73
36
0
VERTEX
8
OBJECT__8
10
0
20
0
30
0
70
128
71
40
72
39
73
41
0
VERTEX
8
OBJECT__8
10
0
20
0
30
0
70
128
71
41
72
42
73
40
0
VERTEX
8
OBJECT__8
10
0
20
0
30
0
70
128
71
1
72
43
73
44
0
VERTEX
8
OBJECT__8
10
0
20
0
30
0
70
128
71
1
72
40
73
45
0
VERTEX
8
OBJECT__8
10
0
20
0
30
0
70
128
71
45
72
43
73
1
0
VERTEX
8
OBJECT__8
10
0
20
0
30
0
70
128
71
44
72
2
73
1
0
VERTEX
8
OBJECT__8
10
0
20
0
30
0
70
128
71
42
72
45
73
40
0
VERTEX
8
OBJECT__8
10
0
20
0
30
0
70
128
71
38
72
41
73
39
0
VERTEX
8
OBJECT__8
10
0
20
0
30
0
70
128
71
35
72
37
73
36
0
VERTEX
8
OBJECT__8
10
0
20
0
30
0
70
128
71
32
72
34
73
33
0
VERTEX
8
OBJECT__8
10
0
20
0
30
0
70
128
71
29
72
30
73
27
0
VERTEX
8
OBJECT__8
10
0
20
0
30
0
70
128
71
17
72
15
73
14
0
VERTEX
8
OBJECT__8
10
0
20
0
30
0
70
128
71
8
72
26
73
7
0
VERTEX
8
OBJECT__8
10
0
20
0
30
0
70
128
71
6
72
27
73
4
0
VERTEX
8
OBJECT__8
10
0
20
0
30
0
70
128
71
3
72
18
73
1
0
SEQEND
8
OBJECT__8
0
POLYLINE
8
OBJECT__10
66
1
70
64
71
13
72
11
62
253
0
VERTEX
8
OBJECT__10
10
-19.893000
20
48.994999
30
81.804001
70
192
0
VERTEX
8
OBJECT__10
10
-19.809000
20
51.355000
30
76.978996
70
192
0
VERTEX
8
OBJECT__10
10
-18.469000
20
52.917000
30
73.787003
70
192
0
VERTEX
8
OBJECT__10
10
11.736000
20
57.894001
30
63.612999
70
192
0
VERTEX
8
OBJECT__10
10
11.925000
20
57.856998
30
63.688999
70
192
0
VERTEX
8
OBJECT__10
10
0.065000
20
59.555000
30
60.219002
70
192
0
VERTEX
8
OBJECT__10
10
-11.354000
20
57.662998
30
64.085999
70
192
0
VERTEX
8
OBJECT__10
10
18.309000
20
53.942001
30
71.692001
70
192
0
VERTEX
8
OBJECT__10
10
2.414000
20
59.714001
30
59.893002
70
192
0
VERTEX
8
OBJECT__10
10
-15.847000
20
55.973000
30
67.541000
70
192
0
VERTEX
8
OBJECT__10
10
18.612000
20
52.995998
30
73.625999
70
192
0
VERTEX
8
OBJECT__10
10
-7.730000
20
59.026001
30
61.299999
70
192
0
VERTEX
8
OBJECT__10
10
19.893000
20
48.994999
30
81.804001
70
192
0
VERTEX
8
OBJECT__10
10
0
20
0
30
0
70
128
71
1
72
2
73
3
0
VERTEX
8
OBJECT__10
10
0
20
0
30
0
70
128
71
1
72
4
73
5
0
VERTEX
8
OBJECT__10
10
0
20
0
30
0
70
128
71
6
72
1
73
7
0
VERTEX
8
OBJECT__10
10
0
20
0
30
0
70
128
71
3
72
7
73
1
0
VERTEX
8
OBJECT__10
10
0
20
0
30
0
70
128
71
5
72
8
73
1
0
VERTEX
8
OBJECT__10
10
0
20
0
30
0
70
128
71
1
72
6
73
9
0
VERTEX
8
OBJECT__10
10
0
20
0
30
0
70
128
71
3
72
10
73
7
0
VERTEX
8
OBJECT__10
10
0
20
0
30
0
70
128
71
8
72
11
73
1
0
VERTEX
8
OBJECT__10
10
0
20
0
30
0
70
128
71
7
72
12
73
6
0
VERTEX
8
OBJECT__10
10
0
20
0
30
0
70
128
71
9
72
4
73
1
0
VERTEX
8
OBJECT__10
10
0
20
0
30
0
70
128
71
11
72
13
73
1
0
SEQEND
8
OBJECT__10
0
POLYLINE
8
OBJECT__11
66
1
70
64
71
7
72
5
62
253
0
VERTEX
8
OBJECT__11
10
-19.021000
20
48.990002
30
85.914001
70
192
0
VERTEX
8
OBJECT__11
10
11.756000
20
48.978001
30
95.914001
70
192
0
VERTEX
8
OBJECT__11
10
0.000000
20
48.973999
30
99.734001
70
192
0
VERTEX
8
OBJECT__11
10
19.021000
20
48.990002
30
85.914001
70
192
0
VERTEX
8
OBJECT__11
10
-11.756000
20
48.978001
30
95.914001
70
192
0
VERTEX
8
OBJECT__11
10
-19.893000
20
48.994999
30
81.804001
70
192
0
VERTEX
8
OBJECT__11
10
19.893000
20
48.994999
30
81.804001
70
192
0
VERTEX
8
OBJECT__11
10
0
20
0
30
0
70
128
71
1
72
2
73
3
0
VERTEX
8
OBJECT__11
10
0
20
0
30
0
70
128
71
1
72
4
73
2
0
VERTEX
8
OBJECT__11
10
0
20
0
30
0
70
128
71
3
72
5
73
1
0
VERTEX
8
OBJECT__11
10
0
20
0
30
0
70
128
71
6
72
7
73
4
0
VERTEX
8
OBJECT__11
10
0
20
0
30
0
70
128
71
1
72
6
73
4
0
SEQEND
8
OBJECT__11
0
POLYLINE
8
OBJECT__12
66
1
70
64
71
23
72
23
62
253
0
VERTEX
8
OBJECT__12
10
4.280000
20
61.049999
30
153.748001
70
192
0
VERTEX
8
OBJECT__12
10
4.185000
20
58.070999
30
99.302002
70
192
0
VERTEX
8
OBJECT__12
10
4.307000
20
61.026001
30
99.278999
70
192
0
VERTEX
8
OBJECT__12
10
2.645000
20
56.019001
30
153.742004
70
192
0
VERTEX
8
OBJECT__12
10
2.545000
20
56.169998
30
99.567001
70
192
0
VERTEX
8
OBJECT__12
10
-0.001000
20
64.135002
30
99.733002
70
192
0
VERTEX
8
OBJECT__12
10
-0.023000
20
64.141998
30
99.735001
70
192
0
VERTEX
8
OBJECT__12
10
2.593000
20
63.401001
30
99.582001
70
192
0
VERTEX
8
OBJECT__12
10
4.256000
20
61.098000
30
99.288002
70
192
0
VERTEX
8
OBJECT__12
10
-4.280000
20
61.049999
30
153.748001
70
192
0
VERTEX
8
OBJECT__12
10
-0.282000
20
64.214996
30
99.750000
70
192
0
VERTEX
8
OBJECT__12
10
-2.974000
20
63.101002
30
99.528000
70
192
0
VERTEX
8
OBJECT__12
10
0.000000
20
64.158997
30
153.751999
70
192
0
VERTEX
8
OBJECT__12
10
-4.132000
20
61.032001
30
99.306999
70
192
0
VERTEX
8
OBJECT__12
10
-3.969000
20
57.603001
30
99.346001
70
192
0
VERTEX
8
OBJECT__12
10
-2.496000
20
56.244999
30
99.558998
70
192
0
VERTEX
8
OBJECT__12
10
-4.434000
20
60.493000
30
99.250000
70
192
0
VERTEX
8
OBJECT__12
10
0.000000
20
55.159000
30
153.740997
70
192
0
VERTEX
8
OBJECT__12
10
-0.616000
20
55.265999
30
99.732002
70
192
0
VERTEX
8
OBJECT__12
10
-0.001000
20
55.386002
30
99.707001
70
192
0
VERTEX
8
OBJECT__12
10
-2.645000
20
56.019001
30
153.742004
70
192
0
VERTEX
8
OBJECT__12
10
-1.792000
20
55.596001
30
99.661003
70
192
0
VERTEX
8
OBJECT__12
10
2.248000
20
55.825001
30
99.614998
70
192
0
VERTEX
8
OBJECT__12
10
0
20
0
30
0
70
128
71
1
72
2
73
3
0
VERTEX
8
OBJECT__12
10
0
20
0
30
0
70
128
71
1
72
4
73
5
0
VERTEX
8
OBJECT__12
10
0
20
0
30
0
70
128
71
5
72
2
73
1
0
VERTEX
8
OBJECT__12
10
0
20
0
30
0
70
128
71
1
72
6
73
7
0
VERTEX
8
OBJECT__12
10
0
20
0
30
0
70
128
71
1
72
8
73
6
0
VERTEX
8
OBJECT__12
10
0
20
0
30
0
70
128
71
1
72
9
73
8
0
VERTEX
8
OBJECT__12
10
0
20
0
30
0
70
128
71
10
72
11
73
12
0
VERTEX
8
OBJECT__12
10
0
20
0
30
0
70
128
71
13
72
7
73
11
0
VERTEX
8
OBJECT__12
10
0
20
0
30
0
70
128
71
11
72
10
73
13
0
VERTEX
8
OBJECT__12
10
0
20
0
30
0
70
128
71
12
72
14
73
10
0
VERTEX
8
OBJECT__12
10
0
20
0
30
0
70
128
71
10
72
15
73
16
0
VERTEX
8
OBJECT__12
10
0
20
0
30
0
70
128
71
10
72
14
73
17
0
VERTEX
8
OBJECT__12
10
0
20
0
30
0
70
128
71
17
72
15
73
10
0
VERTEX
8
OBJECT__12
10
0
20
0
30
0
70
128
71
4
72
18
73
19
0
VERTEX
8
OBJECT__12
10
0
20
0
30
0
70
128
71
19
72
20
73
4
0
VERTEX
8
OBJECT__12
10
0
20
0
30
0
70
128
71
21
72
22
73
19
0
VERTEX
8
OBJECT__12
10
0
20
0
30
0
70
128
71
21
72
16
73
22
0
VERTEX
8
OBJECT__12
10
0
20
0
30
0
70
128
71
19
72
18
73
21
0
VERTEX
8
OBJECT__12
10
0
20
0
30
0
70
128
71
20
72
23
73
4
0
VERTEX
8
OBJECT__12
10
0
20
0
30
0
70
128
71
23
72
5
73
4
0
VERTEX
8
OBJECT__12
10
0
20
0
30
0
70
128
71
16
72
21
73
10
0
VERTEX
8
OBJECT__12
10
0
20
0
30
0
70
128
71
7
72
13
73
1
0
VERTEX
8
OBJECT__12
10
0
20
0
30
0
70
128
71
3
72
9
73
1
0
SEQEND
8
OBJECT__12
0
POLYLINE
8
OBJECT__13
66
1
70
64
71
6
72
4
62
253
0
VERTEX
8
OBJECT__13
10
0.000000
20
64.158997
30
153.751999
70
192
0
VERTEX
8
OBJECT__13
10
0.000000
20
55.159000
30
153.740997
70
192
0
VERTEX
8
OBJECT__13
10
2.645000
20
56.019001
30
153.742004
70
192
0
VERTEX
8
OBJECT__13
10
-4.280000
20
61.049999
30
153.748001
70
192
0
VERTEX
8
OBJECT__13
10
-2.645000
20
56.019001
30
153.742004
70
192
0
VERTEX
8
OBJECT__13
10
4.280000
20
61.049999
30
153.748001
70
192
0
VERTEX
8
OBJECT__13
10
0
20
0
30
0
70
128
71
1
72
2
73
3
0
VERTEX
8
OBJECT__13
10
0
20
0
30
0
70
128
71
1
72
4
73
5
0
VERTEX
8
OBJECT__13
10
0
20
0
30
0
70
128
71
5
72
2
73
1
0
VERTEX
8
OBJECT__13
10
0
20
0
30
0
70
128
71
3
72
6
73
1
0
SEQEND
8
OBJECT__13
0
POLYLINE
8
OBJECT__14
66
1
70
64
71
9
72
7
62
253
0
VERTEX
8
OBJECT__14
10
160.031998
20
1.771000
30
281.028992
70
192
0
VERTEX
8
OBJECT__14
10
158.807007
20
10.200000
30
290.998993
70
192
0
VERTEX
8
OBJECT__14
10
158.007996
20
7.814000
30
297.506989
70
192
0
VERTEX
8
OBJECT__14
10
157.731003
20
-5.100000
30
299.766998
70
192
0
VERTEX
8
OBJECT__14
10
158.382004
20
-9.585000
30
294.462006
70
192
0
VERTEX
8
OBJECT__14
10
159.233002
20
-9.585000
30
287.536011
70
192
0
VERTEX
8
OBJECT__14
10
159.606003
20
7.814000
30
284.492004
70
192
0
VERTEX
8
OBJECT__14
10
159.884003
20
-5.100000
30
282.230988
70
192
0
VERTEX
8
OBJECT__14
10
157.582993
20
1.771000
30
300.968994
70
192
0
VERTEX
8
OBJECT__14
10
0
20
0
30
0
70
128
71
1
72
2
73
3
0
VERTEX
8
OBJECT__14
10
0
20
0
30
0
70
128
71
4
72
5
73
6
0
VERTEX
8
OBJECT__14
10
0
20
0
30
0
70
128
71
1
72
7
73
2
0
VERTEX
8
OBJECT__14
10
0
20
0
30
0
70
128
71
6
72
8
73
4
0
VERTEX
8
OBJECT__14
10
0
20
0
30
0
70
128
71
3
72
9
73
1
0
VERTEX
8
OBJECT__14
10
0
20
0
30
0
70
128
71
9
72
4
73
1
0
VERTEX
8
OBJECT__14
10
0
20
0
30
0
70
128
71
8
72
1
73
4
0
SEQEND
8
OBJECT__14
0
POLYLINE
8
OBJECT__16
66
1
70
64
71
8
72
8
62
253
0
VERTEX
8
OBJECT__16
10
-26.055000
20
-2.000000
30
50.756001
70
192
0
VERTEX
8
OBJECT__16
10
-27.957001
20
0.000000
30
50.138000
70
192
0
VERTEX
8
OBJECT__16
10
-12.073000
20
0.000000
30
1.253000
70
192
0
VERTEX
8
OBJECT__16
10
-24.153000
20
0.000000
30
51.374001
70
192
0
VERTEX
8
OBJECT__16
10
-9.970000
20
-2.000000
30
1.253000
70
192
0
VERTEX
8
OBJECT__16
10
-7.867000
20
0.000000
30
1.253000
70
192
0
VERTEX
8
OBJECT__16
10
-9.970000
20
2.000000
30
1.253000
70
192
0
VERTEX
8
OBJECT__16
10
-26.055000
20
2.000000
30
50.756001
70
192
0
VERTEX
8
OBJECT__16
10
0
20
0
30
0
70
128
71
1
72
2
73
3
0
VERTEX
8
OBJECT__16
10
0
20
0
30
0
70
128
71
4
72
1
73
5
0
VERTEX
8
OBJECT__16
10
0
20
0
30
0
70
128
71
4
72
6
73
7
0
VERTEX
8
OBJECT__16
10
0
20
0
30
0
70
128
71
8
72
7
73
3
0
VERTEX
8
OBJECT__16
10
0
20
0
30
0
70
128
71
3
72
2
73
8
0
VERTEX
8
OBJECT__16
10
0
20
0
30
0
70
128
71
7
72
8
73
4
0
VERTEX
8
OBJECT__16
10
0
20
0
30
0
70
128
71
5
72
6
73
4
0
VERTEX
8
OBJECT__16
10
0
20
0
30
0
70
128
71
3
72
5
73
1
0
SEQEND
8
OBJECT__16
0
POLYLINE
8
OBJECT__18
66
1
70
64
71
5
72
3
62
253
0
VERTEX
8
OBJECT__18
10
-21.979000
20
-9.000000
30
47.722000
70
192
0
VERTEX
8
OBJECT__18
10
-21.979000
20
-9.000000
30
53.599998
70
192
0
VERTEX
8
OBJECT__18
10
-27.569000
20
-9.000000
30
55.416000
70
192
0
VERTEX
8
OBJECT__18
10
-31.024000
20
-9.000000
30
50.660999
70
192
0
VERTEX
8
OBJECT__18
10
-27.569000
20
-9.000000
30
45.905998
70
192
0
VERTEX
8
OBJECT__18
10
0
20
0
30
0
70
128
71
1
72
2
73
3
0
VERTEX
8
OBJECT__18
10
0
20
0
30
0
70
128
71
4
72
5
73
1
0
VERTEX
8
OBJECT__18
10
0
20
0
30
0
70
128
71
3
72
4
73
1
0
SEQEND
8
OBJECT__18
0
POLYLINE
8
OBJECT__19
66
1
70
64
71
20
72
22
62
253
0
VERTEX
8
OBJECT__19
10
-31.024000
20
9.000000
30
50.660999
70
192
0
VERTEX
8
OBJECT__19
10
-31.024000
20
-9.000000
30
50.660999
70
192
0
VERTEX
8
OBJECT__19
10
-27.569000
20
-9.000000
30
55.416000
70
192
0
VERTEX
8
OBJECT__19
10
-27.569000
20
9.000000
30
45.905998
70
192
0
VERTEX
8
OBJECT__19
10
-27.569000
20
-9.000000
30
45.905998
70
192
0
VERTEX
8
OBJECT__19
10
-26.652000
20
0.901000
30
45.700001
70
192
0
VERTEX
8
OBJECT__19
10
-26.900999
20
0.002000
30
45.737999
70
192
0
VERTEX
8
OBJECT__19
10
-25.278000
20
1.986000
30
45.716999
70
192
0
VERTEX
8
OBJECT__19
10
-21.979000
20
9.000000
30
47.722000
70
192
0
VERTEX
8
OBJECT__19
10
-23.618999
20
1.954000
30
46.277000
70
192
0
VERTEX
8
OBJECT__19
10
-21.979000
20
-9.000000
30
47.722000
70
192
0
VERTEX
8
OBJECT__19
10
-22.457001
20
-0.415000
30
47.155998
70
192
0
VERTEX
8
OBJECT__19
10
-24.632999
20
-2.115000
30
45.858002
70
192
0
VERTEX
8
OBJECT__19
10
-24.479000
20
-2.120000
30
45.905998
70
192
0
VERTEX
8
OBJECT__19
10
-26.266001
20
-1.396000
30
45.667000
70
192
0
VERTEX
8
OBJECT__19
10
-23.010000
20
-1.528000
30
46.671001
70
192
0
VERTEX
8
OBJECT__19
10
-22.566000
20
0.814000
30
47.049000
70
192
0
VERTEX
8
OBJECT__19
10
-21.979000
20
-9.000000
30
53.599998
70
192
0
VERTEX
8
OBJECT__19
10
-21.979000
20
9.000000
30
53.599998
70
192
0
VERTEX
8
OBJECT__19
10
-27.569000
20
9.000000
30
55.416000
70
192
0
VERTEX
8
OBJECT__19
10
0
20
0
30
0
70
128
71
1
72
2
73
3
0
VERTEX
8
OBJECT__19
10
0
20
0
30
0
70
128
71
4
72
5
73
2
0
VERTEX
8
OBJECT__19
10
0
20
0
30
0
70
128
71
4
72
6
73
7
0
VERTEX
8
OBJECT__19
10
0
20
0
30
0
70
128
71
4
72
8
73
6
0
VERTEX
8
OBJECT__19
10
0
20
0
30
0
70
128
71
9
72
10
73
8
0
VERTEX
8
OBJECT__19
10
0
20
0
30
0
70
128
71
8
72
4
73
9
0
VERTEX
8
OBJECT__19
10
0
20
0
30
0
70
128
71
9
72
11
73
12
0
VERTEX
8
OBJECT__19
10
0
20
0
30
0
70
128
71
5
72
13
73
14
0
VERTEX
8
OBJECT__19
10
0
20
0
30
0
70
128
71
14
72
11
73
5
0
VERTEX
8
OBJECT__19
10
0
20
0
30
0
70
128
71
5
72
15
73
13
0
VERTEX
8
OBJECT__19
10
0
20
0
30
0
70
128
71
14
72
16
73
11
0
VERTEX
8
OBJECT__19
10
0
20
0
30
0
70
128
71
16
72
12
73
11
0
VERTEX
8
OBJECT__19
10
0
20
0
30
0
70
128
71
12
72
17
73
9
0
VERTEX
8
OBJECT__19
10
0
20
0
30
0
70
128
71
17
72
10
73
9
0
VERTEX
8
OBJECT__19
10
0
20
0
30
0
70
128
71
5
72
7
73
15
0
VERTEX
8
OBJECT__19
10
0
20
0
30
0
70
128
71
18
72
11
73
9
0
VERTEX
8
OBJECT__19
10
0
20
0
30
0
70
128
71
3
72
18
73
19
0
VERTEX
8
OBJECT__19
10
0
20
0
30
0
70
128
71
19
72
20
73
3
0
VERTEX
8
OBJECT__19
10
0
20
0
30
0
70
128
71
9
72
19
73
18
0
VERTEX
8
OBJECT__19
10
0
20
0
30
0
70
128
71
7
72
5
73
4
0
VERTEX
8
OBJECT__19
10
0
20
0
30
0
70
128
71
2
72
1
73
4
0
VERTEX
8
OBJECT__19
10
0
20
0
30
0
70
128
71
3
72
20
73
1
0
SEQEND
8
OBJECT__19
0
POLYLINE
8
OBJECT__21
66
1
70
64
71
5
72
3
62
253
0
VERTEX
8
OBJECT__21
10
-27.569000
20
9.000000
30
45.905998
70
192
0
VERTEX
8
OBJECT__21
10
-27.569000
20
9.000000
30
55.416000
70
192
0
VERTEX
8
OBJECT__21
10
-21.979000
20
9.000000
30
53.599998
70
192
0
VERTEX
8
OBJECT__21
10
-31.024000
20
9.000000
30
50.660999
70
192
0
VERTEX
8
OBJECT__21
10
-21.979000
20
9.000000
30
47.722000
70
192
0
VERTEX
8
OBJECT__21
10
0
20
0
30
0
70
128
71
1
72
2
73
3
0
VERTEX
8
OBJECT__21
10
0
20
0
30
0
70
128
71
1
72
4
73
2
0
VERTEX
8
OBJECT__21
10
0
20
0
30
0
70
128
71
3
72
5
73
1
0
SEQEND
8
OBJECT__21
0
POLYLINE
8
OBJECT__22
66
1
70
64
71
19
72
19
62
253
0
VERTEX
8
OBJECT__22
10
10.927000
20
75.013000
30
66.741997
70
192
0
VERTEX
8
OBJECT__22
10
10.927000
20
69.013000
30
66.735001
70
192
0
VERTEX
8
OBJECT__22
10
0.000000
20
69.017998
30
62.757999
70
192
0
VERTEX
8
OBJECT__22
10
16.742001
20
69.000999
30
76.805000
70
192
0
VERTEX
8
OBJECT__22
10
14.722000
20
68.987000
30
88.257004
70
192
0
VERTEX
8
OBJECT__22
10
16.742001
20
75.000999
30
76.813004
70
192
0
VERTEX
8
OBJECT__22
10
14.722000
20
74.987000
30
88.264999
70
192
0
VERTEX
8
OBJECT__22
10
5.814000
20
74.977997
30
95.738998
70
192
0
VERTEX
8
OBJECT__22
10
5.814000
20
68.977997
30
95.732002
70
192
0
VERTEX
8
OBJECT__22
10
-5.814000
20
74.977997
30
95.738998
70
192
0
VERTEX
8
OBJECT__22
10
0.000000
20
68.976997
30
96.757004
70
192
0
VERTEX
8
OBJECT__22
10
-5.814000
20
68.977997
30
95.732002
70
192
0
VERTEX
8
OBJECT__22
10
-14.722000
20
74.987000
30
88.264999
70
192
0
VERTEX
8
OBJECT__22
10
-16.742001
20
75.000999
30
76.813004
70
192
0
VERTEX
8
OBJECT__22
10
-16.742001
20
69.000999
30
76.805000
70
192
0
VERTEX
8
OBJECT__22
10
-14.722000
20
68.987000
30
88.257004
70
192
0
VERTEX
8
OBJECT__22
10
-10.927000
20
75.013000
30
66.741997
70
192
0
VERTEX
8
OBJECT__22
10
-10.927000
20
69.013000
30
66.735001
70
192
0
VERTEX
8
OBJECT__22
10
0.000000
20
75.017998
30
62.764999
70
192
0
VERTEX
8
OBJECT__22
10
0
20
0
30
0
70
128
71
1
72
2
73
3
0
VERTEX
8
OBJECT__22
10
0
20
0
30
0
70
128
71
4
72
2
73
1
0
VERTEX
8
OBJECT__22
10
0
20
0
30
0
70
128
71
5
72
4
73
6
0
VERTEX
8
OBJECT__22
10
0
20
0
30
0
70
128
71
7
72
8
73
9
0
VERTEX
8
OBJECT__22
10
0
20
0
30
0
70
128
71
8
72
10
73
11
0
VERTEX
8
OBJECT__22
10
0
20
0
30
0
70
128
71
10
72
12
73
11
0
VERTEX
8
OBJECT__22
10
0
20
0
30
0
70
128
71
12
72
10
73
13
0
VERTEX
8
OBJECT__22
10
0
20
0
30
0
70
128
71
14
72
15
73
16
0
VERTEX
8
OBJECT__22
10
0
20
0
30
0
70
128
71
17
72
18
73
15
0
VERTEX
8
OBJECT__22
10
0
20
0
30
0
70
128
71
19
72
3
73
18
0
VERTEX
8
OBJECT__22
10
0
20
0
30
0
70
128
71
18
72
17
73
19
0
VERTEX
8
OBJECT__22
10
0
20
0
30
0
70
128
71
15
72
14
73
17
0
VERTEX
8
OBJECT__22
10
0
20
0
30
0
70
128
71
16
72
13
73
14
0
VERTEX
8
OBJECT__22
10
0
20
0
30
0
70
128
71
13
72
16
73
12
0
VERTEX
8
OBJECT__22
10
0
20
0
30
0
70
128
71
11
72
9
73
8
0
VERTEX
8
OBJECT__22
10
0
20
0
30
0
70
128
71
9
72
5
73
7
0
VERTEX
8
OBJECT__22
10
0
20
0
30
0
70
128
71
6
72
7
73
5
0
VERTEX
8
OBJECT__22
10
0
20
0
30
0
70
128
71
1
72
6
73
4
0
VERTEX
8
OBJECT__22
10
0
20
0
30
0
70
128
71
3
72
19
73
1
0
SEQEND
8
OBJECT__22
0
POLYLINE
8
OBJECT__23
66
1
70
64
71
9
72
7
62
253
0
VERTEX
8
OBJECT__23
10
-5.814000
20
74.977997
30
95.738998
70
192
0
VERTEX
8
OBJECT__23
10
5.814000
20
74.977997
30
95.738998
70
192
0
VERTEX
8
OBJECT__23
10
14.722000
20
74.987000
30
88.264999
70
192
0
VERTEX
8
OBJECT__23
10
16.742001
20
75.000999
30
76.813004
70
192
0
VERTEX
8
OBJECT__23
10
-16.742001
20
75.000999
30
76.813004
70
192
0
VERTEX
8
OBJECT__23
10
-14.722000
20
74.987000
30
88.264999
70
192
0
VERTEX
8
OBJECT__23
10
10.927000
20
75.013000
30
66.741997
70
192
0
VERTEX
8
OBJECT__23
10
0.000000
20
75.017998
30
62.764999
70
192
0
VERTEX
8
OBJECT__23
10
-10.927000
20
75.013000
30
66.741997
70
192
0
VERTEX
8
OBJECT__23
10
0
20
0
30
0
70
128
71
1
72
2
73
3
0
VERTEX
8
OBJECT__23
10
0
20
0
30
0
70
128
71
4
72
5
73
6
0
VERTEX
8
OBJECT__23
10
0
20
0
30
0
70
128
71
4
72
7
73
8
0
VERTEX
8
OBJECT__23
10
0
20
0
30
0
70
128
71
6
72
1
73
4
0
VERTEX
8
OBJECT__23
10
0
20
0
30
0
70
128
71
8
72
9
73
4
0
VERTEX
8
OBJECT__23
10
0
20
0
30
0
70
128
71
9
72
5
73
4
0
VERTEX
8
OBJECT__23
10
0
20
0
30
0
70
128
71
3
72
4
73
1
0
SEQEND
8
OBJECT__23
0
POLYLINE
8
OBJECT__25
66
1
70
64
71
22
72
22
62
253
0
VERTEX
8
OBJECT__25
10
16.180000
20
48.000000
30
91.456001
70
192
0
VERTEX
8
OBJECT__25
10
16.021000
20
48.000000
30
88.949997
70
192
0
VERTEX
8
OBJECT__25
10
9.250000
20
48.000000
30
95.721001
70
192
0
VERTEX
8
OBJECT__25
10
20.000000
20
48.000000
30
79.699997
70
192
0
VERTEX
8
OBJECT__25
10
18.500000
20
48.000000
30
79.699997
70
192
0
VERTEX
8
OBJECT__25
10
16.180000
20
48.000000
30
67.944000
70
192
0
VERTEX
8
OBJECT__25
10
16.021000
20
48.000000
30
70.449997
70
192
0
VERTEX
8
OBJECT__25
10
6.180000
20
48.000000
30
60.679001
70
192
0
VERTEX
8
OBJECT__25
10
9.250000
20
48.000000
30
63.679001
70
192
0
VERTEX
8
OBJECT__25
10
-16.180000
20
48.000000
30
67.944000
70
192
0
VERTEX
8
OBJECT__25
10
-16.021000
20
48.000000
30
70.449997
70
192
0
VERTEX
8
OBJECT__25
10
-9.250000
20
48.000000
30
63.679001
70
192
0
VERTEX
8
OBJECT__25
10
-6.180000
20
48.000000
30
60.679001
70
192
0
VERTEX
8
OBJECT__25
10
-20.000000
20
48.000000
30
79.699997
70
192
0
VERTEX
8
OBJECT__25
10
-18.500000
20
48.000000
30
79.699997
70
192
0
VERTEX
8
OBJECT__25
10
0.000000
20
48.000000
30
61.200001
70
192
0
VERTEX
8
OBJECT__25
10
-16.180000
20
48.000000
30
91.456001
70
192
0
VERTEX
8
OBJECT__25
10
-16.021000
20
48.000000
30
88.949997
70
192
0
VERTEX
8
OBJECT__25
10
-6.180000
20
48.000000
30
98.721001
70
192
0
VERTEX
8
OBJECT__25
10
-9.250000
20
48.000000
30
95.721001
70
192
0
VERTEX
8
OBJECT__25
10
6.180000
20
48.000000
30
98.721001
70
192
0
VERTEX
8
OBJECT__25
10
0.000000
20
48.000000
30
98.199997
70
192
0
VERTEX
8
OBJECT__25
10
0
20
0
30
0
70
128
71
1
72
2
73
3
0
VERTEX
8
OBJECT__25
10
0
20
0
30
0
70
128
71
4
72
5
73
2
0
VERTEX
8
OBJECT__25
10
0
20
0
30
0
70
128
71
4
72
6
73
7
0
VERTEX
8
OBJECT__25
10
0
20
0
30
0
70
128
71
6
72
8
73
9
0
VERTEX
8
OBJECT__25
10
0
20
0
30
0
70
128
71
10
72
11
73
12
0
VERTEX
8
OBJECT__25
10
0
20
0
30
0
70
128
71
2
72
1
73
4
0
VERTEX
8
OBJECT__25
10
0
20
0
30
0
70
128
71
9
72
7
73
6
0
VERTEX
8
OBJECT__25
10
0
20
0
30
0
70
128
71
12
72
13
73
10
0
VERTEX
8
OBJECT__25
10
0
20
0
30
0
70
128
71
14
72
15
73
11
0
VERTEX
8
OBJECT__25
10
0
20
0
30
0
70
128
71
7
72
5
73
4
0
VERTEX
8
OBJECT__25
10
0
20
0
30
0
70
128
71
8
72
13
73
16
0
VERTEX
8
OBJECT__25
10
0
20
0
30
0
70
128
71
11
72
10
73
14
0
VERTEX
8
OBJECT__25
10
0
20
0
30
0
70
128
71
14
72
17
73
18
0
VERTEX
8
OBJECT__25
10
0
20
0
30
0
70
128
71
16
72
9
73
8
0
VERTEX
8
OBJECT__25
10
0
20
0
30
0
70
128
71
18
72
15
73
14
0
VERTEX
8
OBJECT__25
10
0
20
0
30
0
70
128
71
12
72
16
73
13
0
VERTEX
8
OBJECT__25
10
0
20
0
30
0
70
128
71
17
72
19
73
20
0
VERTEX
8
OBJECT__25
10
0
20
0
30
0
70
128
71
3
72
21
73
1
0
VERTEX
8
OBJECT__25
10
0
20
0
30
0
70
128
71
19
72
22
73
20
0
VERTEX
8
OBJECT__25
10
0
20
0
30
0
70
128
71
20
72
18
73
17
0
VERTEX
8
OBJECT__25
10
0
20
0
30
0
70
128
71
3
72
22
73
21
0
VERTEX
8
OBJECT__25
10
0
20
0
30
0
70
128
71
22
72
19
73
21
0
SEQEND
8
OBJECT__25
0
POLYLINE
8
OBJECT__26
66
1
70
64
71
32
72
32
62
253
0
VERTEX
8
OBJECT__26
10
-20.000000
20
48.000000
30
79.699997
70
192
0
VERTEX
8
OBJECT__26
10
-17.743999
20
11.534000
30
88.927002
70
192
0
VERTEX
8
OBJECT__26
10
-15.809000
20
14.300000
30
91.139999
70
192
0
VERTEX
8
OBJECT__26
10
-20.000000
20
0.000000
30
79.699997
70
192
0
VERTEX
8
OBJECT__26
10
-16.180000
20
48.000000
30
91.456001
70
192
0
VERTEX
8
OBJECT__26
10
-11.507000
20
20.448000
30
96.057999
70
192
0
VERTEX
8
OBJECT__26
10
-5.994000
20
23.184999
30
98.248001
70
192
0
VERTEX
8
OBJECT__26
10
6.180000
20
48.000000
30
98.721001
70
192
0
VERTEX
8
OBJECT__26
10
-6.180000
20
48.000000
30
98.721001
70
192
0
VERTEX
8
OBJECT__26
10
-2.854000
20
24.743999
30
99.495003
70
192
0
VERTEX
8
OBJECT__26
10
6.101000
20
23.809000
30
98.747002
70
192
0
VERTEX
8
OBJECT__26
10
16.180000
20
48.000000
30
91.456001
70
192
0
VERTEX
8
OBJECT__26
10
6.171000
20
23.756001
30
98.705002
70
192
0
VERTEX
8
OBJECT__26
10
13.713000
20
18.198000
30
94.258003
70
192
0
VERTEX
8
OBJECT__26
10
20.000000
20
48.000000
30
79.699997
70
192
0
VERTEX
8
OBJECT__26
10
15.761000
20
14.341000
30
91.172997
70
192
0
VERTEX
8
OBJECT__26
10
18.743999
20
8.720000
30
86.676003
70
192
0
VERTEX
8
OBJECT__26
10
18.743999
20
8.720000
30
72.723999
70
192
0
VERTEX
8
OBJECT__26
10
15.761000
20
14.341000
30
68.226997
70
192
0
VERTEX
8
OBJECT__26
10
20.000000
20
0.000000
30
79.699997
70
192
0
VERTEX
8
OBJECT__26
10
16.180000
20
48.000000
30
67.944000
70
192
0
VERTEX
8
OBJECT__26
10
13.713000
20
18.198000
30
65.141998
70
192
0
VERTEX
8
OBJECT__26
10
6.171000
20
23.756001
30
60.695000
70
192
0
VERTEX
8
OBJECT__26
10
6.180000
20
48.000000
30
60.679001
70
192
0
VERTEX
8
OBJECT__26
10
6.101000
20
23.809000
30
60.653000
70
192
0
VERTEX
8
OBJECT__26
10
-6.180000
20
48.000000
30
60.679001
70
192
0
VERTEX
8
OBJECT__26
10
-2.854000
20
24.743999
30
59.904999
70
192
0
VERTEX
8
OBJECT__26
10
-16.180000
20
48.000000
30
67.944000
70
192
0
VERTEX
8
OBJECT__26
10
-5.994000
20
23.184999
30
61.152000
70
192
0
VERTEX
8
OBJECT__26
10
-11.507000
20
20.448000
30
63.341999
70
192
0
VERTEX
8
OBJECT__26
10
-15.809000
20
14.300000
30
68.260002
70
192
0
VERTEX
8
OBJECT__26
10
-17.743999
20
11.534000
30
70.473000
70
192
0
VERTEX
8
OBJECT__26
10
0
20
0
30
0
70
128
71
1
72
2
73
3
0
VERTEX
8
OBJECT__26
10
0
20
0
30
0
70
128
71
1
72
4
73
2
0
VERTEX
8
OBJECT__26
10
0
20
0
30
0
70
128
71
5
72
6
73
7
0
VERTEX
8
OBJECT__26
10
0
20
0
30
0
70
128
71
5
72
3
73
6
0
VERTEX
8
OBJECT__26
10
0
20
0
30
0
70
128
71
8
72
9
73
10
0
VERTEX
8
OBJECT__26
10
0
20
0
30
0
70
128
71
10
72
11
73
8
0
VERTEX
8
OBJECT__26
10
0
20
0
30
0
70
128
71
9
72
7
73
10
0
VERTEX
8
OBJECT__26
10
0
20
0
30
0
70
128
71
12
72
8
73
13
0
VERTEX
8
OBJECT__26
10
0
20
0
30
0
70
128
71
13
72
14
73
12
0
VERTEX
8
OBJECT__26
10
0
20
0
30
0
70
128
71
15
72
12
73
16
0
VERTEX
8
OBJECT__26
10
0
20
0
30
0
70
128
71
16
72
17
73
15
0
VERTEX
8
OBJECT__26
10
0
20
0
30
0
70
128
71
15
72
18
73
19
0
VERTEX
8
OBJECT__26
10
0
20
0
30
0
70
128
71
15
72
20
73
18
0
VERTEX
8
OBJECT__26
10
0
20
0
30
0
70
128
71
21
72
22
73
23
0
VERTEX
8
OBJECT__26
10
0
20
0
30
0
70
128
71
21
72
19
73
22
0
VERTEX
8
OBJECT__26
10
0
20
0
30
0
70
128
71
24
72
23
73
25
0
VERTEX
8
OBJECT__26
10
0
20
0
30
0
70
128
71
25
72
26
73
24
0
VERTEX
8
OBJECT__26
10
0
20
0
30
0
70
128
71
25
72
27
73
26
0
VERTEX
8
OBJECT__26
10
0
20
0
30
0
70
128
71
28
72
26
73
29
0
VERTEX
8
OBJECT__26
10
0
20
0
30
0
70
128
71
29
72
30
73
28
0
VERTEX
8
OBJECT__26
10
0
20
0
30
0
70
128
71
1
72
28
73
31
0
VERTEX
8
OBJECT__26
10
0
20
0
30
0
70
128
71
31
72
32
73
1
0
VERTEX
8
OBJECT__26
10
0
20
0
30
0
70
128
71
32
72
4
73
1
0
VERTEX
8
OBJECT__26
10
0
20
0
30
0
70
128
71
30
72
31
73
28
0
VERTEX
8
OBJECT__26
10
0
20
0
30
0
70
128
71
27
72
29
73
26
0
VERTEX
8
OBJECT__26
10
0
20
0
30
0
70
128
71
23
72
24
73
21
0
VERTEX
8
OBJECT__26
10
0
20
0
30
0
70
128
71
19
72
21
73
15
0
VERTEX
8
OBJECT__26
10
0
20
0
30
0
70
128
71
17
72
20
73
15
0
VERTEX
8
OBJECT__26
10
0
20
0
30
0
70
128
71
14
72
16
73
12
0
VERTEX
8
OBJECT__26
10
0
20
0
30
0
70
128
71
11
72
13
73
8
0
VERTEX
8
OBJECT__26
10
0
20
0
30
0
70
128
71
7
72
9
73
5
0
VERTEX
8
OBJECT__26
10
0
20
0
30
0
70
128
71
3
72
5
73
1
0
SEQEND
8
OBJECT__26
0
POLYLINE
8
OBJECT__28
66
1
70
64
71
29
72
33
62
253
0
VERTEX
8
OBJECT__28
10
-17.487000
20
10.314000
30
90.014000
70
192
0
VERTEX
8
OBJECT__28
10
-20.000000
20
0.000000
30
79.699997
70
192
0
VERTEX
8
OBJECT__28
10
-18.521000
20
6.050000
30
87.263000
70
192
0
VERTEX
8
OBJECT__28
10
-10.857000
20
17.941999
30
97.641998
70
192
0
VERTEX
8
OBJECT__28
10
-17.743999
20
9.227000
30
91.234001
70
192
0
VERTEX
8
OBJECT__28
10
-11.704000
20
16.132000
30
99.864998
70
192
0
VERTEX
8
OBJECT__28
10
-11.507000
20
20.448000
30
96.057999
70
192
0
VERTEX
8
OBJECT__28
10
-15.809000
20
14.300000
30
91.139999
70
192
0
VERTEX
8
OBJECT__28
10
-11.507000
20
16.358000
30
100.148003
70
192
0
VERTEX
8
OBJECT__28
10
-2.854000
20
19.795000
30
104.444000
70
192
0
VERTEX
8
OBJECT__28
10
-2.569000
20
21.280001
30
100.980003
70
192
0
VERTEX
8
OBJECT__28
10
-5.994000
20
23.184999
30
98.248001
70
192
0
VERTEX
8
OBJECT__28
10
-2.854000
20
24.743999
30
99.495003
70
192
0
VERTEX
8
OBJECT__28
10
5.563000
20
20.587999
30
100.288002
70
192
0
VERTEX
8
OBJECT__28
10
-0.037000
20
19.559999
30
104.150002
70
192
0
VERTEX
8
OBJECT__28
10
6.101000
20
23.809000
30
98.747002
70
192
0
VERTEX
8
OBJECT__28
10
6.101000
20
19.047001
30
103.509003
70
192
0
VERTEX
8
OBJECT__28
10
11.548000
20
15.835000
30
99.494003
70
192
0
VERTEX
8
OBJECT__28
10
13.143000
20
16.075001
30
95.775002
70
192
0
VERTEX
8
OBJECT__28
10
13.713000
20
18.198000
30
94.258003
70
192
0
VERTEX
8
OBJECT__28
10
6.171000
20
23.756001
30
98.705002
70
192
0
VERTEX
8
OBJECT__28
10
13.713000
20
14.558000
30
97.898003
70
192
0
VERTEX
8
OBJECT__28
10
18.743999
20
6.976000
30
88.419998
70
192
0
VERTEX
8
OBJECT__28
10
18.594999
20
7.820000
30
87.519997
70
192
0
VERTEX
8
OBJECT__28
10
18.743999
20
8.720000
30
86.676003
70
192
0
VERTEX
8
OBJECT__28
10
15.761000
20
14.341000
30
91.172997
70
192
0
VERTEX
8
OBJECT__28
10
18.892000
20
6.153000
30
87.391998
70
192
0
VERTEX
8
OBJECT__28
10
20.000000
20
0.000000
30
79.699997
70
192
0
VERTEX
8
OBJECT__28
10
-17.743999
20
11.534000
30
88.927002
70
192
0
VERTEX
8
OBJECT__28
10
0
20
0
30
0
70
128
71
1
72
2
73
3
0
VERTEX
8
OBJECT__28
10
0
20
0
30
0
70
128
71
4
72
1
73
5
0
VERTEX
8
OBJECT__28
10
0
20
0
30
0
70
128
71
5
72
6
73
4
0
VERTEX
8
OBJECT__28
10
0
20
0
30
0
70
128
71
4
72
7
73
8
0
VERTEX
8
OBJECT__28
10
0
20
0
30
0
70
128
71
8
72
1
73
4
0
VERTEX
8
OBJECT__28
10
0
20
0
30
0
70
128
71
9
72
10
73
11
0
VERTEX
8
OBJECT__28
10
0
20
0
30
0
70
128
71
4
72
11
73
12
0
VERTEX
8
OBJECT__28
10
0
20
0
30
0
70
128
71
11
72
13
73
12
0
VERTEX
8
OBJECT__28
10
0
20
0
30
0
70
128
71
14
72
11
73
15
0
VERTEX
8
OBJECT__28
10
0
20
0
30
0
70
128
71
11
72
10
73
15
0
VERTEX
8
OBJECT__28
10
0
20
0
30
0
70
128
71
16
72
13
73
11
0
VERTEX
8
OBJECT__28
10
0
20
0
30
0
70
128
71
14
72
17
73
18
0
VERTEX
8
OBJECT__28
10
0
20
0
30
0
70
128
71
18
72
19
73
14
0
VERTEX
8
OBJECT__28
10
0
20
0
30
0
70
128
71
20
72
21
73
14
0
VERTEX
8
OBJECT__28
10
0
20
0
30
0
70
128
71
14
72
19
73
20
0
VERTEX
8
OBJECT__28
10
0
20
0
30
0
70
128
71
19
72
22
73
23
0
VERTEX
8
OBJECT__28
10
0
20
0
30
0
70
128
71
24
72
25
73
26
0
VERTEX
8
OBJECT__28
10
0
20
0
30
0
70
128
71
26
72
19
73
24
0
VERTEX
8
OBJECT__28
10
0
20
0
30
0
70
128
71
24
72
23
73
27
0
VERTEX
8
OBJECT__28
10
0
20
0
30
0
70
128
71
25
72
24
73
28
0
VERTEX
8
OBJECT__28
10
0
20
0
30
0
70
128
71
27
72
28
73
24
0
VERTEX
8
OBJECT__28
10
0
20
0
30
0
70
128
71
26
72
20
73
19
0
VERTEX
8
OBJECT__28
10
0
20
0
30
0
70
128
71
23
72
24
73
19
0
VERTEX
8
OBJECT__28
10
0
20
0
30
0
70
128
71
21
72
16
73
14
0
VERTEX
8
OBJECT__28
10
0
20
0
30
0
70
128
71
18
72
22
73
19
0
VERTEX
8
OBJECT__28
10
0
20
0
30
0
70
128
71
11
72
14
73
16
0
VERTEX
8
OBJECT__28
10
0
20
0
30
0
70
128
71
15
72
17
73
14
0
VERTEX
8
OBJECT__28
10
0
20
0
30
0
70
128
71
12
72
7
73
4
0
VERTEX
8
OBJECT__28
10
0
20
0
30
0
70
128
71
11
72
4
73
9
0
VERTEX
8
OBJECT__28
10
0
20
0
30
0
70
128
71
8
72
29
73
1
0
VERTEX
8
OBJECT__28
10
0
20
0
30
0
70
128
71
6
72
9
73
4
0
VERTEX
8
OBJECT__28
10
0
20
0
30
0
70
128
71
2
72
1
73
29
0
VERTEX
8
OBJECT__28
10
0
20
0
30
0
70
128
71
3
72
5
73
1
0
SEQEND
8
OBJECT__28
0
POLYLINE
8
OBJECT__29
66
1
70
64
71
29
72
33
62
253
0
VERTEX
8
OBJECT__29
10
-17.487000
20
10.314000
30
69.386002
70
192
0
VERTEX
8
OBJECT__29
10
-17.743999
20
9.227000
30
68.166000
70
192
0
VERTEX
8
OBJECT__29
10
-18.521000
20
6.050000
30
72.137001
70
192
0
VERTEX
8
OBJECT__29
10
-10.857000
20
17.941999
30
61.757999
70
192
0
VERTEX
8
OBJECT__29
10
-15.809000
20
14.300000
30
68.260002
70
192
0
VERTEX
8
OBJECT__29
10
-17.743999
20
11.534000
30
70.473000
70
192
0
VERTEX
8
OBJECT__29
10
-11.704000
20
16.132000
30
59.535000
70
192
0
VERTEX
8
OBJECT__29
10
-11.507000
20
16.358000
30
59.251999
70
192
0
VERTEX
8
OBJECT__29
10
-11.507000
20
20.448000
30
63.341999
70
192
0
VERTEX
8
OBJECT__29
10
-5.994000
20
23.184999
30
61.152000
70
192
0
VERTEX
8
OBJECT__29
10
-2.569000
20
21.280001
30
58.419998
70
192
0
VERTEX
8
OBJECT__29
10
6.101000
20
23.809000
30
60.653000
70
192
0
VERTEX
8
OBJECT__29
10
5.563000
20
20.587999
30
59.112000
70
192
0
VERTEX
8
OBJECT__29
10
6.101000
20
19.047001
30
55.890999
70
192
0
VERTEX
8
OBJECT__29
10
-0.037000
20
19.559999
30
55.250000
70
192
0
VERTEX
8
OBJECT__29
10
13.713000
20
18.198000
30
65.141998
70
192
0
VERTEX
8
OBJECT__29
10
13.143000
20
16.075001
30
63.625000
70
192
0
VERTEX
8
OBJECT__29
10
6.171000
20
23.756001
30
60.695000
70
192
0
VERTEX
8
OBJECT__29
10
11.548000
20
15.835000
30
59.905998
70
192
0
VERTEX
8
OBJECT__29
10
13.713000
20
14.558000
30
61.501999
70
192
0
VERTEX
8
OBJECT__29
10
18.594999
20
7.820000
30
71.879997
70
192
0
VERTEX
8
OBJECT__29
10
15.761000
20
14.341000
30
68.226997
70
192
0
VERTEX
8
OBJECT__29
10
18.743999
20
6.976000
30
70.980003
70
192
0
VERTEX
8
OBJECT__29
10
20.000000
20
0.000000
30
79.699997
70
192
0
VERTEX
8
OBJECT__29
10
18.892000
20
6.153000
30
72.008003
70
192
0
VERTEX
8
OBJECT__29
10
18.743999
20
8.720000
30
72.723999
70
192
0
VERTEX
8
OBJECT__29
10
-2.854000
20
19.795000
30
54.956001
70
192
0
VERTEX
8
OBJECT__29
10
-2.854000
20
24.743999
30
59.904999
70
192
0
VERTEX
8
OBJECT__29
10
-20.000000
20
0.000000
30
79.699997
70
192
0
VERTEX
8
OBJECT__29
10
0
20
0
30
0
70
128
71
1
72
2
73
3
0
VERTEX
8
OBJECT__29
10
0
20
0
30
0
70
128
71
4
72
1
73
5
0
VERTEX
8
OBJECT__29
10
0
20
0
30
0
70
128
71
1
72
6
73
5
0
VERTEX
8
OBJECT__29
10
0
20
0
30
0
70
128
71
4
72
7
73
2
0
VERTEX
8
OBJECT__29
10
0
20
0
30
0
70
128
71
4
72
8
73
7
0
VERTEX
8
OBJECT__29
10
0
20
0
30
0
70
128
71
4
72
9
73
10
0
VERTEX
8
OBJECT__29
10
0
20
0
30
0
70
128
71
10
72
11
73
4
0
VERTEX
8
OBJECT__29
10
0
20
0
30
0
70
128
71
8
72
4
73
11
0
VERTEX
8
OBJECT__29
10
0
20
0
30
0
70
128
71
12
72
13
73
11
0
VERTEX
8
OBJECT__29
10
0
20
0
30
0
70
128
71
13
72
14
73
15
0
VERTEX
8
OBJECT__29
10
0
20
0
30
0
70
128
71
15
72
11
73
13
0
VERTEX
8
OBJECT__29
10
0
20
0
30
0
70
128
71
16
72
17
73
13
0
VERTEX
8
OBJECT__29
10
0
20
0
30
0
70
128
71
13
72
12
73
18
0
VERTEX
8
OBJECT__29
10
0
20
0
30
0
70
128
71
13
72
17
73
19
0
VERTEX
8
OBJECT__29
10
0
20
0
30
0
70
128
71
17
72
20
73
19
0
VERTEX
8
OBJECT__29
10
0
20
0
30
0
70
128
71
21
72
17
73
22
0
VERTEX
8
OBJECT__29
10
0
20
0
30
0
70
128
71
17
72
16
73
22
0
VERTEX
8
OBJECT__29
10
0
20
0
30
0
70
128
71
17
72
21
73
23
0
VERTEX
8
OBJECT__29
10
0
20
0
30
0
70
128
71
21
72
24
73
25
0
VERTEX
8
OBJECT__29
10
0
20
0
30
0
70
128
71
25
72
23
73
21
0
VERTEX
8
OBJECT__29
10
0
20
0
30
0
70
128
71
21
72
26
73
24
0
VERTEX
8
OBJECT__29
10
0
20
0
30
0
70
128
71
23
72
20
73
17
0
VERTEX
8
OBJECT__29
10
0
20
0
30
0
70
128
71
22
72
26
73
21
0
VERTEX
8
OBJECT__29
10
0
20
0
30
0
70
128
71
19
72
14
73
13
0
VERTEX
8
OBJECT__29
10
0
20
0
30
0
70
128
71
13
72
18
73
16
0
VERTEX
8
OBJECT__29
10
0
20
0
30
0
70
128
71
15
72
27
73
11
0
VERTEX
8
OBJECT__29
10
0
20
0
30
0
70
128
71
11
72
28
73
12
0
VERTEX
8
OBJECT__29
10
0
20
0
30
0
70
128
71
11
72
27
73
8
0
VERTEX
8
OBJECT__29
10
0
20
0
30
0
70
128
71
10
72
28
73
11
0
VERTEX
8
OBJECT__29
10
0
20
0
30
0
70
128
71
2
72
1
73
4
0
VERTEX
8
OBJECT__29
10
0
20
0
30
0
70
128
71
5
72
9
73
4
0
VERTEX
8
OBJECT__29
10
0
20
0
30
0
70
128
71
3
72
29
73
1
0
VERTEX
8
OBJECT__29
10
0
20
0
30
0
70
128
71
29
72
6
73
1
0
SEQEND
8
OBJECT__29
0
POLYLINE
8
OBJECT__30
66
1
70
64
71
46
72
48
62
253
0
VERTEX
8
OBJECT__30
10
11.756000
20
-16.180000
30
10.000000
70
192
0
VERTEX
8
OBJECT__30
10
19.021000
20
-6.180000
30
10.000000
70
192
0
VERTEX
8
OBJECT__30
10
19.021000
20
-6.180000
30
111.000000
70
192
0
VERTEX
8
OBJECT__30
10
0.000000
20
-20.000000
30
111.000000
70
192
0
VERTEX
8
OBJECT__30
10
0.000000
20
-20.000000
30
10.000000
70
192
0
VERTEX
8
OBJECT__30
10
-11.756000
20
-16.180000
30
10.000000
70
192
0
VERTEX
8
OBJECT__30
10
-19.021000
20
-6.180000
30
111.000000
70
192
0
VERTEX
8
OBJECT__30
10
-19.021000
20
-6.180000
30
10.000000
70
192
0
VERTEX
8
OBJECT__30
10
19.021000
20
6.180000
30
111.000000
70
192
0
VERTEX
8
OBJECT__30
10
13.713000
20
14.558000
30
97.898003
70
192
0
VERTEX
8
OBJECT__30
10
11.548000
20
15.835000
30
99.494003
70
192
0
VERTEX
8
OBJECT__30
10
18.892000
20
6.153000
30
87.391998
70
192
0
VERTEX
8
OBJECT__30
10
18.743999
20
6.976000
30
88.419998
70
192
0
VERTEX
8
OBJECT__30
10
0.000000
20
20.000000
30
111.000000
70
192
0
VERTEX
8
OBJECT__30
10
11.756000
20
16.180000
30
111.000000
70
192
0
VERTEX
8
OBJECT__30
10
6.101000
20
19.047001
30
103.509003
70
192
0
VERTEX
8
OBJECT__30
10
-11.756000
20
16.180000
30
111.000000
70
192
0
VERTEX
8
OBJECT__30
10
-2.854000
20
19.795000
30
104.444000
70
192
0
VERTEX
8
OBJECT__30
10
-11.507000
20
16.358000
30
100.148003
70
192
0
VERTEX
8
OBJECT__30
10
-0.037000
20
19.559999
30
104.150002
70
192
0
VERTEX
8
OBJECT__30
10
-19.021000
20
6.180000
30
111.000000
70
192
0
VERTEX
8
OBJECT__30
10
-11.704000
20
16.132000
30
99.864998
70
192
0
VERTEX
8
OBJECT__30
10
-17.743999
20
9.227000
30
91.234001
70
192
0
VERTEX
8
OBJECT__30
10
-20.000000
20
0.000000
30
10.000000
70
192
0
VERTEX
8
OBJECT__30
10
-20.000000
20
0.000000
30
79.699997
70
192
0
VERTEX
8
OBJECT__30
10
-18.521000
20
6.050000
30
72.137001
70
192
0
VERTEX
8
OBJECT__30
10
-19.021000
20
6.180000
30
10.000000
70
192
0
VERTEX
8
OBJECT__30
10
-18.521000
20
6.050000
30
87.263000
70
192
0
VERTEX
8
OBJECT__30
10
-17.743999
20
9.227000
30
68.166000
70
192
0
VERTEX
8
OBJECT__30
10
-11.704000
20
16.132000
30
59.535000
70
192
0
VERTEX
8
OBJECT__30
10
0.000000
20
20.000000
30
10.000000
70
192
0
VERTEX
8
OBJECT__30
10
-11.756000
20
16.180000
30
10.000000
70
192
0
VERTEX
8
OBJECT__30
10
-2.854000
20
19.795000
30
54.956001
70
192
0
VERTEX
8
OBJECT__30
10
-11.507000
20
16.358000
30
59.251999
70
192
0
VERTEX
8
OBJECT__30
10
11.756000
20
16.180000
30
10.000000
70
192
0
VERTEX
8
OBJECT__30
10
-0.037000
20
19.559999
30
55.250000
70
192
0
VERTEX
8
OBJECT__30
10
6.101000
20
19.047001
30
55.890999
70
192
0
VERTEX
8
OBJECT__30
10
19.021000
20
6.180000
30
10.000000
70
192
0
VERTEX
8
OBJECT__30
10
13.713000
20
14.558000
30
61.501999
70
192
0
VERTEX
8
OBJECT__30
10
18.743999
20
6.976000
30
70.980003
70
192
0
VERTEX
8
OBJECT__30
10
11.548000
20
15.835000
30
59.905998
70
192
0
VERTEX
8
OBJECT__30
10
20.000000
20
0.000000
30
111.000000
70
192
0
VERTEX
8
OBJECT__30
10
20.000000
20
0.000000
30
79.699997
70
192
0
VERTEX
8
OBJECT__30
10
18.892000
20
6.153000
30
72.008003
70
192
0
VERTEX
8
OBJECT__30
10
-11.756000
20
-16.180000
30
111.000000
70
192
0
VERTEX
8
OBJECT__30
10
11.756000
20
-16.180000
30
111.000000
70
192
0
VERTEX
8
OBJECT__30
10
0
20
0
30
0
70
128
71
1
72
2
73
3
0
VERTEX
8
OBJECT__30
10
0
20
0
30
0
70
128
71
4
72
5
73
1
0
VERTEX
8
OBJECT__30
10
0
20
0
30
0
70
128
71
6
72
5
73
4
0
VERTEX
8
OBJECT__30
10
0
20
0
30
0
70
128
71
7
72
8
73
6
0
VERTEX
8
OBJECT__30
10
0
20
0
30
0
70
128
71
9
72
10
73
11
0
VERTEX
8
OBJECT__30
10
0
20
0
30
0
70
128
71
9
72
12
73
13
0
VERTEX
8
OBJECT__30
10
0
20
0
30
0
70
128
71
13
72
10
73
9
0
VERTEX
8
OBJECT__30
10
0
20
0
30
0
70
128
71
14
72
15
73
16
0
VERTEX
8
OBJECT__30
10
0
20
0
30
0
70
128
71
15
72
11
73
16
0
VERTEX
8
OBJECT__30
10
0
20
0
30
0
70
128
71
17
72
14
73
18
0
VERTEX
8
OBJECT__30
10
0
20
0
30
0
70
128
71
18
72
19
73
17
0
VERTEX
8
OBJECT__30
10
0
20
0
30
0
70
128
71
14
72
20
73
18
0
VERTEX
8
OBJECT__30
10
0
20
0
30
0
70
128
71
21
72
17
73
22
0
VERTEX
8
OBJECT__30
10
0
20
0
30
0
70
128
71
22
72
23
73
21
0
VERTEX
8
OBJECT__30
10
0
20
0
30
0
70
128
71
24
72
25
73
26
0
VERTEX
8
OBJECT__30
10
0
20
0
30
0
70
128
71
26
72
27
73
24
0
VERTEX
8
OBJECT__30
10
0
20
0
30
0
70
128
71
8
72
7
73
25
0
VERTEX
8
OBJECT__30
10
0
20
0
30
0
70
128
71
7
72
21
73
28
0
VERTEX
8
OBJECT__30
10
0
20
0
30
0
70
128
71
28
72
25
73
7
0
VERTEX
8
OBJECT__30
10
0
20
0
30
0
70
128
71
27
72
29
73
30
0
VERTEX
8
OBJECT__30
10
0
20
0
30
0
70
128
71
27
72
26
73
29
0
VERTEX
8
OBJECT__30
10
0
20
0
30
0
70
128
71
31
72
32
73
33
0
VERTEX
8
OBJECT__30
10
0
20
0
30
0
70
128
71
32
72
30
73
34
0
VERTEX
8
OBJECT__30
10
0
20
0
30
0
70
128
71
34
72
33
73
32
0
VERTEX
8
OBJECT__30
10
0
20
0
30
0
70
128
71
35
72
31
73
36
0
VERTEX
8
OBJECT__30
10
0
20
0
30
0
70
128
71
36
72
37
73
35
0
VERTEX
8
OBJECT__30
10
0
20
0
30
0
70
128
71
38
72
39
73
40
0
VERTEX
8
OBJECT__30
10
0
20
0
30
0
70
128
71
38
72
35
73
41
0
VERTEX
8
OBJECT__30
10
0
20
0
30
0
70
128
71
41
72
39
73
38
0
VERTEX
8
OBJECT__30
10
0
20
0
30
0
70
128
71
42
72
43
73
12
0
VERTEX
8
OBJECT__30
10
0
20
0
30
0
70
128
71
12
72
9
73
42
0
VERTEX
8
OBJECT__30
10
0
20
0
30
0
70
128
71
2
72
38
73
44
0
VERTEX
8
OBJECT__30
10
0
20
0
30
0
70
128
71
44
72
43
73
2
0
VERTEX
8
OBJECT__30
10
0
20
0
30
0
70
128
71
43
72
3
73
2
0
VERTEX
8
OBJECT__30
10
0
20
0
30
0
70
128
71
42
72
3
73
43
0
VERTEX
8
OBJECT__30
10
0
20
0
30
0
70
128
71
40
72
44
73
38
0
VERTEX
8
OBJECT__30
10
0
20
0
30
0
70
128
71
37
72
41
73
35
0
VERTEX
8
OBJECT__30
10
0
20
0
30
0
70
128
71
33
72
36
73
31
0
VERTEX
8
OBJECT__30
10
0
20
0
30
0
70
128
71
30
72
32
73
27
0
VERTEX
8
OBJECT__30
10
0
20
0
30
0
70
128
71
24
72
8
73
25
0
VERTEX
8
OBJECT__30
10
0
20
0
30
0
70
128
71
23
72
28
73
21
0
VERTEX
8
OBJECT__30
10
0
20
0
30
0
70
128
71
19
72
22
73
17
0
VERTEX
8
OBJECT__30
10
0
20
0
30
0
70
128
71
16
72
20
73
14
0
VERTEX
8
OBJECT__30
10
0
20
0
30
0
70
128
71
11
72
15
73
9
0
VERTEX
8
OBJECT__30
10
0
20
0
30
0
70
128
71
6
72
45
73
7
0
VERTEX
8
OBJECT__30
10
0
20
0
30
0
70
128
71
4
72
45
73
6
0
VERTEX
8
OBJECT__30
10
0
20
0
30
0
70
128
71
1
72
46
73
4
0
VERTEX
8
OBJECT__30
10
0
20
0
30
0
70
128
71
3
72
46
73
1
0
SEQEND
8
OBJECT__30
0
POLYLINE
8
OBJECT__31
66
1
70
64
71
11
72
9
62
253
0
VERTEX
8
OBJECT__31
10
11.756000
20
-16.180000
30
111.000000
70
192
0
VERTEX
8
OBJECT__31
10
-19.021000
20
-6.180000
30
111.000000
70
192
0
VERTEX
8
OBJECT__31
10
-11.756000
20
-16.180000
30
111.000000
70
192
0
VERTEX
8
OBJECT__31
10
-19.021000
20
6.180000
30
111.000000
70
192
0
VERTEX
8
OBJECT__31
10
11.756000
20
16.180000
30
111.000000
70
192
0
VERTEX
8
OBJECT__31
10
0.000000
20
20.000000
30
111.000000
70
192
0
VERTEX
8
OBJECT__31
10
19.021000
20
6.180000
30
111.000000
70
192
0
VERTEX
8
OBJECT__31
10
0.000000
20
-20.000000
30
111.000000
70
192
0
VERTEX
8
OBJECT__31
10
20.000000
20
0.000000
30
111.000000
70
192
0
VERTEX
8
OBJECT__31
10
19.021000
20
-6.180000
30
111.000000
70
192
0
VERTEX
8
OBJECT__31
10
-11.756000
20
16.180000
30
111.000000
70
192
0
VERTEX
8
OBJECT__31
10
0
20
0
30
0
70
128
71
1
72
2
73
3
0
VERTEX
8
OBJECT__31
10
0
20
0
30
0
70
128
71
4
72
5
73
6
0
VERTEX
8
OBJECT__31
10
0
20
0
30
0
70
128
71
1
72
4
73
2
0
VERTEX
8
OBJECT__31
10
0
20
0
30
0
70
128
71
4
72
7
73
5
0
VERTEX
8
OBJECT__31
10
0
20
0
30
0
70
128
71
3
72
8
73
1
0
VERTEX
8
OBJECT__31
10
0
20
0
30
0
70
128
71
4
72
9
73
7
0
VERTEX
8
OBJECT__31
10
0
20
0
30
0
70
128
71
1
72
10
73
4
0
VERTEX
8
OBJECT__31
10
0
20
0
30
0
70
128
71
10
72
9
73
4
0
VERTEX
8
OBJECT__31
10
0
20
0
30
0
70
128
71
6
72
11
73
4
0
SEQEND
8
OBJECT__31
0
POLYLINE
8
OBJECT__32
66
1
70
64
71
12
72
10
62
253
0
VERTEX
8
OBJECT__32
10
15.000000
20
25.981001
30
0.000000
70
192
0
VERTEX
8
OBJECT__32
10
25.981001
20
15.000000
30
0.000000
70
192
0
VERTEX
8
OBJECT__32
10
30.000000
20
0.000000
30
0.000000
70
192
0
VERTEX
8
OBJECT__32
10
25.981001
20
-15.000000
30
0.000000
70
192
0
VERTEX
8
OBJECT__32
10
-15.000000
20
-25.981001
30
0.000000
70
192
0
VERTEX
8
OBJECT__32
10
-25.981001
20
-15.000000
30
0.000000
70
192
0
VERTEX
8
OBJECT__32
10
0.000000
20
30.000000
30
0.000000
70
192
0
VERTEX
8
OBJECT__32
10
-25.981001
20
15.000000
30
0.000000
70
192
0
VERTEX
8
OBJECT__32
10
-15.000000
20
25.981001
30
0.000000
70
192
0
VERTEX
8
OBJECT__32
10
-30.000000
20
0.000000
30
0.000000
70
192
0
VERTEX
8
OBJECT__32
10
15.000000
20
-25.981001
30
0.000000
70
192
0
VERTEX
8
OBJECT__32
10
0.000000
20
-30.000000
30
0.000000
70
192
0
VERTEX
8
OBJECT__32
10
0
20
0
30
0
70
128
71
1
72
2
73
3
0
VERTEX
8
OBJECT__32
10
0
20
0
30
0
70
128
71
4
72
5
73
6
0
VERTEX
8
OBJECT__32
10
0
20
0
30
0
70
128
71
4
72
7
73
1
0
VERTEX
8
OBJECT__32
10
0
20
0
30
0
70
128
71
4
72
8
73
9
0
VERTEX
8
OBJECT__32
10
0
20
0
30
0
70
128
71
6
72
10
73
4
0
VERTEX
8
OBJECT__32
10
0
20
0
30
0
70
128
71
4
72
11
73
12
0
VERTEX
8
OBJECT__32
10
0
20
0
30
0
70
128
71
9
72
7
73
4
0
VERTEX
8
OBJECT__32
10
0
20
0
30
0
70
128
71
12
72
5
73
4
0
VERTEX
8
OBJECT__32
10
0
20
0
30
0
70
128
71
10
72
8
73
4
0
VERTEX
8
OBJECT__32
10
0
20
0
30
0
70
128
71
3
72
4
73
1
0
SEQEND
8
OBJECT__32
0
POLYLINE
8
OBJECT__33
66
1
70
64
71
24
72
24
62
253
0
VERTEX
8
OBJECT__33
10
-15.000000
20
-25.981001
30
6.000000
70
192
0
VERTEX
8
OBJECT__33
10
-15.000000
20
-25.981001
30
0.000000
70
192
0
VERTEX
8
OBJECT__33
10
0.000000
20
-30.000000
30
0.000000
70
192
0
VERTEX
8
OBJECT__33
10
-25.981001
20
-15.000000
30
6.000000
70
192
0
VERTEX
8
OBJECT__33
10
-25.981001
20
-15.000000
30
0.000000
70
192
0
VERTEX
8
OBJECT__33
10
-30.000000
20
0.000000
30
6.000000
70
192
0
VERTEX
8
OBJECT__33
10
-30.000000
20
0.000000
30
0.000000
70
192
0
VERTEX
8
OBJECT__33
10
-25.981001
20
15.000000
30
6.000000
70
192
0
VERTEX
8
OBJECT__33
10
-25.981001
20
15.000000
30
0.000000
70
192
0
VERTEX
8
OBJECT__33
10
-15.000000
20
25.981001
30
6.000000
70
192
0
VERTEX
8
OBJECT__33
10
-15.000000
20
25.981001
30
0.000000
70
192
0
VERTEX
8
OBJECT__33
10
0.000000
20
30.000000
30
6.000000
70
192
0
VERTEX
8
OBJECT__33
10
0.000000
20
30.000000
30
0.000000
70
192
0
VERTEX
8
OBJECT__33
10
15.000000
20
25.981001
30
0.000000
70
192
0
VERTEX
8
OBJECT__33
10
25.981001
20
15.000000
30
0.000000
70
192
0
VERTEX
8
OBJECT__33
10
15.000000
20
25.981001
30
6.000000
70
192
0
VERTEX
8
OBJECT__33
10
30.000000
20
0.000000
30
0.000000
70
192
0
VERTEX
8
OBJECT__33
10
25.981001
20
15.000000
30
6.000000
70
192
0
VERTEX
8
OBJECT__33
10
25.981001
20
-15.000000
30
0.000000
70
192
0
VERTEX
8
OBJECT__33
10
30.000000
20
0.000000
30
6.000000
70
192
0
VERTEX
8
OBJECT__33
10
15.000000
20
-25.981001
30
0.000000
70
192
0
VERTEX
8
OBJECT__33
10
25.981001
20
-15.000000
30
6.000000
70
192
0
VERTEX
8
OBJECT__33
10
15.000000
20
-25.981001
30
6.000000
70
192
0
VERTEX
8
OBJECT__33
10
0.000000
20
-30.000000
30
6.000000
70
192
0
VERTEX
8
OBJECT__33
10
0
20
0
30
0
70
128
71
1
72
2
73
3
0
VERTEX
8
OBJECT__33
10
0
20
0
30
0
70
128
71
4
72
5
73
2
0
VERTEX
8
OBJECT__33
10
0
20
0
30
0
70
128
71
6
72
7
73
5
0
VERTEX
8
OBJECT__33
10
0
20
0
30
0
70
128
71
8
72
9
73
7
0
VERTEX
8
OBJECT__33
10
0
20
0
30
0
70
128
71
10
72
11
73
9
0
VERTEX
8
OBJECT__33
10
0
20
0
30
0
70
128
71
12
72
13
73
11
0
VERTEX
8
OBJECT__33
10
0
20
0
30
0
70
128
71
14
72
13
73
12
0
VERTEX
8
OBJECT__33
10
0
20
0
30
0
70
128
71
15
72
14
73
16
0
VERTEX
8
OBJECT__33
10
0
20
0
30
0
70
128
71
17
72
15
73
18
0
VERTEX
8
OBJECT__33
10
0
20
0
30
0
70
128
71
19
72
17
73
20
0
VERTEX
8
OBJECT__33
10
0
20
0
30
0
70
128
71
21
72
19
73
22
0
VERTEX
8
OBJECT__33
10
0
20
0
30
0
70
128
71
3
72
21
73
23
0
VERTEX
8
OBJECT__33
10
0
20
0
30
0
70
128
71
23
72
24
73
3
0
VERTEX
8
OBJECT__33
10
0
20
0
30
0
70
128
71
22
72
23
73
21
0
VERTEX
8
OBJECT__33
10
0
20
0
30
0
70
128
71
20
72
22
73
19
0
VERTEX
8
OBJECT__33
10
0
20
0
30
0
70
128
71
18
72
20
73
17
0
VERTEX
8
OBJECT__33
10
0
20
0
30
0
70
128
71
16
72
18
73
15
0
VERTEX
8
OBJECT__33
10
0
20
0
30
0
70
128
71
12
72
16
73
14
0
VERTEX
8
OBJECT__33
10
0
20
0
30
0
70
128
71
11
72
10
73
12
0
VERTEX
8
OBJECT__33
10
0
20
0
30
0
70
128
71
9
72
8
73
10
0
VERTEX
8
OBJECT__33
10
0
20
0
30
0
70
128
71
7
72
6
73
8
0
VERTEX
8
OBJECT__33
10
0
20
0
30
0
70
128
71
5
72
4
73
6
0
VERTEX
8
OBJECT__33
10
0
20
0
30
0
70
128
71
2
72
1
73
4
0
VERTEX
8
OBJECT__33
10
0
20
0
30
0
70
128
71
3
72
24
73
1
0
SEQEND
8
OBJECT__33
0
POLYLINE
8
OBJECT__35
66
1
70
64
71
23
72
23
62
253
0
VERTEX
8
OBJECT__35
10
0.000000
20
30.000000
30
6.000000
70
192
0
VERTEX
8
OBJECT__35
10
-7.043000
20
23.987000
30
6.000000
70
192
0
VERTEX
8
OBJECT__35
10
7.043000
20
23.987000
30
6.000000
70
192
0
VERTEX
8
OBJECT__35
10
15.000000
20
-25.981001
30
6.000000
70
192
0
VERTEX
8
OBJECT__35
10
13.516000
20
-21.031000
30
6.000000
70
192
0
VERTEX
8
OBJECT__35
10
0.000000
20
-25.000000
30
6.000000
70
192
0
VERTEX
8
OBJECT__35
10
25.981001
20
-15.000000
30
6.000000
70
192
0
VERTEX
8
OBJECT__35
10
22.740999
20
-10.385000
30
6.000000
70
192
0
VERTEX
8
OBJECT__35
10
30.000000
20
0.000000
30
6.000000
70
192
0
VERTEX
8
OBJECT__35
10
24.746000
20
3.558000
30
6.000000
70
192
0
VERTEX
8
OBJECT__35
10
25.981001
20
15.000000
30
6.000000
70
192
0
VERTEX
8
OBJECT__35
10
18.893999
20
16.372000
30
6.000000
70
192
0
VERTEX
8
OBJECT__35
10
15.000000
20
25.981001
30
6.000000
70
192
0
VERTEX
8
OBJECT__35
10
-15.000000
20
25.981001
30
6.000000
70
192
0
VERTEX
8
OBJECT__35
10
-25.981001
20
15.000000
30
6.000000
70
192
0
VERTEX
8
OBJECT__35
10
-18.893999
20
16.372000
30
6.000000
70
192
0
VERTEX
8
OBJECT__35
10
-30.000000
20
0.000000
30
6.000000
70
192
0
VERTEX
8
OBJECT__35
10
-24.746000
20
3.558000
30
6.000000
70
192
0
VERTEX
8
OBJECT__35
10
-25.981001
20
-15.000000
30
6.000000
70
192
0
VERTEX
8
OBJECT__35
10
-22.740999
20
-10.385000
30
6.000000
70
192
0
VERTEX
8
OBJECT__35
10
-15.000000
20
-25.981001
30
6.000000
70
192
0
VERTEX
8
OBJECT__35
10
-13.516000
20
-21.031000
30
6.000000
70
192
0
VERTEX
8
OBJECT__35
10
0.000000
20
-30.000000
30
6.000000
70
192
0
VERTEX
8
OBJECT__35
10
0
20
0
30
0
70
128
71
1
72
2
73
3
0
VERTEX
8
OBJECT__35
10
0
20
0
30
0
70
128
71
4
72
5
73
6
0
VERTEX
8
OBJECT__35
10
0
20
0
30
0
70
128
71
7
72
8
73
5
0
VERTEX
8
OBJECT__35
10
0
20
0
30
0
70
128
71
9
72
10
73
8
0
VERTEX
8
OBJECT__35
10
0
20
0
30
0
70
128
71
11
72
12
73
10
0
VERTEX
8
OBJECT__35
10
0
20
0
30
0
70
128
71
13
72
3
73
12
0
VERTEX
8
OBJECT__35
10
0
20
0
30
0
70
128
71
1
72
14
73
2
0
VERTEX
8
OBJECT__35
10
0
20
0
30
0
70
128
71
14
72
15
73
16
0
VERTEX
8
OBJECT__35
10
0
20
0
30
0
70
128
71
15
72
17
73
18
0
VERTEX
8
OBJECT__35
10
0
20
0
30
0
70
128
71
5
72
4
73
7
0
VERTEX
8
OBJECT__35
10
0
20
0
30
0
70
128
71
10
72
9
73
11
0
VERTEX
8
OBJECT__35
10
0
20
0
30
0
70
128
71
3
72
13
73
1
0
VERTEX
8
OBJECT__35
10
0
20
0
30
0
70
128
71
18
72
16
73
15
0
VERTEX
8
OBJECT__35
10
0
20
0
30
0
70
128
71
17
72
19
73
20
0
VERTEX
8
OBJECT__35
10
0
20
0
30
0
70
128
71
19
72
21
73
22
0
VERTEX
8
OBJECT__35
10
0
20
0
30
0
70
128
71
8
72
7
73
9
0
VERTEX
8
OBJECT__35
10
0
20
0
30
0
70
128
71
16
72
2
73
14
0
VERTEX
8
OBJECT__35
10
0
20
0
30
0
70
128
71
22
72
20
73
19
0
VERTEX
8
OBJECT__35
10
0
20
0
30
0
70
128
71
21
72
23
73
6
0
VERTEX
8
OBJECT__35
10
0
20
0
30
0
70
128
71
12
72
11
73
13
0
VERTEX
8
OBJECT__35
10
0
20
0
30
0
70
128
71
6
72
22
73
21
0
VERTEX
8
OBJECT__35
10
0
20
0
30
0
70
128
71
20
72
18
73
17
0
VERTEX
8
OBJECT__35
10
0
20
0
30
0
70
128
71
6
72
23
73
4
0
SEQEND
8
OBJECT__35
0
POLYLINE
8
OBJECT__36
66
1
70
64
71
22
72
22
62
253
0
VERTEX
8
OBJECT__36
10
-13.516000
20
-21.031000
30
10.000000
70
192
0
VERTEX
8
OBJECT__36
10
-13.516000
20
-21.031000
30
6.000000
70
192
0
VERTEX
8
OBJECT__36
10
0.000000
20
-25.000000
30
6.000000
70
192
0
VERTEX
8
OBJECT__36
10
-22.740999
20
-10.385000
30
10.000000
70
192
0
VERTEX
8
OBJECT__36
10
-22.740999
20
-10.385000
30
6.000000
70
192
0
VERTEX
8
OBJECT__36
10
-24.746000
20
3.558000
30
10.000000
70
192
0
VERTEX
8
OBJECT__36
10
-24.746000
20
3.558000
30
6.000000
70
192
0
VERTEX
8
OBJECT__36
10
-18.893999
20
16.372000
30
10.000000
70
192
0
VERTEX
8
OBJECT__36
10
-18.893999
20
16.372000
30
6.000000
70
192
0
VERTEX
8
OBJECT__36
10
-7.043000
20
23.987000
30
10.000000
70
192
0
VERTEX
8
OBJECT__36
10
-7.043000
20
23.987000
30
6.000000
70
192
0
VERTEX
8
OBJECT__36
10
7.043000
20
23.987000
30
10.000000
70
192
0
VERTEX
8
OBJECT__36
10
7.043000
20
23.987000
30
6.000000
70
192
0
VERTEX
8
OBJECT__36
10
18.893999
20
16.372000
30
6.000000
70
192
0
VERTEX
8
OBJECT__36
10
24.746000
20
3.558000
30
6.000000
70
192
0
VERTEX
8
OBJECT__36
10
18.893999
20
16.372000
30
10.000000
70
192
0
VERTEX
8
OBJECT__36
10
22.740999
20
-10.385000
30
6.000000
70
192
0
VERTEX
8
OBJECT__36
10
24.746000
20
3.558000
30
10.000000
70
192
0
VERTEX
8
OBJECT__36
10
13.516000
20
-21.031000
30
6.000000
70
192
0
VERTEX
8
OBJECT__36
10
22.740999
20
-10.385000
30
10.000000
70
192
0
VERTEX
8
OBJECT__36
10
0.000000
20
-25.000000
30
10.000000
70
192
0
VERTEX
8
OBJECT__36
10
13.516000
20
-21.031000
30
10.000000
70
192
0
VERTEX
8
OBJECT__36
10
0
20
0
30
0
70
128
71
1
72
2
73
3
0
VERTEX
8
OBJECT__36
10
0
20
0
30
0
70
128
71
4
72
5
73
2
0
VERTEX
8
OBJECT__36
10
0
20
0
30
0
70
128
71
6
72
7
73
5
0
VERTEX
8
OBJECT__36
10
0
20
0
30
0
70
128
71
8
72
9
73
7
0
VERTEX
8
OBJECT__36
10
0
20
0
30
0
70
128
71
10
72
11
73
9
0
VERTEX
8
OBJECT__36
10
0
20
0
30
0
70
128
71
12
72
13
73
11
0
VERTEX
8
OBJECT__36
10
0
20
0
30
0
70
128
71
14
72
13
73
12
0
VERTEX
8
OBJECT__36
10
0
20
0
30
0
70
128
71
15
72
14
73
16
0
VERTEX
8
OBJECT__36
10
0
20
0
30
0
70
128
71
17
72
15
73
18
0
VERTEX
8
OBJECT__36
10
0
20
0
30
0
70
128
71
19
72
17
73
20
0
VERTEX
8
OBJECT__36
10
0
20
0
30
0
70
128
71
21
72
3
73
19
0
VERTEX
8
OBJECT__36
10
0
20
0
30
0
70
128
71
19
72
22
73
21
0
VERTEX
8
OBJECT__36
10
0
20
0
30
0
70
128
71
20
72
22
73
19
0
VERTEX
8
OBJECT__36
10
0
20
0
30
0
70
128
71
18
72
20
73
17
0
VERTEX
8
OBJECT__36
10
0
20
0
30
0
70
128
71
16
72
18
73
15
0
VERTEX
8
OBJECT__36
10
0
20
0
30
0
70
128
71
12
72
16
73
14
0
VERTEX
8
OBJECT__36
10
0
20
0
30
0
70
128
71
11
72
10
73
12
0
VERTEX
8
OBJECT__36
10
0
20
0
30
0
70
128
71
9
72
8
73
10
0
VERTEX
8
OBJECT__36
10
0
20
0
30
0
70
128
71
7
72
6
73
8
0
VERTEX
8
OBJECT__36
10
0
20
0
30
0
70
128
71
5
72
4
73
6
0
VERTEX
8
OBJECT__36
10
0
20
0
30
0
70
128
71
2
72
1
73
4
0
VERTEX
8
OBJECT__36
10
0
20
0
30
0
70
128
71
3
72
21
73
1
0
SEQEND
8
OBJECT__36
0
POLYLINE
8
OBJECT__37
66
1
70
64
71
11
72
9
62
253
0
VERTEX
8
OBJECT__37
10
24.746000
20
3.558000
30
10.000000
70
192
0
VERTEX
8
OBJECT__37
10
0.000000
20
-25.000000
30
10.000000
70
192
0
VERTEX
8
OBJECT__37
10
13.516000
20
-21.031000
30
10.000000
70
192
0
VERTEX
8
OBJECT__37
10
-13.516000
20
-21.031000
30
10.000000
70
192
0
VERTEX
8
OBJECT__37
10
-7.043000
20
23.987000
30
10.000000
70
192
0
VERTEX
8
OBJECT__37
10
-18.893999
20
16.372000
30
10.000000
70
192
0
VERTEX
8
OBJECT__37
10
18.893999
20
16.372000
30
10.000000
70
192
0
VERTEX
8
OBJECT__37
10
7.043000
20
23.987000
30
10.000000
70
192
0
VERTEX
8
OBJECT__37
10
-22.740999
20
-10.385000
30
10.000000
70
192
0
VERTEX
8
OBJECT__37
10
-24.746000
20
3.558000
30
10.000000
70
192
0
VERTEX
8
OBJECT__37
10
22.740999
20
-10.385000
30
10.000000
70
192
0
VERTEX
8
OBJECT__37
10
0
20
0
30
0
70
128
71
1
72
2
73
3
0
VERTEX
8
OBJECT__37
10
0
20
0
30
0
70
128
71
1
72
4
73
2
0
VERTEX
8
OBJECT__37
10
0
20
0
30
0
70
128
71
1
72
5
73
6
0
VERTEX
8
OBJECT__37
10
0
20
0
30
0
70
128
71
1
72
7
73
8
0
VERTEX
8
OBJECT__37
10
0
20
0
30
0
70
128
71
1
72
9
73
4
0
VERTEX
8
OBJECT__37
10
0
20
0
30
0
70
128
71
8
72
5
73
1
0
VERTEX
8
OBJECT__37
10
0
20
0
30
0
70
128
71
1
72
10
73
9
0
VERTEX
8
OBJECT__37
10
0
20
0
30
0
70
128
71
3
72
11
73
1
0
VERTEX
8
OBJECT__37
10
0
20
0
30
0
70
128
71
6
72
10
73
1
0
SEQEND
8
OBJECT__37
0
POLYLINE
8
OBJECT__38
66
1
70
64
71
25
72
25
62
253
0
VERTEX
8
OBJECT__38
10
151.503006
20
0.000000
30
286.475006
70
192
0
VERTEX
8
OBJECT__38
10
150.766998
20
0.000000
30
286.385010
70
192
0
VERTEX
8
OBJECT__38
10
150.052002
20
3.620000
30
286.296997
70
192
0
VERTEX
8
OBJECT__38
10
150.500000
20
-4.426000
30
286.351990
70
192
0
VERTEX
8
OBJECT__38
10
150.052002
20
-3.620000
30
286.296997
70
192
0
VERTEX
8
OBJECT__38
10
139.126007
20
9.944000
30
284.955994
70
192
0
VERTEX
8
OBJECT__38
10
143.632004
20
9.944000
30
285.509003
70
192
0
VERTEX
8
OBJECT__38
10
141.378998
20
9.458000
30
285.231995
70
192
0
VERTEX
8
OBJECT__38
10
150.500000
20
4.426000
30
286.351990
70
192
0
VERTEX
8
OBJECT__38
10
148.016998
20
6.688000
30
286.046997
70
192
0
VERTEX
8
OBJECT__38
10
144.972000
20
8.739000
30
285.673004
70
192
0
VERTEX
8
OBJECT__38
10
147.690994
20
7.975000
30
286.006989
70
192
0
VERTEX
8
OBJECT__38
10
147.690994
20
-7.975000
30
286.006989
70
192
0
VERTEX
8
OBJECT__38
10
148.016998
20
-6.688000
30
286.046997
70
192
0
VERTEX
8
OBJECT__38
10
143.632004
20
-9.944000
30
285.509003
70
192
0
VERTEX
8
OBJECT__38
10
144.972000
20
-8.739000
30
285.673004
70
192
0
VERTEX
8
OBJECT__38
10
139.126007
20
-9.944000
30
284.955994
70
192
0
VERTEX
8
OBJECT__38
10
141.378998
20
-9.459000
30
285.231995
70
192
0
VERTEX
8
OBJECT__38
10
135.067001
20
7.975000
30
284.457001
70
192
0
VERTEX
8
OBJECT__38
10
137.785995
20
8.739000
30
284.790985
70
192
0
VERTEX
8
OBJECT__38
10
134.740997
20
-6.688000
30
284.416992
70
192
0
VERTEX
8
OBJECT__38
10
135.067001
20
-7.975000
30
284.457001
70
192
0
VERTEX
8
OBJECT__38
10
134.740997
20
6.688000
30
284.416992
70
192
0
VERTEX
8
OBJECT__38
10
131.255005
20
0.000000
30
283.989014
70
192
0
VERTEX
8
OBJECT__38
10
131.990997
20
0.000000
30
284.079010
70
192
0
VERTEX
8
OBJECT__38
10
0
20
0
30
0
70
128
71
1
72
2
73
3
0
VERTEX
8
OBJECT__38
10
0
20
0
30
0
70
128
71
1
72
4
73
5
0
VERTEX
8
OBJECT__38
10
0
20
0
30
0
70
128
71
6
72
7
73
8
0
VERTEX
8
OBJECT__38
10
0
20
0
30
0
70
128
71
9
72
3
73
10
0
VERTEX
8
OBJECT__38
10
0
20
0
30
0
70
128
71
5
72
2
73
1
0
VERTEX
8
OBJECT__38
10
0
20
0
30
0
70
128
71
7
72
11
73
8
0
VERTEX
8
OBJECT__38
10
0
20
0
30
0
70
128
71
12
72
10
73
11
0
VERTEX
8
OBJECT__38
10
0
20
0
30
0
70
128
71
3
72
9
73
1
0
VERTEX
8
OBJECT__38
10
0
20
0
30
0
70
128
71
4
72
13
73
14
0
VERTEX
8
OBJECT__38
10
0
20
0
30
0
70
128
71
13
72
15
73
16
0
VERTEX
8
OBJECT__38
10
0
20
0
30
0
70
128
71
15
72
17
73
18
0
VERTEX
8
OBJECT__38
10
0
20
0
30
0
70
128
71
19
72
6
73
20
0
VERTEX
8
OBJECT__38
10
0
20
0
30
0
70
128
71
11
72
7
73
12
0
VERTEX
8
OBJECT__38
10
0
20
0
30
0
70
128
71
14
72
5
73
4
0
VERTEX
8
OBJECT__38
10
0
20
0
30
0
70
128
71
18
72
16
73
15
0
VERTEX
8
OBJECT__38
10
0
20
0
30
0
70
128
71
8
72
20
73
6
0
VERTEX
8
OBJECT__38
10
0
20
0
30
0
70
128
71
16
72
14
73
13
0
VERTEX
8
OBJECT__38
10
0
20
0
30
0
70
128
71
10
72
12
73
9
0
VERTEX
8
OBJECT__38
10
0
20
0
30
0
70
128
71
21
72
18
73
17
0
VERTEX
8
OBJECT__38
10
0
20
0
30
0
70
128
71
17
72
22
73
21
0
VERTEX
8
OBJECT__38
10
0
20
0
30
0
70
128
71
20
72
23
73
19
0
VERTEX
8
OBJECT__38
10
0
20
0
30
0
70
128
71
24
72
25
73
21
0
VERTEX
8
OBJECT__38
10
0
20
0
30
0
70
128
71
21
72
22
73
24
0
VERTEX
8
OBJECT__38
10
0
20
0
30
0
70
128
71
23
72
25
73
19
0
VERTEX
8
OBJECT__38
10
0
20
0
30
0
70
128
71
25
72
24
73
19
0
SEQEND
8
OBJECT__38
0
POLYLINE
8
OBJECT__39
66
1
70
64
71
49
72
49
62
253
0
VERTEX
8
OBJECT__39
10
131.255005
20
0.000000
30
283.989014
70
192
0
VERTEX
8
OBJECT__39
10
135.522995
20
7.871000
30
279.692993
70
192
0
VERTEX
8
OBJECT__39
10
135.651993
20
7.952000
30
279.804993
70
192
0
VERTEX
8
OBJECT__39
10
132.218002
20
0.000000
30
276.148010
70
192
0
VERTEX
8
OBJECT__39
10
132.561996
20
2.789000
30
276.536011
70
192
0
VERTEX
8
OBJECT__39
10
133.501999
20
5.240000
30
277.578003
70
192
0
VERTEX
8
OBJECT__39
10
143.632004
20
9.944000
30
285.509003
70
192
0
VERTEX
8
OBJECT__39
10
141.613998
20
10.200000
30
283.536987
70
192
0
VERTEX
8
OBJECT__39
10
143.309998
20
10.057000
30
283.476990
70
192
0
VERTEX
8
OBJECT__39
10
139.126007
20
9.944000
30
284.955994
70
192
0
VERTEX
8
OBJECT__39
10
139.981003
20
10.066000
30
283.084015
70
192
0
VERTEX
8
OBJECT__39
10
135.067001
20
7.975000
30
284.457001
70
192
0
VERTEX
8
OBJECT__39
10
138.268005
20
9.591000
30
282.084991
70
192
0
VERTEX
8
OBJECT__39
10
135.895004
20
8.104000
30
280.016998
70
192
0
VERTEX
8
OBJECT__39
10
150.500000
20
4.426000
30
286.351990
70
192
0
VERTEX
8
OBJECT__39
10
149.184998
20
7.218000
30
280.798004
70
192
0
VERTEX
8
OBJECT__39
10
151.270004
20
4.584000
30
279.446991
70
192
0
VERTEX
8
OBJECT__39
10
148.843002
20
7.518000
30
281.007996
70
192
0
VERTEX
8
OBJECT__39
10
147.901993
20
8.080000
30
281.515991
70
192
0
VERTEX
8
OBJECT__39
10
147.690994
20
7.975000
30
286.006989
70
192
0
VERTEX
8
OBJECT__39
10
145.712006
20
9.386000
30
282.696991
70
192
0
VERTEX
8
OBJECT__39
10
143.889999
20
9.895000
30
283.289001
70
192
0
VERTEX
8
OBJECT__39
10
151.503006
20
0.000000
30
286.475006
70
192
0
VERTEX
8
OBJECT__39
10
151.332001
20
4.418000
30
279.404999
70
192
0
VERTEX
8
OBJECT__39
10
152.253998
20
1.973000
30
278.779999
70
192
0
VERTEX
8
OBJECT__39
10
151.826996
20
-3.392000
30
279.071014
70
192
0
VERTEX
8
OBJECT__39
10
151.279007
20
-4.391000
30
279.437988
70
192
0
VERTEX
8
OBJECT__39
10
152.369003
20
-0.004000
30
278.700012
70
192
0
VERTEX
8
OBJECT__39
10
152.421997
20
-0.902000
30
278.664001
70
192
0
VERTEX
8
OBJECT__39
10
150.500000
20
-4.426000
30
286.351990
70
192
0
VERTEX
8
OBJECT__39
10
147.690994
20
-7.975000
30
286.006989
70
192
0
VERTEX
8
OBJECT__39
10
144.843994
20
-9.694000
30
283.050995
70
192
0
VERTEX
8
OBJECT__39
10
144.335007
20
-9.839000
30
283.223999
70
192
0
VERTEX
8
OBJECT__39
10
147.867996
20
-8.252000
30
281.585999
70
192
0
VERTEX
8
OBJECT__39
10
148.007996
20
-8.117000
30
281.498993
70
192
0
VERTEX
8
OBJECT__39
10
150.582001
20
-5.660000
30
279.903015
70
192
0
VERTEX
8
OBJECT__39
10
143.632004
20
-9.944000
30
285.509003
70
192
0
VERTEX
8
OBJECT__39
10
135.067001
20
-7.975000
30
284.457001
70
192
0
VERTEX
8
OBJECT__39
10
136.126007
20
-8.378000
30
280.277008
70
192
0
VERTEX
8
OBJECT__39
10
135.878006
20
-8.104000
30
280.024994
70
192
0
VERTEX
8
OBJECT__39
10
138.815002
20
-9.784000
30
282.455994
70
192
0
VERTEX
8
OBJECT__39
10
139.126007
20
-9.944000
30
284.955994
70
192
0
VERTEX
8
OBJECT__39
10
140.667999
20
-10.157000
30
283.338013
70
192
0
VERTEX
8
OBJECT__39
10
142.533997
20
-10.156000
30
283.566010
70
192
0
VERTEX
8
OBJECT__39
10
143.897003
20
-9.916000
30
283.307007
70
192
0
VERTEX
8
OBJECT__39
10
133.869995
20
-5.877000
30
277.977997
70
192
0
VERTEX
8
OBJECT__39
10
132.695007
20
-3.271000
30
276.684998
70
192
0
VERTEX
8
OBJECT__39
10
135.699997
20
-7.906000
30
279.843994
70
192
0
VERTEX
8
OBJECT__39
10
132.238007
20
-0.682000
30
276.170990
70
192
0
VERTEX
8
OBJECT__39
10
0
20
0
30
0
70
128
71
1
72
2
73
3
0
VERTEX
8
OBJECT__39
10
0
20
0
30
0
70
128
71
1
72
4
73
5
0
VERTEX
8
OBJECT__39
10
0
20
0
30
0
70
128
71
5
72
6
73
1
0
VERTEX
8
OBJECT__39
10
0
20
0
30
0
70
128
71
6
72
2
73
1
0
VERTEX
8
OBJECT__39
10
0
20
0
30
0
70
128
71
7
72
8
73
9
0
VERTEX
8
OBJECT__39
10
0
20
0
30
0
70
128
71
10
72
11
73
8
0
VERTEX
8
OBJECT__39
10
0
20
0
30
0
70
128
71
10
72
12
73
13
0
VERTEX
8
OBJECT__39
10
0
20
0
30
0
70
128
71
12
72
3
73
14
0
VERTEX
8
OBJECT__39
10
0
20
0
30
0
70
128
71
14
72
13
73
12
0
VERTEX
8
OBJECT__39
10
0
20
0
30
0
70
128
71
13
72
11
73
10
0
VERTEX
8
OBJECT__39
10
0
20
0
30
0
70
128
71
8
72
7
73
10
0
VERTEX
8
OBJECT__39
10
0
20
0
30
0
70
128
71
15
72
16
73
17
0
VERTEX
8
OBJECT__39
10
0
20
0
30
0
70
128
71
15
72
18
73
16
0
VERTEX
8
OBJECT__39
10
0
20
0
30
0
70
128
71
15
72
19
73
18
0
VERTEX
8
OBJECT__39
10
0
20
0
30
0
70
128
71
19
72
15
73
20
0
VERTEX
8
OBJECT__39
10
0
20
0
30
0
70
128
71
20
72
21
73
19
0
VERTEX
8
OBJECT__39
10
0
20
0
30
0
70
128
71
20
72
7
73
22
0
VERTEX
8
OBJECT__39
10
0
20
0
30
0
70
128
71
22
72
21
73
20
0
VERTEX
8
OBJECT__39
10
0
20
0
30
0
70
128
71
23
72
15
73
24
0
VERTEX
8
OBJECT__39
10
0
20
0
30
0
70
128
71
24
72
25
73
23
0
VERTEX
8
OBJECT__39
10
0
20
0
30
0
70
128
71
23
72
26
73
27
0
VERTEX
8
OBJECT__39
10
0
20
0
30
0
70
128
71
23
72
28
73
29
0
VERTEX
8
OBJECT__39
10
0
20
0
30
0
70
128
71
29
72
26
73
23
0
VERTEX
8
OBJECT__39
10
0
20
0
30
0
70
128
71
27
72
30
73
23
0
VERTEX
8
OBJECT__39
10
0
20
0
30
0
70
128
71
31
72
32
73
33
0
VERTEX
8
OBJECT__39
10
0
20
0
30
0
70
128
71
34
72
32
73
31
0
VERTEX
8
OBJECT__39
10
0
20
0
30
0
70
128
71
30
72
35
73
34
0
VERTEX
8
OBJECT__39
10
0
20
0
30
0
70
128
71
30
72
27
73
36
0
VERTEX
8
OBJECT__39
10
0
20
0
30
0
70
128
71
36
72
35
73
30
0
VERTEX
8
OBJECT__39
10
0
20
0
30
0
70
128
71
31
72
30
73
34
0
VERTEX
8
OBJECT__39
10
0
20
0
30
0
70
128
71
33
72
37
73
31
0
VERTEX
8
OBJECT__39
10
0
20
0
30
0
70
128
71
38
72
39
73
40
0
VERTEX
8
OBJECT__39
10
0
20
0
30
0
70
128
71
38
72
41
73
39
0
VERTEX
8
OBJECT__39
10
0
20
0
30
0
70
128
71
42
72
43
73
41
0
VERTEX
8
OBJECT__39
10
0
20
0
30
0
70
128
71
41
72
38
73
42
0
VERTEX
8
OBJECT__39
10
0
20
0
30
0
70
128
71
37
72
44
73
43
0
VERTEX
8
OBJECT__39
10
0
20
0
30
0
70
128
71
43
72
42
73
37
0
VERTEX
8
OBJECT__39
10
0
20
0
30
0
70
128
71
37
72
45
73
44
0
VERTEX
8
OBJECT__39
10
0
20
0
30
0
70
128
71
1
72
46
73
47
0
VERTEX
8
OBJECT__39
10
0
20
0
30
0
70
128
71
1
72
38
73
48
0
VERTEX
8
OBJECT__39
10
0
20
0
30
0
70
128
71
48
72
46
73
1
0
VERTEX
8
OBJECT__39
10
0
20
0
30
0
70
128
71
47
72
49
73
1
0
VERTEX
8
OBJECT__39
10
0
20
0
30
0
70
128
71
49
72
4
73
1
0
VERTEX
8
OBJECT__39
10
0
20
0
30
0
70
128
71
40
72
48
73
38
0
VERTEX
8
OBJECT__39
10
0
20
0
30
0
70
128
71
33
72
45
73
37
0
VERTEX
8
OBJECT__39
10
0
20
0
30
0
70
128
71
25
72
28
73
23
0
VERTEX
8
OBJECT__39
10
0
20
0
30
0
70
128
71
17
72
24
73
15
0
VERTEX
8
OBJECT__39
10
0
20
0
30
0
70
128
71
9
72
22
73
7
0
VERTEX
8
OBJECT__39
10
0
20
0
30
0
70
128
71
3
72
12
73
1
0
SEQEND
8
OBJECT__39
0
POLYLINE
8
OBJECT__41
66
1
70
64
71
63
72
65
62
253
0
VERTEX
8
OBJECT__41
10
157.815994
20
8.132000
30
299.070007
70
192
0
VERTEX
8
OBJECT__41
10
158.807007
20
11.500000
30
290.998993
70
192
0
VERTEX
8
OBJECT__41
10
34.925999
20
11.383000
30
277.437012
70
192
0
VERTEX
8
OBJECT__41
10
34.207001
20
8.691000
30
283.287994
70
192
0
VERTEX
8
OBJECT__41
10
35.118999
20
11.155000
30
275.862000
70
192
0
VERTEX
8
OBJECT__41
10
34.154999
20
8.022000
30
283.713989
70
192
0
VERTEX
8
OBJECT__41
10
33.779999
20
3.240000
30
286.765015
70
192
0
VERTEX
8
OBJECT__41
10
157.406006
20
0.000000
30
302.412994
70
192
0
VERTEX
8
OBJECT__41
10
157.815994
20
-8.132000
30
299.070007
70
192
0
VERTEX
8
OBJECT__41
10
33.779999
20
-3.240000
30
286.765015
70
192
0
VERTEX
8
OBJECT__41
10
33.779999
20
0.000000
30
286.765015
70
192
0
VERTEX
8
OBJECT__41
10
34.207001
20
-8.691000
30
283.287994
70
192
0
VERTEX
8
OBJECT__41
10
34.925999
20
-11.383000
30
277.437012
70
192
0
VERTEX
8
OBJECT__41
10
34.154999
20
-8.022000
30
283.713989
70
192
0
VERTEX
8
OBJECT__41
10
158.807007
20
-11.500000
30
290.998993
70
192
0
VERTEX
8
OBJECT__41
10
36.081001
20
-7.802000
30
268.024994
70
192
0
VERTEX
8
OBJECT__41
10
133.869995
20
-5.877000
30
277.977997
70
192
0
VERTEX
8
OBJECT__41
10
135.699997
20
-7.906000
30
279.843994
70
192
0
VERTEX
8
OBJECT__41
10
36.304001
20
-6.217000
30
266.210999
70
192
0
VERTEX
8
OBJECT__41
10
36.527000
20
0.000000
30
264.398987
70
192
0
VERTEX
8
OBJECT__41
10
132.218002
20
0.000000
30
276.148010
70
192
0
VERTEX
8
OBJECT__41
10
132.238007
20
-0.682000
30
276.170990
70
192
0
VERTEX
8
OBJECT__41
10
132.695007
20
-3.271000
30
276.684998
70
192
0
VERTEX
8
OBJECT__41
10
147.867996
20
-8.252000
30
281.585999
70
192
0
VERTEX
8
OBJECT__41
10
148.007996
20
-8.117000
30
281.498993
70
192
0
VERTEX
8
OBJECT__41
10
142.533997
20
-10.156000
30
283.566010
70
192
0
VERTEX
8
OBJECT__41
10
143.897003
20
-9.916000
30
283.307007
70
192
0
VERTEX
8
OBJECT__41
10
144.335007
20
-9.839000
30
283.223999
70
192
0
VERTEX
8
OBJECT__41
10
144.843994
20
-9.694000
30
283.050995
70
192
0
VERTEX
8
OBJECT__41
10
35.118999
20
-11.155000
30
275.862000
70
192
0
VERTEX
8
OBJECT__41
10
140.667999
20
-10.157000
30
283.338013
70
192
0
VERTEX
8
OBJECT__41
10
35.707001
20
-10.461000
30
271.071014
70
192
0
VERTEX
8
OBJECT__41
10
135.878006
20
-8.104000
30
280.024994
70
192
0
VERTEX
8
OBJECT__41
10
136.126007
20
-8.378000
30
280.277008
70
192
0
VERTEX
8
OBJECT__41
10
138.815002
20
-9.784000
30
282.455994
70
192
0
VERTEX
8
OBJECT__41
10
160.209000
20
0.000000
30
279.584991
70
192
0
VERTEX
8
OBJECT__41
10
159.798004
20
-8.132000
30
282.928009
70
192
0
VERTEX
8
OBJECT__41
10
151.826996
20
-3.392000
30
279.071014
70
192
0
VERTEX
8
OBJECT__41
10
150.582001
20
-5.660000
30
279.903015
70
192
0
VERTEX
8
OBJECT__41
10
151.279007
20
-4.391000
30
279.437988
70
192
0
VERTEX
8
OBJECT__41
10
152.421997
20
-0.902000
30
278.664001
70
192
0
VERTEX
8
OBJECT__41
10
159.798004
20
8.132000
30
282.928009
70
192
0
VERTEX
8
OBJECT__41
10
151.270004
20
4.584000
30
279.446991
70
192
0
VERTEX
8
OBJECT__41
10
149.184998
20
7.218000
30
280.798004
70
192
0
VERTEX
8
OBJECT__41
10
148.843002
20
7.518000
30
281.007996
70
192
0
VERTEX
8
OBJECT__41
10
152.253998
20
1.973000
30
278.779999
70
192
0
VERTEX
8
OBJECT__41
10
151.332001
20
4.418000
30
279.404999
70
192
0
VERTEX
8
OBJECT__41
10
152.369003
20
-0.004000
30
278.700012
70
192
0
VERTEX
8
OBJECT__41
10
35.707001
20
10.461000
30
271.071014
70
192
0
VERTEX
8
OBJECT__41
10
138.268005
20
9.591000
30
282.084991
70
192
0
VERTEX
8
OBJECT__41
10
135.895004
20
8.104000
30
280.016998
70
192
0
VERTEX
8
OBJECT__41
10
36.081001
20
7.802000
30
268.024994
70
192
0
VERTEX
8
OBJECT__41
10
139.981003
20
10.066000
30
283.084015
70
192
0
VERTEX
8
OBJECT__41
10
141.613998
20
10.200000
30
283.536987
70
192
0
VERTEX
8
OBJECT__41
10
145.712006
20
9.386000
30
282.696991
70
192
0
VERTEX
8
OBJECT__41
10
143.889999
20
9.895000
30
283.289001
70
192
0
VERTEX
8
OBJECT__41
10
147.901993
20
8.080000
30
281.515991
70
192
0
VERTEX
8
OBJECT__41
10
143.309998
20
10.057000
30
283.476990
70
192
0
VERTEX
8
OBJECT__41
10
135.522995
20
7.871000
30
279.692993
70
192
0
VERTEX
8
OBJECT__41
10
133.501999
20
5.240000
30
277.578003
70
192
0
VERTEX
8
OBJECT__41
10
132.561996
20
2.789000
30
276.536011
70
192
0
VERTEX
8
OBJECT__41
10
135.651993
20
7.952000
30
279.804993
70
192
0
VERTEX
8
OBJECT__41
10
36.304001
20
6.217000
30
266.210999
70
192
0
VERTEX
8
OBJECT__41
10
0
20
0
30
0
70
128
71
1
72
2
73
3
0
VERTEX
8
OBJECT__41
10
0
20
0
30
0
70
128
71
3
72
4
73
1
0
VERTEX
8
OBJECT__41
10
0
20
0
30
0
70
128
71
2
72
5
73
3
0
VERTEX
8
OBJECT__41
10
0
20
0
30
0
70
128
71
1
72
6
73
7
0
VERTEX
8
OBJECT__41
10
0
20
0
30
0
70
128
71
7
72
8
73
1
0
VERTEX
8
OBJECT__41
10
0
20
0
30
0
70
128
71
9
72
8
73
10
0
VERTEX
8
OBJECT__41
10
0
20
0
30
0
70
128
71
8
72
11
73
10
0
VERTEX
8
OBJECT__41
10
0
20
0
30
0
70
128
71
9
72
12
73
13
0
VERTEX
8
OBJECT__41
10
0
20
0
30
0
70
128
71
9
72
14
73
12
0
VERTEX
8
OBJECT__41
10
0
20
0
30
0
70
128
71
13
72
15
73
9
0
VERTEX
8
OBJECT__41
10
0
20
0
30
0
70
128
71
16
72
17
73
18
0
VERTEX
8
OBJECT__41
10
0
20
0
30
0
70
128
71
19
72
20
73
21
0
VERTEX
8
OBJECT__41
10
0
20
0
30
0
70
128
71
22
72
16
73
19
0
VERTEX
8
OBJECT__41
10
0
20
0
30
0
70
128
71
21
72
22
73
19
0
VERTEX
8
OBJECT__41
10
0
20
0
30
0
70
128
71
22
72
23
73
16
0
VERTEX
8
OBJECT__41
10
0
20
0
30
0
70
128
71
23
72
17
73
16
0
VERTEX
8
OBJECT__41
10
0
20
0
30
0
70
128
71
15
72
24
73
25
0
VERTEX
8
OBJECT__41
10
0
20
0
30
0
70
128
71
15
72
26
73
27
0
VERTEX
8
OBJECT__41
10
0
20
0
30
0
70
128
71
27
72
28
73
15
0
VERTEX
8
OBJECT__41
10
0
20
0
30
0
70
128
71
28
72
29
73
15
0
VERTEX
8
OBJECT__41
10
0
20
0
30
0
70
128
71
29
72
24
73
15
0
VERTEX
8
OBJECT__41
10
0
20
0
30
0
70
128
71
15
72
30
73
31
0
VERTEX
8
OBJECT__41
10
0
20
0
30
0
70
128
71
31
72
26
73
15
0
VERTEX
8
OBJECT__41
10
0
20
0
30
0
70
128
71
32
72
16
73
33
0
VERTEX
8
OBJECT__41
10
0
20
0
30
0
70
128
71
34
72
30
73
32
0
VERTEX
8
OBJECT__41
10
0
20
0
30
0
70
128
71
33
72
34
73
32
0
VERTEX
8
OBJECT__41
10
0
20
0
30
0
70
128
71
34
72
35
73
30
0
VERTEX
8
OBJECT__41
10
0
20
0
30
0
70
128
71
35
72
31
73
30
0
VERTEX
8
OBJECT__41
10
0
20
0
30
0
70
128
71
36
72
37
73
38
0
VERTEX
8
OBJECT__41
10
0
20
0
30
0
70
128
71
37
72
39
73
40
0
VERTEX
8
OBJECT__41
10
0
20
0
30
0
70
128
71
40
72
38
73
37
0
VERTEX
8
OBJECT__41
10
0
20
0
30
0
70
128
71
37
72
25
73
39
0
VERTEX
8
OBJECT__41
10
0
20
0
30
0
70
128
71
38
72
41
73
36
0
VERTEX
8
OBJECT__41
10
0
20
0
30
0
70
128
71
42
72
43
73
44
0
VERTEX
8
OBJECT__41
10
0
20
0
30
0
70
128
71
44
72
45
73
42
0
VERTEX
8
OBJECT__41
10
0
20
0
30
0
70
128
71
42
72
36
73
46
0
VERTEX
8
OBJECT__41
10
0
20
0
30
0
70
128
71
46
72
47
73
42
0
VERTEX
8
OBJECT__41
10
0
20
0
30
0
70
128
71
47
72
43
73
42
0
VERTEX
8
OBJECT__41
10
0
20
0
30
0
70
128
71
36
72
48
73
46
0
VERTEX
8
OBJECT__41
10
0
20
0
30
0
70
128
71
49
72
50
73
51
0
VERTEX
8
OBJECT__41
10
0
20
0
30
0
70
128
71
51
72
52
73
49
0
VERTEX
8
OBJECT__41
10
0
20
0
30
0
70
128
71
5
72
53
73
50
0
VERTEX
8
OBJECT__41
10
0
20
0
30
0
70
128
71
5
72
2
73
54
0
VERTEX
8
OBJECT__41
10
0
20
0
30
0
70
128
71
54
72
53
73
5
0
VERTEX
8
OBJECT__41
10
0
20
0
30
0
70
128
71
2
72
55
73
56
0
VERTEX
8
OBJECT__41
10
0
20
0
30
0
70
128
71
2
72
42
73
57
0
VERTEX
8
OBJECT__41
10
0
20
0
30
0
70
128
71
57
72
55
73
2
0
VERTEX
8
OBJECT__41
10
0
20
0
30
0
70
128
71
56
72
58
73
2
0
VERTEX
8
OBJECT__41
10
0
20
0
30
0
70
128
71
58
72
54
73
2
0
VERTEX
8
OBJECT__41
10
0
20
0
30
0
70
128
71
20
72
59
73
60
0
VERTEX
8
OBJECT__41
10
0
20
0
30
0
70
128
71
60
72
61
73
20
0
VERTEX
8
OBJECT__41
10
0
20
0
30
0
70
128
71
52
72
51
73
62
0
VERTEX
8
OBJECT__41
10
0
20
0
30
0
70
128
71
62
72
63
73
52
0
VERTEX
8
OBJECT__41
10
0
20
0
30
0
70
128
71
62
72
59
73
63
0
VERTEX
8
OBJECT__41
10
0
20
0
30
0
70
128
71
59
72
20
73
63
0
VERTEX
8
OBJECT__41
10
0
20
0
30
0
70
128
71
61
72
21
73
20
0
VERTEX
8
OBJECT__41
10
0
20
0
30
0
70
128
71
49
72
5
73
50
0
VERTEX
8
OBJECT__41
10
0
20
0
30
0
70
128
71
45
72
57
73
42
0
VERTEX
8
OBJECT__41
10
0
20
0
30
0
70
128
71
41
72
48
73
36
0
VERTEX
8
OBJECT__41
10
0
20
0
30
0
70
128
71
25
72
37
73
15
0
VERTEX
8
OBJECT__41
10
0
20
0
30
0
70
128
71
18
72
33
73
16
0
VERTEX
8
OBJECT__41
10
0
20
0
30
0
70
128
71
13
72
30
73
15
0
VERTEX
8
OBJECT__41
10
0
20
0
30
0
70
128
71
10
72
14
73
9
0
VERTEX
8
OBJECT__41
10
0
20
0
30
0
70
128
71
7
72
11
73
8
0
VERTEX
8
OBJECT__41
10
0
20
0
30
0
70
128
71
4
72
6
73
1
0
SEQEND
8
OBJECT__41
0
POLYLINE
8
OBJECT__42
66
1
70
64
71
8
72
6
62
253
0
VERTEX
8
OBJECT__42
10
160.209000
20
0.000000
30
279.584991
70
192
0
VERTEX
8
OBJECT__42
10
158.807007
20
11.500000
30
290.998993
70
192
0
VERTEX
8
OBJECT__42
10
157.815994
20
8.132000
30
299.070007
70
192
0
VERTEX
8
OBJECT__42
10
157.406006
20
0.000000
30
302.412994
70
192
0
VERTEX
8
OBJECT__42
10
157.815994
20
-8.132000
30
299.070007
70
192
0
VERTEX
8
OBJECT__42
10
159.798004
20
8.132000
30
282.928009
70
192
0
VERTEX
8
OBJECT__42
10
158.807007
20
-11.500000
30
290.998993
70
192
0
VERTEX
8
OBJECT__42
10
159.798004
20
-8.132000
30
282.928009
70
192
0
VERTEX
8
OBJECT__42
10
0
20
0
30
0
70
128
71
1
72
2
73
3
0
VERTEX
8
OBJECT__42
10
0
20
0
30
0
70
128
71
1
72
4
73
5
0
VERTEX
8
OBJECT__42
10
0
20
0
30
0
70
128
71
1
72
6
73
2
0
VERTEX
8
OBJECT__42
10
0
20
0
30
0
70
128
71
5
72
7
73
1
0
VERTEX
8
OBJECT__42
10
0
20
0
30
0
70
128
71
7
72
8
73
1
0
VERTEX
8
OBJECT__42
10
0
20
0
30
0
70
128
71
3
72
4
73
1
0
SEQEND
8
OBJECT__42
0
POLYLINE
8
OBJECT__43
66
1
70
64
71
80
72
124
62
253
0
VERTEX
8
OBJECT__43
10
9.674000
20
-6.217000
30
236.110992
70
192
0
VERTEX
8
OBJECT__43
10
11.500000
20
0.000000
30
236.110992
70
192
0
VERTEX
8
OBJECT__43
10
12.688000
20
0.000000
30
244.253006
70
192
0
VERTEX
8
OBJECT__43
10
16.152000
20
0.000000
30
251.716995
70
192
0
VERTEX
8
OBJECT__43
10
14.625000
20
-6.217000
30
252.716003
70
192
0
VERTEX
8
OBJECT__43
10
21.604000
20
0.000000
30
257.878998
70
192
0
VERTEX
8
OBJECT__43
10
20.426001
20
-6.217000
30
259.273987
70
192
0
VERTEX
8
OBJECT__43
10
28.590000
20
0.000000
30
262.226990
70
192
0
VERTEX
8
OBJECT__43
10
27.858999
20
-6.217000
30
263.899994
70
192
0
VERTEX
8
OBJECT__43
10
36.304001
20
-6.217000
30
266.210999
70
192
0
VERTEX
8
OBJECT__43
10
10.938000
20
-6.217000
30
244.774994
70
192
0
VERTEX
8
OBJECT__43
10
6.245000
20
-10.461000
30
246.173996
70
192
0
VERTEX
8
OBJECT__43
10
7.846000
20
-7.802000
30
236.110992
70
192
0
VERTEX
8
OBJECT__43
10
4.777000
20
-10.461000
30
236.110992
70
192
0
VERTEX
8
OBJECT__43
10
10.527000
20
-10.461000
30
255.397995
70
192
0
VERTEX
8
OBJECT__43
10
17.264999
20
-10.461000
30
263.014008
70
192
0
VERTEX
8
OBJECT__43
10
25.899000
20
-10.461000
30
268.388000
70
192
0
VERTEX
8
OBJECT__43
10
36.081001
20
-7.802000
30
268.024994
70
192
0
VERTEX
8
OBJECT__43
10
-0.050000
20
-11.155000
30
236.110992
70
192
0
VERTEX
8
OBJECT__43
10
0.099000
20
-11.383000
30
248.005997
70
192
0
VERTEX
8
OBJECT__43
10
-1.637000
20
-11.383000
30
236.110992
70
192
0
VERTEX
8
OBJECT__43
10
5.160000
20
-11.383000
30
258.910004
70
192
0
VERTEX
8
OBJECT__43
10
13.125000
20
-11.383000
30
267.912994
70
192
0
VERTEX
8
OBJECT__43
10
23.330999
20
-11.383000
30
274.265015
70
192
0
VERTEX
8
OBJECT__43
10
35.118999
20
-11.155000
30
275.862000
70
192
0
VERTEX
8
OBJECT__43
10
35.707001
20
-10.461000
30
271.071014
70
192
0
VERTEX
8
OBJECT__43
10
-7.531000
20
-8.691000
30
236.110992
70
192
0
VERTEX
8
OBJECT__43
10
0.228000
20
-8.691000
30
262.136993
70
192
0
VERTEX
8
OBJECT__43
10
9.321000
20
-8.691000
30
272.415009
70
192
0
VERTEX
8
OBJECT__43
10
20.971001
20
-8.691000
30
279.666992
70
192
0
VERTEX
8
OBJECT__43
10
34.207001
20
-8.691000
30
283.287994
70
192
0
VERTEX
8
OBJECT__43
10
-8.907000
20
-3.240000
30
250.690994
70
192
0
VERTEX
8
OBJECT__43
10
-11.034000
20
-3.240000
30
236.110992
70
192
0
VERTEX
8
OBJECT__43
10
-7.961000
20
-8.022000
30
236.110992
70
192
0
VERTEX
8
OBJECT__43
10
-5.550000
20
-8.691000
30
249.690002
70
192
0
VERTEX
8
OBJECT__43
10
-2.704000
20
-3.240000
30
264.054993
70
192
0
VERTEX
8
OBJECT__43
10
7.060000
20
-3.240000
30
275.091003
70
192
0
VERTEX
8
OBJECT__43
10
19.569000
20
-3.240000
30
282.877014
70
192
0
VERTEX
8
OBJECT__43
10
34.154999
20
-8.022000
30
283.713989
70
192
0
VERTEX
8
OBJECT__43
10
-8.907000
20
3.240000
30
250.690994
70
192
0
VERTEX
8
OBJECT__43
10
-11.034000
20
0.000000
30
236.110992
70
192
0
VERTEX
8
OBJECT__43
10
-11.034000
20
3.240000
30
236.110992
70
192
0
VERTEX
8
OBJECT__43
10
-2.704000
20
3.240000
30
264.054993
70
192
0
VERTEX
8
OBJECT__43
10
7.060000
20
3.240000
30
275.091003
70
192
0
VERTEX
8
OBJECT__43
10
19.569000
20
3.240000
30
282.877014
70
192
0
VERTEX
8
OBJECT__43
10
33.779999
20
-3.240000
30
286.765015
70
192
0
VERTEX
8
OBJECT__43
10
33.779999
20
0.000000
30
286.765015
70
192
0
VERTEX
8
OBJECT__43
10
-5.550000
20
8.691000
30
249.690002
70
192
0
VERTEX
8
OBJECT__43
10
-7.961000
20
8.022000
30
236.110992
70
192
0
VERTEX
8
OBJECT__43
10
-7.531000
20
8.691000
30
236.110992
70
192
0
VERTEX
8
OBJECT__43
10
0.228000
20
8.691000
30
262.136993
70
192
0
VERTEX
8
OBJECT__43
10
9.321000
20
8.691000
30
272.415009
70
192
0
VERTEX
8
OBJECT__43
10
20.971001
20
8.691000
30
279.666992
70
192
0
VERTEX
8
OBJECT__43
10
33.779999
20
3.240000
30
286.765015
70
192
0
VERTEX
8
OBJECT__43
10
34.154999
20
8.022000
30
283.713989
70
192
0
VERTEX
8
OBJECT__43
10
0.099000
20
11.383000
30
248.005997
70
192
0
VERTEX
8
OBJECT__43
10
5.160000
20
11.383000
30
258.910004
70
192
0
VERTEX
8
OBJECT__43
10
13.125000
20
11.383000
30
267.912994
70
192
0
VERTEX
8
OBJECT__43
10
23.330999
20
11.383000
30
274.265015
70
192
0
VERTEX
8
OBJECT__43
10
34.207001
20
8.691000
30
283.287994
70
192
0
VERTEX
8
OBJECT__43
10
34.925999
20
11.383000
30
277.437012
70
192
0
VERTEX
8
OBJECT__43
10
-0.050000
20
11.155000
30
236.110992
70
192
0
VERTEX
8
OBJECT__43
10
6.245000
20
10.461000
30
246.173996
70
192
0
VERTEX
8
OBJECT__43
10
4.777000
20
10.461000
30
236.110992
70
192
0
VERTEX
8
OBJECT__43
10
10.527000
20
10.461000
30
255.397995
70
192
0
VERTEX
8
OBJECT__43
10
17.264999
20
10.461000
30
263.014008
70
192
0
VERTEX
8
OBJECT__43
10
25.899000
20
10.461000
30
268.388000
70
192
0
VERTEX
8
OBJECT__43
10
35.118999
20
11.155000
30
275.862000
70
192
0
VERTEX
8
OBJECT__43
10
35.707001
20
10.461000
30
271.071014
70
192
0
VERTEX
8
OBJECT__43
10
10.938000
20
6.217000
30
244.774994
70
192
0
VERTEX
8
OBJECT__43
10
9.674000
20
6.217000
30
236.110992
70
192
0
VERTEX
8
OBJECT__43
10
7.846000
20
7.802000
30
236.110992
70
192
0
VERTEX
8
OBJECT__43
10
14.625000
20
6.217000
30
252.716003
70
192
0
VERTEX
8
OBJECT__43
10
20.426001
20
6.217000
30
259.273987
70
192
0
VERTEX
8
OBJECT__43
10
27.858999
20
6.217000
30
263.899994
70
192
0
VERTEX
8
OBJECT__43
10
36.081001
20
7.802000
30
268.024994
70
192
0
VERTEX
8
OBJECT__43
10
36.304001
20
6.217000
30
266.210999
70
192
0
VERTEX
8
OBJECT__43
10
36.527000
20
0.000000
30
264.398987
70
192
0
VERTEX
8
OBJECT__43
10
-1.637000
20
11.383000
30
236.110992
70
192
0
VERTEX
8
OBJECT__43
10
34.925999
20
-11.383000
30
277.437012
70
192
0
VERTEX
8
OBJECT__43
10
0
20
0
30
0
70
128
71
1
72
2
73
3
0
VERTEX
8
OBJECT__43
10
0
20
0
30
0
70
128
71
3
72
4
73
5
0
VERTEX
8
OBJECT__43
10
0
20
0
30
0
70
128
71
4
72
6
73
7
0
VERTEX
8
OBJECT__43
10
0
20
0
30
0
70
128
71
6
72
8
73
9
0
VERTEX
8
OBJECT__43
10
0
20
0
30
0
70
128
71
10
72
9
73
8
0
VERTEX
8
OBJECT__43
10
0
20
0
30
0
70
128
71
11
72
12
73
13
0
VERTEX
8
OBJECT__43
10
0
20
0
30
0
70
128
71
12
72
14
73
13
0
VERTEX
8
OBJECT__43
10
0
20
0
30
0
70
128
71
11
72
5
73
15
0
VERTEX
8
OBJECT__43
10
0
20
0
30
0
70
128
71
5
72
7
73
16
0
VERTEX
8
OBJECT__43
10
0
20
0
30
0
70
128
71
7
72
9
73
17
0
VERTEX
8
OBJECT__43
10
0
20
0
30
0
70
128
71
9
72
10
73
18
0
VERTEX
8
OBJECT__43
10
0
20
0
30
0
70
128
71
18
72
17
73
9
0
VERTEX
8
OBJECT__43
10
0
20
0
30
0
70
128
71
19
72
14
73
12
0
VERTEX
8
OBJECT__43
10
0
20
0
30
0
70
128
71
20
72
21
73
19
0
VERTEX
8
OBJECT__43
10
0
20
0
30
0
70
128
71
12
72
15
73
22
0
VERTEX
8
OBJECT__43
10
0
20
0
30
0
70
128
71
15
72
16
73
23
0
VERTEX
8
OBJECT__43
10
0
20
0
30
0
70
128
71
16
72
17
73
24
0
VERTEX
8
OBJECT__43
10
0
20
0
30
0
70
128
71
25
72
24
73
17
0
VERTEX
8
OBJECT__43
10
0
20
0
30
0
70
128
71
17
72
26
73
25
0
VERTEX
8
OBJECT__43
10
0
20
0
30
0
70
128
71
27
72
21
73
20
0
VERTEX
8
OBJECT__43
10
0
20
0
30
0
70
128
71
20
72
22
73
28
0
VERTEX
8
OBJECT__43
10
0
20
0
30
0
70
128
71
22
72
23
73
29
0
VERTEX
8
OBJECT__43
10
0
20
0
30
0
70
128
71
23
72
24
73
30
0
VERTEX
8
OBJECT__43
10
0
20
0
30
0
70
128
71
31
72
30
73
24
0
VERTEX
8
OBJECT__43
10
0
20
0
30
0
70
128
71
32
72
33
73
34
0
VERTEX
8
OBJECT__43
10
0
20
0
30
0
70
128
71
34
72
35
73
32
0
VERTEX
8
OBJECT__43
10
0
20
0
30
0
70
128
71
35
72
28
73
36
0
VERTEX
8
OBJECT__43
10
0
20
0
30
0
70
128
71
28
72
29
73
37
0
VERTEX
8
OBJECT__43
10
0
20
0
30
0
70
128
71
29
72
30
73
38
0
VERTEX
8
OBJECT__43
10
0
20
0
30
0
70
128
71
38
72
30
73
39
0
VERTEX
8
OBJECT__43
10
0
20
0
30
0
70
128
71
30
72
31
73
39
0
VERTEX
8
OBJECT__43
10
0
20
0
30
0
70
128
71
32
72
40
73
41
0
VERTEX
8
OBJECT__43
10
0
20
0
30
0
70
128
71
40
72
42
73
41
0
VERTEX
8
OBJECT__43
10
0
20
0
30
0
70
128
71
32
72
36
73
43
0
VERTEX
8
OBJECT__43
10
0
20
0
30
0
70
128
71
36
72
37
73
44
0
VERTEX
8
OBJECT__43
10
0
20
0
30
0
70
128
71
37
72
38
73
45
0
VERTEX
8
OBJECT__43
10
0
20
0
30
0
70
128
71
38
72
46
73
47
0
VERTEX
8
OBJECT__43
10
0
20
0
30
0
70
128
71
47
72
45
73
38
0
VERTEX
8
OBJECT__43
10
0
20
0
30
0
70
128
71
40
72
48
73
49
0
VERTEX
8
OBJECT__43
10
0
20
0
30
0
70
128
71
48
72
50
73
49
0
VERTEX
8
OBJECT__43
10
0
20
0
30
0
70
128
71
40
72
43
73
51
0
VERTEX
8
OBJECT__43
10
0
20
0
30
0
70
128
71
43
72
44
73
52
0
VERTEX
8
OBJECT__43
10
0
20
0
30
0
70
128
71
44
72
45
73
53
0
VERTEX
8
OBJECT__43
10
0
20
0
30
0
70
128
71
45
72
54
73
55
0
VERTEX
8
OBJECT__43
10
0
20
0
30
0
70
128
71
55
72
53
73
45
0
VERTEX
8
OBJECT__43
10
0
20
0
30
0
70
128
71
50
72
48
73
56
0
VERTEX
8
OBJECT__43
10
0
20
0
30
0
70
128
71
48
72
51
73
57
0
VERTEX
8
OBJECT__43
10
0
20
0
30
0
70
128
71
51
72
52
73
58
0
VERTEX
8
OBJECT__43
10
0
20
0
30
0
70
128
71
52
72
53
73
59
0
VERTEX
8
OBJECT__43
10
0
20
0
30
0
70
128
71
53
72
60
73
61
0
VERTEX
8
OBJECT__43
10
0
20
0
30
0
70
128
71
62
72
56
73
63
0
VERTEX
8
OBJECT__43
10
0
20
0
30
0
70
128
71
63
72
64
73
62
0
VERTEX
8
OBJECT__43
10
0
20
0
30
0
70
128
71
56
72
57
73
65
0
VERTEX
8
OBJECT__43
10
0
20
0
30
0
70
128
71
57
72
58
73
66
0
VERTEX
8
OBJECT__43
10
0
20
0
30
0
70
128
71
58
72
59
73
67
0
VERTEX
8
OBJECT__43
10
0
20
0
30
0
70
128
71
68
72
69
73
67
0
VERTEX
8
OBJECT__43
10
0
20
0
30
0
70
128
71
59
72
61
73
68
0
VERTEX
8
OBJECT__43
10
0
20
0
30
0
70
128
71
70
72
71
73
72
0
VERTEX
8
OBJECT__43
10
0
20
0
30
0
70
128
71
72
72
63
73
70
0
VERTEX
8
OBJECT__43
10
0
20
0
30
0
70
128
71
63
72
65
73
73
0
VERTEX
8
OBJECT__43
10
0
20
0
30
0
70
128
71
65
72
66
73
74
0
VERTEX
8
OBJECT__43
10
0
20
0
30
0
70
128
71
66
72
67
73
75
0
VERTEX
8
OBJECT__43
10
0
20
0
30
0
70
128
71
75
72
67
73
76
0
VERTEX
8
OBJECT__43
10
0
20
0
30
0
70
128
71
67
72
69
73
76
0
VERTEX
8
OBJECT__43
10
0
20
0
30
0
70
128
71
71
72
70
73
3
0
VERTEX
8
OBJECT__43
10
0
20
0
30
0
70
128
71
70
72
73
73
4
0
VERTEX
8
OBJECT__43
10
0
20
0
30
0
70
128
71
73
72
74
73
6
0
VERTEX
8
OBJECT__43
10
0
20
0
30
0
70
128
71
74
72
75
73
8
0
VERTEX
8
OBJECT__43
10
0
20
0
30
0
70
128
71
77
72
78
73
8
0
VERTEX
8
OBJECT__43
10
0
20
0
30
0
70
128
71
8
72
75
73
77
0
VERTEX
8
OBJECT__43
10
0
20
0
30
0
70
128
71
8
72
6
73
74
0
VERTEX
8
OBJECT__43
10
0
20
0
30
0
70
128
71
6
72
4
73
73
0
VERTEX
8
OBJECT__43
10
0
20
0
30
0
70
128
71
4
72
3
73
70
0
VERTEX
8
OBJECT__43
10
0
20
0
30
0
70
128
71
3
72
2
73
71
0
VERTEX
8
OBJECT__43
10
0
20
0
30
0
70
128
71
76
72
77
73
75
0
VERTEX
8
OBJECT__43
10
0
20
0
30
0
70
128
71
75
72
74
73
66
0
VERTEX
8
OBJECT__43
10
0
20
0
30
0
70
128
71
74
72
73
73
65
0
VERTEX
8
OBJECT__43
10
0
20
0
30
0
70
128
71
73
72
70
73
63
0
VERTEX
8
OBJECT__43
10
0
20
0
30
0
70
128
71
72
72
64
73
63
0
VERTEX
8
OBJECT__43
10
0
20
0
30
0
70
128
71
67
72
59
73
68
0
VERTEX
8
OBJECT__43
10
0
20
0
30
0
70
128
71
67
72
66
73
58
0
VERTEX
8
OBJECT__43
10
0
20
0
30
0
70
128
71
66
72
65
73
57
0
VERTEX
8
OBJECT__43
10
0
20
0
30
0
70
128
71
65
72
63
73
56
0
VERTEX
8
OBJECT__43
10
0
20
0
30
0
70
128
71
62
72
79
73
56
0
VERTEX
8
OBJECT__43
10
0
20
0
30
0
70
128
71
61
72
59
73
53
0
VERTEX
8
OBJECT__43
10
0
20
0
30
0
70
128
71
59
72
58
73
52
0
VERTEX
8
OBJECT__43
10
0
20
0
30
0
70
128
71
58
72
57
73
51
0
VERTEX
8
OBJECT__43
10
0
20
0
30
0
70
128
71
57
72
56
73
48
0
VERTEX
8
OBJECT__43
10
0
20
0
30
0
70
128
71
56
72
79
73
50
0
VERTEX
8
OBJECT__43
10
0
20
0
30
0
70
128
71
55
72
60
73
53
0
VERTEX
8
OBJECT__43
10
0
20
0
30
0
70
128
71
53
72
52
73
44
0
VERTEX
8
OBJECT__43
10
0
20
0
30
0
70
128
71
52
72
51
73
43
0
VERTEX
8
OBJECT__43
10
0
20
0
30
0
70
128
71
51
72
48
73
40
0
VERTEX
8
OBJECT__43
10
0
20
0
30
0
70
128
71
49
72
42
73
40
0
VERTEX
8
OBJECT__43
10
0
20
0
30
0
70
128
71
47
72
54
73
45
0
VERTEX
8
OBJECT__43
10
0
20
0
30
0
70
128
71
45
72
44
73
37
0
VERTEX
8
OBJECT__43
10
0
20
0
30
0
70
128
71
44
72
43
73
36
0
VERTEX
8
OBJECT__43
10
0
20
0
30
0
70
128
71
43
72
40
73
32
0
VERTEX
8
OBJECT__43
10
0
20
0
30
0
70
128
71
41
72
33
73
32
0
VERTEX
8
OBJECT__43
10
0
20
0
30
0
70
128
71
39
72
46
73
38
0
VERTEX
8
OBJECT__43
10
0
20
0
30
0
70
128
71
38
72
37
73
29
0
VERTEX
8
OBJECT__43
10
0
20
0
30
0
70
128
71
37
72
36
73
28
0
VERTEX
8
OBJECT__43
10
0
20
0
30
0
70
128
71
36
72
32
73
35
0
VERTEX
8
OBJECT__43
10
0
20
0
30
0
70
128
71
34
72
27
73
35
0
VERTEX
8
OBJECT__43
10
0
20
0
30
0
70
128
71
24
72
80
73
31
0
VERTEX
8
OBJECT__43
10
0
20
0
30
0
70
128
71
30
72
29
73
23
0
VERTEX
8
OBJECT__43
10
0
20
0
30
0
70
128
71
29
72
28
73
22
0
VERTEX
8
OBJECT__43
10
0
20
0
30
0
70
128
71
28
72
35
73
20
0
VERTEX
8
OBJECT__43
10
0
20
0
30
0
70
128
71
20
72
35
73
27
0
VERTEX
8
OBJECT__43
10
0
20
0
30
0
70
128
71
25
72
80
73
24
0
VERTEX
8
OBJECT__43
10
0
20
0
30
0
70
128
71
24
72
23
73
16
0
VERTEX
8
OBJECT__43
10
0
20
0
30
0
70
128
71
23
72
22
73
15
0
VERTEX
8
OBJECT__43
10
0
20
0
30
0
70
128
71
22
72
20
73
12
0
VERTEX
8
OBJECT__43
10
0
20
0
30
0
70
128
71
12
72
20
73
19
0
VERTEX
8
OBJECT__43
10
0
20
0
30
0
70
128
71
18
72
26
73
17
0
VERTEX
8
OBJECT__43
10
0
20
0
30
0
70
128
71
17
72
16
73
7
0
VERTEX
8
OBJECT__43
10
0
20
0
30
0
70
128
71
16
72
15
73
5
0
VERTEX
8
OBJECT__43
10
0
20
0
30
0
70
128
71
15
72
12
73
11
0
VERTEX
8
OBJECT__43
10
0
20
0
30
0
70
128
71
13
72
1
73
11
0
VERTEX
8
OBJECT__43
10
0
20
0
30
0
70
128
71
8
72
78
73
10
0
VERTEX
8
OBJECT__43
10
0
20
0
30
0
70
128
71
9
72
7
73
6
0
VERTEX
8
OBJECT__43
10
0
20
0
30
0
70
128
71
7
72
5
73
4
0
VERTEX
8
OBJECT__43
10
0
20
0
30
0
70
128
71
5
72
11
73
3
0
VERTEX
8
OBJECT__43
10
0
20
0
30
0
70
128
71
3
72
11
73
1
0
SEQEND
8
OBJECT__43
0
POLYLINE
8
OBJECT__44
66
1
70
64
71
26
72
26
62
253
0
VERTEX
8
OBJECT__44
10
11.500000
20
0.000000
30
119.500000
70
192
0
VERTEX
8
OBJECT__44
10
8.132000
20
8.132000
30
119.500000
70
192
0
VERTEX
8
OBJECT__44
10
9.674000
20
6.217000
30
236.110992
70
192
0
VERTEX
8
OBJECT__44
10
7.846000
20
7.802000
30
236.110992
70
192
0
VERTEX
8
OBJECT__44
10
0.000000
20
11.500000
30
119.500000
70
192
0
VERTEX
8
OBJECT__44
10
-0.050000
20
11.155000
30
236.110992
70
192
0
VERTEX
8
OBJECT__44
10
4.777000
20
10.461000
30
236.110992
70
192
0
VERTEX
8
OBJECT__44
10
-8.132000
20
8.132000
30
119.500000
70
192
0
VERTEX
8
OBJECT__44
10
-7.531000
20
8.691000
30
236.110992
70
192
0
VERTEX
8
OBJECT__44
10
-1.637000
20
11.383000
30
236.110992
70
192
0
VERTEX
8
OBJECT__44
10
-7.961000
20
8.022000
30
236.110992
70
192
0
VERTEX
8
OBJECT__44
10
-11.500000
20
0.000000
30
119.500000
70
192
0
VERTEX
8
OBJECT__44
10
-11.034000
20
3.240000
30
236.110992
70
192
0
VERTEX
8
OBJECT__44
10
-11.034000
20
0.000000
30
236.110992
70
192
0
VERTEX
8
OBJECT__44
10
-8.132000
20
-8.132000
30
119.500000
70
192
0
VERTEX
8
OBJECT__44
10
-7.961000
20
-8.022000
30
236.110992
70
192
0
VERTEX
8
OBJECT__44
10
-11.034000
20
-3.240000
30
236.110992
70
192
0
VERTEX
8
OBJECT__44
10
0.000000
20
-11.500000
30
119.500000
70
192
0
VERTEX
8
OBJECT__44
10
-1.637000
20
-11.383000
30
236.110992
70
192
0
VERTEX
8
OBJECT__44
10
-7.531000
20
-8.691000
30
236.110992
70
192
0
VERTEX
8
OBJECT__44
10
-0.050000
20
-11.155000
30
236.110992
70
192
0
VERTEX
8
OBJECT__44
10
8.132000
20
-8.132000
30
119.500000
70
192
0
VERTEX
8
OBJECT__44
10
4.777000
20
-10.461000
30
236.110992
70
192
0
VERTEX
8
OBJECT__44
10
7.846000
20
-7.802000
30
236.110992
70
192
0
VERTEX
8
OBJECT__44
10
11.500000
20
0.000000
30
236.110992
70
192
0
VERTEX
8
OBJECT__44
10
9.674000
20
-6.217000
30
236.110992
70
192
0
VERTEX
8
OBJECT__44
10
0
20
0
30
0
70
128
71
1
72
2
73
3
0
VERTEX
8
OBJECT__44
10
0
20
0
30
0
70
128
71
2
72
4
73
3
0
VERTEX
8
OBJECT__44
10
0
20
0
30
0
70
128
71
5
72
6
73
7
0
VERTEX
8
OBJECT__44
10
0
20
0
30
0
70
128
71
7
72
2
73
5
0
VERTEX
8
OBJECT__44
10
0
20
0
30
0
70
128
71
8
72
9
73
10
0
VERTEX
8
OBJECT__44
10
0
20
0
30
0
70
128
71
10
72
5
73
8
0
VERTEX
8
OBJECT__44
10
0
20
0
30
0
70
128
71
8
72
11
73
9
0
VERTEX
8
OBJECT__44
10
0
20
0
30
0
70
128
71
8
72
12
73
13
0
VERTEX
8
OBJECT__44
10
0
20
0
30
0
70
128
71
12
72
14
73
13
0
VERTEX
8
OBJECT__44
10
0
20
0
30
0
70
128
71
15
72
16
73
17
0
VERTEX
8
OBJECT__44
10
0
20
0
30
0
70
128
71
17
72
12
73
15
0
VERTEX
8
OBJECT__44
10
0
20
0
30
0
70
128
71
15
72
18
73
19
0
VERTEX
8
OBJECT__44
10
0
20
0
30
0
70
128
71
19
72
20
73
15
0
VERTEX
8
OBJECT__44
10
0
20
0
30
0
70
128
71
18
72
21
73
19
0
VERTEX
8
OBJECT__44
10
0
20
0
30
0
70
128
71
18
72
22
73
23
0
VERTEX
8
OBJECT__44
10
0
20
0
30
0
70
128
71
22
72
24
73
23
0
VERTEX
8
OBJECT__44
10
0
20
0
30
0
70
128
71
1
72
25
73
26
0
VERTEX
8
OBJECT__44
10
0
20
0
30
0
70
128
71
26
72
22
73
1
0
VERTEX
8
OBJECT__44
10
0
20
0
30
0
70
128
71
26
72
24
73
22
0
VERTEX
8
OBJECT__44
10
0
20
0
30
0
70
128
71
23
72
21
73
18
0
VERTEX
8
OBJECT__44
10
0
20
0
30
0
70
128
71
20
72
16
73
15
0
VERTEX
8
OBJECT__44
10
0
20
0
30
0
70
128
71
17
72
14
73
12
0
VERTEX
8
OBJECT__44
10
0
20
0
30
0
70
128
71
13
72
11
73
8
0
VERTEX
8
OBJECT__44
10
0
20
0
30
0
70
128
71
10
72
6
73
5
0
VERTEX
8
OBJECT__44
10
0
20
0
30
0
70
128
71
7
72
4
73
2
0
VERTEX
8
OBJECT__44
10
0
20
0
30
0
70
128
71
3
72
25
73
1
0
SEQEND
8
OBJECT__44
0
POLYLINE
8
OBJECT__45
66
1
70
64
71
16
72
16
62
253
0
VERTEX
8
OBJECT__45
10
0.000000
20
-11.500000
30
118.849998
70
192
0
VERTEX
8
OBJECT__45
10
0.000000
20
-10.850000
30
119.500000
70
192
0
VERTEX
8
OBJECT__45
10
-7.672000
20
-7.672000
30
119.500000
70
192
0
VERTEX
8
OBJECT__45
10
-8.132000
20
-8.132000
30
118.849998
70
192
0
VERTEX
8
OBJECT__45
10
-10.850000
20
0.000000
30
119.500000
70
192
0
VERTEX
8
OBJECT__45
10
-8.132000
20
8.132000
30
118.849998
70
192
0
VERTEX
8
OBJECT__45
10
-11.500000
20
0.000000
30
118.849998
70
192
0
VERTEX
8
OBJECT__45
10
-7.672000
20
7.672000
30
119.500000
70
192
0
VERTEX
8
OBJECT__45
10
0.000000
20
10.850000
30
119.500000
70
192
0
VERTEX
8
OBJECT__45
10
0.000000
20
11.500000
30
118.849998
70
192
0
VERTEX
8
OBJECT__45
10
7.672000
20
7.672000
30
119.500000
70
192
0
VERTEX
8
OBJECT__45
10
8.132000
20
8.132000
30
118.849998
70
192
0
VERTEX
8
OBJECT__45
10
10.850000
20
0.000000
30
119.500000
70
192
0
VERTEX
8
OBJECT__45
10
11.500000
20
0.000000
30
118.849998
70
192
0
VERTEX
8
OBJECT__45
10
7.672000
20
-7.672000
30
119.500000
70
192
0
VERTEX
8
OBJECT__45
10
8.132000
20
-8.132000
30
118.849998
70
192
0
VERTEX
8
OBJECT__45
10
0
20
0
30
0
70
128
71
1
72
2
73
3
0
VERTEX
8
OBJECT__45
10
0
20
0
30
0
70
128
71
4
72
3
73
5
0
VERTEX
8
OBJECT__45
10
0
20
0
30
0
70
128
71
6
72
7
73
5
0
VERTEX
8
OBJECT__45
10
0
20
0
30
0
70
128
71
6
72
8
73
9
0
VERTEX
8
OBJECT__45
10
0
20
0
30
0
70
128
71
10
72
9
73
11
0
VERTEX
8
OBJECT__45
10
0
20
0
30
0
70
128
71
12
72
11
73
13
0
VERTEX
8
OBJECT__45
10
0
20
0
30
0
70
128
71
14
72
13
73
15
0
VERTEX
8
OBJECT__45
10
0
20
0
30
0
70
128
71
16
72
15
73
2
0
VERTEX
8
OBJECT__45
10
0
20
0
30
0
70
128
71
2
72
1
73
16
0
VERTEX
8
OBJECT__45
10
0
20
0
30
0
70
128
71
15
72
16
73
14
0
VERTEX
8
OBJECT__45
10
0
20
0
30
0
70
128
71
13
72
14
73
12
0
VERTEX
8
OBJECT__45
10
0
20
0
30
0
70
128
71
11
72
12
73
10
0
VERTEX
8
OBJECT__45
10
0
20
0
30
0
70
128
71
9
72
10
73
6
0
VERTEX
8
OBJECT__45
10
0
20
0
30
0
70
128
71
5
72
8
73
6
0
VERTEX
8
OBJECT__45
10
0
20
0
30
0
70
128
71
5
72
7
73
4
0
VERTEX
8
OBJECT__45
10
0
20
0
30
0
70
128
71
3
72
4
73
1
0
SEQEND
8
OBJECT__45
0
POLYLINE
8
OBJECT__46
66
1
70
64
71
16
72
16
62
253
0
VERTEX
8
OBJECT__46
10
-8.132000
20
8.132000
30
118.500000
70
192
0
VERTEX
8
OBJECT__46
10
-8.132000
20
8.132000
30
118.849998
70
192
0
VERTEX
8
OBJECT__46
10
0.000000
20
11.500000
30
118.849998
70
192
0
VERTEX
8
OBJECT__46
10
-11.500000
20
0.000000
30
118.500000
70
192
0
VERTEX
8
OBJECT__46
10
-11.500000
20
0.000000
30
118.849998
70
192
0
VERTEX
8
OBJECT__46
10
-8.132000
20
-8.132000
30
118.500000
70
192
0
VERTEX
8
OBJECT__46
10
-8.132000
20
-8.132000
30
118.849998
70
192
0
VERTEX
8
OBJECT__46
10
0.000000
20
-11.500000
30
118.500000
70
192
0
VERTEX
8
OBJECT__46
10
0.000000
20
-11.500000
30
118.849998
70
192
0
VERTEX
8
OBJECT__46
10
8.132000
20
-8.132000
30
118.500000
70
192
0
VERTEX
8
OBJECT__46
10
8.132000
20
-8.132000
30
118.849998
70
192
0
VERTEX
8
OBJECT__46
10
11.500000
20
0.000000
30
118.500000
70
192
0
VERTEX
8
OBJECT__46
10
11.500000
20
0.000000
30
118.849998
70
192
0
VERTEX
8
OBJECT__46
10
8.132000
20
8.132000
30
118.500000
70
192
0
VERTEX
8
OBJECT__46
10
8.132000
20
8.132000
30
118.849998
70
192
0
VERTEX
8
OBJECT__46
10
0.000000
20
11.500000
30
118.500000
70
192
0
VERTEX
8
OBJECT__46
10
0
20
0
30
0
70
128
71
1
72
2
73
3
0
VERTEX
8
OBJECT__46
10
0
20
0
30
0
70
128
71
4
72
5
73
2
0
VERTEX
8
OBJECT__46
10
0
20
0
30
0
70
128
71
6
72
7
73
5
0
VERTEX
8
OBJECT__46
10
0
20
0
30
0
70
128
71
8
72
9
73
7
0
VERTEX
8
OBJECT__46
10
0
20
0
30
0
70
128
71
10
72
11
73
9
0
VERTEX
8
OBJECT__46
10
0
20
0
30
0
70
128
71
12
72
13
73
11
0
VERTEX
8
OBJECT__46
10
0
20
0
30
0
70
128
71
14
72
15
73
13
0
VERTEX
8
OBJECT__46
10
0
20
0
30
0
70
128
71
16
72
3
73
15
0
VERTEX
8
OBJECT__46
10
0
20
0
30
0
70
128
71
15
72
14
73
16
0
VERTEX
8
OBJECT__46
10
0
20
0
30
0
70
128
71
13
72
12
73
14
0
VERTEX
8
OBJECT__46
10
0
20
0
30
0
70
128
71
11
72
10
73
12
0
VERTEX
8
OBJECT__46
10
0
20
0
30
0
70
128
71
9
72
8
73
10
0
VERTEX
8
OBJECT__46
10
0
20
0
30
0
70
128
71
7
72
6
73
8
0
VERTEX
8
OBJECT__46
10
0
20
0
30
0
70
128
71
5
72
4
73
6
0
VERTEX
8
OBJECT__46
10
0
20
0
30
0
70
128
71
2
72
1
73
4
0
VERTEX
8
OBJECT__46
10
0
20
0
30
0
70
128
71
3
72
16
73
1
0
SEQEND
8
OBJECT__46
0
POLYLINE
8
OBJECT__48
66
1
70
64
71
17
72
17
62
253
0
VERTEX
8
OBJECT__48
10
-14.772000
20
2.605000
30
118.500000
70
192
0
VERTEX
8
OBJECT__48
10
-11.500000
20
0.000000
30
118.500000
70
192
0
VERTEX
8
OBJECT__48
10
-8.132000
20
8.132000
30
118.500000
70
192
0
VERTEX
8
OBJECT__48
10
-12.990000
20
-7.500000
30
118.500000
70
192
0
VERTEX
8
OBJECT__48
10
-8.132000
20
-8.132000
30
118.500000
70
192
0
VERTEX
8
OBJECT__48
10
-9.642000
20
11.491000
30
118.500000
70
192
0
VERTEX
8
OBJECT__48
10
0.000000
20
11.500000
30
118.500000
70
192
0
VERTEX
8
OBJECT__48
10
-5.130000
20
-14.095000
30
118.500000
70
192
0
VERTEX
8
OBJECT__48
10
0.000000
20
-11.500000
30
118.500000
70
192
0
VERTEX
8
OBJECT__48
10
5.130000
20
-14.095000
30
118.500000
70
192
0
VERTEX
8
OBJECT__48
10
12.990000
20
-7.500000
30
118.500000
70
192
0
VERTEX
8
OBJECT__48
10
8.132000
20
-8.132000
30
118.500000
70
192
0
VERTEX
8
OBJECT__48
10
14.772000
20
2.605000
30
118.500000
70
192
0
VERTEX
8
OBJECT__48
10
9.642000
20
11.491000
30
118.500000
70
192
0
VERTEX
8
OBJECT__48
10
8.132000
20
8.132000
30
118.500000
70
192
0
VERTEX
8
OBJECT__48
10
0.000000
20
15.000000
30
118.500000
70
192
0
VERTEX
8
OBJECT__48
10
11.500000
20
0.000000
30
118.500000
70
192
0
VERTEX
8
OBJECT__48
10
0
20
0
30
0
70
128
71
1
72
2
73
3
0
VERTEX
8
OBJECT__48
10
0
20
0
30
0
70
128
71
4
72
5
73
2
0
VERTEX
8
OBJECT__48
10
0
20
0
30
0
70
128
71
6
72
3
73
7
0
VERTEX
8
OBJECT__48
10
0
20
0
30
0
70
128
71
2
72
1
73
4
0
VERTEX
8
OBJECT__48
10
0
20
0
30
0
70
128
71
8
72
9
73
5
0
VERTEX
8
OBJECT__48
10
0
20
0
30
0
70
128
71
3
72
6
73
1
0
VERTEX
8
OBJECT__48
10
0
20
0
30
0
70
128
71
8
72
10
73
9
0
VERTEX
8
OBJECT__48
10
0
20
0
30
0
70
128
71
5
72
4
73
8
0
VERTEX
8
OBJECT__48
10
0
20
0
30
0
70
128
71
10
72
11
73
12
0
VERTEX
8
OBJECT__48
10
0
20
0
30
0
70
128
71
13
72
14
73
15
0
VERTEX
8
OBJECT__48
10
0
20
0
30
0
70
128
71
14
72
16
73
7
0
VERTEX
8
OBJECT__48
10
0
20
0
30
0
70
128
71
12
72
9
73
10
0
VERTEX
8
OBJECT__48
10
0
20
0
30
0
70
128
71
11
72
13
73
17
0
VERTEX
8
OBJECT__48
10
0
20
0
30
0
70
128
71
7
72
15
73
14
0
VERTEX
8
OBJECT__48
10
0
20
0
30
0
70
128
71
17
72
12
73
11
0
VERTEX
8
OBJECT__48
10
0
20
0
30
0
70
128
71
7
72
16
73
6
0
VERTEX
8
OBJECT__48
10
0
20
0
30
0
70
128
71
15
72
17
73
13
0
SEQEND
8
OBJECT__48
0
POLYLINE
8
OBJECT__49
66
1
70
64
71
18
72
18
62
253
0
VERTEX
8
OBJECT__49
10
-9.642000
20
11.491000
30
111.500000
70
192
0
VERTEX
8
OBJECT__49
10
-9.642000
20
11.491000
30
118.500000
70
192
0
VERTEX
8
OBJECT__49
10
0.000000
20
15.000000
30
118.500000
70
192
0
VERTEX
8
OBJECT__49
10
-14.772000
20
2.605000
30
111.500000
70
192
0
VERTEX
8
OBJECT__49
10
-14.772000
20
2.605000
30
118.500000
70
192
0
VERTEX
8
OBJECT__49
10
-12.990000
20
-7.500000
30
111.500000
70
192
0
VERTEX
8
OBJECT__49
10
-12.990000
20
-7.500000
30
118.500000
70
192
0
VERTEX
8
OBJECT__49
10
-5.130000
20
-14.095000
30
111.500000
70
192
0
VERTEX
8
OBJECT__49
10
-5.130000
20
-14.095000
30
118.500000
70
192
0
VERTEX
8
OBJECT__49
10
5.130000
20
-14.095000
30
111.500000
70
192
0
VERTEX
8
OBJECT__49
10
5.130000
20
-14.095000
30
118.500000
70
192
0
VERTEX
8
OBJECT__49
10
12.990000
20
-7.500000
30
111.500000
70
192
0
VERTEX
8
OBJECT__49
10
12.990000
20
-7.500000
30
118.500000
70
192
0
VERTEX
8
OBJECT__49
10
14.772000
20
2.605000
30
111.500000
70
192
0
VERTEX
8
OBJECT__49
10
14.772000
20
2.605000
30
118.500000
70
192
0
VERTEX
8
OBJECT__49
10
9.642000
20
11.491000
30
111.500000
70
192
0
VERTEX
8
OBJECT__49
10
9.642000
20
11.491000
30
118.500000
70
192
0
VERTEX
8
OBJECT__49
10
0.000000
20
15.000000
30
111.500000
70
192
0
VERTEX
8
OBJECT__49
10
0
20
0
30
0
70
128
71
1
72
2
73
3
0
VERTEX
8
OBJECT__49
10
0
20
0
30
0
70
128
71
4
72
5
73
2
0
VERTEX
8
OBJECT__49
10
0
20
0
30
0
70
128
71
6
72
7
73
5
0
VERTEX
8
OBJECT__49
10
0
20
0
30
0
70
128
71
8
72
9
73
7
0
VERTEX
8
OBJECT__49
10
0
20
0
30
0
70
128
71
10
72
11
73
9
0
VERTEX
8
OBJECT__49
10
0
20
0
30
0
70
128
71
12
72
13
73
11
0
VERTEX
8
OBJECT__49
10
0
20
0
30
0
70
128
71
14
72
15
73
13
0
VERTEX
8
OBJECT__49
10
0
20
0
30
0
70
128
71
16
72
17
73
15
0
VERTEX
8
OBJECT__49
10
0
20
0
30
0
70
128
71
18
72
3
73
17
0
VERTEX
8
OBJECT__49
10
0
20
0
30
0
70
128
71
17
72
16
73
18
0
VERTEX
8
OBJECT__49
10
0
20
0
30
0
70
128
71
15
72
14
73
16
0
VERTEX
8
OBJECT__49
10
0
20
0
30
0
70
128
71
13
72
12
73
14
0
VERTEX
8
OBJECT__49
10
0
20
0
30
0
70
128
71
11
72
10
73
12
0
VERTEX
8
OBJECT__49
10
0
20
0
30
0
70
128
71
9
72
8
73
10
0
VERTEX
8
OBJECT__49
10
0
20
0
30
0
70
128
71
7
72
6
73
8
0
VERTEX
8
OBJECT__49
10
0
20
0
30
0
70
128
71
5
72
4
73
6
0
VERTEX
8
OBJECT__49
10
0
20
0
30
0
70
128
71
2
72
1
73
4
0
VERTEX
8
OBJECT__49
10
0
20
0
30
0
70
128
71
3
72
18
73
1
0
SEQEND
8
OBJECT__49
0
ENDSEC
0
EOF
