999
Converted by 3D Exploration 
999
XDimension Software, LLC
999
http://www.xdsoft.com/explorer/
0
SECTION
2
HEADER
9
$ACADVER
1
AC1008
9
$UCSORG
10
0.0
20
0.0
30
0.0
9
$UCSXDIR
10
1.0
20
0.0
30
0.0
9
$TILEMODE
70
1
9
$UCSYDIR
10
0.0
20
1.0
30
0.0
9
$EXTMIN
10
0.000000
20
-79.500000
30
-79.500000
9
$EXTMAX
10
69.875999
20
79.500000
30
92.000000
0
ENDSEC
0
SECTION
2
TABLES
0
TABLE
2
LTYPE
70
1
0
LTYPE
2
CONTINUOUS
70
64
3
Solid line
72
65
73
0
40
0.0
0
ENDTAB
0
TABLE
2
LAYER
70
68
0
LAYER
2
OBJECT__0
70
0
62
253
6
CONTINUOUS
0
LAYER
2
OBJECT__1
70
0
62
253
6
CONTINUOUS
0
LAYER
2
OBJECT__3
70
0
62
253
6
CONTINUOUS
0
LAYER
2
OBJECT__4
70
0
62
253
6
CONTINUOUS
0
LAYER
2
OBJECT__5
70
0
62
253
6
CONTINUOUS
0
LAYER
2
OBJECT__7
70
0
62
253
6
CONTINUOUS
0
LAYER
2
OBJECT__8
70
0
62
253
6
CONTINUOUS
0
LAYER
2
OBJECT__9
70
0
62
253
6
CONTINUOUS
0
LAYER
2
OBJECT__10
70
0
62
253
6
CONTINUOUS
0
LAYER
2
OBJECT__11
70
0
62
253
6
CONTINUOUS
0
LAYER
2
OBJECT__12
70
0
62
253
6
CONTINUOUS
0
LAYER
2
OBJECT__13
70
0
62
253
6
CONTINUOUS
0
LAYER
2
OBJECT__14
70
0
62
253
6
CONTINUOUS
0
LAYER
2
OBJECT__15
70
0
62
253
6
CONTINUOUS
0
LAYER
2
OBJECT__16
70
0
62
253
6
CONTINUOUS
0
LAYER
2
OBJECT__17
70
0
62
253
6
CONTINUOUS
0
LAYER
2
OBJECT__18
70
0
62
253
6
CONTINUOUS
0
LAYER
2
OBJECT__19
70
0
62
253
6
CONTINUOUS
0
LAYER
2
OBJECT__20
70
0
62
253
6
CONTINUOUS
0
LAYER
2
OBJECT__21
70
0
62
253
6
CONTINUOUS
0
LAYER
2
OBJECT__22
70
0
62
253
6
CONTINUOUS
0
LAYER
2
OBJECT__23
70
0
62
253
6
CONTINUOUS
0
LAYER
2
OBJECT__24
70
0
62
253
6
CONTINUOUS
0
LAYER
2
OBJECT__25
70
0
62
253
6
CONTINUOUS
0
LAYER
2
OBJECT__26
70
0
62
253
6
CONTINUOUS
0
LAYER
2
OBJECT__27
70
0
62
253
6
CONTINUOUS
0
LAYER
2
OBJECT__28
70
0
62
253
6
CONTINUOUS
0
LAYER
2
OBJECT__29
70
0
62
253
6
CONTINUOUS
0
LAYER
2
OBJECT__30
70
0
62
253
6
CONTINUOUS
0
LAYER
2
OBJECT__31
70
0
62
253
6
CONTINUOUS
0
LAYER
2
OBJECT__32
70
0
62
253
6
CONTINUOUS
0
LAYER
2
OBJECT__33
70
0
62
253
6
CONTINUOUS
0
LAYER
2
OBJECT__34
70
0
62
253
6
CONTINUOUS
0
LAYER
2
OBJECT__35
70
0
62
253
6
CONTINUOUS
0
LAYER
2
OBJECT__36
70
0
62
253
6
CONTINUOUS
0
LAYER
2
OBJECT__37
70
0
62
253
6
CONTINUOUS
0
LAYER
2
OBJECT__38
70
0
62
253
6
CONTINUOUS
0
LAYER
2
OBJECT__39
70
0
62
253
6
CONTINUOUS
0
LAYER
2
OBJECT__40
70
0
62
253
6
CONTINUOUS
0
LAYER
2
OBJECT__41
70
0
62
253
6
CONTINUOUS
0
LAYER
2
OBJECT__42
70
0
62
253
6
CONTINUOUS
0
LAYER
2
OBJECT__43
70
0
62
253
6
CONTINUOUS
0
LAYER
2
OBJECT__44
70
0
62
253
6
CONTINUOUS
0
LAYER
2
OBJECT__45
70
0
62
253
6
CONTINUOUS
0
LAYER
2
OBJECT__46
70
0
62
253
6
CONTINUOUS
0
LAYER
2
OBJECT__47
70
0
62
253
6
CONTINUOUS
0
LAYER
2
OBJECT__48
70
0
62
253
6
CONTINUOUS
0
LAYER
2
OBJECT__49
70
0
62
253
6
CONTINUOUS
0
LAYER
2
OBJECT__50
70
0
62
253
6
CONTINUOUS
0
LAYER
2
OBJECT__51
70
0
62
253
6
CONTINUOUS
0
LAYER
2
OBJECT__52
70
0
62
253
6
CONTINUOUS
0
LAYER
2
OBJECT__53
70
0
62
253
6
CONTINUOUS
0
LAYER
2
OBJECT__54
70
0
62
253
6
CONTINUOUS
0
LAYER
2
OBJECT__55
70
0
62
253
6
CONTINUOUS
0
LAYER
2
OBJECT__56
70
0
62
253
6
CONTINUOUS
0
LAYER
2
OBJECT__57
70
0
62
253
6
CONTINUOUS
0
LAYER
2
OBJECT__58
70
0
62
253
6
CONTINUOUS
0
LAYER
2
OBJECT__59
70
0
62
253
6
CONTINUOUS
0
LAYER
2
OBJECT__60
70
0
62
253
6
CONTINUOUS
0
LAYER
2
OBJECT__61
70
0
62
253
6
CONTINUOUS
0
LAYER
2
OBJECT__62
70
0
62
253
6
CONTINUOUS
0
LAYER
2
OBJECT__64
70
0
62
253
6
CONTINUOUS
0
LAYER
2
OBJECT__65
70
0
62
253
6
CONTINUOUS
0
LAYER
2
OBJECT__66
70
0
62
253
6
CONTINUOUS
0
LAYER
2
OBJECT__67
70
0
62
253
6
CONTINUOUS
0
ENDTAB
0
TABLE
2
STYLE
70
1
0
STYLE
2
STANDARD
70
0
40
0.0
41
1.0
50
0.0
71
0
42
0.2
3
txt
4
1
0
ENDTAB
0
TABLE
2
UCS
70
0
0
ENDTAB
0
ENDSEC
0
SECTION
2
ENTITIES
0
POLYLINE
8
OBJECT__0
66
1
70
64
71
24
72
24
62
253
0
VERTEX
8
OBJECT__0
10
2.000000
20
-22.684000
30
13.096000
70
192
0
VERTEX
8
OBJECT__0
10
2.000000
20
-26.193001
30
0.000000
70
192
0
VERTEX
8
OBJECT__0
10
31.003000
20
-25.940001
30
0.000000
70
192
0
VERTEX
8
OBJECT__0
10
2.000000
20
-13.096000
30
22.684000
70
192
0
VERTEX
8
OBJECT__0
10
31.003000
20
-22.465000
30
12.970000
70
192
0
VERTEX
8
OBJECT__0
10
31.003000
20
-12.970000
30
22.465000
70
192
0
VERTEX
8
OBJECT__0
10
31.003000
20
0.000000
30
25.940001
70
192
0
VERTEX
8
OBJECT__0
10
2.000000
20
13.096000
30
22.684000
70
192
0
VERTEX
8
OBJECT__0
10
2.000000
20
0.000000
30
26.193001
70
192
0
VERTEX
8
OBJECT__0
10
31.003000
20
12.970000
30
22.465000
70
192
0
VERTEX
8
OBJECT__0
10
31.003000
20
22.465000
30
12.970000
70
192
0
VERTEX
8
OBJECT__0
10
2.000000
20
22.684000
30
13.096000
70
192
0
VERTEX
8
OBJECT__0
10
31.003000
20
25.940001
30
0.000000
70
192
0
VERTEX
8
OBJECT__0
10
2.000000
20
22.684000
30
-13.096000
70
192
0
VERTEX
8
OBJECT__0
10
2.000000
20
26.193001
30
0.000000
70
192
0
VERTEX
8
OBJECT__0
10
2.000000
20
13.096000
30
-22.684000
70
192
0
VERTEX
8
OBJECT__0
10
31.003000
20
22.465000
30
-12.970000
70
192
0
VERTEX
8
OBJECT__0
10
31.003000
20
12.970000
30
-22.465000
70
192
0
VERTEX
8
OBJECT__0
10
31.003000
20
0.000000
30
-25.940001
70
192
0
VERTEX
8
OBJECT__0
10
2.000000
20
-13.096000
30
-22.684000
70
192
0
VERTEX
8
OBJECT__0
10
2.000000
20
0.000000
30
-26.193001
70
192
0
VERTEX
8
OBJECT__0
10
2.000000
20
-22.684000
30
-13.096000
70
192
0
VERTEX
8
OBJECT__0
10
31.003000
20
-12.970000
30
-22.465000
70
192
0
VERTEX
8
OBJECT__0
10
31.003000
20
-22.465000
30
-12.970000
70
192
0
VERTEX
8
OBJECT__0
10
0
20
0
30
0
70
128
71
1
72
2
73
3
0
VERTEX
8
OBJECT__0
10
0
20
0
30
0
70
128
71
4
72
1
73
5
0
VERTEX
8
OBJECT__0
10
0
20
0
30
0
70
128
71
4
72
6
73
7
0
VERTEX
8
OBJECT__0
10
0
20
0
30
0
70
128
71
8
72
9
73
7
0
VERTEX
8
OBJECT__0
10
0
20
0
30
0
70
128
71
8
72
10
73
11
0
VERTEX
8
OBJECT__0
10
0
20
0
30
0
70
128
71
12
72
11
73
13
0
VERTEX
8
OBJECT__0
10
0
20
0
30
0
70
128
71
14
72
15
73
13
0
VERTEX
8
OBJECT__0
10
0
20
0
30
0
70
128
71
16
72
14
73
17
0
VERTEX
8
OBJECT__0
10
0
20
0
30
0
70
128
71
16
72
18
73
19
0
VERTEX
8
OBJECT__0
10
0
20
0
30
0
70
128
71
20
72
21
73
19
0
VERTEX
8
OBJECT__0
10
0
20
0
30
0
70
128
71
22
72
20
73
23
0
VERTEX
8
OBJECT__0
10
0
20
0
30
0
70
128
71
2
72
22
73
24
0
VERTEX
8
OBJECT__0
10
0
20
0
30
0
70
128
71
24
72
3
73
2
0
VERTEX
8
OBJECT__0
10
0
20
0
30
0
70
128
71
23
72
24
73
22
0
VERTEX
8
OBJECT__0
10
0
20
0
30
0
70
128
71
19
72
23
73
20
0
VERTEX
8
OBJECT__0
10
0
20
0
30
0
70
128
71
19
72
21
73
16
0
VERTEX
8
OBJECT__0
10
0
20
0
30
0
70
128
71
17
72
18
73
16
0
VERTEX
8
OBJECT__0
10
0
20
0
30
0
70
128
71
13
72
17
73
14
0
VERTEX
8
OBJECT__0
10
0
20
0
30
0
70
128
71
13
72
15
73
12
0
VERTEX
8
OBJECT__0
10
0
20
0
30
0
70
128
71
11
72
12
73
8
0
VERTEX
8
OBJECT__0
10
0
20
0
30
0
70
128
71
7
72
10
73
8
0
VERTEX
8
OBJECT__0
10
0
20
0
30
0
70
128
71
7
72
9
73
4
0
VERTEX
8
OBJECT__0
10
0
20
0
30
0
70
128
71
5
72
6
73
4
0
VERTEX
8
OBJECT__0
10
0
20
0
30
0
70
128
71
3
72
5
73
1
0
SEQEND
8
OBJECT__0
0
POLYLINE
8
OBJECT__1
66
1
70
64
71
28
72
28
62
253
0
VERTEX
8
OBJECT__1
10
31.003000
20
12.970000
30
-22.465000
70
192
0
VERTEX
8
OBJECT__1
10
31.003000
20
22.465000
30
-12.970000
70
192
0
VERTEX
8
OBJECT__1
10
31.003000
20
17.160999
30
-17.160999
70
192
0
VERTEX
8
OBJECT__1
10
31.003000
20
22.422001
30
-9.287000
70
192
0
VERTEX
8
OBJECT__1
10
31.003000
20
25.940001
30
0.000000
70
192
0
VERTEX
8
OBJECT__1
10
31.003000
20
24.268999
30
0.000000
70
192
0
VERTEX
8
OBJECT__1
10
31.003000
20
12.970000
30
22.465000
70
192
0
VERTEX
8
OBJECT__1
10
31.003000
20
9.287000
30
22.422001
70
192
0
VERTEX
8
OBJECT__1
10
31.003000
20
17.160999
30
17.160999
70
192
0
VERTEX
8
OBJECT__1
10
31.003000
20
0.000000
30
25.940001
70
192
0
VERTEX
8
OBJECT__1
10
31.003000
20
0.000000
30
24.268999
70
192
0
VERTEX
8
OBJECT__1
10
31.003000
20
-12.970000
30
22.465000
70
192
0
VERTEX
8
OBJECT__1
10
31.003000
20
-9.287000
30
22.422001
70
192
0
VERTEX
8
OBJECT__1
10
31.003000
20
-25.940001
30
0.000000
70
192
0
VERTEX
8
OBJECT__1
10
31.003000
20
-24.268999
30
0.000000
70
192
0
VERTEX
8
OBJECT__1
10
31.003000
20
-22.422001
30
9.287000
70
192
0
VERTEX
8
OBJECT__1
10
31.003000
20
-22.465000
30
-12.970000
70
192
0
VERTEX
8
OBJECT__1
10
31.003000
20
-22.422001
30
-9.287000
70
192
0
VERTEX
8
OBJECT__1
10
31.003000
20
9.287000
30
-22.422001
70
192
0
VERTEX
8
OBJECT__1
10
31.003000
20
22.465000
30
12.970000
70
192
0
VERTEX
8
OBJECT__1
10
31.003000
20
22.422001
30
9.287000
70
192
0
VERTEX
8
OBJECT__1
10
31.003000
20
-22.465000
30
12.970000
70
192
0
VERTEX
8
OBJECT__1
10
31.003000
20
-17.160999
30
17.160999
70
192
0
VERTEX
8
OBJECT__1
10
31.003000
20
-12.970000
30
-22.465000
70
192
0
VERTEX
8
OBJECT__1
10
31.003000
20
-17.160999
30
-17.160999
70
192
0
VERTEX
8
OBJECT__1
10
31.003000
20
0.000000
30
-25.940001
70
192
0
VERTEX
8
OBJECT__1
10
31.003000
20
0.000000
30
-24.268999
70
192
0
VERTEX
8
OBJECT__1
10
31.003000
20
-9.287000
30
-22.422001
70
192
0
VERTEX
8
OBJECT__1
10
0
20
0
30
0
70
128
71
1
72
2
73
3
0
VERTEX
8
OBJECT__1
10
0
20
0
30
0
70
128
71
2
72
4
73
3
0
VERTEX
8
OBJECT__1
10
0
20
0
30
0
70
128
71
5
72
6
73
4
0
VERTEX
8
OBJECT__1
10
0
20
0
30
0
70
128
71
7
72
8
73
9
0
VERTEX
8
OBJECT__1
10
0
20
0
30
0
70
128
71
10
72
11
73
8
0
VERTEX
8
OBJECT__1
10
0
20
0
30
0
70
128
71
4
72
2
73
5
0
VERTEX
8
OBJECT__1
10
0
20
0
30
0
70
128
71
8
72
7
73
10
0
VERTEX
8
OBJECT__1
10
0
20
0
30
0
70
128
71
10
72
12
73
13
0
VERTEX
8
OBJECT__1
10
0
20
0
30
0
70
128
71
14
72
15
73
16
0
VERTEX
8
OBJECT__1
10
0
20
0
30
0
70
128
71
14
72
17
73
18
0
VERTEX
8
OBJECT__1
10
0
20
0
30
0
70
128
71
3
72
19
73
1
0
VERTEX
8
OBJECT__1
10
0
20
0
30
0
70
128
71
5
72
20
73
21
0
VERTEX
8
OBJECT__1
10
0
20
0
30
0
70
128
71
13
72
11
73
10
0
VERTEX
8
OBJECT__1
10
0
20
0
30
0
70
128
71
22
72
16
73
23
0
VERTEX
8
OBJECT__1
10
0
20
0
30
0
70
128
71
18
72
15
73
14
0
VERTEX
8
OBJECT__1
10
0
20
0
30
0
70
128
71
17
72
24
73
25
0
VERTEX
8
OBJECT__1
10
0
20
0
30
0
70
128
71
21
72
6
73
5
0
VERTEX
8
OBJECT__1
10
0
20
0
30
0
70
128
71
9
72
20
73
7
0
VERTEX
8
OBJECT__1
10
0
20
0
30
0
70
128
71
23
72
12
73
22
0
VERTEX
8
OBJECT__1
10
0
20
0
30
0
70
128
71
25
72
18
73
17
0
VERTEX
8
OBJECT__1
10
0
20
0
30
0
70
128
71
9
72
21
73
20
0
VERTEX
8
OBJECT__1
10
0
20
0
30
0
70
128
71
16
72
22
73
14
0
VERTEX
8
OBJECT__1
10
0
20
0
30
0
70
128
71
26
72
27
73
28
0
VERTEX
8
OBJECT__1
10
0
20
0
30
0
70
128
71
23
72
13
73
12
0
VERTEX
8
OBJECT__1
10
0
20
0
30
0
70
128
71
28
72
24
73
26
0
VERTEX
8
OBJECT__1
10
0
20
0
30
0
70
128
71
28
72
25
73
24
0
VERTEX
8
OBJECT__1
10
0
20
0
30
0
70
128
71
19
72
27
73
1
0
VERTEX
8
OBJECT__1
10
0
20
0
30
0
70
128
71
27
72
26
73
1
0
SEQEND
8
OBJECT__1
0
POLYLINE
8
OBJECT__3
66
1
70
64
71
56
72
72
62
253
0
VERTEX
8
OBJECT__3
10
38.805000
20
-19.257999
30
7.977000
70
192
0
VERTEX
8
OBJECT__3
10
45.002998
20
-13.858000
30
5.740000
70
192
0
VERTEX
8
OBJECT__3
10
45.002998
20
-10.607000
30
10.607000
70
192
0
VERTEX
8
OBJECT__3
10
38.805000
20
-7.977000
30
19.257999
70
192
0
VERTEX
8
OBJECT__3
10
38.805000
20
-14.740000
30
14.740000
70
192
0
VERTEX
8
OBJECT__3
10
38.805000
20
0.000000
30
20.844999
70
192
0
VERTEX
8
OBJECT__3
10
45.002998
20
-5.740000
30
13.858000
70
192
0
VERTEX
8
OBJECT__3
10
38.805000
20
7.977000
30
19.257999
70
192
0
VERTEX
8
OBJECT__3
10
45.002998
20
0.000000
30
15.000000
70
192
0
VERTEX
8
OBJECT__3
10
38.805000
20
14.740000
30
14.740000
70
192
0
VERTEX
8
OBJECT__3
10
45.002998
20
5.740000
30
13.858000
70
192
0
VERTEX
8
OBJECT__3
10
38.805000
20
19.257999
30
7.977000
70
192
0
VERTEX
8
OBJECT__3
10
45.002998
20
10.607000
30
10.607000
70
192
0
VERTEX
8
OBJECT__3
10
38.805000
20
14.740000
30
-14.740000
70
192
0
VERTEX
8
OBJECT__3
10
38.805000
20
19.257999
30
-7.977000
70
192
0
VERTEX
8
OBJECT__3
10
45.002998
20
13.858000
30
-5.740000
70
192
0
VERTEX
8
OBJECT__3
10
38.805000
20
7.977000
30
-19.257999
70
192
0
VERTEX
8
OBJECT__3
10
45.002998
20
10.607000
30
-10.607000
70
192
0
VERTEX
8
OBJECT__3
10
38.805000
20
0.000000
30
-20.844999
70
192
0
VERTEX
8
OBJECT__3
10
45.002998
20
5.740000
30
-13.858000
70
192
0
VERTEX
8
OBJECT__3
10
38.805000
20
-7.977000
30
-19.257999
70
192
0
VERTEX
8
OBJECT__3
10
45.002998
20
0.000000
30
-15.000000
70
192
0
VERTEX
8
OBJECT__3
10
38.805000
20
-14.740000
30
-14.740000
70
192
0
VERTEX
8
OBJECT__3
10
45.002998
20
-5.740000
30
-13.858000
70
192
0
VERTEX
8
OBJECT__3
10
38.805000
20
-19.257999
30
-7.977000
70
192
0
VERTEX
8
OBJECT__3
10
45.002998
20
-10.607000
30
-10.607000
70
192
0
VERTEX
8
OBJECT__3
10
31.003000
20
-24.268999
30
0.000000
70
192
0
VERTEX
8
OBJECT__3
10
38.805000
20
-20.844999
30
0.000000
70
192
0
VERTEX
8
OBJECT__3
10
31.003000
20
-17.160999
30
17.160999
70
192
0
VERTEX
8
OBJECT__3
10
31.003000
20
-22.422001
30
9.287000
70
192
0
VERTEX
8
OBJECT__3
10
31.003000
20
0.000000
30
24.268999
70
192
0
VERTEX
8
OBJECT__3
10
31.003000
20
-9.287000
30
22.422001
70
192
0
VERTEX
8
OBJECT__3
10
31.003000
20
17.160999
30
17.160999
70
192
0
VERTEX
8
OBJECT__3
10
31.003000
20
9.287000
30
22.422001
70
192
0
VERTEX
8
OBJECT__3
10
31.003000
20
22.422001
30
9.287000
70
192
0
VERTEX
8
OBJECT__3
10
31.003000
20
24.268999
30
0.000000
70
192
0
VERTEX
8
OBJECT__3
10
31.003000
20
22.422001
30
-9.287000
70
192
0
VERTEX
8
OBJECT__3
10
38.805000
20
20.844999
30
0.000000
70
192
0
VERTEX
8
OBJECT__3
10
31.003000
20
17.160999
30
-17.160999
70
192
0
VERTEX
8
OBJECT__3
10
31.003000
20
9.287000
30
-22.422001
70
192
0
VERTEX
8
OBJECT__3
10
31.003000
20
-9.287000
30
-22.422001
70
192
0
VERTEX
8
OBJECT__3
10
31.003000
20
0.000000
30
-24.268999
70
192
0
VERTEX
8
OBJECT__3
10
31.003000
20
-17.160999
30
-17.160999
70
192
0
VERTEX
8
OBJECT__3
10
31.003000
20
-22.422001
30
-9.287000
70
192
0
VERTEX
8
OBJECT__3
10
44.213001
20
-15.351000
30
-4.510000
70
192
0
VERTEX
8
OBJECT__3
10
45.002998
20
-13.858000
30
-5.740000
70
192
0
VERTEX
8
OBJECT__3
10
45.002998
20
-14.385000
30
-4.251000
70
192
0
VERTEX
8
OBJECT__3
10
44.213001
20
-15.351000
30
4.510000
70
192
0
VERTEX
8
OBJECT__3
10
44.213001
20
-16.000000
30
0.000000
70
192
0
VERTEX
8
OBJECT__3
10
44.213001
20
15.351000
30
4.510000
70
192
0
VERTEX
8
OBJECT__3
10
45.002998
20
13.858000
30
5.740000
70
192
0
VERTEX
8
OBJECT__3
10
45.002998
20
14.385000
30
4.251000
70
192
0
VERTEX
8
OBJECT__3
10
44.213001
20
15.351000
30
-4.510000
70
192
0
VERTEX
8
OBJECT__3
10
44.213001
20
16.000000
30
0.000000
70
192
0
VERTEX
8
OBJECT__3
10
45.002998
20
14.385000
30
-4.251000
70
192
0
VERTEX
8
OBJECT__3
10
45.002998
20
-14.385000
30
4.251000
70
192
0
VERTEX
8
OBJECT__3
10
0
20
0
30
0
70
128
71
1
72
2
73
3
0
VERTEX
8
OBJECT__3
10
0
20
0
30
0
70
128
71
4
72
5
73
3
0
VERTEX
8
OBJECT__3
10
0
20
0
30
0
70
128
71
6
72
4
73
7
0
VERTEX
8
OBJECT__3
10
0
20
0
30
0
70
128
71
8
72
6
73
9
0
VERTEX
8
OBJECT__3
10
0
20
0
30
0
70
128
71
10
72
8
73
11
0
VERTEX
8
OBJECT__3
10
0
20
0
30
0
70
128
71
12
72
10
73
13
0
VERTEX
8
OBJECT__3
10
0
20
0
30
0
70
128
71
14
72
15
73
16
0
VERTEX
8
OBJECT__3
10
0
20
0
30
0
70
128
71
17
72
14
73
18
0
VERTEX
8
OBJECT__3
10
0
20
0
30
0
70
128
71
19
72
17
73
20
0
VERTEX
8
OBJECT__3
10
0
20
0
30
0
70
128
71
21
72
19
73
22
0
VERTEX
8
OBJECT__3
10
0
20
0
30
0
70
128
71
23
72
21
73
24
0
VERTEX
8
OBJECT__3
10
0
20
0
30
0
70
128
71
25
72
23
73
26
0
VERTEX
8
OBJECT__3
10
0
20
0
30
0
70
128
71
27
72
28
73
1
0
VERTEX
8
OBJECT__3
10
0
20
0
30
0
70
128
71
29
72
30
73
1
0
VERTEX
8
OBJECT__3
10
0
20
0
30
0
70
128
71
29
72
5
73
4
0
VERTEX
8
OBJECT__3
10
0
20
0
30
0
70
128
71
31
72
32
73
4
0
VERTEX
8
OBJECT__3
10
0
20
0
30
0
70
128
71
31
72
6
73
8
0
VERTEX
8
OBJECT__3
10
0
20
0
30
0
70
128
71
33
72
34
73
8
0
VERTEX
8
OBJECT__3
10
0
20
0
30
0
70
128
71
35
72
33
73
10
0
VERTEX
8
OBJECT__3
10
0
20
0
30
0
70
128
71
36
72
35
73
12
0
VERTEX
8
OBJECT__3
10
0
20
0
30
0
70
128
71
37
72
36
73
38
0
VERTEX
8
OBJECT__3
10
0
20
0
30
0
70
128
71
39
72
37
73
15
0
VERTEX
8
OBJECT__3
10
0
20
0
30
0
70
128
71
40
72
39
73
14
0
VERTEX
8
OBJECT__3
10
0
20
0
30
0
70
128
71
40
72
17
73
19
0
VERTEX
8
OBJECT__3
10
0
20
0
30
0
70
128
71
41
72
42
73
19
0
VERTEX
8
OBJECT__3
10
0
20
0
30
0
70
128
71
43
72
41
73
21
0
VERTEX
8
OBJECT__3
10
0
20
0
30
0
70
128
71
44
72
43
73
23
0
VERTEX
8
OBJECT__3
10
0
20
0
30
0
70
128
71
27
72
44
73
25
0
VERTEX
8
OBJECT__3
10
0
20
0
30
0
70
128
71
28
72
25
73
45
0
VERTEX
8
OBJECT__3
10
0
20
0
30
0
70
128
71
46
72
47
73
45
0
VERTEX
8
OBJECT__3
10
0
20
0
30
0
70
128
71
45
72
25
73
46
0
VERTEX
8
OBJECT__3
10
0
20
0
30
0
70
128
71
2
72
1
73
48
0
VERTEX
8
OBJECT__3
10
0
20
0
30
0
70
128
71
28
72
49
73
48
0
VERTEX
8
OBJECT__3
10
0
20
0
30
0
70
128
71
48
72
1
73
28
0
VERTEX
8
OBJECT__3
10
0
20
0
30
0
70
128
71
38
72
12
73
50
0
VERTEX
8
OBJECT__3
10
0
20
0
30
0
70
128
71
51
72
52
73
50
0
VERTEX
8
OBJECT__3
10
0
20
0
30
0
70
128
71
50
72
12
73
51
0
VERTEX
8
OBJECT__3
10
0
20
0
30
0
70
128
71
16
72
15
73
53
0
VERTEX
8
OBJECT__3
10
0
20
0
30
0
70
128
71
38
72
54
73
53
0
VERTEX
8
OBJECT__3
10
0
20
0
30
0
70
128
71
53
72
15
73
38
0
VERTEX
8
OBJECT__3
10
0
20
0
30
0
70
128
71
53
72
55
73
16
0
VERTEX
8
OBJECT__3
10
0
20
0
30
0
70
128
71
50
72
54
73
38
0
VERTEX
8
OBJECT__3
10
0
20
0
30
0
70
128
71
48
72
56
73
2
0
VERTEX
8
OBJECT__3
10
0
20
0
30
0
70
128
71
45
72
49
73
28
0
VERTEX
8
OBJECT__3
10
0
20
0
30
0
70
128
71
25
72
28
73
27
0
VERTEX
8
OBJECT__3
10
0
20
0
30
0
70
128
71
23
72
25
73
44
0
VERTEX
8
OBJECT__3
10
0
20
0
30
0
70
128
71
21
72
23
73
43
0
VERTEX
8
OBJECT__3
10
0
20
0
30
0
70
128
71
19
72
21
73
41
0
VERTEX
8
OBJECT__3
10
0
20
0
30
0
70
128
71
19
72
42
73
40
0
VERTEX
8
OBJECT__3
10
0
20
0
30
0
70
128
71
14
72
17
73
40
0
VERTEX
8
OBJECT__3
10
0
20
0
30
0
70
128
71
15
72
14
73
39
0
VERTEX
8
OBJECT__3
10
0
20
0
30
0
70
128
71
38
72
15
73
37
0
VERTEX
8
OBJECT__3
10
0
20
0
30
0
70
128
71
12
72
38
73
36
0
VERTEX
8
OBJECT__3
10
0
20
0
30
0
70
128
71
10
72
12
73
35
0
VERTEX
8
OBJECT__3
10
0
20
0
30
0
70
128
71
8
72
10
73
33
0
VERTEX
8
OBJECT__3
10
0
20
0
30
0
70
128
71
8
72
34
73
31
0
VERTEX
8
OBJECT__3
10
0
20
0
30
0
70
128
71
4
72
6
73
31
0
VERTEX
8
OBJECT__3
10
0
20
0
30
0
70
128
71
4
72
32
73
29
0
VERTEX
8
OBJECT__3
10
0
20
0
30
0
70
128
71
1
72
5
73
29
0
VERTEX
8
OBJECT__3
10
0
20
0
30
0
70
128
71
1
72
30
73
27
0
VERTEX
8
OBJECT__3
10
0
20
0
30
0
70
128
71
26
72
46
73
25
0
VERTEX
8
OBJECT__3
10
0
20
0
30
0
70
128
71
24
72
26
73
23
0
VERTEX
8
OBJECT__3
10
0
20
0
30
0
70
128
71
22
72
24
73
21
0
VERTEX
8
OBJECT__3
10
0
20
0
30
0
70
128
71
20
72
22
73
19
0
VERTEX
8
OBJECT__3
10
0
20
0
30
0
70
128
71
18
72
20
73
17
0
VERTEX
8
OBJECT__3
10
0
20
0
30
0
70
128
71
16
72
18
73
14
0
VERTEX
8
OBJECT__3
10
0
20
0
30
0
70
128
71
13
72
51
73
12
0
VERTEX
8
OBJECT__3
10
0
20
0
30
0
70
128
71
11
72
13
73
10
0
VERTEX
8
OBJECT__3
10
0
20
0
30
0
70
128
71
9
72
11
73
8
0
VERTEX
8
OBJECT__3
10
0
20
0
30
0
70
128
71
7
72
9
73
6
0
VERTEX
8
OBJECT__3
10
0
20
0
30
0
70
128
71
3
72
7
73
4
0
VERTEX
8
OBJECT__3
10
0
20
0
30
0
70
128
71
3
72
5
73
1
0
SEQEND
8
OBJECT__3
0
POLYLINE
8
OBJECT__4
66
1
70
64
71
10
72
8
62
253
0
VERTEX
8
OBJECT__4
10
33.888000
20
25.964001
30
0.706000
70
192
0
VERTEX
8
OBJECT__4
10
33.612000
20
25.964001
30
-0.361000
70
192
0
VERTEX
8
OBJECT__4
10
33.636002
20
24.903999
30
0.002000
70
192
0
VERTEX
8
OBJECT__4
10
33.612000
20
24.909000
30
-0.361000
70
192
0
VERTEX
8
OBJECT__4
10
33.612000
20
24.909000
30
-0.354000
70
192
0
VERTEX
8
OBJECT__4
10
33.681000
20
24.891001
30
0.214000
70
192
0
VERTEX
8
OBJECT__4
10
33.888000
20
25.969000
30
0.706000
70
192
0
VERTEX
8
OBJECT__4
10
33.674999
20
25.993000
30
0.192000
70
192
0
VERTEX
8
OBJECT__4
10
33.612000
20
25.993999
30
-0.361000
70
192
0
VERTEX
8
OBJECT__4
10
33.888000
20
24.815001
30
0.706000
70
192
0
VERTEX
8
OBJECT__4
10
0
20
0
30
0
70
128
71
1
72
2
73
3
0
VERTEX
8
OBJECT__4
10
0
20
0
30
0
70
128
71
2
72
4
73
5
0
VERTEX
8
OBJECT__4
10
0
20
0
30
0
70
128
71
5
72
3
73
2
0
VERTEX
8
OBJECT__4
10
0
20
0
30
0
70
128
71
3
72
6
73
1
0
VERTEX
8
OBJECT__4
10
0
20
0
30
0
70
128
71
1
72
7
73
8
0
VERTEX
8
OBJECT__4
10
0
20
0
30
0
70
128
71
8
72
2
73
1
0
VERTEX
8
OBJECT__4
10
0
20
0
30
0
70
128
71
8
72
9
73
2
0
VERTEX
8
OBJECT__4
10
0
20
0
30
0
70
128
71
6
72
10
73
1
0
SEQEND
8
OBJECT__4
0
POLYLINE
8
OBJECT__5
66
1
70
64
71
16
72
14
62
253
0
VERTEX
8
OBJECT__5
10
33.612000
20
24.909000
30
-0.361000
70
192
0
VERTEX
8
OBJECT__5
10
33.612000
20
25.964001
30
-0.361000
70
192
0
VERTEX
8
OBJECT__5
10
33.839001
20
24.309999
30
-9.005000
70
192
0
VERTEX
8
OBJECT__5
10
33.612000
20
24.909000
30
-0.354000
70
192
0
VERTEX
8
OBJECT__5
10
33.597000
20
-24.888000
30
0.212000
70
192
0
VERTEX
8
OBJECT__5
10
34.257999
20
6.222000
30
-25.024000
70
192
0
VERTEX
8
OBJECT__5
10
33.612000
20
-24.909000
30
-0.361000
70
192
0
VERTEX
8
OBJECT__5
10
33.597000
20
24.889000
30
0.212000
70
192
0
VERTEX
8
OBJECT__5
10
33.605000
20
-24.915001
30
-0.071000
70
192
0
VERTEX
8
OBJECT__5
10
33.839001
20
-24.309999
30
-9.005000
70
192
0
VERTEX
8
OBJECT__5
10
33.612000
20
-25.993999
30
-0.361000
70
192
0
VERTEX
8
OBJECT__5
10
33.612000
20
-25.964001
30
-0.361000
70
192
0
VERTEX
8
OBJECT__5
10
34.257999
20
-6.222000
30
-25.024000
70
192
0
VERTEX
8
OBJECT__5
10
34.106998
20
-17.240999
30
-19.243000
70
192
0
VERTEX
8
OBJECT__5
10
34.106998
20
17.240999
30
-19.243000
70
192
0
VERTEX
8
OBJECT__5
10
33.612000
20
25.993999
30
-0.361000
70
192
0
VERTEX
8
OBJECT__5
10
0
20
0
30
0
70
128
71
1
72
2
73
3
0
VERTEX
8
OBJECT__5
10
0
20
0
30
0
70
128
71
1
72
6
73
7
0
VERTEX
8
OBJECT__5
10
0
20
0
30
0
70
128
71
3
72
6
73
1
0
VERTEX
8
OBJECT__5
10
0
20
0
30
0
70
128
71
5
72
8
73
4
0
VERTEX
8
OBJECT__5
10
0
20
0
30
0
70
128
71
7
72
9
73
1
0
VERTEX
8
OBJECT__5
10
0
20
0
30
0
70
128
71
10
72
11
73
12
0
VERTEX
8
OBJECT__5
10
0
20
0
30
0
70
128
71
6
72
13
73
14
0
VERTEX
8
OBJECT__5
10
0
20
0
30
0
70
128
71
3
72
15
73
6
0
VERTEX
8
OBJECT__5
10
0
20
0
30
0
70
128
71
9
72
5
73
1
0
VERTEX
8
OBJECT__5
10
0
20
0
30
0
70
128
71
14
72
10
73
6
0
VERTEX
8
OBJECT__5
10
0
20
0
30
0
70
128
71
4
72
1
73
5
0
VERTEX
8
OBJECT__5
10
0
20
0
30
0
70
128
71
12
72
6
73
10
0
VERTEX
8
OBJECT__5
10
0
20
0
30
0
70
128
71
12
72
7
73
6
0
VERTEX
8
OBJECT__5
10
0
20
0
30
0
70
128
71
2
72
16
73
3
0
SEQEND
8
OBJECT__5
0
POLYLINE
8
OBJECT__7
66
1
70
64
71
22
72
20
62
253
0
VERTEX
8
OBJECT__7
10
35.431999
20
-25.424999
30
3.326000
70
192
0
VERTEX
8
OBJECT__7
10
47.507999
20
8.410000
30
23.827999
70
192
0
VERTEX
8
OBJECT__7
10
33.888000
20
-24.811001
30
0.706000
70
192
0
VERTEX
8
OBJECT__7
10
33.888000
20
25.964001
30
0.706000
70
192
0
VERTEX
8
OBJECT__7
10
35.398998
20
25.275000
30
3.270000
70
192
0
VERTEX
8
OBJECT__7
10
41.986000
20
20.362000
30
14.454000
70
192
0
VERTEX
8
OBJECT__7
10
37.974998
20
-24.528999
30
7.644000
70
192
0
VERTEX
8
OBJECT__7
10
33.888000
20
-25.964001
30
0.706000
70
192
0
VERTEX
8
OBJECT__7
10
39.710999
20
23.296000
30
10.590000
70
192
0
VERTEX
8
OBJECT__7
10
46.507000
20
11.303000
30
22.129000
70
192
0
VERTEX
8
OBJECT__7
10
48.192001
20
-0.036000
30
24.988001
70
192
0
VERTEX
8
OBJECT__7
10
46.714001
20
-11.495000
30
22.480000
70
192
0
VERTEX
8
OBJECT__7
10
46.792000
20
-11.322000
30
22.612000
70
192
0
VERTEX
8
OBJECT__7
10
42.064999
20
-20.468000
30
14.587000
70
192
0
VERTEX
8
OBJECT__7
10
43.164001
20
-19.375999
30
16.452999
70
192
0
VERTEX
8
OBJECT__7
10
33.888000
20
-25.969000
30
0.706000
70
192
0
VERTEX
8
OBJECT__7
10
33.888000
20
24.815001
30
0.706000
70
192
0
VERTEX
8
OBJECT__7
10
33.597000
20
-24.888000
30
0.212000
70
192
0
VERTEX
8
OBJECT__7
10
44.488998
20
17.135000
30
18.702999
70
192
0
VERTEX
8
OBJECT__7
10
48.316002
20
-1.574000
30
25.200001
70
192
0
VERTEX
8
OBJECT__7
10
33.888000
20
25.969000
30
0.706000
70
192
0
VERTEX
8
OBJECT__7
10
33.597000
20
24.889000
30
0.212000
70
192
0
VERTEX
8
OBJECT__7
10
0
20
0
30
0
70
128
71
1
72
2
73
3
0
VERTEX
8
OBJECT__7
10
0
20
0
30
0
70
128
71
4
72
2
73
5
0
VERTEX
8
OBJECT__7
10
0
20
0
30
0
70
128
71
5
72
2
73
6
0
VERTEX
8
OBJECT__7
10
0
20
0
30
0
70
128
71
2
72
1
73
7
0
VERTEX
8
OBJECT__7
10
0
20
0
30
0
70
128
71
3
72
8
73
1
0
VERTEX
8
OBJECT__7
10
0
20
0
30
0
70
128
71
6
72
9
73
5
0
VERTEX
8
OBJECT__7
10
0
20
0
30
0
70
128
71
6
72
2
73
10
0
VERTEX
8
OBJECT__7
10
0
20
0
30
0
70
128
71
11
72
12
73
13
0
VERTEX
8
OBJECT__7
10
0
20
0
30
0
70
128
71
2
72
14
73
15
0
VERTEX
8
OBJECT__7
10
0
20
0
30
0
70
128
71
8
72
16
73
1
0
VERTEX
8
OBJECT__7
10
0
20
0
30
0
70
128
71
17
72
18
73
3
0
VERTEX
8
OBJECT__7
10
0
20
0
30
0
70
128
71
10
72
19
73
6
0
VERTEX
8
OBJECT__7
10
0
20
0
30
0
70
128
71
13
72
20
73
11
0
VERTEX
8
OBJECT__7
10
0
20
0
30
0
70
128
71
7
72
14
73
2
0
VERTEX
8
OBJECT__7
10
0
20
0
30
0
70
128
71
3
72
2
73
17
0
VERTEX
8
OBJECT__7
10
0
20
0
30
0
70
128
71
5
72
21
73
4
0
VERTEX
8
OBJECT__7
10
0
20
0
30
0
70
128
71
4
72
17
73
2
0
VERTEX
8
OBJECT__7
10
0
20
0
30
0
70
128
71
15
72
12
73
2
0
VERTEX
8
OBJECT__7
10
0
20
0
30
0
70
128
71
17
72
22
73
18
0
VERTEX
8
OBJECT__7
10
0
20
0
30
0
70
128
71
11
72
2
73
12
0
SEQEND
8
OBJECT__7
0
POLYLINE
8
OBJECT__8
66
1
70
64
71
11
72
9
62
253
0
VERTEX
8
OBJECT__8
10
33.612000
20
-25.964001
30
-0.361000
70
192
0
VERTEX
8
OBJECT__8
10
33.888000
20
-25.964001
30
0.706000
70
192
0
VERTEX
8
OBJECT__8
10
33.659000
20
-24.896000
30
0.125000
70
192
0
VERTEX
8
OBJECT__8
10
33.681000
20
-24.889000
30
0.214000
70
192
0
VERTEX
8
OBJECT__8
10
33.888000
20
-24.811001
30
0.706000
70
192
0
VERTEX
8
OBJECT__8
10
33.791000
20
-24.847000
30
0.520000
70
192
0
VERTEX
8
OBJECT__8
10
33.625999
20
-24.915001
30
-0.071000
70
192
0
VERTEX
8
OBJECT__8
10
33.674999
20
-25.993000
30
0.192000
70
192
0
VERTEX
8
OBJECT__8
10
33.612000
20
-25.993999
30
-0.361000
70
192
0
VERTEX
8
OBJECT__8
10
33.888000
20
-25.969000
30
0.706000
70
192
0
VERTEX
8
OBJECT__8
10
33.612000
20
-24.909000
30
-0.361000
70
192
0
VERTEX
8
OBJECT__8
10
0
20
0
30
0
70
128
71
1
72
2
73
3
0
VERTEX
8
OBJECT__8
10
0
20
0
30
0
70
128
71
2
72
4
73
3
0
VERTEX
8
OBJECT__8
10
0
20
0
30
0
70
128
71
2
72
5
73
6
0
VERTEX
8
OBJECT__8
10
0
20
0
30
0
70
128
71
6
72
4
73
2
0
VERTEX
8
OBJECT__8
10
0
20
0
30
0
70
128
71
3
72
7
73
1
0
VERTEX
8
OBJECT__8
10
0
20
0
30
0
70
128
71
2
72
1
73
8
0
VERTEX
8
OBJECT__8
10
0
20
0
30
0
70
128
71
1
72
9
73
8
0
VERTEX
8
OBJECT__8
10
0
20
0
30
0
70
128
71
8
72
10
73
2
0
VERTEX
8
OBJECT__8
10
0
20
0
30
0
70
128
71
7
72
11
73
1
0
SEQEND
8
OBJECT__8
0
POLYLINE
8
OBJECT__9
66
1
70
64
71
71
72
71
62
253
0
VERTEX
8
OBJECT__9
10
34.106998
20
17.240999
30
-19.243000
70
192
0
VERTEX
8
OBJECT__9
10
60.213001
20
22.112000
30
-7.540000
70
192
0
VERTEX
8
OBJECT__9
10
59.722000
20
20.573000
30
-10.917000
70
192
0
VERTEX
8
OBJECT__9
10
33.839001
20
24.309999
30
-9.005000
70
192
0
VERTEX
8
OBJECT__9
10
60.230999
20
22.129000
30
-7.486000
70
192
0
VERTEX
8
OBJECT__9
10
59.875999
20
15.656000
30
-16.799999
70
192
0
VERTEX
8
OBJECT__9
10
59.888000
20
15.279000
30
-17.250999
70
192
0
VERTEX
8
OBJECT__9
10
59.995998
20
8.133000
30
-21.388000
70
192
0
VERTEX
8
OBJECT__9
10
34.257999
20
6.222000
30
-25.024000
70
192
0
VERTEX
8
OBJECT__9
10
34.257999
20
-6.222000
30
-25.024000
70
192
0
VERTEX
8
OBJECT__9
10
60.034000
20
0.002000
30
-22.825001
70
192
0
VERTEX
8
OBJECT__9
10
60.007999
20
5.623000
30
-21.832001
70
192
0
VERTEX
8
OBJECT__9
10
34.106998
20
-17.240999
30
-19.243000
70
192
0
VERTEX
8
OBJECT__9
10
59.995998
20
-8.129000
30
-21.389000
70
192
0
VERTEX
8
OBJECT__9
10
60.007999
20
-5.623000
30
-21.832001
70
192
0
VERTEX
8
OBJECT__9
10
59.888000
20
-15.276000
30
-17.254000
70
192
0
VERTEX
8
OBJECT__9
10
33.839001
20
-24.309999
30
-9.005000
70
192
0
VERTEX
8
OBJECT__9
10
59.722000
20
-20.570999
30
-10.920000
70
192
0
VERTEX
8
OBJECT__9
10
60.115002
20
-21.975000
30
-7.919000
70
192
0
VERTEX
8
OBJECT__9
10
59.875999
20
-15.656000
30
-16.799000
70
192
0
VERTEX
8
OBJECT__9
10
66.669998
20
20.479000
30
11.675000
70
192
0
VERTEX
8
OBJECT__9
10
39.710999
20
23.296000
30
10.590000
70
192
0
VERTEX
8
OBJECT__9
10
41.986000
20
20.362000
30
14.454000
70
192
0
VERTEX
8
OBJECT__9
10
66.610001
20
18.701000
30
13.966000
70
192
0
VERTEX
8
OBJECT__9
10
66.875000
20
22.856001
30
3.854000
70
192
0
VERTEX
8
OBJECT__9
10
35.398998
20
25.275000
30
3.270000
70
192
0
VERTEX
8
OBJECT__9
10
66.497002
20
15.353000
30
18.281000
70
192
0
VERTEX
8
OBJECT__9
10
44.488998
20
17.135000
30
18.702999
70
192
0
VERTEX
8
OBJECT__9
10
46.507000
20
11.303000
30
22.129000
70
192
0
VERTEX
8
OBJECT__9
10
66.419998
20
10.540000
30
21.205999
70
192
0
VERTEX
8
OBJECT__9
10
66.383003
20
8.207000
30
22.624001
70
192
0
VERTEX
8
OBJECT__9
10
47.507999
20
8.410000
30
23.827999
70
192
0
VERTEX
8
OBJECT__9
10
48.192001
20
-0.036000
30
24.988001
70
192
0
VERTEX
8
OBJECT__9
10
66.344002
20
-0.001000
30
24.129999
70
192
0
VERTEX
8
OBJECT__9
10
66.384003
20
-8.242000
30
22.611000
70
192
0
VERTEX
8
OBJECT__9
10
66.344002
20
-0.019000
30
24.134001
70
192
0
VERTEX
8
OBJECT__9
10
48.316002
20
-1.574000
30
25.200001
70
192
0
VERTEX
8
OBJECT__9
10
46.792000
20
-11.322000
30
22.612000
70
192
0
VERTEX
8
OBJECT__9
10
66.419998
20
-10.541000
30
21.208000
70
192
0
VERTEX
8
OBJECT__9
10
66.498001
20
-15.381000
30
18.256001
70
192
0
VERTEX
8
OBJECT__9
10
46.714001
20
-11.495000
30
22.480000
70
192
0
VERTEX
8
OBJECT__9
10
43.164001
20
-19.375999
30
16.452999
70
192
0
VERTEX
8
OBJECT__9
10
66.610001
20
-18.698999
30
13.965000
70
192
0
VERTEX
8
OBJECT__9
10
66.875000
20
-22.850000
30
3.852000
70
192
0
VERTEX
8
OBJECT__9
10
66.670998
20
-20.496000
30
11.642000
70
192
0
VERTEX
8
OBJECT__9
10
42.064999
20
-20.468000
30
14.587000
70
192
0
VERTEX
8
OBJECT__9
10
37.974998
20
-24.528999
30
7.644000
70
192
0
VERTEX
8
OBJECT__9
10
35.431999
20
-25.424999
30
3.326000
70
192
0
VERTEX
8
OBJECT__9
10
66.879997
20
-22.914000
30
3.639000
70
192
0
VERTEX
8
OBJECT__9
10
64.747002
20
-23.021000
30
-2.205000
70
192
0
VERTEX
8
OBJECT__9
10
65.565002
20
-23.014000
30
-1.765000
70
192
0
VERTEX
8
OBJECT__9
10
62.230000
20
-23.044001
30
-3.561000
70
192
0
VERTEX
8
OBJECT__9
10
66.987999
20
-23.003000
30
-0.487000
70
192
0
VERTEX
8
OBJECT__9
10
61.921001
20
-23.028999
30
-3.784000
70
192
0
VERTEX
8
OBJECT__9
10
60.275002
20
-22.184000
30
-7.330000
70
192
0
VERTEX
8
OBJECT__9
10
61.359001
20
-22.908001
30
-4.576000
70
192
0
VERTEX
8
OBJECT__9
10
33.888000
20
-25.969000
30
0.706000
70
192
0
VERTEX
8
OBJECT__9
10
33.612000
20
-25.993999
30
-0.361000
70
192
0
VERTEX
8
OBJECT__9
10
60.231998
20
-22.129000
30
-7.486000
70
192
0
VERTEX
8
OBJECT__9
10
33.674999
20
-25.993000
30
0.192000
70
192
0
VERTEX
8
OBJECT__9
10
60.768002
20
22.622999
30
-5.860000
70
192
0
VERTEX
8
OBJECT__9
10
33.612000
20
25.993999
30
-0.361000
70
192
0
VERTEX
8
OBJECT__9
10
33.674999
20
25.993000
30
0.192000
70
192
0
VERTEX
8
OBJECT__9
10
33.888000
20
25.969000
30
0.706000
70
192
0
VERTEX
8
OBJECT__9
10
61.258999
20
22.875000
30
-4.753000
70
192
0
VERTEX
8
OBJECT__9
10
61.973000
20
23.035999
30
-3.724000
70
192
0
VERTEX
8
OBJECT__9
10
66.878998
20
22.910000
30
3.676000
70
192
0
VERTEX
8
OBJECT__9
10
64.766998
20
23.023001
30
-2.215000
70
192
0
VERTEX
8
OBJECT__9
10
62.230000
20
23.046000
30
-3.550000
70
192
0
VERTEX
8
OBJECT__9
10
66.987999
20
23.004999
30
-0.449000
70
192
0
VERTEX
8
OBJECT__9
10
65.214996
20
23.018999
30
-1.979000
70
192
0
VERTEX
8
OBJECT__9
10
0
20
0
30
0
70
128
71
1
72
2
73
3
0
VERTEX
8
OBJECT__9
10
0
20
0
30
0
70
128
71
4
72
5
73
2
0
VERTEX
8
OBJECT__9
10
0
20
0
30
0
70
128
71
2
72
1
73
4
0
VERTEX
8
OBJECT__9
10
0
20
0
30
0
70
128
71
3
72
6
73
1
0
VERTEX
8
OBJECT__9
10
0
20
0
30
0
70
128
71
1
72
7
73
8
0
VERTEX
8
OBJECT__9
10
0
20
0
30
0
70
128
71
8
72
9
73
1
0
VERTEX
8
OBJECT__9
10
0
20
0
30
0
70
128
71
1
72
6
73
7
0
VERTEX
8
OBJECT__9
10
0
20
0
30
0
70
128
71
10
72
9
73
11
0
VERTEX
8
OBJECT__9
10
0
20
0
30
0
70
128
71
9
72
12
73
11
0
VERTEX
8
OBJECT__9
10
0
20
0
30
0
70
128
71
13
72
10
73
14
0
VERTEX
8
OBJECT__9
10
0
20
0
30
0
70
128
71
10
72
15
73
14
0
VERTEX
8
OBJECT__9
10
0
20
0
30
0
70
128
71
14
72
16
73
13
0
VERTEX
8
OBJECT__9
10
0
20
0
30
0
70
128
71
17
72
18
73
19
0
VERTEX
8
OBJECT__9
10
0
20
0
30
0
70
128
71
13
72
20
73
18
0
VERTEX
8
OBJECT__9
10
0
20
0
30
0
70
128
71
18
72
17
73
13
0
VERTEX
8
OBJECT__9
10
0
20
0
30
0
70
128
71
21
72
22
73
23
0
VERTEX
8
OBJECT__9
10
0
20
0
30
0
70
128
71
23
72
24
73
21
0
VERTEX
8
OBJECT__9
10
0
20
0
30
0
70
128
71
25
72
26
73
22
0
VERTEX
8
OBJECT__9
10
0
20
0
30
0
70
128
71
27
72
28
73
29
0
VERTEX
8
OBJECT__9
10
0
20
0
30
0
70
128
71
29
72
30
73
27
0
VERTEX
8
OBJECT__9
10
0
20
0
30
0
70
128
71
24
72
23
73
28
0
VERTEX
8
OBJECT__9
10
0
20
0
30
0
70
128
71
31
72
32
73
33
0
VERTEX
8
OBJECT__9
10
0
20
0
30
0
70
128
71
33
72
34
73
31
0
VERTEX
8
OBJECT__9
10
0
20
0
30
0
70
128
71
30
72
29
73
32
0
VERTEX
8
OBJECT__9
10
0
20
0
30
0
70
128
71
35
72
36
73
37
0
VERTEX
8
OBJECT__9
10
0
20
0
30
0
70
128
71
38
72
39
73
35
0
VERTEX
8
OBJECT__9
10
0
20
0
30
0
70
128
71
37
72
38
73
35
0
VERTEX
8
OBJECT__9
10
0
20
0
30
0
70
128
71
33
72
37
73
36
0
VERTEX
8
OBJECT__9
10
0
20
0
30
0
70
128
71
36
72
34
73
33
0
VERTEX
8
OBJECT__9
10
0
20
0
30
0
70
128
71
40
72
39
73
41
0
VERTEX
8
OBJECT__9
10
0
20
0
30
0
70
128
71
42
72
43
73
40
0
VERTEX
8
OBJECT__9
10
0
20
0
30
0
70
128
71
41
72
42
73
40
0
VERTEX
8
OBJECT__9
10
0
20
0
30
0
70
128
71
44
72
45
73
46
0
VERTEX
8
OBJECT__9
10
0
20
0
30
0
70
128
71
46
72
47
73
44
0
VERTEX
8
OBJECT__9
10
0
20
0
30
0
70
128
71
47
72
48
73
44
0
VERTEX
8
OBJECT__9
10
0
20
0
30
0
70
128
71
49
72
50
73
51
0
VERTEX
8
OBJECT__9
10
0
20
0
30
0
70
128
71
48
72
52
73
50
0
VERTEX
8
OBJECT__9
10
0
20
0
30
0
70
128
71
50
72
49
73
48
0
VERTEX
8
OBJECT__9
10
0
20
0
30
0
70
128
71
51
72
53
73
49
0
VERTEX
8
OBJECT__9
10
0
20
0
30
0
70
128
71
48
72
54
73
52
0
VERTEX
8
OBJECT__9
10
0
20
0
30
0
70
128
71
55
72
56
73
48
0
VERTEX
8
OBJECT__9
10
0
20
0
30
0
70
128
71
48
72
57
73
55
0
VERTEX
8
OBJECT__9
10
0
20
0
30
0
70
128
71
58
72
17
73
59
0
VERTEX
8
OBJECT__9
10
0
20
0
30
0
70
128
71
55
72
60
73
58
0
VERTEX
8
OBJECT__9
10
0
20
0
30
0
70
128
71
59
72
55
73
58
0
VERTEX
8
OBJECT__9
10
0
20
0
30
0
70
128
71
57
72
60
73
55
0
VERTEX
8
OBJECT__9
10
0
20
0
30
0
70
128
71
56
72
54
73
48
0
VERTEX
8
OBJECT__9
10
0
20
0
30
0
70
128
71
61
72
62
73
63
0
VERTEX
8
OBJECT__9
10
0
20
0
30
0
70
128
71
63
72
64
73
61
0
VERTEX
8
OBJECT__9
10
0
20
0
30
0
70
128
71
62
72
61
73
5
0
VERTEX
8
OBJECT__9
10
0
20
0
30
0
70
128
71
5
72
4
73
62
0
VERTEX
8
OBJECT__9
10
0
20
0
30
0
70
128
71
26
72
65
73
61
0
VERTEX
8
OBJECT__9
10
0
20
0
30
0
70
128
71
26
72
66
73
65
0
VERTEX
8
OBJECT__9
10
0
20
0
30
0
70
128
71
67
72
68
73
69
0
VERTEX
8
OBJECT__9
10
0
20
0
30
0
70
128
71
67
72
70
73
71
0
VERTEX
8
OBJECT__9
10
0
20
0
30
0
70
128
71
71
72
68
73
67
0
VERTEX
8
OBJECT__9
10
0
20
0
30
0
70
128
71
26
72
25
73
67
0
VERTEX
8
OBJECT__9
10
0
20
0
30
0
70
128
71
69
72
26
73
67
0
VERTEX
8
OBJECT__9
10
0
20
0
30
0
70
128
71
69
72
66
73
26
0
VERTEX
8
OBJECT__9
10
0
20
0
30
0
70
128
71
64
72
26
73
61
0
VERTEX
8
OBJECT__9
10
0
20
0
30
0
70
128
71
49
72
44
73
48
0
VERTEX
8
OBJECT__9
10
0
20
0
30
0
70
128
71
45
72
43
73
46
0
VERTEX
8
OBJECT__9
10
0
20
0
30
0
70
128
71
42
72
46
73
43
0
VERTEX
8
OBJECT__9
10
0
20
0
30
0
70
128
71
38
72
41
73
39
0
VERTEX
8
OBJECT__9
10
0
20
0
30
0
70
128
71
31
72
30
73
32
0
VERTEX
8
OBJECT__9
10
0
20
0
30
0
70
128
71
27
72
24
73
28
0
VERTEX
8
OBJECT__9
10
0
20
0
30
0
70
128
71
21
72
25
73
22
0
VERTEX
8
OBJECT__9
10
0
20
0
30
0
70
128
71
19
72
59
73
17
0
VERTEX
8
OBJECT__9
10
0
20
0
30
0
70
128
71
16
72
20
73
13
0
VERTEX
8
OBJECT__9
10
0
20
0
30
0
70
128
71
11
72
15
73
10
0
VERTEX
8
OBJECT__9
10
0
20
0
30
0
70
128
71
8
72
12
73
9
0
SEQEND
8
OBJECT__9
0
POLYLINE
8
OBJECT__10
66
1
70
64
71
14
72
12
62
253
0
VERTEX
8
OBJECT__10
10
61.921001
20
-23.028999
30
-3.784000
70
192
0
VERTEX
8
OBJECT__10
10
62.340000
20
-22.993999
30
-4.174000
70
192
0
VERTEX
8
OBJECT__10
10
62.416000
20
-22.999001
30
-3.940000
70
192
0
VERTEX
8
OBJECT__10
10
61.359001
20
-22.908001
30
-4.576000
70
192
0
VERTEX
8
OBJECT__10
10
62.210999
20
-22.959000
30
-5.020000
70
192
0
VERTEX
8
OBJECT__10
10
60.275002
20
-22.184000
30
-7.330000
70
192
0
VERTEX
8
OBJECT__10
10
61.988998
20
-22.753000
30
-7.979000
70
192
0
VERTEX
8
OBJECT__10
10
60.115002
20
-21.975000
30
-7.919000
70
192
0
VERTEX
8
OBJECT__10
10
61.959999
20
-22.694000
30
-8.613000
70
192
0
VERTEX
8
OBJECT__10
10
60.231998
20
-22.129000
30
-7.486000
70
192
0
VERTEX
8
OBJECT__10
10
59.722000
20
-20.570999
30
-10.920000
70
192
0
VERTEX
8
OBJECT__10
10
60.821999
20
-21.434999
30
-11.388000
70
192
0
VERTEX
8
OBJECT__10
10
61.923000
20
-22.299000
30
-11.855000
70
192
0
VERTEX
8
OBJECT__10
10
62.230000
20
-23.044001
30
-3.561000
70
192
0
VERTEX
8
OBJECT__10
10
0
20
0
30
0
70
128
71
1
72
2
73
3
0
VERTEX
8
OBJECT__10
10
0
20
0
30
0
70
128
71
4
72
5
73
2
0
VERTEX
8
OBJECT__10
10
0
20
0
30
0
70
128
71
6
72
7
73
5
0
VERTEX
8
OBJECT__10
10
0
20
0
30
0
70
128
71
8
72
9
73
7
0
VERTEX
8
OBJECT__10
10
0
20
0
30
0
70
128
71
7
72
6
73
10
0
VERTEX
8
OBJECT__10
10
0
20
0
30
0
70
128
71
8
72
11
73
12
0
VERTEX
8
OBJECT__10
10
0
20
0
30
0
70
128
71
12
72
9
73
8
0
VERTEX
8
OBJECT__10
10
0
20
0
30
0
70
128
71
12
72
13
73
9
0
VERTEX
8
OBJECT__10
10
0
20
0
30
0
70
128
71
7
72
10
73
8
0
VERTEX
8
OBJECT__10
10
0
20
0
30
0
70
128
71
5
72
4
73
6
0
VERTEX
8
OBJECT__10
10
0
20
0
30
0
70
128
71
2
72
1
73
4
0
VERTEX
8
OBJECT__10
10
0
20
0
30
0
70
128
71
3
72
14
73
1
0
SEQEND
8
OBJECT__10
0
POLYLINE
8
OBJECT__11
66
1
70
64
71
14
72
12
62
253
0
VERTEX
8
OBJECT__11
10
60.213001
20
22.112000
30
-7.540000
70
192
0
VERTEX
8
OBJECT__11
10
61.978001
20
22.735001
30
-8.205000
70
192
0
VERTEX
8
OBJECT__11
10
60.821999
20
21.437000
30
-11.384000
70
192
0
VERTEX
8
OBJECT__11
10
61.923000
20
22.301001
30
-11.851000
70
192
0
VERTEX
8
OBJECT__11
10
60.230999
20
22.129000
30
-7.486000
70
192
0
VERTEX
8
OBJECT__11
10
60.768002
20
22.622999
30
-5.860000
70
192
0
VERTEX
8
OBJECT__11
10
62.084999
20
22.879000
30
-6.397000
70
192
0
VERTEX
8
OBJECT__11
10
61.258999
20
22.875000
30
-4.753000
70
192
0
VERTEX
8
OBJECT__11
10
62.188999
20
22.951000
30
-5.209000
70
192
0
VERTEX
8
OBJECT__11
10
61.973000
20
23.035999
30
-3.724000
70
192
0
VERTEX
8
OBJECT__11
10
62.353001
20
22.997999
30
-4.111000
70
192
0
VERTEX
8
OBJECT__11
10
62.230000
20
23.046000
30
-3.550000
70
192
0
VERTEX
8
OBJECT__11
10
62.415001
20
23.000999
30
-3.928000
70
192
0
VERTEX
8
OBJECT__11
10
59.722000
20
20.573000
30
-10.917000
70
192
0
VERTEX
8
OBJECT__11
10
0
20
0
30
0
70
128
71
1
72
2
73
3
0
VERTEX
8
OBJECT__11
10
0
20
0
30
0
70
128
71
2
72
4
73
3
0
VERTEX
8
OBJECT__11
10
0
20
0
30
0
70
128
71
5
72
6
73
7
0
VERTEX
8
OBJECT__11
10
0
20
0
30
0
70
128
71
2
72
1
73
5
0
VERTEX
8
OBJECT__11
10
0
20
0
30
0
70
128
71
6
72
8
73
9
0
VERTEX
8
OBJECT__11
10
0
20
0
30
0
70
128
71
8
72
10
73
11
0
VERTEX
8
OBJECT__11
10
0
20
0
30
0
70
128
71
10
72
12
73
13
0
VERTEX
8
OBJECT__11
10
0
20
0
30
0
70
128
71
13
72
11
73
10
0
VERTEX
8
OBJECT__11
10
0
20
0
30
0
70
128
71
11
72
9
73
8
0
VERTEX
8
OBJECT__11
10
0
20
0
30
0
70
128
71
9
72
7
73
6
0
VERTEX
8
OBJECT__11
10
0
20
0
30
0
70
128
71
7
72
2
73
5
0
VERTEX
8
OBJECT__11
10
0
20
0
30
0
70
128
71
3
72
14
73
1
0
SEQEND
8
OBJECT__11
0
POLYLINE
8
OBJECT__12
66
1
70
64
71
28
72
31
62
253
0
VERTEX
8
OBJECT__12
10
62.103001
20
16.562000
30
-18.718000
70
192
0
VERTEX
8
OBJECT__12
10
61.424000
20
15.612000
30
-17.607000
70
192
0
VERTEX
8
OBJECT__12
10
60.821999
20
21.437000
30
-11.384000
70
192
0
VERTEX
8
OBJECT__12
10
62.220001
20
8.816000
30
-23.202000
70
192
0
VERTEX
8
OBJECT__12
10
61.535000
20
8.311000
30
-21.834000
70
192
0
VERTEX
8
OBJECT__12
10
62.220001
20
-8.812000
30
-23.202999
70
192
0
VERTEX
8
OBJECT__12
10
62.103001
20
-16.559000
30
-18.721001
70
192
0
VERTEX
8
OBJECT__12
10
61.424000
20
-15.609000
30
-17.610001
70
192
0
VERTEX
8
OBJECT__12
10
61.923000
20
-22.299000
30
-11.855000
70
192
0
VERTEX
8
OBJECT__12
10
60.821999
20
-21.434999
30
-11.388000
70
192
0
VERTEX
8
OBJECT__12
10
59.875999
20
15.656000
30
-16.799999
70
192
0
VERTEX
8
OBJECT__12
10
59.888000
20
15.279000
30
-17.250999
70
192
0
VERTEX
8
OBJECT__12
10
59.995998
20
8.133000
30
-21.388000
70
192
0
VERTEX
8
OBJECT__12
10
61.573002
20
0.002000
30
-23.302000
70
192
0
VERTEX
8
OBJECT__12
10
60.034000
20
0.002000
30
-22.825001
70
192
0
VERTEX
8
OBJECT__12
10
60.007999
20
5.623000
30
-21.832001
70
192
0
VERTEX
8
OBJECT__12
10
61.535000
20
-8.307000
30
-21.834999
70
192
0
VERTEX
8
OBJECT__12
10
60.007999
20
-5.623000
30
-21.832001
70
192
0
VERTEX
8
OBJECT__12
10
59.995998
20
-8.129000
30
-21.389000
70
192
0
VERTEX
8
OBJECT__12
10
59.888000
20
-15.276000
30
-17.254000
70
192
0
VERTEX
8
OBJECT__12
10
59.722000
20
-20.570999
30
-10.920000
70
192
0
VERTEX
8
OBJECT__12
10
59.875999
20
-15.656000
30
-16.799000
70
192
0
VERTEX
8
OBJECT__12
10
62.243999
20
5.651000
30
-24.131001
70
192
0
VERTEX
8
OBJECT__12
10
62.210999
20
0.352000
30
-24.364000
70
192
0
VERTEX
8
OBJECT__12
10
62.213001
20
0.004000
30
-24.350000
70
192
0
VERTEX
8
OBJECT__12
10
62.243999
20
-5.651000
30
-24.131001
70
192
0
VERTEX
8
OBJECT__12
10
59.722000
20
20.573000
30
-10.917000
70
192
0
VERTEX
8
OBJECT__12
10
61.923000
20
22.301001
30
-11.851000
70
192
0
VERTEX
8
OBJECT__12
10
0
20
0
30
0
70
128
71
1
72
2
73
3
0
VERTEX
8
OBJECT__12
10
0
20
0
30
0
70
128
71
1
72
4
73
5
0
VERTEX
8
OBJECT__12
10
0
20
0
30
0
70
128
71
6
72
7
73
8
0
VERTEX
8
OBJECT__12
10
0
20
0
30
0
70
128
71
7
72
9
73
10
0
VERTEX
8
OBJECT__12
10
0
20
0
30
0
70
128
71
3
72
2
73
11
0
VERTEX
8
OBJECT__12
10
0
20
0
30
0
70
128
71
2
72
12
73
11
0
VERTEX
8
OBJECT__12
10
0
20
0
30
0
70
128
71
5
72
13
73
12
0
VERTEX
8
OBJECT__12
10
0
20
0
30
0
70
128
71
14
72
15
73
16
0
VERTEX
8
OBJECT__12
10
0
20
0
30
0
70
128
71
16
72
5
73
14
0
VERTEX
8
OBJECT__12
10
0
20
0
30
0
70
128
71
14
72
17
73
18
0
VERTEX
8
OBJECT__12
10
0
20
0
30
0
70
128
71
17
72
19
73
18
0
VERTEX
8
OBJECT__12
10
0
20
0
30
0
70
128
71
8
72
20
73
19
0
VERTEX
8
OBJECT__12
10
0
20
0
30
0
70
128
71
10
72
21
73
22
0
VERTEX
8
OBJECT__12
10
0
20
0
30
0
70
128
71
22
72
8
73
10
0
VERTEX
8
OBJECT__12
10
0
20
0
30
0
70
128
71
14
72
5
73
23
0
VERTEX
8
OBJECT__12
10
0
20
0
30
0
70
128
71
5
72
4
73
23
0
VERTEX
8
OBJECT__12
10
0
20
0
30
0
70
128
71
23
72
24
73
14
0
VERTEX
8
OBJECT__12
10
0
20
0
30
0
70
128
71
14
72
25
73
26
0
VERTEX
8
OBJECT__12
10
0
20
0
30
0
70
128
71
26
72
17
73
14
0
VERTEX
8
OBJECT__12
10
0
20
0
30
0
70
128
71
26
72
6
73
17
0
VERTEX
8
OBJECT__12
10
0
20
0
30
0
70
128
71
24
72
25
73
14
0
VERTEX
8
OBJECT__12
10
0
20
0
30
0
70
128
71
22
72
20
73
8
0
VERTEX
8
OBJECT__12
10
0
20
0
30
0
70
128
71
19
72
17
73
8
0
VERTEX
8
OBJECT__12
10
0
20
0
30
0
70
128
71
18
72
15
73
14
0
VERTEX
8
OBJECT__12
10
0
20
0
30
0
70
128
71
16
72
13
73
5
0
VERTEX
8
OBJECT__12
10
0
20
0
30
0
70
128
71
12
72
2
73
5
0
VERTEX
8
OBJECT__12
10
0
20
0
30
0
70
128
71
11
72
27
73
3
0
VERTEX
8
OBJECT__12
10
0
20
0
30
0
70
128
71
10
72
8
73
7
0
VERTEX
8
OBJECT__12
10
0
20
0
30
0
70
128
71
8
72
17
73
6
0
VERTEX
8
OBJECT__12
10
0
20
0
30
0
70
128
71
5
72
2
73
1
0
VERTEX
8
OBJECT__12
10
0
20
0
30
0
70
128
71
3
72
28
73
1
0
SEQEND
8
OBJECT__12
0
POLYLINE
8
OBJECT__13
66
1
70
64
71
11
72
9
62
253
0
VERTEX
8
OBJECT__13
10
64.747002
20
-23.021000
30
-2.205000
70
192
0
VERTEX
8
OBJECT__13
10
64.917999
20
-22.999001
30
-2.475000
70
192
0
VERTEX
8
OBJECT__13
10
65.056999
20
-22.999001
30
-2.393000
70
192
0
VERTEX
8
OBJECT__13
10
65.565002
20
-23.014000
30
-1.765000
70
192
0
VERTEX
8
OBJECT__13
10
66.960999
20
-23.000000
30
-0.579000
70
192
0
VERTEX
8
OBJECT__13
10
66.975998
20
-23.000999
30
-0.529000
70
192
0
VERTEX
8
OBJECT__13
10
66.931999
20
-22.999001
30
-0.679000
70
192
0
VERTEX
8
OBJECT__13
10
66.945999
20
-22.999001
30
-0.629000
70
192
0
VERTEX
8
OBJECT__13
10
66.987999
20
-23.003000
30
-0.487000
70
192
0
VERTEX
8
OBJECT__13
10
62.416000
20
-22.999001
30
-3.940000
70
192
0
VERTEX
8
OBJECT__13
10
62.230000
20
-23.044001
30
-3.561000
70
192
0
VERTEX
8
OBJECT__13
10
0
20
0
30
0
70
128
71
1
72
2
73
3
0
VERTEX
8
OBJECT__13
10
0
20
0
30
0
70
128
71
4
72
5
73
6
0
VERTEX
8
OBJECT__13
10
0
20
0
30
0
70
128
71
7
72
8
73
4
0
VERTEX
8
OBJECT__13
10
0
20
0
30
0
70
128
71
4
72
3
73
7
0
VERTEX
8
OBJECT__13
10
0
20
0
30
0
70
128
71
8
72
5
73
4
0
VERTEX
8
OBJECT__13
10
0
20
0
30
0
70
128
71
6
72
9
73
4
0
VERTEX
8
OBJECT__13
10
0
20
0
30
0
70
128
71
10
72
2
73
1
0
VERTEX
8
OBJECT__13
10
0
20
0
30
0
70
128
71
1
72
11
73
10
0
VERTEX
8
OBJECT__13
10
0
20
0
30
0
70
128
71
3
72
4
73
1
0
SEQEND
8
OBJECT__13
0
POLYLINE
8
OBJECT__14
66
1
70
64
71
9
72
7
62
253
0
VERTEX
8
OBJECT__14
10
64.387001
20
-22.999001
30
-79.209000
70
192
0
VERTEX
8
OBJECT__14
10
62.210999
20
-22.959000
30
-5.020000
70
192
0
VERTEX
8
OBJECT__14
10
61.988998
20
-22.753000
30
-7.979000
70
192
0
VERTEX
8
OBJECT__14
10
62.416000
20
-22.999001
30
-3.940000
70
192
0
VERTEX
8
OBJECT__14
10
62.340000
20
-22.993999
30
-4.174000
70
192
0
VERTEX
8
OBJECT__14
10
63.891998
20
-22.794001
30
-79.222000
70
192
0
VERTEX
8
OBJECT__14
10
61.959999
20
-22.694000
30
-8.613000
70
192
0
VERTEX
8
OBJECT__14
10
63.687000
20
-22.299000
30
-79.227997
70
192
0
VERTEX
8
OBJECT__14
10
61.923000
20
-22.299000
30
-11.855000
70
192
0
VERTEX
8
OBJECT__14
10
0
20
0
30
0
70
128
71
1
72
2
73
3
0
VERTEX
8
OBJECT__14
10
0
20
0
30
0
70
128
71
1
72
4
73
5
0
VERTEX
8
OBJECT__14
10
0
20
0
30
0
70
128
71
5
72
2
73
1
0
VERTEX
8
OBJECT__14
10
0
20
0
30
0
70
128
71
6
72
3
73
7
0
VERTEX
8
OBJECT__14
10
0
20
0
30
0
70
128
71
7
72
8
73
6
0
VERTEX
8
OBJECT__14
10
0
20
0
30
0
70
128
71
7
72
9
73
8
0
VERTEX
8
OBJECT__14
10
0
20
0
30
0
70
128
71
3
72
6
73
1
0
SEQEND
8
OBJECT__14
0
POLYLINE
8
OBJECT__15
66
1
70
64
71
42
72
49
62
253
0
VERTEX
8
OBJECT__15
10
66.878998
20
22.910000
30
3.676000
70
192
0
VERTEX
8
OBJECT__15
10
67.333000
20
22.688999
30
3.663000
70
192
0
VERTEX
8
OBJECT__15
10
67.361000
20
22.733999
30
-0.421000
70
192
0
VERTEX
8
OBJECT__15
10
67.236000
20
22.936001
30
-0.438000
70
192
0
VERTEX
8
OBJECT__15
10
67.125000
20
20.281000
30
11.585000
70
192
0
VERTEX
8
OBJECT__15
10
66.875000
20
22.856001
30
3.854000
70
192
0
VERTEX
8
OBJECT__15
10
66.954002
20
15.205000
30
18.127001
70
192
0
VERTEX
8
OBJECT__15
10
66.610001
20
18.701000
30
13.966000
70
192
0
VERTEX
8
OBJECT__15
10
66.669998
20
20.479000
30
11.675000
70
192
0
VERTEX
8
OBJECT__15
10
66.497002
20
15.353000
30
18.281000
70
192
0
VERTEX
8
OBJECT__15
10
66.419998
20
10.540000
30
21.205999
70
192
0
VERTEX
8
OBJECT__15
10
66.841003
20
8.128000
30
22.427999
70
192
0
VERTEX
8
OBJECT__15
10
66.344002
20
-0.001000
30
24.129999
70
192
0
VERTEX
8
OBJECT__15
10
66.802002
20
-0.019000
30
23.923000
70
192
0
VERTEX
8
OBJECT__15
10
66.383003
20
8.207000
30
22.624001
70
192
0
VERTEX
8
OBJECT__15
10
66.384003
20
-8.242000
30
22.611000
70
192
0
VERTEX
8
OBJECT__15
10
66.842003
20
-8.162000
30
22.415001
70
192
0
VERTEX
8
OBJECT__15
10
66.955002
20
-15.232000
30
18.101999
70
192
0
VERTEX
8
OBJECT__15
10
66.419998
20
-10.541000
30
21.208000
70
192
0
VERTEX
8
OBJECT__15
10
66.498001
20
-15.381000
30
18.256001
70
192
0
VERTEX
8
OBJECT__15
10
66.610001
20
-18.698999
30
13.965000
70
192
0
VERTEX
8
OBJECT__15
10
67.125999
20
-20.298000
30
11.552000
70
192
0
VERTEX
8
OBJECT__15
10
66.670998
20
-20.496000
30
11.642000
70
192
0
VERTEX
8
OBJECT__15
10
66.875000
20
-22.850000
30
3.852000
70
192
0
VERTEX
8
OBJECT__15
10
67.334000
20
-22.693001
30
3.626000
70
192
0
VERTEX
8
OBJECT__15
10
66.879997
20
-22.914000
30
3.639000
70
192
0
VERTEX
8
OBJECT__15
10
67.237000
20
-22.933001
30
-0.475000
70
192
0
VERTEX
8
OBJECT__15
10
67.362000
20
-22.732000
30
-0.458000
70
192
0
VERTEX
8
OBJECT__15
10
66.987999
20
-23.003000
30
-0.487000
70
192
0
VERTEX
8
OBJECT__15
10
67.625000
20
-22.306999
30
-0.422000
70
192
0
VERTEX
8
OBJECT__15
10
67.521004
20
-22.221001
30
3.579000
70
192
0
VERTEX
8
OBJECT__15
10
67.317001
20
-19.875999
30
11.339000
70
192
0
VERTEX
8
OBJECT__15
10
67.150002
20
-14.915000
30
17.753000
70
192
0
VERTEX
8
OBJECT__15
10
67.039001
20
-7.993000
30
21.976999
70
192
0
VERTEX
8
OBJECT__15
10
67.000000
20
-0.018000
30
23.452999
70
192
0
VERTEX
8
OBJECT__15
10
67.039001
20
7.959000
30
21.990000
70
192
0
VERTEX
8
OBJECT__15
10
67.149002
20
14.888000
30
17.778000
70
192
0
VERTEX
8
OBJECT__15
10
67.317001
20
19.858999
30
11.372000
70
192
0
VERTEX
8
OBJECT__15
10
67.519997
20
22.216999
30
3.615000
70
192
0
VERTEX
8
OBJECT__15
10
67.625000
20
22.309000
30
-0.386000
70
192
0
VERTEX
8
OBJECT__15
10
66.344002
20
-0.019000
30
24.134001
70
192
0
VERTEX
8
OBJECT__15
10
66.987999
20
23.004999
30
-0.449000
70
192
0
VERTEX
8
OBJECT__15
10
0
20
0
30
0
70
128
71
1
72
2
73
3
0
VERTEX
8
OBJECT__15
10
0
20
0
30
0
70
128
71
3
72
4
73
1
0
VERTEX
8
OBJECT__15
10
0
20
0
30
0
70
128
71
5
72
2
73
6
0
VERTEX
8
OBJECT__15
10
0
20
0
30
0
70
128
71
2
72
1
73
6
0
VERTEX
8
OBJECT__15
10
0
20
0
30
0
70
128
71
7
72
5
73
8
0
VERTEX
8
OBJECT__15
10
0
20
0
30
0
70
128
71
5
72
9
73
8
0
VERTEX
8
OBJECT__15
10
0
20
0
30
0
70
128
71
7
72
10
73
11
0
VERTEX
8
OBJECT__15
10
0
20
0
30
0
70
128
71
11
72
12
73
7
0
VERTEX
8
OBJECT__15
10
0
20
0
30
0
70
128
71
13
72
14
73
12
0
VERTEX
8
OBJECT__15
10
0
20
0
30
0
70
128
71
12
72
15
73
13
0
VERTEX
8
OBJECT__15
10
0
20
0
30
0
70
128
71
16
72
17
73
14
0
VERTEX
8
OBJECT__15
10
0
20
0
30
0
70
128
71
18
72
17
73
19
0
VERTEX
8
OBJECT__15
10
0
20
0
30
0
70
128
71
17
72
16
73
19
0
VERTEX
8
OBJECT__15
10
0
20
0
30
0
70
128
71
18
72
20
73
21
0
VERTEX
8
OBJECT__15
10
0
20
0
30
0
70
128
71
21
72
22
73
18
0
VERTEX
8
OBJECT__15
10
0
20
0
30
0
70
128
71
22
72
23
73
24
0
VERTEX
8
OBJECT__15
10
0
20
0
30
0
70
128
71
24
72
25
73
22
0
VERTEX
8
OBJECT__15
10
0
20
0
30
0
70
128
71
26
72
27
73
28
0
VERTEX
8
OBJECT__15
10
0
20
0
30
0
70
128
71
26
72
29
73
27
0
VERTEX
8
OBJECT__15
10
0
20
0
30
0
70
128
71
28
72
30
73
31
0
VERTEX
8
OBJECT__15
10
0
20
0
30
0
70
128
71
22
72
25
73
31
0
VERTEX
8
OBJECT__15
10
0
20
0
30
0
70
128
71
18
72
22
73
32
0
VERTEX
8
OBJECT__15
10
0
20
0
30
0
70
128
71
17
72
18
73
33
0
VERTEX
8
OBJECT__15
10
0
20
0
30
0
70
128
71
14
72
17
73
34
0
VERTEX
8
OBJECT__15
10
0
20
0
30
0
70
128
71
14
72
35
73
36
0
VERTEX
8
OBJECT__15
10
0
20
0
30
0
70
128
71
12
72
36
73
37
0
VERTEX
8
OBJECT__15
10
0
20
0
30
0
70
128
71
7
72
37
73
38
0
VERTEX
8
OBJECT__15
10
0
20
0
30
0
70
128
71
5
72
38
73
39
0
VERTEX
8
OBJECT__15
10
0
20
0
30
0
70
128
71
3
72
2
73
39
0
VERTEX
8
OBJECT__15
10
0
20
0
30
0
70
128
71
39
72
40
73
3
0
VERTEX
8
OBJECT__15
10
0
20
0
30
0
70
128
71
39
72
2
73
5
0
VERTEX
8
OBJECT__15
10
0
20
0
30
0
70
128
71
38
72
5
73
7
0
VERTEX
8
OBJECT__15
10
0
20
0
30
0
70
128
71
37
72
7
73
12
0
VERTEX
8
OBJECT__15
10
0
20
0
30
0
70
128
71
36
72
12
73
14
0
VERTEX
8
OBJECT__15
10
0
20
0
30
0
70
128
71
34
72
35
73
14
0
VERTEX
8
OBJECT__15
10
0
20
0
30
0
70
128
71
33
72
34
73
17
0
VERTEX
8
OBJECT__15
10
0
20
0
30
0
70
128
71
32
72
33
73
18
0
VERTEX
8
OBJECT__15
10
0
20
0
30
0
70
128
71
31
72
32
73
22
0
VERTEX
8
OBJECT__15
10
0
20
0
30
0
70
128
71
31
72
25
73
28
0
VERTEX
8
OBJECT__15
10
0
20
0
30
0
70
128
71
28
72
25
73
26
0
VERTEX
8
OBJECT__15
10
0
20
0
30
0
70
128
71
24
72
26
73
25
0
VERTEX
8
OBJECT__15
10
0
20
0
30
0
70
128
71
21
72
23
73
22
0
VERTEX
8
OBJECT__15
10
0
20
0
30
0
70
128
71
19
72
20
73
18
0
VERTEX
8
OBJECT__15
10
0
20
0
30
0
70
128
71
14
72
41
73
16
0
VERTEX
8
OBJECT__15
10
0
20
0
30
0
70
128
71
13
72
41
73
14
0
VERTEX
8
OBJECT__15
10
0
20
0
30
0
70
128
71
11
72
15
73
12
0
VERTEX
8
OBJECT__15
10
0
20
0
30
0
70
128
71
8
72
10
73
7
0
VERTEX
8
OBJECT__15
10
0
20
0
30
0
70
128
71
6
72
9
73
5
0
VERTEX
8
OBJECT__15
10
0
20
0
30
0
70
128
71
4
72
42
73
1
0
SEQEND
8
OBJECT__15
0
POLYLINE
8
OBJECT__16
66
1
70
64
71
14
72
12
62
253
0
VERTEX
8
OBJECT__16
10
67.628998
20
22.302000
30
-0.568000
70
192
0
VERTEX
8
OBJECT__16
10
66.945999
20
23.000999
30
-0.599000
70
192
0
VERTEX
8
OBJECT__16
10
66.973000
20
23.003000
30
-0.499000
70
192
0
VERTEX
8
OBJECT__16
10
67.630997
20
22.301001
30
-0.629000
70
192
0
VERTEX
8
OBJECT__16
10
66.931999
20
23.000999
30
-0.648000
70
192
0
VERTEX
8
OBJECT__16
10
67.198997
20
22.948000
30
-0.646000
70
192
0
VERTEX
8
OBJECT__16
10
66.931000
20
23.000999
30
-0.653000
70
192
0
VERTEX
8
OBJECT__16
10
67.630997
20
22.301001
30
-0.635000
70
192
0
VERTEX
8
OBJECT__16
10
67.338997
20
22.738001
30
-0.642000
70
192
0
VERTEX
8
OBJECT__16
10
67.236000
20
22.936001
30
-0.438000
70
192
0
VERTEX
8
OBJECT__16
10
67.361000
20
22.733999
30
-0.421000
70
192
0
VERTEX
8
OBJECT__16
10
67.625999
20
22.306000
30
-0.447000
70
192
0
VERTEX
8
OBJECT__16
10
66.987999
20
23.004999
30
-0.449000
70
192
0
VERTEX
8
OBJECT__16
10
67.625000
20
22.309000
30
-0.386000
70
192
0
VERTEX
8
OBJECT__16
10
0
20
0
30
0
70
128
71
1
72
2
73
3
0
VERTEX
8
OBJECT__16
10
0
20
0
30
0
70
128
71
4
72
5
73
2
0
VERTEX
8
OBJECT__16
10
0
20
0
30
0
70
128
71
5
72
4
73
6
0
VERTEX
8
OBJECT__16
10
0
20
0
30
0
70
128
71
6
72
7
73
5
0
VERTEX
8
OBJECT__16
10
0
20
0
30
0
70
128
71
4
72
8
73
9
0
VERTEX
8
OBJECT__16
10
0
20
0
30
0
70
128
71
9
72
6
73
4
0
VERTEX
8
OBJECT__16
10
0
20
0
30
0
70
128
71
3
72
10
73
11
0
VERTEX
8
OBJECT__16
10
0
20
0
30
0
70
128
71
11
72
12
73
3
0
VERTEX
8
OBJECT__16
10
0
20
0
30
0
70
128
71
3
72
13
73
10
0
VERTEX
8
OBJECT__16
10
0
20
0
30
0
70
128
71
11
72
14
73
12
0
VERTEX
8
OBJECT__16
10
0
20
0
30
0
70
128
71
2
72
1
73
4
0
VERTEX
8
OBJECT__16
10
0
20
0
30
0
70
128
71
3
72
12
73
1
0
SEQEND
8
OBJECT__16
0
POLYLINE
8
OBJECT__17
66
1
70
64
71
13
72
11
62
253
0
VERTEX
8
OBJECT__17
10
66.945999
20
-22.999001
30
-0.629000
70
192
0
VERTEX
8
OBJECT__17
10
66.931999
20
-22.999001
30
-0.679000
70
192
0
VERTEX
8
OBJECT__17
10
67.427002
20
-22.794001
30
-0.666000
70
192
0
VERTEX
8
OBJECT__17
10
67.629997
20
-22.299000
30
-0.599000
70
192
0
VERTEX
8
OBJECT__17
10
67.627998
20
-22.301001
30
-0.537000
70
192
0
VERTEX
8
OBJECT__17
10
66.960999
20
-23.000000
30
-0.579000
70
192
0
VERTEX
8
OBJECT__17
10
67.626999
20
-22.304001
30
-0.475000
70
192
0
VERTEX
8
OBJECT__17
10
66.975998
20
-23.000999
30
-0.529000
70
192
0
VERTEX
8
OBJECT__17
10
67.362000
20
-22.732000
30
-0.458000
70
192
0
VERTEX
8
OBJECT__17
10
67.625000
20
-22.306999
30
-0.422000
70
192
0
VERTEX
8
OBJECT__17
10
67.237000
20
-22.933001
30
-0.475000
70
192
0
VERTEX
8
OBJECT__17
10
66.987999
20
-23.003000
30
-0.487000
70
192
0
VERTEX
8
OBJECT__17
10
67.632004
20
-22.299000
30
-0.661000
70
192
0
VERTEX
8
OBJECT__17
10
0
20
0
30
0
70
128
71
1
72
2
73
3
0
VERTEX
8
OBJECT__17
10
0
20
0
30
0
70
128
71
3
72
4
73
1
0
VERTEX
8
OBJECT__17
10
0
20
0
30
0
70
128
71
4
72
5
73
6
0
VERTEX
8
OBJECT__17
10
0
20
0
30
0
70
128
71
5
72
7
73
8
0
VERTEX
8
OBJECT__17
10
0
20
0
30
0
70
128
71
8
72
7
73
9
0
VERTEX
8
OBJECT__17
10
0
20
0
30
0
70
128
71
7
72
10
73
9
0
VERTEX
8
OBJECT__17
10
0
20
0
30
0
70
128
71
9
72
11
73
8
0
VERTEX
8
OBJECT__17
10
0
20
0
30
0
70
128
71
11
72
12
73
8
0
VERTEX
8
OBJECT__17
10
0
20
0
30
0
70
128
71
8
72
6
73
5
0
VERTEX
8
OBJECT__17
10
0
20
0
30
0
70
128
71
6
72
1
73
4
0
VERTEX
8
OBJECT__17
10
0
20
0
30
0
70
128
71
3
72
13
73
4
0
SEQEND
8
OBJECT__17
0
POLYLINE
8
OBJECT__18
66
1
70
64
71
6
72
4
62
253
0
VERTEX
8
OBJECT__18
10
69.480003
20
-22.794001
30
-79.075996
70
192
0
VERTEX
8
OBJECT__18
10
67.427002
20
-22.794001
30
-0.666000
70
192
0
VERTEX
8
OBJECT__18
10
66.931999
20
-22.999001
30
-0.679000
70
192
0
VERTEX
8
OBJECT__18
10
69.684998
20
-22.299000
30
-79.070999
70
192
0
VERTEX
8
OBJECT__18
10
67.632004
20
-22.299000
30
-0.661000
70
192
0
VERTEX
8
OBJECT__18
10
68.985001
20
-22.999001
30
-79.088997
70
192
0
VERTEX
8
OBJECT__18
10
0
20
0
30
0
70
128
71
1
72
2
73
3
0
VERTEX
8
OBJECT__18
10
0
20
0
30
0
70
128
71
1
72
4
73
5
0
VERTEX
8
OBJECT__18
10
0
20
0
30
0
70
128
71
5
72
2
73
1
0
VERTEX
8
OBJECT__18
10
0
20
0
30
0
70
128
71
3
72
6
73
1
0
SEQEND
8
OBJECT__18
0
POLYLINE
8
OBJECT__19
66
1
70
64
71
11
72
9
62
253
0
VERTEX
8
OBJECT__19
10
65.214996
20
23.018999
30
-1.979000
70
192
0
VERTEX
8
OBJECT__19
10
66.931999
20
23.000999
30
-0.648000
70
192
0
VERTEX
8
OBJECT__19
10
66.931000
20
23.000999
30
-0.653000
70
192
0
VERTEX
8
OBJECT__19
10
66.945999
20
23.000999
30
-0.599000
70
192
0
VERTEX
8
OBJECT__19
10
66.973000
20
23.003000
30
-0.499000
70
192
0
VERTEX
8
OBJECT__19
10
66.987999
20
23.004999
30
-0.449000
70
192
0
VERTEX
8
OBJECT__19
10
64.902000
20
23.000999
30
-2.420000
70
192
0
VERTEX
8
OBJECT__19
10
64.766998
20
23.023001
30
-2.215000
70
192
0
VERTEX
8
OBJECT__19
10
65.452003
20
23.000999
30
-2.087000
70
192
0
VERTEX
8
OBJECT__19
10
62.415001
20
23.000999
30
-3.928000
70
192
0
VERTEX
8
OBJECT__19
10
62.230000
20
23.046000
30
-3.550000
70
192
0
VERTEX
8
OBJECT__19
10
0
20
0
30
0
70
128
71
1
72
2
73
3
0
VERTEX
8
OBJECT__19
10
0
20
0
30
0
70
128
71
1
72
4
73
2
0
VERTEX
8
OBJECT__19
10
0
20
0
30
0
70
128
71
1
72
5
73
4
0
VERTEX
8
OBJECT__19
10
0
20
0
30
0
70
128
71
1
72
6
73
5
0
VERTEX
8
OBJECT__19
10
0
20
0
30
0
70
128
71
7
72
8
73
1
0
VERTEX
8
OBJECT__19
10
0
20
0
30
0
70
128
71
1
72
9
73
7
0
VERTEX
8
OBJECT__19
10
0
20
0
30
0
70
128
71
10
72
11
73
8
0
VERTEX
8
OBJECT__19
10
0
20
0
30
0
70
128
71
8
72
7
73
10
0
VERTEX
8
OBJECT__19
10
0
20
0
30
0
70
128
71
3
72
9
73
1
0
SEQEND
8
OBJECT__19
0
POLYLINE
8
OBJECT__20
66
1
70
64
71
7
72
5
62
253
0
VERTEX
8
OBJECT__20
10
69.480003
20
22.796000
30
-79.075996
70
192
0
VERTEX
8
OBJECT__20
10
67.338997
20
22.738001
30
-0.642000
70
192
0
VERTEX
8
OBJECT__20
10
67.630997
20
22.301001
30
-0.635000
70
192
0
VERTEX
8
OBJECT__20
10
68.985001
20
23.000999
30
-79.088997
70
192
0
VERTEX
8
OBJECT__20
10
66.931000
20
23.000999
30
-0.653000
70
192
0
VERTEX
8
OBJECT__20
10
67.198997
20
22.948000
30
-0.646000
70
192
0
VERTEX
8
OBJECT__20
10
69.684998
20
22.301001
30
-79.070999
70
192
0
VERTEX
8
OBJECT__20
10
0
20
0
30
0
70
128
71
1
72
2
73
3
0
VERTEX
8
OBJECT__20
10
0
20
0
30
0
70
128
71
4
72
5
73
6
0
VERTEX
8
OBJECT__20
10
0
20
0
30
0
70
128
71
6
72
1
73
4
0
VERTEX
8
OBJECT__20
10
0
20
0
30
0
70
128
71
6
72
2
73
1
0
VERTEX
8
OBJECT__20
10
0
20
0
30
0
70
128
71
3
72
7
73
1
0
SEQEND
8
OBJECT__20
0
POLYLINE
8
OBJECT__21
66
1
70
64
71
9
72
7
62
253
0
VERTEX
8
OBJECT__21
10
63.891998
20
22.796000
30
-79.222000
70
192
0
VERTEX
8
OBJECT__21
10
63.687000
20
22.301001
30
-79.227997
70
192
0
VERTEX
8
OBJECT__21
10
61.923000
20
22.301001
30
-11.851000
70
192
0
VERTEX
8
OBJECT__21
10
64.387001
20
23.000999
30
-79.209000
70
192
0
VERTEX
8
OBJECT__21
10
62.188999
20
22.951000
30
-5.209000
70
192
0
VERTEX
8
OBJECT__21
10
62.353001
20
22.997999
30
-4.111000
70
192
0
VERTEX
8
OBJECT__21
10
62.084999
20
22.879000
30
-6.397000
70
192
0
VERTEX
8
OBJECT__21
10
61.978001
20
22.735001
30
-8.205000
70
192
0
VERTEX
8
OBJECT__21
10
62.415001
20
23.000999
30
-3.928000
70
192
0
VERTEX
8
OBJECT__21
10
0
20
0
30
0
70
128
71
1
72
2
73
3
0
VERTEX
8
OBJECT__21
10
0
20
0
30
0
70
128
71
4
72
5
73
6
0
VERTEX
8
OBJECT__21
10
0
20
0
30
0
70
128
71
4
72
7
73
5
0
VERTEX
8
OBJECT__21
10
0
20
0
30
0
70
128
71
4
72
1
73
8
0
VERTEX
8
OBJECT__21
10
0
20
0
30
0
70
128
71
8
72
7
73
4
0
VERTEX
8
OBJECT__21
10
0
20
0
30
0
70
128
71
6
72
9
73
4
0
VERTEX
8
OBJECT__21
10
0
20
0
30
0
70
128
71
3
72
8
73
1
0
SEQEND
8
OBJECT__21
0
POLYLINE
8
OBJECT__22
66
1
70
64
71
6
72
4
62
253
0
VERTEX
8
OBJECT__22
10
68.985001
20
-22.999001
30
-79.088997
70
192
0
VERTEX
8
OBJECT__22
10
65.056999
20
-22.999001
30
-2.393000
70
192
0
VERTEX
8
OBJECT__22
10
64.917999
20
-22.999001
30
-2.475000
70
192
0
VERTEX
8
OBJECT__22
10
64.387001
20
-22.999001
30
-79.209000
70
192
0
VERTEX
8
OBJECT__22
10
62.416000
20
-22.999001
30
-3.940000
70
192
0
VERTEX
8
OBJECT__22
10
66.931999
20
-22.999001
30
-0.679000
70
192
0
VERTEX
8
OBJECT__22
10
0
20
0
30
0
70
128
71
1
72
2
73
3
0
VERTEX
8
OBJECT__22
10
0
20
0
30
0
70
128
71
3
72
4
73
1
0
VERTEX
8
OBJECT__22
10
0
20
0
30
0
70
128
71
3
72
5
73
4
0
VERTEX
8
OBJECT__22
10
0
20
0
30
0
70
128
71
1
72
6
73
2
0
SEQEND
8
OBJECT__22
0
POLYLINE
8
OBJECT__23
66
1
70
64
71
13
72
13
62
253
0
VERTEX
8
OBJECT__23
10
68.985001
20
-22.999001
30
-79.088997
70
192
0
VERTEX
8
OBJECT__23
10
69.089996
20
-21.927000
30
-83.086998
70
192
0
VERTEX
8
OBJECT__23
10
69.582001
20
-21.750000
30
-82.972000
70
192
0
VERTEX
8
OBJECT__23
10
69.656998
20
-18.896000
30
-85.823997
70
192
0
VERTEX
8
OBJECT__23
10
69.127998
20
-20.462999
30
-84.551003
70
192
0
VERTEX
8
OBJECT__23
10
69.167000
20
-18.999001
30
-86.014999
70
192
0
VERTEX
8
OBJECT__23
10
69.195000
20
-14.999000
30
-87.085999
70
192
0
VERTEX
8
OBJECT__23
10
69.683998
20
-14.999000
30
-86.867996
70
192
0
VERTEX
8
OBJECT__23
10
69.780998
20
-21.320999
30
-82.719002
70
192
0
VERTEX
8
OBJECT__23
10
69.684998
20
-22.299000
30
-79.070999
70
192
0
VERTEX
8
OBJECT__23
10
69.849998
20
-18.649000
30
-85.389999
70
192
0
VERTEX
8
OBJECT__23
10
69.875999
20
-14.999000
30
-86.367996
70
192
0
VERTEX
8
OBJECT__23
10
69.480003
20
-22.794001
30
-79.075996
70
192
0
VERTEX
8
OBJECT__23
10
0
20
0
30
0
70
128
71
1
72
2
73
3
0
VERTEX
8
OBJECT__23
10
0
20
0
30
0
70
128
71
4
72
3
73
5
0
VERTEX
8
OBJECT__23
10
0
20
0
30
0
70
128
71
3
72
2
73
5
0
VERTEX
8
OBJECT__23
10
0
20
0
30
0
70
128
71
6
72
7
73
8
0
VERTEX
8
OBJECT__23
10
0
20
0
30
0
70
128
71
3
72
9
73
10
0
VERTEX
8
OBJECT__23
10
0
20
0
30
0
70
128
71
4
72
11
73
9
0
VERTEX
8
OBJECT__23
10
0
20
0
30
0
70
128
71
4
72
8
73
12
0
VERTEX
8
OBJECT__23
10
0
20
0
30
0
70
128
71
12
72
11
73
4
0
VERTEX
8
OBJECT__23
10
0
20
0
30
0
70
128
71
9
72
3
73
4
0
VERTEX
8
OBJECT__23
10
0
20
0
30
0
70
128
71
10
72
13
73
3
0
VERTEX
8
OBJECT__23
10
0
20
0
30
0
70
128
71
8
72
4
73
6
0
VERTEX
8
OBJECT__23
10
0
20
0
30
0
70
128
71
5
72
6
73
4
0
VERTEX
8
OBJECT__23
10
0
20
0
30
0
70
128
71
3
72
13
73
1
0
SEQEND
8
OBJECT__23
0
POLYLINE
8
OBJECT__24
66
1
70
64
71
13
72
13
62
253
0
VERTEX
8
OBJECT__24
10
69.167000
20
19.000999
30
-86.014999
70
192
0
VERTEX
8
OBJECT__24
10
69.656998
20
18.899000
30
-85.823997
70
192
0
VERTEX
8
OBJECT__24
10
69.683998
20
15.001000
30
-86.867996
70
192
0
VERTEX
8
OBJECT__24
10
69.582001
20
21.752001
30
-82.972000
70
192
0
VERTEX
8
OBJECT__24
10
69.127998
20
20.465000
30
-84.551003
70
192
0
VERTEX
8
OBJECT__24
10
68.985001
20
23.000999
30
-79.088997
70
192
0
VERTEX
8
OBJECT__24
10
69.480003
20
22.796000
30
-79.075996
70
192
0
VERTEX
8
OBJECT__24
10
69.849998
20
18.650999
30
-85.389999
70
192
0
VERTEX
8
OBJECT__24
10
69.875999
20
15.001000
30
-86.367996
70
192
0
VERTEX
8
OBJECT__24
10
69.780998
20
21.323000
30
-82.719002
70
192
0
VERTEX
8
OBJECT__24
10
69.684998
20
22.301001
30
-79.070999
70
192
0
VERTEX
8
OBJECT__24
10
69.089996
20
21.929001
30
-83.086998
70
192
0
VERTEX
8
OBJECT__24
10
69.195000
20
15.001000
30
-87.085999
70
192
0
VERTEX
8
OBJECT__24
10
0
20
0
30
0
70
128
71
1
72
2
73
3
0
VERTEX
8
OBJECT__24
10
0
20
0
30
0
70
128
71
4
72
2
73
5
0
VERTEX
8
OBJECT__24
10
0
20
0
30
0
70
128
71
2
72
1
73
5
0
VERTEX
8
OBJECT__24
10
0
20
0
30
0
70
128
71
6
72
7
73
4
0
VERTEX
8
OBJECT__24
10
0
20
0
30
0
70
128
71
2
72
8
73
9
0
VERTEX
8
OBJECT__24
10
0
20
0
30
0
70
128
71
2
72
4
73
10
0
VERTEX
8
OBJECT__24
10
0
20
0
30
0
70
128
71
4
72
7
73
11
0
VERTEX
8
OBJECT__24
10
0
20
0
30
0
70
128
71
11
72
10
73
4
0
VERTEX
8
OBJECT__24
10
0
20
0
30
0
70
128
71
10
72
8
73
2
0
VERTEX
8
OBJECT__24
10
0
20
0
30
0
70
128
71
9
72
3
73
2
0
VERTEX
8
OBJECT__24
10
0
20
0
30
0
70
128
71
4
72
12
73
6
0
VERTEX
8
OBJECT__24
10
0
20
0
30
0
70
128
71
5
72
12
73
4
0
VERTEX
8
OBJECT__24
10
0
20
0
30
0
70
128
71
3
72
13
73
1
0
SEQEND
8
OBJECT__24
0
POLYLINE
8
OBJECT__25
66
1
70
64
71
6
72
4
62
253
0
VERTEX
8
OBJECT__25
10
68.985001
20
23.000999
30
-79.088997
70
192
0
VERTEX
8
OBJECT__25
10
64.387001
20
23.000999
30
-79.209000
70
192
0
VERTEX
8
OBJECT__25
10
62.415001
20
23.000999
30
-3.928000
70
192
0
VERTEX
8
OBJECT__25
10
64.902000
20
23.000999
30
-2.420000
70
192
0
VERTEX
8
OBJECT__25
10
65.452003
20
23.000999
30
-2.087000
70
192
0
VERTEX
8
OBJECT__25
10
66.931000
20
23.000999
30
-0.653000
70
192
0
VERTEX
8
OBJECT__25
10
0
20
0
30
0
70
128
71
1
72
2
73
3
0
VERTEX
8
OBJECT__25
10
0
20
0
30
0
70
128
71
3
72
4
73
1
0
VERTEX
8
OBJECT__25
10
0
20
0
30
0
70
128
71
4
72
5
73
1
0
VERTEX
8
OBJECT__25
10
0
20
0
30
0
70
128
71
5
72
6
73
1
0
SEQEND
8
OBJECT__25
0
POLYLINE
8
OBJECT__26
66
1
70
64
71
6
72
4
62
253
0
VERTEX
8
OBJECT__26
10
69.683998
20
-14.999000
30
-86.867996
70
192
0
VERTEX
8
OBJECT__26
10
69.195000
20
-14.999000
30
-87.085999
70
192
0
VERTEX
8
OBJECT__26
10
69.195000
20
15.001000
30
-87.085999
70
192
0
VERTEX
8
OBJECT__26
10
69.875999
20
15.001000
30
-86.367996
70
192
0
VERTEX
8
OBJECT__26
10
69.875999
20
-14.999000
30
-86.367996
70
192
0
VERTEX
8
OBJECT__26
10
69.683998
20
15.001000
30
-86.867996
70
192
0
VERTEX
8
OBJECT__26
10
0
20
0
30
0
70
128
71
1
72
2
73
3
0
VERTEX
8
OBJECT__26
10
0
20
0
30
0
70
128
71
4
72
5
73
1
0
VERTEX
8
OBJECT__26
10
0
20
0
30
0
70
128
71
1
72
6
73
4
0
VERTEX
8
OBJECT__26
10
0
20
0
30
0
70
128
71
3
72
6
73
1
0
SEQEND
8
OBJECT__26
0
POLYLINE
8
OBJECT__27
66
1
70
64
71
10
72
8
62
253
0
VERTEX
8
OBJECT__27
10
69.127998
20
20.465000
30
-84.551003
70
192
0
VERTEX
8
OBJECT__27
10
64.529999
20
20.465000
30
-84.670998
70
192
0
VERTEX
8
OBJECT__27
10
64.490997
20
21.929001
30
-83.208000
70
192
0
VERTEX
8
OBJECT__27
10
64.387001
20
23.000999
30
-79.209000
70
192
0
VERTEX
8
OBJECT__27
10
68.985001
20
23.000999
30
-79.088997
70
192
0
VERTEX
8
OBJECT__27
10
69.089996
20
21.929001
30
-83.086998
70
192
0
VERTEX
8
OBJECT__27
10
69.167000
20
19.000999
30
-86.014999
70
192
0
VERTEX
8
OBJECT__27
10
64.568001
20
19.000999
30
-86.135002
70
192
0
VERTEX
8
OBJECT__27
10
69.195000
20
15.001000
30
-87.085999
70
192
0
VERTEX
8
OBJECT__27
10
64.596001
20
15.001000
30
-87.207001
70
192
0
VERTEX
8
OBJECT__27
10
0
20
0
30
0
70
128
71
1
72
2
73
3
0
VERTEX
8
OBJECT__27
10
0
20
0
30
0
70
128
71
4
72
5
73
6
0
VERTEX
8
OBJECT__27
10
0
20
0
30
0
70
128
71
6
72
3
73
4
0
VERTEX
8
OBJECT__27
10
0
20
0
30
0
70
128
71
7
72
8
73
2
0
VERTEX
8
OBJECT__27
10
0
20
0
30
0
70
128
71
9
72
10
73
8
0
VERTEX
8
OBJECT__27
10
0
20
0
30
0
70
128
71
8
72
7
73
9
0
VERTEX
8
OBJECT__27
10
0
20
0
30
0
70
128
71
2
72
1
73
7
0
VERTEX
8
OBJECT__27
10
0
20
0
30
0
70
128
71
3
72
6
73
1
0
SEQEND
8
OBJECT__27
0
POLYLINE
8
OBJECT__28
66
1
70
64
71
10
72
8
62
253
0
VERTEX
8
OBJECT__28
10
69.195000
20
-14.999000
30
-87.085999
70
192
0
VERTEX
8
OBJECT__28
10
69.167000
20
-18.999001
30
-86.014999
70
192
0
VERTEX
8
OBJECT__28
10
64.568001
20
-18.999001
30
-86.135002
70
192
0
VERTEX
8
OBJECT__28
10
69.127998
20
-20.462999
30
-84.551003
70
192
0
VERTEX
8
OBJECT__28
10
64.529999
20
-20.462999
30
-84.670998
70
192
0
VERTEX
8
OBJECT__28
10
64.490997
20
-21.927000
30
-83.208000
70
192
0
VERTEX
8
OBJECT__28
10
68.985001
20
-22.999001
30
-79.088997
70
192
0
VERTEX
8
OBJECT__28
10
64.387001
20
-22.999001
30
-79.209000
70
192
0
VERTEX
8
OBJECT__28
10
69.089996
20
-21.927000
30
-83.086998
70
192
0
VERTEX
8
OBJECT__28
10
64.596001
20
-14.999000
30
-87.207001
70
192
0
VERTEX
8
OBJECT__28
10
0
20
0
30
0
70
128
71
1
72
2
73
3
0
VERTEX
8
OBJECT__28
10
0
20
0
30
0
70
128
71
2
72
4
73
5
0
VERTEX
8
OBJECT__28
10
0
20
0
30
0
70
128
71
5
72
3
73
2
0
VERTEX
8
OBJECT__28
10
0
20
0
30
0
70
128
71
6
72
5
73
4
0
VERTEX
8
OBJECT__28
10
0
20
0
30
0
70
128
71
7
72
8
73
6
0
VERTEX
8
OBJECT__28
10
0
20
0
30
0
70
128
71
6
72
9
73
7
0
VERTEX
8
OBJECT__28
10
0
20
0
30
0
70
128
71
4
72
9
73
6
0
VERTEX
8
OBJECT__28
10
0
20
0
30
0
70
128
71
3
72
10
73
1
0
SEQEND
8
OBJECT__28
0
POLYLINE
8
OBJECT__29
66
1
70
64
71
13
72
13
62
253
0
VERTEX
8
OBJECT__29
10
64.490997
20
21.929001
30
-83.208000
70
192
0
VERTEX
8
OBJECT__29
10
63.993999
20
21.752001
30
-83.117996
70
192
0
VERTEX
8
OBJECT__29
10
63.891998
20
22.796000
30
-79.222000
70
192
0
VERTEX
8
OBJECT__29
10
64.529999
20
20.465000
30
-84.670998
70
192
0
VERTEX
8
OBJECT__29
10
64.069000
20
18.899000
30
-85.971001
70
192
0
VERTEX
8
OBJECT__29
10
64.568001
20
19.000999
30
-86.135002
70
192
0
VERTEX
8
OBJECT__29
10
64.596001
20
15.001000
30
-87.207001
70
192
0
VERTEX
8
OBJECT__29
10
64.096001
20
15.001000
30
-87.014999
70
192
0
VERTEX
8
OBJECT__29
10
63.783001
20
21.323000
30
-82.875999
70
192
0
VERTEX
8
OBJECT__29
10
63.853001
20
18.650999
30
-85.546997
70
192
0
VERTEX
8
OBJECT__29
10
63.877998
20
15.001000
30
-86.525002
70
192
0
VERTEX
8
OBJECT__29
10
63.687000
20
22.301001
30
-79.227997
70
192
0
VERTEX
8
OBJECT__29
10
64.387001
20
23.000999
30
-79.209000
70
192
0
VERTEX
8
OBJECT__29
10
0
20
0
30
0
70
128
71
1
72
2
73
3
0
VERTEX
8
OBJECT__29
10
0
20
0
30
0
70
128
71
2
72
1
73
4
0
VERTEX
8
OBJECT__29
10
0
20
0
30
0
70
128
71
4
72
5
73
2
0
VERTEX
8
OBJECT__29
10
0
20
0
30
0
70
128
71
6
72
7
73
8
0
VERTEX
8
OBJECT__29
10
0
20
0
30
0
70
128
71
3
72
2
73
9
0
VERTEX
8
OBJECT__29
10
0
20
0
30
0
70
128
71
2
72
5
73
10
0
VERTEX
8
OBJECT__29
10
0
20
0
30
0
70
128
71
8
72
11
73
10
0
VERTEX
8
OBJECT__29
10
0
20
0
30
0
70
128
71
10
72
5
73
8
0
VERTEX
8
OBJECT__29
10
0
20
0
30
0
70
128
71
10
72
9
73
2
0
VERTEX
8
OBJECT__29
10
0
20
0
30
0
70
128
71
9
72
12
73
3
0
VERTEX
8
OBJECT__29
10
0
20
0
30
0
70
128
71
8
72
5
73
6
0
VERTEX
8
OBJECT__29
10
0
20
0
30
0
70
128
71
4
72
6
73
5
0
VERTEX
8
OBJECT__29
10
0
20
0
30
0
70
128
71
3
72
13
73
1
0
SEQEND
8
OBJECT__29
0
POLYLINE
8
OBJECT__30
66
1
70
64
71
6
72
4
62
253
0
VERTEX
8
OBJECT__30
10
63.877998
20
15.001000
30
-86.525002
70
192
0
VERTEX
8
OBJECT__30
10
64.096001
20
15.001000
30
-87.014999
70
192
0
VERTEX
8
OBJECT__30
10
64.096001
20
-14.999000
30
-87.014999
70
192
0
VERTEX
8
OBJECT__30
10
64.596001
20
15.001000
30
-87.207001
70
192
0
VERTEX
8
OBJECT__30
10
64.596001
20
-14.999000
30
-87.207001
70
192
0
VERTEX
8
OBJECT__30
10
63.877998
20
-14.999000
30
-86.525002
70
192
0
VERTEX
8
OBJECT__30
10
0
20
0
30
0
70
128
71
1
72
2
73
3
0
VERTEX
8
OBJECT__30
10
0
20
0
30
0
70
128
71
3
72
2
73
4
0
VERTEX
8
OBJECT__30
10
0
20
0
30
0
70
128
71
4
72
5
73
3
0
VERTEX
8
OBJECT__30
10
0
20
0
30
0
70
128
71
3
72
6
73
1
0
SEQEND
8
OBJECT__30
0
POLYLINE
8
OBJECT__31
66
1
70
64
71
13
72
13
62
253
0
VERTEX
8
OBJECT__31
10
64.568001
20
-18.999001
30
-86.135002
70
192
0
VERTEX
8
OBJECT__31
10
64.069000
20
-18.896000
30
-85.971001
70
192
0
VERTEX
8
OBJECT__31
10
64.096001
20
-14.999000
30
-87.014999
70
192
0
VERTEX
8
OBJECT__31
10
64.529999
20
-20.462999
30
-84.670998
70
192
0
VERTEX
8
OBJECT__31
10
63.993999
20
-21.750000
30
-83.117996
70
192
0
VERTEX
8
OBJECT__31
10
64.490997
20
-21.927000
30
-83.208000
70
192
0
VERTEX
8
OBJECT__31
10
64.387001
20
-22.999001
30
-79.209000
70
192
0
VERTEX
8
OBJECT__31
10
63.891998
20
-22.794001
30
-79.222000
70
192
0
VERTEX
8
OBJECT__31
10
63.853001
20
-18.649000
30
-85.546997
70
192
0
VERTEX
8
OBJECT__31
10
63.783001
20
-21.320999
30
-82.875999
70
192
0
VERTEX
8
OBJECT__31
10
63.687000
20
-22.299000
30
-79.227997
70
192
0
VERTEX
8
OBJECT__31
10
63.877998
20
-14.999000
30
-86.525002
70
192
0
VERTEX
8
OBJECT__31
10
64.596001
20
-14.999000
30
-87.207001
70
192
0
VERTEX
8
OBJECT__31
10
0
20
0
30
0
70
128
71
1
72
2
73
3
0
VERTEX
8
OBJECT__31
10
0
20
0
30
0
70
128
71
2
72
1
73
4
0
VERTEX
8
OBJECT__31
10
0
20
0
30
0
70
128
71
4
72
5
73
2
0
VERTEX
8
OBJECT__31
10
0
20
0
30
0
70
128
71
6
72
7
73
8
0
VERTEX
8
OBJECT__31
10
0
20
0
30
0
70
128
71
3
72
2
73
9
0
VERTEX
8
OBJECT__31
10
0
20
0
30
0
70
128
71
5
72
10
73
9
0
VERTEX
8
OBJECT__31
10
0
20
0
30
0
70
128
71
8
72
11
73
10
0
VERTEX
8
OBJECT__31
10
0
20
0
30
0
70
128
71
10
72
5
73
8
0
VERTEX
8
OBJECT__31
10
0
20
0
30
0
70
128
71
9
72
2
73
5
0
VERTEX
8
OBJECT__31
10
0
20
0
30
0
70
128
71
9
72
12
73
3
0
VERTEX
8
OBJECT__31
10
0
20
0
30
0
70
128
71
8
72
5
73
6
0
VERTEX
8
OBJECT__31
10
0
20
0
30
0
70
128
71
4
72
6
73
5
0
VERTEX
8
OBJECT__31
10
0
20
0
30
0
70
128
71
3
72
13
73
1
0
SEQEND
8
OBJECT__31
0
POLYLINE
8
OBJECT__32
66
1
70
64
71
4
72
2
62
253
0
VERTEX
8
OBJECT__32
10
64.596001
20
15.001000
30
-87.207001
70
192
0
VERTEX
8
OBJECT__32
10
69.195000
20
15.001000
30
-87.085999
70
192
0
VERTEX
8
OBJECT__32
10
69.195000
20
-14.999000
30
-87.085999
70
192
0
VERTEX
8
OBJECT__32
10
64.596001
20
-14.999000
30
-87.207001
70
192
0
VERTEX
8
OBJECT__32
10
0
20
0
30
0
70
128
71
1
72
2
73
3
0
VERTEX
8
OBJECT__32
10
0
20
0
30
0
70
128
71
3
72
4
73
1
0
SEQEND
8
OBJECT__32
0
POLYLINE
8
OBJECT__33
66
1
70
64
71
10
72
9
62
253
0
VERTEX
8
OBJECT__33
10
62.766998
20
-5.651000
30
-24.983999
70
192
0
VERTEX
8
OBJECT__33
10
62.243999
20
-5.651000
30
-24.131001
70
192
0
VERTEX
8
OBJECT__33
10
62.213001
20
0.004000
30
-24.350000
70
192
0
VERTEX
8
OBJECT__33
10
62.798000
20
0.351000
30
-25.063000
70
192
0
VERTEX
8
OBJECT__33
10
63.708000
20
0.349000
30
-24.993000
70
192
0
VERTEX
8
OBJECT__33
10
62.766998
20
5.651000
30
-24.983999
70
192
0
VERTEX
8
OBJECT__33
10
62.210999
20
0.352000
30
-24.364000
70
192
0
VERTEX
8
OBJECT__33
10
63.765999
20
5.651000
30
-24.958000
70
192
0
VERTEX
8
OBJECT__33
10
62.243999
20
5.651000
30
-24.131001
70
192
0
VERTEX
8
OBJECT__33
10
63.765999
20
-5.651000
30
-24.958000
70
192
0
VERTEX
8
OBJECT__33
10
0
20
0
30
0
70
128
71
1
72
2
73
3
0
VERTEX
8
OBJECT__33
10
0
20
0
30
0
70
128
71
3
72
4
73
1
0
VERTEX
8
OBJECT__33
10
0
20
0
30
0
70
128
71
1
72
4
73
5
0
VERTEX
8
OBJECT__33
10
0
20
0
30
0
70
128
71
6
72
4
73
7
0
VERTEX
8
OBJECT__33
10
0
20
0
30
0
70
128
71
6
72
8
73
5
0
VERTEX
8
OBJECT__33
10
0
20
0
30
0
70
128
71
5
72
4
73
6
0
VERTEX
8
OBJECT__33
10
0
20
0
30
0
70
128
71
7
72
9
73
6
0
VERTEX
8
OBJECT__33
10
0
20
0
30
0
70
128
71
5
72
10
73
1
0
VERTEX
8
OBJECT__33
10
0
20
0
30
0
70
128
71
3
72
7
73
4
0
SEQEND
8
OBJECT__33
0
POLYLINE
8
OBJECT__34
66
1
70
64
71
6
72
4
62
253
0
VERTEX
8
OBJECT__34
10
62.766998
20
5.651000
30
-24.983999
70
192
0
VERTEX
8
OBJECT__34
10
62.243999
20
5.651000
30
-24.131001
70
192
0
VERTEX
8
OBJECT__34
10
62.243999
20
9.131000
30
-24.131001
70
192
0
VERTEX
8
OBJECT__34
10
62.766998
20
9.131000
30
-24.983999
70
192
0
VERTEX
8
OBJECT__34
10
63.765999
20
9.131000
30
-24.958000
70
192
0
VERTEX
8
OBJECT__34
10
63.765999
20
5.651000
30
-24.958000
70
192
0
VERTEX
8
OBJECT__34
10
0
20
0
30
0
70
128
71
1
72
2
73
3
0
VERTEX
8
OBJECT__34
10
0
20
0
30
0
70
128
71
1
72
4
73
5
0
VERTEX
8
OBJECT__34
10
0
20
0
30
0
70
128
71
5
72
6
73
1
0
VERTEX
8
OBJECT__34
10
0
20
0
30
0
70
128
71
3
72
4
73
1
0
SEQEND
8
OBJECT__34
0
POLYLINE
8
OBJECT__35
66
1
70
64
71
6
72
4
62
253
0
VERTEX
8
OBJECT__35
10
62.766998
20
-5.651000
30
-24.983999
70
192
0
VERTEX
8
OBJECT__35
10
62.766998
20
-9.131000
30
-24.983999
70
192
0
VERTEX
8
OBJECT__35
10
62.243999
20
-9.131000
30
-24.131001
70
192
0
VERTEX
8
OBJECT__35
10
63.765999
20
-5.651000
30
-24.958000
70
192
0
VERTEX
8
OBJECT__35
10
63.765999
20
-9.131000
30
-24.958000
70
192
0
VERTEX
8
OBJECT__35
10
62.243999
20
-5.651000
30
-24.131001
70
192
0
VERTEX
8
OBJECT__35
10
0
20
0
30
0
70
128
71
1
72
2
73
3
0
VERTEX
8
OBJECT__35
10
0
20
0
30
0
70
128
71
4
72
5
73
2
0
VERTEX
8
OBJECT__35
10
0
20
0
30
0
70
128
71
2
72
1
73
4
0
VERTEX
8
OBJECT__35
10
0
20
0
30
0
70
128
71
3
72
6
73
1
0
SEQEND
8
OBJECT__35
0
POLYLINE
8
OBJECT__36
66
1
70
64
71
19
72
21
62
253
0
VERTEX
8
OBJECT__36
10
62.862000
20
11.765000
30
-26.702999
70
192
0
VERTEX
8
OBJECT__36
10
62.841000
20
11.981000
30
-27.836000
70
192
0
VERTEX
8
OBJECT__36
10
63.841000
20
11.981000
30
-27.809999
70
192
0
VERTEX
8
OBJECT__36
10
62.304001
20
12.603000
30
-26.410000
70
192
0
VERTEX
8
OBJECT__36
10
62.341999
20
12.847000
30
-27.849001
70
192
0
VERTEX
8
OBJECT__36
10
63.905998
20
11.849000
30
-26.645000
70
192
0
VERTEX
8
OBJECT__36
10
63.921001
20
11.434000
30
-25.863001
70
192
0
VERTEX
8
OBJECT__36
10
62.862999
20
11.336000
30
-25.971001
70
192
0
VERTEX
8
OBJECT__36
10
62.278000
20
12.033000
30
-25.413000
70
192
0
VERTEX
8
OBJECT__36
10
62.842999
20
10.698000
30
-25.419001
70
192
0
VERTEX
8
OBJECT__36
10
63.914001
20
11.242000
30
-25.700001
70
192
0
VERTEX
8
OBJECT__36
10
63.896000
20
10.758000
30
-25.291000
70
192
0
VERTEX
8
OBJECT__36
10
63.837002
20
9.921000
30
-25.000000
70
192
0
VERTEX
8
OBJECT__36
10
62.257999
20
11.163000
30
-24.663000
70
192
0
VERTEX
8
OBJECT__36
10
62.805000
20
9.907000
30
-25.089001
70
192
0
VERTEX
8
OBJECT__36
10
63.765999
20
9.131000
30
-24.958000
70
192
0
VERTEX
8
OBJECT__36
10
62.247002
20
10.107000
30
-24.240000
70
192
0
VERTEX
8
OBJECT__36
10
62.766998
20
9.131000
30
-24.983999
70
192
0
VERTEX
8
OBJECT__36
10
62.243999
20
9.131000
30
-24.131001
70
192
0
VERTEX
8
OBJECT__36
10
0
20
0
30
0
70
128
71
1
72
2
73
3
0
VERTEX
8
OBJECT__36
10
0
20
0
30
0
70
128
71
4
72
5
73
2
0
VERTEX
8
OBJECT__36
10
0
20
0
30
0
70
128
71
6
72
7
73
8
0
VERTEX
8
OBJECT__36
10
0
20
0
30
0
70
128
71
9
72
4
73
1
0
VERTEX
8
OBJECT__36
10
0
20
0
30
0
70
128
71
10
72
8
73
11
0
VERTEX
8
OBJECT__36
10
0
20
0
30
0
70
128
71
8
72
7
73
11
0
VERTEX
8
OBJECT__36
10
0
20
0
30
0
70
128
71
9
72
8
73
10
0
VERTEX
8
OBJECT__36
10
0
20
0
30
0
70
128
71
10
72
12
73
13
0
VERTEX
8
OBJECT__36
10
0
20
0
30
0
70
128
71
14
72
10
73
15
0
VERTEX
8
OBJECT__36
10
0
20
0
30
0
70
128
71
15
72
13
73
16
0
VERTEX
8
OBJECT__36
10
0
20
0
30
0
70
128
71
17
72
15
73
18
0
VERTEX
8
OBJECT__36
10
0
20
0
30
0
70
128
71
18
72
19
73
17
0
VERTEX
8
OBJECT__36
10
0
20
0
30
0
70
128
71
16
72
18
73
15
0
VERTEX
8
OBJECT__36
10
0
20
0
30
0
70
128
71
15
72
17
73
14
0
VERTEX
8
OBJECT__36
10
0
20
0
30
0
70
128
71
13
72
15
73
10
0
VERTEX
8
OBJECT__36
10
0
20
0
30
0
70
128
71
10
72
14
73
9
0
VERTEX
8
OBJECT__36
10
0
20
0
30
0
70
128
71
11
72
12
73
10
0
VERTEX
8
OBJECT__36
10
0
20
0
30
0
70
128
71
1
72
8
73
9
0
VERTEX
8
OBJECT__36
10
0
20
0
30
0
70
128
71
8
72
1
73
6
0
VERTEX
8
OBJECT__36
10
0
20
0
30
0
70
128
71
2
72
1
73
4
0
VERTEX
8
OBJECT__36
10
0
20
0
30
0
70
128
71
3
72
6
73
1
0
SEQEND
8
OBJECT__36
0
POLYLINE
8
OBJECT__37
66
1
70
64
71
7
72
5
62
253
0
VERTEX
8
OBJECT__37
10
67.851997
20
-11.527000
30
-22.454000
70
192
0
VERTEX
8
OBJECT__37
10
63.765999
20
-5.651000
30
-24.958000
70
192
0
VERTEX
8
OBJECT__37
10
63.708000
20
0.349000
30
-24.993000
70
192
0
VERTEX
8
OBJECT__37
10
67.851997
20
11.527000
30
-22.454000
70
192
0
VERTEX
8
OBJECT__37
10
63.765999
20
-9.131000
30
-24.958000
70
192
0
VERTEX
8
OBJECT__37
10
63.765999
20
5.651000
30
-24.958000
70
192
0
VERTEX
8
OBJECT__37
10
63.765999
20
9.131000
30
-24.958000
70
192
0
VERTEX
8
OBJECT__37
10
0
20
0
30
0
70
128
71
1
72
2
73
3
0
VERTEX
8
OBJECT__37
10
0
20
0
30
0
70
128
71
3
72
4
73
1
0
VERTEX
8
OBJECT__37
10
0
20
0
30
0
70
128
71
1
72
5
73
2
0
VERTEX
8
OBJECT__37
10
0
20
0
30
0
70
128
71
3
72
6
73
4
0
VERTEX
8
OBJECT__37
10
0
20
0
30
0
70
128
71
6
72
7
73
4
0
SEQEND
8
OBJECT__37
0
POLYLINE
8
OBJECT__38
66
1
70
64
71
19
72
21
62
253
0
VERTEX
8
OBJECT__38
10
62.821999
20
-10.247000
30
-25.195999
70
192
0
VERTEX
8
OBJECT__38
10
62.766998
20
-9.131000
30
-24.983999
70
192
0
VERTEX
8
OBJECT__38
10
63.765999
20
-9.131000
30
-24.958000
70
192
0
VERTEX
8
OBJECT__38
10
62.250999
20
-10.552000
30
-24.372000
70
192
0
VERTEX
8
OBJECT__38
10
62.243999
20
-9.131000
30
-24.131001
70
192
0
VERTEX
8
OBJECT__38
10
63.863998
20
-10.278000
30
-25.086000
70
192
0
VERTEX
8
OBJECT__38
10
63.910999
20
-11.071000
30
-25.502001
70
192
0
VERTEX
8
OBJECT__38
10
62.854000
20
-10.991000
30
-25.627001
70
192
0
VERTEX
8
OBJECT__38
10
62.265999
20
-11.562000
30
-24.943001
70
192
0
VERTEX
8
OBJECT__38
10
62.865002
20
-11.550000
30
-26.270000
70
192
0
VERTEX
8
OBJECT__38
10
63.912998
20
-11.237000
30
-25.698000
70
192
0
VERTEX
8
OBJECT__38
10
63.918999
20
-11.649000
30
-26.181999
70
192
0
VERTEX
8
OBJECT__38
10
63.889000
20
-11.938000
30
-27.016001
70
192
0
VERTEX
8
OBJECT__38
10
62.289001
20
-12.322000
30
-25.820999
70
192
0
VERTEX
8
OBJECT__38
10
62.855999
20
-11.877000
30
-27.056999
70
192
0
VERTEX
8
OBJECT__38
10
63.841000
20
-11.981000
30
-27.809999
70
192
0
VERTEX
8
OBJECT__38
10
62.316002
20
-12.740000
30
-26.875000
70
192
0
VERTEX
8
OBJECT__38
10
62.841000
20
-11.981000
30
-27.836000
70
192
0
VERTEX
8
OBJECT__38
10
62.341999
20
-12.847000
30
-27.849001
70
192
0
VERTEX
8
OBJECT__38
10
0
20
0
30
0
70
128
71
1
72
2
73
3
0
VERTEX
8
OBJECT__38
10
0
20
0
30
0
70
128
71
4
72
5
73
2
0
VERTEX
8
OBJECT__38
10
0
20
0
30
0
70
128
71
6
72
7
73
8
0
VERTEX
8
OBJECT__38
10
0
20
0
30
0
70
128
71
9
72
4
73
1
0
VERTEX
8
OBJECT__38
10
0
20
0
30
0
70
128
71
10
72
8
73
11
0
VERTEX
8
OBJECT__38
10
0
20
0
30
0
70
128
71
8
72
7
73
11
0
VERTEX
8
OBJECT__38
10
0
20
0
30
0
70
128
71
9
72
8
73
10
0
VERTEX
8
OBJECT__38
10
0
20
0
30
0
70
128
71
10
72
12
73
13
0
VERTEX
8
OBJECT__38
10
0
20
0
30
0
70
128
71
14
72
10
73
15
0
VERTEX
8
OBJECT__38
10
0
20
0
30
0
70
128
71
15
72
13
73
16
0
VERTEX
8
OBJECT__38
10
0
20
0
30
0
70
128
71
17
72
15
73
18
0
VERTEX
8
OBJECT__38
10
0
20
0
30
0
70
128
71
18
72
19
73
17
0
VERTEX
8
OBJECT__38
10
0
20
0
30
0
70
128
71
16
72
18
73
15
0
VERTEX
8
OBJECT__38
10
0
20
0
30
0
70
128
71
15
72
17
73
14
0
VERTEX
8
OBJECT__38
10
0
20
0
30
0
70
128
71
13
72
15
73
10
0
VERTEX
8
OBJECT__38
10
0
20
0
30
0
70
128
71
10
72
14
73
9
0
VERTEX
8
OBJECT__38
10
0
20
0
30
0
70
128
71
11
72
12
73
10
0
VERTEX
8
OBJECT__38
10
0
20
0
30
0
70
128
71
1
72
8
73
9
0
VERTEX
8
OBJECT__38
10
0
20
0
30
0
70
128
71
8
72
1
73
6
0
VERTEX
8
OBJECT__38
10
0
20
0
30
0
70
128
71
2
72
1
73
4
0
VERTEX
8
OBJECT__38
10
0
20
0
30
0
70
128
71
3
72
6
73
1
0
SEQEND
8
OBJECT__38
0
POLYLINE
8
OBJECT__39
66
1
70
64
71
6
72
4
62
253
0
VERTEX
8
OBJECT__39
10
63.841000
20
11.981000
30
-27.809999
70
192
0
VERTEX
8
OBJECT__39
10
62.841000
20
11.981000
30
-27.836000
70
192
0
VERTEX
8
OBJECT__39
10
63.875999
20
11.981000
30
-67.358002
70
192
0
VERTEX
8
OBJECT__39
10
62.341999
20
12.847000
30
-27.849001
70
192
0
VERTEX
8
OBJECT__39
10
63.376999
20
12.847000
30
-67.371002
70
192
0
VERTEX
8
OBJECT__39
10
64.875999
20
11.981000
30
-67.332001
70
192
0
VERTEX
8
OBJECT__39
10
0
20
0
30
0
70
128
71
1
72
2
73
3
0
VERTEX
8
OBJECT__39
10
0
20
0
30
0
70
128
71
2
72
4
73
5
0
VERTEX
8
OBJECT__39
10
0
20
0
30
0
70
128
71
5
72
3
73
2
0
VERTEX
8
OBJECT__39
10
0
20
0
30
0
70
128
71
3
72
6
73
1
0
SEQEND
8
OBJECT__39
0
POLYLINE
8
OBJECT__40
66
1
70
64
71
14
72
12
62
253
0
VERTEX
8
OBJECT__40
10
63.921001
20
11.434000
30
-25.863001
70
192
0
VERTEX
8
OBJECT__40
10
63.905998
20
11.849000
30
-26.645000
70
192
0
VERTEX
8
OBJECT__40
10
67.927002
20
14.377000
30
-25.306000
70
192
0
VERTEX
8
OBJECT__40
10
67.957001
20
14.306000
30
-24.438999
70
192
0
VERTEX
8
OBJECT__40
10
67.970001
20
13.980000
30
-23.622000
70
192
0
VERTEX
8
OBJECT__40
10
67.961998
20
13.609000
30
-23.219999
70
192
0
VERTEX
8
OBJECT__40
10
63.914001
20
11.242000
30
-25.700001
70
192
0
VERTEX
8
OBJECT__40
10
67.956001
20
13.371000
30
-22.962999
70
192
0
VERTEX
8
OBJECT__40
10
67.917000
20
12.563000
30
-22.569000
70
192
0
VERTEX
8
OBJECT__40
10
63.896000
20
10.758000
30
-25.291000
70
192
0
VERTEX
8
OBJECT__40
10
67.851997
20
11.527000
30
-22.454000
70
192
0
VERTEX
8
OBJECT__40
10
63.765999
20
9.131000
30
-24.958000
70
192
0
VERTEX
8
OBJECT__40
10
63.837002
20
9.921000
30
-25.000000
70
192
0
VERTEX
8
OBJECT__40
10
63.841000
20
11.981000
30
-27.809999
70
192
0
VERTEX
8
OBJECT__40
10
0
20
0
30
0
70
128
71
1
72
2
73
3
0
VERTEX
8
OBJECT__40
10
0
20
0
30
0
70
128
71
3
72
4
73
1
0
VERTEX
8
OBJECT__40
10
0
20
0
30
0
70
128
71
4
72
5
73
1
0
VERTEX
8
OBJECT__40
10
0
20
0
30
0
70
128
71
6
72
7
73
1
0
VERTEX
8
OBJECT__40
10
0
20
0
30
0
70
128
71
1
72
5
73
6
0
VERTEX
8
OBJECT__40
10
0
20
0
30
0
70
128
71
7
72
8
73
9
0
VERTEX
8
OBJECT__40
10
0
20
0
30
0
70
128
71
7
72
6
73
8
0
VERTEX
8
OBJECT__40
10
0
20
0
30
0
70
128
71
10
72
9
73
11
0
VERTEX
8
OBJECT__40
10
0
20
0
30
0
70
128
71
11
72
12
73
13
0
VERTEX
8
OBJECT__40
10
0
20
0
30
0
70
128
71
11
72
13
73
10
0
VERTEX
8
OBJECT__40
10
0
20
0
30
0
70
128
71
9
72
10
73
7
0
VERTEX
8
OBJECT__40
10
0
20
0
30
0
70
128
71
2
72
14
73
3
0
SEQEND
8
OBJECT__40
0
POLYLINE
8
OBJECT__41
66
1
70
64
71
13
72
11
62
253
0
VERTEX
8
OBJECT__41
10
68.185997
20
11.527000
30
-21.839001
70
192
0
VERTEX
8
OBJECT__41
10
67.851997
20
11.527000
30
-22.454000
70
192
0
VERTEX
8
OBJECT__41
10
67.917000
20
12.563000
30
-22.569000
70
192
0
VERTEX
8
OBJECT__41
10
68.191002
20
12.738000
30
-22.023001
70
192
0
VERTEX
8
OBJECT__41
10
67.956001
20
13.371000
30
-22.962999
70
192
0
VERTEX
8
OBJECT__41
10
68.224998
20
14.439000
30
-23.318001
70
192
0
VERTEX
8
OBJECT__41
10
68.204002
20
13.700000
30
-22.523001
70
192
0
VERTEX
8
OBJECT__41
10
67.961998
20
13.609000
30
-23.219999
70
192
0
VERTEX
8
OBJECT__41
10
68.250000
20
14.861000
30
-24.289000
70
192
0
VERTEX
8
OBJECT__41
10
67.970001
20
13.980000
30
-23.622000
70
192
0
VERTEX
8
OBJECT__41
10
68.277000
20
14.983000
30
-25.297001
70
192
0
VERTEX
8
OBJECT__41
10
67.957001
20
14.306000
30
-24.438999
70
192
0
VERTEX
8
OBJECT__41
10
67.927002
20
14.377000
30
-25.306000
70
192
0
VERTEX
8
OBJECT__41
10
0
20
0
30
0
70
128
71
1
72
2
73
3
0
VERTEX
8
OBJECT__41
10
0
20
0
30
0
70
128
71
4
72
3
73
5
0
VERTEX
8
OBJECT__41
10
0
20
0
30
0
70
128
71
6
72
7
73
8
0
VERTEX
8
OBJECT__41
10
0
20
0
30
0
70
128
71
7
72
5
73
8
0
VERTEX
8
OBJECT__41
10
0
20
0
30
0
70
128
71
9
72
6
73
10
0
VERTEX
8
OBJECT__41
10
0
20
0
30
0
70
128
71
11
72
9
73
12
0
VERTEX
8
OBJECT__41
10
0
20
0
30
0
70
128
71
12
72
13
73
11
0
VERTEX
8
OBJECT__41
10
0
20
0
30
0
70
128
71
10
72
12
73
9
0
VERTEX
8
OBJECT__41
10
0
20
0
30
0
70
128
71
8
72
10
73
6
0
VERTEX
8
OBJECT__41
10
0
20
0
30
0
70
128
71
5
72
7
73
4
0
VERTEX
8
OBJECT__41
10
0
20
0
30
0
70
128
71
3
72
4
73
1
0
SEQEND
8
OBJECT__41
0
POLYLINE
8
OBJECT__42
66
1
70
64
71
4
72
2
62
253
0
VERTEX
8
OBJECT__42
10
69.086998
20
14.377000
30
-69.617996
70
192
0
VERTEX
8
OBJECT__42
10
69.436996
20
14.983000
30
-69.609001
70
192
0
VERTEX
8
OBJECT__42
10
68.277000
20
14.983000
30
-25.297001
70
192
0
VERTEX
8
OBJECT__42
10
67.927002
20
14.377000
30
-25.306000
70
192
0
VERTEX
8
OBJECT__42
10
0
20
0
30
0
70
128
71
1
72
2
73
3
0
VERTEX
8
OBJECT__42
10
0
20
0
30
0
70
128
71
3
72
4
73
1
0
SEQEND
8
OBJECT__42
0
POLYLINE
8
OBJECT__43
66
1
70
64
71
4
72
2
62
253
0
VERTEX
8
OBJECT__43
10
68.185997
20
-11.527000
30
-21.839001
70
192
0
VERTEX
8
OBJECT__43
10
67.851997
20
-11.527000
30
-22.454000
70
192
0
VERTEX
8
OBJECT__43
10
67.851997
20
11.527000
30
-22.454000
70
192
0
VERTEX
8
OBJECT__43
10
68.185997
20
11.527000
30
-21.839001
70
192
0
VERTEX
8
OBJECT__43
10
0
20
0
30
0
70
128
71
1
72
2
73
3
0
VERTEX
8
OBJECT__43
10
0
20
0
30
0
70
128
71
3
72
4
73
1
0
SEQEND
8
OBJECT__43
0
POLYLINE
8
OBJECT__44
66
1
70
64
71
13
72
11
62
253
0
VERTEX
8
OBJECT__44
10
68.277000
20
-14.983000
30
-25.297001
70
192
0
VERTEX
8
OBJECT__44
10
67.927002
20
-14.377000
30
-25.306000
70
192
0
VERTEX
8
OBJECT__44
10
67.961998
20
-14.265000
30
-24.271000
70
192
0
VERTEX
8
OBJECT__44
10
68.245003
20
-14.804000
30
-24.091999
70
192
0
VERTEX
8
OBJECT__44
10
67.970001
20
-13.878000
30
-23.472000
70
192
0
VERTEX
8
OBJECT__44
10
68.200996
20
-13.531000
30
-22.403000
70
192
0
VERTEX
8
OBJECT__44
10
68.220001
20
-14.313000
30
-23.138000
70
192
0
VERTEX
8
OBJECT__44
10
67.961998
20
-13.611000
30
-23.222000
70
192
0
VERTEX
8
OBJECT__44
10
68.190002
20
-12.563000
30
-21.972000
70
192
0
VERTEX
8
OBJECT__44
10
67.950996
20
-13.229000
30
-22.865000
70
192
0
VERTEX
8
OBJECT__44
10
68.185997
20
-11.527000
30
-21.839001
70
192
0
VERTEX
8
OBJECT__44
10
67.908997
20
-12.415000
30
-22.531000
70
192
0
VERTEX
8
OBJECT__44
10
67.851997
20
-11.527000
30
-22.454000
70
192
0
VERTEX
8
OBJECT__44
10
0
20
0
30
0
70
128
71
1
72
2
73
3
0
VERTEX
8
OBJECT__44
10
0
20
0
30
0
70
128
71
4
72
3
73
5
0
VERTEX
8
OBJECT__44
10
0
20
0
30
0
70
128
71
6
72
7
73
8
0
VERTEX
8
OBJECT__44
10
0
20
0
30
0
70
128
71
7
72
5
73
8
0
VERTEX
8
OBJECT__44
10
0
20
0
30
0
70
128
71
9
72
6
73
10
0
VERTEX
8
OBJECT__44
10
0
20
0
30
0
70
128
71
11
72
9
73
12
0
VERTEX
8
OBJECT__44
10
0
20
0
30
0
70
128
71
12
72
13
73
11
0
VERTEX
8
OBJECT__44
10
0
20
0
30
0
70
128
71
10
72
12
73
9
0
VERTEX
8
OBJECT__44
10
0
20
0
30
0
70
128
71
8
72
10
73
6
0
VERTEX
8
OBJECT__44
10
0
20
0
30
0
70
128
71
5
72
7
73
4
0
VERTEX
8
OBJECT__44
10
0
20
0
30
0
70
128
71
3
72
4
73
1
0
SEQEND
8
OBJECT__44
0
POLYLINE
8
OBJECT__45
66
1
70
64
71
14
72
12
62
253
0
VERTEX
8
OBJECT__45
10
63.910999
20
-11.071000
30
-25.502001
70
192
0
VERTEX
8
OBJECT__45
10
63.863998
20
-10.278000
30
-25.086000
70
192
0
VERTEX
8
OBJECT__45
10
67.851997
20
-11.527000
30
-22.454000
70
192
0
VERTEX
8
OBJECT__45
10
67.908997
20
-12.415000
30
-22.531000
70
192
0
VERTEX
8
OBJECT__45
10
67.950996
20
-13.229000
30
-22.865000
70
192
0
VERTEX
8
OBJECT__45
10
67.961998
20
-13.611000
30
-23.222000
70
192
0
VERTEX
8
OBJECT__45
10
63.912998
20
-11.237000
30
-25.698000
70
192
0
VERTEX
8
OBJECT__45
10
67.970001
20
-13.878000
30
-23.472000
70
192
0
VERTEX
8
OBJECT__45
10
67.961998
20
-14.265000
30
-24.271000
70
192
0
VERTEX
8
OBJECT__45
10
63.918999
20
-11.649000
30
-26.181999
70
192
0
VERTEX
8
OBJECT__45
10
67.927002
20
-14.377000
30
-25.306000
70
192
0
VERTEX
8
OBJECT__45
10
63.841000
20
-11.981000
30
-27.809999
70
192
0
VERTEX
8
OBJECT__45
10
63.889000
20
-11.938000
30
-27.016001
70
192
0
VERTEX
8
OBJECT__45
10
63.765999
20
-9.131000
30
-24.958000
70
192
0
VERTEX
8
OBJECT__45
10
0
20
0
30
0
70
128
71
1
72
2
73
3
0
VERTEX
8
OBJECT__45
10
0
20
0
30
0
70
128
71
3
72
4
73
1
0
VERTEX
8
OBJECT__45
10
0
20
0
30
0
70
128
71
4
72
5
73
1
0
VERTEX
8
OBJECT__45
10
0
20
0
30
0
70
128
71
6
72
7
73
1
0
VERTEX
8
OBJECT__45
10
0
20
0
30
0
70
128
71
1
72
5
73
6
0
VERTEX
8
OBJECT__45
10
0
20
0
30
0
70
128
71
7
72
8
73
9
0
VERTEX
8
OBJECT__45
10
0
20
0
30
0
70
128
71
7
72
6
73
8
0
VERTEX
8
OBJECT__45
10
0
20
0
30
0
70
128
71
10
72
9
73
11
0
VERTEX
8
OBJECT__45
10
0
20
0
30
0
70
128
71
11
72
12
73
13
0
VERTEX
8
OBJECT__45
10
0
20
0
30
0
70
128
71
11
72
13
73
10
0
VERTEX
8
OBJECT__45
10
0
20
0
30
0
70
128
71
9
72
10
73
7
0
VERTEX
8
OBJECT__45
10
0
20
0
30
0
70
128
71
2
72
14
73
3
0
SEQEND
8
OBJECT__45
0
POLYLINE
8
OBJECT__46
66
1
70
64
71
6
72
4
62
253
0
VERTEX
8
OBJECT__46
10
64.875999
20
-11.981000
30
-67.332001
70
192
0
VERTEX
8
OBJECT__46
10
63.875999
20
-11.981000
30
-67.358002
70
192
0
VERTEX
8
OBJECT__46
10
62.841000
20
-11.981000
30
-27.836000
70
192
0
VERTEX
8
OBJECT__46
10
62.341999
20
-12.847000
30
-27.849001
70
192
0
VERTEX
8
OBJECT__46
10
63.376999
20
-12.847000
30
-67.371002
70
192
0
VERTEX
8
OBJECT__46
10
63.841000
20
-11.981000
30
-27.809999
70
192
0
VERTEX
8
OBJECT__46
10
0
20
0
30
0
70
128
71
1
72
2
73
3
0
VERTEX
8
OBJECT__46
10
0
20
0
30
0
70
128
71
4
72
3
73
2
0
VERTEX
8
OBJECT__46
10
0
20
0
30
0
70
128
71
2
72
5
73
4
0
VERTEX
8
OBJECT__46
10
0
20
0
30
0
70
128
71
3
72
6
73
1
0
SEQEND
8
OBJECT__46
0
POLYLINE
8
OBJECT__47
66
1
70
64
71
40
72
38
62
253
0
VERTEX
8
OBJECT__47
10
63.877998
20
-14.999000
30
-86.525002
70
192
0
VERTEX
8
OBJECT__47
10
63.504002
20
-7.981000
30
-72.235001
70
192
0
VERTEX
8
OBJECT__47
10
63.504002
20
7.981000
30
-72.235001
70
192
0
VERTEX
8
OBJECT__47
10
63.687000
20
-22.299000
30
-79.227997
70
192
0
VERTEX
8
OBJECT__47
10
62.103001
20
-16.559000
30
-18.721001
70
192
0
VERTEX
8
OBJECT__47
10
62.341999
20
-12.847000
30
-27.849001
70
192
0
VERTEX
8
OBJECT__47
10
63.500000
20
-9.155000
30
-72.098000
70
192
0
VERTEX
8
OBJECT__47
10
62.316002
20
-12.740000
30
-26.875000
70
192
0
VERTEX
8
OBJECT__47
10
63.853001
20
18.650999
30
-85.546997
70
192
0
VERTEX
8
OBJECT__47
10
63.877998
20
15.001000
30
-86.525002
70
192
0
VERTEX
8
OBJECT__47
10
63.498001
20
9.493000
30
-72.004997
70
192
0
VERTEX
8
OBJECT__47
10
63.484001
20
-10.654000
30
-71.457001
70
192
0
VERTEX
8
OBJECT__47
10
63.376999
20
-12.847000
30
-67.371002
70
192
0
VERTEX
8
OBJECT__47
10
63.687000
20
22.301001
30
-79.227997
70
192
0
VERTEX
8
OBJECT__47
10
63.376999
20
12.847000
30
-67.371002
70
192
0
VERTEX
8
OBJECT__47
10
62.341999
20
12.847000
30
-27.849001
70
192
0
VERTEX
8
OBJECT__47
10
63.477001
20
10.989000
30
-71.217003
70
192
0
VERTEX
8
OBJECT__47
10
63.783001
20
21.323000
30
-82.875999
70
192
0
VERTEX
8
OBJECT__47
10
63.853001
20
-18.649000
30
-85.546997
70
192
0
VERTEX
8
OBJECT__47
10
63.783001
20
-21.320999
30
-82.875999
70
192
0
VERTEX
8
OBJECT__47
10
62.289001
20
-12.322000
30
-25.820999
70
192
0
VERTEX
8
OBJECT__47
10
63.407001
20
12.708000
30
-68.551003
70
192
0
VERTEX
8
OBJECT__47
10
63.416000
20
-12.614000
30
-68.883003
70
192
0
VERTEX
8
OBJECT__47
10
62.220001
20
8.816000
30
-23.202000
70
192
0
VERTEX
8
OBJECT__47
10
62.103001
20
16.562000
30
-18.718000
70
192
0
VERTEX
8
OBJECT__47
10
62.247002
20
10.107000
30
-24.240000
70
192
0
VERTEX
8
OBJECT__47
10
61.923000
20
22.301001
30
-11.851000
70
192
0
VERTEX
8
OBJECT__47
10
63.455002
20
-11.840000
30
-70.361000
70
192
0
VERTEX
8
OBJECT__47
10
62.265999
20
-11.562000
30
-24.943001
70
192
0
VERTEX
8
OBJECT__47
10
62.243999
20
9.131000
30
-24.131001
70
192
0
VERTEX
8
OBJECT__47
10
62.243999
20
5.651000
30
-24.131001
70
192
0
VERTEX
8
OBJECT__47
10
63.446999
20
12.061000
30
-70.050003
70
192
0
VERTEX
8
OBJECT__47
10
62.257999
20
11.163000
30
-24.663000
70
192
0
VERTEX
8
OBJECT__47
10
62.250999
20
-10.552000
30
-24.372000
70
192
0
VERTEX
8
OBJECT__47
10
62.220001
20
-8.812000
30
-23.202999
70
192
0
VERTEX
8
OBJECT__47
10
62.243999
20
-9.131000
30
-24.131001
70
192
0
VERTEX
8
OBJECT__47
10
62.278000
20
12.033000
30
-25.413000
70
192
0
VERTEX
8
OBJECT__47
10
62.304001
20
12.603000
30
-26.410000
70
192
0
VERTEX
8
OBJECT__47
10
62.243999
20
-5.651000
30
-24.131001
70
192
0
VERTEX
8
OBJECT__47
10
61.923000
20
-22.299000
30
-11.855000
70
192
0
VERTEX
8
OBJECT__47
10
0
20
0
30
0
70
128
71
1
72
2
73
3
0
VERTEX
8
OBJECT__47
10
0
20
0
30
0
70
128
71
4
72
5
73
6
0
VERTEX
8
OBJECT__47
10
0
20
0
30
0
70
128
71
1
72
7
73
2
0
VERTEX
8
OBJECT__47
10
0
20
0
30
0
70
128
71
5
72
8
73
6
0
VERTEX
8
OBJECT__47
10
0
20
0
30
0
70
128
71
9
72
10
73
11
0
VERTEX
8
OBJECT__47
10
0
20
0
30
0
70
128
71
3
72
10
73
1
0
VERTEX
8
OBJECT__47
10
0
20
0
30
0
70
128
71
12
72
7
73
1
0
VERTEX
8
OBJECT__47
10
0
20
0
30
0
70
128
71
6
72
13
73
4
0
VERTEX
8
OBJECT__47
10
0
20
0
30
0
70
128
71
14
72
15
73
16
0
VERTEX
8
OBJECT__47
10
0
20
0
30
0
70
128
71
17
72
18
73
9
0
VERTEX
8
OBJECT__47
10
0
20
0
30
0
70
128
71
1
72
19
73
12
0
VERTEX
8
OBJECT__47
10
0
20
0
30
0
70
128
71
12
72
20
73
4
0
VERTEX
8
OBJECT__47
10
0
20
0
30
0
70
128
71
5
72
21
73
8
0
VERTEX
8
OBJECT__47
10
0
20
0
30
0
70
128
71
14
72
22
73
15
0
VERTEX
8
OBJECT__47
10
0
20
0
30
0
70
128
71
3
72
11
73
10
0
VERTEX
8
OBJECT__47
10
0
20
0
30
0
70
128
71
12
72
19
73
20
0
VERTEX
8
OBJECT__47
10
0
20
0
30
0
70
128
71
13
72
23
73
4
0
VERTEX
8
OBJECT__47
10
0
20
0
30
0
70
128
71
24
72
25
73
26
0
VERTEX
8
OBJECT__47
10
0
20
0
30
0
70
128
71
16
72
27
73
14
0
VERTEX
8
OBJECT__47
10
0
20
0
30
0
70
128
71
4
72
28
73
12
0
VERTEX
8
OBJECT__47
10
0
20
0
30
0
70
128
71
5
72
29
73
21
0
VERTEX
8
OBJECT__47
10
0
20
0
30
0
70
128
71
30
72
31
73
24
0
VERTEX
8
OBJECT__47
10
0
20
0
30
0
70
128
71
14
72
32
73
22
0
VERTEX
8
OBJECT__47
10
0
20
0
30
0
70
128
71
17
72
32
73
14
0
VERTEX
8
OBJECT__47
10
0
20
0
30
0
70
128
71
23
72
28
73
4
0
VERTEX
8
OBJECT__47
10
0
20
0
30
0
70
128
71
25
72
33
73
26
0
VERTEX
8
OBJECT__47
10
0
20
0
30
0
70
128
71
14
72
18
73
17
0
VERTEX
8
OBJECT__47
10
0
20
0
30
0
70
128
71
5
72
34
73
29
0
VERTEX
8
OBJECT__47
10
0
20
0
30
0
70
128
71
35
72
36
73
34
0
VERTEX
8
OBJECT__47
10
0
20
0
30
0
70
128
71
25
72
37
73
33
0
VERTEX
8
OBJECT__47
10
0
20
0
30
0
70
128
71
11
72
17
73
9
0
VERTEX
8
OBJECT__47
10
0
20
0
30
0
70
128
71
34
72
5
73
35
0
VERTEX
8
OBJECT__47
10
0
20
0
30
0
70
128
71
25
72
38
73
37
0
VERTEX
8
OBJECT__47
10
0
20
0
30
0
70
128
71
35
72
39
73
36
0
VERTEX
8
OBJECT__47
10
0
20
0
30
0
70
128
71
26
72
30
73
24
0
VERTEX
8
OBJECT__47
10
0
20
0
30
0
70
128
71
4
72
40
73
5
0
VERTEX
8
OBJECT__47
10
0
20
0
30
0
70
128
71
16
72
38
73
27
0
VERTEX
8
OBJECT__47
10
0
20
0
30
0
70
128
71
25
72
27
73
38
0
SEQEND
8
OBJECT__47
0
POLYLINE
8
OBJECT__48
66
1
70
64
71
19
72
21
62
253
0
VERTEX
8
OBJECT__48
10
64.021004
20
9.225000
30
-71.141998
70
192
0
VERTEX
8
OBJECT__48
10
63.980999
20
7.981000
30
-71.356003
70
192
0
VERTEX
8
OBJECT__48
10
64.981003
20
7.981000
30
-71.330002
70
192
0
VERTEX
8
OBJECT__48
10
63.498001
20
9.493000
30
-72.004997
70
192
0
VERTEX
8
OBJECT__48
10
63.504002
20
7.981000
30
-72.235001
70
192
0
VERTEX
8
OBJECT__48
10
65.064003
20
9.249000
30
-71.191002
70
192
0
VERTEX
8
OBJECT__48
10
65.089996
20
10.509000
30
-70.563004
70
192
0
VERTEX
8
OBJECT__48
10
64.028000
20
10.432000
30
-70.491997
70
192
0
VERTEX
8
OBJECT__48
10
63.477001
20
10.989000
30
-71.217003
70
192
0
VERTEX
8
OBJECT__48
10
64.000000
20
11.306000
30
-69.542999
70
192
0
VERTEX
8
OBJECT__48
10
65.079002
20
10.845000
30
-70.195999
70
192
0
VERTEX
8
OBJECT__48
10
64.973999
20
11.910000
30
-68.316002
70
192
0
VERTEX
8
OBJECT__48
10
63.938999
20
11.846000
30
-68.328003
70
192
0
VERTEX
8
OBJECT__48
10
63.446999
20
12.061000
30
-70.050003
70
192
0
VERTEX
8
OBJECT__48
10
64.875999
20
11.981000
30
-67.332001
70
192
0
VERTEX
8
OBJECT__48
10
63.407001
20
12.708000
30
-68.551003
70
192
0
VERTEX
8
OBJECT__48
10
63.875999
20
11.981000
30
-67.358002
70
192
0
VERTEX
8
OBJECT__48
10
63.376999
20
12.847000
30
-67.371002
70
192
0
VERTEX
8
OBJECT__48
10
65.058998
20
11.407000
30
-69.581001
70
192
0
VERTEX
8
OBJECT__48
10
0
20
0
30
0
70
128
71
1
72
2
73
3
0
VERTEX
8
OBJECT__48
10
0
20
0
30
0
70
128
71
4
72
5
73
2
0
VERTEX
8
OBJECT__48
10
0
20
0
30
0
70
128
71
6
72
7
73
8
0
VERTEX
8
OBJECT__48
10
0
20
0
30
0
70
128
71
9
72
4
73
1
0
VERTEX
8
OBJECT__48
10
0
20
0
30
0
70
128
71
10
72
8
73
11
0
VERTEX
8
OBJECT__48
10
0
20
0
30
0
70
128
71
8
72
7
73
11
0
VERTEX
8
OBJECT__48
10
0
20
0
30
0
70
128
71
9
72
8
73
10
0
VERTEX
8
OBJECT__48
10
0
20
0
30
0
70
128
71
12
72
13
73
10
0
VERTEX
8
OBJECT__48
10
0
20
0
30
0
70
128
71
14
72
10
73
13
0
VERTEX
8
OBJECT__48
10
0
20
0
30
0
70
128
71
13
72
12
73
15
0
VERTEX
8
OBJECT__48
10
0
20
0
30
0
70
128
71
16
72
13
73
17
0
VERTEX
8
OBJECT__48
10
0
20
0
30
0
70
128
71
17
72
18
73
16
0
VERTEX
8
OBJECT__48
10
0
20
0
30
0
70
128
71
15
72
17
73
13
0
VERTEX
8
OBJECT__48
10
0
20
0
30
0
70
128
71
13
72
16
73
14
0
VERTEX
8
OBJECT__48
10
0
20
0
30
0
70
128
71
10
72
19
73
12
0
VERTEX
8
OBJECT__48
10
0
20
0
30
0
70
128
71
10
72
14
73
9
0
VERTEX
8
OBJECT__48
10
0
20
0
30
0
70
128
71
11
72
19
73
10
0
VERTEX
8
OBJECT__48
10
0
20
0
30
0
70
128
71
1
72
8
73
9
0
VERTEX
8
OBJECT__48
10
0
20
0
30
0
70
128
71
8
72
1
73
6
0
VERTEX
8
OBJECT__48
10
0
20
0
30
0
70
128
71
2
72
1
73
4
0
VERTEX
8
OBJECT__48
10
0
20
0
30
0
70
128
71
3
72
6
73
1
0
SEQEND
8
OBJECT__48
0
POLYLINE
8
OBJECT__49
66
1
70
64
71
4
72
2
62
253
0
VERTEX
8
OBJECT__49
10
67.927002
20
14.377000
30
-25.306000
70
192
0
VERTEX
8
OBJECT__49
10
63.841000
20
11.981000
30
-27.809999
70
192
0
VERTEX
8
OBJECT__49
10
64.875999
20
11.981000
30
-67.332001
70
192
0
VERTEX
8
OBJECT__49
10
69.086998
20
14.377000
30
-69.617996
70
192
0
VERTEX
8
OBJECT__49
10
0
20
0
30
0
70
128
71
1
72
2
73
3
0
VERTEX
8
OBJECT__49
10
0
20
0
30
0
70
128
71
3
72
4
73
1
0
SEQEND
8
OBJECT__49
0
POLYLINE
8
OBJECT__50
66
1
70
64
71
6
72
4
62
253
0
VERTEX
8
OBJECT__50
10
63.980999
20
7.981000
30
-71.356003
70
192
0
VERTEX
8
OBJECT__50
10
63.980999
20
-7.981000
30
-71.356003
70
192
0
VERTEX
8
OBJECT__50
10
64.981003
20
-7.981000
30
-71.330002
70
192
0
VERTEX
8
OBJECT__50
10
63.504002
20
7.981000
30
-72.235001
70
192
0
VERTEX
8
OBJECT__50
10
63.504002
20
-7.981000
30
-72.235001
70
192
0
VERTEX
8
OBJECT__50
10
64.981003
20
7.981000
30
-71.330002
70
192
0
VERTEX
8
OBJECT__50
10
0
20
0
30
0
70
128
71
1
72
2
73
3
0
VERTEX
8
OBJECT__50
10
0
20
0
30
0
70
128
71
2
72
1
73
4
0
VERTEX
8
OBJECT__50
10
0
20
0
30
0
70
128
71
4
72
5
73
2
0
VERTEX
8
OBJECT__50
10
0
20
0
30
0
70
128
71
3
72
6
73
1
0
SEQEND
8
OBJECT__50
0
POLYLINE
8
OBJECT__51
66
1
70
64
71
14
72
12
62
253
0
VERTEX
8
OBJECT__51
10
65.089996
20
10.509000
30
-70.563004
70
192
0
VERTEX
8
OBJECT__51
10
65.064003
20
9.249000
30
-71.191002
70
192
0
VERTEX
8
OBJECT__51
10
69.192001
20
10.377000
30
-73.616997
70
192
0
VERTEX
8
OBJECT__51
10
69.232002
20
11.149000
30
-73.570000
70
192
0
VERTEX
8
OBJECT__51
10
69.263000
20
12.429000
30
-73.129997
70
192
0
VERTEX
8
OBJECT__51
10
69.251999
20
13.230000
30
-72.467003
70
192
0
VERTEX
8
OBJECT__51
10
65.079002
20
10.845000
30
-70.195999
70
192
0
VERTEX
8
OBJECT__51
10
69.249001
20
13.467000
30
-72.271004
70
192
0
VERTEX
8
OBJECT__51
10
69.194000
20
14.156000
30
-71.078003
70
192
0
VERTEX
8
OBJECT__51
10
65.058998
20
11.407000
30
-69.581001
70
192
0
VERTEX
8
OBJECT__51
10
69.086998
20
14.377000
30
-69.617996
70
192
0
VERTEX
8
OBJECT__51
10
64.875999
20
11.981000
30
-67.332001
70
192
0
VERTEX
8
OBJECT__51
10
64.973999
20
11.910000
30
-68.316002
70
192
0
VERTEX
8
OBJECT__51
10
64.981003
20
7.981000
30
-71.330002
70
192
0
VERTEX
8
OBJECT__51
10
0
20
0
30
0
70
128
71
1
72
2
73
3
0
VERTEX
8
OBJECT__51
10
0
20
0
30
0
70
128
71
3
72
4
73
1
0
VERTEX
8
OBJECT__51
10
0
20
0
30
0
70
128
71
4
72
5
73
1
0
VERTEX
8
OBJECT__51
10
0
20
0
30
0
70
128
71
6
72
7
73
1
0
VERTEX
8
OBJECT__51
10
0
20
0
30
0
70
128
71
1
72
5
73
6
0
VERTEX
8
OBJECT__51
10
0
20
0
30
0
70
128
71
8
72
9
73
10
0
VERTEX
8
OBJECT__51
10
0
20
0
30
0
70
128
71
7
72
6
73
8
0
VERTEX
8
OBJECT__51
10
0
20
0
30
0
70
128
71
10
72
9
73
11
0
VERTEX
8
OBJECT__51
10
0
20
0
30
0
70
128
71
11
72
12
73
13
0
VERTEX
8
OBJECT__51
10
0
20
0
30
0
70
128
71
11
72
13
73
10
0
VERTEX
8
OBJECT__51
10
0
20
0
30
0
70
128
71
10
72
7
73
8
0
VERTEX
8
OBJECT__51
10
0
20
0
30
0
70
128
71
2
72
14
73
3
0
SEQEND
8
OBJECT__51
0
POLYLINE
8
OBJECT__52
66
1
70
64
71
19
72
21
62
253
0
VERTEX
8
OBJECT__52
10
63.955002
20
-11.766000
30
-68.597000
70
192
0
VERTEX
8
OBJECT__52
10
63.875999
20
-11.981000
30
-67.358002
70
192
0
VERTEX
8
OBJECT__52
10
64.875999
20
-11.981000
30
-67.332001
70
192
0
VERTEX
8
OBJECT__52
10
63.416000
20
-12.614000
30
-68.883003
70
192
0
VERTEX
8
OBJECT__52
10
63.376999
20
-12.847000
30
-67.371002
70
192
0
VERTEX
8
OBJECT__52
10
64.996002
20
-11.843000
30
-68.595001
70
192
0
VERTEX
8
OBJECT__52
10
65.070999
20
-11.225000
30
-69.843002
70
192
0
VERTEX
8
OBJECT__52
10
64.010002
20
-11.126000
30
-69.793999
70
192
0
VERTEX
8
OBJECT__52
10
63.455002
20
-11.840000
30
-70.361000
70
192
0
VERTEX
8
OBJECT__52
10
64.029999
20
-10.162000
30
-70.688004
70
192
0
VERTEX
8
OBJECT__52
10
65.078003
20
-10.845000
30
-70.192001
70
192
0
VERTEX
8
OBJECT__52
10
65.050003
20
-8.965000
30
-71.259003
70
192
0
VERTEX
8
OBJECT__52
10
64.014000
20
-8.949000
30
-71.222000
70
192
0
VERTEX
8
OBJECT__52
10
63.484001
20
-10.654000
30
-71.457001
70
192
0
VERTEX
8
OBJECT__52
10
64.981003
20
-7.981000
30
-71.330002
70
192
0
VERTEX
8
OBJECT__52
10
63.500000
20
-9.155000
30
-72.098000
70
192
0
VERTEX
8
OBJECT__52
10
63.980999
20
-7.981000
30
-71.356003
70
192
0
VERTEX
8
OBJECT__52
10
63.504002
20
-7.981000
30
-72.235001
70
192
0
VERTEX
8
OBJECT__52
10
65.089996
20
-10.227000
30
-70.760002
70
192
0
VERTEX
8
OBJECT__52
10
0
20
0
30
0
70
128
71
1
72
2
73
3
0
VERTEX
8
OBJECT__52
10
0
20
0
30
0
70
128
71
4
72
5
73
2
0
VERTEX
8
OBJECT__52
10
0
20
0
30
0
70
128
71
6
72
7
73
8
0
VERTEX
8
OBJECT__52
10
0
20
0
30
0
70
128
71
9
72
4
73
1
0
VERTEX
8
OBJECT__52
10
0
20
0
30
0
70
128
71
10
72
8
73
11
0
VERTEX
8
OBJECT__52
10
0
20
0
30
0
70
128
71
8
72
7
73
11
0
VERTEX
8
OBJECT__52
10
0
20
0
30
0
70
128
71
9
72
8
73
10
0
VERTEX
8
OBJECT__52
10
0
20
0
30
0
70
128
71
12
72
13
73
10
0
VERTEX
8
OBJECT__52
10
0
20
0
30
0
70
128
71
14
72
10
73
13
0
VERTEX
8
OBJECT__52
10
0
20
0
30
0
70
128
71
13
72
12
73
15
0
VERTEX
8
OBJECT__52
10
0
20
0
30
0
70
128
71
16
72
13
73
17
0
VERTEX
8
OBJECT__52
10
0
20
0
30
0
70
128
71
17
72
18
73
16
0
VERTEX
8
OBJECT__52
10
0
20
0
30
0
70
128
71
15
72
17
73
13
0
VERTEX
8
OBJECT__52
10
0
20
0
30
0
70
128
71
13
72
16
73
14
0
VERTEX
8
OBJECT__52
10
0
20
0
30
0
70
128
71
10
72
19
73
12
0
VERTEX
8
OBJECT__52
10
0
20
0
30
0
70
128
71
10
72
14
73
9
0
VERTEX
8
OBJECT__52
10
0
20
0
30
0
70
128
71
11
72
19
73
10
0
VERTEX
8
OBJECT__52
10
0
20
0
30
0
70
128
71
1
72
8
73
9
0
VERTEX
8
OBJECT__52
10
0
20
0
30
0
70
128
71
8
72
1
73
6
0
VERTEX
8
OBJECT__52
10
0
20
0
30
0
70
128
71
2
72
1
73
4
0
VERTEX
8
OBJECT__52
10
0
20
0
30
0
70
128
71
3
72
6
73
1
0
SEQEND
8
OBJECT__52
0
POLYLINE
8
OBJECT__53
66
1
70
64
71
4
72
2
62
253
0
VERTEX
8
OBJECT__53
10
69.086998
20
-14.377000
30
-69.617996
70
192
0
VERTEX
8
OBJECT__53
10
64.875999
20
-11.981000
30
-67.332001
70
192
0
VERTEX
8
OBJECT__53
10
63.841000
20
-11.981000
30
-27.809999
70
192
0
VERTEX
8
OBJECT__53
10
67.927002
20
-14.377000
30
-25.306000
70
192
0
VERTEX
8
OBJECT__53
10
0
20
0
30
0
70
128
71
1
72
2
73
3
0
VERTEX
8
OBJECT__53
10
0
20
0
30
0
70
128
71
3
72
4
73
1
0
SEQEND
8
OBJECT__53
0
POLYLINE
8
OBJECT__54
66
1
70
64
71
13
72
11
62
253
0
VERTEX
8
OBJECT__54
10
69.436996
20
14.983000
30
-69.609001
70
192
0
VERTEX
8
OBJECT__54
10
69.086998
20
14.377000
30
-69.617996
70
192
0
VERTEX
8
OBJECT__54
10
69.194000
20
14.156000
30
-71.078003
70
192
0
VERTEX
8
OBJECT__54
10
69.481003
20
14.680000
30
-71.271004
70
192
0
VERTEX
8
OBJECT__54
10
69.249001
20
13.467000
30
-72.271004
70
192
0
VERTEX
8
OBJECT__54
10
69.542000
20
12.705000
30
-73.598000
70
192
0
VERTEX
8
OBJECT__54
10
69.515999
20
13.879000
30
-72.617996
70
192
0
VERTEX
8
OBJECT__54
10
69.251999
20
13.230000
30
-72.467003
70
192
0
VERTEX
8
OBJECT__54
10
69.556000
20
11.256000
30
-74.133003
70
192
0
VERTEX
8
OBJECT__54
10
69.263000
20
12.429000
30
-73.129997
70
192
0
VERTEX
8
OBJECT__54
10
69.557999
20
10.377000
30
-74.213997
70
192
0
VERTEX
8
OBJECT__54
10
69.232002
20
11.149000
30
-73.570000
70
192
0
VERTEX
8
OBJECT__54
10
69.192001
20
10.377000
30
-73.616997
70
192
0
VERTEX
8
OBJECT__54
10
0
20
0
30
0
70
128
71
1
72
2
73
3
0
VERTEX
8
OBJECT__54
10
0
20
0
30
0
70
128
71
4
72
3
73
5
0
VERTEX
8
OBJECT__54
10
0
20
0
30
0
70
128
71
6
72
7
73
8
0
VERTEX
8
OBJECT__54
10
0
20
0
30
0
70
128
71
7
72
5
73
8
0
VERTEX
8
OBJECT__54
10
0
20
0
30
0
70
128
71
9
72
6
73
10
0
VERTEX
8
OBJECT__54
10
0
20
0
30
0
70
128
71
11
72
9
73
12
0
VERTEX
8
OBJECT__54
10
0
20
0
30
0
70
128
71
12
72
13
73
11
0
VERTEX
8
OBJECT__54
10
0
20
0
30
0
70
128
71
10
72
12
73
9
0
VERTEX
8
OBJECT__54
10
0
20
0
30
0
70
128
71
8
72
10
73
6
0
VERTEX
8
OBJECT__54
10
0
20
0
30
0
70
128
71
5
72
7
73
4
0
VERTEX
8
OBJECT__54
10
0
20
0
30
0
70
128
71
3
72
4
73
1
0
SEQEND
8
OBJECT__54
0
POLYLINE
8
OBJECT__55
66
1
70
64
71
4
72
2
62
253
0
VERTEX
8
OBJECT__55
10
69.192001
20
10.377000
30
-73.616997
70
192
0
VERTEX
8
OBJECT__55
10
64.981003
20
7.981000
30
-71.330002
70
192
0
VERTEX
8
OBJECT__55
10
64.981003
20
-7.981000
30
-71.330002
70
192
0
VERTEX
8
OBJECT__55
10
69.192001
20
-10.377000
30
-73.616997
70
192
0
VERTEX
8
OBJECT__55
10
0
20
0
30
0
70
128
71
1
72
2
73
3
0
VERTEX
8
OBJECT__55
10
0
20
0
30
0
70
128
71
3
72
4
73
1
0
SEQEND
8
OBJECT__55
0
POLYLINE
8
OBJECT__56
66
1
70
64
71
51
72
51
62
253
0
VERTEX
8
OBJECT__56
10
68.185997
20
11.527000
30
-21.839001
70
192
0
VERTEX
8
OBJECT__56
10
67.039001
20
7.959000
30
21.990000
70
192
0
VERTEX
8
OBJECT__56
10
67.000000
20
-0.018000
30
23.452999
70
192
0
VERTEX
8
OBJECT__56
10
67.039001
20
-7.993000
30
21.976999
70
192
0
VERTEX
8
OBJECT__56
10
67.150002
20
-14.915000
30
17.753000
70
192
0
VERTEX
8
OBJECT__56
10
67.149002
20
14.888000
30
17.778000
70
192
0
VERTEX
8
OBJECT__56
10
68.190002
20
-12.563000
30
-21.972000
70
192
0
VERTEX
8
OBJECT__56
10
67.317001
20
-19.875999
30
11.339000
70
192
0
VERTEX
8
OBJECT__56
10
67.521004
20
-22.221001
30
3.579000
70
192
0
VERTEX
8
OBJECT__56
10
69.684998
20
-22.299000
30
-79.070999
70
192
0
VERTEX
8
OBJECT__56
10
69.436996
20
-14.983000
30
-69.609001
70
192
0
VERTEX
8
OBJECT__56
10
68.277000
20
-14.983000
30
-25.297001
70
192
0
VERTEX
8
OBJECT__56
10
68.191002
20
12.738000
30
-22.023001
70
192
0
VERTEX
8
OBJECT__56
10
67.519997
20
22.216999
30
3.615000
70
192
0
VERTEX
8
OBJECT__56
10
68.185997
20
-11.527000
30
-21.839001
70
192
0
VERTEX
8
OBJECT__56
10
67.627998
20
-22.301001
30
-0.537000
70
192
0
VERTEX
8
OBJECT__56
10
67.629997
20
-22.299000
30
-0.599000
70
192
0
VERTEX
8
OBJECT__56
10
67.625000
20
-22.306999
30
-0.422000
70
192
0
VERTEX
8
OBJECT__56
10
69.459999
20
-14.900000
30
-70.495003
70
192
0
VERTEX
8
OBJECT__56
10
67.628998
20
22.302000
30
-0.568000
70
192
0
VERTEX
8
OBJECT__56
10
67.625999
20
22.306000
30
-0.447000
70
192
0
VERTEX
8
OBJECT__56
10
68.204002
20
13.700000
30
-22.523001
70
192
0
VERTEX
8
OBJECT__56
10
67.630997
20
22.301001
30
-0.635000
70
192
0
VERTEX
8
OBJECT__56
10
67.317001
20
19.858999
30
11.372000
70
192
0
VERTEX
8
OBJECT__56
10
68.200996
20
-13.531000
30
-22.403000
70
192
0
VERTEX
8
OBJECT__56
10
67.632004
20
-22.299000
30
-0.661000
70
192
0
VERTEX
8
OBJECT__56
10
67.626999
20
-22.304001
30
-0.475000
70
192
0
VERTEX
8
OBJECT__56
10
69.684998
20
22.301001
30
-79.070999
70
192
0
VERTEX
8
OBJECT__56
10
68.277000
20
14.983000
30
-25.297001
70
192
0
VERTEX
8
OBJECT__56
10
67.625000
20
22.309000
30
-0.386000
70
192
0
VERTEX
8
OBJECT__56
10
67.630997
20
22.301001
30
-0.629000
70
192
0
VERTEX
8
OBJECT__56
10
69.498001
20
-14.359000
30
-71.945000
70
192
0
VERTEX
8
OBJECT__56
10
68.250000
20
14.861000
30
-24.289000
70
192
0
VERTEX
8
OBJECT__56
10
68.245003
20
-14.804000
30
-24.091999
70
192
0
VERTEX
8
OBJECT__56
10
69.528999
20
-13.397000
30
-73.101997
70
192
0
VERTEX
8
OBJECT__56
10
69.849998
20
-18.649000
30
-85.389999
70
192
0
VERTEX
8
OBJECT__56
10
69.550003
20
-12.039000
30
-73.914001
70
192
0
VERTEX
8
OBJECT__56
10
69.875999
20
-14.999000
30
-86.367996
70
192
0
VERTEX
8
OBJECT__56
10
69.875999
20
15.001000
30
-86.367996
70
192
0
VERTEX
8
OBJECT__56
10
69.557999
20
10.377000
30
-74.213997
70
192
0
VERTEX
8
OBJECT__56
10
69.542000
20
12.705000
30
-73.598000
70
192
0
VERTEX
8
OBJECT__56
10
69.780998
20
21.323000
30
-82.719002
70
192
0
VERTEX
8
OBJECT__56
10
69.436996
20
14.983000
30
-69.609001
70
192
0
VERTEX
8
OBJECT__56
10
69.780998
20
-21.320999
30
-82.719002
70
192
0
VERTEX
8
OBJECT__56
10
69.556000
20
11.256000
30
-74.133003
70
192
0
VERTEX
8
OBJECT__56
10
69.849998
20
18.650999
30
-85.389999
70
192
0
VERTEX
8
OBJECT__56
10
68.224998
20
14.439000
30
-23.318001
70
192
0
VERTEX
8
OBJECT__56
10
68.220001
20
-14.313000
30
-23.138000
70
192
0
VERTEX
8
OBJECT__56
10
69.481003
20
14.680000
30
-71.271004
70
192
0
VERTEX
8
OBJECT__56
10
69.515999
20
13.879000
30
-72.617996
70
192
0
VERTEX
8
OBJECT__56
10
69.557999
20
-10.377000
30
-74.213997
70
192
0
VERTEX
8
OBJECT__56
10
0
20
0
30
0
70
128
71
1
72
2
73
3
0
VERTEX
8
OBJECT__56
10
0
20
0
30
0
70
128
71
1
72
4
73
5
0
VERTEX
8
OBJECT__56
10
0
20
0
30
0
70
128
71
1
72
6
73
2
0
VERTEX
8
OBJECT__56
10
0
20
0
30
0
70
128
71
7
72
8
73
9
0
VERTEX
8
OBJECT__56
10
0
20
0
30
0
70
128
71
10
72
11
73
12
0
VERTEX
8
OBJECT__56
10
0
20
0
30
0
70
128
71
1
72
13
73
14
0
VERTEX
8
OBJECT__56
10
0
20
0
30
0
70
128
71
3
72
4
73
1
0
VERTEX
8
OBJECT__56
10
0
20
0
30
0
70
128
71
15
72
5
73
8
0
VERTEX
8
OBJECT__56
10
0
20
0
30
0
70
128
71
7
72
16
73
17
0
VERTEX
8
OBJECT__56
10
0
20
0
30
0
70
128
71
9
72
18
73
7
0
VERTEX
8
OBJECT__56
10
0
20
0
30
0
70
128
71
10
72
19
73
11
0
VERTEX
8
OBJECT__56
10
0
20
0
30
0
70
128
71
13
72
20
73
21
0
VERTEX
8
OBJECT__56
10
0
20
0
30
0
70
128
71
13
72
22
73
23
0
VERTEX
8
OBJECT__56
10
0
20
0
30
0
70
128
71
14
72
24
73
1
0
VERTEX
8
OBJECT__56
10
0
20
0
30
0
70
128
71
8
72
7
73
15
0
VERTEX
8
OBJECT__56
10
0
20
0
30
0
70
128
71
17
72
25
73
7
0
VERTEX
8
OBJECT__56
10
0
20
0
30
0
70
128
71
17
72
26
73
25
0
VERTEX
8
OBJECT__56
10
0
20
0
30
0
70
128
71
18
72
27
73
7
0
VERTEX
8
OBJECT__56
10
0
20
0
30
0
70
128
71
12
72
26
73
10
0
VERTEX
8
OBJECT__56
10
0
20
0
30
0
70
128
71
28
72
23
73
29
0
VERTEX
8
OBJECT__56
10
0
20
0
30
0
70
128
71
21
72
14
73
13
0
VERTEX
8
OBJECT__56
10
0
20
0
30
0
70
128
71
21
72
30
73
14
0
VERTEX
8
OBJECT__56
10
0
20
0
30
0
70
128
71
23
72
31
73
13
0
VERTEX
8
OBJECT__56
10
0
20
0
30
0
70
128
71
5
72
15
73
1
0
VERTEX
8
OBJECT__56
10
0
20
0
30
0
70
128
71
27
72
16
73
7
0
VERTEX
8
OBJECT__56
10
0
20
0
30
0
70
128
71
10
72
32
73
19
0
VERTEX
8
OBJECT__56
10
0
20
0
30
0
70
128
71
23
72
33
73
29
0
VERTEX
8
OBJECT__56
10
0
20
0
30
0
70
128
71
31
72
20
73
13
0
VERTEX
8
OBJECT__56
10
0
20
0
30
0
70
128
71
12
72
34
73
26
0
VERTEX
8
OBJECT__56
10
0
20
0
30
0
70
128
71
35
72
32
73
10
0
VERTEX
8
OBJECT__56
10
0
20
0
30
0
70
128
71
36
72
37
73
35
0
VERTEX
8
OBJECT__56
10
0
20
0
30
0
70
128
71
38
72
39
73
40
0
VERTEX
8
OBJECT__56
10
0
20
0
30
0
70
128
71
41
72
42
73
28
0
VERTEX
8
OBJECT__56
10
0
20
0
30
0
70
128
71
29
72
43
73
28
0
VERTEX
8
OBJECT__56
10
0
20
0
30
0
70
128
71
24
72
6
73
1
0
VERTEX
8
OBJECT__56
10
0
20
0
30
0
70
128
71
10
72
44
73
35
0
VERTEX
8
OBJECT__56
10
0
20
0
30
0
70
128
71
35
72
44
73
36
0
VERTEX
8
OBJECT__56
10
0
20
0
30
0
70
128
71
39
72
45
73
40
0
VERTEX
8
OBJECT__56
10
0
20
0
30
0
70
128
71
39
72
46
73
41
0
VERTEX
8
OBJECT__56
10
0
20
0
30
0
70
128
71
41
72
46
73
42
0
VERTEX
8
OBJECT__56
10
0
20
0
30
0
70
128
71
23
72
47
73
33
0
VERTEX
8
OBJECT__56
10
0
20
0
30
0
70
128
71
26
72
48
73
25
0
VERTEX
8
OBJECT__56
10
0
20
0
30
0
70
128
71
36
72
38
73
37
0
VERTEX
8
OBJECT__56
10
0
20
0
30
0
70
128
71
41
72
45
73
39
0
VERTEX
8
OBJECT__56
10
0
20
0
30
0
70
128
71
28
72
49
73
50
0
VERTEX
8
OBJECT__56
10
0
20
0
30
0
70
128
71
23
72
22
73
47
0
VERTEX
8
OBJECT__56
10
0
20
0
30
0
70
128
71
34
72
48
73
26
0
VERTEX
8
OBJECT__56
10
0
20
0
30
0
70
128
71
28
72
50
73
41
0
VERTEX
8
OBJECT__56
10
0
20
0
30
0
70
128
71
43
72
49
73
28
0
VERTEX
8
OBJECT__56
10
0
20
0
30
0
70
128
71
38
72
51
73
37
0
VERTEX
8
OBJECT__56
10
0
20
0
30
0
70
128
71
40
72
51
73
38
0
SEQEND
8
OBJECT__56
0
POLYLINE
8
OBJECT__57
66
1
70
64
71
4
72
2
62
253
0
VERTEX
8
OBJECT__57
10
69.557999
20
10.377000
30
-74.213997
70
192
0
VERTEX
8
OBJECT__57
10
69.192001
20
10.377000
30
-73.616997
70
192
0
VERTEX
8
OBJECT__57
10
69.192001
20
-10.377000
30
-73.616997
70
192
0
VERTEX
8
OBJECT__57
10
69.557999
20
-10.377000
30
-74.213997
70
192
0
VERTEX
8
OBJECT__57
10
0
20
0
30
0
70
128
71
1
72
2
73
3
0
VERTEX
8
OBJECT__57
10
0
20
0
30
0
70
128
71
3
72
4
73
1
0
SEQEND
8
OBJECT__57
0
POLYLINE
8
OBJECT__58
66
1
70
64
71
13
72
11
62
253
0
VERTEX
8
OBJECT__58
10
69.557999
20
-10.377000
30
-74.213997
70
192
0
VERTEX
8
OBJECT__58
10
69.192001
20
-10.377000
30
-73.616997
70
192
0
VERTEX
8
OBJECT__58
10
69.253998
20
-11.841000
30
-73.396004
70
192
0
VERTEX
8
OBJECT__58
10
69.550003
20
-12.039000
30
-73.914001
70
192
0
VERTEX
8
OBJECT__58
10
69.260002
20
-13.041000
30
-72.698997
70
192
0
VERTEX
8
OBJECT__58
10
69.498001
20
-14.359000
30
-71.945000
70
192
0
VERTEX
8
OBJECT__58
10
69.528999
20
-13.397000
30
-73.101997
70
192
0
VERTEX
8
OBJECT__58
10
69.251999
20
-13.228000
30
-72.472000
70
192
0
VERTEX
8
OBJECT__58
10
69.459999
20
-14.900000
30
-70.495003
70
192
0
VERTEX
8
OBJECT__58
10
69.224998
20
-13.884000
30
-71.676003
70
192
0
VERTEX
8
OBJECT__58
10
69.436996
20
-14.983000
30
-69.609001
70
192
0
VERTEX
8
OBJECT__58
10
69.149002
20
-14.330000
30
-70.394997
70
192
0
VERTEX
8
OBJECT__58
10
69.086998
20
-14.377000
30
-69.617996
70
192
0
VERTEX
8
OBJECT__58
10
0
20
0
30
0
70
128
71
1
72
2
73
3
0
VERTEX
8
OBJECT__58
10
0
20
0
30
0
70
128
71
4
72
3
73
5
0
VERTEX
8
OBJECT__58
10
0
20
0
30
0
70
128
71
6
72
7
73
8
0
VERTEX
8
OBJECT__58
10
0
20
0
30
0
70
128
71
7
72
5
73
8
0
VERTEX
8
OBJECT__58
10
0
20
0
30
0
70
128
71
9
72
6
73
10
0
VERTEX
8
OBJECT__58
10
0
20
0
30
0
70
128
71
11
72
9
73
12
0
VERTEX
8
OBJECT__58
10
0
20
0
30
0
70
128
71
12
72
13
73
11
0
VERTEX
8
OBJECT__58
10
0
20
0
30
0
70
128
71
10
72
12
73
9
0
VERTEX
8
OBJECT__58
10
0
20
0
30
0
70
128
71
8
72
10
73
6
0
VERTEX
8
OBJECT__58
10
0
20
0
30
0
70
128
71
5
72
7
73
4
0
VERTEX
8
OBJECT__58
10
0
20
0
30
0
70
128
71
3
72
4
73
1
0
SEQEND
8
OBJECT__58
0
POLYLINE
8
OBJECT__59
66
1
70
64
71
4
72
2
62
253
0
VERTEX
8
OBJECT__59
10
69.436996
20
-14.983000
30
-69.609001
70
192
0
VERTEX
8
OBJECT__59
10
69.086998
20
-14.377000
30
-69.617996
70
192
0
VERTEX
8
OBJECT__59
10
67.927002
20
-14.377000
30
-25.306000
70
192
0
VERTEX
8
OBJECT__59
10
68.277000
20
-14.983000
30
-25.297001
70
192
0
VERTEX
8
OBJECT__59
10
0
20
0
30
0
70
128
71
1
72
2
73
3
0
VERTEX
8
OBJECT__59
10
0
20
0
30
0
70
128
71
3
72
4
73
1
0
SEQEND
8
OBJECT__59
0
POLYLINE
8
OBJECT__60
66
1
70
64
71
14
72
12
62
253
0
VERTEX
8
OBJECT__60
10
65.070999
20
-11.225000
30
-69.843002
70
192
0
VERTEX
8
OBJECT__60
10
64.996002
20
-11.843000
30
-68.595001
70
192
0
VERTEX
8
OBJECT__60
10
69.086998
20
-14.377000
30
-69.617996
70
192
0
VERTEX
8
OBJECT__60
10
69.149002
20
-14.330000
30
-70.394997
70
192
0
VERTEX
8
OBJECT__60
10
69.224998
20
-13.884000
30
-71.676003
70
192
0
VERTEX
8
OBJECT__60
10
69.251999
20
-13.228000
30
-72.472000
70
192
0
VERTEX
8
OBJECT__60
10
65.078003
20
-10.845000
30
-70.192001
70
192
0
VERTEX
8
OBJECT__60
10
69.260002
20
-13.041000
30
-72.698997
70
192
0
VERTEX
8
OBJECT__60
10
69.253998
20
-11.841000
30
-73.396004
70
192
0
VERTEX
8
OBJECT__60
10
65.089996
20
-10.227000
30
-70.760002
70
192
0
VERTEX
8
OBJECT__60
10
69.192001
20
-10.377000
30
-73.616997
70
192
0
VERTEX
8
OBJECT__60
10
64.981003
20
-7.981000
30
-71.330002
70
192
0
VERTEX
8
OBJECT__60
10
65.050003
20
-8.965000
30
-71.259003
70
192
0
VERTEX
8
OBJECT__60
10
64.875999
20
-11.981000
30
-67.332001
70
192
0
VERTEX
8
OBJECT__60
10
0
20
0
30
0
70
128
71
1
72
2
73
3
0
VERTEX
8
OBJECT__60
10
0
20
0
30
0
70
128
71
3
72
4
73
1
0
VERTEX
8
OBJECT__60
10
0
20
0
30
0
70
128
71
4
72
5
73
1
0
VERTEX
8
OBJECT__60
10
0
20
0
30
0
70
128
71
6
72
7
73
1
0
VERTEX
8
OBJECT__60
10
0
20
0
30
0
70
128
71
1
72
5
73
6
0
VERTEX
8
OBJECT__60
10
0
20
0
30
0
70
128
71
8
72
9
73
10
0
VERTEX
8
OBJECT__60
10
0
20
0
30
0
70
128
71
7
72
6
73
8
0
VERTEX
8
OBJECT__60
10
0
20
0
30
0
70
128
71
10
72
9
73
11
0
VERTEX
8
OBJECT__60
10
0
20
0
30
0
70
128
71
11
72
12
73
13
0
VERTEX
8
OBJECT__60
10
0
20
0
30
0
70
128
71
11
72
13
73
10
0
VERTEX
8
OBJECT__60
10
0
20
0
30
0
70
128
71
10
72
7
73
8
0
VERTEX
8
OBJECT__60
10
0
20
0
30
0
70
128
71
2
72
14
73
3
0
SEQEND
8
OBJECT__60
0
POLYLINE
8
OBJECT__61
66
1
70
64
71
4
72
2
62
253
0
VERTEX
8
OBJECT__61
10
13.300000
20
-79.500000
30
-92.000000
70
192
0
VERTEX
8
OBJECT__61
10
13.300000
20
79.500000
30
-92.000000
70
192
0
VERTEX
8
OBJECT__61
10
13.300000
20
79.500000
30
92.000000
70
192
0
VERTEX
8
OBJECT__61
10
13.300000
20
-79.500000
30
92.000000
70
192
0
VERTEX
8
OBJECT__61
10
0
20
0
30
0
70
128
71
1
72
2
73
3
0
VERTEX
8
OBJECT__61
10
0
20
0
30
0
70
128
71
3
72
4
73
1
0
SEQEND
8
OBJECT__61
0
POLYLINE
8
OBJECT__62
66
1
70
64
71
4
72
2
62
253
0
VERTEX
8
OBJECT__62
10
0.000000
20
-79.500000
30
92.000000
70
192
0
VERTEX
8
OBJECT__62
10
0.000000
20
-79.500000
30
-92.000000
70
192
0
VERTEX
8
OBJECT__62
10
13.300000
20
-79.500000
30
-92.000000
70
192
0
VERTEX
8
OBJECT__62
10
13.300000
20
-79.500000
30
92.000000
70
192
0
VERTEX
8
OBJECT__62
10
0
20
0
30
0
70
128
71
1
72
2
73
3
0
VERTEX
8
OBJECT__62
10
0
20
0
30
0
70
128
71
3
72
4
73
1
0
SEQEND
8
OBJECT__62
0
POLYLINE
8
OBJECT__64
66
1
70
64
71
4
72
2
62
253
0
VERTEX
8
OBJECT__64
10
0.000000
20
-79.500000
30
92.000000
70
192
0
VERTEX
8
OBJECT__64
10
0.000000
20
79.500000
30
92.000000
70
192
0
VERTEX
8
OBJECT__64
10
0.000000
20
79.500000
30
-92.000000
70
192
0
VERTEX
8
OBJECT__64
10
0.000000
20
-79.500000
30
-92.000000
70
192
0
VERTEX
8
OBJECT__64
10
0
20
0
30
0
70
128
71
1
72
2
73
3
0
VERTEX
8
OBJECT__64
10
0
20
0
30
0
70
128
71
3
72
4
73
1
0
SEQEND
8
OBJECT__64
0
POLYLINE
8
OBJECT__65
66
1
70
64
71
4
72
2
62
253
0
VERTEX
8
OBJECT__65
10
0.000000
20
79.500000
30
-92.000000
70
192
0
VERTEX
8
OBJECT__65
10
13.300000
20
79.500000
30
-92.000000
70
192
0
VERTEX
8
OBJECT__65
10
13.300000
20
-79.500000
30
-92.000000
70
192
0
VERTEX
8
OBJECT__65
10
0.000000
20
-79.500000
30
-92.000000
70
192
0
VERTEX
8
OBJECT__65
10
0
20
0
30
0
70
128
71
1
72
2
73
3
0
VERTEX
8
OBJECT__65
10
0
20
0
30
0
70
128
71
3
72
4
73
1
0
SEQEND
8
OBJECT__65
0
POLYLINE
8
OBJECT__66
66
1
70
64
71
4
72
2
62
253
0
VERTEX
8
OBJECT__66
10
0.000000
20
79.500000
30
92.000000
70
192
0
VERTEX
8
OBJECT__66
10
13.300000
20
79.500000
30
92.000000
70
192
0
VERTEX
8
OBJECT__66
10
13.300000
20
79.500000
30
-92.000000
70
192
0
VERTEX
8
OBJECT__66
10
0.000000
20
79.500000
30
-92.000000
70
192
0
VERTEX
8
OBJECT__66
10
0
20
0
30
0
70
128
71
1
72
2
73
3
0
VERTEX
8
OBJECT__66
10
0
20
0
30
0
70
128
71
3
72
4
73
1
0
SEQEND
8
OBJECT__66
0
POLYLINE
8
OBJECT__67
66
1
70
64
71
4
72
2
62
253
0
VERTEX
8
OBJECT__67
10
0.000000
20
79.500000
30
92.000000
70
192
0
VERTEX
8
OBJECT__67
10
0.000000
20
-79.500000
30
92.000000
70
192
0
VERTEX
8
OBJECT__67
10
13.300000
20
-79.500000
30
92.000000
70
192
0
VERTEX
8
OBJECT__67
10
13.300000
20
79.500000
30
92.000000
70
192
0
VERTEX
8
OBJECT__67
10
0
20
0
30
0
70
128
71
1
72
2
73
3
0
VERTEX
8
OBJECT__67
10
0
20
0
30
0
70
128
71
3
72
4
73
1
0
SEQEND
8
OBJECT__67
0
ENDSEC
0
EOF
