999
Converted by 3D Exploration 
999
XDimension Software, LLC
999
http://www.xdsoft.com/explorer/
0
SECTION
2
HEADER
9
$ACADVER
1
AC1008
9
$UCSORG
10
0.0
20
0.0
30
0.0
9
$UCSXDIR
10
1.0
20
0.0
30
0.0
9
$TILEMODE
70
1
9
$UCSYDIR
10
0.0
20
1.0
30
0.0
9
$EXTMIN
10
-0.004000
20
-160.000000
30
-160.000000
9
$EXTMAX
10
189.755997
20
160.000000
30
27.497000
0
ENDSEC
0
SECTION
2
TABLES
0
TABLE
2
LTYPE
70
1
0
LTYPE
2
CONTINUOUS
70
64
3
Solid line
72
65
73
0
40
0.0
0
ENDTAB
0
TABLE
2
LAYER
70
60
0
LAYER
2
OBJECT__0
70
0
62
253
6
CONTINUOUS
0
LAYER
2
OBJECT__1
70
0
62
253
6
CONTINUOUS
0
LAYER
2
OBJECT__3
70
0
62
253
6
CONTINUOUS
0
LAYER
2
OBJECT__4
70
0
62
253
6
CONTINUOUS
0
LAYER
2
OBJECT__6
70
0
62
253
6
CONTINUOUS
0
LAYER
2
OBJECT__7
70
0
62
253
6
CONTINUOUS
0
LAYER
2
OBJECT__8
70
0
62
253
6
CONTINUOUS
0
LAYER
2
OBJECT__9
70
0
62
253
6
CONTINUOUS
0
LAYER
2
OBJECT__10
70
0
62
253
6
CONTINUOUS
0
LAYER
2
OBJECT__11
70
0
62
253
6
CONTINUOUS
0
LAYER
2
OBJECT__12
70
0
62
253
6
CONTINUOUS
0
LAYER
2
OBJECT__13
70
0
62
253
6
CONTINUOUS
0
LAYER
2
OBJECT__14
70
0
62
253
6
CONTINUOUS
0
LAYER
2
OBJECT__15
70
0
62
253
6
CONTINUOUS
0
LAYER
2
OBJECT__16
70
0
62
253
6
CONTINUOUS
0
LAYER
2
OBJECT__17
70
0
62
253
6
CONTINUOUS
0
LAYER
2
OBJECT__18
70
0
62
253
6
CONTINUOUS
0
LAYER
2
OBJECT__20
70
0
62
253
6
CONTINUOUS
0
LAYER
2
OBJECT__21
70
0
62
253
6
CONTINUOUS
0
LAYER
2
OBJECT__23
70
0
62
253
6
CONTINUOUS
0
LAYER
2
OBJECT__24
70
0
62
253
6
CONTINUOUS
0
LAYER
2
OBJECT__25
70
0
62
253
6
CONTINUOUS
0
LAYER
2
OBJECT__26
70
0
62
253
6
CONTINUOUS
0
LAYER
2
OBJECT__27
70
0
62
253
6
CONTINUOUS
0
LAYER
2
OBJECT__29
70
0
62
253
6
CONTINUOUS
0
LAYER
2
OBJECT__30
70
0
62
253
6
CONTINUOUS
0
LAYER
2
OBJECT__31
70
0
62
253
6
CONTINUOUS
0
LAYER
2
OBJECT__33
70
0
62
253
6
CONTINUOUS
0
LAYER
2
OBJECT__34
70
0
62
253
6
CONTINUOUS
0
LAYER
2
OBJECT__35
70
0
62
253
6
CONTINUOUS
0
LAYER
2
OBJECT__36
70
0
62
253
6
CONTINUOUS
0
LAYER
2
OBJECT__37
70
0
62
253
6
CONTINUOUS
0
LAYER
2
OBJECT__38
70
0
62
253
6
CONTINUOUS
0
LAYER
2
OBJECT__40
70
0
62
253
6
CONTINUOUS
0
LAYER
2
OBJECT__41
70
0
62
253
6
CONTINUOUS
0
LAYER
2
OBJECT__42
70
0
62
253
6
CONTINUOUS
0
LAYER
2
OBJECT__43
70
0
62
253
6
CONTINUOUS
0
LAYER
2
OBJECT__44
70
0
62
253
6
CONTINUOUS
0
LAYER
2
OBJECT__45
70
0
62
253
6
CONTINUOUS
0
LAYER
2
OBJECT__47
70
0
62
253
6
CONTINUOUS
0
LAYER
2
OBJECT__48
70
0
62
253
6
CONTINUOUS
0
LAYER
2
OBJECT__49
70
0
62
253
6
CONTINUOUS
0
LAYER
2
OBJECT__50
70
0
62
253
6
CONTINUOUS
0
LAYER
2
OBJECT__51
70
0
62
253
6
CONTINUOUS
0
LAYER
2
OBJECT__53
70
0
62
253
6
CONTINUOUS
0
LAYER
2
OBJECT__55
70
0
62
253
6
CONTINUOUS
0
LAYER
2
OBJECT__57
70
0
62
253
6
CONTINUOUS
0
LAYER
2
OBJECT__58
70
0
62
253
6
CONTINUOUS
0
ENDTAB
0
TABLE
2
STYLE
70
1
0
STYLE
2
STANDARD
70
0
40
0.0
41
1.0
50
0.0
71
0
42
0.2
3
txt
4
1
0
ENDTAB
0
TABLE
2
UCS
70
0
0
ENDTAB
0
ENDSEC
0
SECTION
2
ENTITIES
0
POLYLINE
8
OBJECT__0
66
1
70
64
71
20
72
20
62
253
0
VERTEX
8
OBJECT__0
10
50.000000
20
117.901001
30
-1.882000
70
192
0
VERTEX
8
OBJECT__0
10
10.000000
20
117.901001
30
-1.882000
70
192
0
VERTEX
8
OBJECT__0
10
10.000000
20
115.587997
30
9.000000
70
192
0
VERTEX
8
OBJECT__0
10
10.000000
20
113.376999
30
-12.044000
70
192
0
VERTEX
8
OBJECT__0
10
50.000000
20
103.741997
30
-17.607000
70
192
0
VERTEX
8
OBJECT__0
10
10.000000
20
103.741997
30
-17.607000
70
192
0
VERTEX
8
OBJECT__0
10
50.000000
20
92.679001
30
-16.444000
70
192
0
VERTEX
8
OBJECT__0
10
10.000000
20
92.679001
30
-16.444000
70
192
0
VERTEX
8
OBJECT__0
10
50.000000
20
84.412003
30
-9.000000
70
192
0
VERTEX
8
OBJECT__0
10
10.000000
20
84.412003
30
-9.000000
70
192
0
VERTEX
8
OBJECT__0
10
10.000000
20
82.098999
30
1.882000
70
192
0
VERTEX
8
OBJECT__0
10
50.000000
20
86.623001
30
12.044000
70
192
0
VERTEX
8
OBJECT__0
10
10.000000
20
86.623001
30
12.044000
70
192
0
VERTEX
8
OBJECT__0
10
50.000000
20
96.258003
30
17.607000
70
192
0
VERTEX
8
OBJECT__0
10
10.000000
20
96.258003
30
17.607000
70
192
0
VERTEX
8
OBJECT__0
10
10.000000
20
107.320999
30
16.444000
70
192
0
VERTEX
8
OBJECT__0
10
50.000000
20
107.320999
30
16.444000
70
192
0
VERTEX
8
OBJECT__0
10
50.000000
20
115.587997
30
9.000000
70
192
0
VERTEX
8
OBJECT__0
10
50.000000
20
82.098999
30
1.882000
70
192
0
VERTEX
8
OBJECT__0
10
50.000000
20
113.376999
30
-12.044000
70
192
0
VERTEX
8
OBJECT__0
10
0
20
0
30
0
70
128
71
1
72
2
73
3
0
VERTEX
8
OBJECT__0
10
0
20
0
30
0
70
128
71
4
72
2
73
1
0
VERTEX
8
OBJECT__0
10
0
20
0
30
0
70
128
71
5
72
6
73
4
0
VERTEX
8
OBJECT__0
10
0
20
0
30
0
70
128
71
7
72
8
73
6
0
VERTEX
8
OBJECT__0
10
0
20
0
30
0
70
128
71
9
72
10
73
8
0
VERTEX
8
OBJECT__0
10
0
20
0
30
0
70
128
71
11
72
10
73
9
0
VERTEX
8
OBJECT__0
10
0
20
0
30
0
70
128
71
12
72
13
73
11
0
VERTEX
8
OBJECT__0
10
0
20
0
30
0
70
128
71
14
72
15
73
13
0
VERTEX
8
OBJECT__0
10
0
20
0
30
0
70
128
71
16
72
15
73
14
0
VERTEX
8
OBJECT__0
10
0
20
0
30
0
70
128
71
3
72
16
73
17
0
VERTEX
8
OBJECT__0
10
0
20
0
30
0
70
128
71
17
72
18
73
3
0
VERTEX
8
OBJECT__0
10
0
20
0
30
0
70
128
71
14
72
17
73
16
0
VERTEX
8
OBJECT__0
10
0
20
0
30
0
70
128
71
13
72
12
73
14
0
VERTEX
8
OBJECT__0
10
0
20
0
30
0
70
128
71
11
72
19
73
12
0
VERTEX
8
OBJECT__0
10
0
20
0
30
0
70
128
71
9
72
19
73
11
0
VERTEX
8
OBJECT__0
10
0
20
0
30
0
70
128
71
8
72
7
73
9
0
VERTEX
8
OBJECT__0
10
0
20
0
30
0
70
128
71
6
72
5
73
7
0
VERTEX
8
OBJECT__0
10
0
20
0
30
0
70
128
71
4
72
20
73
5
0
VERTEX
8
OBJECT__0
10
0
20
0
30
0
70
128
71
1
72
20
73
4
0
VERTEX
8
OBJECT__0
10
0
20
0
30
0
70
128
71
3
72
18
73
1
0
SEQEND
8
OBJECT__0
0
POLYLINE
8
OBJECT__1
66
1
70
64
71
10
72
8
62
253
0
VERTEX
8
OBJECT__1
10
50.000000
20
82.098999
30
1.882000
70
192
0
VERTEX
8
OBJECT__1
10
50.000000
20
107.320999
30
16.444000
70
192
0
VERTEX
8
OBJECT__1
10
50.000000
20
96.258003
30
17.607000
70
192
0
VERTEX
8
OBJECT__1
10
50.000000
20
115.587997
30
9.000000
70
192
0
VERTEX
8
OBJECT__1
10
50.000000
20
103.741997
30
-17.607000
70
192
0
VERTEX
8
OBJECT__1
10
50.000000
20
113.376999
30
-12.044000
70
192
0
VERTEX
8
OBJECT__1
10
50.000000
20
84.412003
30
-9.000000
70
192
0
VERTEX
8
OBJECT__1
10
50.000000
20
92.679001
30
-16.444000
70
192
0
VERTEX
8
OBJECT__1
10
50.000000
20
86.623001
30
12.044000
70
192
0
VERTEX
8
OBJECT__1
10
50.000000
20
117.901001
30
-1.882000
70
192
0
VERTEX
8
OBJECT__1
10
0
20
0
30
0
70
128
71
1
72
2
73
3
0
VERTEX
8
OBJECT__1
10
0
20
0
30
0
70
128
71
4
72
5
73
6
0
VERTEX
8
OBJECT__1
10
0
20
0
30
0
70
128
71
4
72
7
73
8
0
VERTEX
8
OBJECT__1
10
0
20
0
30
0
70
128
71
3
72
9
73
1
0
VERTEX
8
OBJECT__1
10
0
20
0
30
0
70
128
71
8
72
5
73
4
0
VERTEX
8
OBJECT__1
10
0
20
0
30
0
70
128
71
7
72
4
73
2
0
VERTEX
8
OBJECT__1
10
0
20
0
30
0
70
128
71
1
72
7
73
2
0
VERTEX
8
OBJECT__1
10
0
20
0
30
0
70
128
71
6
72
10
73
4
0
SEQEND
8
OBJECT__1
0
POLYLINE
8
OBJECT__3
66
1
70
64
71
20
72
20
62
253
0
VERTEX
8
OBJECT__3
10
180.848007
20
7.392000
30
-23.914000
70
192
0
VERTEX
8
OBJECT__3
10
180.378998
20
6.025000
30
-24.132999
70
192
0
VERTEX
8
OBJECT__3
10
175.733994
20
9.748000
30
-26.299000
70
192
0
VERTEX
8
OBJECT__3
10
183.285995
20
0.000000
30
-22.777000
70
192
0
VERTEX
8
OBJECT__3
10
182.153000
20
0.000000
30
-23.306000
70
192
0
VERTEX
8
OBJECT__3
10
180.848007
20
-7.392000
30
-23.914000
70
192
0
VERTEX
8
OBJECT__3
10
180.378998
20
-6.025000
30
-24.132999
70
192
0
VERTEX
8
OBJECT__3
10
174.673004
20
-11.325000
30
-26.792999
70
192
0
VERTEX
8
OBJECT__3
10
175.733994
20
-9.748000
30
-26.299000
70
192
0
VERTEX
8
OBJECT__3
10
167.651993
20
-9.959000
30
-30.066999
70
192
0
VERTEX
8
OBJECT__3
10
169.992996
20
-9.748000
30
-28.976000
70
192
0
VERTEX
8
OBJECT__3
10
163.069000
20
-3.933000
30
-32.203999
70
192
0
VERTEX
8
OBJECT__3
10
165.348007
20
-6.025000
30
-31.141001
70
192
0
VERTEX
8
OBJECT__3
10
167.651993
20
9.959000
30
-30.066999
70
192
0
VERTEX
8
OBJECT__3
10
169.992996
20
9.748000
30
-28.976000
70
192
0
VERTEX
8
OBJECT__3
10
165.348007
20
6.025000
30
-31.141001
70
192
0
VERTEX
8
OBJECT__3
10
174.673004
20
11.325000
30
-26.792999
70
192
0
VERTEX
8
OBJECT__3
10
163.572998
20
0.000000
30
-31.969000
70
192
0
VERTEX
8
OBJECT__3
10
162.440994
20
0.000000
30
-32.497002
70
192
0
VERTEX
8
OBJECT__3
10
163.069000
20
3.933000
30
-32.203999
70
192
0
VERTEX
8
OBJECT__3
10
0
20
0
30
0
70
128
71
1
72
2
73
3
0
VERTEX
8
OBJECT__3
10
0
20
0
30
0
70
128
71
4
72
5
73
2
0
VERTEX
8
OBJECT__3
10
0
20
0
30
0
70
128
71
4
72
6
73
7
0
VERTEX
8
OBJECT__3
10
0
20
0
30
0
70
128
71
6
72
8
73
9
0
VERTEX
8
OBJECT__3
10
0
20
0
30
0
70
128
71
2
72
1
73
4
0
VERTEX
8
OBJECT__3
10
0
20
0
30
0
70
128
71
9
72
7
73
6
0
VERTEX
8
OBJECT__3
10
0
20
0
30
0
70
128
71
8
72
10
73
11
0
VERTEX
8
OBJECT__3
10
0
20
0
30
0
70
128
71
10
72
12
73
13
0
VERTEX
8
OBJECT__3
10
0
20
0
30
0
70
128
71
14
72
15
73
16
0
VERTEX
8
OBJECT__3
10
0
20
0
30
0
70
128
71
17
72
3
73
15
0
VERTEX
8
OBJECT__3
10
0
20
0
30
0
70
128
71
7
72
5
73
4
0
VERTEX
8
OBJECT__3
10
0
20
0
30
0
70
128
71
13
72
11
73
10
0
VERTEX
8
OBJECT__3
10
0
20
0
30
0
70
128
71
15
72
14
73
17
0
VERTEX
8
OBJECT__3
10
0
20
0
30
0
70
128
71
11
72
9
73
8
0
VERTEX
8
OBJECT__3
10
0
20
0
30
0
70
128
71
18
72
19
73
20
0
VERTEX
8
OBJECT__3
10
0
20
0
30
0
70
128
71
3
72
17
73
1
0
VERTEX
8
OBJECT__3
10
0
20
0
30
0
70
128
71
16
72
20
73
14
0
VERTEX
8
OBJECT__3
10
0
20
0
30
0
70
128
71
18
72
13
73
12
0
VERTEX
8
OBJECT__3
10
0
20
0
30
0
70
128
71
12
72
19
73
18
0
VERTEX
8
OBJECT__3
10
0
20
0
30
0
70
128
71
20
72
16
73
18
0
SEQEND
8
OBJECT__3
0
POLYLINE
8
OBJECT__4
66
1
70
64
71
34
72
34
62
253
0
VERTEX
8
OBJECT__4
10
180.848007
20
7.392000
30
-23.914000
70
192
0
VERTEX
8
OBJECT__4
10
178.681000
20
7.361000
30
-19.408001
70
192
0
VERTEX
8
OBJECT__4
10
180.873001
20
2.752000
30
-18.385000
70
192
0
VERTEX
8
OBJECT__4
10
183.285995
20
0.000000
30
-22.777000
70
192
0
VERTEX
8
OBJECT__4
10
174.673004
20
11.325000
30
-26.792999
70
192
0
VERTEX
8
OBJECT__4
10
174.449997
20
10.753000
30
-21.381001
70
192
0
VERTEX
8
OBJECT__4
10
172.529999
20
11.141000
30
-22.275999
70
192
0
VERTEX
8
OBJECT__4
10
178.554993
20
7.626000
30
-19.466000
70
192
0
VERTEX
8
OBJECT__4
10
167.651993
20
9.959000
30
-30.066999
70
192
0
VERTEX
8
OBJECT__4
10
165.598999
20
9.785000
30
-25.507000
70
192
0
VERTEX
8
OBJECT__4
10
169.496994
20
11.416000
30
-23.690001
70
192
0
VERTEX
8
OBJECT__4
10
170.751999
20
11.500000
30
-23.105000
70
192
0
VERTEX
8
OBJECT__4
10
163.069000
20
3.933000
30
-32.203999
70
192
0
VERTEX
8
OBJECT__4
10
161.524994
20
5.344000
30
-27.407000
70
192
0
VERTEX
8
OBJECT__4
10
164.832993
20
9.464000
30
-25.865000
70
192
0
VERTEX
8
OBJECT__4
10
161.195007
20
3.868000
30
-27.561001
70
192
0
VERTEX
8
OBJECT__4
10
162.440994
20
0.000000
30
-32.497002
70
192
0
VERTEX
8
OBJECT__4
10
160.330994
20
0.000000
30
-27.964001
70
192
0
VERTEX
8
OBJECT__4
10
163.069000
20
-3.933000
30
-32.203999
70
192
0
VERTEX
8
OBJECT__4
10
161.195007
20
-3.868000
30
-27.561001
70
192
0
VERTEX
8
OBJECT__4
10
167.651993
20
-9.959000
30
-30.066999
70
192
0
VERTEX
8
OBJECT__4
10
164.832993
20
-9.464000
30
-25.865000
70
192
0
VERTEX
8
OBJECT__4
10
161.524994
20
-5.344000
30
-27.407000
70
192
0
VERTEX
8
OBJECT__4
10
165.598999
20
-9.785000
30
-25.507000
70
192
0
VERTEX
8
OBJECT__4
10
174.673004
20
-11.325000
30
-26.792999
70
192
0
VERTEX
8
OBJECT__4
10
169.496994
20
-11.416000
30
-23.690001
70
192
0
VERTEX
8
OBJECT__4
10
170.751999
20
-11.500000
30
-23.105000
70
192
0
VERTEX
8
OBJECT__4
10
172.529999
20
-11.141000
30
-22.275999
70
192
0
VERTEX
8
OBJECT__4
10
180.848007
20
-7.392000
30
-23.914000
70
192
0
VERTEX
8
OBJECT__4
10
178.554993
20
-7.626000
30
-19.466000
70
192
0
VERTEX
8
OBJECT__4
10
174.449997
20
-10.753000
30
-21.381001
70
192
0
VERTEX
8
OBJECT__4
10
178.681000
20
-7.361000
30
-19.408001
70
192
0
VERTEX
8
OBJECT__4
10
180.873001
20
-2.752000
30
-18.385000
70
192
0
VERTEX
8
OBJECT__4
10
180.873001
20
0.000000
30
-18.385000
70
192
0
VERTEX
8
OBJECT__4
10
0
20
0
30
0
70
128
71
1
72
2
73
3
0
VERTEX
8
OBJECT__4
10
0
20
0
30
0
70
128
71
3
72
4
73
1
0
VERTEX
8
OBJECT__4
10
0
20
0
30
0
70
128
71
1
72
5
73
6
0
VERTEX
8
OBJECT__4
10
0
20
0
30
0
70
128
71
5
72
7
73
6
0
VERTEX
8
OBJECT__4
10
0
20
0
30
0
70
128
71
6
72
8
73
1
0
VERTEX
8
OBJECT__4
10
0
20
0
30
0
70
128
71
9
72
10
73
11
0
VERTEX
8
OBJECT__4
10
0
20
0
30
0
70
128
71
11
72
5
73
9
0
VERTEX
8
OBJECT__4
10
0
20
0
30
0
70
128
71
11
72
12
73
5
0
VERTEX
8
OBJECT__4
10
0
20
0
30
0
70
128
71
9
72
13
73
14
0
VERTEX
8
OBJECT__4
10
0
20
0
30
0
70
128
71
14
72
15
73
9
0
VERTEX
8
OBJECT__4
10
0
20
0
30
0
70
128
71
13
72
16
73
14
0
VERTEX
8
OBJECT__4
10
0
20
0
30
0
70
128
71
17
72
18
73
16
0
VERTEX
8
OBJECT__4
10
0
20
0
30
0
70
128
71
17
72
19
73
20
0
VERTEX
8
OBJECT__4
10
0
20
0
30
0
70
128
71
20
72
18
73
17
0
VERTEX
8
OBJECT__4
10
0
20
0
30
0
70
128
71
21
72
22
73
23
0
VERTEX
8
OBJECT__4
10
0
20
0
30
0
70
128
71
21
72
24
73
22
0
VERTEX
8
OBJECT__4
10
0
20
0
30
0
70
128
71
23
72
19
73
21
0
VERTEX
8
OBJECT__4
10
0
20
0
30
0
70
128
71
21
72
25
73
26
0
VERTEX
8
OBJECT__4
10
0
20
0
30
0
70
128
71
25
72
27
73
26
0
VERTEX
8
OBJECT__4
10
0
20
0
30
0
70
128
71
25
72
28
73
27
0
VERTEX
8
OBJECT__4
10
0
20
0
30
0
70
128
71
29
72
30
73
31
0
VERTEX
8
OBJECT__4
10
0
20
0
30
0
70
128
71
31
72
25
73
29
0
VERTEX
8
OBJECT__4
10
0
20
0
30
0
70
128
71
29
72
32
73
30
0
VERTEX
8
OBJECT__4
10
0
20
0
30
0
70
128
71
29
72
4
73
33
0
VERTEX
8
OBJECT__4
10
0
20
0
30
0
70
128
71
4
72
34
73
33
0
VERTEX
8
OBJECT__4
10
0
20
0
30
0
70
128
71
33
72
32
73
29
0
VERTEX
8
OBJECT__4
10
0
20
0
30
0
70
128
71
31
72
28
73
25
0
VERTEX
8
OBJECT__4
10
0
20
0
30
0
70
128
71
26
72
24
73
21
0
VERTEX
8
OBJECT__4
10
0
20
0
30
0
70
128
71
23
72
20
73
19
0
VERTEX
8
OBJECT__4
10
0
20
0
30
0
70
128
71
16
72
13
73
17
0
VERTEX
8
OBJECT__4
10
0
20
0
30
0
70
128
71
15
72
10
73
9
0
VERTEX
8
OBJECT__4
10
0
20
0
30
0
70
128
71
12
72
7
73
5
0
VERTEX
8
OBJECT__4
10
0
20
0
30
0
70
128
71
8
72
2
73
1
0
VERTEX
8
OBJECT__4
10
0
20
0
30
0
70
128
71
3
72
34
73
4
0
SEQEND
8
OBJECT__4
0
POLYLINE
8
OBJECT__6
66
1
70
64
71
111
72
176
62
253
0
VERTEX
8
OBJECT__6
10
138.796005
20
0.000000
30
-11.833000
70
192
0
VERTEX
8
OBJECT__6
10
144.520996
20
0.000000
30
-13.327000
70
192
0
VERTEX
8
OBJECT__6
10
144.985001
20
-5.344000
30
-12.094000
70
192
0
VERTEX
8
OBJECT__6
10
149.815002
20
0.000000
30
-15.971000
70
192
0
VERTEX
8
OBJECT__6
10
150.522003
20
-5.344000
30
-14.860000
70
192
0
VERTEX
8
OBJECT__6
10
154.447998
20
0.000000
30
-19.650999
70
192
0
VERTEX
8
OBJECT__6
10
155.369995
20
-5.344000
30
-18.711000
70
192
0
VERTEX
8
OBJECT__6
10
158.220993
20
0.000000
30
-24.209000
70
192
0
VERTEX
8
OBJECT__6
10
159.317993
20
-5.344000
30
-23.479000
70
192
0
VERTEX
8
OBJECT__6
10
138.994995
20
-5.344000
30
-10.531000
70
192
0
VERTEX
8
OBJECT__6
10
146.268005
20
-9.464000
30
-8.677000
70
192
0
VERTEX
8
OBJECT__6
10
152.483994
20
-9.464000
30
-11.782000
70
192
0
VERTEX
8
OBJECT__6
10
157.923996
20
-9.464000
30
-16.104000
70
192
0
VERTEX
8
OBJECT__6
10
162.354996
20
-9.464000
30
-21.455000
70
192
0
VERTEX
8
OBJECT__6
10
139.544998
20
-9.464000
30
-6.922000
70
192
0
VERTEX
8
OBJECT__6
10
148.076996
20
-11.416000
30
-3.859000
70
192
0
VERTEX
8
OBJECT__6
10
155.248993
20
-11.416000
30
-7.442000
70
192
0
VERTEX
8
OBJECT__6
10
161.526001
20
-11.416000
30
-12.428000
70
192
0
VERTEX
8
OBJECT__6
10
166.639008
20
-11.416000
30
-18.603001
70
192
0
VERTEX
8
OBJECT__6
10
140.320999
20
-11.416000
30
-1.835000
70
192
0
VERTEX
8
OBJECT__6
10
149.998993
20
-10.753000
30
1.256000
70
192
0
VERTEX
8
OBJECT__6
10
158.184998
20
-10.753000
30
-2.833000
70
192
0
VERTEX
8
OBJECT__6
10
165.350998
20
-10.753000
30
-8.525000
70
192
0
VERTEX
8
OBJECT__6
10
171.186996
20
-10.753000
30
-15.574000
70
192
0
VERTEX
8
OBJECT__6
10
141.143997
20
-10.753000
30
3.567000
70
192
0
VERTEX
8
OBJECT__6
10
151.591003
20
-7.626000
30
5.497000
70
192
0
VERTEX
8
OBJECT__6
10
160.619003
20
-7.626000
30
0.987000
70
192
0
VERTEX
8
OBJECT__6
10
168.520996
20
-7.626000
30
-5.289000
70
192
0
VERTEX
8
OBJECT__6
10
174.957001
20
-7.626000
30
-13.063000
70
192
0
VERTEX
8
OBJECT__6
10
141.826996
20
-7.626000
30
8.045000
70
192
0
VERTEX
8
OBJECT__6
10
152.490997
20
-2.752000
30
7.891000
70
192
0
VERTEX
8
OBJECT__6
10
161.994003
20
-2.752000
30
3.144000
70
192
0
VERTEX
8
OBJECT__6
10
170.311005
20
-2.752000
30
-3.462000
70
192
0
VERTEX
8
OBJECT__6
10
177.085999
20
-2.752000
30
-11.645000
70
192
0
VERTEX
8
OBJECT__6
10
142.212006
20
-2.752000
30
10.574000
70
192
0
VERTEX
8
OBJECT__6
10
152.490997
20
2.752000
30
7.891000
70
192
0
VERTEX
8
OBJECT__6
10
161.994003
20
2.752000
30
3.144000
70
192
0
VERTEX
8
OBJECT__6
10
170.311005
20
2.752000
30
-3.462000
70
192
0
VERTEX
8
OBJECT__6
10
177.085999
20
2.752000
30
-11.645000
70
192
0
VERTEX
8
OBJECT__6
10
142.212006
20
2.752000
30
10.574000
70
192
0
VERTEX
8
OBJECT__6
10
151.591003
20
7.626000
30
5.497000
70
192
0
VERTEX
8
OBJECT__6
10
160.619003
20
7.626000
30
0.987000
70
192
0
VERTEX
8
OBJECT__6
10
168.520996
20
7.626000
30
-5.289000
70
192
0
VERTEX
8
OBJECT__6
10
174.957001
20
7.626000
30
-13.063000
70
192
0
VERTEX
8
OBJECT__6
10
141.826996
20
7.626000
30
8.045000
70
192
0
VERTEX
8
OBJECT__6
10
149.998993
20
10.753000
30
1.256000
70
192
0
VERTEX
8
OBJECT__6
10
158.184998
20
10.753000
30
-2.833000
70
192
0
VERTEX
8
OBJECT__6
10
165.350998
20
10.753000
30
-8.525000
70
192
0
VERTEX
8
OBJECT__6
10
171.186996
20
10.753000
30
-15.574000
70
192
0
VERTEX
8
OBJECT__6
10
141.143997
20
10.753000
30
3.567000
70
192
0
VERTEX
8
OBJECT__6
10
148.076996
20
11.416000
30
-3.859000
70
192
0
VERTEX
8
OBJECT__6
10
155.248993
20
11.416000
30
-7.442000
70
192
0
VERTEX
8
OBJECT__6
10
161.526001
20
11.416000
30
-12.428000
70
192
0
VERTEX
8
OBJECT__6
10
166.639008
20
11.416000
30
-18.603001
70
192
0
VERTEX
8
OBJECT__6
10
140.320999
20
11.416000
30
-1.835000
70
192
0
VERTEX
8
OBJECT__6
10
146.268005
20
9.464000
30
-8.677000
70
192
0
VERTEX
8
OBJECT__6
10
152.483994
20
9.464000
30
-11.782000
70
192
0
VERTEX
8
OBJECT__6
10
157.923996
20
9.464000
30
-16.104000
70
192
0
VERTEX
8
OBJECT__6
10
162.354996
20
9.464000
30
-21.455000
70
192
0
VERTEX
8
OBJECT__6
10
139.544998
20
9.464000
30
-6.922000
70
192
0
VERTEX
8
OBJECT__6
10
144.985001
20
5.344000
30
-12.094000
70
192
0
VERTEX
8
OBJECT__6
10
150.522003
20
5.344000
30
-14.860000
70
192
0
VERTEX
8
OBJECT__6
10
155.369995
20
5.344000
30
-18.711000
70
192
0
VERTEX
8
OBJECT__6
10
159.317993
20
5.344000
30
-23.479000
70
192
0
VERTEX
8
OBJECT__6
10
138.994995
20
5.344000
30
-10.531000
70
192
0
VERTEX
8
OBJECT__6
10
178.554993
20
-7.626000
30
-19.466000
70
192
0
VERTEX
8
OBJECT__6
10
178.681000
20
-7.361000
30
-19.408001
70
192
0
VERTEX
8
OBJECT__6
10
180.873001
20
-2.752000
30
-18.385000
70
192
0
VERTEX
8
OBJECT__6
10
180.873001
20
0.000000
30
-18.385000
70
192
0
VERTEX
8
OBJECT__6
10
180.873001
20
2.752000
30
-18.385000
70
192
0
VERTEX
8
OBJECT__6
10
178.681000
20
7.361000
30
-19.408001
70
192
0
VERTEX
8
OBJECT__6
10
178.554993
20
7.626000
30
-19.466000
70
192
0
VERTEX
8
OBJECT__6
10
174.449997
20
10.753000
30
-21.381001
70
192
0
VERTEX
8
OBJECT__6
10
172.529999
20
11.141000
30
-22.275999
70
192
0
VERTEX
8
OBJECT__6
10
170.751999
20
11.500000
30
-23.105000
70
192
0
VERTEX
8
OBJECT__6
10
169.496994
20
11.416000
30
-23.690001
70
192
0
VERTEX
8
OBJECT__6
10
165.598999
20
9.785000
30
-25.507000
70
192
0
VERTEX
8
OBJECT__6
10
164.832993
20
9.464000
30
-25.865000
70
192
0
VERTEX
8
OBJECT__6
10
161.524994
20
5.344000
30
-27.407000
70
192
0
VERTEX
8
OBJECT__6
10
161.195007
20
3.868000
30
-27.561001
70
192
0
VERTEX
8
OBJECT__6
10
160.330994
20
0.000000
30
-27.964001
70
192
0
VERTEX
8
OBJECT__6
10
161.195007
20
-3.868000
30
-27.561001
70
192
0
VERTEX
8
OBJECT__6
10
164.832993
20
-9.464000
30
-25.865000
70
192
0
VERTEX
8
OBJECT__6
10
165.598999
20
-9.785000
30
-25.507000
70
192
0
VERTEX
8
OBJECT__6
10
170.751999
20
-11.500000
30
-23.105000
70
192
0
VERTEX
8
OBJECT__6
10
169.496994
20
-11.416000
30
-23.690001
70
192
0
VERTEX
8
OBJECT__6
10
172.529999
20
-11.141000
30
-22.275999
70
192
0
VERTEX
8
OBJECT__6
10
134.501999
20
0.000000
30
-11.507000
70
192
0
VERTEX
8
OBJECT__6
10
134.501999
20
3.869000
30
-10.554000
70
192
0
VERTEX
8
OBJECT__6
10
134.501999
20
9.464000
30
-6.540000
70
192
0
VERTEX
8
OBJECT__6
10
134.501999
20
9.786000
30
-5.692000
70
192
0
VERTEX
8
OBJECT__6
10
134.501999
20
11.416000
30
-1.394000
70
192
0
VERTEX
8
OBJECT__6
10
134.501999
20
11.010000
30
1.951000
70
192
0
VERTEX
8
OBJECT__6
10
134.501999
20
7.626000
30
8.600000
70
192
0
VERTEX
8
OBJECT__6
10
134.501999
20
7.360000
30
8.740000
70
192
0
VERTEX
8
OBJECT__6
10
134.501999
20
2.752000
30
11.158000
70
192
0
VERTEX
8
OBJECT__6
10
134.501999
20
0.000000
30
11.158000
70
192
0
VERTEX
8
OBJECT__6
10
134.501999
20
-2.752000
30
11.158000
70
192
0
VERTEX
8
OBJECT__6
10
134.501999
20
-7.360000
30
8.740000
70
192
0
VERTEX
8
OBJECT__6
10
134.501999
20
-7.626000
30
8.600000
70
192
0
VERTEX
8
OBJECT__6
10
134.501999
20
-10.753000
30
4.071000
70
192
0
VERTEX
8
OBJECT__6
10
134.501999
20
-11.010000
30
1.951000
70
192
0
VERTEX
8
OBJECT__6
10
134.501999
20
-11.416000
30
-1.394000
70
192
0
VERTEX
8
OBJECT__6
10
134.501999
20
-9.786000
30
-5.692000
70
192
0
VERTEX
8
OBJECT__6
10
134.501999
20
-9.464000
30
-6.540000
70
192
0
VERTEX
8
OBJECT__6
10
134.501999
20
-5.344000
30
-10.190000
70
192
0
VERTEX
8
OBJECT__6
10
134.501999
20
-3.869000
30
-10.554000
70
192
0
VERTEX
8
OBJECT__6
10
134.501999
20
10.753000
30
4.071000
70
192
0
VERTEX
8
OBJECT__6
10
134.501999
20
5.344000
30
-10.190000
70
192
0
VERTEX
8
OBJECT__6
10
174.449997
20
-10.753000
30
-21.381001
70
192
0
VERTEX
8
OBJECT__6
10
161.524994
20
-5.344000
30
-27.407000
70
192
0
VERTEX
8
OBJECT__6
10
0
20
0
30
0
70
128
71
1
72
2
73
3
0
VERTEX
8
OBJECT__6
10
0
20
0
30
0
70
128
71
2
72
4
73
5
0
VERTEX
8
OBJECT__6
10
0
20
0
30
0
70
128
71
4
72
6
73
7
0
VERTEX
8
OBJECT__6
10
0
20
0
30
0
70
128
71
6
72
8
73
9
0
VERTEX
8
OBJECT__6
10
0
20
0
30
0
70
128
71
10
72
3
73
11
0
VERTEX
8
OBJECT__6
10
0
20
0
30
0
70
128
71
3
72
5
73
12
0
VERTEX
8
OBJECT__6
10
0
20
0
30
0
70
128
71
5
72
7
73
13
0
VERTEX
8
OBJECT__6
10
0
20
0
30
0
70
128
71
7
72
9
73
14
0
VERTEX
8
OBJECT__6
10
0
20
0
30
0
70
128
71
15
72
11
73
16
0
VERTEX
8
OBJECT__6
10
0
20
0
30
0
70
128
71
11
72
12
73
17
0
VERTEX
8
OBJECT__6
10
0
20
0
30
0
70
128
71
12
72
13
73
18
0
VERTEX
8
OBJECT__6
10
0
20
0
30
0
70
128
71
13
72
14
73
19
0
VERTEX
8
OBJECT__6
10
0
20
0
30
0
70
128
71
20
72
16
73
21
0
VERTEX
8
OBJECT__6
10
0
20
0
30
0
70
128
71
16
72
17
73
22
0
VERTEX
8
OBJECT__6
10
0
20
0
30
0
70
128
71
17
72
18
73
23
0
VERTEX
8
OBJECT__6
10
0
20
0
30
0
70
128
71
18
72
19
73
24
0
VERTEX
8
OBJECT__6
10
0
20
0
30
0
70
128
71
25
72
21
73
26
0
VERTEX
8
OBJECT__6
10
0
20
0
30
0
70
128
71
21
72
22
73
27
0
VERTEX
8
OBJECT__6
10
0
20
0
30
0
70
128
71
22
72
23
73
28
0
VERTEX
8
OBJECT__6
10
0
20
0
30
0
70
128
71
23
72
24
73
29
0
VERTEX
8
OBJECT__6
10
0
20
0
30
0
70
128
71
30
72
26
73
31
0
VERTEX
8
OBJECT__6
10
0
20
0
30
0
70
128
71
26
72
27
73
32
0
VERTEX
8
OBJECT__6
10
0
20
0
30
0
70
128
71
27
72
28
73
33
0
VERTEX
8
OBJECT__6
10
0
20
0
30
0
70
128
71
28
72
29
73
34
0
VERTEX
8
OBJECT__6
10
0
20
0
30
0
70
128
71
35
72
31
73
36
0
VERTEX
8
OBJECT__6
10
0
20
0
30
0
70
128
71
31
72
32
73
37
0
VERTEX
8
OBJECT__6
10
0
20
0
30
0
70
128
71
32
72
33
73
38
0
VERTEX
8
OBJECT__6
10
0
20
0
30
0
70
128
71
33
72
34
73
39
0
VERTEX
8
OBJECT__6
10
0
20
0
30
0
70
128
71
40
72
36
73
41
0
VERTEX
8
OBJECT__6
10
0
20
0
30
0
70
128
71
36
72
37
73
42
0
VERTEX
8
OBJECT__6
10
0
20
0
30
0
70
128
71
37
72
38
73
43
0
VERTEX
8
OBJECT__6
10
0
20
0
30
0
70
128
71
38
72
39
73
44
0
VERTEX
8
OBJECT__6
10
0
20
0
30
0
70
128
71
45
72
41
73
46
0
VERTEX
8
OBJECT__6
10
0
20
0
30
0
70
128
71
41
72
42
73
47
0
VERTEX
8
OBJECT__6
10
0
20
0
30
0
70
128
71
42
72
43
73
48
0
VERTEX
8
OBJECT__6
10
0
20
0
30
0
70
128
71
43
72
44
73
49
0
VERTEX
8
OBJECT__6
10
0
20
0
30
0
70
128
71
50
72
46
73
51
0
VERTEX
8
OBJECT__6
10
0
20
0
30
0
70
128
71
46
72
47
73
52
0
VERTEX
8
OBJECT__6
10
0
20
0
30
0
70
128
71
47
72
48
73
53
0
VERTEX
8
OBJECT__6
10
0
20
0
30
0
70
128
71
48
72
49
73
54
0
VERTEX
8
OBJECT__6
10
0
20
0
30
0
70
128
71
55
72
51
73
56
0
VERTEX
8
OBJECT__6
10
0
20
0
30
0
70
128
71
51
72
52
73
57
0
VERTEX
8
OBJECT__6
10
0
20
0
30
0
70
128
71
52
72
53
73
58
0
VERTEX
8
OBJECT__6
10
0
20
0
30
0
70
128
71
53
72
54
73
59
0
VERTEX
8
OBJECT__6
10
0
20
0
30
0
70
128
71
60
72
56
73
61
0
VERTEX
8
OBJECT__6
10
0
20
0
30
0
70
128
71
56
72
57
73
62
0
VERTEX
8
OBJECT__6
10
0
20
0
30
0
70
128
71
57
72
58
73
63
0
VERTEX
8
OBJECT__6
10
0
20
0
30
0
70
128
71
58
72
59
73
64
0
VERTEX
8
OBJECT__6
10
0
20
0
30
0
70
128
71
65
72
61
73
2
0
VERTEX
8
OBJECT__6
10
0
20
0
30
0
70
128
71
61
72
62
73
4
0
VERTEX
8
OBJECT__6
10
0
20
0
30
0
70
128
71
62
72
63
73
6
0
VERTEX
8
OBJECT__6
10
0
20
0
30
0
70
128
71
63
72
64
73
8
0
VERTEX
8
OBJECT__6
10
0
20
0
30
0
70
128
71
66
72
29
73
24
0
VERTEX
8
OBJECT__6
10
0
20
0
30
0
70
128
71
34
72
29
73
67
0
VERTEX
8
OBJECT__6
10
0
20
0
30
0
70
128
71
29
72
66
73
67
0
VERTEX
8
OBJECT__6
10
0
20
0
30
0
70
128
71
34
72
68
73
69
0
VERTEX
8
OBJECT__6
10
0
20
0
30
0
70
128
71
69
72
39
73
34
0
VERTEX
8
OBJECT__6
10
0
20
0
30
0
70
128
71
39
72
70
73
71
0
VERTEX
8
OBJECT__6
10
0
20
0
30
0
70
128
71
71
72
44
73
39
0
VERTEX
8
OBJECT__6
10
0
20
0
30
0
70
128
71
72
72
73
73
49
0
VERTEX
8
OBJECT__6
10
0
20
0
30
0
70
128
71
49
72
74
73
75
0
VERTEX
8
OBJECT__6
10
0
20
0
30
0
70
128
71
75
72
54
73
49
0
VERTEX
8
OBJECT__6
10
0
20
0
30
0
70
128
71
49
72
73
73
74
0
VERTEX
8
OBJECT__6
10
0
20
0
30
0
70
128
71
54
72
76
73
77
0
VERTEX
8
OBJECT__6
10
0
20
0
30
0
70
128
71
77
72
59
73
54
0
VERTEX
8
OBJECT__6
10
0
20
0
30
0
70
128
71
59
72
78
73
79
0
VERTEX
8
OBJECT__6
10
0
20
0
30
0
70
128
71
8
72
64
73
80
0
VERTEX
8
OBJECT__6
10
0
20
0
30
0
70
128
71
64
72
79
73
80
0
VERTEX
8
OBJECT__6
10
0
20
0
30
0
70
128
71
8
72
81
73
82
0
VERTEX
8
OBJECT__6
10
0
20
0
30
0
70
128
71
82
72
9
73
8
0
VERTEX
8
OBJECT__6
10
0
20
0
30
0
70
128
71
83
72
14
73
9
0
VERTEX
8
OBJECT__6
10
0
20
0
30
0
70
128
71
19
72
14
73
84
0
VERTEX
8
OBJECT__6
10
0
20
0
30
0
70
128
71
14
72
83
73
84
0
VERTEX
8
OBJECT__6
10
0
20
0
30
0
70
128
71
24
72
19
73
85
0
VERTEX
8
OBJECT__6
10
0
20
0
30
0
70
128
71
19
72
86
73
85
0
VERTEX
8
OBJECT__6
10
0
20
0
30
0
70
128
71
85
72
87
73
24
0
VERTEX
8
OBJECT__6
10
0
20
0
30
0
70
128
71
1
72
88
73
89
0
VERTEX
8
OBJECT__6
10
0
20
0
30
0
70
128
71
89
72
65
73
1
0
VERTEX
8
OBJECT__6
10
0
20
0
30
0
70
128
71
90
72
60
73
65
0
VERTEX
8
OBJECT__6
10
0
20
0
30
0
70
128
71
55
72
60
73
91
0
VERTEX
8
OBJECT__6
10
0
20
0
30
0
70
128
71
60
72
90
73
91
0
VERTEX
8
OBJECT__6
10
0
20
0
30
0
70
128
71
55
72
92
73
93
0
VERTEX
8
OBJECT__6
10
0
20
0
30
0
70
128
71
93
72
50
73
55
0
VERTEX
8
OBJECT__6
10
0
20
0
30
0
70
128
71
94
72
45
73
50
0
VERTEX
8
OBJECT__6
10
0
20
0
30
0
70
128
71
40
72
45
73
95
0
VERTEX
8
OBJECT__6
10
0
20
0
30
0
70
128
71
45
72
94
73
95
0
VERTEX
8
OBJECT__6
10
0
20
0
30
0
70
128
71
40
72
96
73
97
0
VERTEX
8
OBJECT__6
10
0
20
0
30
0
70
128
71
97
72
35
73
40
0
VERTEX
8
OBJECT__6
10
0
20
0
30
0
70
128
71
35
72
98
73
99
0
VERTEX
8
OBJECT__6
10
0
20
0
30
0
70
128
71
99
72
30
73
35
0
VERTEX
8
OBJECT__6
10
0
20
0
30
0
70
128
71
100
72
101
73
25
0
VERTEX
8
OBJECT__6
10
0
20
0
30
0
70
128
71
20
72
25
73
102
0
VERTEX
8
OBJECT__6
10
0
20
0
30
0
70
128
71
25
72
101
73
102
0
VERTEX
8
OBJECT__6
10
0
20
0
30
0
70
128
71
20
72
103
73
104
0
VERTEX
8
OBJECT__6
10
0
20
0
30
0
70
128
71
104
72
15
73
20
0
VERTEX
8
OBJECT__6
10
0
20
0
30
0
70
128
71
105
72
106
73
10
0
VERTEX
8
OBJECT__6
10
0
20
0
30
0
70
128
71
1
72
10
73
107
0
VERTEX
8
OBJECT__6
10
0
20
0
30
0
70
128
71
10
72
106
73
107
0
VERTEX
8
OBJECT__6
10
0
20
0
30
0
70
128
71
107
72
88
73
1
0
VERTEX
8
OBJECT__6
10
0
20
0
30
0
70
128
71
10
72
15
73
105
0
VERTEX
8
OBJECT__6
10
0
20
0
30
0
70
128
71
104
72
105
73
15
0
VERTEX
8
OBJECT__6
10
0
20
0
30
0
70
128
71
102
72
103
73
20
0
VERTEX
8
OBJECT__6
10
0
20
0
30
0
70
128
71
25
72
30
73
100
0
VERTEX
8
OBJECT__6
10
0
20
0
30
0
70
128
71
99
72
100
73
30
0
VERTEX
8
OBJECT__6
10
0
20
0
30
0
70
128
71
97
72
98
73
35
0
VERTEX
8
OBJECT__6
10
0
20
0
30
0
70
128
71
95
72
96
73
40
0
VERTEX
8
OBJECT__6
10
0
20
0
30
0
70
128
71
50
72
108
73
94
0
VERTEX
8
OBJECT__6
10
0
20
0
30
0
70
128
71
93
72
108
73
50
0
VERTEX
8
OBJECT__6
10
0
20
0
30
0
70
128
71
91
72
92
73
55
0
VERTEX
8
OBJECT__6
10
0
20
0
30
0
70
128
71
65
72
109
73
90
0
VERTEX
8
OBJECT__6
10
0
20
0
30
0
70
128
71
89
72
109
73
65
0
VERTEX
8
OBJECT__6
10
0
20
0
30
0
70
128
71
87
72
110
73
24
0
VERTEX
8
OBJECT__6
10
0
20
0
30
0
70
128
71
84
72
86
73
19
0
VERTEX
8
OBJECT__6
10
0
20
0
30
0
70
128
71
9
72
111
73
83
0
VERTEX
8
OBJECT__6
10
0
20
0
30
0
70
128
71
82
72
111
73
9
0
VERTEX
8
OBJECT__6
10
0
20
0
30
0
70
128
71
80
72
81
73
8
0
VERTEX
8
OBJECT__6
10
0
20
0
30
0
70
128
71
79
72
64
73
59
0
VERTEX
8
OBJECT__6
10
0
20
0
30
0
70
128
71
77
72
78
73
59
0
VERTEX
8
OBJECT__6
10
0
20
0
30
0
70
128
71
75
72
76
73
54
0
VERTEX
8
OBJECT__6
10
0
20
0
30
0
70
128
71
49
72
44
73
72
0
VERTEX
8
OBJECT__6
10
0
20
0
30
0
70
128
71
71
72
72
73
44
0
VERTEX
8
OBJECT__6
10
0
20
0
30
0
70
128
71
69
72
70
73
39
0
VERTEX
8
OBJECT__6
10
0
20
0
30
0
70
128
71
67
72
68
73
34
0
VERTEX
8
OBJECT__6
10
0
20
0
30
0
70
128
71
24
72
110
73
66
0
VERTEX
8
OBJECT__6
10
0
20
0
30
0
70
128
71
8
72
6
73
63
0
VERTEX
8
OBJECT__6
10
0
20
0
30
0
70
128
71
6
72
4
73
62
0
VERTEX
8
OBJECT__6
10
0
20
0
30
0
70
128
71
4
72
2
73
61
0
VERTEX
8
OBJECT__6
10
0
20
0
30
0
70
128
71
2
72
1
73
65
0
VERTEX
8
OBJECT__6
10
0
20
0
30
0
70
128
71
64
72
63
73
58
0
VERTEX
8
OBJECT__6
10
0
20
0
30
0
70
128
71
63
72
62
73
57
0
VERTEX
8
OBJECT__6
10
0
20
0
30
0
70
128
71
62
72
61
73
56
0
VERTEX
8
OBJECT__6
10
0
20
0
30
0
70
128
71
61
72
65
73
60
0
VERTEX
8
OBJECT__6
10
0
20
0
30
0
70
128
71
59
72
58
73
53
0
VERTEX
8
OBJECT__6
10
0
20
0
30
0
70
128
71
58
72
57
73
52
0
VERTEX
8
OBJECT__6
10
0
20
0
30
0
70
128
71
57
72
56
73
51
0
VERTEX
8
OBJECT__6
10
0
20
0
30
0
70
128
71
56
72
60
73
55
0
VERTEX
8
OBJECT__6
10
0
20
0
30
0
70
128
71
54
72
53
73
48
0
VERTEX
8
OBJECT__6
10
0
20
0
30
0
70
128
71
53
72
52
73
47
0
VERTEX
8
OBJECT__6
10
0
20
0
30
0
70
128
71
52
72
51
73
46
0
VERTEX
8
OBJECT__6
10
0
20
0
30
0
70
128
71
51
72
55
73
50
0
VERTEX
8
OBJECT__6
10
0
20
0
30
0
70
128
71
49
72
48
73
43
0
VERTEX
8
OBJECT__6
10
0
20
0
30
0
70
128
71
48
72
47
73
42
0
VERTEX
8
OBJECT__6
10
0
20
0
30
0
70
128
71
47
72
46
73
41
0
VERTEX
8
OBJECT__6
10
0
20
0
30
0
70
128
71
46
72
50
73
45
0
VERTEX
8
OBJECT__6
10
0
20
0
30
0
70
128
71
44
72
43
73
38
0
VERTEX
8
OBJECT__6
10
0
20
0
30
0
70
128
71
43
72
42
73
37
0
VERTEX
8
OBJECT__6
10
0
20
0
30
0
70
128
71
42
72
41
73
36
0
VERTEX
8
OBJECT__6
10
0
20
0
30
0
70
128
71
41
72
45
73
40
0
VERTEX
8
OBJECT__6
10
0
20
0
30
0
70
128
71
39
72
38
73
33
0
VERTEX
8
OBJECT__6
10
0
20
0
30
0
70
128
71
38
72
37
73
32
0
VERTEX
8
OBJECT__6
10
0
20
0
30
0
70
128
71
37
72
36
73
31
0
VERTEX
8
OBJECT__6
10
0
20
0
30
0
70
128
71
36
72
40
73
35
0
VERTEX
8
OBJECT__6
10
0
20
0
30
0
70
128
71
34
72
33
73
28
0
VERTEX
8
OBJECT__6
10
0
20
0
30
0
70
128
71
33
72
32
73
27
0
VERTEX
8
OBJECT__6
10
0
20
0
30
0
70
128
71
32
72
31
73
26
0
VERTEX
8
OBJECT__6
10
0
20
0
30
0
70
128
71
31
72
35
73
30
0
VERTEX
8
OBJECT__6
10
0
20
0
30
0
70
128
71
29
72
28
73
23
0
VERTEX
8
OBJECT__6
10
0
20
0
30
0
70
128
71
28
72
27
73
22
0
VERTEX
8
OBJECT__6
10
0
20
0
30
0
70
128
71
27
72
26
73
21
0
VERTEX
8
OBJECT__6
10
0
20
0
30
0
70
128
71
26
72
30
73
25
0
VERTEX
8
OBJECT__6
10
0
20
0
30
0
70
128
71
24
72
23
73
18
0
VERTEX
8
OBJECT__6
10
0
20
0
30
0
70
128
71
23
72
22
73
17
0
VERTEX
8
OBJECT__6
10
0
20
0
30
0
70
128
71
22
72
21
73
16
0
VERTEX
8
OBJECT__6
10
0
20
0
30
0
70
128
71
21
72
25
73
20
0
VERTEX
8
OBJECT__6
10
0
20
0
30
0
70
128
71
19
72
18
73
13
0
VERTEX
8
OBJECT__6
10
0
20
0
30
0
70
128
71
18
72
17
73
12
0
VERTEX
8
OBJECT__6
10
0
20
0
30
0
70
128
71
17
72
16
73
11
0
VERTEX
8
OBJECT__6
10
0
20
0
30
0
70
128
71
16
72
20
73
15
0
VERTEX
8
OBJECT__6
10
0
20
0
30
0
70
128
71
14
72
13
73
7
0
VERTEX
8
OBJECT__6
10
0
20
0
30
0
70
128
71
13
72
12
73
5
0
VERTEX
8
OBJECT__6
10
0
20
0
30
0
70
128
71
12
72
11
73
3
0
VERTEX
8
OBJECT__6
10
0
20
0
30
0
70
128
71
11
72
15
73
10
0
VERTEX
8
OBJECT__6
10
0
20
0
30
0
70
128
71
9
72
7
73
6
0
VERTEX
8
OBJECT__6
10
0
20
0
30
0
70
128
71
7
72
5
73
4
0
VERTEX
8
OBJECT__6
10
0
20
0
30
0
70
128
71
5
72
3
73
2
0
VERTEX
8
OBJECT__6
10
0
20
0
30
0
70
128
71
3
72
10
73
1
0
SEQEND
8
OBJECT__6
0
POLYLINE
8
OBJECT__7
66
1
70
64
71
32
72
32
62
253
0
VERTEX
8
OBJECT__7
10
53.997002
20
7.392000
30
8.805000
70
192
0
VERTEX
8
OBJECT__7
10
53.997002
20
0.000000
30
11.495000
70
192
0
VERTEX
8
OBJECT__7
10
134.501999
20
2.752000
30
11.158000
70
192
0
VERTEX
8
OBJECT__7
10
134.501999
20
0.000000
30
11.158000
70
192
0
VERTEX
8
OBJECT__7
10
53.997002
20
11.325000
30
1.992000
70
192
0
VERTEX
8
OBJECT__7
10
134.501999
20
7.626000
30
8.600000
70
192
0
VERTEX
8
OBJECT__7
10
134.501999
20
10.753000
30
4.071000
70
192
0
VERTEX
8
OBJECT__7
10
134.501999
20
7.360000
30
8.740000
70
192
0
VERTEX
8
OBJECT__7
10
134.501999
20
11.010000
30
1.951000
70
192
0
VERTEX
8
OBJECT__7
10
53.997002
20
9.959000
30
-5.755000
70
192
0
VERTEX
8
OBJECT__7
10
134.501999
20
11.416000
30
-1.394000
70
192
0
VERTEX
8
OBJECT__7
10
134.501999
20
9.464000
30
-6.540000
70
192
0
VERTEX
8
OBJECT__7
10
134.501999
20
5.344000
30
-10.190000
70
192
0
VERTEX
8
OBJECT__7
10
134.501999
20
9.786000
30
-5.692000
70
192
0
VERTEX
8
OBJECT__7
10
53.997002
20
3.933000
30
-10.811000
70
192
0
VERTEX
8
OBJECT__7
10
53.997002
20
0.000000
30
-11.505000
70
192
0
VERTEX
8
OBJECT__7
10
134.501999
20
3.869000
30
-10.554000
70
192
0
VERTEX
8
OBJECT__7
10
134.501999
20
0.000000
30
-11.507000
70
192
0
VERTEX
8
OBJECT__7
10
134.501999
20
-3.869000
30
-10.554000
70
192
0
VERTEX
8
OBJECT__7
10
53.997002
20
-3.933000
30
-10.811000
70
192
0
VERTEX
8
OBJECT__7
10
53.997002
20
-9.959000
30
-5.755000
70
192
0
VERTEX
8
OBJECT__7
10
134.501999
20
-5.344000
30
-10.190000
70
192
0
VERTEX
8
OBJECT__7
10
134.501999
20
-9.464000
30
-6.540000
70
192
0
VERTEX
8
OBJECT__7
10
134.501999
20
-9.786000
30
-5.692000
70
192
0
VERTEX
8
OBJECT__7
10
134.501999
20
-11.416000
30
-1.394000
70
192
0
VERTEX
8
OBJECT__7
10
53.997002
20
-11.325000
30
1.992000
70
192
0
VERTEX
8
OBJECT__7
10
53.997002
20
-7.392000
30
8.805000
70
192
0
VERTEX
8
OBJECT__7
10
134.501999
20
-10.753000
30
4.071000
70
192
0
VERTEX
8
OBJECT__7
10
134.501999
20
-11.010000
30
1.951000
70
192
0
VERTEX
8
OBJECT__7
10
134.501999
20
-7.626000
30
8.600000
70
192
0
VERTEX
8
OBJECT__7
10
134.501999
20
-7.360000
30
8.740000
70
192
0
VERTEX
8
OBJECT__7
10
134.501999
20
-2.752000
30
11.158000
70
192
0
VERTEX
8
OBJECT__7
10
0
20
0
30
0
70
128
71
1
72
2
73
3
0
VERTEX
8
OBJECT__7
10
0
20
0
30
0
70
128
71
2
72
4
73
3
0
VERTEX
8
OBJECT__7
10
0
20
0
30
0
70
128
71
5
72
6
73
7
0
VERTEX
8
OBJECT__7
10
0
20
0
30
0
70
128
71
1
72
8
73
6
0
VERTEX
8
OBJECT__7
10
0
20
0
30
0
70
128
71
6
72
5
73
1
0
VERTEX
8
OBJECT__7
10
0
20
0
30
0
70
128
71
7
72
9
73
5
0
VERTEX
8
OBJECT__7
10
0
20
0
30
0
70
128
71
10
72
5
73
11
0
VERTEX
8
OBJECT__7
10
0
20
0
30
0
70
128
71
5
72
9
73
11
0
VERTEX
8
OBJECT__7
10
0
20
0
30
0
70
128
71
10
72
12
73
13
0
VERTEX
8
OBJECT__7
10
0
20
0
30
0
70
128
71
10
72
14
73
12
0
VERTEX
8
OBJECT__7
10
0
20
0
30
0
70
128
71
13
72
15
73
10
0
VERTEX
8
OBJECT__7
10
0
20
0
30
0
70
128
71
16
72
15
73
17
0
VERTEX
8
OBJECT__7
10
0
20
0
30
0
70
128
71
16
72
18
73
19
0
VERTEX
8
OBJECT__7
10
0
20
0
30
0
70
128
71
19
72
20
73
16
0
VERTEX
8
OBJECT__7
10
0
20
0
30
0
70
128
71
21
72
20
73
22
0
VERTEX
8
OBJECT__7
10
0
20
0
30
0
70
128
71
22
72
23
73
21
0
VERTEX
8
OBJECT__7
10
0
20
0
30
0
70
128
71
20
72
19
73
22
0
VERTEX
8
OBJECT__7
10
0
20
0
30
0
70
128
71
21
72
24
73
25
0
VERTEX
8
OBJECT__7
10
0
20
0
30
0
70
128
71
25
72
26
73
21
0
VERTEX
8
OBJECT__7
10
0
20
0
30
0
70
128
71
27
72
26
73
28
0
VERTEX
8
OBJECT__7
10
0
20
0
30
0
70
128
71
26
72
29
73
28
0
VERTEX
8
OBJECT__7
10
0
20
0
30
0
70
128
71
28
72
30
73
27
0
VERTEX
8
OBJECT__7
10
0
20
0
30
0
70
128
71
27
72
31
73
32
0
VERTEX
8
OBJECT__7
10
0
20
0
30
0
70
128
71
32
72
2
73
27
0
VERTEX
8
OBJECT__7
10
0
20
0
30
0
70
128
71
32
72
4
73
2
0
VERTEX
8
OBJECT__7
10
0
20
0
30
0
70
128
71
30
72
31
73
27
0
VERTEX
8
OBJECT__7
10
0
20
0
30
0
70
128
71
25
72
29
73
26
0
VERTEX
8
OBJECT__7
10
0
20
0
30
0
70
128
71
23
72
24
73
21
0
VERTEX
8
OBJECT__7
10
0
20
0
30
0
70
128
71
17
72
18
73
16
0
VERTEX
8
OBJECT__7
10
0
20
0
30
0
70
128
71
13
72
17
73
15
0
VERTEX
8
OBJECT__7
10
0
20
0
30
0
70
128
71
11
72
14
73
10
0
VERTEX
8
OBJECT__7
10
0
20
0
30
0
70
128
71
3
72
8
73
1
0
SEQEND
8
OBJECT__7
0
POLYLINE
8
OBJECT__8
66
1
70
64
71
20
72
20
62
253
0
VERTEX
8
OBJECT__8
10
53.997002
20
0.000000
30
-15.005000
70
192
0
VERTEX
8
OBJECT__8
10
53.997002
20
8.817000
30
-12.140000
70
192
0
VERTEX
8
OBJECT__8
10
53.997002
20
3.933000
30
-10.811000
70
192
0
VERTEX
8
OBJECT__8
10
53.997002
20
14.266000
30
-4.640000
70
192
0
VERTEX
8
OBJECT__8
10
53.997002
20
9.959000
30
-5.755000
70
192
0
VERTEX
8
OBJECT__8
10
53.997002
20
14.266000
30
4.631000
70
192
0
VERTEX
8
OBJECT__8
10
53.997002
20
11.325000
30
1.992000
70
192
0
VERTEX
8
OBJECT__8
10
53.998001
20
-8.817000
30
12.131000
70
192
0
VERTEX
8
OBJECT__8
10
53.997002
20
-7.392000
30
8.805000
70
192
0
VERTEX
8
OBJECT__8
10
53.997002
20
0.000000
30
11.495000
70
192
0
VERTEX
8
OBJECT__8
10
53.997002
20
-14.266000
30
4.631000
70
192
0
VERTEX
8
OBJECT__8
10
53.997002
20
-11.325000
30
1.992000
70
192
0
VERTEX
8
OBJECT__8
10
53.998001
20
8.817000
30
12.131000
70
192
0
VERTEX
8
OBJECT__8
10
53.997002
20
7.392000
30
8.805000
70
192
0
VERTEX
8
OBJECT__8
10
53.997002
20
-14.266000
30
-4.640000
70
192
0
VERTEX
8
OBJECT__8
10
53.997002
20
-9.959000
30
-5.755000
70
192
0
VERTEX
8
OBJECT__8
10
53.997002
20
-8.817000
30
-12.140000
70
192
0
VERTEX
8
OBJECT__8
10
53.997002
20
-3.933000
30
-10.811000
70
192
0
VERTEX
8
OBJECT__8
10
53.997002
20
0.000000
30
-11.505000
70
192
0
VERTEX
8
OBJECT__8
10
53.998001
20
0.000000
30
14.995000
70
192
0
VERTEX
8
OBJECT__8
10
0
20
0
30
0
70
128
71
1
72
2
73
3
0
VERTEX
8
OBJECT__8
10
0
20
0
30
0
70
128
71
2
72
4
73
5
0
VERTEX
8
OBJECT__8
10
0
20
0
30
0
70
128
71
5
72
3
73
2
0
VERTEX
8
OBJECT__8
10
0
20
0
30
0
70
128
71
4
72
6
73
7
0
VERTEX
8
OBJECT__8
10
0
20
0
30
0
70
128
71
8
72
9
73
10
0
VERTEX
8
OBJECT__8
10
0
20
0
30
0
70
128
71
11
72
12
73
9
0
VERTEX
8
OBJECT__8
10
0
20
0
30
0
70
128
71
7
72
5
73
4
0
VERTEX
8
OBJECT__8
10
0
20
0
30
0
70
128
71
6
72
13
73
14
0
VERTEX
8
OBJECT__8
10
0
20
0
30
0
70
128
71
9
72
8
73
11
0
VERTEX
8
OBJECT__8
10
0
20
0
30
0
70
128
71
15
72
16
73
12
0
VERTEX
8
OBJECT__8
10
0
20
0
30
0
70
128
71
17
72
18
73
16
0
VERTEX
8
OBJECT__8
10
0
20
0
30
0
70
128
71
1
72
19
73
18
0
VERTEX
8
OBJECT__8
10
0
20
0
30
0
70
128
71
14
72
7
73
6
0
VERTEX
8
OBJECT__8
10
0
20
0
30
0
70
128
71
13
72
20
73
10
0
VERTEX
8
OBJECT__8
10
0
20
0
30
0
70
128
71
12
72
11
73
15
0
VERTEX
8
OBJECT__8
10
0
20
0
30
0
70
128
71
18
72
17
73
1
0
VERTEX
8
OBJECT__8
10
0
20
0
30
0
70
128
71
10
72
14
73
13
0
VERTEX
8
OBJECT__8
10
0
20
0
30
0
70
128
71
16
72
15
73
17
0
VERTEX
8
OBJECT__8
10
0
20
0
30
0
70
128
71
10
72
20
73
8
0
VERTEX
8
OBJECT__8
10
0
20
0
30
0
70
128
71
3
72
19
73
1
0
SEQEND
8
OBJECT__8
0
POLYLINE
8
OBJECT__9
66
1
70
64
71
20
72
20
62
253
0
VERTEX
8
OBJECT__9
10
53.998001
20
0.000000
30
14.995000
70
192
0
VERTEX
8
OBJECT__9
10
53.998001
20
8.817000
30
12.131000
70
192
0
VERTEX
8
OBJECT__9
10
49.998001
20
8.817000
30
12.131000
70
192
0
VERTEX
8
OBJECT__9
10
49.997002
20
14.266000
30
4.631000
70
192
0
VERTEX
8
OBJECT__9
10
49.997002
20
14.266000
30
-4.640000
70
192
0
VERTEX
8
OBJECT__9
10
53.997002
20
14.266000
30
4.631000
70
192
0
VERTEX
8
OBJECT__9
10
53.997002
20
8.817000
30
-12.140000
70
192
0
VERTEX
8
OBJECT__9
10
49.997002
20
8.817000
30
-12.140000
70
192
0
VERTEX
8
OBJECT__9
10
53.997002
20
0.000000
30
-15.005000
70
192
0
VERTEX
8
OBJECT__9
10
49.997002
20
0.000000
30
-15.005000
70
192
0
VERTEX
8
OBJECT__9
10
53.997002
20
-8.817000
30
-12.140000
70
192
0
VERTEX
8
OBJECT__9
10
53.997002
20
-14.266000
30
-4.640000
70
192
0
VERTEX
8
OBJECT__9
10
49.997002
20
-14.266000
30
-4.640000
70
192
0
VERTEX
8
OBJECT__9
10
49.997002
20
-8.817000
30
-12.140000
70
192
0
VERTEX
8
OBJECT__9
10
53.997002
20
-14.266000
30
4.631000
70
192
0
VERTEX
8
OBJECT__9
10
49.997002
20
-14.266000
30
4.631000
70
192
0
VERTEX
8
OBJECT__9
10
49.998001
20
-8.817000
30
12.131000
70
192
0
VERTEX
8
OBJECT__9
10
49.998001
20
0.000000
30
14.995000
70
192
0
VERTEX
8
OBJECT__9
10
53.998001
20
-8.817000
30
12.131000
70
192
0
VERTEX
8
OBJECT__9
10
53.997002
20
14.266000
30
-4.640000
70
192
0
VERTEX
8
OBJECT__9
10
0
20
0
30
0
70
128
71
1
72
2
73
3
0
VERTEX
8
OBJECT__9
10
0
20
0
30
0
70
128
71
4
72
3
73
2
0
VERTEX
8
OBJECT__9
10
0
20
0
30
0
70
128
71
5
72
4
73
6
0
VERTEX
8
OBJECT__9
10
0
20
0
30
0
70
128
71
7
72
8
73
5
0
VERTEX
8
OBJECT__9
10
0
20
0
30
0
70
128
71
9
72
10
73
8
0
VERTEX
8
OBJECT__9
10
0
20
0
30
0
70
128
71
10
72
9
73
11
0
VERTEX
8
OBJECT__9
10
0
20
0
30
0
70
128
71
12
72
13
73
14
0
VERTEX
8
OBJECT__9
10
0
20
0
30
0
70
128
71
15
72
16
73
13
0
VERTEX
8
OBJECT__9
10
0
20
0
30
0
70
128
71
17
72
16
73
15
0
VERTEX
8
OBJECT__9
10
0
20
0
30
0
70
128
71
18
72
17
73
19
0
VERTEX
8
OBJECT__9
10
0
20
0
30
0
70
128
71
19
72
1
73
18
0
VERTEX
8
OBJECT__9
10
0
20
0
30
0
70
128
71
15
72
19
73
17
0
VERTEX
8
OBJECT__9
10
0
20
0
30
0
70
128
71
13
72
12
73
15
0
VERTEX
8
OBJECT__9
10
0
20
0
30
0
70
128
71
14
72
11
73
12
0
VERTEX
8
OBJECT__9
10
0
20
0
30
0
70
128
71
11
72
14
73
10
0
VERTEX
8
OBJECT__9
10
0
20
0
30
0
70
128
71
8
72
7
73
9
0
VERTEX
8
OBJECT__9
10
0
20
0
30
0
70
128
71
5
72
20
73
7
0
VERTEX
8
OBJECT__9
10
0
20
0
30
0
70
128
71
6
72
20
73
5
0
VERTEX
8
OBJECT__9
10
0
20
0
30
0
70
128
71
2
72
6
73
4
0
VERTEX
8
OBJECT__9
10
0
20
0
30
0
70
128
71
3
72
18
73
1
0
SEQEND
8
OBJECT__9
0
POLYLINE
8
OBJECT__10
66
1
70
64
71
22
72
22
62
253
0
VERTEX
8
OBJECT__10
10
49.997002
20
0.000000
30
-15.005000
70
192
0
VERTEX
8
OBJECT__10
10
49.995998
20
0.000000
30
-18.004999
70
192
0
VERTEX
8
OBJECT__10
10
49.997002
20
5.071000
30
-17.275000
70
192
0
VERTEX
8
OBJECT__10
10
49.997002
20
13.603000
30
-11.792000
70
192
0
VERTEX
8
OBJECT__10
10
49.997002
20
8.817000
30
-12.140000
70
192
0
VERTEX
8
OBJECT__10
10
49.997002
20
17.816999
30
-2.566000
70
192
0
VERTEX
8
OBJECT__10
10
49.997002
20
14.266000
30
-4.640000
70
192
0
VERTEX
8
OBJECT__10
10
49.997002
20
16.372999
30
7.473000
70
192
0
VERTEX
8
OBJECT__10
10
49.997002
20
14.266000
30
4.631000
70
192
0
VERTEX
8
OBJECT__10
10
49.998001
20
9.732000
30
15.138000
70
192
0
VERTEX
8
OBJECT__10
10
49.998001
20
8.817000
30
12.131000
70
192
0
VERTEX
8
OBJECT__10
10
49.998001
20
0.000000
30
17.995001
70
192
0
VERTEX
8
OBJECT__10
10
49.998001
20
0.000000
30
14.995000
70
192
0
VERTEX
8
OBJECT__10
10
49.998001
20
-9.732000
30
15.138000
70
192
0
VERTEX
8
OBJECT__10
10
49.998001
20
-8.817000
30
12.131000
70
192
0
VERTEX
8
OBJECT__10
10
49.997002
20
-16.372999
30
7.473000
70
192
0
VERTEX
8
OBJECT__10
10
49.997002
20
-14.266000
30
4.631000
70
192
0
VERTEX
8
OBJECT__10
10
49.997002
20
-8.817000
30
-12.140000
70
192
0
VERTEX
8
OBJECT__10
10
49.997002
20
-5.071000
30
-17.275000
70
192
0
VERTEX
8
OBJECT__10
10
49.997002
20
-17.816999
30
-2.566000
70
192
0
VERTEX
8
OBJECT__10
10
49.997002
20
-14.266000
30
-4.640000
70
192
0
VERTEX
8
OBJECT__10
10
49.997002
20
-13.603000
30
-11.792000
70
192
0
VERTEX
8
OBJECT__10
10
0
20
0
30
0
70
128
71
1
72
2
73
3
0
VERTEX
8
OBJECT__10
10
0
20
0
30
0
70
128
71
3
72
4
73
5
0
VERTEX
8
OBJECT__10
10
0
20
0
30
0
70
128
71
4
72
6
73
7
0
VERTEX
8
OBJECT__10
10
0
20
0
30
0
70
128
71
7
72
5
73
4
0
VERTEX
8
OBJECT__10
10
0
20
0
30
0
70
128
71
6
72
8
73
9
0
VERTEX
8
OBJECT__10
10
0
20
0
30
0
70
128
71
8
72
10
73
11
0
VERTEX
8
OBJECT__10
10
0
20
0
30
0
70
128
71
10
72
12
73
13
0
VERTEX
8
OBJECT__10
10
0
20
0
30
0
70
128
71
9
72
7
73
6
0
VERTEX
8
OBJECT__10
10
0
20
0
30
0
70
128
71
13
72
11
73
10
0
VERTEX
8
OBJECT__10
10
0
20
0
30
0
70
128
71
14
72
15
73
13
0
VERTEX
8
OBJECT__10
10
0
20
0
30
0
70
128
71
16
72
17
73
15
0
VERTEX
8
OBJECT__10
10
0
20
0
30
0
70
128
71
11
72
9
73
8
0
VERTEX
8
OBJECT__10
10
0
20
0
30
0
70
128
71
15
72
14
73
16
0
VERTEX
8
OBJECT__10
10
0
20
0
30
0
70
128
71
1
72
18
73
19
0
VERTEX
8
OBJECT__10
10
0
20
0
30
0
70
128
71
13
72
12
73
14
0
VERTEX
8
OBJECT__10
10
0
20
0
30
0
70
128
71
20
72
21
73
17
0
VERTEX
8
OBJECT__10
10
0
20
0
30
0
70
128
71
22
72
18
73
21
0
VERTEX
8
OBJECT__10
10
0
20
0
30
0
70
128
71
19
72
2
73
1
0
VERTEX
8
OBJECT__10
10
0
20
0
30
0
70
128
71
17
72
16
73
20
0
VERTEX
8
OBJECT__10
10
0
20
0
30
0
70
128
71
18
72
22
73
19
0
VERTEX
8
OBJECT__10
10
0
20
0
30
0
70
128
71
21
72
20
73
22
0
VERTEX
8
OBJECT__10
10
0
20
0
30
0
70
128
71
3
72
5
73
1
0
SEQEND
8
OBJECT__10
0
POLYLINE
8
OBJECT__11
66
1
70
64
71
24
72
24
62
253
0
VERTEX
8
OBJECT__11
10
9.998000
20
9.732000
30
15.139000
70
192
0
VERTEX
8
OBJECT__11
10
9.998000
20
0.000000
30
17.997000
70
192
0
VERTEX
8
OBJECT__11
10
49.998001
20
0.000000
30
17.995001
70
192
0
VERTEX
8
OBJECT__11
10
49.997002
20
16.372999
30
7.473000
70
192
0
VERTEX
8
OBJECT__11
10
9.997000
20
16.372999
30
7.474000
70
192
0
VERTEX
8
OBJECT__11
10
9.997000
20
17.816999
30
-2.565000
70
192
0
VERTEX
8
OBJECT__11
10
49.997002
20
13.603000
30
-11.792000
70
192
0
VERTEX
8
OBJECT__11
10
9.997000
20
13.603000
30
-11.791000
70
192
0
VERTEX
8
OBJECT__11
10
9.997000
20
5.071000
30
-17.274000
70
192
0
VERTEX
8
OBJECT__11
10
9.996000
20
0.000000
30
-18.003000
70
192
0
VERTEX
8
OBJECT__11
10
49.997002
20
5.071000
30
-17.275000
70
192
0
VERTEX
8
OBJECT__11
10
49.995998
20
0.000000
30
-18.004999
70
192
0
VERTEX
8
OBJECT__11
10
49.997002
20
-5.071000
30
-17.275000
70
192
0
VERTEX
8
OBJECT__11
10
9.997000
20
-5.071000
30
-17.274000
70
192
0
VERTEX
8
OBJECT__11
10
49.997002
20
-13.603000
30
-11.792000
70
192
0
VERTEX
8
OBJECT__11
10
9.997000
20
-13.603000
30
-11.791000
70
192
0
VERTEX
8
OBJECT__11
10
49.997002
20
-17.816999
30
-2.566000
70
192
0
VERTEX
8
OBJECT__11
10
9.997000
20
-17.816999
30
-2.565000
70
192
0
VERTEX
8
OBJECT__11
10
9.997000
20
-16.372999
30
7.474000
70
192
0
VERTEX
8
OBJECT__11
10
49.998001
20
-9.732000
30
15.138000
70
192
0
VERTEX
8
OBJECT__11
10
9.998000
20
-9.732000
30
15.139000
70
192
0
VERTEX
8
OBJECT__11
10
49.997002
20
-16.372999
30
7.473000
70
192
0
VERTEX
8
OBJECT__11
10
49.997002
20
17.816999
30
-2.566000
70
192
0
VERTEX
8
OBJECT__11
10
49.998001
20
9.732000
30
15.138000
70
192
0
VERTEX
8
OBJECT__11
10
0
20
0
30
0
70
128
71
1
72
2
73
3
0
VERTEX
8
OBJECT__11
10
0
20
0
30
0
70
128
71
4
72
5
73
1
0
VERTEX
8
OBJECT__11
10
0
20
0
30
0
70
128
71
6
72
5
73
4
0
VERTEX
8
OBJECT__11
10
0
20
0
30
0
70
128
71
7
72
8
73
6
0
VERTEX
8
OBJECT__11
10
0
20
0
30
0
70
128
71
9
72
8
73
7
0
VERTEX
8
OBJECT__11
10
0
20
0
30
0
70
128
71
10
72
9
73
11
0
VERTEX
8
OBJECT__11
10
0
20
0
30
0
70
128
71
12
72
13
73
14
0
VERTEX
8
OBJECT__11
10
0
20
0
30
0
70
128
71
14
72
10
73
12
0
VERTEX
8
OBJECT__11
10
0
20
0
30
0
70
128
71
15
72
16
73
14
0
VERTEX
8
OBJECT__11
10
0
20
0
30
0
70
128
71
17
72
18
73
16
0
VERTEX
8
OBJECT__11
10
0
20
0
30
0
70
128
71
19
72
18
73
17
0
VERTEX
8
OBJECT__11
10
0
20
0
30
0
70
128
71
20
72
21
73
19
0
VERTEX
8
OBJECT__11
10
0
20
0
30
0
70
128
71
3
72
2
73
21
0
VERTEX
8
OBJECT__11
10
0
20
0
30
0
70
128
71
21
72
20
73
3
0
VERTEX
8
OBJECT__11
10
0
20
0
30
0
70
128
71
19
72
22
73
20
0
VERTEX
8
OBJECT__11
10
0
20
0
30
0
70
128
71
17
72
22
73
19
0
VERTEX
8
OBJECT__11
10
0
20
0
30
0
70
128
71
16
72
15
73
17
0
VERTEX
8
OBJECT__11
10
0
20
0
30
0
70
128
71
14
72
13
73
15
0
VERTEX
8
OBJECT__11
10
0
20
0
30
0
70
128
71
11
72
12
73
10
0
VERTEX
8
OBJECT__11
10
0
20
0
30
0
70
128
71
7
72
11
73
9
0
VERTEX
8
OBJECT__11
10
0
20
0
30
0
70
128
71
6
72
23
73
7
0
VERTEX
8
OBJECT__11
10
0
20
0
30
0
70
128
71
4
72
23
73
6
0
VERTEX
8
OBJECT__11
10
0
20
0
30
0
70
128
71
1
72
24
73
4
0
VERTEX
8
OBJECT__11
10
0
20
0
30
0
70
128
71
3
72
24
73
1
0
SEQEND
8
OBJECT__11
0
POLYLINE
8
OBJECT__12
66
1
70
64
71
26
72
26
62
253
0
VERTEX
8
OBJECT__12
10
9.997000
20
-22.336000
30
2.709000
70
192
0
VERTEX
8
OBJECT__12
10
9.997000
20
-17.816999
30
-2.565000
70
192
0
VERTEX
8
OBJECT__12
10
9.997000
20
-16.372999
30
7.474000
70
192
0
VERTEX
8
OBJECT__12
10
9.997000
20
22.336000
30
2.709000
70
192
0
VERTEX
8
OBJECT__12
10
9.998000
20
18.517000
30
12.778000
70
192
0
VERTEX
8
OBJECT__12
10
9.997000
20
16.372999
30
7.474000
70
192
0
VERTEX
8
OBJECT__12
10
9.998000
20
-18.517000
30
12.778000
70
192
0
VERTEX
8
OBJECT__12
10
9.998000
20
-9.732000
30
15.139000
70
192
0
VERTEX
8
OBJECT__12
10
9.997000
20
-21.038000
30
-7.982000
70
192
0
VERTEX
8
OBJECT__12
10
9.997000
20
21.038000
30
-7.982000
70
192
0
VERTEX
8
OBJECT__12
10
9.997000
20
17.816999
30
-2.565000
70
192
0
VERTEX
8
OBJECT__12
10
9.997000
20
13.603000
30
-11.791000
70
192
0
VERTEX
8
OBJECT__12
10
9.998000
20
10.456000
30
19.920000
70
192
0
VERTEX
8
OBJECT__12
10
9.998000
20
0.000000
30
22.497000
70
192
0
VERTEX
8
OBJECT__12
10
9.998000
20
0.000000
30
17.997000
70
192
0
VERTEX
8
OBJECT__12
10
9.998000
20
-10.456000
30
19.920000
70
192
0
VERTEX
8
OBJECT__12
10
9.997000
20
-14.920000
30
-16.844999
70
192
0
VERTEX
8
OBJECT__12
10
9.997000
20
-13.603000
30
-11.791000
70
192
0
VERTEX
8
OBJECT__12
10
9.996000
20
5.385000
30
-21.849001
70
192
0
VERTEX
8
OBJECT__12
10
9.997000
20
5.071000
30
-17.274000
70
192
0
VERTEX
8
OBJECT__12
10
9.996000
20
0.000000
30
-18.003000
70
192
0
VERTEX
8
OBJECT__12
10
9.997000
20
14.920000
30
-16.844999
70
192
0
VERTEX
8
OBJECT__12
10
9.998000
20
9.732000
30
15.139000
70
192
0
VERTEX
8
OBJECT__12
10
9.996000
20
-5.385000
30
-21.849001
70
192
0
VERTEX
8
OBJECT__12
10
9.997000
20
-5.071000
30
-17.274000
70
192
0
VERTEX
8
OBJECT__12
10
9.996000
20
0.000000
30
-22.503000
70
192
0
VERTEX
8
OBJECT__12
10
0
20
0
30
0
70
128
71
1
72
2
73
3
0
VERTEX
8
OBJECT__12
10
0
20
0
30
0
70
128
71
4
72
5
73
6
0
VERTEX
8
OBJECT__12
10
0
20
0
30
0
70
128
71
7
72
3
73
8
0
VERTEX
8
OBJECT__12
10
0
20
0
30
0
70
128
71
1
72
9
73
2
0
VERTEX
8
OBJECT__12
10
0
20
0
30
0
70
128
71
10
72
11
73
12
0
VERTEX
8
OBJECT__12
10
0
20
0
30
0
70
128
71
6
72
11
73
4
0
VERTEX
8
OBJECT__12
10
0
20
0
30
0
70
128
71
13
72
14
73
15
0
VERTEX
8
OBJECT__12
10
0
20
0
30
0
70
128
71
16
72
8
73
15
0
VERTEX
8
OBJECT__12
10
0
20
0
30
0
70
128
71
3
72
7
73
1
0
VERTEX
8
OBJECT__12
10
0
20
0
30
0
70
128
71
9
72
17
73
18
0
VERTEX
8
OBJECT__12
10
0
20
0
30
0
70
128
71
19
72
20
73
21
0
VERTEX
8
OBJECT__12
10
0
20
0
30
0
70
128
71
22
72
12
73
20
0
VERTEX
8
OBJECT__12
10
0
20
0
30
0
70
128
71
11
72
10
73
4
0
VERTEX
8
OBJECT__12
10
0
20
0
30
0
70
128
71
5
72
13
73
23
0
VERTEX
8
OBJECT__12
10
0
20
0
30
0
70
128
71
15
72
14
73
16
0
VERTEX
8
OBJECT__12
10
0
20
0
30
0
70
128
71
18
72
2
73
9
0
VERTEX
8
OBJECT__12
10
0
20
0
30
0
70
128
71
17
72
24
73
25
0
VERTEX
8
OBJECT__12
10
0
20
0
30
0
70
128
71
24
72
26
73
21
0
VERTEX
8
OBJECT__12
10
0
20
0
30
0
70
128
71
20
72
19
73
22
0
VERTEX
8
OBJECT__12
10
0
20
0
30
0
70
128
71
23
72
6
73
5
0
VERTEX
8
OBJECT__12
10
0
20
0
30
0
70
128
71
8
72
16
73
7
0
VERTEX
8
OBJECT__12
10
0
20
0
30
0
70
128
71
21
72
25
73
24
0
VERTEX
8
OBJECT__12
10
0
20
0
30
0
70
128
71
12
72
22
73
10
0
VERTEX
8
OBJECT__12
10
0
20
0
30
0
70
128
71
25
72
18
73
17
0
VERTEX
8
OBJECT__12
10
0
20
0
30
0
70
128
71
15
72
23
73
13
0
VERTEX
8
OBJECT__12
10
0
20
0
30
0
70
128
71
21
72
26
73
19
0
SEQEND
8
OBJECT__12
0
POLYLINE
8
OBJECT__13
66
1
70
64
71
27
72
27
62
253
0
VERTEX
8
OBJECT__13
10
5.998000
20
10.456000
30
19.920000
70
192
0
VERTEX
8
OBJECT__13
10
5.998000
20
0.000000
30
22.497000
70
192
0
VERTEX
8
OBJECT__13
10
9.998000
20
0.000000
30
22.497000
70
192
0
VERTEX
8
OBJECT__13
10
5.998000
20
18.517000
30
12.778000
70
192
0
VERTEX
8
OBJECT__13
10
9.998000
20
10.456000
30
19.920000
70
192
0
VERTEX
8
OBJECT__13
10
9.997000
20
22.336000
30
2.709000
70
192
0
VERTEX
8
OBJECT__13
10
5.997000
20
22.336000
30
2.709000
70
192
0
VERTEX
8
OBJECT__13
10
5.997000
20
21.038000
30
-7.982000
70
192
0
VERTEX
8
OBJECT__13
10
5.997000
20
14.920000
30
-16.844999
70
192
0
VERTEX
8
OBJECT__13
10
9.997000
20
21.038000
30
-7.982000
70
192
0
VERTEX
8
OBJECT__13
10
9.996000
20
5.385000
30
-21.849001
70
192
0
VERTEX
8
OBJECT__13
10
5.996000
20
5.385000
30
-21.849001
70
192
0
VERTEX
8
OBJECT__13
10
9.996000
20
0.000000
30
-22.503000
70
192
0
VERTEX
8
OBJECT__13
10
5.996000
20
-5.385000
30
-21.849001
70
192
0
VERTEX
8
OBJECT__13
10
9.997000
20
-14.920000
30
-16.844999
70
192
0
VERTEX
8
OBJECT__13
10
5.997000
20
-14.920000
30
-16.844999
70
192
0
VERTEX
8
OBJECT__13
10
9.997000
20
-21.038000
30
-7.982000
70
192
0
VERTEX
8
OBJECT__13
10
5.997000
20
-21.038000
30
-7.982000
70
192
0
VERTEX
8
OBJECT__13
10
9.997000
20
-22.336000
30
2.709000
70
192
0
VERTEX
8
OBJECT__13
10
5.997000
20
-22.336000
30
2.709000
70
192
0
VERTEX
8
OBJECT__13
10
9.998000
20
-18.517000
30
12.778000
70
192
0
VERTEX
8
OBJECT__13
10
5.998000
20
-18.517000
30
12.778000
70
192
0
VERTEX
8
OBJECT__13
10
9.998000
20
-10.456000
30
19.920000
70
192
0
VERTEX
8
OBJECT__13
10
5.998000
20
-10.456000
30
19.920000
70
192
0
VERTEX
8
OBJECT__13
10
9.996000
20
-5.385000
30
-21.849001
70
192
0
VERTEX
8
OBJECT__13
10
9.997000
20
14.920000
30
-16.844999
70
192
0
VERTEX
8
OBJECT__13
10
9.998000
20
18.517000
30
12.778000
70
192
0
VERTEX
8
OBJECT__13
10
0
20
0
30
0
70
128
71
1
72
2
73
3
0
VERTEX
8
OBJECT__13
10
0
20
0
30
0
70
128
71
4
72
1
73
5
0
VERTEX
8
OBJECT__13
10
0
20
0
30
0
70
128
71
6
72
7
73
4
0
VERTEX
8
OBJECT__13
10
0
20
0
30
0
70
128
71
8
72
7
73
6
0
VERTEX
8
OBJECT__13
10
0
20
0
30
0
70
128
71
9
72
8
73
10
0
VERTEX
8
OBJECT__13
10
0
20
0
30
0
70
128
71
11
72
12
73
9
0
VERTEX
8
OBJECT__13
10
0
20
0
30
0
70
128
71
12
72
11
73
13
0
VERTEX
8
OBJECT__13
10
0
20
0
30
0
70
128
71
13
72
14
73
12
0
VERTEX
8
OBJECT__13
10
0
20
0
30
0
70
128
71
15
72
16
73
14
0
VERTEX
8
OBJECT__13
10
0
20
0
30
0
70
128
71
17
72
18
73
16
0
VERTEX
8
OBJECT__13
10
0
20
0
30
0
70
128
71
19
72
20
73
18
0
VERTEX
8
OBJECT__13
10
0
20
0
30
0
70
128
71
21
72
22
73
20
0
VERTEX
8
OBJECT__13
10
0
20
0
30
0
70
128
71
23
72
24
73
22
0
VERTEX
8
OBJECT__13
10
0
20
0
30
0
70
128
71
24
72
23
73
3
0
VERTEX
8
OBJECT__13
10
0
20
0
30
0
70
128
71
3
72
2
73
24
0
VERTEX
8
OBJECT__13
10
0
20
0
30
0
70
128
71
22
72
21
73
23
0
VERTEX
8
OBJECT__13
10
0
20
0
30
0
70
128
71
20
72
19
73
21
0
VERTEX
8
OBJECT__13
10
0
20
0
30
0
70
128
71
18
72
17
73
19
0
VERTEX
8
OBJECT__13
10
0
20
0
30
0
70
128
71
16
72
15
73
17
0
VERTEX
8
OBJECT__13
10
0
20
0
30
0
70
128
71
14
72
25
73
15
0
VERTEX
8
OBJECT__13
10
0
20
0
30
0
70
128
71
13
72
25
73
14
0
VERTEX
8
OBJECT__13
10
0
20
0
30
0
70
128
71
9
72
26
73
11
0
VERTEX
8
OBJECT__13
10
0
20
0
30
0
70
128
71
10
72
26
73
9
0
VERTEX
8
OBJECT__13
10
0
20
0
30
0
70
128
71
6
72
10
73
8
0
VERTEX
8
OBJECT__13
10
0
20
0
30
0
70
128
71
4
72
27
73
6
0
VERTEX
8
OBJECT__13
10
0
20
0
30
0
70
128
71
5
72
27
73
4
0
VERTEX
8
OBJECT__13
10
0
20
0
30
0
70
128
71
3
72
5
73
1
0
SEQEND
8
OBJECT__13
0
POLYLINE
8
OBJECT__14
66
1
70
64
71
27
72
27
62
253
0
VERTEX
8
OBJECT__14
10
5.996000
20
0.000000
30
-27.503000
70
192
0
VERTEX
8
OBJECT__14
10
5.996000
20
11.932000
30
-24.780001
70
192
0
VERTEX
8
OBJECT__14
10
5.996000
20
5.385000
30
-21.849001
70
192
0
VERTEX
8
OBJECT__14
10
5.997000
20
21.500000
30
-17.149000
70
192
0
VERTEX
8
OBJECT__14
10
5.997000
20
14.920000
30
-16.844999
70
192
0
VERTEX
8
OBJECT__14
10
5.997000
20
26.811001
30
-6.122000
70
192
0
VERTEX
8
OBJECT__14
10
5.997000
20
21.038000
30
-7.982000
70
192
0
VERTEX
8
OBJECT__14
10
5.996000
20
-5.385000
30
-21.849001
70
192
0
VERTEX
8
OBJECT__14
10
5.998000
20
-11.932000
30
24.774000
70
192
0
VERTEX
8
OBJECT__14
10
5.998000
20
-10.456000
30
19.920000
70
192
0
VERTEX
8
OBJECT__14
10
5.998000
20
0.000000
30
22.497000
70
192
0
VERTEX
8
OBJECT__14
10
5.998000
20
-21.500000
30
17.143000
70
192
0
VERTEX
8
OBJECT__14
10
5.998000
20
-18.517000
30
12.778000
70
192
0
VERTEX
8
OBJECT__14
10
5.997000
20
-26.811001
30
6.116000
70
192
0
VERTEX
8
OBJECT__14
10
5.997000
20
-22.336000
30
2.709000
70
192
0
VERTEX
8
OBJECT__14
10
5.997000
20
-26.811001
30
-6.122000
70
192
0
VERTEX
8
OBJECT__14
10
5.997000
20
-21.038000
30
-7.982000
70
192
0
VERTEX
8
OBJECT__14
10
5.997000
20
-21.500000
30
-17.149000
70
192
0
VERTEX
8
OBJECT__14
10
5.997000
20
-14.920000
30
-16.844999
70
192
0
VERTEX
8
OBJECT__14
10
5.996000
20
-11.932000
30
-24.780001
70
192
0
VERTEX
8
OBJECT__14
10
5.997000
20
26.811001
30
6.116000
70
192
0
VERTEX
8
OBJECT__14
10
5.997000
20
22.336000
30
2.709000
70
192
0
VERTEX
8
OBJECT__14
10
5.998000
20
21.500000
30
17.143000
70
192
0
VERTEX
8
OBJECT__14
10
5.998000
20
18.517000
30
12.778000
70
192
0
VERTEX
8
OBJECT__14
10
5.998000
20
11.932000
30
24.774000
70
192
0
VERTEX
8
OBJECT__14
10
5.998000
20
10.456000
30
19.920000
70
192
0
VERTEX
8
OBJECT__14
10
5.998000
20
0.000000
30
27.497000
70
192
0
VERTEX
8
OBJECT__14
10
0
20
0
30
0
70
128
71
1
72
2
73
3
0
VERTEX
8
OBJECT__14
10
0
20
0
30
0
70
128
71
2
72
4
73
5
0
VERTEX
8
OBJECT__14
10
0
20
0
30
0
70
128
71
4
72
6
73
7
0
VERTEX
8
OBJECT__14
10
0
20
0
30
0
70
128
71
3
72
8
73
1
0
VERTEX
8
OBJECT__14
10
0
20
0
30
0
70
128
71
7
72
5
73
4
0
VERTEX
8
OBJECT__14
10
0
20
0
30
0
70
128
71
9
72
10
73
11
0
VERTEX
8
OBJECT__14
10
0
20
0
30
0
70
128
71
12
72
13
73
10
0
VERTEX
8
OBJECT__14
10
0
20
0
30
0
70
128
71
14
72
15
73
13
0
VERTEX
8
OBJECT__14
10
0
20
0
30
0
70
128
71
16
72
17
73
15
0
VERTEX
8
OBJECT__14
10
0
20
0
30
0
70
128
71
18
72
19
73
17
0
VERTEX
8
OBJECT__14
10
0
20
0
30
0
70
128
71
20
72
8
73
19
0
VERTEX
8
OBJECT__14
10
0
20
0
30
0
70
128
71
5
72
3
73
2
0
VERTEX
8
OBJECT__14
10
0
20
0
30
0
70
128
71
6
72
21
73
22
0
VERTEX
8
OBJECT__14
10
0
20
0
30
0
70
128
71
21
72
23
73
24
0
VERTEX
8
OBJECT__14
10
0
20
0
30
0
70
128
71
23
72
25
73
26
0
VERTEX
8
OBJECT__14
10
0
20
0
30
0
70
128
71
25
72
27
73
11
0
VERTEX
8
OBJECT__14
10
0
20
0
30
0
70
128
71
10
72
9
73
12
0
VERTEX
8
OBJECT__14
10
0
20
0
30
0
70
128
71
15
72
14
73
16
0
VERTEX
8
OBJECT__14
10
0
20
0
30
0
70
128
71
19
72
18
73
20
0
VERTEX
8
OBJECT__14
10
0
20
0
30
0
70
128
71
22
72
7
73
6
0
VERTEX
8
OBJECT__14
10
0
20
0
30
0
70
128
71
26
72
24
73
23
0
VERTEX
8
OBJECT__14
10
0
20
0
30
0
70
128
71
11
72
27
73
9
0
VERTEX
8
OBJECT__14
10
0
20
0
30
0
70
128
71
17
72
16
73
18
0
VERTEX
8
OBJECT__14
10
0
20
0
30
0
70
128
71
24
72
22
73
21
0
VERTEX
8
OBJECT__14
10
0
20
0
30
0
70
128
71
13
72
12
73
14
0
VERTEX
8
OBJECT__14
10
0
20
0
30
0
70
128
71
11
72
26
73
25
0
VERTEX
8
OBJECT__14
10
0
20
0
30
0
70
128
71
8
72
20
73
1
0
SEQEND
8
OBJECT__14
0
POLYLINE
8
OBJECT__15
66
1
70
64
71
29
72
29
62
253
0
VERTEX
8
OBJECT__15
10
-0.002000
20
0.000000
30
27.497000
70
192
0
VERTEX
8
OBJECT__15
10
5.998000
20
0.000000
30
27.497000
70
192
0
VERTEX
8
OBJECT__15
10
5.998000
20
11.932000
30
24.774000
70
192
0
VERTEX
8
OBJECT__15
10
5.998000
20
21.500000
30
17.143000
70
192
0
VERTEX
8
OBJECT__15
10
-0.002000
20
21.500000
30
17.143000
70
192
0
VERTEX
8
OBJECT__15
10
-0.002000
20
11.932000
30
24.774000
70
192
0
VERTEX
8
OBJECT__15
10
5.997000
20
26.811001
30
6.116000
70
192
0
VERTEX
8
OBJECT__15
10
-0.003000
20
26.811001
30
6.116000
70
192
0
VERTEX
8
OBJECT__15
10
5.997000
20
26.811001
30
-6.122000
70
192
0
VERTEX
8
OBJECT__15
10
-0.003000
20
26.811001
30
-6.122000
70
192
0
VERTEX
8
OBJECT__15
10
-0.003000
20
27.500000
30
-0.003000
70
192
0
VERTEX
8
OBJECT__15
10
5.997000
20
21.500000
30
-17.149000
70
192
0
VERTEX
8
OBJECT__15
10
-0.003000
20
21.500000
30
-17.149000
70
192
0
VERTEX
8
OBJECT__15
10
5.996000
20
11.932000
30
-24.780001
70
192
0
VERTEX
8
OBJECT__15
10
-0.004000
20
11.932000
30
-24.778999
70
192
0
VERTEX
8
OBJECT__15
10
5.996000
20
0.000000
30
-27.503000
70
192
0
VERTEX
8
OBJECT__15
10
-0.004000
20
0.000000
30
-27.503000
70
192
0
VERTEX
8
OBJECT__15
10
5.996000
20
-11.932000
30
-24.780001
70
192
0
VERTEX
8
OBJECT__15
10
-0.004000
20
-11.932000
30
-24.778999
70
192
0
VERTEX
8
OBJECT__15
10
-0.003000
20
-21.500000
30
-17.149000
70
192
0
VERTEX
8
OBJECT__15
10
-0.003000
20
-26.811001
30
-6.122000
70
192
0
VERTEX
8
OBJECT__15
10
5.997000
20
-21.500000
30
-17.149000
70
192
0
VERTEX
8
OBJECT__15
10
-0.003000
20
-26.811001
30
6.116000
70
192
0
VERTEX
8
OBJECT__15
10
5.997000
20
-26.811001
30
-6.122000
70
192
0
VERTEX
8
OBJECT__15
10
-0.002000
20
-21.500000
30
17.143000
70
192
0
VERTEX
8
OBJECT__15
10
5.997000
20
-26.811001
30
6.116000
70
192
0
VERTEX
8
OBJECT__15
10
-0.002000
20
-11.932000
30
24.774000
70
192
0
VERTEX
8
OBJECT__15
10
5.998000
20
-21.500000
30
17.143000
70
192
0
VERTEX
8
OBJECT__15
10
5.998000
20
-11.932000
30
24.774000
70
192
0
VERTEX
8
OBJECT__15
10
0
20
0
30
0
70
128
71
1
72
2
73
3
0
VERTEX
8
OBJECT__15
10
0
20
0
30
0
70
128
71
4
72
5
73
6
0
VERTEX
8
OBJECT__15
10
0
20
0
30
0
70
128
71
7
72
8
73
5
0
VERTEX
8
OBJECT__15
10
0
20
0
30
0
70
128
71
9
72
10
73
11
0
VERTEX
8
OBJECT__15
10
0
20
0
30
0
70
128
71
11
72
7
73
9
0
VERTEX
8
OBJECT__15
10
0
20
0
30
0
70
128
71
12
72
13
73
10
0
VERTEX
8
OBJECT__15
10
0
20
0
30
0
70
128
71
14
72
15
73
13
0
VERTEX
8
OBJECT__15
10
0
20
0
30
0
70
128
71
16
72
17
73
15
0
VERTEX
8
OBJECT__15
10
0
20
0
30
0
70
128
71
16
72
18
73
19
0
VERTEX
8
OBJECT__15
10
0
20
0
30
0
70
128
71
20
72
19
73
18
0
VERTEX
8
OBJECT__15
10
0
20
0
30
0
70
128
71
21
72
20
73
22
0
VERTEX
8
OBJECT__15
10
0
20
0
30
0
70
128
71
23
72
21
73
24
0
VERTEX
8
OBJECT__15
10
0
20
0
30
0
70
128
71
25
72
23
73
26
0
VERTEX
8
OBJECT__15
10
0
20
0
30
0
70
128
71
27
72
25
73
28
0
VERTEX
8
OBJECT__15
10
0
20
0
30
0
70
128
71
2
72
1
73
27
0
VERTEX
8
OBJECT__15
10
0
20
0
30
0
70
128
71
27
72
29
73
2
0
VERTEX
8
OBJECT__15
10
0
20
0
30
0
70
128
71
28
72
29
73
27
0
VERTEX
8
OBJECT__15
10
0
20
0
30
0
70
128
71
26
72
28
73
25
0
VERTEX
8
OBJECT__15
10
0
20
0
30
0
70
128
71
24
72
26
73
23
0
VERTEX
8
OBJECT__15
10
0
20
0
30
0
70
128
71
22
72
24
73
21
0
VERTEX
8
OBJECT__15
10
0
20
0
30
0
70
128
71
18
72
22
73
20
0
VERTEX
8
OBJECT__15
10
0
20
0
30
0
70
128
71
19
72
17
73
16
0
VERTEX
8
OBJECT__15
10
0
20
0
30
0
70
128
71
15
72
14
73
16
0
VERTEX
8
OBJECT__15
10
0
20
0
30
0
70
128
71
13
72
12
73
14
0
VERTEX
8
OBJECT__15
10
0
20
0
30
0
70
128
71
10
72
9
73
12
0
VERTEX
8
OBJECT__15
10
0
20
0
30
0
70
128
71
11
72
8
73
7
0
VERTEX
8
OBJECT__15
10
0
20
0
30
0
70
128
71
5
72
4
73
7
0
VERTEX
8
OBJECT__15
10
0
20
0
30
0
70
128
71
6
72
3
73
4
0
VERTEX
8
OBJECT__15
10
0
20
0
30
0
70
128
71
3
72
6
73
1
0
SEQEND
8
OBJECT__15
0
POLYLINE
8
OBJECT__16
66
1
70
64
71
15
72
13
62
253
0
VERTEX
8
OBJECT__16
10
-0.003000
20
-26.811001
30
-6.122000
70
192
0
VERTEX
8
OBJECT__16
10
-0.004000
20
0.000000
30
-27.503000
70
192
0
VERTEX
8
OBJECT__16
10
-0.004000
20
-11.932000
30
-24.778999
70
192
0
VERTEX
8
OBJECT__16
10
-0.004000
20
11.932000
30
-24.778999
70
192
0
VERTEX
8
OBJECT__16
10
-0.003000
20
-26.811001
30
6.116000
70
192
0
VERTEX
8
OBJECT__16
10
-0.002000
20
0.000000
30
27.497000
70
192
0
VERTEX
8
OBJECT__16
10
-0.002000
20
11.932000
30
24.774000
70
192
0
VERTEX
8
OBJECT__16
10
-0.003000
20
-21.500000
30
-17.149000
70
192
0
VERTEX
8
OBJECT__16
10
-0.003000
20
26.811001
30
-6.122000
70
192
0
VERTEX
8
OBJECT__16
10
-0.003000
20
21.500000
30
-17.149000
70
192
0
VERTEX
8
OBJECT__16
10
-0.002000
20
21.500000
30
17.143000
70
192
0
VERTEX
8
OBJECT__16
10
-0.002000
20
-21.500000
30
17.143000
70
192
0
VERTEX
8
OBJECT__16
10
-0.002000
20
-11.932000
30
24.774000
70
192
0
VERTEX
8
OBJECT__16
10
-0.003000
20
27.500000
30
-0.003000
70
192
0
VERTEX
8
OBJECT__16
10
-0.003000
20
26.811001
30
6.116000
70
192
0
VERTEX
8
OBJECT__16
10
0
20
0
30
0
70
128
71
1
72
2
73
3
0
VERTEX
8
OBJECT__16
10
0
20
0
30
0
70
128
71
1
72
4
73
2
0
VERTEX
8
OBJECT__16
10
0
20
0
30
0
70
128
71
5
72
6
73
7
0
VERTEX
8
OBJECT__16
10
0
20
0
30
0
70
128
71
3
72
8
73
1
0
VERTEX
8
OBJECT__16
10
0
20
0
30
0
70
128
71
5
72
9
73
10
0
VERTEX
8
OBJECT__16
10
0
20
0
30
0
70
128
71
7
72
11
73
5
0
VERTEX
8
OBJECT__16
10
0
20
0
30
0
70
128
71
6
72
5
73
12
0
VERTEX
8
OBJECT__16
10
0
20
0
30
0
70
128
71
10
72
4
73
5
0
VERTEX
8
OBJECT__16
10
0
20
0
30
0
70
128
71
12
72
13
73
6
0
VERTEX
8
OBJECT__16
10
0
20
0
30
0
70
128
71
5
72
14
73
9
0
VERTEX
8
OBJECT__16
10
0
20
0
30
0
70
128
71
11
72
15
73
5
0
VERTEX
8
OBJECT__16
10
0
20
0
30
0
70
128
71
15
72
14
73
5
0
VERTEX
8
OBJECT__16
10
0
20
0
30
0
70
128
71
1
72
5
73
4
0
SEQEND
8
OBJECT__16
0
POLYLINE
8
OBJECT__17
66
1
70
64
71
19
72
19
62
253
0
VERTEX
8
OBJECT__17
10
54.200001
20
103.086998
30
-14.525000
70
192
0
VERTEX
8
OBJECT__17
10
54.200001
20
103.051003
30
-6.852000
70
192
0
VERTEX
8
OBJECT__17
10
54.200001
20
97.932999
30
-7.209000
70
192
0
VERTEX
8
OBJECT__17
10
54.200001
20
111.036003
30
-9.937000
70
192
0
VERTEX
8
OBJECT__17
10
54.200001
20
106.740997
30
-3.288000
70
192
0
VERTEX
8
OBJECT__17
10
54.200001
20
93.959999
30
-13.566000
70
192
0
VERTEX
8
OBJECT__17
10
54.200001
20
93.781998
30
-4.194000
70
192
0
VERTEX
8
OBJECT__17
10
54.200001
20
114.768997
30
-1.552000
70
192
0
VERTEX
8
OBJECT__17
10
54.200001
20
107.277000
30
1.814000
70
192
0
VERTEX
8
OBJECT__17
10
54.200001
20
112.860001
30
7.425000
70
192
0
VERTEX
8
OBJECT__17
10
54.200001
20
106.040001
30
13.566000
70
192
0
VERTEX
8
OBJECT__17
10
54.200001
20
104.407997
30
6.068000
70
192
0
VERTEX
8
OBJECT__17
10
54.200001
20
96.913002
30
14.525000
70
192
0
VERTEX
8
OBJECT__17
10
54.200001
20
99.476997
30
7.482000
70
192
0
VERTEX
8
OBJECT__17
10
54.200001
20
88.963997
30
9.937000
70
192
0
VERTEX
8
OBJECT__17
10
54.200001
20
85.231003
30
1.552000
70
192
0
VERTEX
8
OBJECT__17
10
54.200001
20
92.541000
30
0.784000
70
192
0
VERTEX
8
OBJECT__17
10
54.200001
20
87.139999
30
-7.425000
70
192
0
VERTEX
8
OBJECT__17
10
54.200001
20
94.790001
30
5.395000
70
192
0
VERTEX
8
OBJECT__17
10
0
20
0
30
0
70
128
71
1
72
2
73
3
0
VERTEX
8
OBJECT__17
10
0
20
0
30
0
70
128
71
4
72
5
73
2
0
VERTEX
8
OBJECT__17
10
0
20
0
30
0
70
128
71
6
72
3
73
7
0
VERTEX
8
OBJECT__17
10
0
20
0
30
0
70
128
71
2
72
1
73
4
0
VERTEX
8
OBJECT__17
10
0
20
0
30
0
70
128
71
8
72
9
73
5
0
VERTEX
8
OBJECT__17
10
0
20
0
30
0
70
128
71
10
72
11
73
12
0
VERTEX
8
OBJECT__17
10
0
20
0
30
0
70
128
71
11
72
13
73
14
0
VERTEX
8
OBJECT__17
10
0
20
0
30
0
70
128
71
15
72
16
73
17
0
VERTEX
8
OBJECT__17
10
0
20
0
30
0
70
128
71
18
72
7
73
17
0
VERTEX
8
OBJECT__17
10
0
20
0
30
0
70
128
71
3
72
6
73
1
0
VERTEX
8
OBJECT__17
10
0
20
0
30
0
70
128
71
5
72
4
73
8
0
VERTEX
8
OBJECT__17
10
0
20
0
30
0
70
128
71
14
72
12
73
11
0
VERTEX
8
OBJECT__17
10
0
20
0
30
0
70
128
71
13
72
15
73
19
0
VERTEX
8
OBJECT__17
10
0
20
0
30
0
70
128
71
17
72
16
73
18
0
VERTEX
8
OBJECT__17
10
0
20
0
30
0
70
128
71
8
72
10
73
9
0
VERTEX
8
OBJECT__17
10
0
20
0
30
0
70
128
71
19
72
14
73
13
0
VERTEX
8
OBJECT__17
10
0
20
0
30
0
70
128
71
7
72
18
73
6
0
VERTEX
8
OBJECT__17
10
0
20
0
30
0
70
128
71
17
72
19
73
15
0
VERTEX
8
OBJECT__17
10
0
20
0
30
0
70
128
71
12
72
9
73
10
0
SEQEND
8
OBJECT__17
0
POLYLINE
8
OBJECT__18
66
1
70
64
71
20
72
20
62
253
0
VERTEX
8
OBJECT__18
10
32.200001
20
111.036003
30
-9.937000
70
192
0
VERTEX
8
OBJECT__18
10
32.200001
20
114.768997
30
-1.552000
70
192
0
VERTEX
8
OBJECT__18
10
54.200001
20
114.768997
30
-1.552000
70
192
0
VERTEX
8
OBJECT__18
10
32.200001
20
103.086998
30
-14.525000
70
192
0
VERTEX
8
OBJECT__18
10
54.200001
20
111.036003
30
-9.937000
70
192
0
VERTEX
8
OBJECT__18
10
32.200001
20
93.959999
30
-13.566000
70
192
0
VERTEX
8
OBJECT__18
10
54.200001
20
103.086998
30
-14.525000
70
192
0
VERTEX
8
OBJECT__18
10
32.200001
20
87.139999
30
-7.425000
70
192
0
VERTEX
8
OBJECT__18
10
54.200001
20
93.959999
30
-13.566000
70
192
0
VERTEX
8
OBJECT__18
10
32.200001
20
85.231003
30
1.552000
70
192
0
VERTEX
8
OBJECT__18
10
54.200001
20
87.139999
30
-7.425000
70
192
0
VERTEX
8
OBJECT__18
10
54.200001
20
88.963997
30
9.937000
70
192
0
VERTEX
8
OBJECT__18
10
32.200001
20
88.963997
30
9.937000
70
192
0
VERTEX
8
OBJECT__18
10
54.200001
20
96.913002
30
14.525000
70
192
0
VERTEX
8
OBJECT__18
10
32.200001
20
96.913002
30
14.525000
70
192
0
VERTEX
8
OBJECT__18
10
54.200001
20
106.040001
30
13.566000
70
192
0
VERTEX
8
OBJECT__18
10
32.200001
20
106.040001
30
13.566000
70
192
0
VERTEX
8
OBJECT__18
10
54.200001
20
112.860001
30
7.425000
70
192
0
VERTEX
8
OBJECT__18
10
32.200001
20
112.860001
30
7.425000
70
192
0
VERTEX
8
OBJECT__18
10
54.200001
20
85.231003
30
1.552000
70
192
0
VERTEX
8
OBJECT__18
10
0
20
0
30
0
70
128
71
1
72
2
73
3
0
VERTEX
8
OBJECT__18
10
0
20
0
30
0
70
128
71
4
72
1
73
5
0
VERTEX
8
OBJECT__18
10
0
20
0
30
0
70
128
71
6
72
4
73
7
0
VERTEX
8
OBJECT__18
10
0
20
0
30
0
70
128
71
8
72
6
73
9
0
VERTEX
8
OBJECT__18
10
0
20
0
30
0
70
128
71
10
72
8
73
11
0
VERTEX
8
OBJECT__18
10
0
20
0
30
0
70
128
71
12
72
13
73
10
0
VERTEX
8
OBJECT__18
10
0
20
0
30
0
70
128
71
14
72
15
73
13
0
VERTEX
8
OBJECT__18
10
0
20
0
30
0
70
128
71
16
72
17
73
15
0
VERTEX
8
OBJECT__18
10
0
20
0
30
0
70
128
71
18
72
19
73
17
0
VERTEX
8
OBJECT__18
10
0
20
0
30
0
70
128
71
3
72
2
73
19
0
VERTEX
8
OBJECT__18
10
0
20
0
30
0
70
128
71
19
72
18
73
3
0
VERTEX
8
OBJECT__18
10
0
20
0
30
0
70
128
71
17
72
16
73
18
0
VERTEX
8
OBJECT__18
10
0
20
0
30
0
70
128
71
15
72
14
73
16
0
VERTEX
8
OBJECT__18
10
0
20
0
30
0
70
128
71
13
72
12
73
14
0
VERTEX
8
OBJECT__18
10
0
20
0
30
0
70
128
71
10
72
20
73
12
0
VERTEX
8
OBJECT__18
10
0
20
0
30
0
70
128
71
11
72
20
73
10
0
VERTEX
8
OBJECT__18
10
0
20
0
30
0
70
128
71
9
72
11
73
8
0
VERTEX
8
OBJECT__18
10
0
20
0
30
0
70
128
71
7
72
9
73
6
0
VERTEX
8
OBJECT__18
10
0
20
0
30
0
70
128
71
5
72
7
73
4
0
VERTEX
8
OBJECT__18
10
0
20
0
30
0
70
128
71
3
72
5
73
1
0
SEQEND
8
OBJECT__18
0
POLYLINE
8
OBJECT__20
66
1
70
64
71
13
72
11
62
253
0
VERTEX
8
OBJECT__20
10
10.000000
20
-119.016998
30
12.025000
70
192
0
VERTEX
8
OBJECT__20
10
10.000000
20
-90.353996
30
20.327999
70
192
0
VERTEX
8
OBJECT__20
10
10.000000
20
-100.905998
30
22.482000
70
192
0
VERTEX
8
OBJECT__20
10
10.000000
20
-77.791000
30
3.609000
70
192
0
VERTEX
8
OBJECT__20
10
10.000000
20
-82.013000
30
13.517000
70
192
0
VERTEX
8
OBJECT__20
10
10.000000
20
-93.739998
30
-21.612000
70
192
0
VERTEX
8
OBJECT__20
10
10.000000
20
-84.414001
30
-16.226999
70
192
0
VERTEX
8
OBJECT__20
10
10.000000
20
-114.230003
30
-17.429001
70
192
0
VERTEX
8
OBJECT__20
10
10.000000
20
-104.500999
30
-22.045000
70
192
0
VERTEX
8
OBJECT__20
10
10.000000
20
-122.427002
30
1.810000
70
192
0
VERTEX
8
OBJECT__20
10
10.000000
20
-111.250000
30
19.486000
70
192
0
VERTEX
8
OBJECT__20
10
10.000000
20
-120.699997
30
-8.819000
70
192
0
VERTEX
8
OBJECT__20
10
10.000000
20
-78.657997
30
-7.125000
70
192
0
VERTEX
8
OBJECT__20
10
0
20
0
30
0
70
128
71
1
72
2
73
3
0
VERTEX
8
OBJECT__20
10
0
20
0
30
0
70
128
71
1
72
4
73
5
0
VERTEX
8
OBJECT__20
10
0
20
0
30
0
70
128
71
4
72
6
73
7
0
VERTEX
8
OBJECT__20
10
0
20
0
30
0
70
128
71
4
72
8
73
9
0
VERTEX
8
OBJECT__20
10
0
20
0
30
0
70
128
71
4
72
1
73
10
0
VERTEX
8
OBJECT__20
10
0
20
0
30
0
70
128
71
5
72
2
73
1
0
VERTEX
8
OBJECT__20
10
0
20
0
30
0
70
128
71
9
72
6
73
4
0
VERTEX
8
OBJECT__20
10
0
20
0
30
0
70
128
71
3
72
11
73
1
0
VERTEX
8
OBJECT__20
10
0
20
0
30
0
70
128
71
4
72
12
73
8
0
VERTEX
8
OBJECT__20
10
0
20
0
30
0
70
128
71
7
72
13
73
4
0
VERTEX
8
OBJECT__20
10
0
20
0
30
0
70
128
71
10
72
12
73
4
0
SEQEND
8
OBJECT__20
0
POLYLINE
8
OBJECT__21
66
1
70
64
71
26
72
26
62
253
0
VERTEX
8
OBJECT__21
10
6.000000
20
-119.016998
30
12.025000
70
192
0
VERTEX
8
OBJECT__21
10
10.000000
20
-119.016998
30
12.025000
70
192
0
VERTEX
8
OBJECT__21
10
10.000000
20
-111.250000
30
19.486000
70
192
0
VERTEX
8
OBJECT__21
10
6.000000
20
-122.427002
30
1.810000
70
192
0
VERTEX
8
OBJECT__21
10
10.000000
20
-122.427002
30
1.810000
70
192
0
VERTEX
8
OBJECT__21
10
6.000000
20
-120.699997
30
-8.819000
70
192
0
VERTEX
8
OBJECT__21
10
10.000000
20
-120.699997
30
-8.819000
70
192
0
VERTEX
8
OBJECT__21
10
6.000000
20
-114.230003
30
-17.429001
70
192
0
VERTEX
8
OBJECT__21
10
10.000000
20
-114.230003
30
-17.429001
70
192
0
VERTEX
8
OBJECT__21
10
6.000000
20
-104.500999
30
-22.045000
70
192
0
VERTEX
8
OBJECT__21
10
10.000000
20
-104.500999
30
-22.045000
70
192
0
VERTEX
8
OBJECT__21
10
6.000000
20
-93.739998
30
-21.612000
70
192
0
VERTEX
8
OBJECT__21
10
10.000000
20
-93.739998
30
-21.612000
70
192
0
VERTEX
8
OBJECT__21
10
6.000000
20
-84.414001
30
-16.226999
70
192
0
VERTEX
8
OBJECT__21
10
10.000000
20
-84.414001
30
-16.226999
70
192
0
VERTEX
8
OBJECT__21
10
6.000000
20
-78.657997
30
-7.125000
70
192
0
VERTEX
8
OBJECT__21
10
10.000000
20
-78.657997
30
-7.125000
70
192
0
VERTEX
8
OBJECT__21
10
6.000000
20
-77.791000
30
3.609000
70
192
0
VERTEX
8
OBJECT__21
10
10.000000
20
-77.791000
30
3.609000
70
192
0
VERTEX
8
OBJECT__21
10
6.000000
20
-82.013000
30
13.517000
70
192
0
VERTEX
8
OBJECT__21
10
10.000000
20
-82.013000
30
13.517000
70
192
0
VERTEX
8
OBJECT__21
10
6.000000
20
-90.353996
30
20.327999
70
192
0
VERTEX
8
OBJECT__21
10
10.000000
20
-90.353996
30
20.327999
70
192
0
VERTEX
8
OBJECT__21
10
6.000000
20
-100.905998
30
22.482000
70
192
0
VERTEX
8
OBJECT__21
10
10.000000
20
-100.905998
30
22.482000
70
192
0
VERTEX
8
OBJECT__21
10
6.000000
20
-111.250000
30
19.486000
70
192
0
VERTEX
8
OBJECT__21
10
0
20
0
30
0
70
128
71
1
72
2
73
3
0
VERTEX
8
OBJECT__21
10
0
20
0
30
0
70
128
71
4
72
5
73
2
0
VERTEX
8
OBJECT__21
10
0
20
0
30
0
70
128
71
6
72
7
73
5
0
VERTEX
8
OBJECT__21
10
0
20
0
30
0
70
128
71
8
72
9
73
7
0
VERTEX
8
OBJECT__21
10
0
20
0
30
0
70
128
71
10
72
11
73
9
0
VERTEX
8
OBJECT__21
10
0
20
0
30
0
70
128
71
12
72
13
73
11
0
VERTEX
8
OBJECT__21
10
0
20
0
30
0
70
128
71
14
72
15
73
13
0
VERTEX
8
OBJECT__21
10
0
20
0
30
0
70
128
71
16
72
17
73
15
0
VERTEX
8
OBJECT__21
10
0
20
0
30
0
70
128
71
18
72
19
73
17
0
VERTEX
8
OBJECT__21
10
0
20
0
30
0
70
128
71
20
72
21
73
19
0
VERTEX
8
OBJECT__21
10
0
20
0
30
0
70
128
71
22
72
23
73
21
0
VERTEX
8
OBJECT__21
10
0
20
0
30
0
70
128
71
24
72
25
73
23
0
VERTEX
8
OBJECT__21
10
0
20
0
30
0
70
128
71
26
72
3
73
25
0
VERTEX
8
OBJECT__21
10
0
20
0
30
0
70
128
71
25
72
24
73
26
0
VERTEX
8
OBJECT__21
10
0
20
0
30
0
70
128
71
23
72
22
73
24
0
VERTEX
8
OBJECT__21
10
0
20
0
30
0
70
128
71
21
72
20
73
22
0
VERTEX
8
OBJECT__21
10
0
20
0
30
0
70
128
71
19
72
18
73
20
0
VERTEX
8
OBJECT__21
10
0
20
0
30
0
70
128
71
17
72
16
73
18
0
VERTEX
8
OBJECT__21
10
0
20
0
30
0
70
128
71
15
72
14
73
16
0
VERTEX
8
OBJECT__21
10
0
20
0
30
0
70
128
71
13
72
12
73
14
0
VERTEX
8
OBJECT__21
10
0
20
0
30
0
70
128
71
11
72
10
73
12
0
VERTEX
8
OBJECT__21
10
0
20
0
30
0
70
128
71
9
72
8
73
10
0
VERTEX
8
OBJECT__21
10
0
20
0
30
0
70
128
71
7
72
6
73
8
0
VERTEX
8
OBJECT__21
10
0
20
0
30
0
70
128
71
5
72
4
73
6
0
VERTEX
8
OBJECT__21
10
0
20
0
30
0
70
128
71
2
72
1
73
4
0
VERTEX
8
OBJECT__21
10
0
20
0
30
0
70
128
71
3
72
26
73
1
0
SEQEND
8
OBJECT__21
0
POLYLINE
8
OBJECT__23
66
1
70
64
71
27
72
27
62
253
0
VERTEX
8
OBJECT__23
10
6.000000
20
-79.841003
30
18.705000
70
192
0
VERTEX
8
OBJECT__23
10
6.000000
20
-89.953003
30
25.599001
70
192
0
VERTEX
8
OBJECT__23
10
6.000000
20
-90.353996
30
20.327999
70
192
0
VERTEX
8
OBJECT__23
10
6.000000
20
-102.055000
30
27.423000
70
192
0
VERTEX
8
OBJECT__23
10
6.000000
20
-100.905998
30
22.482000
70
192
0
VERTEX
8
OBJECT__23
10
6.000000
20
-86.250000
30
-23.816000
70
192
0
VERTEX
8
OBJECT__23
10
6.000000
20
-84.414001
30
-16.226999
70
192
0
VERTEX
8
OBJECT__23
10
6.000000
20
-93.739998
30
-21.612000
70
192
0
VERTEX
8
OBJECT__23
10
6.000000
20
-77.278000
30
-15.491000
70
192
0
VERTEX
8
OBJECT__23
10
6.000000
20
-72.806999
30
-4.099000
70
192
0
VERTEX
8
OBJECT__23
10
6.000000
20
-78.657997
30
-7.125000
70
192
0
VERTEX
8
OBJECT__23
10
6.000000
20
-73.722000
30
8.106000
70
192
0
VERTEX
8
OBJECT__23
10
6.000000
20
-77.791000
30
3.609000
70
192
0
VERTEX
8
OBJECT__23
10
6.000000
20
-82.013000
30
13.517000
70
192
0
VERTEX
8
OBJECT__23
10
6.000000
20
-127.193001
30
4.099000
70
192
0
VERTEX
8
OBJECT__23
10
6.000000
20
-122.427002
30
1.810000
70
192
0
VERTEX
8
OBJECT__23
10
6.000000
20
-119.016998
30
12.025000
70
192
0
VERTEX
8
OBJECT__23
10
6.000000
20
-126.278000
30
-8.106000
70
192
0
VERTEX
8
OBJECT__23
10
6.000000
20
-120.699997
30
-8.819000
70
192
0
VERTEX
8
OBJECT__23
10
6.000000
20
-113.750000
30
23.816000
70
192
0
VERTEX
8
OBJECT__23
10
6.000000
20
-111.250000
30
19.486000
70
192
0
VERTEX
8
OBJECT__23
10
6.000000
20
-122.722000
30
15.491000
70
192
0
VERTEX
8
OBJECT__23
10
6.000000
20
-120.158997
30
-18.705000
70
192
0
VERTEX
8
OBJECT__23
10
6.000000
20
-114.230003
30
-17.429001
70
192
0
VERTEX
8
OBJECT__23
10
6.000000
20
-110.046997
30
-25.599001
70
192
0
VERTEX
8
OBJECT__23
10
6.000000
20
-104.500999
30
-22.045000
70
192
0
VERTEX
8
OBJECT__23
10
6.000000
20
-97.945000
30
-27.423000
70
192
0
VERTEX
8
OBJECT__23
10
0
20
0
30
0
70
128
71
1
72
2
73
3
0
VERTEX
8
OBJECT__23
10
0
20
0
30
0
70
128
71
2
72
4
73
5
0
VERTEX
8
OBJECT__23
10
0
20
0
30
0
70
128
71
6
72
7
73
8
0
VERTEX
8
OBJECT__23
10
0
20
0
30
0
70
128
71
9
72
10
73
11
0
VERTEX
8
OBJECT__23
10
0
20
0
30
0
70
128
71
10
72
12
73
13
0
VERTEX
8
OBJECT__23
10
0
20
0
30
0
70
128
71
12
72
1
73
14
0
VERTEX
8
OBJECT__23
10
0
20
0
30
0
70
128
71
5
72
3
73
2
0
VERTEX
8
OBJECT__23
10
0
20
0
30
0
70
128
71
15
72
16
73
17
0
VERTEX
8
OBJECT__23
10
0
20
0
30
0
70
128
71
18
72
19
73
16
0
VERTEX
8
OBJECT__23
10
0
20
0
30
0
70
128
71
6
72
9
73
7
0
VERTEX
8
OBJECT__23
10
0
20
0
30
0
70
128
71
13
72
11
73
10
0
VERTEX
8
OBJECT__23
10
0
20
0
30
0
70
128
71
3
72
14
73
1
0
VERTEX
8
OBJECT__23
10
0
20
0
30
0
70
128
71
4
72
20
73
21
0
VERTEX
8
OBJECT__23
10
0
20
0
30
0
70
128
71
22
72
17
73
21
0
VERTEX
8
OBJECT__23
10
0
20
0
30
0
70
128
71
16
72
15
73
18
0
VERTEX
8
OBJECT__23
10
0
20
0
30
0
70
128
71
23
72
24
73
19
0
VERTEX
8
OBJECT__23
10
0
20
0
30
0
70
128
71
25
72
26
73
24
0
VERTEX
8
OBJECT__23
10
0
20
0
30
0
70
128
71
27
72
8
73
26
0
VERTEX
8
OBJECT__23
10
0
20
0
30
0
70
128
71
11
72
7
73
9
0
VERTEX
8
OBJECT__23
10
0
20
0
30
0
70
128
71
21
72
5
73
4
0
VERTEX
8
OBJECT__23
10
0
20
0
30
0
70
128
71
17
72
22
73
15
0
VERTEX
8
OBJECT__23
10
0
20
0
30
0
70
128
71
24
72
23
73
25
0
VERTEX
8
OBJECT__23
10
0
20
0
30
0
70
128
71
8
72
27
73
6
0
VERTEX
8
OBJECT__23
10
0
20
0
30
0
70
128
71
21
72
20
73
22
0
VERTEX
8
OBJECT__23
10
0
20
0
30
0
70
128
71
26
72
25
73
27
0
VERTEX
8
OBJECT__23
10
0
20
0
30
0
70
128
71
19
72
18
73
23
0
VERTEX
8
OBJECT__23
10
0
20
0
30
0
70
128
71
14
72
13
73
12
0
SEQEND
8
OBJECT__23
0
POLYLINE
8
OBJECT__24
66
1
70
64
71
28
72
28
62
253
0
VERTEX
8
OBJECT__24
10
0.000000
20
-122.722000
30
15.491000
70
192
0
VERTEX
8
OBJECT__24
10
6.000000
20
-122.722000
30
15.491000
70
192
0
VERTEX
8
OBJECT__24
10
6.000000
20
-113.750000
30
23.816000
70
192
0
VERTEX
8
OBJECT__24
10
0.000000
20
-127.193001
30
4.099000
70
192
0
VERTEX
8
OBJECT__24
10
6.000000
20
-127.193001
30
4.099000
70
192
0
VERTEX
8
OBJECT__24
10
0.000000
20
-126.278000
30
-8.106000
70
192
0
VERTEX
8
OBJECT__24
10
6.000000
20
-126.278000
30
-8.106000
70
192
0
VERTEX
8
OBJECT__24
10
0.000000
20
-120.158997
30
-18.705000
70
192
0
VERTEX
8
OBJECT__24
10
6.000000
20
-120.158997
30
-18.705000
70
192
0
VERTEX
8
OBJECT__24
10
0.000000
20
-110.046997
30
-25.599001
70
192
0
VERTEX
8
OBJECT__24
10
6.000000
20
-110.046997
30
-25.599001
70
192
0
VERTEX
8
OBJECT__24
10
0.000000
20
-97.945000
30
-27.423000
70
192
0
VERTEX
8
OBJECT__24
10
6.000000
20
-97.945000
30
-27.423000
70
192
0
VERTEX
8
OBJECT__24
10
0.000000
20
-86.250000
30
-23.816000
70
192
0
VERTEX
8
OBJECT__24
10
6.000000
20
-86.250000
30
-23.816000
70
192
0
VERTEX
8
OBJECT__24
10
0.000000
20
-77.278000
30
-15.491000
70
192
0
VERTEX
8
OBJECT__24
10
6.000000
20
-77.278000
30
-15.491000
70
192
0
VERTEX
8
OBJECT__24
10
0.000000
20
-72.806999
30
-4.099000
70
192
0
VERTEX
8
OBJECT__24
10
6.000000
20
-72.806999
30
-4.099000
70
192
0
VERTEX
8
OBJECT__24
10
0.000000
20
-73.722000
30
8.106000
70
192
0
VERTEX
8
OBJECT__24
10
6.000000
20
-73.722000
30
8.106000
70
192
0
VERTEX
8
OBJECT__24
10
0.000000
20
-79.841003
30
18.705000
70
192
0
VERTEX
8
OBJECT__24
10
6.000000
20
-79.841003
30
18.705000
70
192
0
VERTEX
8
OBJECT__24
10
0.000000
20
-89.953003
30
25.599001
70
192
0
VERTEX
8
OBJECT__24
10
6.000000
20
-89.953003
30
25.599001
70
192
0
VERTEX
8
OBJECT__24
10
0.000000
20
-102.055000
30
27.423000
70
192
0
VERTEX
8
OBJECT__24
10
6.000000
20
-102.055000
30
27.423000
70
192
0
VERTEX
8
OBJECT__24
10
0.000000
20
-113.750000
30
23.816000
70
192
0
VERTEX
8
OBJECT__24
10
0
20
0
30
0
70
128
71
1
72
2
73
3
0
VERTEX
8
OBJECT__24
10
0
20
0
30
0
70
128
71
4
72
5
73
2
0
VERTEX
8
OBJECT__24
10
0
20
0
30
0
70
128
71
6
72
7
73
5
0
VERTEX
8
OBJECT__24
10
0
20
0
30
0
70
128
71
8
72
9
73
7
0
VERTEX
8
OBJECT__24
10
0
20
0
30
0
70
128
71
10
72
11
73
9
0
VERTEX
8
OBJECT__24
10
0
20
0
30
0
70
128
71
12
72
13
73
11
0
VERTEX
8
OBJECT__24
10
0
20
0
30
0
70
128
71
14
72
15
73
13
0
VERTEX
8
OBJECT__24
10
0
20
0
30
0
70
128
71
16
72
17
73
15
0
VERTEX
8
OBJECT__24
10
0
20
0
30
0
70
128
71
18
72
19
73
17
0
VERTEX
8
OBJECT__24
10
0
20
0
30
0
70
128
71
20
72
21
73
19
0
VERTEX
8
OBJECT__24
10
0
20
0
30
0
70
128
71
22
72
23
73
21
0
VERTEX
8
OBJECT__24
10
0
20
0
30
0
70
128
71
24
72
25
73
23
0
VERTEX
8
OBJECT__24
10
0
20
0
30
0
70
128
71
26
72
27
73
25
0
VERTEX
8
OBJECT__24
10
0
20
0
30
0
70
128
71
28
72
3
73
27
0
VERTEX
8
OBJECT__24
10
0
20
0
30
0
70
128
71
27
72
26
73
28
0
VERTEX
8
OBJECT__24
10
0
20
0
30
0
70
128
71
25
72
24
73
26
0
VERTEX
8
OBJECT__24
10
0
20
0
30
0
70
128
71
23
72
22
73
24
0
VERTEX
8
OBJECT__24
10
0
20
0
30
0
70
128
71
21
72
20
73
22
0
VERTEX
8
OBJECT__24
10
0
20
0
30
0
70
128
71
19
72
18
73
20
0
VERTEX
8
OBJECT__24
10
0
20
0
30
0
70
128
71
17
72
16
73
18
0
VERTEX
8
OBJECT__24
10
0
20
0
30
0
70
128
71
15
72
14
73
16
0
VERTEX
8
OBJECT__24
10
0
20
0
30
0
70
128
71
13
72
12
73
14
0
VERTEX
8
OBJECT__24
10
0
20
0
30
0
70
128
71
11
72
10
73
12
0
VERTEX
8
OBJECT__24
10
0
20
0
30
0
70
128
71
9
72
8
73
10
0
VERTEX
8
OBJECT__24
10
0
20
0
30
0
70
128
71
7
72
6
73
8
0
VERTEX
8
OBJECT__24
10
0
20
0
30
0
70
128
71
5
72
4
73
6
0
VERTEX
8
OBJECT__24
10
0
20
0
30
0
70
128
71
2
72
1
73
4
0
VERTEX
8
OBJECT__24
10
0
20
0
30
0
70
128
71
3
72
28
73
1
0
SEQEND
8
OBJECT__24
0
POLYLINE
8
OBJECT__25
66
1
70
64
71
14
72
12
62
253
0
VERTEX
8
OBJECT__25
10
0.000000
20
-110.046997
30
-25.599001
70
192
0
VERTEX
8
OBJECT__25
10
0.000000
20
-120.158997
30
-18.705000
70
192
0
VERTEX
8
OBJECT__25
10
0.000000
20
-126.278000
30
-8.106000
70
192
0
VERTEX
8
OBJECT__25
10
0.000000
20
-122.722000
30
15.491000
70
192
0
VERTEX
8
OBJECT__25
10
0.000000
20
-77.278000
30
-15.491000
70
192
0
VERTEX
8
OBJECT__25
10
0.000000
20
-86.250000
30
-23.816000
70
192
0
VERTEX
8
OBJECT__25
10
0.000000
20
-79.841003
30
18.705000
70
192
0
VERTEX
8
OBJECT__25
10
0.000000
20
-73.722000
30
8.106000
70
192
0
VERTEX
8
OBJECT__25
10
0.000000
20
-113.750000
30
23.816000
70
192
0
VERTEX
8
OBJECT__25
10
0.000000
20
-102.055000
30
27.423000
70
192
0
VERTEX
8
OBJECT__25
10
0.000000
20
-89.953003
30
25.599001
70
192
0
VERTEX
8
OBJECT__25
10
0.000000
20
-127.193001
30
4.099000
70
192
0
VERTEX
8
OBJECT__25
10
0.000000
20
-97.945000
30
-27.423000
70
192
0
VERTEX
8
OBJECT__25
10
0.000000
20
-72.806999
30
-4.099000
70
192
0
VERTEX
8
OBJECT__25
10
0
20
0
30
0
70
128
71
1
72
2
73
3
0
VERTEX
8
OBJECT__25
10
0
20
0
30
0
70
128
71
4
72
5
73
6
0
VERTEX
8
OBJECT__25
10
0
20
0
30
0
70
128
71
4
72
7
73
8
0
VERTEX
8
OBJECT__25
10
0
20
0
30
0
70
128
71
9
72
10
73
11
0
VERTEX
8
OBJECT__25
10
0
20
0
30
0
70
128
71
3
72
12
73
1
0
VERTEX
8
OBJECT__25
10
0
20
0
30
0
70
128
71
6
72
13
73
4
0
VERTEX
8
OBJECT__25
10
0
20
0
30
0
70
128
71
8
72
14
73
4
0
VERTEX
8
OBJECT__25
10
0
20
0
30
0
70
128
71
7
72
4
73
9
0
VERTEX
8
OBJECT__25
10
0
20
0
30
0
70
128
71
13
72
1
73
4
0
VERTEX
8
OBJECT__25
10
0
20
0
30
0
70
128
71
11
72
7
73
9
0
VERTEX
8
OBJECT__25
10
0
20
0
30
0
70
128
71
14
72
5
73
4
0
VERTEX
8
OBJECT__25
10
0
20
0
30
0
70
128
71
12
72
4
73
1
0
SEQEND
8
OBJECT__25
0
POLYLINE
8
OBJECT__26
66
1
70
64
71
47
72
60
62
253
0
VERTEX
8
OBJECT__26
10
162.589996
20
0.000000
30
-32.476002
70
192
0
VERTEX
8
OBJECT__26
10
162.667007
20
0.000000
30
-32.390999
70
192
0
VERTEX
8
OBJECT__26
10
163.835007
20
5.228000
30
-31.847000
70
192
0
VERTEX
8
OBJECT__26
10
163.768005
20
5.277000
30
-31.926001
70
192
0
VERTEX
8
OBJECT__26
10
167.070999
20
9.259000
30
-30.337999
70
192
0
VERTEX
8
OBJECT__26
10
167.035004
20
9.346000
30
-30.403000
70
192
0
VERTEX
8
OBJECT__26
10
171.634003
20
11.168000
30
-28.209999
70
192
0
VERTEX
8
OBJECT__26
10
176.531006
20
10.618000
30
-25.975000
70
192
0
VERTEX
8
OBJECT__26
10
171.641006
20
11.273000
30
-28.254999
70
192
0
VERTEX
8
OBJECT__26
10
180.585999
20
7.530000
30
-24.084999
70
192
0
VERTEX
8
OBJECT__26
10
176.479004
20
10.519000
30
-25.951000
70
192
0
VERTEX
8
OBJECT__26
10
182.875000
20
2.718000
30
-23.017000
70
192
0
VERTEX
8
OBJECT__26
10
180.494995
20
7.460000
30
-24.079000
70
192
0
VERTEX
8
OBJECT__26
10
182.875000
20
-2.718000
30
-23.017000
70
192
0
VERTEX
8
OBJECT__26
10
182.763000
20
2.692000
30
-23.021000
70
192
0
VERTEX
8
OBJECT__26
10
182.763000
20
-2.692000
30
-23.021000
70
192
0
VERTEX
8
OBJECT__26
10
180.494995
20
-7.460000
30
-24.079000
70
192
0
VERTEX
8
OBJECT__26
10
180.585999
20
-7.530000
30
-24.084999
70
192
0
VERTEX
8
OBJECT__26
10
176.479004
20
-10.519000
30
-25.951000
70
192
0
VERTEX
8
OBJECT__26
10
176.531006
20
-10.618000
30
-25.975000
70
192
0
VERTEX
8
OBJECT__26
10
171.634003
20
-11.168000
30
-28.209999
70
192
0
VERTEX
8
OBJECT__26
10
171.641006
20
-11.273000
30
-28.254999
70
192
0
VERTEX
8
OBJECT__26
10
167.070999
20
-9.259000
30
-30.337999
70
192
0
VERTEX
8
OBJECT__26
10
163.768005
20
-5.277000
30
-31.926001
70
192
0
VERTEX
8
OBJECT__26
10
167.035004
20
-9.346000
30
-30.403000
70
192
0
VERTEX
8
OBJECT__26
10
163.835007
20
-5.228000
30
-31.847000
70
192
0
VERTEX
8
OBJECT__26
10
162.595001
20
0.000000
30
-32.591000
70
192
0
VERTEX
8
OBJECT__26
10
167.057007
20
9.382000
30
-30.510000
70
192
0
VERTEX
8
OBJECT__26
10
165.233994
20
7.111000
30
-31.360001
70
192
0
VERTEX
8
OBJECT__26
10
171.173996
20
11.105000
30
-28.590000
70
192
0
VERTEX
8
OBJECT__26
10
171.681000
20
11.317000
30
-28.354000
70
192
0
VERTEX
8
OBJECT__26
10
180.660004
20
7.560000
30
-24.167000
70
192
0
VERTEX
8
OBJECT__26
10
177.940994
20
9.630000
30
-25.434999
70
192
0
VERTEX
8
OBJECT__26
10
182.451996
20
3.793000
30
-23.332001
70
192
0
VERTEX
8
OBJECT__26
10
182.957993
20
2.728000
30
-23.096001
70
192
0
VERTEX
8
OBJECT__26
10
182.957993
20
-2.728000
30
-23.096001
70
192
0
VERTEX
8
OBJECT__26
10
180.660004
20
-7.560000
30
-24.167000
70
192
0
VERTEX
8
OBJECT__26
10
182.451996
20
-3.793000
30
-23.332001
70
192
0
VERTEX
8
OBJECT__26
10
177.940994
20
-9.630000
30
-25.434999
70
192
0
VERTEX
8
OBJECT__26
10
176.589996
20
-10.659000
30
-26.065001
70
192
0
VERTEX
8
OBJECT__26
10
171.681000
20
-11.317000
30
-28.354000
70
192
0
VERTEX
8
OBJECT__26
10
167.057007
20
-9.382000
30
-30.510000
70
192
0
VERTEX
8
OBJECT__26
10
171.173996
20
-11.105000
30
-28.590000
70
192
0
VERTEX
8
OBJECT__26
10
165.233994
20
-7.111000
30
-31.360001
70
192
0
VERTEX
8
OBJECT__26
10
163.778000
20
-5.298000
30
-32.039001
70
192
0
VERTEX
8
OBJECT__26
10
176.589996
20
10.659000
30
-26.065001
70
192
0
VERTEX
8
OBJECT__26
10
163.778000
20
5.298000
30
-32.039001
70
192
0
VERTEX
8
OBJECT__26
10
0
20
0
30
0
70
128
71
1
72
2
73
3
0
VERTEX
8
OBJECT__26
10
0
20
0
30
0
70
128
71
4
72
3
73
5
0
VERTEX
8
OBJECT__26
10
0
20
0
30
0
70
128
71
6
72
5
73
7
0
VERTEX
8
OBJECT__26
10
0
20
0
30
0
70
128
71
8
72
9
73
7
0
VERTEX
8
OBJECT__26
10
0
20
0
30
0
70
128
71
10
72
8
73
11
0
VERTEX
8
OBJECT__26
10
0
20
0
30
0
70
128
71
12
72
10
73
13
0
VERTEX
8
OBJECT__26
10
0
20
0
30
0
70
128
71
14
72
12
73
15
0
VERTEX
8
OBJECT__26
10
0
20
0
30
0
70
128
71
14
72
16
73
17
0
VERTEX
8
OBJECT__26
10
0
20
0
30
0
70
128
71
18
72
17
73
19
0
VERTEX
8
OBJECT__26
10
0
20
0
30
0
70
128
71
20
72
19
73
21
0
VERTEX
8
OBJECT__26
10
0
20
0
30
0
70
128
71
22
72
21
73
23
0
VERTEX
8
OBJECT__26
10
0
20
0
30
0
70
128
71
24
72
25
73
23
0
VERTEX
8
OBJECT__26
10
0
20
0
30
0
70
128
71
1
72
24
73
26
0
VERTEX
8
OBJECT__26
10
0
20
0
30
0
70
128
71
27
72
1
73
4
0
VERTEX
8
OBJECT__26
10
0
20
0
30
0
70
128
71
6
72
28
73
29
0
VERTEX
8
OBJECT__26
10
0
20
0
30
0
70
128
71
29
72
4
73
6
0
VERTEX
8
OBJECT__26
10
0
20
0
30
0
70
128
71
6
72
9
73
30
0
VERTEX
8
OBJECT__26
10
0
20
0
30
0
70
128
71
9
72
31
73
30
0
VERTEX
8
OBJECT__26
10
0
20
0
30
0
70
128
71
31
72
9
73
8
0
VERTEX
8
OBJECT__26
10
0
20
0
30
0
70
128
71
10
72
32
73
33
0
VERTEX
8
OBJECT__26
10
0
20
0
30
0
70
128
71
33
72
8
73
10
0
VERTEX
8
OBJECT__26
10
0
20
0
30
0
70
128
71
10
72
12
73
34
0
VERTEX
8
OBJECT__26
10
0
20
0
30
0
70
128
71
12
72
35
73
34
0
VERTEX
8
OBJECT__26
10
0
20
0
30
0
70
128
71
36
72
35
73
12
0
VERTEX
8
OBJECT__26
10
0
20
0
30
0
70
128
71
18
72
37
73
38
0
VERTEX
8
OBJECT__26
10
0
20
0
30
0
70
128
71
38
72
14
73
18
0
VERTEX
8
OBJECT__26
10
0
20
0
30
0
70
128
71
18
72
20
73
39
0
VERTEX
8
OBJECT__26
10
0
20
0
30
0
70
128
71
20
72
40
73
39
0
VERTEX
8
OBJECT__26
10
0
20
0
30
0
70
128
71
41
72
40
73
20
0
VERTEX
8
OBJECT__26
10
0
20
0
30
0
70
128
71
25
72
42
73
43
0
VERTEX
8
OBJECT__26
10
0
20
0
30
0
70
128
71
43
72
22
73
25
0
VERTEX
8
OBJECT__26
10
0
20
0
30
0
70
128
71
25
72
24
73
44
0
VERTEX
8
OBJECT__26
10
0
20
0
30
0
70
128
71
24
72
45
73
44
0
VERTEX
8
OBJECT__26
10
0
20
0
30
0
70
128
71
45
72
24
73
1
0
VERTEX
8
OBJECT__26
10
0
20
0
30
0
70
128
71
1
72
27
73
45
0
VERTEX
8
OBJECT__26
10
0
20
0
30
0
70
128
71
44
72
42
73
25
0
VERTEX
8
OBJECT__26
10
0
20
0
30
0
70
128
71
43
72
41
73
22
0
VERTEX
8
OBJECT__26
10
0
20
0
30
0
70
128
71
20
72
22
73
41
0
VERTEX
8
OBJECT__26
10
0
20
0
30
0
70
128
71
39
72
37
73
18
0
VERTEX
8
OBJECT__26
10
0
20
0
30
0
70
128
71
38
72
36
73
14
0
VERTEX
8
OBJECT__26
10
0
20
0
30
0
70
128
71
12
72
14
73
36
0
VERTEX
8
OBJECT__26
10
0
20
0
30
0
70
128
71
34
72
32
73
10
0
VERTEX
8
OBJECT__26
10
0
20
0
30
0
70
128
71
33
72
46
73
8
0
VERTEX
8
OBJECT__26
10
0
20
0
30
0
70
128
71
8
72
46
73
31
0
VERTEX
8
OBJECT__26
10
0
20
0
30
0
70
128
71
30
72
28
73
6
0
VERTEX
8
OBJECT__26
10
0
20
0
30
0
70
128
71
29
72
47
73
4
0
VERTEX
8
OBJECT__26
10
0
20
0
30
0
70
128
71
4
72
47
73
27
0
VERTEX
8
OBJECT__26
10
0
20
0
30
0
70
128
71
26
72
2
73
1
0
VERTEX
8
OBJECT__26
10
0
20
0
30
0
70
128
71
23
72
26
73
24
0
VERTEX
8
OBJECT__26
10
0
20
0
30
0
70
128
71
23
72
25
73
22
0
VERTEX
8
OBJECT__26
10
0
20
0
30
0
70
128
71
21
72
22
73
20
0
VERTEX
8
OBJECT__26
10
0
20
0
30
0
70
128
71
19
72
20
73
18
0
VERTEX
8
OBJECT__26
10
0
20
0
30
0
70
128
71
17
72
18
73
14
0
VERTEX
8
OBJECT__26
10
0
20
0
30
0
70
128
71
15
72
16
73
14
0
VERTEX
8
OBJECT__26
10
0
20
0
30
0
70
128
71
13
72
15
73
12
0
VERTEX
8
OBJECT__26
10
0
20
0
30
0
70
128
71
11
72
13
73
10
0
VERTEX
8
OBJECT__26
10
0
20
0
30
0
70
128
71
7
72
11
73
8
0
VERTEX
8
OBJECT__26
10
0
20
0
30
0
70
128
71
7
72
9
73
6
0
VERTEX
8
OBJECT__26
10
0
20
0
30
0
70
128
71
5
72
6
73
4
0
VERTEX
8
OBJECT__26
10
0
20
0
30
0
70
128
71
3
72
4
73
1
0
SEQEND
8
OBJECT__26
0
POLYLINE
8
OBJECT__27
66
1
70
64
71
30
72
30
62
253
0
VERTEX
8
OBJECT__27
10
169.714996
20
0.000000
30
-47.862000
70
192
0
VERTEX
8
OBJECT__27
10
162.595001
20
0.000000
30
-32.591000
70
192
0
VERTEX
8
OBJECT__27
10
163.778000
20
5.298000
30
-32.039001
70
192
0
VERTEX
8
OBJECT__27
10
172.132004
20
7.328000
30
-46.735001
70
192
0
VERTEX
8
OBJECT__27
10
178.253006
20
11.227000
30
-43.881001
70
192
0
VERTEX
8
OBJECT__27
10
167.057007
20
9.382000
30
-30.510000
70
192
0
VERTEX
8
OBJECT__27
10
165.233994
20
7.111000
30
-31.360001
70
192
0
VERTEX
8
OBJECT__27
10
171.681000
20
11.317000
30
-28.354000
70
192
0
VERTEX
8
OBJECT__27
10
176.589996
20
10.659000
30
-26.065001
70
192
0
VERTEX
8
OBJECT__27
10
185.212997
20
9.873000
30
-40.636002
70
192
0
VERTEX
8
OBJECT__27
10
171.173996
20
11.105000
30
-28.590000
70
192
0
VERTEX
8
OBJECT__27
10
189.755997
20
3.899000
30
-38.518002
70
192
0
VERTEX
8
OBJECT__27
10
180.660004
20
7.560000
30
-24.167000
70
192
0
VERTEX
8
OBJECT__27
10
177.940994
20
9.630000
30
-25.434999
70
192
0
VERTEX
8
OBJECT__27
10
189.755997
20
-3.899000
30
-38.518002
70
192
0
VERTEX
8
OBJECT__27
10
182.957993
20
2.728000
30
-23.096001
70
192
0
VERTEX
8
OBJECT__27
10
182.451996
20
3.793000
30
-23.332001
70
192
0
VERTEX
8
OBJECT__27
10
182.957993
20
-2.728000
30
-23.096001
70
192
0
VERTEX
8
OBJECT__27
10
182.451996
20
-3.793000
30
-23.332001
70
192
0
VERTEX
8
OBJECT__27
10
180.660004
20
-7.560000
30
-24.167000
70
192
0
VERTEX
8
OBJECT__27
10
185.212997
20
-9.873000
30
-40.636002
70
192
0
VERTEX
8
OBJECT__27
10
178.253006
20
-11.227000
30
-43.881001
70
192
0
VERTEX
8
OBJECT__27
10
176.589996
20
-10.659000
30
-26.065001
70
192
0
VERTEX
8
OBJECT__27
10
171.681000
20
-11.317000
30
-28.354000
70
192
0
VERTEX
8
OBJECT__27
10
177.940994
20
-9.630000
30
-25.434999
70
192
0
VERTEX
8
OBJECT__27
10
171.173996
20
-11.105000
30
-28.590000
70
192
0
VERTEX
8
OBJECT__27
10
167.057007
20
-9.382000
30
-30.510000
70
192
0
VERTEX
8
OBJECT__27
10
172.132004
20
-7.328000
30
-46.735001
70
192
0
VERTEX
8
OBJECT__27
10
163.778000
20
-5.298000
30
-32.039001
70
192
0
VERTEX
8
OBJECT__27
10
165.233994
20
-7.111000
30
-31.360001
70
192
0
VERTEX
8
OBJECT__27
10
0
20
0
30
0
70
128
71
1
72
2
73
3
0
VERTEX
8
OBJECT__27
10
0
20
0
30
0
70
128
71
3
72
4
73
1
0
VERTEX
8
OBJECT__27
10
0
20
0
30
0
70
128
71
5
72
4
73
6
0
VERTEX
8
OBJECT__27
10
0
20
0
30
0
70
128
71
4
72
7
73
6
0
VERTEX
8
OBJECT__27
10
0
20
0
30
0
70
128
71
5
72
8
73
9
0
VERTEX
8
OBJECT__27
10
0
20
0
30
0
70
128
71
9
72
10
73
5
0
VERTEX
8
OBJECT__27
10
0
20
0
30
0
70
128
71
5
72
11
73
8
0
VERTEX
8
OBJECT__27
10
0
20
0
30
0
70
128
71
12
72
10
73
13
0
VERTEX
8
OBJECT__27
10
0
20
0
30
0
70
128
71
10
72
14
73
13
0
VERTEX
8
OBJECT__27
10
0
20
0
30
0
70
128
71
15
72
12
73
16
0
VERTEX
8
OBJECT__27
10
0
20
0
30
0
70
128
71
12
72
17
73
16
0
VERTEX
8
OBJECT__27
10
0
20
0
30
0
70
128
71
16
72
18
73
15
0
VERTEX
8
OBJECT__27
10
0
20
0
30
0
70
128
71
15
72
19
73
20
0
VERTEX
8
OBJECT__27
10
0
20
0
30
0
70
128
71
20
72
21
73
15
0
VERTEX
8
OBJECT__27
10
0
20
0
30
0
70
128
71
22
72
21
73
23
0
VERTEX
8
OBJECT__27
10
0
20
0
30
0
70
128
71
23
72
24
73
22
0
VERTEX
8
OBJECT__27
10
0
20
0
30
0
70
128
71
21
72
25
73
23
0
VERTEX
8
OBJECT__27
10
0
20
0
30
0
70
128
71
22
72
26
73
27
0
VERTEX
8
OBJECT__27
10
0
20
0
30
0
70
128
71
27
72
28
73
22
0
VERTEX
8
OBJECT__27
10
0
20
0
30
0
70
128
71
1
72
28
73
29
0
VERTEX
8
OBJECT__27
10
0
20
0
30
0
70
128
71
28
72
30
73
29
0
VERTEX
8
OBJECT__27
10
0
20
0
30
0
70
128
71
29
72
2
73
1
0
VERTEX
8
OBJECT__27
10
0
20
0
30
0
70
128
71
27
72
30
73
28
0
VERTEX
8
OBJECT__27
10
0
20
0
30
0
70
128
71
24
72
26
73
22
0
VERTEX
8
OBJECT__27
10
0
20
0
30
0
70
128
71
20
72
25
73
21
0
VERTEX
8
OBJECT__27
10
0
20
0
30
0
70
128
71
18
72
19
73
15
0
VERTEX
8
OBJECT__27
10
0
20
0
30
0
70
128
71
13
72
17
73
12
0
VERTEX
8
OBJECT__27
10
0
20
0
30
0
70
128
71
9
72
14
73
10
0
VERTEX
8
OBJECT__27
10
0
20
0
30
0
70
128
71
6
72
11
73
5
0
VERTEX
8
OBJECT__27
10
0
20
0
30
0
70
128
71
3
72
7
73
4
0
SEQEND
8
OBJECT__27
0
POLYLINE
8
OBJECT__29
66
1
70
64
71
9
72
7
62
253
0
VERTEX
8
OBJECT__29
10
169.714996
20
0.000000
30
-47.862000
70
192
0
VERTEX
8
OBJECT__29
10
185.212997
20
9.873000
30
-40.636002
70
192
0
VERTEX
8
OBJECT__29
10
189.755997
20
3.899000
30
-38.518002
70
192
0
VERTEX
8
OBJECT__29
10
172.132004
20
7.328000
30
-46.735001
70
192
0
VERTEX
8
OBJECT__29
10
178.253006
20
11.227000
30
-43.881001
70
192
0
VERTEX
8
OBJECT__29
10
185.212997
20
-9.873000
30
-40.636002
70
192
0
VERTEX
8
OBJECT__29
10
178.253006
20
-11.227000
30
-43.881001
70
192
0
VERTEX
8
OBJECT__29
10
189.755997
20
-3.899000
30
-38.518002
70
192
0
VERTEX
8
OBJECT__29
10
172.132004
20
-7.328000
30
-46.735001
70
192
0
VERTEX
8
OBJECT__29
10
0
20
0
30
0
70
128
71
1
72
2
73
3
0
VERTEX
8
OBJECT__29
10
0
20
0
30
0
70
128
71
1
72
4
73
5
0
VERTEX
8
OBJECT__29
10
0
20
0
30
0
70
128
71
1
72
6
73
7
0
VERTEX
8
OBJECT__29
10
0
20
0
30
0
70
128
71
5
72
2
73
1
0
VERTEX
8
OBJECT__29
10
0
20
0
30
0
70
128
71
1
72
8
73
6
0
VERTEX
8
OBJECT__29
10
0
20
0
30
0
70
128
71
7
72
9
73
1
0
VERTEX
8
OBJECT__29
10
0
20
0
30
0
70
128
71
3
72
8
73
1
0
SEQEND
8
OBJECT__29
0
POLYLINE
8
OBJECT__30
66
1
70
64
71
7
72
5
62
253
0
VERTEX
8
OBJECT__30
10
78.941002
20
-160.000000
30
-4.691000
70
192
0
VERTEX
8
OBJECT__30
10
69.793999
20
-160.000000
30
2.603000
70
192
0
VERTEX
8
OBJECT__30
10
69.793999
20
-160.000000
30
-2.603000
70
192
0
VERTEX
8
OBJECT__30
10
81.199997
20
-160.000000
30
0.000000
70
192
0
VERTEX
8
OBJECT__30
10
78.941002
20
-160.000000
30
4.691000
70
192
0
VERTEX
8
OBJECT__30
10
73.864998
20
-160.000000
30
5.850000
70
192
0
VERTEX
8
OBJECT__30
10
73.864998
20
-160.000000
30
-5.850000
70
192
0
VERTEX
8
OBJECT__30
10
0
20
0
30
0
70
128
71
1
72
2
73
3
0
VERTEX
8
OBJECT__30
10
0
20
0
30
0
70
128
71
1
72
4
73
5
0
VERTEX
8
OBJECT__30
10
0
20
0
30
0
70
128
71
1
72
6
73
2
0
VERTEX
8
OBJECT__30
10
0
20
0
30
0
70
128
71
3
72
7
73
1
0
VERTEX
8
OBJECT__30
10
0
20
0
30
0
70
128
71
5
72
6
73
1
0
SEQEND
8
OBJECT__30
0
POLYLINE
8
OBJECT__31
66
1
70
64
71
48
72
50
62
253
0
VERTEX
8
OBJECT__31
10
78.941002
20
-84.000000
30
4.691000
70
192
0
VERTEX
8
OBJECT__31
10
78.941002
20
-160.000000
30
4.691000
70
192
0
VERTEX
8
OBJECT__31
10
81.199997
20
-160.000000
30
0.000000
70
192
0
VERTEX
8
OBJECT__31
10
78.941002
20
-160.000000
30
-4.691000
70
192
0
VERTEX
8
OBJECT__31
10
78.941002
20
-84.000000
30
-4.691000
70
192
0
VERTEX
8
OBJECT__31
10
73.864998
20
-160.000000
30
5.850000
70
192
0
VERTEX
8
OBJECT__31
10
70.297997
20
-110.442001
30
3.459000
70
192
0
VERTEX
8
OBJECT__31
10
69.855003
20
-110.662003
30
2.573000
70
192
0
VERTEX
8
OBJECT__31
10
73.870003
20
-109.338997
30
5.811000
70
192
0
VERTEX
8
OBJECT__31
10
73.526001
20
-109.370003
30
5.762000
70
192
0
VERTEX
8
OBJECT__31
10
71.630997
20
-109.886002
30
4.823000
70
192
0
VERTEX
8
OBJECT__31
10
70.587997
20
-110.320999
30
3.756000
70
192
0
VERTEX
8
OBJECT__31
10
69.793999
20
-160.000000
30
-2.603000
70
192
0
VERTEX
8
OBJECT__31
10
69.793999
20
-160.000000
30
2.603000
70
192
0
VERTEX
8
OBJECT__31
10
69.199997
20
-111.000000
30
0.000000
70
192
0
VERTEX
8
OBJECT__31
10
69.487999
20
-110.846001
30
1.835000
70
192
0
VERTEX
8
OBJECT__31
10
69.302002
20
-110.945000
30
-1.103000
70
192
0
VERTEX
8
OBJECT__31
10
73.864998
20
-160.000000
30
-5.850000
70
192
0
VERTEX
8
OBJECT__31
10
71.371002
20
-109.983002
30
-4.619000
70
192
0
VERTEX
8
OBJECT__31
10
72.872002
20
-109.509003
30
-5.530000
70
192
0
VERTEX
8
OBJECT__31
10
70.625999
20
-110.308998
30
-3.752000
70
192
0
VERTEX
8
OBJECT__31
10
70.056000
20
-110.556999
30
-3.089000
70
192
0
VERTEX
8
OBJECT__31
10
69.862000
20
-110.656998
30
-2.577000
70
192
0
VERTEX
8
OBJECT__31
10
73.864998
20
-84.000000
30
-5.850000
70
192
0
VERTEX
8
OBJECT__31
10
75.199997
20
-90.779999
30
-6.000000
70
192
0
VERTEX
8
OBJECT__31
10
75.199997
20
-109.220001
30
-6.000000
70
192
0
VERTEX
8
OBJECT__31
10
73.878998
20
-109.347000
30
-5.795000
70
192
0
VERTEX
8
OBJECT__31
10
74.505997
20
-109.246002
30
-5.960000
70
192
0
VERTEX
8
OBJECT__31
10
69.793999
20
-84.000000
30
-2.603000
70
192
0
VERTEX
8
OBJECT__31
10
70.396004
20
-89.603996
30
-3.595000
70
192
0
VERTEX
8
OBJECT__31
10
73.873001
20
-90.651001
30
-5.795000
70
192
0
VERTEX
8
OBJECT__31
10
73.389000
20
-90.603996
30
-5.720000
70
192
0
VERTEX
8
OBJECT__31
10
71.790001
20
-90.169998
30
-4.937000
70
192
0
VERTEX
8
OBJECT__31
10
69.793999
20
-84.000000
30
2.603000
70
192
0
VERTEX
8
OBJECT__31
10
69.207001
20
-89.003998
30
0.294000
70
192
0
VERTEX
8
OBJECT__31
10
69.558998
20
-89.192001
30
2.045000
70
192
0
VERTEX
8
OBJECT__31
10
69.241997
20
-89.023003
30
0.001000
70
192
0
VERTEX
8
OBJECT__31
10
69.443001
20
-89.130997
30
-1.690000
70
192
0
VERTEX
8
OBJECT__31
10
69.878998
20
-89.347000
30
-2.561000
70
192
0
VERTEX
8
OBJECT__31
10
73.864998
20
-84.000000
30
5.850000
70
192
0
VERTEX
8
OBJECT__31
10
71.793999
20
-90.171997
30
4.940000
70
192
0
VERTEX
8
OBJECT__31
10
73.730003
20
-90.664001
30
5.817000
70
192
0
VERTEX
8
OBJECT__31
10
70.401001
20
-89.606003
30
3.602000
70
192
0
VERTEX
8
OBJECT__31
10
69.846001
20
-89.333000
30
2.575000
70
192
0
VERTEX
8
OBJECT__31
10
75.199997
20
-109.220001
30
6.000000
70
192
0
VERTEX
8
OBJECT__31
10
75.199997
20
-90.779999
30
6.000000
70
192
0
VERTEX
8
OBJECT__31
10
73.866997
20
-90.675003
30
5.834000
70
192
0
VERTEX
8
OBJECT__31
10
81.199997
20
-84.000000
30
0.000000
70
192
0
VERTEX
8
OBJECT__31
10
0
20
0
30
0
70
128
71
1
72
2
73
3
0
VERTEX
8
OBJECT__31
10
0
20
0
30
0
70
128
71
3
72
4
73
5
0
VERTEX
8
OBJECT__31
10
0
20
0
30
0
70
128
71
6
72
7
73
8
0
VERTEX
8
OBJECT__31
10
0
20
0
30
0
70
128
71
6
72
9
73
10
0
VERTEX
8
OBJECT__31
10
0
20
0
30
0
70
128
71
10
72
11
73
6
0
VERTEX
8
OBJECT__31
10
0
20
0
30
0
70
128
71
11
72
12
73
6
0
VERTEX
8
OBJECT__31
10
0
20
0
30
0
70
128
71
12
72
7
73
6
0
VERTEX
8
OBJECT__31
10
0
20
0
30
0
70
128
71
13
72
14
73
15
0
VERTEX
8
OBJECT__31
10
0
20
0
30
0
70
128
71
14
72
16
73
15
0
VERTEX
8
OBJECT__31
10
0
20
0
30
0
70
128
71
15
72
17
73
13
0
VERTEX
8
OBJECT__31
10
0
20
0
30
0
70
128
71
14
72
8
73
16
0
VERTEX
8
OBJECT__31
10
0
20
0
30
0
70
128
71
18
72
19
73
20
0
VERTEX
8
OBJECT__31
10
0
20
0
30
0
70
128
71
18
72
21
73
19
0
VERTEX
8
OBJECT__31
10
0
20
0
30
0
70
128
71
18
72
22
73
21
0
VERTEX
8
OBJECT__31
10
0
20
0
30
0
70
128
71
18
72
13
73
23
0
VERTEX
8
OBJECT__31
10
0
20
0
30
0
70
128
71
23
72
22
73
18
0
VERTEX
8
OBJECT__31
10
0
20
0
30
0
70
128
71
24
72
5
73
25
0
VERTEX
8
OBJECT__31
10
0
20
0
30
0
70
128
71
5
72
4
73
26
0
VERTEX
8
OBJECT__31
10
0
20
0
30
0
70
128
71
26
72
25
73
5
0
VERTEX
8
OBJECT__31
10
0
20
0
30
0
70
128
71
4
72
18
73
27
0
VERTEX
8
OBJECT__31
10
0
20
0
30
0
70
128
71
27
72
28
73
4
0
VERTEX
8
OBJECT__31
10
0
20
0
30
0
70
128
71
28
72
26
73
4
0
VERTEX
8
OBJECT__31
10
0
20
0
30
0
70
128
71
29
72
24
73
30
0
VERTEX
8
OBJECT__31
10
0
20
0
30
0
70
128
71
24
72
31
73
32
0
VERTEX
8
OBJECT__31
10
0
20
0
30
0
70
128
71
32
72
33
73
24
0
VERTEX
8
OBJECT__31
10
0
20
0
30
0
70
128
71
33
72
30
73
24
0
VERTEX
8
OBJECT__31
10
0
20
0
30
0
70
128
71
34
72
35
73
36
0
VERTEX
8
OBJECT__31
10
0
20
0
30
0
70
128
71
29
72
37
73
35
0
VERTEX
8
OBJECT__31
10
0
20
0
30
0
70
128
71
29
72
38
73
37
0
VERTEX
8
OBJECT__31
10
0
20
0
30
0
70
128
71
35
72
34
73
29
0
VERTEX
8
OBJECT__31
10
0
20
0
30
0
70
128
71
29
72
39
73
38
0
VERTEX
8
OBJECT__31
10
0
20
0
30
0
70
128
71
40
72
41
73
42
0
VERTEX
8
OBJECT__31
10
0
20
0
30
0
70
128
71
40
72
43
73
41
0
VERTEX
8
OBJECT__31
10
0
20
0
30
0
70
128
71
34
72
44
73
43
0
VERTEX
8
OBJECT__31
10
0
20
0
30
0
70
128
71
43
72
40
73
34
0
VERTEX
8
OBJECT__31
10
0
20
0
30
0
70
128
71
2
72
45
73
9
0
VERTEX
8
OBJECT__31
10
0
20
0
30
0
70
128
71
1
72
46
73
45
0
VERTEX
8
OBJECT__31
10
0
20
0
30
0
70
128
71
45
72
2
73
1
0
VERTEX
8
OBJECT__31
10
0
20
0
30
0
70
128
71
40
72
47
73
46
0
VERTEX
8
OBJECT__31
10
0
20
0
30
0
70
128
71
46
72
1
73
40
0
VERTEX
8
OBJECT__31
10
0
20
0
30
0
70
128
71
9
72
6
73
2
0
VERTEX
8
OBJECT__31
10
0
20
0
30
0
70
128
71
42
72
47
73
40
0
VERTEX
8
OBJECT__31
10
0
20
0
30
0
70
128
71
36
72
44
73
34
0
VERTEX
8
OBJECT__31
10
0
20
0
30
0
70
128
71
30
72
39
73
29
0
VERTEX
8
OBJECT__31
10
0
20
0
30
0
70
128
71
25
72
31
73
24
0
VERTEX
8
OBJECT__31
10
0
20
0
30
0
70
128
71
20
72
27
73
18
0
VERTEX
8
OBJECT__31
10
0
20
0
30
0
70
128
71
17
72
23
73
13
0
VERTEX
8
OBJECT__31
10
0
20
0
30
0
70
128
71
8
72
14
73
6
0
VERTEX
8
OBJECT__31
10
0
20
0
30
0
70
128
71
5
72
48
73
3
0
VERTEX
8
OBJECT__31
10
0
20
0
30
0
70
128
71
3
72
48
73
1
0
SEQEND
8
OBJECT__31
0
POLYLINE
8
OBJECT__33
66
1
70
64
71
50
72
50
62
253
0
VERTEX
8
OBJECT__33
10
54.700001
20
-98.089996
30
10.833000
70
192
0
VERTEX
8
OBJECT__33
10
75.199997
20
-98.089996
30
10.833000
70
192
0
VERTEX
8
OBJECT__33
10
75.199997
20
-91.573997
30
7.071000
70
192
0
VERTEX
8
OBJECT__33
10
75.199997
20
-105.500000
30
9.526000
70
192
0
VERTEX
8
OBJECT__33
10
54.700001
20
-100.000000
30
11.000000
70
192
0
VERTEX
8
OBJECT__33
10
54.700001
20
-98.089996
30
-10.833000
70
192
0
VERTEX
8
OBJECT__33
10
75.199997
20
-98.089996
30
-10.833000
70
192
0
VERTEX
8
OBJECT__33
10
75.199997
20
-105.500000
30
-9.526000
70
192
0
VERTEX
8
OBJECT__33
10
54.700001
20
-91.573997
30
-7.071000
70
192
0
VERTEX
8
OBJECT__33
10
75.199997
20
-91.573997
30
-7.071000
70
192
0
VERTEX
8
OBJECT__33
10
54.700001
20
-105.500000
30
-9.526000
70
192
0
VERTEX
8
OBJECT__33
10
71.371002
20
-109.983002
30
-4.619000
70
192
0
VERTEX
8
OBJECT__33
10
70.625999
20
-110.308998
30
-3.752000
70
192
0
VERTEX
8
OBJECT__33
10
72.872002
20
-109.509003
30
-5.530000
70
192
0
VERTEX
8
OBJECT__33
10
73.878998
20
-109.347000
30
-5.795000
70
192
0
VERTEX
8
OBJECT__33
10
74.505997
20
-109.246002
30
-5.960000
70
192
0
VERTEX
8
OBJECT__33
10
75.199997
20
-109.220001
30
-6.000000
70
192
0
VERTEX
8
OBJECT__33
10
54.700001
20
-110.336998
30
3.762000
70
192
0
VERTEX
8
OBJECT__33
10
69.487999
20
-110.846001
30
1.835000
70
192
0
VERTEX
8
OBJECT__33
10
69.855003
20
-110.662003
30
2.573000
70
192
0
VERTEX
8
OBJECT__33
10
54.700001
20
-110.336998
30
-3.762000
70
192
0
VERTEX
8
OBJECT__33
10
69.302002
20
-110.945000
30
-1.103000
70
192
0
VERTEX
8
OBJECT__33
10
69.199997
20
-111.000000
30
0.000000
70
192
0
VERTEX
8
OBJECT__33
10
70.056000
20
-110.556999
30
-3.089000
70
192
0
VERTEX
8
OBJECT__33
10
69.862000
20
-110.656998
30
-2.577000
70
192
0
VERTEX
8
OBJECT__33
10
70.297997
20
-110.442001
30
3.459000
70
192
0
VERTEX
8
OBJECT__33
10
73.526001
20
-109.370003
30
5.762000
70
192
0
VERTEX
8
OBJECT__33
10
73.870003
20
-109.338997
30
5.811000
70
192
0
VERTEX
8
OBJECT__33
10
54.700001
20
-105.500000
30
9.526000
70
192
0
VERTEX
8
OBJECT__33
10
71.630997
20
-109.886002
30
4.823000
70
192
0
VERTEX
8
OBJECT__33
10
70.587997
20
-110.320999
30
3.756000
70
192
0
VERTEX
8
OBJECT__33
10
54.700001
20
-91.573997
30
7.071000
70
192
0
VERTEX
8
OBJECT__33
10
69.558998
20
-89.192001
30
2.045000
70
192
0
VERTEX
8
OBJECT__33
10
69.207001
20
-89.003998
30
0.294000
70
192
0
VERTEX
8
OBJECT__33
10
70.401001
20
-89.606003
30
3.602000
70
192
0
VERTEX
8
OBJECT__33
10
69.846001
20
-89.333000
30
2.575000
70
192
0
VERTEX
8
OBJECT__33
10
71.793999
20
-90.171997
30
4.940000
70
192
0
VERTEX
8
OBJECT__33
10
73.730003
20
-90.664001
30
5.817000
70
192
0
VERTEX
8
OBJECT__33
10
75.199997
20
-90.779999
30
6.000000
70
192
0
VERTEX
8
OBJECT__33
10
73.866997
20
-90.675003
30
5.834000
70
192
0
VERTEX
8
OBJECT__33
10
54.700001
20
-89.000000
30
0.000000
70
192
0
VERTEX
8
OBJECT__33
10
73.389000
20
-90.603996
30
-5.720000
70
192
0
VERTEX
8
OBJECT__33
10
73.873001
20
-90.651001
30
-5.795000
70
192
0
VERTEX
8
OBJECT__33
10
70.396004
20
-89.603996
30
-3.595000
70
192
0
VERTEX
8
OBJECT__33
10
71.790001
20
-90.169998
30
-4.937000
70
192
0
VERTEX
8
OBJECT__33
10
69.443001
20
-89.130997
30
-1.690000
70
192
0
VERTEX
8
OBJECT__33
10
69.878998
20
-89.347000
30
-2.561000
70
192
0
VERTEX
8
OBJECT__33
10
69.241997
20
-89.023003
30
0.001000
70
192
0
VERTEX
8
OBJECT__33
10
75.199997
20
-90.779999
30
-6.000000
70
192
0
VERTEX
8
OBJECT__33
10
75.199997
20
-109.220001
30
6.000000
70
192
0
VERTEX
8
OBJECT__33
10
0
20
0
30
0
70
128
71
1
72
2
73
3
0
VERTEX
8
OBJECT__33
10
0
20
0
30
0
70
128
71
4
72
2
73
5
0
VERTEX
8
OBJECT__33
10
0
20
0
30
0
70
128
71
2
72
1
73
5
0
VERTEX
8
OBJECT__33
10
0
20
0
30
0
70
128
71
6
72
7
73
8
0
VERTEX
8
OBJECT__33
10
0
20
0
30
0
70
128
71
6
72
9
73
10
0
VERTEX
8
OBJECT__33
10
0
20
0
30
0
70
128
71
11
72
12
73
13
0
VERTEX
8
OBJECT__33
10
0
20
0
30
0
70
128
71
11
72
14
73
12
0
VERTEX
8
OBJECT__33
10
0
20
0
30
0
70
128
71
8
72
15
73
14
0
VERTEX
8
OBJECT__33
10
0
20
0
30
0
70
128
71
8
72
16
73
15
0
VERTEX
8
OBJECT__33
10
0
20
0
30
0
70
128
71
8
72
17
73
16
0
VERTEX
8
OBJECT__33
10
0
20
0
30
0
70
128
71
14
72
11
73
8
0
VERTEX
8
OBJECT__33
10
0
20
0
30
0
70
128
71
18
72
19
73
20
0
VERTEX
8
OBJECT__33
10
0
20
0
30
0
70
128
71
21
72
22
73
23
0
VERTEX
8
OBJECT__33
10
0
20
0
30
0
70
128
71
23
72
18
73
21
0
VERTEX
8
OBJECT__33
10
0
20
0
30
0
70
128
71
21
72
24
73
25
0
VERTEX
8
OBJECT__33
10
0
20
0
30
0
70
128
71
25
72
22
73
21
0
VERTEX
8
OBJECT__33
10
0
20
0
30
0
70
128
71
23
72
19
73
18
0
VERTEX
8
OBJECT__33
10
0
20
0
30
0
70
128
71
20
72
26
73
18
0
VERTEX
8
OBJECT__33
10
0
20
0
30
0
70
128
71
21
72
13
73
24
0
VERTEX
8
OBJECT__33
10
0
20
0
30
0
70
128
71
4
72
27
73
28
0
VERTEX
8
OBJECT__33
10
0
20
0
30
0
70
128
71
29
72
30
73
27
0
VERTEX
8
OBJECT__33
10
0
20
0
30
0
70
128
71
29
72
18
73
31
0
VERTEX
8
OBJECT__33
10
0
20
0
30
0
70
128
71
31
72
30
73
29
0
VERTEX
8
OBJECT__33
10
0
20
0
30
0
70
128
71
27
72
4
73
29
0
VERTEX
8
OBJECT__33
10
0
20
0
30
0
70
128
71
32
72
33
73
34
0
VERTEX
8
OBJECT__33
10
0
20
0
30
0
70
128
71
32
72
35
73
36
0
VERTEX
8
OBJECT__33
10
0
20
0
30
0
70
128
71
32
72
37
73
35
0
VERTEX
8
OBJECT__33
10
0
20
0
30
0
70
128
71
36
72
33
73
32
0
VERTEX
8
OBJECT__33
10
0
20
0
30
0
70
128
71
32
72
3
73
38
0
VERTEX
8
OBJECT__33
10
0
20
0
30
0
70
128
71
38
72
37
73
32
0
VERTEX
8
OBJECT__33
10
0
20
0
30
0
70
128
71
3
72
39
73
40
0
VERTEX
8
OBJECT__33
10
0
20
0
30
0
70
128
71
40
72
38
73
3
0
VERTEX
8
OBJECT__33
10
0
20
0
30
0
70
128
71
34
72
41
73
32
0
VERTEX
8
OBJECT__33
10
0
20
0
30
0
70
128
71
10
72
9
73
42
0
VERTEX
8
OBJECT__33
10
0
20
0
30
0
70
128
71
42
72
43
73
10
0
VERTEX
8
OBJECT__33
10
0
20
0
30
0
70
128
71
9
72
44
73
45
0
VERTEX
8
OBJECT__33
10
0
20
0
30
0
70
128
71
9
72
46
73
47
0
VERTEX
8
OBJECT__33
10
0
20
0
30
0
70
128
71
47
72
44
73
9
0
VERTEX
8
OBJECT__33
10
0
20
0
30
0
70
128
71
45
72
42
73
9
0
VERTEX
8
OBJECT__33
10
0
20
0
30
0
70
128
71
41
72
48
73
46
0
VERTEX
8
OBJECT__33
10
0
20
0
30
0
70
128
71
46
72
9
73
41
0
VERTEX
8
OBJECT__33
10
0
20
0
30
0
70
128
71
43
72
49
73
10
0
VERTEX
8
OBJECT__33
10
0
20
0
30
0
70
128
71
34
72
48
73
41
0
VERTEX
8
OBJECT__33
10
0
20
0
30
0
70
128
71
28
72
50
73
4
0
VERTEX
8
OBJECT__33
10
0
20
0
30
0
70
128
71
26
72
31
73
18
0
VERTEX
8
OBJECT__33
10
0
20
0
30
0
70
128
71
13
72
21
73
11
0
VERTEX
8
OBJECT__33
10
0
20
0
30
0
70
128
71
10
72
7
73
6
0
VERTEX
8
OBJECT__33
10
0
20
0
30
0
70
128
71
8
72
11
73
6
0
VERTEX
8
OBJECT__33
10
0
20
0
30
0
70
128
71
5
72
29
73
4
0
VERTEX
8
OBJECT__33
10
0
20
0
30
0
70
128
71
3
72
32
73
1
0
SEQEND
8
OBJECT__33
0
POLYLINE
8
OBJECT__34
66
1
70
64
71
5
72
3
62
253
0
VERTEX
8
OBJECT__34
10
75.199997
20
-91.573997
30
7.071000
70
192
0
VERTEX
8
OBJECT__34
10
75.199997
20
-98.089996
30
10.833000
70
192
0
VERTEX
8
OBJECT__34
10
75.199997
20
-105.500000
30
9.526000
70
192
0
VERTEX
8
OBJECT__34
10
75.199997
20
-109.220001
30
6.000000
70
192
0
VERTEX
8
OBJECT__34
10
75.199997
20
-90.779999
30
6.000000
70
192
0
VERTEX
8
OBJECT__34
10
0
20
0
30
0
70
128
71
1
72
2
73
3
0
VERTEX
8
OBJECT__34
10
0
20
0
30
0
70
128
71
4
72
5
73
1
0
VERTEX
8
OBJECT__34
10
0
20
0
30
0
70
128
71
3
72
4
73
1
0
SEQEND
8
OBJECT__34
0
POLYLINE
8
OBJECT__35
66
1
70
64
71
5
72
3
62
253
0
VERTEX
8
OBJECT__35
10
75.199997
20
-91.573997
30
-7.071000
70
192
0
VERTEX
8
OBJECT__35
10
75.199997
20
-109.220001
30
-6.000000
70
192
0
VERTEX
8
OBJECT__35
10
75.199997
20
-105.500000
30
-9.526000
70
192
0
VERTEX
8
OBJECT__35
10
75.199997
20
-98.089996
30
-10.833000
70
192
0
VERTEX
8
OBJECT__35
10
75.199997
20
-90.779999
30
-6.000000
70
192
0
VERTEX
8
OBJECT__35
10
0
20
0
30
0
70
128
71
1
72
2
73
3
0
VERTEX
8
OBJECT__35
10
0
20
0
30
0
70
128
71
3
72
4
73
1
0
VERTEX
8
OBJECT__35
10
0
20
0
30
0
70
128
71
1
72
5
73
2
0
SEQEND
8
OBJECT__35
0
POLYLINE
8
OBJECT__36
66
1
70
64
71
7
72
5
62
253
0
VERTEX
8
OBJECT__36
10
73.864998
20
-84.000000
30
5.850000
70
192
0
VERTEX
8
OBJECT__36
10
73.864998
20
-84.000000
30
-5.850000
70
192
0
VERTEX
8
OBJECT__36
10
69.793999
20
-84.000000
30
-2.603000
70
192
0
VERTEX
8
OBJECT__36
10
78.941002
20
-84.000000
30
-4.691000
70
192
0
VERTEX
8
OBJECT__36
10
78.941002
20
-84.000000
30
4.691000
70
192
0
VERTEX
8
OBJECT__36
10
81.199997
20
-84.000000
30
0.000000
70
192
0
VERTEX
8
OBJECT__36
10
69.793999
20
-84.000000
30
2.603000
70
192
0
VERTEX
8
OBJECT__36
10
0
20
0
30
0
70
128
71
1
72
2
73
3
0
VERTEX
8
OBJECT__36
10
0
20
0
30
0
70
128
71
1
72
4
73
2
0
VERTEX
8
OBJECT__36
10
0
20
0
30
0
70
128
71
4
72
1
73
5
0
VERTEX
8
OBJECT__36
10
0
20
0
30
0
70
128
71
5
72
6
73
4
0
VERTEX
8
OBJECT__36
10
0
20
0
30
0
70
128
71
3
72
7
73
1
0
SEQEND
8
OBJECT__36
0
POLYLINE
8
OBJECT__37
66
1
70
64
71
7
72
5
62
253
0
VERTEX
8
OBJECT__37
10
69.793999
20
160.000000
30
2.603000
70
192
0
VERTEX
8
OBJECT__37
10
78.941002
20
160.000000
30
4.691000
70
192
0
VERTEX
8
OBJECT__37
10
81.199997
20
160.000000
30
0.000000
70
192
0
VERTEX
8
OBJECT__37
10
73.864998
20
160.000000
30
5.850000
70
192
0
VERTEX
8
OBJECT__37
10
78.941002
20
160.000000
30
-4.691000
70
192
0
VERTEX
8
OBJECT__37
10
73.864998
20
160.000000
30
-5.850000
70
192
0
VERTEX
8
OBJECT__37
10
69.793999
20
160.000000
30
-2.603000
70
192
0
VERTEX
8
OBJECT__37
10
0
20
0
30
0
70
128
71
1
72
2
73
3
0
VERTEX
8
OBJECT__37
10
0
20
0
30
0
70
128
71
1
72
4
73
2
0
VERTEX
8
OBJECT__37
10
0
20
0
30
0
70
128
71
1
72
5
73
6
0
VERTEX
8
OBJECT__37
10
0
20
0
30
0
70
128
71
6
72
7
73
1
0
VERTEX
8
OBJECT__37
10
0
20
0
30
0
70
128
71
3
72
5
73
1
0
SEQEND
8
OBJECT__37
0
POLYLINE
8
OBJECT__38
66
1
70
64
71
48
72
50
62
253
0
VERTEX
8
OBJECT__38
10
78.941002
20
84.000000
30
-4.691000
70
192
0
VERTEX
8
OBJECT__38
10
78.941002
20
160.000000
30
-4.691000
70
192
0
VERTEX
8
OBJECT__38
10
81.199997
20
160.000000
30
0.000000
70
192
0
VERTEX
8
OBJECT__38
10
78.941002
20
84.000000
30
4.691000
70
192
0
VERTEX
8
OBJECT__38
10
81.199997
20
84.000000
30
0.000000
70
192
0
VERTEX
8
OBJECT__38
10
73.864998
20
160.000000
30
-5.850000
70
192
0
VERTEX
8
OBJECT__38
10
70.297997
20
110.442001
30
-3.459000
70
192
0
VERTEX
8
OBJECT__38
10
69.855003
20
110.662003
30
-2.573000
70
192
0
VERTEX
8
OBJECT__38
10
73.870003
20
109.338997
30
-5.811000
70
192
0
VERTEX
8
OBJECT__38
10
73.526001
20
109.370003
30
-5.762000
70
192
0
VERTEX
8
OBJECT__38
10
71.630997
20
109.886002
30
-4.823000
70
192
0
VERTEX
8
OBJECT__38
10
70.587997
20
110.320999
30
-3.756000
70
192
0
VERTEX
8
OBJECT__38
10
69.793999
20
160.000000
30
2.603000
70
192
0
VERTEX
8
OBJECT__38
10
69.793999
20
160.000000
30
-2.603000
70
192
0
VERTEX
8
OBJECT__38
10
69.199997
20
111.000000
30
0.000000
70
192
0
VERTEX
8
OBJECT__38
10
69.487999
20
110.846001
30
-1.835000
70
192
0
VERTEX
8
OBJECT__38
10
69.302002
20
110.945000
30
1.103000
70
192
0
VERTEX
8
OBJECT__38
10
73.864998
20
160.000000
30
5.850000
70
192
0
VERTEX
8
OBJECT__38
10
71.371002
20
109.983002
30
4.619000
70
192
0
VERTEX
8
OBJECT__38
10
72.872002
20
109.509003
30
5.530000
70
192
0
VERTEX
8
OBJECT__38
10
70.625999
20
110.308998
30
3.752000
70
192
0
VERTEX
8
OBJECT__38
10
70.056000
20
110.556999
30
3.089000
70
192
0
VERTEX
8
OBJECT__38
10
69.862000
20
110.656998
30
2.577000
70
192
0
VERTEX
8
OBJECT__38
10
73.864998
20
84.000000
30
5.850000
70
192
0
VERTEX
8
OBJECT__38
10
75.199997
20
90.779999
30
6.000000
70
192
0
VERTEX
8
OBJECT__38
10
78.941002
20
160.000000
30
4.691000
70
192
0
VERTEX
8
OBJECT__38
10
75.199997
20
109.220001
30
6.000000
70
192
0
VERTEX
8
OBJECT__38
10
73.878998
20
109.347000
30
5.795000
70
192
0
VERTEX
8
OBJECT__38
10
74.505997
20
109.246002
30
5.960000
70
192
0
VERTEX
8
OBJECT__38
10
69.793999
20
84.000000
30
2.603000
70
192
0
VERTEX
8
OBJECT__38
10
70.396004
20
89.603996
30
3.595000
70
192
0
VERTEX
8
OBJECT__38
10
73.873001
20
90.651001
30
5.795000
70
192
0
VERTEX
8
OBJECT__38
10
73.389000
20
90.603996
30
5.720000
70
192
0
VERTEX
8
OBJECT__38
10
71.790001
20
90.169998
30
4.937000
70
192
0
VERTEX
8
OBJECT__38
10
69.793999
20
84.000000
30
-2.603000
70
192
0
VERTEX
8
OBJECT__38
10
69.207001
20
89.003998
30
-0.294000
70
192
0
VERTEX
8
OBJECT__38
10
69.558998
20
89.192001
30
-2.045000
70
192
0
VERTEX
8
OBJECT__38
10
69.241997
20
89.023003
30
-0.001000
70
192
0
VERTEX
8
OBJECT__38
10
69.443001
20
89.130997
30
1.690000
70
192
0
VERTEX
8
OBJECT__38
10
69.878998
20
89.347000
30
2.561000
70
192
0
VERTEX
8
OBJECT__38
10
73.864998
20
84.000000
30
-5.850000
70
192
0
VERTEX
8
OBJECT__38
10
71.793999
20
90.171997
30
-4.940000
70
192
0
VERTEX
8
OBJECT__38
10
73.730003
20
90.664001
30
-5.817000
70
192
0
VERTEX
8
OBJECT__38
10
70.401001
20
89.606003
30
-3.602000
70
192
0
VERTEX
8
OBJECT__38
10
69.846001
20
89.333000
30
-2.575000
70
192
0
VERTEX
8
OBJECT__38
10
75.199997
20
109.220001
30
-6.000000
70
192
0
VERTEX
8
OBJECT__38
10
75.199997
20
90.779999
30
-6.000000
70
192
0
VERTEX
8
OBJECT__38
10
73.866997
20
90.675003
30
-5.834000
70
192
0
VERTEX
8
OBJECT__38
10
0
20
0
30
0
70
128
71
1
72
2
73
3
0
VERTEX
8
OBJECT__38
10
0
20
0
30
0
70
128
71
4
72
5
73
3
0
VERTEX
8
OBJECT__38
10
0
20
0
30
0
70
128
71
6
72
7
73
8
0
VERTEX
8
OBJECT__38
10
0
20
0
30
0
70
128
71
6
72
9
73
10
0
VERTEX
8
OBJECT__38
10
0
20
0
30
0
70
128
71
10
72
11
73
6
0
VERTEX
8
OBJECT__38
10
0
20
0
30
0
70
128
71
11
72
12
73
6
0
VERTEX
8
OBJECT__38
10
0
20
0
30
0
70
128
71
12
72
7
73
6
0
VERTEX
8
OBJECT__38
10
0
20
0
30
0
70
128
71
13
72
14
73
15
0
VERTEX
8
OBJECT__38
10
0
20
0
30
0
70
128
71
14
72
16
73
15
0
VERTEX
8
OBJECT__38
10
0
20
0
30
0
70
128
71
15
72
17
73
13
0
VERTEX
8
OBJECT__38
10
0
20
0
30
0
70
128
71
14
72
8
73
16
0
VERTEX
8
OBJECT__38
10
0
20
0
30
0
70
128
71
18
72
19
73
20
0
VERTEX
8
OBJECT__38
10
0
20
0
30
0
70
128
71
18
72
21
73
19
0
VERTEX
8
OBJECT__38
10
0
20
0
30
0
70
128
71
18
72
22
73
21
0
VERTEX
8
OBJECT__38
10
0
20
0
30
0
70
128
71
18
72
13
73
23
0
VERTEX
8
OBJECT__38
10
0
20
0
30
0
70
128
71
23
72
22
73
18
0
VERTEX
8
OBJECT__38
10
0
20
0
30
0
70
128
71
24
72
4
73
25
0
VERTEX
8
OBJECT__38
10
0
20
0
30
0
70
128
71
4
72
26
73
27
0
VERTEX
8
OBJECT__38
10
0
20
0
30
0
70
128
71
27
72
25
73
4
0
VERTEX
8
OBJECT__38
10
0
20
0
30
0
70
128
71
26
72
18
73
28
0
VERTEX
8
OBJECT__38
10
0
20
0
30
0
70
128
71
28
72
29
73
26
0
VERTEX
8
OBJECT__38
10
0
20
0
30
0
70
128
71
29
72
27
73
26
0
VERTEX
8
OBJECT__38
10
0
20
0
30
0
70
128
71
30
72
24
73
31
0
VERTEX
8
OBJECT__38
10
0
20
0
30
0
70
128
71
24
72
32
73
33
0
VERTEX
8
OBJECT__38
10
0
20
0
30
0
70
128
71
33
72
34
73
24
0
VERTEX
8
OBJECT__38
10
0
20
0
30
0
70
128
71
34
72
31
73
24
0
VERTEX
8
OBJECT__38
10
0
20
0
30
0
70
128
71
35
72
36
73
37
0
VERTEX
8
OBJECT__38
10
0
20
0
30
0
70
128
71
30
72
38
73
36
0
VERTEX
8
OBJECT__38
10
0
20
0
30
0
70
128
71
30
72
39
73
38
0
VERTEX
8
OBJECT__38
10
0
20
0
30
0
70
128
71
36
72
35
73
30
0
VERTEX
8
OBJECT__38
10
0
20
0
30
0
70
128
71
30
72
40
73
39
0
VERTEX
8
OBJECT__38
10
0
20
0
30
0
70
128
71
41
72
42
73
43
0
VERTEX
8
OBJECT__38
10
0
20
0
30
0
70
128
71
41
72
44
73
42
0
VERTEX
8
OBJECT__38
10
0
20
0
30
0
70
128
71
35
72
45
73
44
0
VERTEX
8
OBJECT__38
10
0
20
0
30
0
70
128
71
44
72
41
73
35
0
VERTEX
8
OBJECT__38
10
0
20
0
30
0
70
128
71
2
72
46
73
9
0
VERTEX
8
OBJECT__38
10
0
20
0
30
0
70
128
71
1
72
47
73
46
0
VERTEX
8
OBJECT__38
10
0
20
0
30
0
70
128
71
46
72
2
73
1
0
VERTEX
8
OBJECT__38
10
0
20
0
30
0
70
128
71
41
72
48
73
47
0
VERTEX
8
OBJECT__38
10
0
20
0
30
0
70
128
71
47
72
1
73
41
0
VERTEX
8
OBJECT__38
10
0
20
0
30
0
70
128
71
9
72
6
73
2
0
VERTEX
8
OBJECT__38
10
0
20
0
30
0
70
128
71
43
72
48
73
41
0
VERTEX
8
OBJECT__38
10
0
20
0
30
0
70
128
71
37
72
45
73
35
0
VERTEX
8
OBJECT__38
10
0
20
0
30
0
70
128
71
31
72
40
73
30
0
VERTEX
8
OBJECT__38
10
0
20
0
30
0
70
128
71
25
72
32
73
24
0
VERTEX
8
OBJECT__38
10
0
20
0
30
0
70
128
71
20
72
28
73
18
0
VERTEX
8
OBJECT__38
10
0
20
0
30
0
70
128
71
17
72
23
73
13
0
VERTEX
8
OBJECT__38
10
0
20
0
30
0
70
128
71
8
72
14
73
6
0
VERTEX
8
OBJECT__38
10
0
20
0
30
0
70
128
71
3
72
26
73
4
0
VERTEX
8
OBJECT__38
10
0
20
0
30
0
70
128
71
3
72
5
73
1
0
SEQEND
8
OBJECT__38
0
POLYLINE
8
OBJECT__40
66
1
70
64
71
50
72
50
62
253
0
VERTEX
8
OBJECT__40
10
75.199997
20
98.089996
30
-10.833000
70
192
0
VERTEX
8
OBJECT__40
10
75.199997
20
91.573997
30
-7.071000
70
192
0
VERTEX
8
OBJECT__40
10
54.700001
20
91.573997
30
-7.071000
70
192
0
VERTEX
8
OBJECT__40
10
75.199997
20
105.500000
30
-9.526000
70
192
0
VERTEX
8
OBJECT__40
10
54.700001
20
100.000000
30
-11.000000
70
192
0
VERTEX
8
OBJECT__40
10
54.700001
20
98.089996
30
-10.833000
70
192
0
VERTEX
8
OBJECT__40
10
54.700001
20
105.500000
30
9.526000
70
192
0
VERTEX
8
OBJECT__40
10
54.700001
20
98.089996
30
10.833000
70
192
0
VERTEX
8
OBJECT__40
10
75.199997
20
98.089996
30
10.833000
70
192
0
VERTEX
8
OBJECT__40
10
54.700001
20
91.573997
30
7.071000
70
192
0
VERTEX
8
OBJECT__40
10
75.199997
20
91.573997
30
7.071000
70
192
0
VERTEX
8
OBJECT__40
10
71.371002
20
109.983002
30
4.619000
70
192
0
VERTEX
8
OBJECT__40
10
70.625999
20
110.308998
30
3.752000
70
192
0
VERTEX
8
OBJECT__40
10
72.872002
20
109.509003
30
5.530000
70
192
0
VERTEX
8
OBJECT__40
10
75.199997
20
105.500000
30
9.526000
70
192
0
VERTEX
8
OBJECT__40
10
73.878998
20
109.347000
30
5.795000
70
192
0
VERTEX
8
OBJECT__40
10
74.505997
20
109.246002
30
5.960000
70
192
0
VERTEX
8
OBJECT__40
10
75.199997
20
109.220001
30
6.000000
70
192
0
VERTEX
8
OBJECT__40
10
54.700001
20
110.336998
30
-3.762000
70
192
0
VERTEX
8
OBJECT__40
10
69.487999
20
110.846001
30
-1.835000
70
192
0
VERTEX
8
OBJECT__40
10
69.855003
20
110.662003
30
-2.573000
70
192
0
VERTEX
8
OBJECT__40
10
54.700001
20
110.336998
30
3.762000
70
192
0
VERTEX
8
OBJECT__40
10
69.302002
20
110.945000
30
1.103000
70
192
0
VERTEX
8
OBJECT__40
10
69.199997
20
111.000000
30
0.000000
70
192
0
VERTEX
8
OBJECT__40
10
70.056000
20
110.556999
30
3.089000
70
192
0
VERTEX
8
OBJECT__40
10
69.862000
20
110.656998
30
2.577000
70
192
0
VERTEX
8
OBJECT__40
10
70.297997
20
110.442001
30
-3.459000
70
192
0
VERTEX
8
OBJECT__40
10
73.526001
20
109.370003
30
-5.762000
70
192
0
VERTEX
8
OBJECT__40
10
73.870003
20
109.338997
30
-5.811000
70
192
0
VERTEX
8
OBJECT__40
10
54.700001
20
105.500000
30
-9.526000
70
192
0
VERTEX
8
OBJECT__40
10
71.630997
20
109.886002
30
-4.823000
70
192
0
VERTEX
8
OBJECT__40
10
70.587997
20
110.320999
30
-3.756000
70
192
0
VERTEX
8
OBJECT__40
10
69.558998
20
89.192001
30
-2.045000
70
192
0
VERTEX
8
OBJECT__40
10
69.207001
20
89.003998
30
-0.294000
70
192
0
VERTEX
8
OBJECT__40
10
70.401001
20
89.606003
30
-3.602000
70
192
0
VERTEX
8
OBJECT__40
10
69.846001
20
89.333000
30
-2.575000
70
192
0
VERTEX
8
OBJECT__40
10
71.793999
20
90.171997
30
-4.940000
70
192
0
VERTEX
8
OBJECT__40
10
73.730003
20
90.664001
30
-5.817000
70
192
0
VERTEX
8
OBJECT__40
10
75.199997
20
90.779999
30
-6.000000
70
192
0
VERTEX
8
OBJECT__40
10
73.866997
20
90.675003
30
-5.834000
70
192
0
VERTEX
8
OBJECT__40
10
54.700001
20
89.000000
30
0.000000
70
192
0
VERTEX
8
OBJECT__40
10
73.389000
20
90.603996
30
5.720000
70
192
0
VERTEX
8
OBJECT__40
10
73.873001
20
90.651001
30
5.795000
70
192
0
VERTEX
8
OBJECT__40
10
70.396004
20
89.603996
30
3.595000
70
192
0
VERTEX
8
OBJECT__40
10
71.790001
20
90.169998
30
4.937000
70
192
0
VERTEX
8
OBJECT__40
10
69.443001
20
89.130997
30
1.690000
70
192
0
VERTEX
8
OBJECT__40
10
69.878998
20
89.347000
30
2.561000
70
192
0
VERTEX
8
OBJECT__40
10
69.241997
20
89.023003
30
-0.001000
70
192
0
VERTEX
8
OBJECT__40
10
75.199997
20
90.779999
30
6.000000
70
192
0
VERTEX
8
OBJECT__40
10
75.199997
20
109.220001
30
-6.000000
70
192
0
VERTEX
8
OBJECT__40
10
0
20
0
30
0
70
128
71
1
72
2
73
3
0
VERTEX
8
OBJECT__40
10
0
20
0
30
0
70
128
71
4
72
1
73
5
0
VERTEX
8
OBJECT__40
10
0
20
0
30
0
70
128
71
1
72
6
73
5
0
VERTEX
8
OBJECT__40
10
0
20
0
30
0
70
128
71
7
72
8
73
9
0
VERTEX
8
OBJECT__40
10
0
20
0
30
0
70
128
71
10
72
11
73
9
0
VERTEX
8
OBJECT__40
10
0
20
0
30
0
70
128
71
7
72
12
73
13
0
VERTEX
8
OBJECT__40
10
0
20
0
30
0
70
128
71
7
72
14
73
12
0
VERTEX
8
OBJECT__40
10
0
20
0
30
0
70
128
71
15
72
16
73
14
0
VERTEX
8
OBJECT__40
10
0
20
0
30
0
70
128
71
15
72
17
73
16
0
VERTEX
8
OBJECT__40
10
0
20
0
30
0
70
128
71
15
72
18
73
17
0
VERTEX
8
OBJECT__40
10
0
20
0
30
0
70
128
71
14
72
7
73
15
0
VERTEX
8
OBJECT__40
10
0
20
0
30
0
70
128
71
19
72
20
73
21
0
VERTEX
8
OBJECT__40
10
0
20
0
30
0
70
128
71
22
72
23
73
24
0
VERTEX
8
OBJECT__40
10
0
20
0
30
0
70
128
71
24
72
19
73
22
0
VERTEX
8
OBJECT__40
10
0
20
0
30
0
70
128
71
22
72
25
73
26
0
VERTEX
8
OBJECT__40
10
0
20
0
30
0
70
128
71
26
72
23
73
22
0
VERTEX
8
OBJECT__40
10
0
20
0
30
0
70
128
71
24
72
20
73
19
0
VERTEX
8
OBJECT__40
10
0
20
0
30
0
70
128
71
21
72
27
73
19
0
VERTEX
8
OBJECT__40
10
0
20
0
30
0
70
128
71
22
72
13
73
25
0
VERTEX
8
OBJECT__40
10
0
20
0
30
0
70
128
71
4
72
28
73
29
0
VERTEX
8
OBJECT__40
10
0
20
0
30
0
70
128
71
30
72
31
73
28
0
VERTEX
8
OBJECT__40
10
0
20
0
30
0
70
128
71
30
72
19
73
32
0
VERTEX
8
OBJECT__40
10
0
20
0
30
0
70
128
71
32
72
31
73
30
0
VERTEX
8
OBJECT__40
10
0
20
0
30
0
70
128
71
28
72
4
73
30
0
VERTEX
8
OBJECT__40
10
0
20
0
30
0
70
128
71
3
72
33
73
34
0
VERTEX
8
OBJECT__40
10
0
20
0
30
0
70
128
71
3
72
35
73
36
0
VERTEX
8
OBJECT__40
10
0
20
0
30
0
70
128
71
3
72
37
73
35
0
VERTEX
8
OBJECT__40
10
0
20
0
30
0
70
128
71
36
72
33
73
3
0
VERTEX
8
OBJECT__40
10
0
20
0
30
0
70
128
71
3
72
2
73
38
0
VERTEX
8
OBJECT__40
10
0
20
0
30
0
70
128
71
38
72
37
73
3
0
VERTEX
8
OBJECT__40
10
0
20
0
30
0
70
128
71
2
72
39
73
40
0
VERTEX
8
OBJECT__40
10
0
20
0
30
0
70
128
71
40
72
38
73
2
0
VERTEX
8
OBJECT__40
10
0
20
0
30
0
70
128
71
34
72
41
73
3
0
VERTEX
8
OBJECT__40
10
0
20
0
30
0
70
128
71
11
72
10
73
42
0
VERTEX
8
OBJECT__40
10
0
20
0
30
0
70
128
71
42
72
43
73
11
0
VERTEX
8
OBJECT__40
10
0
20
0
30
0
70
128
71
10
72
44
73
45
0
VERTEX
8
OBJECT__40
10
0
20
0
30
0
70
128
71
10
72
46
73
47
0
VERTEX
8
OBJECT__40
10
0
20
0
30
0
70
128
71
47
72
44
73
10
0
VERTEX
8
OBJECT__40
10
0
20
0
30
0
70
128
71
45
72
42
73
10
0
VERTEX
8
OBJECT__40
10
0
20
0
30
0
70
128
71
41
72
48
73
46
0
VERTEX
8
OBJECT__40
10
0
20
0
30
0
70
128
71
46
72
10
73
41
0
VERTEX
8
OBJECT__40
10
0
20
0
30
0
70
128
71
43
72
49
73
11
0
VERTEX
8
OBJECT__40
10
0
20
0
30
0
70
128
71
34
72
48
73
41
0
VERTEX
8
OBJECT__40
10
0
20
0
30
0
70
128
71
29
72
50
73
4
0
VERTEX
8
OBJECT__40
10
0
20
0
30
0
70
128
71
27
72
32
73
19
0
VERTEX
8
OBJECT__40
10
0
20
0
30
0
70
128
71
13
72
22
73
7
0
VERTEX
8
OBJECT__40
10
0
20
0
30
0
70
128
71
9
72
8
73
10
0
VERTEX
8
OBJECT__40
10
0
20
0
30
0
70
128
71
9
72
15
73
7
0
VERTEX
8
OBJECT__40
10
0
20
0
30
0
70
128
71
5
72
30
73
4
0
VERTEX
8
OBJECT__40
10
0
20
0
30
0
70
128
71
3
72
6
73
1
0
SEQEND
8
OBJECT__40
0
POLYLINE
8
OBJECT__41
66
1
70
64
71
5
72
3
62
253
0
VERTEX
8
OBJECT__41
10
75.199997
20
91.573997
30
-7.071000
70
192
0
VERTEX
8
OBJECT__41
10
75.199997
20
98.089996
30
-10.833000
70
192
0
VERTEX
8
OBJECT__41
10
75.199997
20
105.500000
30
-9.526000
70
192
0
VERTEX
8
OBJECT__41
10
75.199997
20
109.220001
30
-6.000000
70
192
0
VERTEX
8
OBJECT__41
10
75.199997
20
90.779999
30
-6.000000
70
192
0
VERTEX
8
OBJECT__41
10
0
20
0
30
0
70
128
71
1
72
2
73
3
0
VERTEX
8
OBJECT__41
10
0
20
0
30
0
70
128
71
4
72
5
73
1
0
VERTEX
8
OBJECT__41
10
0
20
0
30
0
70
128
71
3
72
4
73
1
0
SEQEND
8
OBJECT__41
0
POLYLINE
8
OBJECT__42
66
1
70
64
71
5
72
3
62
253
0
VERTEX
8
OBJECT__42
10
75.199997
20
91.573997
30
7.071000
70
192
0
VERTEX
8
OBJECT__42
10
75.199997
20
109.220001
30
6.000000
70
192
0
VERTEX
8
OBJECT__42
10
75.199997
20
105.500000
30
9.526000
70
192
0
VERTEX
8
OBJECT__42
10
75.199997
20
98.089996
30
10.833000
70
192
0
VERTEX
8
OBJECT__42
10
75.199997
20
90.779999
30
6.000000
70
192
0
VERTEX
8
OBJECT__42
10
0
20
0
30
0
70
128
71
1
72
2
73
3
0
VERTEX
8
OBJECT__42
10
0
20
0
30
0
70
128
71
3
72
4
73
1
0
VERTEX
8
OBJECT__42
10
0
20
0
30
0
70
128
71
1
72
5
73
2
0
SEQEND
8
OBJECT__42
0
POLYLINE
8
OBJECT__43
66
1
70
64
71
7
72
5
62
253
0
VERTEX
8
OBJECT__43
10
78.941002
20
84.000000
30
-4.691000
70
192
0
VERTEX
8
OBJECT__43
10
78.941002
20
84.000000
30
4.691000
70
192
0
VERTEX
8
OBJECT__43
10
73.864998
20
84.000000
30
5.850000
70
192
0
VERTEX
8
OBJECT__43
10
69.793999
20
84.000000
30
2.603000
70
192
0
VERTEX
8
OBJECT__43
10
69.793999
20
84.000000
30
-2.603000
70
192
0
VERTEX
8
OBJECT__43
10
73.864998
20
84.000000
30
-5.850000
70
192
0
VERTEX
8
OBJECT__43
10
81.199997
20
84.000000
30
0.000000
70
192
0
VERTEX
8
OBJECT__43
10
0
20
0
30
0
70
128
71
1
72
2
73
3
0
VERTEX
8
OBJECT__43
10
0
20
0
30
0
70
128
71
4
72
5
73
6
0
VERTEX
8
OBJECT__43
10
0
20
0
30
0
70
128
71
1
72
7
73
2
0
VERTEX
8
OBJECT__43
10
0
20
0
30
0
70
128
71
3
72
4
73
1
0
VERTEX
8
OBJECT__43
10
0
20
0
30
0
70
128
71
6
72
1
73
4
0
SEQEND
8
OBJECT__43
0
POLYLINE
8
OBJECT__44
66
1
70
64
71
13
72
11
62
253
0
VERTEX
8
OBJECT__44
10
10.000000
20
78.388000
30
-6.260000
70
192
0
VERTEX
8
OBJECT__44
10
10.000000
20
103.609001
30
-22.209000
70
192
0
VERTEX
8
OBJECT__44
10
10.000000
20
113.516998
30
-17.987000
70
192
0
VERTEX
8
OBJECT__44
10
10.000000
20
83.773003
30
-15.586000
70
192
0
VERTEX
8
OBJECT__44
10
10.000000
20
91.181000
30
20.700001
70
192
0
VERTEX
8
OBJECT__44
10
10.000000
20
122.482002
30
0.906000
70
192
0
VERTEX
8
OBJECT__44
10
10.000000
20
119.486000
30
11.250000
70
192
0
VERTEX
8
OBJECT__44
10
10.000000
20
92.875000
30
-21.341999
70
192
0
VERTEX
8
OBJECT__44
10
10.000000
20
82.570999
30
14.230000
70
192
0
VERTEX
8
OBJECT__44
10
10.000000
20
112.025002
30
19.017000
70
192
0
VERTEX
8
OBJECT__44
10
10.000000
20
120.328003
30
-9.646000
70
192
0
VERTEX
8
OBJECT__44
10
10.000000
20
101.809998
30
22.427000
70
192
0
VERTEX
8
OBJECT__44
10
10.000000
20
77.955002
30
4.501000
70
192
0
VERTEX
8
OBJECT__44
10
0
20
0
30
0
70
128
71
1
72
2
73
3
0
VERTEX
8
OBJECT__44
10
0
20
0
30
0
70
128
71
2
72
1
73
4
0
VERTEX
8
OBJECT__44
10
0
20
0
30
0
70
128
71
5
72
6
73
7
0
VERTEX
8
OBJECT__44
10
0
20
0
30
0
70
128
71
4
72
8
73
2
0
VERTEX
8
OBJECT__44
10
0
20
0
30
0
70
128
71
6
72
5
73
9
0
VERTEX
8
OBJECT__44
10
0
20
0
30
0
70
128
71
7
72
10
73
5
0
VERTEX
8
OBJECT__44
10
0
20
0
30
0
70
128
71
3
72
11
73
1
0
VERTEX
8
OBJECT__44
10
0
20
0
30
0
70
128
71
10
72
12
73
5
0
VERTEX
8
OBJECT__44
10
0
20
0
30
0
70
128
71
6
72
13
73
1
0
VERTEX
8
OBJECT__44
10
0
20
0
30
0
70
128
71
11
72
6
73
1
0
VERTEX
8
OBJECT__44
10
0
20
0
30
0
70
128
71
9
72
13
73
6
0
SEQEND
8
OBJECT__44
0
POLYLINE
8
OBJECT__45
66
1
70
64
71
26
72
26
62
253
0
VERTEX
8
OBJECT__45
10
6.000000
20
112.025002
30
19.017000
70
192
0
VERTEX
8
OBJECT__45
10
10.000000
20
112.025002
30
19.017000
70
192
0
VERTEX
8
OBJECT__45
10
10.000000
20
119.486000
30
11.250000
70
192
0
VERTEX
8
OBJECT__45
10
6.000000
20
101.809998
30
22.427000
70
192
0
VERTEX
8
OBJECT__45
10
10.000000
20
101.809998
30
22.427000
70
192
0
VERTEX
8
OBJECT__45
10
6.000000
20
91.181000
30
20.700001
70
192
0
VERTEX
8
OBJECT__45
10
6.000000
20
82.570999
30
14.230000
70
192
0
VERTEX
8
OBJECT__45
10
10.000000
20
82.570999
30
14.230000
70
192
0
VERTEX
8
OBJECT__45
10
10.000000
20
91.181000
30
20.700001
70
192
0
VERTEX
8
OBJECT__45
10
6.000000
20
77.955002
30
4.501000
70
192
0
VERTEX
8
OBJECT__45
10
10.000000
20
78.388000
30
-6.260000
70
192
0
VERTEX
8
OBJECT__45
10
10.000000
20
77.955002
30
4.501000
70
192
0
VERTEX
8
OBJECT__45
10
10.000000
20
83.773003
30
-15.586000
70
192
0
VERTEX
8
OBJECT__45
10
6.000000
20
78.388000
30
-6.260000
70
192
0
VERTEX
8
OBJECT__45
10
10.000000
20
92.875000
30
-21.341999
70
192
0
VERTEX
8
OBJECT__45
10
6.000000
20
83.773003
30
-15.586000
70
192
0
VERTEX
8
OBJECT__45
10
6.000000
20
92.875000
30
-21.341999
70
192
0
VERTEX
8
OBJECT__45
10
6.000000
20
103.609001
30
-22.209000
70
192
0
VERTEX
8
OBJECT__45
10
10.000000
20
103.609001
30
-22.209000
70
192
0
VERTEX
8
OBJECT__45
10
10.000000
20
113.516998
30
-17.987000
70
192
0
VERTEX
8
OBJECT__45
10
10.000000
20
120.328003
30
-9.646000
70
192
0
VERTEX
8
OBJECT__45
10
6.000000
20
113.516998
30
-17.987000
70
192
0
VERTEX
8
OBJECT__45
10
10.000000
20
122.482002
30
0.906000
70
192
0
VERTEX
8
OBJECT__45
10
6.000000
20
120.328003
30
-9.646000
70
192
0
VERTEX
8
OBJECT__45
10
6.000000
20
119.486000
30
11.250000
70
192
0
VERTEX
8
OBJECT__45
10
6.000000
20
122.482002
30
0.906000
70
192
0
VERTEX
8
OBJECT__45
10
0
20
0
30
0
70
128
71
1
72
2
73
3
0
VERTEX
8
OBJECT__45
10
0
20
0
30
0
70
128
71
4
72
5
73
2
0
VERTEX
8
OBJECT__45
10
0
20
0
30
0
70
128
71
5
72
4
73
6
0
VERTEX
8
OBJECT__45
10
0
20
0
30
0
70
128
71
7
72
8
73
9
0
VERTEX
8
OBJECT__45
10
0
20
0
30
0
70
128
71
8
72
7
73
10
0
VERTEX
8
OBJECT__45
10
0
20
0
30
0
70
128
71
11
72
12
73
10
0
VERTEX
8
OBJECT__45
10
0
20
0
30
0
70
128
71
13
72
11
73
14
0
VERTEX
8
OBJECT__45
10
0
20
0
30
0
70
128
71
15
72
13
73
16
0
VERTEX
8
OBJECT__45
10
0
20
0
30
0
70
128
71
17
72
18
73
19
0
VERTEX
8
OBJECT__45
10
0
20
0
30
0
70
128
71
20
72
19
73
18
0
VERTEX
8
OBJECT__45
10
0
20
0
30
0
70
128
71
21
72
20
73
22
0
VERTEX
8
OBJECT__45
10
0
20
0
30
0
70
128
71
23
72
21
73
24
0
VERTEX
8
OBJECT__45
10
0
20
0
30
0
70
128
71
25
72
3
73
23
0
VERTEX
8
OBJECT__45
10
0
20
0
30
0
70
128
71
23
72
26
73
25
0
VERTEX
8
OBJECT__45
10
0
20
0
30
0
70
128
71
24
72
26
73
23
0
VERTEX
8
OBJECT__45
10
0
20
0
30
0
70
128
71
22
72
24
73
21
0
VERTEX
8
OBJECT__45
10
0
20
0
30
0
70
128
71
18
72
22
73
20
0
VERTEX
8
OBJECT__45
10
0
20
0
30
0
70
128
71
19
72
15
73
17
0
VERTEX
8
OBJECT__45
10
0
20
0
30
0
70
128
71
16
72
17
73
15
0
VERTEX
8
OBJECT__45
10
0
20
0
30
0
70
128
71
14
72
16
73
13
0
VERTEX
8
OBJECT__45
10
0
20
0
30
0
70
128
71
10
72
14
73
11
0
VERTEX
8
OBJECT__45
10
0
20
0
30
0
70
128
71
10
72
12
73
8
0
VERTEX
8
OBJECT__45
10
0
20
0
30
0
70
128
71
9
72
6
73
7
0
VERTEX
8
OBJECT__45
10
0
20
0
30
0
70
128
71
6
72
9
73
5
0
VERTEX
8
OBJECT__45
10
0
20
0
30
0
70
128
71
2
72
1
73
4
0
VERTEX
8
OBJECT__45
10
0
20
0
30
0
70
128
71
3
72
25
73
1
0
SEQEND
8
OBJECT__45
0
POLYLINE
8
OBJECT__47
66
1
70
64
71
27
72
27
62
253
0
VERTEX
8
OBJECT__47
10
6.000000
20
76.183998
30
-13.750000
70
192
0
VERTEX
8
OBJECT__47
10
6.000000
20
83.773003
30
-15.586000
70
192
0
VERTEX
8
OBJECT__47
10
6.000000
20
78.388000
30
-6.260000
70
192
0
VERTEX
8
OBJECT__47
10
6.000000
20
72.577003
30
-2.055000
70
192
0
VERTEX
8
OBJECT__47
10
6.000000
20
77.955002
30
4.501000
70
192
0
VERTEX
8
OBJECT__47
10
6.000000
20
84.509003
30
-22.722000
70
192
0
VERTEX
8
OBJECT__47
10
6.000000
20
95.901001
30
-27.193001
70
192
0
VERTEX
8
OBJECT__47
10
6.000000
20
92.875000
30
-21.341999
70
192
0
VERTEX
8
OBJECT__47
10
6.000000
20
108.106003
30
-26.278000
70
192
0
VERTEX
8
OBJECT__47
10
6.000000
20
103.609001
30
-22.209000
70
192
0
VERTEX
8
OBJECT__47
10
6.000000
20
118.705002
30
-20.159000
70
192
0
VERTEX
8
OBJECT__47
10
6.000000
20
113.516998
30
-17.987000
70
192
0
VERTEX
8
OBJECT__47
10
6.000000
20
104.098999
30
27.193001
70
192
0
VERTEX
8
OBJECT__47
10
6.000000
20
101.809998
30
22.427000
70
192
0
VERTEX
8
OBJECT__47
10
6.000000
20
112.025002
30
19.017000
70
192
0
VERTEX
8
OBJECT__47
10
6.000000
20
91.893997
30
26.278000
70
192
0
VERTEX
8
OBJECT__47
10
6.000000
20
91.181000
30
20.700001
70
192
0
VERTEX
8
OBJECT__47
10
6.000000
20
81.294998
30
20.159000
70
192
0
VERTEX
8
OBJECT__47
10
6.000000
20
82.570999
30
14.230000
70
192
0
VERTEX
8
OBJECT__47
10
6.000000
20
74.401001
30
10.047000
70
192
0
VERTEX
8
OBJECT__47
10
6.000000
20
125.598999
30
-10.047000
70
192
0
VERTEX
8
OBJECT__47
10
6.000000
20
120.328003
30
-9.646000
70
192
0
VERTEX
8
OBJECT__47
10
6.000000
20
127.422997
30
2.055000
70
192
0
VERTEX
8
OBJECT__47
10
6.000000
20
122.482002
30
0.906000
70
192
0
VERTEX
8
OBJECT__47
10
6.000000
20
123.816002
30
13.750000
70
192
0
VERTEX
8
OBJECT__47
10
6.000000
20
119.486000
30
11.250000
70
192
0
VERTEX
8
OBJECT__47
10
6.000000
20
115.490997
30
22.722000
70
192
0
VERTEX
8
OBJECT__47
10
0
20
0
30
0
70
128
71
1
72
2
73
3
0
VERTEX
8
OBJECT__47
10
0
20
0
30
0
70
128
71
4
72
3
73
5
0
VERTEX
8
OBJECT__47
10
0
20
0
30
0
70
128
71
1
72
6
73
2
0
VERTEX
8
OBJECT__47
10
0
20
0
30
0
70
128
71
3
72
4
73
1
0
VERTEX
8
OBJECT__47
10
0
20
0
30
0
70
128
71
6
72
7
73
8
0
VERTEX
8
OBJECT__47
10
0
20
0
30
0
70
128
71
7
72
9
73
10
0
VERTEX
8
OBJECT__47
10
0
20
0
30
0
70
128
71
9
72
11
73
12
0
VERTEX
8
OBJECT__47
10
0
20
0
30
0
70
128
71
13
72
14
73
15
0
VERTEX
8
OBJECT__47
10
0
20
0
30
0
70
128
71
16
72
17
73
14
0
VERTEX
8
OBJECT__47
10
0
20
0
30
0
70
128
71
18
72
19
73
17
0
VERTEX
8
OBJECT__47
10
0
20
0
30
0
70
128
71
20
72
5
73
19
0
VERTEX
8
OBJECT__47
10
0
20
0
30
0
70
128
71
8
72
2
73
6
0
VERTEX
8
OBJECT__47
10
0
20
0
30
0
70
128
71
12
72
10
73
9
0
VERTEX
8
OBJECT__47
10
0
20
0
30
0
70
128
71
11
72
21
73
22
0
VERTEX
8
OBJECT__47
10
0
20
0
30
0
70
128
71
21
72
23
73
24
0
VERTEX
8
OBJECT__47
10
0
20
0
30
0
70
128
71
14
72
13
73
16
0
VERTEX
8
OBJECT__47
10
0
20
0
30
0
70
128
71
19
72
18
73
20
0
VERTEX
8
OBJECT__47
10
0
20
0
30
0
70
128
71
10
72
8
73
7
0
VERTEX
8
OBJECT__47
10
0
20
0
30
0
70
128
71
24
72
22
73
21
0
VERTEX
8
OBJECT__47
10
0
20
0
30
0
70
128
71
23
72
25
73
26
0
VERTEX
8
OBJECT__47
10
0
20
0
30
0
70
128
71
27
72
15
73
26
0
VERTEX
8
OBJECT__47
10
0
20
0
30
0
70
128
71
17
72
16
73
18
0
VERTEX
8
OBJECT__47
10
0
20
0
30
0
70
128
71
22
72
12
73
11
0
VERTEX
8
OBJECT__47
10
0
20
0
30
0
70
128
71
26
72
25
73
27
0
VERTEX
8
OBJECT__47
10
0
20
0
30
0
70
128
71
5
72
20
73
4
0
VERTEX
8
OBJECT__47
10
0
20
0
30
0
70
128
71
15
72
27
73
13
0
VERTEX
8
OBJECT__47
10
0
20
0
30
0
70
128
71
26
72
24
73
23
0
SEQEND
8
OBJECT__47
0
POLYLINE
8
OBJECT__48
66
1
70
64
71
28
72
28
62
253
0
VERTEX
8
OBJECT__48
10
6.000000
20
115.490997
30
22.722000
70
192
0
VERTEX
8
OBJECT__48
10
6.000000
20
123.816002
30
13.750000
70
192
0
VERTEX
8
OBJECT__48
10
0.000000
20
123.816002
30
13.750000
70
192
0
VERTEX
8
OBJECT__48
10
6.000000
20
104.098999
30
27.193001
70
192
0
VERTEX
8
OBJECT__48
10
0.000000
20
115.490997
30
22.722000
70
192
0
VERTEX
8
OBJECT__48
10
6.000000
20
91.893997
30
26.278000
70
192
0
VERTEX
8
OBJECT__48
10
0.000000
20
104.098999
30
27.193001
70
192
0
VERTEX
8
OBJECT__48
10
6.000000
20
81.294998
30
20.159000
70
192
0
VERTEX
8
OBJECT__48
10
0.000000
20
91.893997
30
26.278000
70
192
0
VERTEX
8
OBJECT__48
10
6.000000
20
74.401001
30
10.047000
70
192
0
VERTEX
8
OBJECT__48
10
0.000000
20
81.294998
30
20.159000
70
192
0
VERTEX
8
OBJECT__48
10
6.000000
20
72.577003
30
-2.055000
70
192
0
VERTEX
8
OBJECT__48
10
0.000000
20
74.401001
30
10.047000
70
192
0
VERTEX
8
OBJECT__48
10
0.000000
20
76.183998
30
-13.750000
70
192
0
VERTEX
8
OBJECT__48
10
6.000000
20
76.183998
30
-13.750000
70
192
0
VERTEX
8
OBJECT__48
10
0.000000
20
84.509003
30
-22.722000
70
192
0
VERTEX
8
OBJECT__48
10
6.000000
20
84.509003
30
-22.722000
70
192
0
VERTEX
8
OBJECT__48
10
0.000000
20
95.901001
30
-27.193001
70
192
0
VERTEX
8
OBJECT__48
10
6.000000
20
95.901001
30
-27.193001
70
192
0
VERTEX
8
OBJECT__48
10
0.000000
20
108.106003
30
-26.278000
70
192
0
VERTEX
8
OBJECT__48
10
0.000000
20
118.705002
30
-20.159000
70
192
0
VERTEX
8
OBJECT__48
10
6.000000
20
118.705002
30
-20.159000
70
192
0
VERTEX
8
OBJECT__48
10
6.000000
20
108.106003
30
-26.278000
70
192
0
VERTEX
8
OBJECT__48
10
0.000000
20
125.598999
30
-10.047000
70
192
0
VERTEX
8
OBJECT__48
10
6.000000
20
125.598999
30
-10.047000
70
192
0
VERTEX
8
OBJECT__48
10
0.000000
20
127.422997
30
2.055000
70
192
0
VERTEX
8
OBJECT__48
10
6.000000
20
127.422997
30
2.055000
70
192
0
VERTEX
8
OBJECT__48
10
0.000000
20
72.577003
30
-2.055000
70
192
0
VERTEX
8
OBJECT__48
10
0
20
0
30
0
70
128
71
1
72
2
73
3
0
VERTEX
8
OBJECT__48
10
0
20
0
30
0
70
128
71
4
72
1
73
5
0
VERTEX
8
OBJECT__48
10
0
20
0
30
0
70
128
71
6
72
4
73
7
0
VERTEX
8
OBJECT__48
10
0
20
0
30
0
70
128
71
8
72
6
73
9
0
VERTEX
8
OBJECT__48
10
0
20
0
30
0
70
128
71
10
72
8
73
11
0
VERTEX
8
OBJECT__48
10
0
20
0
30
0
70
128
71
12
72
10
73
13
0
VERTEX
8
OBJECT__48
10
0
20
0
30
0
70
128
71
14
72
15
73
12
0
VERTEX
8
OBJECT__48
10
0
20
0
30
0
70
128
71
16
72
17
73
15
0
VERTEX
8
OBJECT__48
10
0
20
0
30
0
70
128
71
18
72
19
73
17
0
VERTEX
8
OBJECT__48
10
0
20
0
30
0
70
128
71
19
72
18
73
20
0
VERTEX
8
OBJECT__48
10
0
20
0
30
0
70
128
71
21
72
22
73
23
0
VERTEX
8
OBJECT__48
10
0
20
0
30
0
70
128
71
24
72
25
73
22
0
VERTEX
8
OBJECT__48
10
0
20
0
30
0
70
128
71
25
72
24
73
26
0
VERTEX
8
OBJECT__48
10
0
20
0
30
0
70
128
71
3
72
2
73
27
0
VERTEX
8
OBJECT__48
10
0
20
0
30
0
70
128
71
27
72
26
73
3
0
VERTEX
8
OBJECT__48
10
0
20
0
30
0
70
128
71
26
72
27
73
25
0
VERTEX
8
OBJECT__48
10
0
20
0
30
0
70
128
71
22
72
21
73
24
0
VERTEX
8
OBJECT__48
10
0
20
0
30
0
70
128
71
23
72
20
73
21
0
VERTEX
8
OBJECT__48
10
0
20
0
30
0
70
128
71
20
72
23
73
19
0
VERTEX
8
OBJECT__48
10
0
20
0
30
0
70
128
71
17
72
16
73
18
0
VERTEX
8
OBJECT__48
10
0
20
0
30
0
70
128
71
15
72
14
73
16
0
VERTEX
8
OBJECT__48
10
0
20
0
30
0
70
128
71
12
72
28
73
14
0
VERTEX
8
OBJECT__48
10
0
20
0
30
0
70
128
71
13
72
28
73
12
0
VERTEX
8
OBJECT__48
10
0
20
0
30
0
70
128
71
11
72
13
73
10
0
VERTEX
8
OBJECT__48
10
0
20
0
30
0
70
128
71
9
72
11
73
8
0
VERTEX
8
OBJECT__48
10
0
20
0
30
0
70
128
71
7
72
9
73
6
0
VERTEX
8
OBJECT__48
10
0
20
0
30
0
70
128
71
5
72
7
73
4
0
VERTEX
8
OBJECT__48
10
0
20
0
30
0
70
128
71
3
72
5
73
1
0
SEQEND
8
OBJECT__48
0
POLYLINE
8
OBJECT__49
66
1
70
64
71
14
72
12
62
253
0
VERTEX
8
OBJECT__49
10
0.000000
20
84.509003
30
-22.722000
70
192
0
VERTEX
8
OBJECT__49
10
0.000000
20
118.705002
30
-20.159000
70
192
0
VERTEX
8
OBJECT__49
10
0.000000
20
108.106003
30
-26.278000
70
192
0
VERTEX
8
OBJECT__49
10
0.000000
20
127.422997
30
2.055000
70
192
0
VERTEX
8
OBJECT__49
10
0.000000
20
125.598999
30
-10.047000
70
192
0
VERTEX
8
OBJECT__49
10
0.000000
20
104.098999
30
27.193001
70
192
0
VERTEX
8
OBJECT__49
10
0.000000
20
115.490997
30
22.722000
70
192
0
VERTEX
8
OBJECT__49
10
0.000000
20
123.816002
30
13.750000
70
192
0
VERTEX
8
OBJECT__49
10
0.000000
20
74.401001
30
10.047000
70
192
0
VERTEX
8
OBJECT__49
10
0.000000
20
81.294998
30
20.159000
70
192
0
VERTEX
8
OBJECT__49
10
0.000000
20
76.183998
30
-13.750000
70
192
0
VERTEX
8
OBJECT__49
10
0.000000
20
91.893997
30
26.278000
70
192
0
VERTEX
8
OBJECT__49
10
0.000000
20
72.577003
30
-2.055000
70
192
0
VERTEX
8
OBJECT__49
10
0.000000
20
95.901001
30
-27.193001
70
192
0
VERTEX
8
OBJECT__49
10
0
20
0
30
0
70
128
71
1
72
2
73
3
0
VERTEX
8
OBJECT__49
10
0
20
0
30
0
70
128
71
1
72
4
73
5
0
VERTEX
8
OBJECT__49
10
0
20
0
30
0
70
128
71
6
72
7
73
8
0
VERTEX
8
OBJECT__49
10
0
20
0
30
0
70
128
71
4
72
9
73
10
0
VERTEX
8
OBJECT__49
10
0
20
0
30
0
70
128
71
4
72
1
73
11
0
VERTEX
8
OBJECT__49
10
0
20
0
30
0
70
128
71
5
72
2
73
1
0
VERTEX
8
OBJECT__49
10
0
20
0
30
0
70
128
71
4
72
12
73
6
0
VERTEX
8
OBJECT__49
10
0
20
0
30
0
70
128
71
4
72
13
73
9
0
VERTEX
8
OBJECT__49
10
0
20
0
30
0
70
128
71
3
72
14
73
1
0
VERTEX
8
OBJECT__49
10
0
20
0
30
0
70
128
71
10
72
12
73
4
0
VERTEX
8
OBJECT__49
10
0
20
0
30
0
70
128
71
8
72
4
73
6
0
VERTEX
8
OBJECT__49
10
0
20
0
30
0
70
128
71
11
72
13
73
4
0
SEQEND
8
OBJECT__49
0
POLYLINE
8
OBJECT__50
66
1
70
64
71
19
72
19
62
253
0
VERTEX
8
OBJECT__50
10
54.200001
20
-114.768997
30
1.552000
70
192
0
VERTEX
8
OBJECT__50
10
54.200001
20
-112.860001
30
-7.425000
70
192
0
VERTEX
8
OBJECT__50
10
54.200001
20
-107.277000
30
-1.814000
70
192
0
VERTEX
8
OBJECT__50
10
54.200001
20
-111.036003
30
9.937000
70
192
0
VERTEX
8
OBJECT__50
10
54.200001
20
-106.740997
30
3.288000
70
192
0
VERTEX
8
OBJECT__50
10
54.200001
20
-103.051003
30
6.852000
70
192
0
VERTEX
8
OBJECT__50
10
54.200001
20
-103.086998
30
14.525000
70
192
0
VERTEX
8
OBJECT__50
10
54.200001
20
-97.932999
30
7.209000
70
192
0
VERTEX
8
OBJECT__50
10
54.200001
20
-106.040001
30
-13.566000
70
192
0
VERTEX
8
OBJECT__50
10
54.200001
20
-104.407997
30
-6.068000
70
192
0
VERTEX
8
OBJECT__50
10
54.200001
20
-96.913002
30
-14.525000
70
192
0
VERTEX
8
OBJECT__50
10
54.200001
20
-99.476997
30
-7.482000
70
192
0
VERTEX
8
OBJECT__50
10
54.200001
20
-93.959999
30
13.566000
70
192
0
VERTEX
8
OBJECT__50
10
54.200001
20
-93.781998
30
4.194000
70
192
0
VERTEX
8
OBJECT__50
10
54.200001
20
-88.963997
30
-9.937000
70
192
0
VERTEX
8
OBJECT__50
10
54.200001
20
-94.790001
30
-5.395000
70
192
0
VERTEX
8
OBJECT__50
10
54.200001
20
-87.139999
30
7.425000
70
192
0
VERTEX
8
OBJECT__50
10
54.200001
20
-92.541000
30
-0.784000
70
192
0
VERTEX
8
OBJECT__50
10
54.200001
20
-85.231003
30
-1.552000
70
192
0
VERTEX
8
OBJECT__50
10
0
20
0
30
0
70
128
71
1
72
2
73
3
0
VERTEX
8
OBJECT__50
10
0
20
0
30
0
70
128
71
4
72
5
73
6
0
VERTEX
8
OBJECT__50
10
0
20
0
30
0
70
128
71
5
72
4
73
1
0
VERTEX
8
OBJECT__50
10
0
20
0
30
0
70
128
71
7
72
6
73
8
0
VERTEX
8
OBJECT__50
10
0
20
0
30
0
70
128
71
3
72
5
73
1
0
VERTEX
8
OBJECT__50
10
0
20
0
30
0
70
128
71
2
72
9
73
10
0
VERTEX
8
OBJECT__50
10
0
20
0
30
0
70
128
71
9
72
11
73
12
0
VERTEX
8
OBJECT__50
10
0
20
0
30
0
70
128
71
13
72
8
73
14
0
VERTEX
8
OBJECT__50
10
0
20
0
30
0
70
128
71
6
72
7
73
4
0
VERTEX
8
OBJECT__50
10
0
20
0
30
0
70
128
71
12
72
10
73
9
0
VERTEX
8
OBJECT__50
10
0
20
0
30
0
70
128
71
11
72
15
73
16
0
VERTEX
8
OBJECT__50
10
0
20
0
30
0
70
128
71
8
72
13
73
7
0
VERTEX
8
OBJECT__50
10
0
20
0
30
0
70
128
71
16
72
12
73
11
0
VERTEX
8
OBJECT__50
10
0
20
0
30
0
70
128
71
17
72
14
73
18
0
VERTEX
8
OBJECT__50
10
0
20
0
30
0
70
128
71
10
72
3
73
2
0
VERTEX
8
OBJECT__50
10
0
20
0
30
0
70
128
71
14
72
17
73
13
0
VERTEX
8
OBJECT__50
10
0
20
0
30
0
70
128
71
15
72
19
73
18
0
VERTEX
8
OBJECT__50
10
0
20
0
30
0
70
128
71
18
72
16
73
15
0
VERTEX
8
OBJECT__50
10
0
20
0
30
0
70
128
71
18
72
19
73
17
0
SEQEND
8
OBJECT__50
0
POLYLINE
8
OBJECT__51
66
1
70
64
71
20
72
20
62
253
0
VERTEX
8
OBJECT__51
10
54.200001
20
-111.036003
30
9.937000
70
192
0
VERTEX
8
OBJECT__51
10
32.200001
20
-111.036003
30
9.937000
70
192
0
VERTEX
8
OBJECT__51
10
32.200001
20
-114.768997
30
1.552000
70
192
0
VERTEX
8
OBJECT__51
10
32.200001
20
-103.086998
30
14.525000
70
192
0
VERTEX
8
OBJECT__51
10
54.200001
20
-93.959999
30
13.566000
70
192
0
VERTEX
8
OBJECT__51
10
32.200001
20
-93.959999
30
13.566000
70
192
0
VERTEX
8
OBJECT__51
10
32.200001
20
-87.139999
30
7.425000
70
192
0
VERTEX
8
OBJECT__51
10
54.200001
20
-85.231003
30
-1.552000
70
192
0
VERTEX
8
OBJECT__51
10
32.200001
20
-85.231003
30
-1.552000
70
192
0
VERTEX
8
OBJECT__51
10
32.200001
20
-88.963997
30
-9.937000
70
192
0
VERTEX
8
OBJECT__51
10
54.200001
20
-96.913002
30
-14.525000
70
192
0
VERTEX
8
OBJECT__51
10
32.200001
20
-96.913002
30
-14.525000
70
192
0
VERTEX
8
OBJECT__51
10
32.200001
20
-106.040001
30
-13.566000
70
192
0
VERTEX
8
OBJECT__51
10
54.200001
20
-112.860001
30
-7.425000
70
192
0
VERTEX
8
OBJECT__51
10
32.200001
20
-112.860001
30
-7.425000
70
192
0
VERTEX
8
OBJECT__51
10
54.200001
20
-114.768997
30
1.552000
70
192
0
VERTEX
8
OBJECT__51
10
54.200001
20
-106.040001
30
-13.566000
70
192
0
VERTEX
8
OBJECT__51
10
54.200001
20
-88.963997
30
-9.937000
70
192
0
VERTEX
8
OBJECT__51
10
54.200001
20
-87.139999
30
7.425000
70
192
0
VERTEX
8
OBJECT__51
10
54.200001
20
-103.086998
30
14.525000
70
192
0
VERTEX
8
OBJECT__51
10
0
20
0
30
0
70
128
71
1
72
2
73
3
0
VERTEX
8
OBJECT__51
10
0
20
0
30
0
70
128
71
4
72
2
73
1
0
VERTEX
8
OBJECT__51
10
0
20
0
30
0
70
128
71
5
72
6
73
4
0
VERTEX
8
OBJECT__51
10
0
20
0
30
0
70
128
71
7
72
6
73
5
0
VERTEX
8
OBJECT__51
10
0
20
0
30
0
70
128
71
8
72
9
73
7
0
VERTEX
8
OBJECT__51
10
0
20
0
30
0
70
128
71
10
72
9
73
8
0
VERTEX
8
OBJECT__51
10
0
20
0
30
0
70
128
71
11
72
12
73
10
0
VERTEX
8
OBJECT__51
10
0
20
0
30
0
70
128
71
13
72
12
73
11
0
VERTEX
8
OBJECT__51
10
0
20
0
30
0
70
128
71
14
72
15
73
13
0
VERTEX
8
OBJECT__51
10
0
20
0
30
0
70
128
71
3
72
15
73
14
0
VERTEX
8
OBJECT__51
10
0
20
0
30
0
70
128
71
14
72
16
73
3
0
VERTEX
8
OBJECT__51
10
0
20
0
30
0
70
128
71
13
72
17
73
14
0
VERTEX
8
OBJECT__51
10
0
20
0
30
0
70
128
71
11
72
17
73
13
0
VERTEX
8
OBJECT__51
10
0
20
0
30
0
70
128
71
10
72
18
73
11
0
VERTEX
8
OBJECT__51
10
0
20
0
30
0
70
128
71
8
72
18
73
10
0
VERTEX
8
OBJECT__51
10
0
20
0
30
0
70
128
71
7
72
19
73
8
0
VERTEX
8
OBJECT__51
10
0
20
0
30
0
70
128
71
5
72
19
73
7
0
VERTEX
8
OBJECT__51
10
0
20
0
30
0
70
128
71
4
72
20
73
5
0
VERTEX
8
OBJECT__51
10
0
20
0
30
0
70
128
71
1
72
20
73
4
0
VERTEX
8
OBJECT__51
10
0
20
0
30
0
70
128
71
3
72
16
73
1
0
SEQEND
8
OBJECT__51
0
POLYLINE
8
OBJECT__53
66
1
70
64
71
16
72
16
62
253
0
VERTEX
8
OBJECT__53
10
54.200001
20
100.000000
30
-8.500000
70
192
0
VERTEX
8
OBJECT__53
10
54.200001
20
106.010002
30
-6.010000
70
192
0
VERTEX
8
OBJECT__53
10
55.200001
20
106.010002
30
-6.010000
70
192
0
VERTEX
8
OBJECT__53
10
55.200001
20
100.000000
30
-8.500000
70
192
0
VERTEX
8
OBJECT__53
10
54.200001
20
108.500000
30
0.000000
70
192
0
VERTEX
8
OBJECT__53
10
55.200001
20
108.500000
30
0.000000
70
192
0
VERTEX
8
OBJECT__53
10
54.200001
20
106.010002
30
6.010000
70
192
0
VERTEX
8
OBJECT__53
10
55.200001
20
106.010002
30
6.010000
70
192
0
VERTEX
8
OBJECT__53
10
54.200001
20
100.000000
30
8.500000
70
192
0
VERTEX
8
OBJECT__53
10
55.200001
20
100.000000
30
8.500000
70
192
0
VERTEX
8
OBJECT__53
10
54.200001
20
93.989998
30
6.010000
70
192
0
VERTEX
8
OBJECT__53
10
55.200001
20
93.989998
30
6.010000
70
192
0
VERTEX
8
OBJECT__53
10
54.200001
20
91.500000
30
0.000000
70
192
0
VERTEX
8
OBJECT__53
10
55.200001
20
91.500000
30
0.000000
70
192
0
VERTEX
8
OBJECT__53
10
54.200001
20
93.989998
30
-6.010000
70
192
0
VERTEX
8
OBJECT__53
10
55.200001
20
93.989998
30
-6.010000
70
192
0
VERTEX
8
OBJECT__53
10
0
20
0
30
0
70
128
71
1
72
2
73
3
0
VERTEX
8
OBJECT__53
10
0
20
0
30
0
70
128
71
1
72
3
73
4
0
VERTEX
8
OBJECT__53
10
0
20
0
30
0
70
128
71
2
72
5
73
6
0
VERTEX
8
OBJECT__53
10
0
20
0
30
0
70
128
71
2
72
6
73
3
0
VERTEX
8
OBJECT__53
10
0
20
0
30
0
70
128
71
5
72
7
73
8
0
VERTEX
8
OBJECT__53
10
0
20
0
30
0
70
128
71
5
72
8
73
6
0
VERTEX
8
OBJECT__53
10
0
20
0
30
0
70
128
71
7
72
9
73
10
0
VERTEX
8
OBJECT__53
10
0
20
0
30
0
70
128
71
7
72
10
73
8
0
VERTEX
8
OBJECT__53
10
0
20
0
30
0
70
128
71
9
72
11
73
12
0
VERTEX
8
OBJECT__53
10
0
20
0
30
0
70
128
71
9
72
12
73
10
0
VERTEX
8
OBJECT__53
10
0
20
0
30
0
70
128
71
11
72
13
73
14
0
VERTEX
8
OBJECT__53
10
0
20
0
30
0
70
128
71
11
72
14
73
12
0
VERTEX
8
OBJECT__53
10
0
20
0
30
0
70
128
71
13
72
15
73
16
0
VERTEX
8
OBJECT__53
10
0
20
0
30
0
70
128
71
13
72
16
73
14
0
VERTEX
8
OBJECT__53
10
0
20
0
30
0
70
128
71
15
72
1
73
4
0
VERTEX
8
OBJECT__53
10
0
20
0
30
0
70
128
71
15
72
4
73
16
0
SEQEND
8
OBJECT__53
0
POLYLINE
8
OBJECT__55
66
1
70
64
71
16
72
16
62
253
0
VERTEX
8
OBJECT__55
10
54.200001
20
-100.000000
30
8.500000
70
192
0
VERTEX
8
OBJECT__55
10
54.200001
20
-106.010002
30
6.010000
70
192
0
VERTEX
8
OBJECT__55
10
55.200001
20
-106.010002
30
6.010000
70
192
0
VERTEX
8
OBJECT__55
10
55.200001
20
-100.000000
30
8.500000
70
192
0
VERTEX
8
OBJECT__55
10
54.200001
20
-108.500000
30
0.000000
70
192
0
VERTEX
8
OBJECT__55
10
55.200001
20
-108.500000
30
0.000000
70
192
0
VERTEX
8
OBJECT__55
10
54.200001
20
-106.010002
30
-6.010000
70
192
0
VERTEX
8
OBJECT__55
10
55.200001
20
-106.010002
30
-6.010000
70
192
0
VERTEX
8
OBJECT__55
10
54.200001
20
-100.000000
30
-8.500000
70
192
0
VERTEX
8
OBJECT__55
10
55.200001
20
-100.000000
30
-8.500000
70
192
0
VERTEX
8
OBJECT__55
10
54.200001
20
-93.989998
30
-6.010000
70
192
0
VERTEX
8
OBJECT__55
10
55.200001
20
-93.989998
30
-6.010000
70
192
0
VERTEX
8
OBJECT__55
10
54.200001
20
-91.500000
30
0.000000
70
192
0
VERTEX
8
OBJECT__55
10
55.200001
20
-91.500000
30
0.000000
70
192
0
VERTEX
8
OBJECT__55
10
54.200001
20
-93.989998
30
6.010000
70
192
0
VERTEX
8
OBJECT__55
10
55.200001
20
-93.989998
30
6.010000
70
192
0
VERTEX
8
OBJECT__55
10
0
20
0
30
0
70
128
71
1
72
2
73
3
0
VERTEX
8
OBJECT__55
10
0
20
0
30
0
70
128
71
1
72
3
73
4
0
VERTEX
8
OBJECT__55
10
0
20
0
30
0
70
128
71
2
72
5
73
6
0
VERTEX
8
OBJECT__55
10
0
20
0
30
0
70
128
71
2
72
6
73
3
0
VERTEX
8
OBJECT__55
10
0
20
0
30
0
70
128
71
5
72
7
73
8
0
VERTEX
8
OBJECT__55
10
0
20
0
30
0
70
128
71
5
72
8
73
6
0
VERTEX
8
OBJECT__55
10
0
20
0
30
0
70
128
71
7
72
9
73
10
0
VERTEX
8
OBJECT__55
10
0
20
0
30
0
70
128
71
7
72
10
73
8
0
VERTEX
8
OBJECT__55
10
0
20
0
30
0
70
128
71
9
72
11
73
12
0
VERTEX
8
OBJECT__55
10
0
20
0
30
0
70
128
71
9
72
12
73
10
0
VERTEX
8
OBJECT__55
10
0
20
0
30
0
70
128
71
11
72
13
73
14
0
VERTEX
8
OBJECT__55
10
0
20
0
30
0
70
128
71
11
72
14
73
12
0
VERTEX
8
OBJECT__55
10
0
20
0
30
0
70
128
71
13
72
15
73
16
0
VERTEX
8
OBJECT__55
10
0
20
0
30
0
70
128
71
13
72
16
73
14
0
VERTEX
8
OBJECT__55
10
0
20
0
30
0
70
128
71
15
72
1
73
4
0
VERTEX
8
OBJECT__55
10
0
20
0
30
0
70
128
71
15
72
4
73
16
0
SEQEND
8
OBJECT__55
0
POLYLINE
8
OBJECT__57
66
1
70
64
71
23
72
23
62
253
0
VERTEX
8
OBJECT__57
10
50.000000
20
-100.856003
30
-17.980000
70
192
0
VERTEX
8
OBJECT__57
10
10.000000
20
-100.856003
30
-17.980000
70
192
0
VERTEX
8
OBJECT__57
10
10.000000
20
-91.000000
30
-15.588000
70
192
0
VERTEX
8
OBJECT__57
10
50.000000
20
-110.441002
30
-14.662000
70
192
0
VERTEX
8
OBJECT__57
10
10.000000
20
-110.441002
30
-14.662000
70
192
0
VERTEX
8
OBJECT__57
10
50.000000
20
-116.710999
30
-6.690000
70
192
0
VERTEX
8
OBJECT__57
10
10.000000
20
-116.710999
30
-6.690000
70
192
0
VERTEX
8
OBJECT__57
10
50.000000
20
-117.675003
30
3.407000
70
192
0
VERTEX
8
OBJECT__57
10
10.000000
20
-117.675003
30
3.407000
70
192
0
VERTEX
8
OBJECT__57
10
50.000000
20
-113.027000
30
12.421000
70
192
0
VERTEX
8
OBJECT__57
10
10.000000
20
-113.027000
30
12.421000
70
192
0
VERTEX
8
OBJECT__57
10
10.000000
20
-104.244003
30
17.493000
70
192
0
VERTEX
8
OBJECT__57
10
50.000000
20
-109.000000
30
15.588000
70
192
0
VERTEX
8
OBJECT__57
10
50.000000
20
-94.112999
30
17.010000
70
192
0
VERTEX
8
OBJECT__57
10
10.000000
20
-94.112999
30
17.010000
70
192
0
VERTEX
8
OBJECT__57
10
10.000000
20
-85.850998
30
11.127000
70
192
0
VERTEX
8
OBJECT__57
10
10.000000
20
-82.082001
30
1.711000
70
192
0
VERTEX
8
OBJECT__57
10
50.000000
20
-85.850998
30
11.127000
70
192
0
VERTEX
8
OBJECT__57
10
10.000000
20
-84.000999
30
-8.248000
70
192
0
VERTEX
8
OBJECT__57
10
50.000000
20
-82.082001
30
1.711000
70
192
0
VERTEX
8
OBJECT__57
10
50.000000
20
-84.000999
30
-8.248000
70
192
0
VERTEX
8
OBJECT__57
10
50.000000
20
-91.000000
30
-15.588000
70
192
0
VERTEX
8
OBJECT__57
10
50.000000
20
-104.244003
30
17.493000
70
192
0
VERTEX
8
OBJECT__57
10
0
20
0
30
0
70
128
71
1
72
2
73
3
0
VERTEX
8
OBJECT__57
10
0
20
0
30
0
70
128
71
4
72
5
73
2
0
VERTEX
8
OBJECT__57
10
0
20
0
30
0
70
128
71
6
72
7
73
5
0
VERTEX
8
OBJECT__57
10
0
20
0
30
0
70
128
71
8
72
9
73
7
0
VERTEX
8
OBJECT__57
10
0
20
0
30
0
70
128
71
10
72
11
73
9
0
VERTEX
8
OBJECT__57
10
0
20
0
30
0
70
128
71
12
72
11
73
13
0
VERTEX
8
OBJECT__57
10
0
20
0
30
0
70
128
71
11
72
10
73
13
0
VERTEX
8
OBJECT__57
10
0
20
0
30
0
70
128
71
14
72
15
73
12
0
VERTEX
8
OBJECT__57
10
0
20
0
30
0
70
128
71
16
72
15
73
14
0
VERTEX
8
OBJECT__57
10
0
20
0
30
0
70
128
71
17
72
16
73
18
0
VERTEX
8
OBJECT__57
10
0
20
0
30
0
70
128
71
19
72
17
73
20
0
VERTEX
8
OBJECT__57
10
0
20
0
30
0
70
128
71
3
72
19
73
21
0
VERTEX
8
OBJECT__57
10
0
20
0
30
0
70
128
71
21
72
22
73
3
0
VERTEX
8
OBJECT__57
10
0
20
0
30
0
70
128
71
20
72
21
73
19
0
VERTEX
8
OBJECT__57
10
0
20
0
30
0
70
128
71
18
72
20
73
17
0
VERTEX
8
OBJECT__57
10
0
20
0
30
0
70
128
71
14
72
18
73
16
0
VERTEX
8
OBJECT__57
10
0
20
0
30
0
70
128
71
12
72
23
73
14
0
VERTEX
8
OBJECT__57
10
0
20
0
30
0
70
128
71
13
72
23
73
12
0
VERTEX
8
OBJECT__57
10
0
20
0
30
0
70
128
71
9
72
8
73
10
0
VERTEX
8
OBJECT__57
10
0
20
0
30
0
70
128
71
7
72
6
73
8
0
VERTEX
8
OBJECT__57
10
0
20
0
30
0
70
128
71
5
72
4
73
6
0
VERTEX
8
OBJECT__57
10
0
20
0
30
0
70
128
71
2
72
1
73
4
0
VERTEX
8
OBJECT__57
10
0
20
0
30
0
70
128
71
3
72
22
73
1
0
SEQEND
8
OBJECT__57
0
POLYLINE
8
OBJECT__58
66
1
70
64
71
12
72
10
62
253
0
VERTEX
8
OBJECT__58
10
50.000000
20
-84.000999
30
-8.248000
70
192
0
VERTEX
8
OBJECT__58
10
50.000000
20
-85.850998
30
11.127000
70
192
0
VERTEX
8
OBJECT__58
10
50.000000
20
-94.112999
30
17.010000
70
192
0
VERTEX
8
OBJECT__58
10
50.000000
20
-91.000000
30
-15.588000
70
192
0
VERTEX
8
OBJECT__58
10
50.000000
20
-116.710999
30
-6.690000
70
192
0
VERTEX
8
OBJECT__58
10
50.000000
20
-110.441002
30
-14.662000
70
192
0
VERTEX
8
OBJECT__58
10
50.000000
20
-113.027000
30
12.421000
70
192
0
VERTEX
8
OBJECT__58
10
50.000000
20
-117.675003
30
3.407000
70
192
0
VERTEX
8
OBJECT__58
10
50.000000
20
-82.082001
30
1.711000
70
192
0
VERTEX
8
OBJECT__58
10
50.000000
20
-104.244003
30
17.493000
70
192
0
VERTEX
8
OBJECT__58
10
50.000000
20
-109.000000
30
15.588000
70
192
0
VERTEX
8
OBJECT__58
10
50.000000
20
-100.856003
30
-17.980000
70
192
0
VERTEX
8
OBJECT__58
10
0
20
0
30
0
70
128
71
1
72
2
73
3
0
VERTEX
8
OBJECT__58
10
0
20
0
30
0
70
128
71
4
72
5
73
6
0
VERTEX
8
OBJECT__58
10
0
20
0
30
0
70
128
71
4
72
7
73
8
0
VERTEX
8
OBJECT__58
10
0
20
0
30
0
70
128
71
1
72
9
73
2
0
VERTEX
8
OBJECT__58
10
0
20
0
30
0
70
128
71
8
72
5
73
4
0
VERTEX
8
OBJECT__58
10
0
20
0
30
0
70
128
71
10
72
4
73
1
0
VERTEX
8
OBJECT__58
10
0
20
0
30
0
70
128
71
4
72
11
73
7
0
VERTEX
8
OBJECT__58
10
0
20
0
30
0
70
128
71
3
72
10
73
1
0
VERTEX
8
OBJECT__58
10
0
20
0
30
0
70
128
71
10
72
11
73
4
0
VERTEX
8
OBJECT__58
10
0
20
0
30
0
70
128
71
6
72
12
73
4
0
SEQEND
8
OBJECT__58
0
ENDSEC
0
EOF
