999
Converted by 3D Exploration 
999
XDimension Software, LLC
999
http://www.xdsoft.com/explorer/
0
SECTION
2
HEADER
9
$ACADVER
1
AC1008
9
$UCSORG
10
0.0
20
0.0
30
0.0
9
$UCSXDIR
10
1.0
20
0.0
30
0.0
9
$TILEMODE
70
1
9
$UCSYDIR
10
0.0
20
1.0
30
0.0
9
$EXTMIN
10
-0.004000
20
-135.179001
30
-135.179001
9
$EXTMAX
10
189.755997
20
135.475998
30
37.500000
0
ENDSEC
0
SECTION
2
TABLES
0
TABLE
2
LTYPE
70
1
0
LTYPE
2
CONTINUOUS
70
64
3
Solid line
72
65
73
0
40
0.0
0
ENDTAB
0
TABLE
2
LAYER
70
64
0
LAYER
2
OBJECT__0
70
0
62
253
6
CONTINUOUS
0
LAYER
2
OBJECT__1
70
0
62
253
6
CONTINUOUS
0
LAYER
2
OBJECT__3
70
0
62
253
6
CONTINUOUS
0
LAYER
2
OBJECT__4
70
0
62
253
6
CONTINUOUS
0
LAYER
2
OBJECT__5
70
0
62
253
6
CONTINUOUS
0
LAYER
2
OBJECT__6
70
0
62
253
6
CONTINUOUS
0
LAYER
2
OBJECT__7
70
0
62
253
6
CONTINUOUS
0
LAYER
2
OBJECT__9
70
0
62
253
6
CONTINUOUS
0
LAYER
2
OBJECT__10
70
0
62
253
6
CONTINUOUS
0
LAYER
2
OBJECT__11
70
0
62
253
6
CONTINUOUS
0
LAYER
2
OBJECT__12
70
0
62
253
6
CONTINUOUS
0
LAYER
2
OBJECT__13
70
0
62
253
6
CONTINUOUS
0
LAYER
2
OBJECT__14
70
0
62
253
6
CONTINUOUS
0
LAYER
2
OBJECT__15
70
0
62
253
6
CONTINUOUS
0
LAYER
2
OBJECT__17
70
0
62
253
6
CONTINUOUS
0
LAYER
2
OBJECT__18
70
0
62
253
6
CONTINUOUS
0
LAYER
2
OBJECT__20
70
0
62
253
6
CONTINUOUS
0
LAYER
2
OBJECT__22
70
0
62
253
6
CONTINUOUS
0
LAYER
2
OBJECT__23
70
0
62
253
6
CONTINUOUS
0
LAYER
2
OBJECT__25
70
0
62
253
6
CONTINUOUS
0
LAYER
2
OBJECT__26
70
0
62
253
6
CONTINUOUS
0
LAYER
2
OBJECT__28
70
0
62
253
6
CONTINUOUS
0
LAYER
2
OBJECT__29
70
0
62
253
6
CONTINUOUS
0
LAYER
2
OBJECT__31
70
0
62
253
6
CONTINUOUS
0
LAYER
2
OBJECT__32
70
0
62
253
6
CONTINUOUS
0
LAYER
2
OBJECT__33
70
0
62
253
6
CONTINUOUS
0
LAYER
2
OBJECT__35
70
0
62
253
6
CONTINUOUS
0
LAYER
2
OBJECT__36
70
0
62
253
6
CONTINUOUS
0
LAYER
2
OBJECT__38
70
0
62
253
6
CONTINUOUS
0
LAYER
2
OBJECT__39
70
0
62
253
6
CONTINUOUS
0
LAYER
2
OBJECT__40
70
0
62
253
6
CONTINUOUS
0
LAYER
2
OBJECT__41
70
0
62
253
6
CONTINUOUS
0
LAYER
2
OBJECT__42
70
0
62
253
6
CONTINUOUS
0
LAYER
2
OBJECT__44
70
0
62
253
6
CONTINUOUS
0
LAYER
2
OBJECT__45
70
0
62
253
6
CONTINUOUS
0
LAYER
2
OBJECT__46
70
0
62
253
6
CONTINUOUS
0
LAYER
2
OBJECT__47
70
0
62
253
6
CONTINUOUS
0
LAYER
2
OBJECT__48
70
0
62
253
6
CONTINUOUS
0
LAYER
2
OBJECT__49
70
0
62
253
6
CONTINUOUS
0
LAYER
2
OBJECT__50
70
0
62
253
6
CONTINUOUS
0
LAYER
2
OBJECT__51
70
0
62
253
6
CONTINUOUS
0
LAYER
2
OBJECT__53
70
0
62
253
6
CONTINUOUS
0
LAYER
2
OBJECT__54
70
0
62
253
6
CONTINUOUS
0
LAYER
2
OBJECT__55
70
0
62
253
6
CONTINUOUS
0
LAYER
2
OBJECT__56
70
0
62
253
6
CONTINUOUS
0
LAYER
2
OBJECT__57
70
0
62
253
6
CONTINUOUS
0
LAYER
2
OBJECT__58
70
0
62
253
6
CONTINUOUS
0
LAYER
2
OBJECT__59
70
0
62
253
6
CONTINUOUS
0
LAYER
2
OBJECT__60
70
0
62
253
6
CONTINUOUS
0
LAYER
2
OBJECT__61
70
0
62
253
6
CONTINUOUS
0
LAYER
2
OBJECT__62
70
0
62
253
6
CONTINUOUS
0
LAYER
2
OBJECT__63
70
0
62
253
6
CONTINUOUS
0
ENDTAB
0
TABLE
2
STYLE
70
1
0
STYLE
2
STANDARD
70
0
40
0.0
41
1.0
50
0.0
71
0
42
0.2
3
txt
4
1
0
ENDTAB
0
TABLE
2
UCS
70
0
0
ENDTAB
0
ENDSEC
0
SECTION
2
ENTITIES
0
POLYLINE
8
OBJECT__0
66
1
70
64
71
11
72
9
62
253
0
VERTEX
8
OBJECT__0
10
10.000000
20
121.263000
30
-7.359000
70
192
0
VERTEX
8
OBJECT__0
10
10.000000
20
121.865997
30
5.305000
70
192
0
VERTEX
8
OBJECT__0
10
10.000000
20
115.527000
30
16.284000
70
192
0
VERTEX
8
OBJECT__0
10
10.000000
20
104.258003
30
22.093000
70
192
0
VERTEX
8
OBJECT__0
10
10.000000
20
102.139000
30
-22.398001
70
192
0
VERTEX
8
OBJECT__0
10
10.000000
20
113.908997
30
-17.686001
70
192
0
VERTEX
8
OBJECT__0
10
10.000000
20
81.671997
30
13.051000
70
192
0
VERTEX
8
OBJECT__0
10
10.000000
20
77.525002
30
1.071000
70
192
0
VERTEX
8
OBJECT__0
10
10.000000
20
80.514000
30
-11.250000
70
192
0
VERTEX
8
OBJECT__0
10
10.000000
20
89.690002
30
-19.999001
70
192
0
VERTEX
8
OBJECT__0
10
10.000000
20
91.638000
30
20.888000
70
192
0
VERTEX
8
OBJECT__0
10
0
20
0
30
0
70
128
71
1
72
2
73
3
0
VERTEX
8
OBJECT__0
10
0
20
0
30
0
70
128
71
4
72
5
73
6
0
VERTEX
8
OBJECT__0
10
0
20
0
30
0
70
128
71
6
72
1
73
4
0
VERTEX
8
OBJECT__0
10
0
20
0
30
0
70
128
71
7
72
8
73
9
0
VERTEX
8
OBJECT__0
10
0
20
0
30
0
70
128
71
10
72
4
73
11
0
VERTEX
8
OBJECT__0
10
0
20
0
30
0
70
128
71
4
72
10
73
5
0
VERTEX
8
OBJECT__0
10
0
20
0
30
0
70
128
71
11
72
7
73
10
0
VERTEX
8
OBJECT__0
10
0
20
0
30
0
70
128
71
9
72
10
73
7
0
VERTEX
8
OBJECT__0
10
0
20
0
30
0
70
128
71
3
72
4
73
1
0
SEQEND
8
OBJECT__0
0
POLYLINE
8
OBJECT__1
66
1
70
64
71
22
72
22
62
253
0
VERTEX
8
OBJECT__1
10
10.000000
20
80.514000
30
-11.250000
70
192
0
VERTEX
8
OBJECT__1
10
6.000000
20
80.514000
30
-11.250000
70
192
0
VERTEX
8
OBJECT__1
10
6.000000
20
89.690002
30
-19.999001
70
192
0
VERTEX
8
OBJECT__1
10
6.000000
20
102.139000
30
-22.398001
70
192
0
VERTEX
8
OBJECT__1
10
10.000000
20
102.139000
30
-22.398001
70
192
0
VERTEX
8
OBJECT__1
10
10.000000
20
89.690002
30
-19.999001
70
192
0
VERTEX
8
OBJECT__1
10
6.000000
20
113.908997
30
-17.686001
70
192
0
VERTEX
8
OBJECT__1
10
10.000000
20
113.908997
30
-17.686001
70
192
0
VERTEX
8
OBJECT__1
10
6.000000
20
121.263000
30
-7.359000
70
192
0
VERTEX
8
OBJECT__1
10
10.000000
20
121.263000
30
-7.359000
70
192
0
VERTEX
8
OBJECT__1
10
10.000000
20
121.865997
30
5.305000
70
192
0
VERTEX
8
OBJECT__1
10
10.000000
20
115.527000
30
16.284000
70
192
0
VERTEX
8
OBJECT__1
10
6.000000
20
121.865997
30
5.305000
70
192
0
VERTEX
8
OBJECT__1
10
6.000000
20
104.258003
30
22.093000
70
192
0
VERTEX
8
OBJECT__1
10
10.000000
20
104.258003
30
22.093000
70
192
0
VERTEX
8
OBJECT__1
10
10.000000
20
91.638000
30
20.888000
70
192
0
VERTEX
8
OBJECT__1
10
6.000000
20
81.671997
30
13.051000
70
192
0
VERTEX
8
OBJECT__1
10
10.000000
20
81.671997
30
13.051000
70
192
0
VERTEX
8
OBJECT__1
10
6.000000
20
77.525002
30
1.071000
70
192
0
VERTEX
8
OBJECT__1
10
10.000000
20
77.525002
30
1.071000
70
192
0
VERTEX
8
OBJECT__1
10
6.000000
20
91.638000
30
20.888000
70
192
0
VERTEX
8
OBJECT__1
10
6.000000
20
115.527000
30
16.284000
70
192
0
VERTEX
8
OBJECT__1
10
0
20
0
30
0
70
128
71
1
72
2
73
3
0
VERTEX
8
OBJECT__1
10
0
20
0
30
0
70
128
71
4
72
5
73
6
0
VERTEX
8
OBJECT__1
10
0
20
0
30
0
70
128
71
7
72
8
73
5
0
VERTEX
8
OBJECT__1
10
0
20
0
30
0
70
128
71
9
72
10
73
8
0
VERTEX
8
OBJECT__1
10
0
20
0
30
0
70
128
71
11
72
10
73
9
0
VERTEX
8
OBJECT__1
10
0
20
0
30
0
70
128
71
12
72
11
73
13
0
VERTEX
8
OBJECT__1
10
0
20
0
30
0
70
128
71
14
72
15
73
12
0
VERTEX
8
OBJECT__1
10
0
20
0
30
0
70
128
71
16
72
15
73
14
0
VERTEX
8
OBJECT__1
10
0
20
0
30
0
70
128
71
17
72
18
73
16
0
VERTEX
8
OBJECT__1
10
0
20
0
30
0
70
128
71
19
72
20
73
18
0
VERTEX
8
OBJECT__1
10
0
20
0
30
0
70
128
71
2
72
1
73
20
0
VERTEX
8
OBJECT__1
10
0
20
0
30
0
70
128
71
20
72
19
73
2
0
VERTEX
8
OBJECT__1
10
0
20
0
30
0
70
128
71
18
72
17
73
19
0
VERTEX
8
OBJECT__1
10
0
20
0
30
0
70
128
71
16
72
21
73
17
0
VERTEX
8
OBJECT__1
10
0
20
0
30
0
70
128
71
14
72
21
73
16
0
VERTEX
8
OBJECT__1
10
0
20
0
30
0
70
128
71
12
72
22
73
14
0
VERTEX
8
OBJECT__1
10
0
20
0
30
0
70
128
71
13
72
22
73
12
0
VERTEX
8
OBJECT__1
10
0
20
0
30
0
70
128
71
9
72
13
73
11
0
VERTEX
8
OBJECT__1
10
0
20
0
30
0
70
128
71
8
72
7
73
9
0
VERTEX
8
OBJECT__1
10
0
20
0
30
0
70
128
71
5
72
4
73
7
0
VERTEX
8
OBJECT__1
10
0
20
0
30
0
70
128
71
6
72
3
73
4
0
VERTEX
8
OBJECT__1
10
0
20
0
30
0
70
128
71
3
72
6
73
1
0
SEQEND
8
OBJECT__1
0
POLYLINE
8
OBJECT__3
66
1
70
64
71
23
72
23
62
253
0
VERTEX
8
OBJECT__3
10
6.000000
20
123.816002
30
13.750000
70
192
0
VERTEX
8
OBJECT__3
10
6.000000
20
113.750000
30
23.816000
70
192
0
VERTEX
8
OBJECT__3
10
6.000000
20
115.527000
30
16.284000
70
192
0
VERTEX
8
OBJECT__3
10
6.000000
20
121.865997
30
5.305000
70
192
0
VERTEX
8
OBJECT__3
10
6.000000
20
100.000000
30
27.500000
70
192
0
VERTEX
8
OBJECT__3
10
6.000000
20
104.258003
30
22.093000
70
192
0
VERTEX
8
OBJECT__3
10
6.000000
20
100.000000
30
-27.500000
70
192
0
VERTEX
8
OBJECT__3
10
6.000000
20
102.139000
30
-22.398001
70
192
0
VERTEX
8
OBJECT__3
10
6.000000
20
89.690002
30
-19.999001
70
192
0
VERTEX
8
OBJECT__3
10
6.000000
20
113.750000
30
-23.816000
70
192
0
VERTEX
8
OBJECT__3
10
6.000000
20
113.908997
30
-17.686001
70
192
0
VERTEX
8
OBJECT__3
10
6.000000
20
86.250000
30
23.816000
70
192
0
VERTEX
8
OBJECT__3
10
6.000000
20
91.638000
30
20.888000
70
192
0
VERTEX
8
OBJECT__3
10
6.000000
20
76.183998
30
13.750000
70
192
0
VERTEX
8
OBJECT__3
10
6.000000
20
81.671997
30
13.051000
70
192
0
VERTEX
8
OBJECT__3
10
6.000000
20
72.500000
30
0.000000
70
192
0
VERTEX
8
OBJECT__3
10
6.000000
20
77.525002
30
1.071000
70
192
0
VERTEX
8
OBJECT__3
10
6.000000
20
86.250000
30
-23.816000
70
192
0
VERTEX
8
OBJECT__3
10
6.000000
20
80.514000
30
-11.250000
70
192
0
VERTEX
8
OBJECT__3
10
6.000000
20
76.183998
30
-13.750000
70
192
0
VERTEX
8
OBJECT__3
10
6.000000
20
123.816002
30
-13.750000
70
192
0
VERTEX
8
OBJECT__3
10
6.000000
20
121.263000
30
-7.359000
70
192
0
VERTEX
8
OBJECT__3
10
6.000000
20
127.500000
30
0.000000
70
192
0
VERTEX
8
OBJECT__3
10
0
20
0
30
0
70
128
71
1
72
2
73
3
0
VERTEX
8
OBJECT__3
10
0
20
0
30
0
70
128
71
3
72
4
73
1
0
VERTEX
8
OBJECT__3
10
0
20
0
30
0
70
128
71
2
72
5
73
6
0
VERTEX
8
OBJECT__3
10
0
20
0
30
0
70
128
71
7
72
8
73
9
0
VERTEX
8
OBJECT__3
10
0
20
0
30
0
70
128
71
10
72
11
73
8
0
VERTEX
8
OBJECT__3
10
0
20
0
30
0
70
128
71
6
72
3
73
2
0
VERTEX
8
OBJECT__3
10
0
20
0
30
0
70
128
71
5
72
12
73
13
0
VERTEX
8
OBJECT__3
10
0
20
0
30
0
70
128
71
12
72
14
73
15
0
VERTEX
8
OBJECT__3
10
0
20
0
30
0
70
128
71
14
72
16
73
17
0
VERTEX
8
OBJECT__3
10
0
20
0
30
0
70
128
71
18
72
9
73
19
0
VERTEX
8
OBJECT__3
10
0
20
0
30
0
70
128
71
8
72
7
73
10
0
VERTEX
8
OBJECT__3
10
0
20
0
30
0
70
128
71
13
72
6
73
5
0
VERTEX
8
OBJECT__3
10
0
20
0
30
0
70
128
71
17
72
15
73
14
0
VERTEX
8
OBJECT__3
10
0
20
0
30
0
70
128
71
16
72
20
73
19
0
VERTEX
8
OBJECT__3
10
0
20
0
30
0
70
128
71
9
72
18
73
7
0
VERTEX
8
OBJECT__3
10
0
20
0
30
0
70
128
71
15
72
13
73
12
0
VERTEX
8
OBJECT__3
10
0
20
0
30
0
70
128
71
19
72
20
73
18
0
VERTEX
8
OBJECT__3
10
0
20
0
30
0
70
128
71
21
72
22
73
11
0
VERTEX
8
OBJECT__3
10
0
20
0
30
0
70
128
71
23
72
4
73
22
0
VERTEX
8
OBJECT__3
10
0
20
0
30
0
70
128
71
19
72
17
73
16
0
VERTEX
8
OBJECT__3
10
0
20
0
30
0
70
128
71
22
72
21
73
23
0
VERTEX
8
OBJECT__3
10
0
20
0
30
0
70
128
71
11
72
10
73
21
0
VERTEX
8
OBJECT__3
10
0
20
0
30
0
70
128
71
4
72
23
73
1
0
SEQEND
8
OBJECT__3
0
POLYLINE
8
OBJECT__4
66
1
70
64
71
24
72
24
62
253
0
VERTEX
8
OBJECT__4
10
0.000000
20
86.250000
30
-23.816000
70
192
0
VERTEX
8
OBJECT__4
10
6.000000
20
86.250000
30
-23.816000
70
192
0
VERTEX
8
OBJECT__4
10
6.000000
20
76.183998
30
-13.750000
70
192
0
VERTEX
8
OBJECT__4
10
0.000000
20
100.000000
30
-27.500000
70
192
0
VERTEX
8
OBJECT__4
10
6.000000
20
100.000000
30
-27.500000
70
192
0
VERTEX
8
OBJECT__4
10
0.000000
20
113.750000
30
-23.816000
70
192
0
VERTEX
8
OBJECT__4
10
6.000000
20
113.750000
30
-23.816000
70
192
0
VERTEX
8
OBJECT__4
10
0.000000
20
123.816002
30
-13.750000
70
192
0
VERTEX
8
OBJECT__4
10
6.000000
20
123.816002
30
-13.750000
70
192
0
VERTEX
8
OBJECT__4
10
0.000000
20
127.500000
30
0.000000
70
192
0
VERTEX
8
OBJECT__4
10
6.000000
20
127.500000
30
0.000000
70
192
0
VERTEX
8
OBJECT__4
10
6.000000
20
123.816002
30
13.750000
70
192
0
VERTEX
8
OBJECT__4
10
6.000000
20
113.750000
30
23.816000
70
192
0
VERTEX
8
OBJECT__4
10
0.000000
20
123.816002
30
13.750000
70
192
0
VERTEX
8
OBJECT__4
10
6.000000
20
100.000000
30
27.500000
70
192
0
VERTEX
8
OBJECT__4
10
0.000000
20
113.750000
30
23.816000
70
192
0
VERTEX
8
OBJECT__4
10
6.000000
20
86.250000
30
23.816000
70
192
0
VERTEX
8
OBJECT__4
10
0.000000
20
100.000000
30
27.500000
70
192
0
VERTEX
8
OBJECT__4
10
6.000000
20
76.183998
30
13.750000
70
192
0
VERTEX
8
OBJECT__4
10
0.000000
20
86.250000
30
23.816000
70
192
0
VERTEX
8
OBJECT__4
10
6.000000
20
72.500000
30
0.000000
70
192
0
VERTEX
8
OBJECT__4
10
0.000000
20
76.183998
30
13.750000
70
192
0
VERTEX
8
OBJECT__4
10
0.000000
20
76.183998
30
-13.750000
70
192
0
VERTEX
8
OBJECT__4
10
0.000000
20
72.500000
30
0.000000
70
192
0
VERTEX
8
OBJECT__4
10
0
20
0
30
0
70
128
71
1
72
2
73
3
0
VERTEX
8
OBJECT__4
10
0
20
0
30
0
70
128
71
4
72
5
73
2
0
VERTEX
8
OBJECT__4
10
0
20
0
30
0
70
128
71
6
72
7
73
5
0
VERTEX
8
OBJECT__4
10
0
20
0
30
0
70
128
71
8
72
9
73
7
0
VERTEX
8
OBJECT__4
10
0
20
0
30
0
70
128
71
10
72
11
73
9
0
VERTEX
8
OBJECT__4
10
0
20
0
30
0
70
128
71
12
72
11
73
10
0
VERTEX
8
OBJECT__4
10
0
20
0
30
0
70
128
71
13
72
12
73
14
0
VERTEX
8
OBJECT__4
10
0
20
0
30
0
70
128
71
15
72
13
73
16
0
VERTEX
8
OBJECT__4
10
0
20
0
30
0
70
128
71
17
72
15
73
18
0
VERTEX
8
OBJECT__4
10
0
20
0
30
0
70
128
71
19
72
17
73
20
0
VERTEX
8
OBJECT__4
10
0
20
0
30
0
70
128
71
21
72
19
73
22
0
VERTEX
8
OBJECT__4
10
0
20
0
30
0
70
128
71
23
72
3
73
21
0
VERTEX
8
OBJECT__4
10
0
20
0
30
0
70
128
71
21
72
24
73
23
0
VERTEX
8
OBJECT__4
10
0
20
0
30
0
70
128
71
22
72
24
73
21
0
VERTEX
8
OBJECT__4
10
0
20
0
30
0
70
128
71
20
72
22
73
19
0
VERTEX
8
OBJECT__4
10
0
20
0
30
0
70
128
71
18
72
20
73
17
0
VERTEX
8
OBJECT__4
10
0
20
0
30
0
70
128
71
16
72
18
73
15
0
VERTEX
8
OBJECT__4
10
0
20
0
30
0
70
128
71
14
72
16
73
13
0
VERTEX
8
OBJECT__4
10
0
20
0
30
0
70
128
71
10
72
14
73
12
0
VERTEX
8
OBJECT__4
10
0
20
0
30
0
70
128
71
9
72
8
73
10
0
VERTEX
8
OBJECT__4
10
0
20
0
30
0
70
128
71
7
72
6
73
8
0
VERTEX
8
OBJECT__4
10
0
20
0
30
0
70
128
71
5
72
4
73
6
0
VERTEX
8
OBJECT__4
10
0
20
0
30
0
70
128
71
2
72
1
73
4
0
VERTEX
8
OBJECT__4
10
0
20
0
30
0
70
128
71
3
72
23
73
1
0
SEQEND
8
OBJECT__4
0
POLYLINE
8
OBJECT__5
66
1
70
64
71
12
72
10
62
253
0
VERTEX
8
OBJECT__5
10
0.000000
20
76.183998
30
13.750000
70
192
0
VERTEX
8
OBJECT__5
10
0.000000
20
113.750000
30
-23.816000
70
192
0
VERTEX
8
OBJECT__5
10
0.000000
20
100.000000
30
-27.500000
70
192
0
VERTEX
8
OBJECT__5
10
0.000000
20
123.816002
30
13.750000
70
192
0
VERTEX
8
OBJECT__5
10
0.000000
20
86.250000
30
23.816000
70
192
0
VERTEX
8
OBJECT__5
10
0.000000
20
100.000000
30
27.500000
70
192
0
VERTEX
8
OBJECT__5
10
0.000000
20
86.250000
30
-23.816000
70
192
0
VERTEX
8
OBJECT__5
10
0.000000
20
76.183998
30
-13.750000
70
192
0
VERTEX
8
OBJECT__5
10
0.000000
20
123.816002
30
-13.750000
70
192
0
VERTEX
8
OBJECT__5
10
0.000000
20
127.500000
30
0.000000
70
192
0
VERTEX
8
OBJECT__5
10
0.000000
20
113.750000
30
23.816000
70
192
0
VERTEX
8
OBJECT__5
10
0.000000
20
72.500000
30
0.000000
70
192
0
VERTEX
8
OBJECT__5
10
0
20
0
30
0
70
128
71
1
72
2
73
3
0
VERTEX
8
OBJECT__5
10
0
20
0
30
0
70
128
71
4
72
5
73
6
0
VERTEX
8
OBJECT__5
10
0
20
0
30
0
70
128
71
1
72
7
73
8
0
VERTEX
8
OBJECT__5
10
0
20
0
30
0
70
128
71
1
72
9
73
2
0
VERTEX
8
OBJECT__5
10
0
20
0
30
0
70
128
71
1
72
4
73
10
0
VERTEX
8
OBJECT__5
10
0
20
0
30
0
70
128
71
4
72
1
73
5
0
VERTEX
8
OBJECT__5
10
0
20
0
30
0
70
128
71
3
72
7
73
1
0
VERTEX
8
OBJECT__5
10
0
20
0
30
0
70
128
71
6
72
11
73
4
0
VERTEX
8
OBJECT__5
10
0
20
0
30
0
70
128
71
10
72
9
73
1
0
VERTEX
8
OBJECT__5
10
0
20
0
30
0
70
128
71
8
72
12
73
1
0
SEQEND
8
OBJECT__5
0
POLYLINE
8
OBJECT__6
66
1
70
64
71
8
72
6
62
253
0
VERTEX
8
OBJECT__6
10
75.750000
20
-98.665001
30
37.500000
70
192
0
VERTEX
8
OBJECT__6
10
72.502998
20
-94.594002
30
37.500000
70
192
0
VERTEX
8
OBJECT__6
10
67.296997
20
-94.594002
30
37.500000
70
192
0
VERTEX
8
OBJECT__6
10
74.591003
20
-103.740997
30
37.500000
70
192
0
VERTEX
8
OBJECT__6
10
64.050003
20
-98.665001
30
37.500000
70
192
0
VERTEX
8
OBJECT__6
10
65.209000
20
-103.740997
30
37.500000
70
192
0
VERTEX
8
OBJECT__6
10
75.900002
20
-100.000000
30
37.500000
70
192
0
VERTEX
8
OBJECT__6
10
69.900002
20
-106.000000
30
37.500000
70
192
0
VERTEX
8
OBJECT__6
10
0
20
0
30
0
70
128
71
1
72
2
73
3
0
VERTEX
8
OBJECT__6
10
0
20
0
30
0
70
128
71
4
72
5
73
6
0
VERTEX
8
OBJECT__6
10
0
20
0
30
0
70
128
71
5
72
7
73
1
0
VERTEX
8
OBJECT__6
10
0
20
0
30
0
70
128
71
6
72
8
73
4
0
VERTEX
8
OBJECT__6
10
0
20
0
30
0
70
128
71
4
72
7
73
5
0
VERTEX
8
OBJECT__6
10
0
20
0
30
0
70
128
71
3
72
5
73
1
0
SEQEND
8
OBJECT__6
0
POLYLINE
8
OBJECT__7
66
1
70
64
71
39
72
39
62
253
0
VERTEX
8
OBJECT__7
10
69.900002
20
-106.000000
30
37.500000
70
192
0
VERTEX
8
OBJECT__7
10
73.827003
20
-104.537003
30
8.630000
70
192
0
VERTEX
8
OBJECT__7
10
74.540001
20
-103.696999
30
8.991000
70
192
0
VERTEX
8
OBJECT__7
10
70.393997
20
-105.980003
30
7.701000
70
192
0
VERTEX
8
OBJECT__7
10
72.031998
20
-105.609001
30
7.975000
70
192
0
VERTEX
8
OBJECT__7
10
69.900002
20
-106.000000
30
7.685000
70
192
0
VERTEX
8
OBJECT__7
10
74.591003
20
-103.740997
30
37.500000
70
192
0
VERTEX
8
OBJECT__7
10
75.686996
20
-101.584999
30
9.620000
70
192
0
VERTEX
8
OBJECT__7
10
75.897003
20
-99.814003
30
9.748000
70
192
0
VERTEX
8
OBJECT__7
10
75.750000
20
-98.665001
30
37.500000
70
192
0
VERTEX
8
OBJECT__7
10
75.900002
20
-100.000000
30
37.500000
70
192
0
VERTEX
8
OBJECT__7
10
74.851997
20
-103.329002
30
9.149000
70
192
0
VERTEX
8
OBJECT__7
10
75.012001
20
-103.140999
30
9.230000
70
192
0
VERTEX
8
OBJECT__7
10
72.502998
20
-94.594002
30
37.500000
70
192
0
VERTEX
8
OBJECT__7
10
74.344002
20
-95.969002
30
8.878000
70
192
0
VERTEX
8
OBJECT__7
10
72.910004
20
-94.809998
30
8.254000
70
192
0
VERTEX
8
OBJECT__7
10
75.477997
20
-97.790001
30
9.496000
70
192
0
VERTEX
8
OBJECT__7
10
74.787003
20
-96.680000
30
9.119000
70
192
0
VERTEX
8
OBJECT__7
10
75.663002
20
-98.682999
30
9.607000
70
192
0
VERTEX
8
OBJECT__7
10
67.296997
20
-94.594002
30
37.500000
70
192
0
VERTEX
8
OBJECT__7
10
71.445000
20
-94.202003
30
7.839000
70
192
0
VERTEX
8
OBJECT__7
10
69.810997
20
-94.000999
30
7.686000
70
192
0
VERTEX
8
OBJECT__7
10
68.190002
20
-94.249001
30
7.873000
70
192
0
VERTEX
8
OBJECT__7
10
72.487000
20
-94.634003
30
8.134000
70
192
0
VERTEX
8
OBJECT__7
10
64.211998
20
-98.089996
30
9.561000
70
192
0
VERTEX
8
OBJECT__7
10
64.107002
20
-98.675003
30
9.625000
70
192
0
VERTEX
8
OBJECT__7
10
64.981003
20
-96.565002
30
9.125000
70
192
0
VERTEX
8
OBJECT__7
10
64.929001
20
-96.667999
30
9.154000
70
192
0
VERTEX
8
OBJECT__7
10
67.338997
20
-94.679001
30
8.150000
70
192
0
VERTEX
8
OBJECT__7
10
66.282997
20
-95.212997
30
8.494000
70
192
0
VERTEX
8
OBJECT__7
10
65.209000
20
-103.740997
30
37.500000
70
192
0
VERTEX
8
OBJECT__7
10
64.176003
20
-101.797997
30
9.583000
70
192
0
VERTEX
8
OBJECT__7
10
64.982002
20
-103.324997
30
9.130000
70
192
0
VERTEX
8
OBJECT__7
10
65.188004
20
-103.714996
30
9.015000
70
192
0
VERTEX
8
OBJECT__7
10
64.050003
20
-98.665001
30
37.500000
70
192
0
VERTEX
8
OBJECT__7
10
63.903000
20
-99.807999
30
9.748000
70
192
0
VERTEX
8
OBJECT__7
10
66.589996
20
-105.004997
30
8.368000
70
192
0
VERTEX
8
OBJECT__7
10
68.139999
20
-105.736000
30
7.884000
70
192
0
VERTEX
8
OBJECT__7
10
65.212997
20
-103.737000
30
9.003000
70
192
0
VERTEX
8
OBJECT__7
10
0
20
0
30
0
70
128
71
1
72
2
73
3
0
VERTEX
8
OBJECT__7
10
0
20
0
30
0
70
128
71
1
72
4
73
5
0
VERTEX
8
OBJECT__7
10
0
20
0
30
0
70
128
71
1
72
6
73
4
0
VERTEX
8
OBJECT__7
10
0
20
0
30
0
70
128
71
5
72
2
73
1
0
VERTEX
8
OBJECT__7
10
0
20
0
30
0
70
128
71
7
72
8
73
9
0
VERTEX
8
OBJECT__7
10
0
20
0
30
0
70
128
71
9
72
10
73
11
0
VERTEX
8
OBJECT__7
10
0
20
0
30
0
70
128
71
7
72
3
73
12
0
VERTEX
8
OBJECT__7
10
0
20
0
30
0
70
128
71
12
72
13
73
7
0
VERTEX
8
OBJECT__7
10
0
20
0
30
0
70
128
71
13
72
8
73
7
0
VERTEX
8
OBJECT__7
10
0
20
0
30
0
70
128
71
9
72
11
73
7
0
VERTEX
8
OBJECT__7
10
0
20
0
30
0
70
128
71
14
72
15
73
16
0
VERTEX
8
OBJECT__7
10
0
20
0
30
0
70
128
71
14
72
17
73
18
0
VERTEX
8
OBJECT__7
10
0
20
0
30
0
70
128
71
18
72
15
73
14
0
VERTEX
8
OBJECT__7
10
0
20
0
30
0
70
128
71
14
72
10
73
19
0
VERTEX
8
OBJECT__7
10
0
20
0
30
0
70
128
71
19
72
17
73
14
0
VERTEX
8
OBJECT__7
10
0
20
0
30
0
70
128
71
20
72
21
73
22
0
VERTEX
8
OBJECT__7
10
0
20
0
30
0
70
128
71
22
72
23
73
20
0
VERTEX
8
OBJECT__7
10
0
20
0
30
0
70
128
71
20
72
14
73
24
0
VERTEX
8
OBJECT__7
10
0
20
0
30
0
70
128
71
24
72
21
73
20
0
VERTEX
8
OBJECT__7
10
0
20
0
30
0
70
128
71
20
72
25
73
26
0
VERTEX
8
OBJECT__7
10
0
20
0
30
0
70
128
71
20
72
27
73
28
0
VERTEX
8
OBJECT__7
10
0
20
0
30
0
70
128
71
20
72
29
73
30
0
VERTEX
8
OBJECT__7
10
0
20
0
30
0
70
128
71
30
72
27
73
20
0
VERTEX
8
OBJECT__7
10
0
20
0
30
0
70
128
71
28
72
25
73
20
0
VERTEX
8
OBJECT__7
10
0
20
0
30
0
70
128
71
31
72
32
73
33
0
VERTEX
8
OBJECT__7
10
0
20
0
30
0
70
128
71
33
72
34
73
31
0
VERTEX
8
OBJECT__7
10
0
20
0
30
0
70
128
71
31
72
35
73
36
0
VERTEX
8
OBJECT__7
10
0
20
0
30
0
70
128
71
36
72
32
73
31
0
VERTEX
8
OBJECT__7
10
0
20
0
30
0
70
128
71
35
72
26
73
36
0
VERTEX
8
OBJECT__7
10
0
20
0
30
0
70
128
71
1
72
37
73
38
0
VERTEX
8
OBJECT__7
10
0
20
0
30
0
70
128
71
1
72
31
73
39
0
VERTEX
8
OBJECT__7
10
0
20
0
30
0
70
128
71
39
72
37
73
1
0
VERTEX
8
OBJECT__7
10
0
20
0
30
0
70
128
71
38
72
6
73
1
0
VERTEX
8
OBJECT__7
10
0
20
0
30
0
70
128
71
34
72
39
73
31
0
VERTEX
8
OBJECT__7
10
0
20
0
30
0
70
128
71
26
72
35
73
20
0
VERTEX
8
OBJECT__7
10
0
20
0
30
0
70
128
71
23
72
29
73
20
0
VERTEX
8
OBJECT__7
10
0
20
0
30
0
70
128
71
16
72
24
73
14
0
VERTEX
8
OBJECT__7
10
0
20
0
30
0
70
128
71
9
72
19
73
10
0
VERTEX
8
OBJECT__7
10
0
20
0
30
0
70
128
71
3
72
7
73
1
0
SEQEND
8
OBJECT__7
0
POLYLINE
8
OBJECT__9
66
1
70
64
71
113
72
119
62
253
0
VERTEX
8
OBJECT__9
10
54.400002
20
-109.601997
30
-1.693000
70
192
0
VERTEX
8
OBJECT__9
10
63.903000
20
-108.538002
30
-4.707000
70
192
0
VERTEX
8
OBJECT__9
10
64.107002
20
-108.998001
30
-3.665000
70
192
0
VERTEX
8
OBJECT__9
10
64.211998
20
-109.235001
30
-3.127000
70
192
0
VERTEX
8
OBJECT__9
10
54.400002
20
-106.266998
30
-7.469000
70
192
0
VERTEX
8
OBJECT__9
10
64.176003
20
-107.400002
30
-6.349000
70
192
0
VERTEX
8
OBJECT__9
10
64.982002
20
-106.244003
30
-7.445000
70
192
0
VERTEX
8
OBJECT__9
10
77.400002
20
-108.444000
30
4.875000
70
192
0
VERTEX
8
OBJECT__9
10
74.344002
20
-109.704002
30
-0.948000
70
192
0
VERTEX
8
OBJECT__9
10
74.787003
20
-109.556999
30
-1.684000
70
192
0
VERTEX
8
OBJECT__9
10
71.445000
20
-109.688004
30
1.101000
70
192
0
VERTEX
8
OBJECT__9
10
72.487000
20
-109.726997
30
0.580000
70
192
0
VERTEX
8
OBJECT__9
10
72.910004
20
-109.742996
30
0.368000
70
192
0
VERTEX
8
OBJECT__9
10
69.810997
20
-109.655998
30
1.353000
70
192
0
VERTEX
8
OBJECT__9
10
54.400002
20
-108.444000
30
4.875000
70
192
0
VERTEX
8
OBJECT__9
10
68.190002
20
-109.694000
30
1.044000
70
192
0
VERTEX
8
OBJECT__9
10
66.282997
20
-109.749001
30
-0.101000
70
192
0
VERTEX
8
OBJECT__9
10
67.338997
20
-109.719002
30
0.533000
70
192
0
VERTEX
8
OBJECT__9
10
64.929001
20
-109.594002
30
-1.691000
70
192
0
VERTEX
8
OBJECT__9
10
64.981003
20
-109.620003
30
-1.588000
70
192
0
VERTEX
8
OBJECT__9
10
77.400002
20
-106.266998
30
-7.469000
70
192
0
VERTEX
8
OBJECT__9
10
77.400002
20
-109.601997
30
-1.693000
70
192
0
VERTEX
8
OBJECT__9
10
75.897003
20
-108.535004
30
-4.713000
70
192
0
VERTEX
8
OBJECT__9
10
75.686996
20
-107.539001
30
-6.183000
70
192
0
VERTEX
8
OBJECT__9
10
75.012001
20
-106.422997
30
-7.335000
70
192
0
VERTEX
8
OBJECT__9
10
75.477997
20
-109.329002
30
-2.834000
70
192
0
VERTEX
8
OBJECT__9
10
75.663002
20
-108.978996
30
-3.663000
70
192
0
VERTEX
8
OBJECT__9
10
54.400002
20
-100.000000
30
-9.750000
70
192
0
VERTEX
8
OBJECT__9
10
65.188004
20
-105.948997
30
-7.724000
70
192
0
VERTEX
8
OBJECT__9
10
66.589996
20
-104.744003
30
-8.518000
70
192
0
VERTEX
8
OBJECT__9
10
65.212997
20
-105.929001
30
-7.738000
70
192
0
VERTEX
8
OBJECT__9
10
68.139999
20
-103.959999
30
-8.910000
70
192
0
VERTEX
8
OBJECT__9
10
77.400002
20
-100.000000
30
-9.750000
70
192
0
VERTEX
8
OBJECT__9
10
69.900002
20
-103.655998
30
-9.039000
70
192
0
VERTEX
8
OBJECT__9
10
72.031998
20
-104.102997
30
-8.845000
70
192
0
VERTEX
8
OBJECT__9
10
70.393997
20
-103.680000
30
-9.029000
70
192
0
VERTEX
8
OBJECT__9
10
74.851997
20
-106.259003
30
-7.458000
70
192
0
VERTEX
8
OBJECT__9
10
74.540001
20
-105.938004
30
-7.698000
70
192
0
VERTEX
8
OBJECT__9
10
73.827003
20
-105.206001
30
-8.244000
70
192
0
VERTEX
8
OBJECT__9
10
54.400002
20
-93.733002
30
-7.469000
70
192
0
VERTEX
8
OBJECT__9
10
54.400002
20
-91.556000
30
-4.875000
70
192
0
VERTEX
8
OBJECT__9
10
63.903000
20
-91.651001
30
-5.035000
70
192
0
VERTEX
8
OBJECT__9
10
64.137001
20
-92.337997
30
-5.944000
70
192
0
VERTEX
8
OBJECT__9
10
54.400002
20
-90.398003
30
-1.693000
70
192
0
VERTEX
8
OBJECT__9
10
64.112999
20
-90.875999
30
-3.438000
70
192
0
VERTEX
8
OBJECT__9
10
64.947998
20
-90.412003
30
-1.691000
70
192
0
VERTEX
8
OBJECT__9
10
64.788002
20
-90.435997
30
-1.895000
70
192
0
VERTEX
8
OBJECT__9
10
64.321999
20
-92.880997
30
-6.662000
70
192
0
VERTEX
8
OBJECT__9
10
77.400002
20
-93.733002
30
-7.469000
70
192
0
VERTEX
8
OBJECT__9
10
74.819000
20
-93.815002
30
-7.537000
70
192
0
VERTEX
8
OBJECT__9
10
73.516998
20
-95.038002
30
-8.393000
70
192
0
VERTEX
8
OBJECT__9
10
71.610001
20
-96.056999
30
-8.917000
70
192
0
VERTEX
8
OBJECT__9
10
72.460999
20
-95.602997
30
-8.683000
70
192
0
VERTEX
8
OBJECT__9
10
68.355003
20
-96.110001
30
-8.940000
70
192
0
VERTEX
8
OBJECT__9
10
69.988998
20
-96.344002
30
-9.038000
70
192
0
VERTEX
8
OBJECT__9
10
66.889999
20
-95.446999
30
-8.622000
70
192
0
VERTEX
8
OBJECT__9
10
67.313004
20
-95.639000
30
-8.714000
70
192
0
VERTEX
8
OBJECT__9
10
65.456001
20
-94.327003
30
-7.930000
70
192
0
VERTEX
8
OBJECT__9
10
65.013000
20
-93.763000
30
-7.435000
70
192
0
VERTEX
8
OBJECT__9
10
77.400002
20
-91.556000
30
-4.875000
70
192
0
VERTEX
8
OBJECT__9
10
75.897003
20
-91.653999
30
-5.041000
70
192
0
VERTEX
8
OBJECT__9
10
75.624001
20
-90.802002
30
-3.234000
70
192
0
VERTEX
8
OBJECT__9
10
75.693001
20
-92.327003
30
-5.960000
70
192
0
VERTEX
8
OBJECT__9
10
75.587997
20
-92.675003
30
-6.434000
70
192
0
VERTEX
8
OBJECT__9
10
74.871002
20
-93.737999
30
-7.463000
70
192
0
VERTEX
8
OBJECT__9
10
77.400002
20
-90.398003
30
-1.693000
70
192
0
VERTEX
8
OBJECT__9
10
54.400002
20
-91.556000
30
4.875000
70
192
0
VERTEX
8
OBJECT__9
10
65.260002
20
-90.364998
30
-1.294000
70
192
0
VERTEX
8
OBJECT__9
10
65.973000
20
-90.258003
30
-0.386000
70
192
0
VERTEX
8
OBJECT__9
10
67.767998
20
-90.289001
30
0.869000
70
192
0
VERTEX
8
OBJECT__9
10
77.400002
20
-91.556000
30
4.875000
70
192
0
VERTEX
8
OBJECT__9
10
69.900002
20
-90.344002
30
1.354000
70
192
0
VERTEX
8
OBJECT__9
10
69.405998
20
-90.341003
30
1.328000
70
192
0
VERTEX
8
OBJECT__9
10
71.660004
20
-90.304001
30
1.026000
70
192
0
VERTEX
8
OBJECT__9
10
74.612000
20
-90.335999
30
-1.290000
70
192
0
VERTEX
8
OBJECT__9
10
74.586998
20
-90.334000
30
-1.265000
70
192
0
VERTEX
8
OBJECT__9
10
73.209999
20
-90.250999
30
0.150000
70
192
0
VERTEX
8
OBJECT__9
10
74.818001
20
-90.431000
30
-1.685000
70
192
0
VERTEX
8
OBJECT__9
10
54.400002
20
-96.665001
30
9.162000
70
192
0
VERTEX
8
OBJECT__9
10
63.903000
20
-99.807999
30
9.748000
70
192
0
VERTEX
8
OBJECT__9
10
64.107002
20
-98.675003
30
9.625000
70
192
0
VERTEX
8
OBJECT__9
10
64.211998
20
-98.089996
30
9.561000
70
192
0
VERTEX
8
OBJECT__9
10
54.400002
20
-103.334999
30
9.162000
70
192
0
VERTEX
8
OBJECT__9
10
64.176003
20
-101.797997
30
9.583000
70
192
0
VERTEX
8
OBJECT__9
10
64.982002
20
-103.324997
30
9.130000
70
192
0
VERTEX
8
OBJECT__9
10
74.344002
20
-95.969002
30
8.878000
70
192
0
VERTEX
8
OBJECT__9
10
74.787003
20
-96.680000
30
9.119000
70
192
0
VERTEX
8
OBJECT__9
10
71.445000
20
-94.202003
30
7.839000
70
192
0
VERTEX
8
OBJECT__9
10
72.487000
20
-94.634003
30
8.134000
70
192
0
VERTEX
8
OBJECT__9
10
72.910004
20
-94.809998
30
8.254000
70
192
0
VERTEX
8
OBJECT__9
10
69.810997
20
-94.000999
30
7.686000
70
192
0
VERTEX
8
OBJECT__9
10
68.190002
20
-94.249001
30
7.873000
70
192
0
VERTEX
8
OBJECT__9
10
66.282997
20
-95.212997
30
8.494000
70
192
0
VERTEX
8
OBJECT__9
10
67.338997
20
-94.679001
30
8.150000
70
192
0
VERTEX
8
OBJECT__9
10
64.929001
20
-96.667999
30
9.154000
70
192
0
VERTEX
8
OBJECT__9
10
64.981003
20
-96.565002
30
9.125000
70
192
0
VERTEX
8
OBJECT__9
10
77.400002
20
-103.334999
30
9.162000
70
192
0
VERTEX
8
OBJECT__9
10
77.400002
20
-96.665001
30
9.162000
70
192
0
VERTEX
8
OBJECT__9
10
75.897003
20
-99.814003
30
9.748000
70
192
0
VERTEX
8
OBJECT__9
10
75.686996
20
-101.584999
30
9.620000
70
192
0
VERTEX
8
OBJECT__9
10
75.012001
20
-103.140999
30
9.230000
70
192
0
VERTEX
8
OBJECT__9
10
75.477997
20
-97.790001
30
9.496000
70
192
0
VERTEX
8
OBJECT__9
10
75.663002
20
-98.682999
30
9.607000
70
192
0
VERTEX
8
OBJECT__9
10
65.188004
20
-103.714996
30
9.015000
70
192
0
VERTEX
8
OBJECT__9
10
66.589996
20
-105.004997
30
8.368000
70
192
0
VERTEX
8
OBJECT__9
10
65.212997
20
-103.737000
30
9.003000
70
192
0
VERTEX
8
OBJECT__9
10
68.139999
20
-105.736000
30
7.884000
70
192
0
VERTEX
8
OBJECT__9
10
69.900002
20
-106.000000
30
7.685000
70
192
0
VERTEX
8
OBJECT__9
10
72.031998
20
-105.609001
30
7.975000
70
192
0
VERTEX
8
OBJECT__9
10
70.393997
20
-105.980003
30
7.701000
70
192
0
VERTEX
8
OBJECT__9
10
74.851997
20
-103.329002
30
9.149000
70
192
0
VERTEX
8
OBJECT__9
10
74.540001
20
-103.696999
30
8.991000
70
192
0
VERTEX
8
OBJECT__9
10
73.827003
20
-104.537003
30
8.630000
70
192
0
VERTEX
8
OBJECT__9
10
0
20
0
30
0
70
128
71
1
72
2
73
3
0
VERTEX
8
OBJECT__9
10
0
20
0
30
0
70
128
71
3
72
4
73
1
0
VERTEX
8
OBJECT__9
10
0
20
0
30
0
70
128
71
5
72
6
73
2
0
VERTEX
8
OBJECT__9
10
0
20
0
30
0
70
128
71
2
72
1
73
5
0
VERTEX
8
OBJECT__9
10
0
20
0
30
0
70
128
71
5
72
7
73
6
0
VERTEX
8
OBJECT__9
10
0
20
0
30
0
70
128
71
8
72
9
73
10
0
VERTEX
8
OBJECT__9
10
0
20
0
30
0
70
128
71
8
72
11
73
12
0
VERTEX
8
OBJECT__9
10
0
20
0
30
0
70
128
71
12
72
13
73
8
0
VERTEX
8
OBJECT__9
10
0
20
0
30
0
70
128
71
13
72
9
73
8
0
VERTEX
8
OBJECT__9
10
0
20
0
30
0
70
128
71
8
72
14
73
11
0
VERTEX
8
OBJECT__9
10
0
20
0
30
0
70
128
71
15
72
16
73
14
0
VERTEX
8
OBJECT__9
10
0
20
0
30
0
70
128
71
14
72
8
73
15
0
VERTEX
8
OBJECT__9
10
0
20
0
30
0
70
128
71
15
72
17
73
18
0
VERTEX
8
OBJECT__9
10
0
20
0
30
0
70
128
71
15
72
1
73
19
0
VERTEX
8
OBJECT__9
10
0
20
0
30
0
70
128
71
19
72
20
73
15
0
VERTEX
8
OBJECT__9
10
0
20
0
30
0
70
128
71
20
72
17
73
15
0
VERTEX
8
OBJECT__9
10
0
20
0
30
0
70
128
71
18
72
16
73
15
0
VERTEX
8
OBJECT__9
10
0
20
0
30
0
70
128
71
21
72
22
73
23
0
VERTEX
8
OBJECT__9
10
0
20
0
30
0
70
128
71
23
72
24
73
21
0
VERTEX
8
OBJECT__9
10
0
20
0
30
0
70
128
71
24
72
25
73
21
0
VERTEX
8
OBJECT__9
10
0
20
0
30
0
70
128
71
22
72
26
73
27
0
VERTEX
8
OBJECT__9
10
0
20
0
30
0
70
128
71
27
72
23
73
22
0
VERTEX
8
OBJECT__9
10
0
20
0
30
0
70
128
71
22
72
10
73
26
0
VERTEX
8
OBJECT__9
10
0
20
0
30
0
70
128
71
28
72
29
73
7
0
VERTEX
8
OBJECT__9
10
0
20
0
30
0
70
128
71
28
72
30
73
31
0
VERTEX
8
OBJECT__9
10
0
20
0
30
0
70
128
71
28
72
32
73
30
0
VERTEX
8
OBJECT__9
10
0
20
0
30
0
70
128
71
31
72
29
73
28
0
VERTEX
8
OBJECT__9
10
0
20
0
30
0
70
128
71
28
72
33
73
34
0
VERTEX
8
OBJECT__9
10
0
20
0
30
0
70
128
71
33
72
35
73
36
0
VERTEX
8
OBJECT__9
10
0
20
0
30
0
70
128
71
36
72
34
73
33
0
VERTEX
8
OBJECT__9
10
0
20
0
30
0
70
128
71
34
72
32
73
28
0
VERTEX
8
OBJECT__9
10
0
20
0
30
0
70
128
71
33
72
21
73
37
0
VERTEX
8
OBJECT__9
10
0
20
0
30
0
70
128
71
37
72
38
73
33
0
VERTEX
8
OBJECT__9
10
0
20
0
30
0
70
128
71
38
72
39
73
33
0
VERTEX
8
OBJECT__9
10
0
20
0
30
0
70
128
71
39
72
35
73
33
0
VERTEX
8
OBJECT__9
10
0
20
0
30
0
70
128
71
40
72
41
73
42
0
VERTEX
8
OBJECT__9
10
0
20
0
30
0
70
128
71
42
72
43
73
40
0
VERTEX
8
OBJECT__9
10
0
20
0
30
0
70
128
71
44
72
45
73
42
0
VERTEX
8
OBJECT__9
10
0
20
0
30
0
70
128
71
44
72
46
73
47
0
VERTEX
8
OBJECT__9
10
0
20
0
30
0
70
128
71
47
72
45
73
44
0
VERTEX
8
OBJECT__9
10
0
20
0
30
0
70
128
71
42
72
41
73
44
0
VERTEX
8
OBJECT__9
10
0
20
0
30
0
70
128
71
43
72
48
73
40
0
VERTEX
8
OBJECT__9
10
0
20
0
30
0
70
128
71
49
72
33
73
50
0
VERTEX
8
OBJECT__9
10
0
20
0
30
0
70
128
71
33
72
51
73
50
0
VERTEX
8
OBJECT__9
10
0
20
0
30
0
70
128
71
33
72
52
73
53
0
VERTEX
8
OBJECT__9
10
0
20
0
30
0
70
128
71
53
72
51
73
33
0
VERTEX
8
OBJECT__9
10
0
20
0
30
0
70
128
71
28
72
54
73
55
0
VERTEX
8
OBJECT__9
10
0
20
0
30
0
70
128
71
28
72
56
73
57
0
VERTEX
8
OBJECT__9
10
0
20
0
30
0
70
128
71
28
72
58
73
56
0
VERTEX
8
OBJECT__9
10
0
20
0
30
0
70
128
71
28
72
40
73
59
0
VERTEX
8
OBJECT__9
10
0
20
0
30
0
70
128
71
59
72
58
73
28
0
VERTEX
8
OBJECT__9
10
0
20
0
30
0
70
128
71
57
72
54
73
28
0
VERTEX
8
OBJECT__9
10
0
20
0
30
0
70
128
71
55
72
33
73
28
0
VERTEX
8
OBJECT__9
10
0
20
0
30
0
70
128
71
55
72
52
73
33
0
VERTEX
8
OBJECT__9
10
0
20
0
30
0
70
128
71
60
72
61
73
62
0
VERTEX
8
OBJECT__9
10
0
20
0
30
0
70
128
71
60
72
49
73
63
0
VERTEX
8
OBJECT__9
10
0
20
0
30
0
70
128
71
49
72
64
73
63
0
VERTEX
8
OBJECT__9
10
0
20
0
30
0
70
128
71
49
72
65
73
64
0
VERTEX
8
OBJECT__9
10
0
20
0
30
0
70
128
71
63
72
61
73
60
0
VERTEX
8
OBJECT__9
10
0
20
0
30
0
70
128
71
62
72
66
73
60
0
VERTEX
8
OBJECT__9
10
0
20
0
30
0
70
128
71
67
72
68
73
46
0
VERTEX
8
OBJECT__9
10
0
20
0
30
0
70
128
71
67
72
69
73
68
0
VERTEX
8
OBJECT__9
10
0
20
0
30
0
70
128
71
67
72
70
73
69
0
VERTEX
8
OBJECT__9
10
0
20
0
30
0
70
128
71
71
72
72
73
73
0
VERTEX
8
OBJECT__9
10
0
20
0
30
0
70
128
71
73
72
67
73
71
0
VERTEX
8
OBJECT__9
10
0
20
0
30
0
70
128
71
71
72
74
73
72
0
VERTEX
8
OBJECT__9
10
0
20
0
30
0
70
128
71
71
72
75
73
76
0
VERTEX
8
OBJECT__9
10
0
20
0
30
0
70
128
71
76
72
77
73
71
0
VERTEX
8
OBJECT__9
10
0
20
0
30
0
70
128
71
66
72
78
73
75
0
VERTEX
8
OBJECT__9
10
0
20
0
30
0
70
128
71
75
72
71
73
66
0
VERTEX
8
OBJECT__9
10
0
20
0
30
0
70
128
71
77
72
74
73
71
0
VERTEX
8
OBJECT__9
10
0
20
0
30
0
70
128
71
73
72
70
73
67
0
VERTEX
8
OBJECT__9
10
0
20
0
30
0
70
128
71
79
72
80
73
81
0
VERTEX
8
OBJECT__9
10
0
20
0
30
0
70
128
71
81
72
82
73
79
0
VERTEX
8
OBJECT__9
10
0
20
0
30
0
70
128
71
83
72
84
73
80
0
VERTEX
8
OBJECT__9
10
0
20
0
30
0
70
128
71
80
72
79
73
83
0
VERTEX
8
OBJECT__9
10
0
20
0
30
0
70
128
71
83
72
85
73
84
0
VERTEX
8
OBJECT__9
10
0
20
0
30
0
70
128
71
71
72
86
73
87
0
VERTEX
8
OBJECT__9
10
0
20
0
30
0
70
128
71
71
72
88
73
89
0
VERTEX
8
OBJECT__9
10
0
20
0
30
0
70
128
71
89
72
90
73
71
0
VERTEX
8
OBJECT__9
10
0
20
0
30
0
70
128
71
90
72
86
73
71
0
VERTEX
8
OBJECT__9
10
0
20
0
30
0
70
128
71
71
72
91
73
88
0
VERTEX
8
OBJECT__9
10
0
20
0
30
0
70
128
71
67
72
92
73
91
0
VERTEX
8
OBJECT__9
10
0
20
0
30
0
70
128
71
91
72
71
73
67
0
VERTEX
8
OBJECT__9
10
0
20
0
30
0
70
128
71
67
72
93
73
94
0
VERTEX
8
OBJECT__9
10
0
20
0
30
0
70
128
71
67
72
79
73
95
0
VERTEX
8
OBJECT__9
10
0
20
0
30
0
70
128
71
95
72
96
73
67
0
VERTEX
8
OBJECT__9
10
0
20
0
30
0
70
128
71
96
72
93
73
67
0
VERTEX
8
OBJECT__9
10
0
20
0
30
0
70
128
71
94
72
92
73
67
0
VERTEX
8
OBJECT__9
10
0
20
0
30
0
70
128
71
97
72
98
73
99
0
VERTEX
8
OBJECT__9
10
0
20
0
30
0
70
128
71
99
72
100
73
97
0
VERTEX
8
OBJECT__9
10
0
20
0
30
0
70
128
71
100
72
101
73
97
0
VERTEX
8
OBJECT__9
10
0
20
0
30
0
70
128
71
98
72
102
73
103
0
VERTEX
8
OBJECT__9
10
0
20
0
30
0
70
128
71
103
72
99
73
98
0
VERTEX
8
OBJECT__9
10
0
20
0
30
0
70
128
71
98
72
87
73
102
0
VERTEX
8
OBJECT__9
10
0
20
0
30
0
70
128
71
15
72
104
73
85
0
VERTEX
8
OBJECT__9
10
0
20
0
30
0
70
128
71
15
72
105
73
106
0
VERTEX
8
OBJECT__9
10
0
20
0
30
0
70
128
71
15
72
107
73
105
0
VERTEX
8
OBJECT__9
10
0
20
0
30
0
70
128
71
106
72
104
73
15
0
VERTEX
8
OBJECT__9
10
0
20
0
30
0
70
128
71
15
72
8
73
108
0
VERTEX
8
OBJECT__9
10
0
20
0
30
0
70
128
71
8
72
109
73
110
0
VERTEX
8
OBJECT__9
10
0
20
0
30
0
70
128
71
110
72
108
73
8
0
VERTEX
8
OBJECT__9
10
0
20
0
30
0
70
128
71
108
72
107
73
15
0
VERTEX
8
OBJECT__9
10
0
20
0
30
0
70
128
71
8
72
97
73
111
0
VERTEX
8
OBJECT__9
10
0
20
0
30
0
70
128
71
111
72
112
73
8
0
VERTEX
8
OBJECT__9
10
0
20
0
30
0
70
128
71
112
72
113
73
8
0
VERTEX
8
OBJECT__9
10
0
20
0
30
0
70
128
71
113
72
109
73
8
0
VERTEX
8
OBJECT__9
10
0
20
0
30
0
70
128
71
85
72
83
73
15
0
VERTEX
8
OBJECT__9
10
0
20
0
30
0
70
128
71
101
72
111
73
97
0
VERTEX
8
OBJECT__9
10
0
20
0
30
0
70
128
71
87
72
98
73
71
0
VERTEX
8
OBJECT__9
10
0
20
0
30
0
70
128
71
82
72
95
73
79
0
VERTEX
8
OBJECT__9
10
0
20
0
30
0
70
128
71
46
72
44
73
67
0
VERTEX
8
OBJECT__9
10
0
20
0
30
0
70
128
71
62
72
78
73
66
0
VERTEX
8
OBJECT__9
10
0
20
0
30
0
70
128
71
50
72
65
73
49
0
VERTEX
8
OBJECT__9
10
0
20
0
30
0
70
128
71
48
72
59
73
40
0
VERTEX
8
OBJECT__9
10
0
20
0
30
0
70
128
71
7
72
5
73
28
0
VERTEX
8
OBJECT__9
10
0
20
0
30
0
70
128
71
25
72
37
73
21
0
VERTEX
8
OBJECT__9
10
0
20
0
30
0
70
128
71
10
72
22
73
8
0
VERTEX
8
OBJECT__9
10
0
20
0
30
0
70
128
71
4
72
19
73
1
0
SEQEND
8
OBJECT__9
0
POLYLINE
8
OBJECT__10
66
1
70
64
71
10
72
8
62
253
0
VERTEX
8
OBJECT__10
10
77.400002
20
-103.334999
30
9.162000
70
192
0
VERTEX
8
OBJECT__10
10
77.400002
20
-90.398003
30
-1.693000
70
192
0
VERTEX
8
OBJECT__10
10
77.400002
20
-91.556000
30
4.875000
70
192
0
VERTEX
8
OBJECT__10
10
77.400002
20
-109.601997
30
-1.693000
70
192
0
VERTEX
8
OBJECT__10
10
77.400002
20
-106.266998
30
-7.469000
70
192
0
VERTEX
8
OBJECT__10
10
77.400002
20
-100.000000
30
-9.750000
70
192
0
VERTEX
8
OBJECT__10
10
77.400002
20
-96.665001
30
9.162000
70
192
0
VERTEX
8
OBJECT__10
10
77.400002
20
-93.733002
30
-7.469000
70
192
0
VERTEX
8
OBJECT__10
10
77.400002
20
-108.444000
30
4.875000
70
192
0
VERTEX
8
OBJECT__10
10
77.400002
20
-91.556000
30
-4.875000
70
192
0
VERTEX
8
OBJECT__10
10
0
20
0
30
0
70
128
71
1
72
2
73
3
0
VERTEX
8
OBJECT__10
10
0
20
0
30
0
70
128
71
4
72
5
73
6
0
VERTEX
8
OBJECT__10
10
0
20
0
30
0
70
128
71
3
72
7
73
1
0
VERTEX
8
OBJECT__10
10
0
20
0
30
0
70
128
71
8
72
9
73
4
0
VERTEX
8
OBJECT__10
10
0
20
0
30
0
70
128
71
9
72
10
73
2
0
VERTEX
8
OBJECT__10
10
0
20
0
30
0
70
128
71
6
72
8
73
4
0
VERTEX
8
OBJECT__10
10
0
20
0
30
0
70
128
71
8
72
10
73
9
0
VERTEX
8
OBJECT__10
10
0
20
0
30
0
70
128
71
1
72
9
73
2
0
SEQEND
8
OBJECT__10
0
POLYLINE
8
OBJECT__11
66
1
70
64
71
39
72
39
62
253
0
VERTEX
8
OBJECT__11
10
69.900002
20
-129.475998
30
-23.945999
70
192
0
VERTEX
8
OBJECT__11
10
73.827003
20
-105.206001
30
-8.244000
70
192
0
VERTEX
8
OBJECT__11
10
74.540001
20
-105.938004
30
-7.698000
70
192
0
VERTEX
8
OBJECT__11
10
70.393997
20
-103.680000
30
-9.029000
70
192
0
VERTEX
8
OBJECT__11
10
72.031998
20
-104.102997
30
-8.845000
70
192
0
VERTEX
8
OBJECT__11
10
69.900002
20
-103.655998
30
-9.039000
70
192
0
VERTEX
8
OBJECT__11
10
74.591003
20
-130.604996
30
-21.990000
70
192
0
VERTEX
8
OBJECT__11
10
75.686996
20
-107.539001
30
-6.183000
70
192
0
VERTEX
8
OBJECT__11
10
75.897003
20
-108.535004
30
-4.713000
70
192
0
VERTEX
8
OBJECT__11
10
75.750000
20
-133.143997
30
-17.594000
70
192
0
VERTEX
8
OBJECT__11
10
75.900002
20
-132.475998
30
-18.750000
70
192
0
VERTEX
8
OBJECT__11
10
74.851997
20
-106.259003
30
-7.458000
70
192
0
VERTEX
8
OBJECT__11
10
75.012001
20
-106.422997
30
-7.335000
70
192
0
VERTEX
8
OBJECT__11
10
72.502998
20
-135.179001
30
-14.068000
70
192
0
VERTEX
8
OBJECT__11
10
74.344002
20
-109.704002
30
-0.948000
70
192
0
VERTEX
8
OBJECT__11
10
72.910004
20
-109.742996
30
0.368000
70
192
0
VERTEX
8
OBJECT__11
10
75.477997
20
-109.329002
30
-2.834000
70
192
0
VERTEX
8
OBJECT__11
10
74.787003
20
-109.556999
30
-1.684000
70
192
0
VERTEX
8
OBJECT__11
10
75.663002
20
-108.978996
30
-3.663000
70
192
0
VERTEX
8
OBJECT__11
10
67.296997
20
-135.179001
30
-14.068000
70
192
0
VERTEX
8
OBJECT__11
10
71.445000
20
-109.688004
30
1.101000
70
192
0
VERTEX
8
OBJECT__11
10
69.810997
20
-109.655998
30
1.353000
70
192
0
VERTEX
8
OBJECT__11
10
68.190002
20
-109.694000
30
1.044000
70
192
0
VERTEX
8
OBJECT__11
10
72.487000
20
-109.726997
30
0.580000
70
192
0
VERTEX
8
OBJECT__11
10
64.211998
20
-109.235001
30
-3.127000
70
192
0
VERTEX
8
OBJECT__11
10
64.107002
20
-108.998001
30
-3.665000
70
192
0
VERTEX
8
OBJECT__11
10
64.981003
20
-109.620003
30
-1.588000
70
192
0
VERTEX
8
OBJECT__11
10
64.929001
20
-109.594002
30
-1.691000
70
192
0
VERTEX
8
OBJECT__11
10
67.338997
20
-109.719002
30
0.533000
70
192
0
VERTEX
8
OBJECT__11
10
66.282997
20
-109.749001
30
-0.101000
70
192
0
VERTEX
8
OBJECT__11
10
65.209000
20
-130.604996
30
-21.990000
70
192
0
VERTEX
8
OBJECT__11
10
64.176003
20
-107.400002
30
-6.349000
70
192
0
VERTEX
8
OBJECT__11
10
64.982002
20
-106.244003
30
-7.445000
70
192
0
VERTEX
8
OBJECT__11
10
65.188004
20
-105.948997
30
-7.724000
70
192
0
VERTEX
8
OBJECT__11
10
64.050003
20
-133.143997
30
-17.594000
70
192
0
VERTEX
8
OBJECT__11
10
63.903000
20
-108.538002
30
-4.707000
70
192
0
VERTEX
8
OBJECT__11
10
66.589996
20
-104.744003
30
-8.518000
70
192
0
VERTEX
8
OBJECT__11
10
68.139999
20
-103.959999
30
-8.910000
70
192
0
VERTEX
8
OBJECT__11
10
65.212997
20
-105.929001
30
-7.738000
70
192
0
VERTEX
8
OBJECT__11
10
0
20
0
30
0
70
128
71
1
72
2
73
3
0
VERTEX
8
OBJECT__11
10
0
20
0
30
0
70
128
71
1
72
4
73
5
0
VERTEX
8
OBJECT__11
10
0
20
0
30
0
70
128
71
1
72
6
73
4
0
VERTEX
8
OBJECT__11
10
0
20
0
30
0
70
128
71
5
72
2
73
1
0
VERTEX
8
OBJECT__11
10
0
20
0
30
0
70
128
71
7
72
8
73
9
0
VERTEX
8
OBJECT__11
10
0
20
0
30
0
70
128
71
9
72
10
73
11
0
VERTEX
8
OBJECT__11
10
0
20
0
30
0
70
128
71
7
72
3
73
12
0
VERTEX
8
OBJECT__11
10
0
20
0
30
0
70
128
71
12
72
13
73
7
0
VERTEX
8
OBJECT__11
10
0
20
0
30
0
70
128
71
13
72
8
73
7
0
VERTEX
8
OBJECT__11
10
0
20
0
30
0
70
128
71
9
72
11
73
7
0
VERTEX
8
OBJECT__11
10
0
20
0
30
0
70
128
71
14
72
15
73
16
0
VERTEX
8
OBJECT__11
10
0
20
0
30
0
70
128
71
14
72
17
73
18
0
VERTEX
8
OBJECT__11
10
0
20
0
30
0
70
128
71
18
72
15
73
14
0
VERTEX
8
OBJECT__11
10
0
20
0
30
0
70
128
71
14
72
10
73
19
0
VERTEX
8
OBJECT__11
10
0
20
0
30
0
70
128
71
19
72
17
73
14
0
VERTEX
8
OBJECT__11
10
0
20
0
30
0
70
128
71
20
72
21
73
22
0
VERTEX
8
OBJECT__11
10
0
20
0
30
0
70
128
71
22
72
23
73
20
0
VERTEX
8
OBJECT__11
10
0
20
0
30
0
70
128
71
20
72
14
73
24
0
VERTEX
8
OBJECT__11
10
0
20
0
30
0
70
128
71
24
72
21
73
20
0
VERTEX
8
OBJECT__11
10
0
20
0
30
0
70
128
71
20
72
25
73
26
0
VERTEX
8
OBJECT__11
10
0
20
0
30
0
70
128
71
20
72
27
73
28
0
VERTEX
8
OBJECT__11
10
0
20
0
30
0
70
128
71
20
72
29
73
30
0
VERTEX
8
OBJECT__11
10
0
20
0
30
0
70
128
71
30
72
27
73
20
0
VERTEX
8
OBJECT__11
10
0
20
0
30
0
70
128
71
28
72
25
73
20
0
VERTEX
8
OBJECT__11
10
0
20
0
30
0
70
128
71
31
72
32
73
33
0
VERTEX
8
OBJECT__11
10
0
20
0
30
0
70
128
71
33
72
34
73
31
0
VERTEX
8
OBJECT__11
10
0
20
0
30
0
70
128
71
31
72
35
73
36
0
VERTEX
8
OBJECT__11
10
0
20
0
30
0
70
128
71
36
72
32
73
31
0
VERTEX
8
OBJECT__11
10
0
20
0
30
0
70
128
71
35
72
26
73
36
0
VERTEX
8
OBJECT__11
10
0
20
0
30
0
70
128
71
1
72
37
73
38
0
VERTEX
8
OBJECT__11
10
0
20
0
30
0
70
128
71
1
72
31
73
39
0
VERTEX
8
OBJECT__11
10
0
20
0
30
0
70
128
71
39
72
37
73
1
0
VERTEX
8
OBJECT__11
10
0
20
0
30
0
70
128
71
38
72
6
73
1
0
VERTEX
8
OBJECT__11
10
0
20
0
30
0
70
128
71
34
72
39
73
31
0
VERTEX
8
OBJECT__11
10
0
20
0
30
0
70
128
71
26
72
35
73
20
0
VERTEX
8
OBJECT__11
10
0
20
0
30
0
70
128
71
23
72
29
73
20
0
VERTEX
8
OBJECT__11
10
0
20
0
30
0
70
128
71
16
72
24
73
14
0
VERTEX
8
OBJECT__11
10
0
20
0
30
0
70
128
71
9
72
19
73
10
0
VERTEX
8
OBJECT__11
10
0
20
0
30
0
70
128
71
3
72
7
73
1
0
SEQEND
8
OBJECT__11
0
POLYLINE
8
OBJECT__12
66
1
70
64
71
8
72
6
62
253
0
VERTEX
8
OBJECT__12
10
64.050003
20
-133.143997
30
-17.594000
70
192
0
VERTEX
8
OBJECT__12
10
75.750000
20
-133.143997
30
-17.594000
70
192
0
VERTEX
8
OBJECT__12
10
72.502998
20
-135.179001
30
-14.068000
70
192
0
VERTEX
8
OBJECT__12
10
65.209000
20
-130.604996
30
-21.990000
70
192
0
VERTEX
8
OBJECT__12
10
69.900002
20
-129.475998
30
-23.945999
70
192
0
VERTEX
8
OBJECT__12
10
75.900002
20
-132.475998
30
-18.750000
70
192
0
VERTEX
8
OBJECT__12
10
74.591003
20
-130.604996
30
-21.990000
70
192
0
VERTEX
8
OBJECT__12
10
67.296997
20
-135.179001
30
-14.068000
70
192
0
VERTEX
8
OBJECT__12
10
0
20
0
30
0
70
128
71
1
72
2
73
3
0
VERTEX
8
OBJECT__12
10
0
20
0
30
0
70
128
71
1
72
4
73
5
0
VERTEX
8
OBJECT__12
10
0
20
0
30
0
70
128
71
1
72
6
73
2
0
VERTEX
8
OBJECT__12
10
0
20
0
30
0
70
128
71
5
72
7
73
1
0
VERTEX
8
OBJECT__12
10
0
20
0
30
0
70
128
71
7
72
6
73
1
0
VERTEX
8
OBJECT__12
10
0
20
0
30
0
70
128
71
3
72
8
73
1
0
SEQEND
8
OBJECT__12
0
POLYLINE
8
OBJECT__13
66
1
70
64
71
39
72
39
62
253
0
VERTEX
8
OBJECT__13
10
69.900002
20
-64.524002
30
-13.554000
70
192
0
VERTEX
8
OBJECT__13
10
73.209999
20
-90.250999
30
0.150000
70
192
0
VERTEX
8
OBJECT__13
10
74.586998
20
-90.334000
30
-1.265000
70
192
0
VERTEX
8
OBJECT__13
10
69.900002
20
-90.344002
30
1.354000
70
192
0
VERTEX
8
OBJECT__13
10
71.660004
20
-90.304001
30
1.026000
70
192
0
VERTEX
8
OBJECT__13
10
74.591003
20
-65.653999
30
-15.510000
70
192
0
VERTEX
8
OBJECT__13
10
75.624001
20
-90.802002
30
-3.234000
70
192
0
VERTEX
8
OBJECT__13
10
75.897003
20
-91.653999
30
-5.041000
70
192
0
VERTEX
8
OBJECT__13
10
74.612000
20
-90.335999
30
-1.290000
70
192
0
VERTEX
8
OBJECT__13
10
74.818001
20
-90.431000
30
-1.685000
70
192
0
VERTEX
8
OBJECT__13
10
75.750000
20
-68.192001
30
-19.906000
70
192
0
VERTEX
8
OBJECT__13
10
72.502998
20
-70.226997
30
-23.431999
70
192
0
VERTEX
8
OBJECT__13
10
74.819000
20
-93.815002
30
-7.537000
70
192
0
VERTEX
8
OBJECT__13
10
73.516998
20
-95.038002
30
-8.393000
70
192
0
VERTEX
8
OBJECT__13
10
75.587997
20
-92.675003
30
-6.434000
70
192
0
VERTEX
8
OBJECT__13
10
74.871002
20
-93.737999
30
-7.463000
70
192
0
VERTEX
8
OBJECT__13
10
75.693001
20
-92.327003
30
-5.960000
70
192
0
VERTEX
8
OBJECT__13
10
69.900002
20
-70.524002
30
-23.945999
70
192
0
VERTEX
8
OBJECT__13
10
72.460999
20
-95.602997
30
-8.683000
70
192
0
VERTEX
8
OBJECT__13
10
71.610001
20
-96.056999
30
-8.917000
70
192
0
VERTEX
8
OBJECT__13
10
68.355003
20
-96.110001
30
-8.940000
70
192
0
VERTEX
8
OBJECT__13
10
67.313004
20
-95.639000
30
-8.714000
70
192
0
VERTEX
8
OBJECT__13
10
69.988998
20
-96.344002
30
-9.038000
70
192
0
VERTEX
8
OBJECT__13
10
67.296997
20
-70.226997
30
-23.431999
70
192
0
VERTEX
8
OBJECT__13
10
64.321999
20
-92.880997
30
-6.662000
70
192
0
VERTEX
8
OBJECT__13
10
64.137001
20
-92.337997
30
-5.944000
70
192
0
VERTEX
8
OBJECT__13
10
65.456001
20
-94.327003
30
-7.930000
70
192
0
VERTEX
8
OBJECT__13
10
65.013000
20
-93.763000
30
-7.435000
70
192
0
VERTEX
8
OBJECT__13
10
66.889999
20
-95.446999
30
-8.622000
70
192
0
VERTEX
8
OBJECT__13
10
65.209000
20
-65.653999
30
-15.510000
70
192
0
VERTEX
8
OBJECT__13
10
64.788002
20
-90.435997
30
-1.895000
70
192
0
VERTEX
8
OBJECT__13
10
64.947998
20
-90.412003
30
-1.691000
70
192
0
VERTEX
8
OBJECT__13
10
64.112999
20
-90.875999
30
-3.438000
70
192
0
VERTEX
8
OBJECT__13
10
64.050003
20
-68.192001
30
-19.906000
70
192
0
VERTEX
8
OBJECT__13
10
63.903000
20
-91.651001
30
-5.035000
70
192
0
VERTEX
8
OBJECT__13
10
65.973000
20
-90.258003
30
-0.386000
70
192
0
VERTEX
8
OBJECT__13
10
67.767998
20
-90.289001
30
0.869000
70
192
0
VERTEX
8
OBJECT__13
10
69.405998
20
-90.341003
30
1.328000
70
192
0
VERTEX
8
OBJECT__13
10
65.260002
20
-90.364998
30
-1.294000
70
192
0
VERTEX
8
OBJECT__13
10
0
20
0
30
0
70
128
71
1
72
2
73
3
0
VERTEX
8
OBJECT__13
10
0
20
0
30
0
70
128
71
1
72
4
73
5
0
VERTEX
8
OBJECT__13
10
0
20
0
30
0
70
128
71
5
72
2
73
1
0
VERTEX
8
OBJECT__13
10
0
20
0
30
0
70
128
71
6
72
7
73
8
0
VERTEX
8
OBJECT__13
10
0
20
0
30
0
70
128
71
6
72
3
73
9
0
VERTEX
8
OBJECT__13
10
0
20
0
30
0
70
128
71
9
72
10
73
6
0
VERTEX
8
OBJECT__13
10
0
20
0
30
0
70
128
71
10
72
7
73
6
0
VERTEX
8
OBJECT__13
10
0
20
0
30
0
70
128
71
8
72
11
73
6
0
VERTEX
8
OBJECT__13
10
0
20
0
30
0
70
128
71
12
72
13
73
14
0
VERTEX
8
OBJECT__13
10
0
20
0
30
0
70
128
71
12
72
15
73
16
0
VERTEX
8
OBJECT__13
10
0
20
0
30
0
70
128
71
16
72
13
73
12
0
VERTEX
8
OBJECT__13
10
0
20
0
30
0
70
128
71
12
72
11
73
17
0
VERTEX
8
OBJECT__13
10
0
20
0
30
0
70
128
71
17
72
15
73
12
0
VERTEX
8
OBJECT__13
10
0
20
0
30
0
70
128
71
18
72
12
73
19
0
VERTEX
8
OBJECT__13
10
0
20
0
30
0
70
128
71
19
72
20
73
18
0
VERTEX
8
OBJECT__13
10
0
20
0
30
0
70
128
71
18
72
21
73
22
0
VERTEX
8
OBJECT__13
10
0
20
0
30
0
70
128
71
18
72
23
73
21
0
VERTEX
8
OBJECT__13
10
0
20
0
30
0
70
128
71
22
72
24
73
18
0
VERTEX
8
OBJECT__13
10
0
20
0
30
0
70
128
71
24
72
25
73
26
0
VERTEX
8
OBJECT__13
10
0
20
0
30
0
70
128
71
24
72
27
73
28
0
VERTEX
8
OBJECT__13
10
0
20
0
30
0
70
128
71
24
72
22
73
29
0
VERTEX
8
OBJECT__13
10
0
20
0
30
0
70
128
71
29
72
27
73
24
0
VERTEX
8
OBJECT__13
10
0
20
0
30
0
70
128
71
28
72
25
73
24
0
VERTEX
8
OBJECT__13
10
0
20
0
30
0
70
128
71
30
72
31
73
32
0
VERTEX
8
OBJECT__13
10
0
20
0
30
0
70
128
71
30
72
33
73
31
0
VERTEX
8
OBJECT__13
10
0
20
0
30
0
70
128
71
30
72
34
73
35
0
VERTEX
8
OBJECT__13
10
0
20
0
30
0
70
128
71
35
72
33
73
30
0
VERTEX
8
OBJECT__13
10
0
20
0
30
0
70
128
71
34
72
26
73
35
0
VERTEX
8
OBJECT__13
10
0
20
0
30
0
70
128
71
1
72
36
73
37
0
VERTEX
8
OBJECT__13
10
0
20
0
30
0
70
128
71
37
72
38
73
1
0
VERTEX
8
OBJECT__13
10
0
20
0
30
0
70
128
71
1
72
30
73
39
0
VERTEX
8
OBJECT__13
10
0
20
0
30
0
70
128
71
39
72
36
73
1
0
VERTEX
8
OBJECT__13
10
0
20
0
30
0
70
128
71
38
72
4
73
1
0
VERTEX
8
OBJECT__13
10
0
20
0
30
0
70
128
71
32
72
39
73
30
0
VERTEX
8
OBJECT__13
10
0
20
0
30
0
70
128
71
26
72
34
73
24
0
VERTEX
8
OBJECT__13
10
0
20
0
30
0
70
128
71
20
72
23
73
18
0
VERTEX
8
OBJECT__13
10
0
20
0
30
0
70
128
71
14
72
19
73
12
0
VERTEX
8
OBJECT__13
10
0
20
0
30
0
70
128
71
8
72
17
73
11
0
VERTEX
8
OBJECT__13
10
0
20
0
30
0
70
128
71
3
72
6
73
1
0
SEQEND
8
OBJECT__13
0
POLYLINE
8
OBJECT__14
66
1
70
64
71
8
72
6
62
253
0
VERTEX
8
OBJECT__14
10
69.900002
20
-64.524002
30
-13.554000
70
192
0
VERTEX
8
OBJECT__14
10
67.296997
20
-70.226997
30
-23.431999
70
192
0
VERTEX
8
OBJECT__14
10
64.050003
20
-68.192001
30
-19.906000
70
192
0
VERTEX
8
OBJECT__14
10
72.502998
20
-70.226997
30
-23.431999
70
192
0
VERTEX
8
OBJECT__14
10
74.591003
20
-65.653999
30
-15.510000
70
192
0
VERTEX
8
OBJECT__14
10
69.900002
20
-70.524002
30
-23.945999
70
192
0
VERTEX
8
OBJECT__14
10
75.750000
20
-68.192001
30
-19.906000
70
192
0
VERTEX
8
OBJECT__14
10
65.209000
20
-65.653999
30
-15.510000
70
192
0
VERTEX
8
OBJECT__14
10
0
20
0
30
0
70
128
71
1
72
2
73
3
0
VERTEX
8
OBJECT__14
10
0
20
0
30
0
70
128
71
4
72
1
73
5
0
VERTEX
8
OBJECT__14
10
0
20
0
30
0
70
128
71
1
72
6
73
2
0
VERTEX
8
OBJECT__14
10
0
20
0
30
0
70
128
71
5
72
7
73
4
0
VERTEX
8
OBJECT__14
10
0
20
0
30
0
70
128
71
4
72
6
73
1
0
VERTEX
8
OBJECT__14
10
0
20
0
30
0
70
128
71
3
72
8
73
1
0
SEQEND
8
OBJECT__14
0
POLYLINE
8
OBJECT__15
66
1
70
64
71
16
72
16
62
253
0
VERTEX
8
OBJECT__15
10
54.200001
20
-107.695000
30
-4.443000
70
192
0
VERTEX
8
OBJECT__15
10
54.200001
20
-102.300003
30
-8.583000
70
192
0
VERTEX
8
OBJECT__15
10
54.458000
20
-102.300003
30
-8.583000
70
192
0
VERTEX
8
OBJECT__15
10
54.458000
20
-107.695000
30
-4.443000
70
192
0
VERTEX
8
OBJECT__15
10
54.200001
20
-95.556999
30
-7.695000
70
192
0
VERTEX
8
OBJECT__15
10
54.458000
20
-95.556999
30
-7.695000
70
192
0
VERTEX
8
OBJECT__15
10
54.200001
20
-91.417000
30
-2.300000
70
192
0
VERTEX
8
OBJECT__15
10
54.458000
20
-91.417000
30
-2.300000
70
192
0
VERTEX
8
OBJECT__15
10
54.200001
20
-92.305000
30
4.443000
70
192
0
VERTEX
8
OBJECT__15
10
54.458000
20
-92.305000
30
4.443000
70
192
0
VERTEX
8
OBJECT__15
10
54.200001
20
-97.699997
30
8.583000
70
192
0
VERTEX
8
OBJECT__15
10
54.458000
20
-97.699997
30
8.583000
70
192
0
VERTEX
8
OBJECT__15
10
54.200001
20
-104.443001
30
7.695000
70
192
0
VERTEX
8
OBJECT__15
10
54.458000
20
-104.443001
30
7.695000
70
192
0
VERTEX
8
OBJECT__15
10
54.200001
20
-108.583000
30
2.300000
70
192
0
VERTEX
8
OBJECT__15
10
54.458000
20
-108.583000
30
2.300000
70
192
0
VERTEX
8
OBJECT__15
10
0
20
0
30
0
70
128
71
1
72
2
73
3
0
VERTEX
8
OBJECT__15
10
0
20
0
30
0
70
128
71
1
72
3
73
4
0
VERTEX
8
OBJECT__15
10
0
20
0
30
0
70
128
71
2
72
5
73
6
0
VERTEX
8
OBJECT__15
10
0
20
0
30
0
70
128
71
2
72
6
73
3
0
VERTEX
8
OBJECT__15
10
0
20
0
30
0
70
128
71
5
72
7
73
8
0
VERTEX
8
OBJECT__15
10
0
20
0
30
0
70
128
71
5
72
8
73
6
0
VERTEX
8
OBJECT__15
10
0
20
0
30
0
70
128
71
7
72
9
73
10
0
VERTEX
8
OBJECT__15
10
0
20
0
30
0
70
128
71
7
72
10
73
8
0
VERTEX
8
OBJECT__15
10
0
20
0
30
0
70
128
71
9
72
11
73
12
0
VERTEX
8
OBJECT__15
10
0
20
0
30
0
70
128
71
9
72
12
73
10
0
VERTEX
8
OBJECT__15
10
0
20
0
30
0
70
128
71
11
72
13
73
14
0
VERTEX
8
OBJECT__15
10
0
20
0
30
0
70
128
71
11
72
14
73
12
0
VERTEX
8
OBJECT__15
10
0
20
0
30
0
70
128
71
13
72
15
73
16
0
VERTEX
8
OBJECT__15
10
0
20
0
30
0
70
128
71
13
72
16
73
14
0
VERTEX
8
OBJECT__15
10
0
20
0
30
0
70
128
71
15
72
1
73
4
0
VERTEX
8
OBJECT__15
10
0
20
0
30
0
70
128
71
15
72
4
73
16
0
SEQEND
8
OBJECT__15
0
POLYLINE
8
OBJECT__17
66
1
70
64
71
20
72
20
62
253
0
VERTEX
8
OBJECT__17
10
54.200001
20
87.139999
30
-7.425000
70
192
0
VERTEX
8
OBJECT__17
10
54.200001
20
95.179001
30
-5.745000
70
192
0
VERTEX
8
OBJECT__17
10
54.200001
20
92.613998
30
-1.302000
70
192
0
VERTEX
8
OBJECT__17
10
54.200001
20
110.248001
30
10.747000
70
192
0
VERTEX
8
OBJECT__17
10
54.200001
20
102.809998
30
14.582000
70
192
0
VERTEX
8
OBJECT__17
10
54.200001
20
102.565002
30
7.048000
70
192
0
VERTEX
8
OBJECT__17
10
54.200001
20
85.167000
30
0.707000
70
192
0
VERTEX
8
OBJECT__17
10
54.200001
20
93.504997
30
3.750000
70
192
0
VERTEX
8
OBJECT__17
10
54.200001
20
93.195000
30
-13.199000
70
192
0
VERTEX
8
OBJECT__17
10
54.200001
20
101.412003
30
-14.783000
70
192
0
VERTEX
8
OBJECT__17
10
54.200001
20
100.000000
30
-7.500000
70
192
0
VERTEX
8
OBJECT__17
10
54.200001
20
109.180000
30
-11.673000
70
192
0
VERTEX
8
OBJECT__17
10
54.200001
20
104.820999
30
-5.745000
70
192
0
VERTEX
8
OBJECT__17
10
54.200001
20
106.495003
30
3.750000
70
192
0
VERTEX
8
OBJECT__17
10
54.200001
20
114.431000
30
3.501000
70
192
0
VERTEX
8
OBJECT__17
10
54.200001
20
94.481003
30
13.786000
70
192
0
VERTEX
8
OBJECT__17
10
54.200001
20
97.434998
30
7.048000
70
192
0
VERTEX
8
OBJECT__17
10
54.200001
20
87.903999
30
8.614000
70
192
0
VERTEX
8
OBJECT__17
10
54.200001
20
114.032997
30
-4.857000
70
192
0
VERTEX
8
OBJECT__17
10
54.200001
20
107.386002
30
-1.302000
70
192
0
VERTEX
8
OBJECT__17
10
0
20
0
30
0
70
128
71
1
72
2
73
3
0
VERTEX
8
OBJECT__17
10
0
20
0
30
0
70
128
71
4
72
5
73
6
0
VERTEX
8
OBJECT__17
10
0
20
0
30
0
70
128
71
7
72
3
73
8
0
VERTEX
8
OBJECT__17
10
0
20
0
30
0
70
128
71
3
72
7
73
1
0
VERTEX
8
OBJECT__17
10
0
20
0
30
0
70
128
71
9
72
10
73
11
0
VERTEX
8
OBJECT__17
10
0
20
0
30
0
70
128
71
10
72
12
73
13
0
VERTEX
8
OBJECT__17
10
0
20
0
30
0
70
128
71
14
72
15
73
4
0
VERTEX
8
OBJECT__17
10
0
20
0
30
0
70
128
71
5
72
16
73
17
0
VERTEX
8
OBJECT__17
10
0
20
0
30
0
70
128
71
1
72
9
73
2
0
VERTEX
8
OBJECT__17
10
0
20
0
30
0
70
128
71
13
72
11
73
10
0
VERTEX
8
OBJECT__17
10
0
20
0
30
0
70
128
71
17
72
6
73
5
0
VERTEX
8
OBJECT__17
10
0
20
0
30
0
70
128
71
18
72
8
73
17
0
VERTEX
8
OBJECT__17
10
0
20
0
30
0
70
128
71
11
72
2
73
9
0
VERTEX
8
OBJECT__17
10
0
20
0
30
0
70
128
71
19
72
20
73
13
0
VERTEX
8
OBJECT__17
10
0
20
0
30
0
70
128
71
17
72
16
73
18
0
VERTEX
8
OBJECT__17
10
0
20
0
30
0
70
128
71
13
72
12
73
19
0
VERTEX
8
OBJECT__17
10
0
20
0
30
0
70
128
71
15
72
14
73
20
0
VERTEX
8
OBJECT__17
10
0
20
0
30
0
70
128
71
8
72
18
73
7
0
VERTEX
8
OBJECT__17
10
0
20
0
30
0
70
128
71
6
72
14
73
4
0
VERTEX
8
OBJECT__17
10
0
20
0
30
0
70
128
71
20
72
19
73
15
0
SEQEND
8
OBJECT__17
0
POLYLINE
8
OBJECT__18
66
1
70
64
71
23
72
23
62
253
0
VERTEX
8
OBJECT__18
10
54.200001
20
85.167000
30
0.707000
70
192
0
VERTEX
8
OBJECT__18
10
32.200001
20
85.167000
30
0.707000
70
192
0
VERTEX
8
OBJECT__18
10
32.200001
20
87.139999
30
-7.425000
70
192
0
VERTEX
8
OBJECT__18
10
32.200001
20
87.903999
30
8.614000
70
192
0
VERTEX
8
OBJECT__18
10
32.200001
20
94.481003
30
13.786000
70
192
0
VERTEX
8
OBJECT__18
10
54.200001
20
87.903999
30
8.614000
70
192
0
VERTEX
8
OBJECT__18
10
54.200001
20
102.809998
30
14.582000
70
192
0
VERTEX
8
OBJECT__18
10
32.200001
20
102.809998
30
14.582000
70
192
0
VERTEX
8
OBJECT__18
10
54.200001
20
110.248001
30
10.747000
70
192
0
VERTEX
8
OBJECT__18
10
32.200001
20
110.248001
30
10.747000
70
192
0
VERTEX
8
OBJECT__18
10
54.200001
20
114.431000
30
3.501000
70
192
0
VERTEX
8
OBJECT__18
10
32.200001
20
112.860001
30
7.425000
70
192
0
VERTEX
8
OBJECT__18
10
32.200001
20
114.431000
30
3.501000
70
192
0
VERTEX
8
OBJECT__18
10
32.200001
20
114.032997
30
-4.857000
70
192
0
VERTEX
8
OBJECT__18
10
54.200001
20
109.180000
30
-11.673000
70
192
0
VERTEX
8
OBJECT__18
10
32.200001
20
109.180000
30
-11.673000
70
192
0
VERTEX
8
OBJECT__18
10
32.200001
20
101.412003
30
-14.783000
70
192
0
VERTEX
8
OBJECT__18
10
32.200001
20
93.195000
30
-13.199000
70
192
0
VERTEX
8
OBJECT__18
10
54.200001
20
101.412003
30
-14.783000
70
192
0
VERTEX
8
OBJECT__18
10
54.200001
20
93.195000
30
-13.199000
70
192
0
VERTEX
8
OBJECT__18
10
54.200001
20
87.139999
30
-7.425000
70
192
0
VERTEX
8
OBJECT__18
10
54.200001
20
114.032997
30
-4.857000
70
192
0
VERTEX
8
OBJECT__18
10
54.200001
20
94.481003
30
13.786000
70
192
0
VERTEX
8
OBJECT__18
10
0
20
0
30
0
70
128
71
1
72
2
73
3
0
VERTEX
8
OBJECT__18
10
0
20
0
30
0
70
128
71
4
72
2
73
1
0
VERTEX
8
OBJECT__18
10
0
20
0
30
0
70
128
71
5
72
4
73
6
0
VERTEX
8
OBJECT__18
10
0
20
0
30
0
70
128
71
7
72
8
73
5
0
VERTEX
8
OBJECT__18
10
0
20
0
30
0
70
128
71
9
72
10
73
8
0
VERTEX
8
OBJECT__18
10
0
20
0
30
0
70
128
71
9
72
11
73
12
0
VERTEX
8
OBJECT__18
10
0
20
0
30
0
70
128
71
11
72
13
73
12
0
VERTEX
8
OBJECT__18
10
0
20
0
30
0
70
128
71
14
72
13
73
11
0
VERTEX
8
OBJECT__18
10
0
20
0
30
0
70
128
71
15
72
16
73
14
0
VERTEX
8
OBJECT__18
10
0
20
0
30
0
70
128
71
17
72
16
73
15
0
VERTEX
8
OBJECT__18
10
0
20
0
30
0
70
128
71
18
72
17
73
19
0
VERTEX
8
OBJECT__18
10
0
20
0
30
0
70
128
71
3
72
18
73
20
0
VERTEX
8
OBJECT__18
10
0
20
0
30
0
70
128
71
20
72
21
73
3
0
VERTEX
8
OBJECT__18
10
0
20
0
30
0
70
128
71
19
72
20
73
18
0
VERTEX
8
OBJECT__18
10
0
20
0
30
0
70
128
71
15
72
19
73
17
0
VERTEX
8
OBJECT__18
10
0
20
0
30
0
70
128
71
14
72
22
73
15
0
VERTEX
8
OBJECT__18
10
0
20
0
30
0
70
128
71
11
72
22
73
14
0
VERTEX
8
OBJECT__18
10
0
20
0
30
0
70
128
71
12
72
10
73
9
0
VERTEX
8
OBJECT__18
10
0
20
0
30
0
70
128
71
8
72
7
73
9
0
VERTEX
8
OBJECT__18
10
0
20
0
30
0
70
128
71
5
72
23
73
7
0
VERTEX
8
OBJECT__18
10
0
20
0
30
0
70
128
71
6
72
23
73
5
0
VERTEX
8
OBJECT__18
10
0
20
0
30
0
70
128
71
1
72
6
73
4
0
VERTEX
8
OBJECT__18
10
0
20
0
30
0
70
128
71
3
72
21
73
1
0
SEQEND
8
OBJECT__18
0
POLYLINE
8
OBJECT__20
66
1
70
64
71
16
72
16
62
253
0
VERTEX
8
OBJECT__20
10
54.200001
20
92.305000
30
-4.443000
70
192
0
VERTEX
8
OBJECT__20
10
54.200001
20
97.699997
30
-8.583000
70
192
0
VERTEX
8
OBJECT__20
10
54.458000
20
97.699997
30
-8.583000
70
192
0
VERTEX
8
OBJECT__20
10
54.458000
20
92.305000
30
-4.443000
70
192
0
VERTEX
8
OBJECT__20
10
54.200001
20
104.443001
30
-7.695000
70
192
0
VERTEX
8
OBJECT__20
10
54.458000
20
104.443001
30
-7.695000
70
192
0
VERTEX
8
OBJECT__20
10
54.200001
20
108.583000
30
-2.300000
70
192
0
VERTEX
8
OBJECT__20
10
54.458000
20
108.583000
30
-2.300000
70
192
0
VERTEX
8
OBJECT__20
10
54.200001
20
107.695000
30
4.443000
70
192
0
VERTEX
8
OBJECT__20
10
54.458000
20
107.695000
30
4.443000
70
192
0
VERTEX
8
OBJECT__20
10
54.200001
20
102.300003
30
8.583000
70
192
0
VERTEX
8
OBJECT__20
10
54.458000
20
102.300003
30
8.583000
70
192
0
VERTEX
8
OBJECT__20
10
54.200001
20
95.556999
30
7.695000
70
192
0
VERTEX
8
OBJECT__20
10
54.458000
20
95.556999
30
7.695000
70
192
0
VERTEX
8
OBJECT__20
10
54.200001
20
91.417000
30
2.300000
70
192
0
VERTEX
8
OBJECT__20
10
54.458000
20
91.417000
30
2.300000
70
192
0
VERTEX
8
OBJECT__20
10
0
20
0
30
0
70
128
71
1
72
2
73
3
0
VERTEX
8
OBJECT__20
10
0
20
0
30
0
70
128
71
1
72
3
73
4
0
VERTEX
8
OBJECT__20
10
0
20
0
30
0
70
128
71
2
72
5
73
6
0
VERTEX
8
OBJECT__20
10
0
20
0
30
0
70
128
71
2
72
6
73
3
0
VERTEX
8
OBJECT__20
10
0
20
0
30
0
70
128
71
5
72
7
73
8
0
VERTEX
8
OBJECT__20
10
0
20
0
30
0
70
128
71
5
72
8
73
6
0
VERTEX
8
OBJECT__20
10
0
20
0
30
0
70
128
71
7
72
9
73
10
0
VERTEX
8
OBJECT__20
10
0
20
0
30
0
70
128
71
7
72
10
73
8
0
VERTEX
8
OBJECT__20
10
0
20
0
30
0
70
128
71
9
72
11
73
12
0
VERTEX
8
OBJECT__20
10
0
20
0
30
0
70
128
71
9
72
12
73
10
0
VERTEX
8
OBJECT__20
10
0
20
0
30
0
70
128
71
11
72
13
73
14
0
VERTEX
8
OBJECT__20
10
0
20
0
30
0
70
128
71
11
72
14
73
12
0
VERTEX
8
OBJECT__20
10
0
20
0
30
0
70
128
71
13
72
15
73
16
0
VERTEX
8
OBJECT__20
10
0
20
0
30
0
70
128
71
13
72
16
73
14
0
VERTEX
8
OBJECT__20
10
0
20
0
30
0
70
128
71
15
72
1
73
4
0
VERTEX
8
OBJECT__20
10
0
20
0
30
0
70
128
71
15
72
4
73
16
0
SEQEND
8
OBJECT__20
0
POLYLINE
8
OBJECT__22
66
1
70
64
71
24
72
24
62
253
0
VERTEX
8
OBJECT__22
10
50.000000
20
-100.000000
30
-18.000000
70
192
0
VERTEX
8
OBJECT__22
10
10.000000
20
-100.000000
30
-18.000000
70
192
0
VERTEX
8
OBJECT__22
10
10.000000
20
-91.000000
30
-15.588000
70
192
0
VERTEX
8
OBJECT__22
10
10.000000
20
-109.000000
30
-15.588000
70
192
0
VERTEX
8
OBJECT__22
10
50.000000
20
-115.587997
30
-9.000000
70
192
0
VERTEX
8
OBJECT__22
10
10.000000
20
-115.587997
30
-9.000000
70
192
0
VERTEX
8
OBJECT__22
10
50.000000
20
-118.000000
30
0.000000
70
192
0
VERTEX
8
OBJECT__22
10
10.000000
20
-118.000000
30
0.000000
70
192
0
VERTEX
8
OBJECT__22
10
10.000000
20
-115.587997
30
9.000000
70
192
0
VERTEX
8
OBJECT__22
10
50.000000
20
-109.000000
30
15.588000
70
192
0
VERTEX
8
OBJECT__22
10
10.000000
20
-109.000000
30
15.588000
70
192
0
VERTEX
8
OBJECT__22
10
10.000000
20
-100.000000
30
18.000000
70
192
0
VERTEX
8
OBJECT__22
10
50.000000
20
-91.000000
30
15.588000
70
192
0
VERTEX
8
OBJECT__22
10
10.000000
20
-91.000000
30
15.588000
70
192
0
VERTEX
8
OBJECT__22
10
10.000000
20
-84.412003
30
9.000000
70
192
0
VERTEX
8
OBJECT__22
10
50.000000
20
-82.000000
30
0.000000
70
192
0
VERTEX
8
OBJECT__22
10
10.000000
20
-82.000000
30
0.000000
70
192
0
VERTEX
8
OBJECT__22
10
50.000000
20
-84.412003
30
-9.000000
70
192
0
VERTEX
8
OBJECT__22
10
10.000000
20
-84.412003
30
-9.000000
70
192
0
VERTEX
8
OBJECT__22
10
50.000000
20
-91.000000
30
-15.588000
70
192
0
VERTEX
8
OBJECT__22
10
50.000000
20
-84.412003
30
9.000000
70
192
0
VERTEX
8
OBJECT__22
10
50.000000
20
-100.000000
30
18.000000
70
192
0
VERTEX
8
OBJECT__22
10
50.000000
20
-115.587997
30
9.000000
70
192
0
VERTEX
8
OBJECT__22
10
50.000000
20
-109.000000
30
-15.588000
70
192
0
VERTEX
8
OBJECT__22
10
0
20
0
30
0
70
128
71
1
72
2
73
3
0
VERTEX
8
OBJECT__22
10
0
20
0
30
0
70
128
71
4
72
2
73
1
0
VERTEX
8
OBJECT__22
10
0
20
0
30
0
70
128
71
5
72
6
73
4
0
VERTEX
8
OBJECT__22
10
0
20
0
30
0
70
128
71
7
72
8
73
6
0
VERTEX
8
OBJECT__22
10
0
20
0
30
0
70
128
71
9
72
8
73
7
0
VERTEX
8
OBJECT__22
10
0
20
0
30
0
70
128
71
10
72
11
73
9
0
VERTEX
8
OBJECT__22
10
0
20
0
30
0
70
128
71
12
72
11
73
10
0
VERTEX
8
OBJECT__22
10
0
20
0
30
0
70
128
71
13
72
14
73
12
0
VERTEX
8
OBJECT__22
10
0
20
0
30
0
70
128
71
15
72
14
73
13
0
VERTEX
8
OBJECT__22
10
0
20
0
30
0
70
128
71
16
72
17
73
15
0
VERTEX
8
OBJECT__22
10
0
20
0
30
0
70
128
71
18
72
19
73
17
0
VERTEX
8
OBJECT__22
10
0
20
0
30
0
70
128
71
3
72
19
73
18
0
VERTEX
8
OBJECT__22
10
0
20
0
30
0
70
128
71
18
72
20
73
3
0
VERTEX
8
OBJECT__22
10
0
20
0
30
0
70
128
71
17
72
16
73
18
0
VERTEX
8
OBJECT__22
10
0
20
0
30
0
70
128
71
15
72
21
73
16
0
VERTEX
8
OBJECT__22
10
0
20
0
30
0
70
128
71
13
72
21
73
15
0
VERTEX
8
OBJECT__22
10
0
20
0
30
0
70
128
71
12
72
22
73
13
0
VERTEX
8
OBJECT__22
10
0
20
0
30
0
70
128
71
10
72
22
73
12
0
VERTEX
8
OBJECT__22
10
0
20
0
30
0
70
128
71
9
72
23
73
10
0
VERTEX
8
OBJECT__22
10
0
20
0
30
0
70
128
71
7
72
23
73
9
0
VERTEX
8
OBJECT__22
10
0
20
0
30
0
70
128
71
6
72
5
73
7
0
VERTEX
8
OBJECT__22
10
0
20
0
30
0
70
128
71
4
72
24
73
5
0
VERTEX
8
OBJECT__22
10
0
20
0
30
0
70
128
71
1
72
24
73
4
0
VERTEX
8
OBJECT__22
10
0
20
0
30
0
70
128
71
3
72
20
73
1
0
SEQEND
8
OBJECT__22
0
POLYLINE
8
OBJECT__23
66
1
70
64
71
12
72
10
62
253
0
VERTEX
8
OBJECT__23
10
50.000000
20
-91.000000
30
-15.588000
70
192
0
VERTEX
8
OBJECT__23
10
50.000000
20
-84.412003
30
-9.000000
70
192
0
VERTEX
8
OBJECT__23
10
50.000000
20
-82.000000
30
0.000000
70
192
0
VERTEX
8
OBJECT__23
10
50.000000
20
-115.587997
30
-9.000000
70
192
0
VERTEX
8
OBJECT__23
10
50.000000
20
-109.000000
30
15.588000
70
192
0
VERTEX
8
OBJECT__23
10
50.000000
20
-115.587997
30
9.000000
70
192
0
VERTEX
8
OBJECT__23
10
50.000000
20
-84.412003
30
9.000000
70
192
0
VERTEX
8
OBJECT__23
10
50.000000
20
-100.000000
30
-18.000000
70
192
0
VERTEX
8
OBJECT__23
10
50.000000
20
-109.000000
30
-15.588000
70
192
0
VERTEX
8
OBJECT__23
10
50.000000
20
-100.000000
30
18.000000
70
192
0
VERTEX
8
OBJECT__23
10
50.000000
20
-91.000000
30
15.588000
70
192
0
VERTEX
8
OBJECT__23
10
50.000000
20
-118.000000
30
0.000000
70
192
0
VERTEX
8
OBJECT__23
10
0
20
0
30
0
70
128
71
1
72
2
73
3
0
VERTEX
8
OBJECT__23
10
0
20
0
30
0
70
128
71
4
72
5
73
6
0
VERTEX
8
OBJECT__23
10
0
20
0
30
0
70
128
71
7
72
8
73
1
0
VERTEX
8
OBJECT__23
10
0
20
0
30
0
70
128
71
7
72
4
73
9
0
VERTEX
8
OBJECT__23
10
0
20
0
30
0
70
128
71
4
72
10
73
5
0
VERTEX
8
OBJECT__23
10
0
20
0
30
0
70
128
71
4
72
7
73
11
0
VERTEX
8
OBJECT__23
10
0
20
0
30
0
70
128
71
9
72
8
73
7
0
VERTEX
8
OBJECT__23
10
0
20
0
30
0
70
128
71
11
72
10
73
4
0
VERTEX
8
OBJECT__23
10
0
20
0
30
0
70
128
71
6
72
12
73
4
0
VERTEX
8
OBJECT__23
10
0
20
0
30
0
70
128
71
3
72
7
73
1
0
SEQEND
8
OBJECT__23
0
POLYLINE
8
OBJECT__25
66
1
70
64
71
24
72
24
62
253
0
VERTEX
8
OBJECT__25
10
50.000000
20
82.000000
30
0.000000
70
192
0
VERTEX
8
OBJECT__25
10
10.000000
20
82.000000
30
0.000000
70
192
0
VERTEX
8
OBJECT__25
10
10.000000
20
84.412003
30
-9.000000
70
192
0
VERTEX
8
OBJECT__25
10
10.000000
20
84.412003
30
9.000000
70
192
0
VERTEX
8
OBJECT__25
10
10.000000
20
91.000000
30
15.588000
70
192
0
VERTEX
8
OBJECT__25
10
50.000000
20
84.412003
30
9.000000
70
192
0
VERTEX
8
OBJECT__25
10
50.000000
20
100.000000
30
18.000000
70
192
0
VERTEX
8
OBJECT__25
10
10.000000
20
100.000000
30
18.000000
70
192
0
VERTEX
8
OBJECT__25
10
50.000000
20
109.000000
30
15.588000
70
192
0
VERTEX
8
OBJECT__25
10
10.000000
20
109.000000
30
15.588000
70
192
0
VERTEX
8
OBJECT__25
10
50.000000
20
115.587997
30
9.000000
70
192
0
VERTEX
8
OBJECT__25
10
10.000000
20
115.587997
30
9.000000
70
192
0
VERTEX
8
OBJECT__25
10
10.000000
20
118.000000
30
0.000000
70
192
0
VERTEX
8
OBJECT__25
10
50.000000
20
115.587997
30
-9.000000
70
192
0
VERTEX
8
OBJECT__25
10
10.000000
20
115.587997
30
-9.000000
70
192
0
VERTEX
8
OBJECT__25
10
50.000000
20
109.000000
30
-15.588000
70
192
0
VERTEX
8
OBJECT__25
10
10.000000
20
109.000000
30
-15.588000
70
192
0
VERTEX
8
OBJECT__25
10
10.000000
20
100.000000
30
-18.000000
70
192
0
VERTEX
8
OBJECT__25
10
50.000000
20
91.000000
30
-15.588000
70
192
0
VERTEX
8
OBJECT__25
10
10.000000
20
91.000000
30
-15.588000
70
192
0
VERTEX
8
OBJECT__25
10
50.000000
20
84.412003
30
-9.000000
70
192
0
VERTEX
8
OBJECT__25
10
50.000000
20
100.000000
30
-18.000000
70
192
0
VERTEX
8
OBJECT__25
10
50.000000
20
118.000000
30
0.000000
70
192
0
VERTEX
8
OBJECT__25
10
50.000000
20
91.000000
30
15.588000
70
192
0
VERTEX
8
OBJECT__25
10
0
20
0
30
0
70
128
71
1
72
2
73
3
0
VERTEX
8
OBJECT__25
10
0
20
0
30
0
70
128
71
4
72
2
73
1
0
VERTEX
8
OBJECT__25
10
0
20
0
30
0
70
128
71
5
72
4
73
6
0
VERTEX
8
OBJECT__25
10
0
20
0
30
0
70
128
71
7
72
8
73
5
0
VERTEX
8
OBJECT__25
10
0
20
0
30
0
70
128
71
9
72
10
73
8
0
VERTEX
8
OBJECT__25
10
0
20
0
30
0
70
128
71
11
72
12
73
10
0
VERTEX
8
OBJECT__25
10
0
20
0
30
0
70
128
71
13
72
12
73
11
0
VERTEX
8
OBJECT__25
10
0
20
0
30
0
70
128
71
14
72
15
73
13
0
VERTEX
8
OBJECT__25
10
0
20
0
30
0
70
128
71
16
72
17
73
15
0
VERTEX
8
OBJECT__25
10
0
20
0
30
0
70
128
71
18
72
17
73
16
0
VERTEX
8
OBJECT__25
10
0
20
0
30
0
70
128
71
19
72
20
73
18
0
VERTEX
8
OBJECT__25
10
0
20
0
30
0
70
128
71
3
72
20
73
19
0
VERTEX
8
OBJECT__25
10
0
20
0
30
0
70
128
71
19
72
21
73
3
0
VERTEX
8
OBJECT__25
10
0
20
0
30
0
70
128
71
18
72
22
73
19
0
VERTEX
8
OBJECT__25
10
0
20
0
30
0
70
128
71
16
72
22
73
18
0
VERTEX
8
OBJECT__25
10
0
20
0
30
0
70
128
71
15
72
14
73
16
0
VERTEX
8
OBJECT__25
10
0
20
0
30
0
70
128
71
13
72
23
73
14
0
VERTEX
8
OBJECT__25
10
0
20
0
30
0
70
128
71
11
72
23
73
13
0
VERTEX
8
OBJECT__25
10
0
20
0
30
0
70
128
71
10
72
9
73
11
0
VERTEX
8
OBJECT__25
10
0
20
0
30
0
70
128
71
8
72
7
73
9
0
VERTEX
8
OBJECT__25
10
0
20
0
30
0
70
128
71
5
72
24
73
7
0
VERTEX
8
OBJECT__25
10
0
20
0
30
0
70
128
71
6
72
24
73
5
0
VERTEX
8
OBJECT__25
10
0
20
0
30
0
70
128
71
1
72
6
73
4
0
VERTEX
8
OBJECT__25
10
0
20
0
30
0
70
128
71
3
72
21
73
1
0
SEQEND
8
OBJECT__25
0
POLYLINE
8
OBJECT__26
66
1
70
64
71
12
72
10
62
253
0
VERTEX
8
OBJECT__26
10
50.000000
20
82.000000
30
0.000000
70
192
0
VERTEX
8
OBJECT__26
10
50.000000
20
100.000000
30
18.000000
70
192
0
VERTEX
8
OBJECT__26
10
50.000000
20
91.000000
30
15.588000
70
192
0
VERTEX
8
OBJECT__26
10
50.000000
20
109.000000
30
15.588000
70
192
0
VERTEX
8
OBJECT__26
10
50.000000
20
115.587997
30
9.000000
70
192
0
VERTEX
8
OBJECT__26
10
50.000000
20
84.412003
30
-9.000000
70
192
0
VERTEX
8
OBJECT__26
10
50.000000
20
91.000000
30
-15.588000
70
192
0
VERTEX
8
OBJECT__26
10
50.000000
20
84.412003
30
9.000000
70
192
0
VERTEX
8
OBJECT__26
10
50.000000
20
109.000000
30
-15.588000
70
192
0
VERTEX
8
OBJECT__26
10
50.000000
20
115.587997
30
-9.000000
70
192
0
VERTEX
8
OBJECT__26
10
50.000000
20
100.000000
30
-18.000000
70
192
0
VERTEX
8
OBJECT__26
10
50.000000
20
118.000000
30
0.000000
70
192
0
VERTEX
8
OBJECT__26
10
0
20
0
30
0
70
128
71
1
72
2
73
3
0
VERTEX
8
OBJECT__26
10
0
20
0
30
0
70
128
71
1
72
4
73
2
0
VERTEX
8
OBJECT__26
10
0
20
0
30
0
70
128
71
5
72
6
73
7
0
VERTEX
8
OBJECT__26
10
0
20
0
30
0
70
128
71
3
72
8
73
1
0
VERTEX
8
OBJECT__26
10
0
20
0
30
0
70
128
71
5
72
9
73
10
0
VERTEX
8
OBJECT__26
10
0
20
0
30
0
70
128
71
7
72
11
73
5
0
VERTEX
8
OBJECT__26
10
0
20
0
30
0
70
128
71
6
72
5
73
4
0
VERTEX
8
OBJECT__26
10
0
20
0
30
0
70
128
71
11
72
9
73
5
0
VERTEX
8
OBJECT__26
10
0
20
0
30
0
70
128
71
10
72
12
73
5
0
VERTEX
8
OBJECT__26
10
0
20
0
30
0
70
128
71
1
72
6
73
4
0
SEQEND
8
OBJECT__26
0
POLYLINE
8
OBJECT__28
66
1
70
64
71
47
72
60
62
253
0
VERTEX
8
OBJECT__28
10
162.589996
20
0.000000
30
-32.476002
70
192
0
VERTEX
8
OBJECT__28
10
162.667007
20
0.000000
30
-32.390999
70
192
0
VERTEX
8
OBJECT__28
10
163.835007
20
5.228000
30
-31.847000
70
192
0
VERTEX
8
OBJECT__28
10
163.768005
20
5.277000
30
-31.926001
70
192
0
VERTEX
8
OBJECT__28
10
167.070999
20
9.259000
30
-30.337999
70
192
0
VERTEX
8
OBJECT__28
10
167.035004
20
9.346000
30
-30.403000
70
192
0
VERTEX
8
OBJECT__28
10
171.634003
20
11.168000
30
-28.209999
70
192
0
VERTEX
8
OBJECT__28
10
176.531006
20
10.618000
30
-25.975000
70
192
0
VERTEX
8
OBJECT__28
10
171.641006
20
11.273000
30
-28.254999
70
192
0
VERTEX
8
OBJECT__28
10
180.585999
20
7.530000
30
-24.084999
70
192
0
VERTEX
8
OBJECT__28
10
176.479004
20
10.519000
30
-25.951000
70
192
0
VERTEX
8
OBJECT__28
10
182.875000
20
2.718000
30
-23.017000
70
192
0
VERTEX
8
OBJECT__28
10
180.494995
20
7.460000
30
-24.079000
70
192
0
VERTEX
8
OBJECT__28
10
182.875000
20
-2.718000
30
-23.017000
70
192
0
VERTEX
8
OBJECT__28
10
182.763000
20
2.692000
30
-23.021000
70
192
0
VERTEX
8
OBJECT__28
10
182.763000
20
-2.692000
30
-23.021000
70
192
0
VERTEX
8
OBJECT__28
10
180.494995
20
-7.460000
30
-24.079000
70
192
0
VERTEX
8
OBJECT__28
10
180.585999
20
-7.530000
30
-24.084999
70
192
0
VERTEX
8
OBJECT__28
10
176.479004
20
-10.519000
30
-25.951000
70
192
0
VERTEX
8
OBJECT__28
10
176.531006
20
-10.618000
30
-25.975000
70
192
0
VERTEX
8
OBJECT__28
10
171.634003
20
-11.168000
30
-28.209999
70
192
0
VERTEX
8
OBJECT__28
10
171.641006
20
-11.273000
30
-28.254999
70
192
0
VERTEX
8
OBJECT__28
10
167.070999
20
-9.259000
30
-30.337999
70
192
0
VERTEX
8
OBJECT__28
10
163.768005
20
-5.277000
30
-31.926001
70
192
0
VERTEX
8
OBJECT__28
10
167.035004
20
-9.346000
30
-30.403000
70
192
0
VERTEX
8
OBJECT__28
10
163.835007
20
-5.228000
30
-31.847000
70
192
0
VERTEX
8
OBJECT__28
10
162.595001
20
0.000000
30
-32.591000
70
192
0
VERTEX
8
OBJECT__28
10
167.057007
20
9.382000
30
-30.510000
70
192
0
VERTEX
8
OBJECT__28
10
165.233994
20
7.111000
30
-31.360001
70
192
0
VERTEX
8
OBJECT__28
10
171.173996
20
11.105000
30
-28.590000
70
192
0
VERTEX
8
OBJECT__28
10
171.681000
20
11.317000
30
-28.354000
70
192
0
VERTEX
8
OBJECT__28
10
180.660004
20
7.560000
30
-24.167000
70
192
0
VERTEX
8
OBJECT__28
10
177.940994
20
9.630000
30
-25.434999
70
192
0
VERTEX
8
OBJECT__28
10
182.451996
20
3.793000
30
-23.332001
70
192
0
VERTEX
8
OBJECT__28
10
182.957993
20
2.728000
30
-23.096001
70
192
0
VERTEX
8
OBJECT__28
10
182.957993
20
-2.728000
30
-23.096001
70
192
0
VERTEX
8
OBJECT__28
10
180.660004
20
-7.560000
30
-24.167000
70
192
0
VERTEX
8
OBJECT__28
10
182.451996
20
-3.793000
30
-23.332001
70
192
0
VERTEX
8
OBJECT__28
10
177.940994
20
-9.630000
30
-25.434999
70
192
0
VERTEX
8
OBJECT__28
10
176.589996
20
-10.659000
30
-26.065001
70
192
0
VERTEX
8
OBJECT__28
10
171.681000
20
-11.317000
30
-28.354000
70
192
0
VERTEX
8
OBJECT__28
10
167.057007
20
-9.382000
30
-30.510000
70
192
0
VERTEX
8
OBJECT__28
10
171.173996
20
-11.105000
30
-28.590000
70
192
0
VERTEX
8
OBJECT__28
10
165.233994
20
-7.111000
30
-31.360001
70
192
0
VERTEX
8
OBJECT__28
10
163.778000
20
-5.298000
30
-32.039001
70
192
0
VERTEX
8
OBJECT__28
10
176.589996
20
10.659000
30
-26.065001
70
192
0
VERTEX
8
OBJECT__28
10
163.778000
20
5.298000
30
-32.039001
70
192
0
VERTEX
8
OBJECT__28
10
0
20
0
30
0
70
128
71
1
72
2
73
3
0
VERTEX
8
OBJECT__28
10
0
20
0
30
0
70
128
71
4
72
3
73
5
0
VERTEX
8
OBJECT__28
10
0
20
0
30
0
70
128
71
6
72
5
73
7
0
VERTEX
8
OBJECT__28
10
0
20
0
30
0
70
128
71
8
72
9
73
7
0
VERTEX
8
OBJECT__28
10
0
20
0
30
0
70
128
71
10
72
8
73
11
0
VERTEX
8
OBJECT__28
10
0
20
0
30
0
70
128
71
12
72
10
73
13
0
VERTEX
8
OBJECT__28
10
0
20
0
30
0
70
128
71
14
72
12
73
15
0
VERTEX
8
OBJECT__28
10
0
20
0
30
0
70
128
71
14
72
16
73
17
0
VERTEX
8
OBJECT__28
10
0
20
0
30
0
70
128
71
18
72
17
73
19
0
VERTEX
8
OBJECT__28
10
0
20
0
30
0
70
128
71
20
72
19
73
21
0
VERTEX
8
OBJECT__28
10
0
20
0
30
0
70
128
71
22
72
21
73
23
0
VERTEX
8
OBJECT__28
10
0
20
0
30
0
70
128
71
24
72
25
73
23
0
VERTEX
8
OBJECT__28
10
0
20
0
30
0
70
128
71
1
72
24
73
26
0
VERTEX
8
OBJECT__28
10
0
20
0
30
0
70
128
71
27
72
1
73
4
0
VERTEX
8
OBJECT__28
10
0
20
0
30
0
70
128
71
6
72
28
73
29
0
VERTEX
8
OBJECT__28
10
0
20
0
30
0
70
128
71
29
72
4
73
6
0
VERTEX
8
OBJECT__28
10
0
20
0
30
0
70
128
71
6
72
9
73
30
0
VERTEX
8
OBJECT__28
10
0
20
0
30
0
70
128
71
9
72
31
73
30
0
VERTEX
8
OBJECT__28
10
0
20
0
30
0
70
128
71
31
72
9
73
8
0
VERTEX
8
OBJECT__28
10
0
20
0
30
0
70
128
71
10
72
32
73
33
0
VERTEX
8
OBJECT__28
10
0
20
0
30
0
70
128
71
33
72
8
73
10
0
VERTEX
8
OBJECT__28
10
0
20
0
30
0
70
128
71
10
72
12
73
34
0
VERTEX
8
OBJECT__28
10
0
20
0
30
0
70
128
71
12
72
35
73
34
0
VERTEX
8
OBJECT__28
10
0
20
0
30
0
70
128
71
36
72
35
73
12
0
VERTEX
8
OBJECT__28
10
0
20
0
30
0
70
128
71
18
72
37
73
38
0
VERTEX
8
OBJECT__28
10
0
20
0
30
0
70
128
71
38
72
14
73
18
0
VERTEX
8
OBJECT__28
10
0
20
0
30
0
70
128
71
18
72
20
73
39
0
VERTEX
8
OBJECT__28
10
0
20
0
30
0
70
128
71
20
72
40
73
39
0
VERTEX
8
OBJECT__28
10
0
20
0
30
0
70
128
71
41
72
40
73
20
0
VERTEX
8
OBJECT__28
10
0
20
0
30
0
70
128
71
25
72
42
73
43
0
VERTEX
8
OBJECT__28
10
0
20
0
30
0
70
128
71
43
72
22
73
25
0
VERTEX
8
OBJECT__28
10
0
20
0
30
0
70
128
71
25
72
24
73
44
0
VERTEX
8
OBJECT__28
10
0
20
0
30
0
70
128
71
24
72
45
73
44
0
VERTEX
8
OBJECT__28
10
0
20
0
30
0
70
128
71
45
72
24
73
1
0
VERTEX
8
OBJECT__28
10
0
20
0
30
0
70
128
71
1
72
27
73
45
0
VERTEX
8
OBJECT__28
10
0
20
0
30
0
70
128
71
44
72
42
73
25
0
VERTEX
8
OBJECT__28
10
0
20
0
30
0
70
128
71
43
72
41
73
22
0
VERTEX
8
OBJECT__28
10
0
20
0
30
0
70
128
71
20
72
22
73
41
0
VERTEX
8
OBJECT__28
10
0
20
0
30
0
70
128
71
39
72
37
73
18
0
VERTEX
8
OBJECT__28
10
0
20
0
30
0
70
128
71
38
72
36
73
14
0
VERTEX
8
OBJECT__28
10
0
20
0
30
0
70
128
71
12
72
14
73
36
0
VERTEX
8
OBJECT__28
10
0
20
0
30
0
70
128
71
34
72
32
73
10
0
VERTEX
8
OBJECT__28
10
0
20
0
30
0
70
128
71
33
72
46
73
8
0
VERTEX
8
OBJECT__28
10
0
20
0
30
0
70
128
71
8
72
46
73
31
0
VERTEX
8
OBJECT__28
10
0
20
0
30
0
70
128
71
30
72
28
73
6
0
VERTEX
8
OBJECT__28
10
0
20
0
30
0
70
128
71
29
72
47
73
4
0
VERTEX
8
OBJECT__28
10
0
20
0
30
0
70
128
71
4
72
47
73
27
0
VERTEX
8
OBJECT__28
10
0
20
0
30
0
70
128
71
26
72
2
73
1
0
VERTEX
8
OBJECT__28
10
0
20
0
30
0
70
128
71
23
72
26
73
24
0
VERTEX
8
OBJECT__28
10
0
20
0
30
0
70
128
71
23
72
25
73
22
0
VERTEX
8
OBJECT__28
10
0
20
0
30
0
70
128
71
21
72
22
73
20
0
VERTEX
8
OBJECT__28
10
0
20
0
30
0
70
128
71
19
72
20
73
18
0
VERTEX
8
OBJECT__28
10
0
20
0
30
0
70
128
71
17
72
18
73
14
0
VERTEX
8
OBJECT__28
10
0
20
0
30
0
70
128
71
15
72
16
73
14
0
VERTEX
8
OBJECT__28
10
0
20
0
30
0
70
128
71
13
72
15
73
12
0
VERTEX
8
OBJECT__28
10
0
20
0
30
0
70
128
71
11
72
13
73
10
0
VERTEX
8
OBJECT__28
10
0
20
0
30
0
70
128
71
7
72
11
73
8
0
VERTEX
8
OBJECT__28
10
0
20
0
30
0
70
128
71
7
72
9
73
6
0
VERTEX
8
OBJECT__28
10
0
20
0
30
0
70
128
71
5
72
6
73
4
0
VERTEX
8
OBJECT__28
10
0
20
0
30
0
70
128
71
3
72
4
73
1
0
SEQEND
8
OBJECT__28
0
POLYLINE
8
OBJECT__29
66
1
70
64
71
30
72
30
62
253
0
VERTEX
8
OBJECT__29
10
169.714996
20
0.000000
30
-47.862000
70
192
0
VERTEX
8
OBJECT__29
10
162.595001
20
0.000000
30
-32.591000
70
192
0
VERTEX
8
OBJECT__29
10
163.778000
20
5.298000
30
-32.039001
70
192
0
VERTEX
8
OBJECT__29
10
172.132004
20
7.328000
30
-46.735001
70
192
0
VERTEX
8
OBJECT__29
10
178.253006
20
11.227000
30
-43.881001
70
192
0
VERTEX
8
OBJECT__29
10
167.057007
20
9.382000
30
-30.510000
70
192
0
VERTEX
8
OBJECT__29
10
165.233994
20
7.111000
30
-31.360001
70
192
0
VERTEX
8
OBJECT__29
10
171.681000
20
11.317000
30
-28.354000
70
192
0
VERTEX
8
OBJECT__29
10
176.589996
20
10.659000
30
-26.065001
70
192
0
VERTEX
8
OBJECT__29
10
185.212997
20
9.873000
30
-40.636002
70
192
0
VERTEX
8
OBJECT__29
10
171.173996
20
11.105000
30
-28.590000
70
192
0
VERTEX
8
OBJECT__29
10
189.755997
20
3.899000
30
-38.518002
70
192
0
VERTEX
8
OBJECT__29
10
180.660004
20
7.560000
30
-24.167000
70
192
0
VERTEX
8
OBJECT__29
10
177.940994
20
9.630000
30
-25.434999
70
192
0
VERTEX
8
OBJECT__29
10
189.755997
20
-3.899000
30
-38.518002
70
192
0
VERTEX
8
OBJECT__29
10
182.957993
20
2.728000
30
-23.096001
70
192
0
VERTEX
8
OBJECT__29
10
182.957993
20
-2.728000
30
-23.096001
70
192
0
VERTEX
8
OBJECT__29
10
182.451996
20
3.793000
30
-23.332001
70
192
0
VERTEX
8
OBJECT__29
10
182.451996
20
-3.793000
30
-23.332001
70
192
0
VERTEX
8
OBJECT__29
10
180.660004
20
-7.560000
30
-24.167000
70
192
0
VERTEX
8
OBJECT__29
10
185.212997
20
-9.873000
30
-40.636002
70
192
0
VERTEX
8
OBJECT__29
10
178.253006
20
-11.227000
30
-43.881001
70
192
0
VERTEX
8
OBJECT__29
10
176.589996
20
-10.659000
30
-26.065001
70
192
0
VERTEX
8
OBJECT__29
10
177.940994
20
-9.630000
30
-25.434999
70
192
0
VERTEX
8
OBJECT__29
10
171.681000
20
-11.317000
30
-28.354000
70
192
0
VERTEX
8
OBJECT__29
10
171.173996
20
-11.105000
30
-28.590000
70
192
0
VERTEX
8
OBJECT__29
10
167.057007
20
-9.382000
30
-30.510000
70
192
0
VERTEX
8
OBJECT__29
10
172.132004
20
-7.328000
30
-46.735001
70
192
0
VERTEX
8
OBJECT__29
10
163.778000
20
-5.298000
30
-32.039001
70
192
0
VERTEX
8
OBJECT__29
10
165.233994
20
-7.111000
30
-31.360001
70
192
0
VERTEX
8
OBJECT__29
10
0
20
0
30
0
70
128
71
1
72
2
73
3
0
VERTEX
8
OBJECT__29
10
0
20
0
30
0
70
128
71
3
72
4
73
1
0
VERTEX
8
OBJECT__29
10
0
20
0
30
0
70
128
71
5
72
4
73
6
0
VERTEX
8
OBJECT__29
10
0
20
0
30
0
70
128
71
4
72
7
73
6
0
VERTEX
8
OBJECT__29
10
0
20
0
30
0
70
128
71
5
72
8
73
9
0
VERTEX
8
OBJECT__29
10
0
20
0
30
0
70
128
71
9
72
10
73
5
0
VERTEX
8
OBJECT__29
10
0
20
0
30
0
70
128
71
5
72
11
73
8
0
VERTEX
8
OBJECT__29
10
0
20
0
30
0
70
128
71
12
72
10
73
13
0
VERTEX
8
OBJECT__29
10
0
20
0
30
0
70
128
71
10
72
14
73
13
0
VERTEX
8
OBJECT__29
10
0
20
0
30
0
70
128
71
15
72
12
73
16
0
VERTEX
8
OBJECT__29
10
0
20
0
30
0
70
128
71
16
72
17
73
15
0
VERTEX
8
OBJECT__29
10
0
20
0
30
0
70
128
71
12
72
18
73
16
0
VERTEX
8
OBJECT__29
10
0
20
0
30
0
70
128
71
15
72
19
73
20
0
VERTEX
8
OBJECT__29
10
0
20
0
30
0
70
128
71
20
72
21
73
15
0
VERTEX
8
OBJECT__29
10
0
20
0
30
0
70
128
71
22
72
21
73
23
0
VERTEX
8
OBJECT__29
10
0
20
0
30
0
70
128
71
21
72
24
73
23
0
VERTEX
8
OBJECT__29
10
0
20
0
30
0
70
128
71
23
72
25
73
22
0
VERTEX
8
OBJECT__29
10
0
20
0
30
0
70
128
71
22
72
26
73
27
0
VERTEX
8
OBJECT__29
10
0
20
0
30
0
70
128
71
27
72
28
73
22
0
VERTEX
8
OBJECT__29
10
0
20
0
30
0
70
128
71
1
72
28
73
29
0
VERTEX
8
OBJECT__29
10
0
20
0
30
0
70
128
71
28
72
30
73
29
0
VERTEX
8
OBJECT__29
10
0
20
0
30
0
70
128
71
29
72
2
73
1
0
VERTEX
8
OBJECT__29
10
0
20
0
30
0
70
128
71
27
72
30
73
28
0
VERTEX
8
OBJECT__29
10
0
20
0
30
0
70
128
71
25
72
26
73
22
0
VERTEX
8
OBJECT__29
10
0
20
0
30
0
70
128
71
20
72
24
73
21
0
VERTEX
8
OBJECT__29
10
0
20
0
30
0
70
128
71
17
72
19
73
15
0
VERTEX
8
OBJECT__29
10
0
20
0
30
0
70
128
71
13
72
18
73
12
0
VERTEX
8
OBJECT__29
10
0
20
0
30
0
70
128
71
9
72
14
73
10
0
VERTEX
8
OBJECT__29
10
0
20
0
30
0
70
128
71
6
72
11
73
5
0
VERTEX
8
OBJECT__29
10
0
20
0
30
0
70
128
71
3
72
7
73
4
0
SEQEND
8
OBJECT__29
0
POLYLINE
8
OBJECT__31
66
1
70
64
71
9
72
7
62
253
0
VERTEX
8
OBJECT__31
10
169.714996
20
0.000000
30
-47.862000
70
192
0
VERTEX
8
OBJECT__31
10
185.212997
20
9.873000
30
-40.636002
70
192
0
VERTEX
8
OBJECT__31
10
189.755997
20
3.899000
30
-38.518002
70
192
0
VERTEX
8
OBJECT__31
10
172.132004
20
7.328000
30
-46.735001
70
192
0
VERTEX
8
OBJECT__31
10
178.253006
20
11.227000
30
-43.881001
70
192
0
VERTEX
8
OBJECT__31
10
185.212997
20
-9.873000
30
-40.636002
70
192
0
VERTEX
8
OBJECT__31
10
178.253006
20
-11.227000
30
-43.881001
70
192
0
VERTEX
8
OBJECT__31
10
189.755997
20
-3.899000
30
-38.518002
70
192
0
VERTEX
8
OBJECT__31
10
172.132004
20
-7.328000
30
-46.735001
70
192
0
VERTEX
8
OBJECT__31
10
0
20
0
30
0
70
128
71
1
72
2
73
3
0
VERTEX
8
OBJECT__31
10
0
20
0
30
0
70
128
71
1
72
4
73
5
0
VERTEX
8
OBJECT__31
10
0
20
0
30
0
70
128
71
1
72
6
73
7
0
VERTEX
8
OBJECT__31
10
0
20
0
30
0
70
128
71
5
72
2
73
1
0
VERTEX
8
OBJECT__31
10
0
20
0
30
0
70
128
71
1
72
8
73
6
0
VERTEX
8
OBJECT__31
10
0
20
0
30
0
70
128
71
7
72
9
73
1
0
VERTEX
8
OBJECT__31
10
0
20
0
30
0
70
128
71
3
72
8
73
1
0
SEQEND
8
OBJECT__31
0
POLYLINE
8
OBJECT__32
66
1
70
64
71
20
72
20
62
253
0
VERTEX
8
OBJECT__32
10
54.200001
20
-112.860001
30
-7.425000
70
192
0
VERTEX
8
OBJECT__32
10
54.200001
20
-106.805000
30
-13.199000
70
192
0
VERTEX
8
OBJECT__32
10
54.200001
20
-104.820999
30
-5.745000
70
192
0
VERTEX
8
OBJECT__32
10
54.200001
20
-97.190002
30
14.582000
70
192
0
VERTEX
8
OBJECT__32
10
54.200001
20
-105.518997
30
13.786000
70
192
0
VERTEX
8
OBJECT__32
10
54.200001
20
-102.565002
30
7.048000
70
192
0
VERTEX
8
OBJECT__32
10
54.200001
20
-112.096001
30
8.614000
70
192
0
VERTEX
8
OBJECT__32
10
54.200001
20
-106.495003
30
3.750000
70
192
0
VERTEX
8
OBJECT__32
10
54.200001
20
-107.386002
30
-1.302000
70
192
0
VERTEX
8
OBJECT__32
10
54.200001
20
-114.833000
30
0.707000
70
192
0
VERTEX
8
OBJECT__32
10
54.200001
20
-98.587997
30
-14.783000
70
192
0
VERTEX
8
OBJECT__32
10
54.200001
20
-100.000000
30
-7.500000
70
192
0
VERTEX
8
OBJECT__32
10
54.200001
20
-90.820000
30
-11.673000
70
192
0
VERTEX
8
OBJECT__32
10
54.200001
20
-95.179001
30
-5.745000
70
192
0
VERTEX
8
OBJECT__32
10
54.200001
20
-85.967003
30
-4.857000
70
192
0
VERTEX
8
OBJECT__32
10
54.200001
20
-92.613998
30
-1.302000
70
192
0
VERTEX
8
OBJECT__32
10
54.200001
20
-85.569000
30
3.501000
70
192
0
VERTEX
8
OBJECT__32
10
54.200001
20
-89.751999
30
10.747000
70
192
0
VERTEX
8
OBJECT__32
10
54.200001
20
-93.504997
30
3.750000
70
192
0
VERTEX
8
OBJECT__32
10
54.200001
20
-97.434998
30
7.048000
70
192
0
VERTEX
8
OBJECT__32
10
0
20
0
30
0
70
128
71
1
72
2
73
3
0
VERTEX
8
OBJECT__32
10
0
20
0
30
0
70
128
71
4
72
5
73
6
0
VERTEX
8
OBJECT__32
10
0
20
0
30
0
70
128
71
7
72
8
73
6
0
VERTEX
8
OBJECT__32
10
0
20
0
30
0
70
128
71
9
72
10
73
1
0
VERTEX
8
OBJECT__32
10
0
20
0
30
0
70
128
71
2
72
11
73
12
0
VERTEX
8
OBJECT__32
10
0
20
0
30
0
70
128
71
11
72
13
73
14
0
VERTEX
8
OBJECT__32
10
0
20
0
30
0
70
128
71
15
72
16
73
14
0
VERTEX
8
OBJECT__32
10
0
20
0
30
0
70
128
71
6
72
5
73
7
0
VERTEX
8
OBJECT__32
10
0
20
0
30
0
70
128
71
10
72
9
73
8
0
VERTEX
8
OBJECT__32
10
0
20
0
30
0
70
128
71
12
72
3
73
2
0
VERTEX
8
OBJECT__32
10
0
20
0
30
0
70
128
71
14
72
13
73
15
0
VERTEX
8
OBJECT__32
10
0
20
0
30
0
70
128
71
17
72
18
73
19
0
VERTEX
8
OBJECT__32
10
0
20
0
30
0
70
128
71
18
72
4
73
20
0
VERTEX
8
OBJECT__32
10
0
20
0
30
0
70
128
71
8
72
7
73
10
0
VERTEX
8
OBJECT__32
10
0
20
0
30
0
70
128
71
14
72
12
73
11
0
VERTEX
8
OBJECT__32
10
0
20
0
30
0
70
128
71
20
72
19
73
18
0
VERTEX
8
OBJECT__32
10
0
20
0
30
0
70
128
71
3
72
9
73
1
0
VERTEX
8
OBJECT__32
10
0
20
0
30
0
70
128
71
6
72
20
73
4
0
VERTEX
8
OBJECT__32
10
0
20
0
30
0
70
128
71
19
72
16
73
17
0
VERTEX
8
OBJECT__32
10
0
20
0
30
0
70
128
71
16
72
15
73
17
0
SEQEND
8
OBJECT__32
0
POLYLINE
8
OBJECT__33
66
1
70
64
71
23
72
23
62
253
0
VERTEX
8
OBJECT__33
10
54.200001
20
-114.833000
30
0.707000
70
192
0
VERTEX
8
OBJECT__33
10
32.200001
20
-114.833000
30
0.707000
70
192
0
VERTEX
8
OBJECT__33
10
32.200001
20
-112.860001
30
-7.425000
70
192
0
VERTEX
8
OBJECT__33
10
54.200001
20
-112.096001
30
8.614000
70
192
0
VERTEX
8
OBJECT__33
10
32.200001
20
-112.096001
30
8.614000
70
192
0
VERTEX
8
OBJECT__33
10
32.200001
20
-105.518997
30
13.786000
70
192
0
VERTEX
8
OBJECT__33
10
54.200001
20
-97.190002
30
14.582000
70
192
0
VERTEX
8
OBJECT__33
10
32.200001
20
-97.190002
30
14.582000
70
192
0
VERTEX
8
OBJECT__33
10
32.200001
20
-89.751999
30
10.747000
70
192
0
VERTEX
8
OBJECT__33
10
54.200001
20
-85.569000
30
3.501000
70
192
0
VERTEX
8
OBJECT__33
10
32.200001
20
-85.569000
30
3.501000
70
192
0
VERTEX
8
OBJECT__33
10
32.200001
20
-87.139999
30
7.425000
70
192
0
VERTEX
8
OBJECT__33
10
54.200001
20
-89.751999
30
10.747000
70
192
0
VERTEX
8
OBJECT__33
10
32.200001
20
-85.967003
30
-4.857000
70
192
0
VERTEX
8
OBJECT__33
10
54.200001
20
-90.820000
30
-11.673000
70
192
0
VERTEX
8
OBJECT__33
10
32.200001
20
-90.820000
30
-11.673000
70
192
0
VERTEX
8
OBJECT__33
10
54.200001
20
-98.587997
30
-14.783000
70
192
0
VERTEX
8
OBJECT__33
10
32.200001
20
-106.805000
30
-13.199000
70
192
0
VERTEX
8
OBJECT__33
10
32.200001
20
-98.587997
30
-14.783000
70
192
0
VERTEX
8
OBJECT__33
10
54.200001
20
-112.860001
30
-7.425000
70
192
0
VERTEX
8
OBJECT__33
10
54.200001
20
-106.805000
30
-13.199000
70
192
0
VERTEX
8
OBJECT__33
10
54.200001
20
-85.967003
30
-4.857000
70
192
0
VERTEX
8
OBJECT__33
10
54.200001
20
-105.518997
30
13.786000
70
192
0
VERTEX
8
OBJECT__33
10
0
20
0
30
0
70
128
71
1
72
2
73
3
0
VERTEX
8
OBJECT__33
10
0
20
0
30
0
70
128
71
1
72
4
73
5
0
VERTEX
8
OBJECT__33
10
0
20
0
30
0
70
128
71
6
72
5
73
4
0
VERTEX
8
OBJECT__33
10
0
20
0
30
0
70
128
71
7
72
8
73
6
0
VERTEX
8
OBJECT__33
10
0
20
0
30
0
70
128
71
9
72
8
73
7
0
VERTEX
8
OBJECT__33
10
0
20
0
30
0
70
128
71
10
72
11
73
12
0
VERTEX
8
OBJECT__33
10
0
20
0
30
0
70
128
71
12
72
13
73
10
0
VERTEX
8
OBJECT__33
10
0
20
0
30
0
70
128
71
14
72
11
73
10
0
VERTEX
8
OBJECT__33
10
0
20
0
30
0
70
128
71
15
72
16
73
14
0
VERTEX
8
OBJECT__33
10
0
20
0
30
0
70
128
71
16
72
15
73
17
0
VERTEX
8
OBJECT__33
10
0
20
0
30
0
70
128
71
18
72
19
73
17
0
VERTEX
8
OBJECT__33
10
0
20
0
30
0
70
128
71
20
72
3
73
18
0
VERTEX
8
OBJECT__33
10
0
20
0
30
0
70
128
71
18
72
21
73
20
0
VERTEX
8
OBJECT__33
10
0
20
0
30
0
70
128
71
17
72
21
73
18
0
VERTEX
8
OBJECT__33
10
0
20
0
30
0
70
128
71
17
72
19
73
16
0
VERTEX
8
OBJECT__33
10
0
20
0
30
0
70
128
71
14
72
22
73
15
0
VERTEX
8
OBJECT__33
10
0
20
0
30
0
70
128
71
10
72
22
73
14
0
VERTEX
8
OBJECT__33
10
0
20
0
30
0
70
128
71
12
72
9
73
13
0
VERTEX
8
OBJECT__33
10
0
20
0
30
0
70
128
71
7
72
13
73
9
0
VERTEX
8
OBJECT__33
10
0
20
0
30
0
70
128
71
6
72
23
73
7
0
VERTEX
8
OBJECT__33
10
0
20
0
30
0
70
128
71
4
72
23
73
6
0
VERTEX
8
OBJECT__33
10
0
20
0
30
0
70
128
71
5
72
2
73
1
0
VERTEX
8
OBJECT__33
10
0
20
0
30
0
70
128
71
3
72
20
73
1
0
SEQEND
8
OBJECT__33
0
POLYLINE
8
OBJECT__35
66
1
70
64
71
13
72
11
62
253
0
VERTEX
8
OBJECT__35
10
10.000000
20
-114.230003
30
-17.429001
70
192
0
VERTEX
8
OBJECT__35
10
10.000000
20
-93.739998
30
-21.612000
70
192
0
VERTEX
8
OBJECT__35
10
10.000000
20
-84.414001
30
-16.226999
70
192
0
VERTEX
8
OBJECT__35
10
10.000000
20
-82.013000
30
13.517000
70
192
0
VERTEX
8
OBJECT__35
10
10.000000
20
-111.250000
30
19.486000
70
192
0
VERTEX
8
OBJECT__35
10
10.000000
20
-119.016998
30
12.025000
70
192
0
VERTEX
8
OBJECT__35
10
10.000000
20
-90.353996
30
20.327999
70
192
0
VERTEX
8
OBJECT__35
10
10.000000
20
-104.500999
30
-22.045000
70
192
0
VERTEX
8
OBJECT__35
10
10.000000
20
-78.657997
30
-7.125000
70
192
0
VERTEX
8
OBJECT__35
10
10.000000
20
-122.427002
30
1.810000
70
192
0
VERTEX
8
OBJECT__35
10
10.000000
20
-120.699997
30
-8.819000
70
192
0
VERTEX
8
OBJECT__35
10
10.000000
20
-100.905998
30
22.482000
70
192
0
VERTEX
8
OBJECT__35
10
10.000000
20
-77.791000
30
3.609000
70
192
0
VERTEX
8
OBJECT__35
10
0
20
0
30
0
70
128
71
1
72
2
73
3
0
VERTEX
8
OBJECT__35
10
0
20
0
30
0
70
128
71
4
72
5
73
6
0
VERTEX
8
OBJECT__35
10
0
20
0
30
0
70
128
71
5
72
4
73
7
0
VERTEX
8
OBJECT__35
10
0
20
0
30
0
70
128
71
1
72
8
73
2
0
VERTEX
8
OBJECT__35
10
0
20
0
30
0
70
128
71
9
72
10
73
11
0
VERTEX
8
OBJECT__35
10
0
20
0
30
0
70
128
71
7
72
12
73
5
0
VERTEX
8
OBJECT__35
10
0
20
0
30
0
70
128
71
10
72
9
73
13
0
VERTEX
8
OBJECT__35
10
0
20
0
30
0
70
128
71
11
72
1
73
9
0
VERTEX
8
OBJECT__35
10
0
20
0
30
0
70
128
71
13
72
4
73
10
0
VERTEX
8
OBJECT__35
10
0
20
0
30
0
70
128
71
6
72
10
73
4
0
VERTEX
8
OBJECT__35
10
0
20
0
30
0
70
128
71
3
72
9
73
1
0
SEQEND
8
OBJECT__35
0
POLYLINE
8
OBJECT__36
66
1
70
64
71
26
72
26
62
253
0
VERTEX
8
OBJECT__36
10
10.000000
20
-119.016998
30
12.025000
70
192
0
VERTEX
8
OBJECT__36
10
10.000000
20
-111.250000
30
19.486000
70
192
0
VERTEX
8
OBJECT__36
10
6.000000
20
-111.250000
30
19.486000
70
192
0
VERTEX
8
OBJECT__36
10
10.000000
20
-122.427002
30
1.810000
70
192
0
VERTEX
8
OBJECT__36
10
6.000000
20
-119.016998
30
12.025000
70
192
0
VERTEX
8
OBJECT__36
10
6.000000
20
-120.699997
30
-8.819000
70
192
0
VERTEX
8
OBJECT__36
10
10.000000
20
-120.699997
30
-8.819000
70
192
0
VERTEX
8
OBJECT__36
10
6.000000
20
-114.230003
30
-17.429001
70
192
0
VERTEX
8
OBJECT__36
10
10.000000
20
-114.230003
30
-17.429001
70
192
0
VERTEX
8
OBJECT__36
10
6.000000
20
-104.500999
30
-22.045000
70
192
0
VERTEX
8
OBJECT__36
10
10.000000
20
-104.500999
30
-22.045000
70
192
0
VERTEX
8
OBJECT__36
10
6.000000
20
-93.739998
30
-21.612000
70
192
0
VERTEX
8
OBJECT__36
10
10.000000
20
-93.739998
30
-21.612000
70
192
0
VERTEX
8
OBJECT__36
10
6.000000
20
-84.414001
30
-16.226999
70
192
0
VERTEX
8
OBJECT__36
10
10.000000
20
-84.414001
30
-16.226999
70
192
0
VERTEX
8
OBJECT__36
10
6.000000
20
-78.657997
30
-7.125000
70
192
0
VERTEX
8
OBJECT__36
10
6.000000
20
-77.791000
30
3.609000
70
192
0
VERTEX
8
OBJECT__36
10
10.000000
20
-77.791000
30
3.609000
70
192
0
VERTEX
8
OBJECT__36
10
10.000000
20
-78.657997
30
-7.125000
70
192
0
VERTEX
8
OBJECT__36
10
10.000000
20
-82.013000
30
13.517000
70
192
0
VERTEX
8
OBJECT__36
10
6.000000
20
-82.013000
30
13.517000
70
192
0
VERTEX
8
OBJECT__36
10
6.000000
20
-90.353996
30
20.327999
70
192
0
VERTEX
8
OBJECT__36
10
10.000000
20
-90.353996
30
20.327999
70
192
0
VERTEX
8
OBJECT__36
10
10.000000
20
-100.905998
30
22.482000
70
192
0
VERTEX
8
OBJECT__36
10
6.000000
20
-100.905998
30
22.482000
70
192
0
VERTEX
8
OBJECT__36
10
6.000000
20
-122.427002
30
1.810000
70
192
0
VERTEX
8
OBJECT__36
10
0
20
0
30
0
70
128
71
1
72
2
73
3
0
VERTEX
8
OBJECT__36
10
0
20
0
30
0
70
128
71
4
72
1
73
5
0
VERTEX
8
OBJECT__36
10
0
20
0
30
0
70
128
71
6
72
7
73
4
0
VERTEX
8
OBJECT__36
10
0
20
0
30
0
70
128
71
8
72
9
73
7
0
VERTEX
8
OBJECT__36
10
0
20
0
30
0
70
128
71
10
72
11
73
9
0
VERTEX
8
OBJECT__36
10
0
20
0
30
0
70
128
71
12
72
13
73
11
0
VERTEX
8
OBJECT__36
10
0
20
0
30
0
70
128
71
14
72
15
73
13
0
VERTEX
8
OBJECT__36
10
0
20
0
30
0
70
128
71
15
72
14
73
16
0
VERTEX
8
OBJECT__36
10
0
20
0
30
0
70
128
71
17
72
18
73
19
0
VERTEX
8
OBJECT__36
10
0
20
0
30
0
70
128
71
20
72
18
73
17
0
VERTEX
8
OBJECT__36
10
0
20
0
30
0
70
128
71
21
72
22
73
23
0
VERTEX
8
OBJECT__36
10
0
20
0
30
0
70
128
71
24
72
23
73
22
0
VERTEX
8
OBJECT__36
10
0
20
0
30
0
70
128
71
2
72
24
73
25
0
VERTEX
8
OBJECT__36
10
0
20
0
30
0
70
128
71
25
72
3
73
2
0
VERTEX
8
OBJECT__36
10
0
20
0
30
0
70
128
71
22
72
25
73
24
0
VERTEX
8
OBJECT__36
10
0
20
0
30
0
70
128
71
23
72
20
73
21
0
VERTEX
8
OBJECT__36
10
0
20
0
30
0
70
128
71
17
72
21
73
20
0
VERTEX
8
OBJECT__36
10
0
20
0
30
0
70
128
71
19
72
16
73
17
0
VERTEX
8
OBJECT__36
10
0
20
0
30
0
70
128
71
16
72
19
73
15
0
VERTEX
8
OBJECT__36
10
0
20
0
30
0
70
128
71
13
72
12
73
14
0
VERTEX
8
OBJECT__36
10
0
20
0
30
0
70
128
71
11
72
10
73
12
0
VERTEX
8
OBJECT__36
10
0
20
0
30
0
70
128
71
9
72
8
73
10
0
VERTEX
8
OBJECT__36
10
0
20
0
30
0
70
128
71
7
72
6
73
8
0
VERTEX
8
OBJECT__36
10
0
20
0
30
0
70
128
71
4
72
26
73
6
0
VERTEX
8
OBJECT__36
10
0
20
0
30
0
70
128
71
5
72
26
73
4
0
VERTEX
8
OBJECT__36
10
0
20
0
30
0
70
128
71
3
72
5
73
1
0
SEQEND
8
OBJECT__36
0
POLYLINE
8
OBJECT__38
66
1
70
64
71
28
72
28
62
253
0
VERTEX
8
OBJECT__38
10
6.000000
20
-126.899002
30
5.718000
70
192
0
VERTEX
8
OBJECT__38
10
6.000000
20
-122.427002
30
1.810000
70
192
0
VERTEX
8
OBJECT__38
10
6.000000
20
-119.016998
30
12.025000
70
192
0
VERTEX
8
OBJECT__38
10
6.000000
20
-126.899002
30
-5.718000
70
192
0
VERTEX
8
OBJECT__38
10
6.000000
20
-120.699997
30
-8.819000
70
192
0
VERTEX
8
OBJECT__38
10
6.000000
20
-122.248001
30
16.164000
70
192
0
VERTEX
8
OBJECT__38
10
6.000000
20
-111.250000
30
19.486000
70
192
0
VERTEX
8
OBJECT__38
10
6.000000
20
-122.248001
30
-16.164000
70
192
0
VERTEX
8
OBJECT__38
10
6.000000
20
-113.750000
30
-23.816000
70
192
0
VERTEX
8
OBJECT__38
10
6.000000
20
-114.230003
30
-17.429001
70
192
0
VERTEX
8
OBJECT__38
10
6.000000
20
-102.875000
30
-27.349001
70
192
0
VERTEX
8
OBJECT__38
10
6.000000
20
-104.500999
30
-22.045000
70
192
0
VERTEX
8
OBJECT__38
10
6.000000
20
-91.501999
30
-26.153999
70
192
0
VERTEX
8
OBJECT__38
10
6.000000
20
-93.739998
30
-21.612000
70
192
0
VERTEX
8
OBJECT__38
10
6.000000
20
-74.876999
30
11.185000
70
192
0
VERTEX
8
OBJECT__38
10
6.000000
20
-82.013000
30
13.517000
70
192
0
VERTEX
8
OBJECT__38
10
6.000000
20
-77.791000
30
3.609000
70
192
0
VERTEX
8
OBJECT__38
10
6.000000
20
-102.875000
30
27.349001
70
192
0
VERTEX
8
OBJECT__38
10
6.000000
20
-113.750000
30
23.816000
70
192
0
VERTEX
8
OBJECT__38
10
6.000000
20
-81.598999
30
-20.436001
70
192
0
VERTEX
8
OBJECT__38
10
6.000000
20
-84.414001
30
-16.226999
70
192
0
VERTEX
8
OBJECT__38
10
6.000000
20
-74.876999
30
-11.185000
70
192
0
VERTEX
8
OBJECT__38
10
6.000000
20
-78.657997
30
-7.125000
70
192
0
VERTEX
8
OBJECT__38
10
6.000000
20
-72.500000
30
0.000000
70
192
0
VERTEX
8
OBJECT__38
10
6.000000
20
-81.598999
30
20.436001
70
192
0
VERTEX
8
OBJECT__38
10
6.000000
20
-91.501999
30
26.153999
70
192
0
VERTEX
8
OBJECT__38
10
6.000000
20
-90.353996
30
20.327999
70
192
0
VERTEX
8
OBJECT__38
10
6.000000
20
-100.905998
30
22.482000
70
192
0
VERTEX
8
OBJECT__38
10
0
20
0
30
0
70
128
71
1
72
2
73
3
0
VERTEX
8
OBJECT__38
10
0
20
0
30
0
70
128
71
4
72
5
73
2
0
VERTEX
8
OBJECT__38
10
0
20
0
30
0
70
128
71
6
72
3
73
7
0
VERTEX
8
OBJECT__38
10
0
20
0
30
0
70
128
71
2
72
1
73
4
0
VERTEX
8
OBJECT__38
10
0
20
0
30
0
70
128
71
8
72
9
73
10
0
VERTEX
8
OBJECT__38
10
0
20
0
30
0
70
128
71
9
72
11
73
12
0
VERTEX
8
OBJECT__38
10
0
20
0
30
0
70
128
71
11
72
13
73
14
0
VERTEX
8
OBJECT__38
10
0
20
0
30
0
70
128
71
15
72
16
73
17
0
VERTEX
8
OBJECT__38
10
0
20
0
30
0
70
128
71
18
72
19
73
7
0
VERTEX
8
OBJECT__38
10
0
20
0
30
0
70
128
71
3
72
6
73
1
0
VERTEX
8
OBJECT__38
10
0
20
0
30
0
70
128
71
5
72
4
73
8
0
VERTEX
8
OBJECT__38
10
0
20
0
30
0
70
128
71
14
72
12
73
11
0
VERTEX
8
OBJECT__38
10
0
20
0
30
0
70
128
71
20
72
21
73
14
0
VERTEX
8
OBJECT__38
10
0
20
0
30
0
70
128
71
22
72
23
73
21
0
VERTEX
8
OBJECT__38
10
0
20
0
30
0
70
128
71
17
72
24
73
15
0
VERTEX
8
OBJECT__38
10
0
20
0
30
0
70
128
71
25
72
26
73
27
0
VERTEX
8
OBJECT__38
10
0
20
0
30
0
70
128
71
7
72
19
73
6
0
VERTEX
8
OBJECT__38
10
0
20
0
30
0
70
128
71
12
72
10
73
9
0
VERTEX
8
OBJECT__38
10
0
20
0
30
0
70
128
71
21
72
20
73
22
0
VERTEX
8
OBJECT__38
10
0
20
0
30
0
70
128
71
24
72
17
73
23
0
VERTEX
8
OBJECT__38
10
0
20
0
30
0
70
128
71
27
72
16
73
25
0
VERTEX
8
OBJECT__38
10
0
20
0
30
0
70
128
71
26
72
18
73
28
0
VERTEX
8
OBJECT__38
10
0
20
0
30
0
70
128
71
10
72
5
73
8
0
VERTEX
8
OBJECT__38
10
0
20
0
30
0
70
128
71
23
72
22
73
24
0
VERTEX
8
OBJECT__38
10
0
20
0
30
0
70
128
71
28
72
27
73
26
0
VERTEX
8
OBJECT__38
10
0
20
0
30
0
70
128
71
14
72
13
73
20
0
VERTEX
8
OBJECT__38
10
0
20
0
30
0
70
128
71
7
72
28
73
18
0
VERTEX
8
OBJECT__38
10
0
20
0
30
0
70
128
71
15
72
25
73
16
0
SEQEND
8
OBJECT__38
0
POLYLINE
8
OBJECT__39
66
1
70
64
71
30
72
30
62
253
0
VERTEX
8
OBJECT__39
10
0.000000
20
-122.248001
30
16.164000
70
192
0
VERTEX
8
OBJECT__39
10
6.000000
20
-122.248001
30
16.164000
70
192
0
VERTEX
8
OBJECT__39
10
6.000000
20
-113.750000
30
23.816000
70
192
0
VERTEX
8
OBJECT__39
10
0.000000
20
-126.899002
30
5.718000
70
192
0
VERTEX
8
OBJECT__39
10
6.000000
20
-126.899002
30
-5.718000
70
192
0
VERTEX
8
OBJECT__39
10
6.000000
20
-126.899002
30
5.718000
70
192
0
VERTEX
8
OBJECT__39
10
6.000000
20
-122.248001
30
-16.164000
70
192
0
VERTEX
8
OBJECT__39
10
0.000000
20
-126.899002
30
-5.718000
70
192
0
VERTEX
8
OBJECT__39
10
6.000000
20
-113.750000
30
-23.816000
70
192
0
VERTEX
8
OBJECT__39
10
0.000000
20
-122.248001
30
-16.164000
70
192
0
VERTEX
8
OBJECT__39
10
6.000000
20
-102.875000
30
-27.349001
70
192
0
VERTEX
8
OBJECT__39
10
0.000000
20
-113.750000
30
-23.816000
70
192
0
VERTEX
8
OBJECT__39
10
6.000000
20
-91.501999
30
-26.153999
70
192
0
VERTEX
8
OBJECT__39
10
0.000000
20
-102.875000
30
-27.349001
70
192
0
VERTEX
8
OBJECT__39
10
6.000000
20
-81.598999
30
-20.436001
70
192
0
VERTEX
8
OBJECT__39
10
0.000000
20
-91.501999
30
-26.153999
70
192
0
VERTEX
8
OBJECT__39
10
6.000000
20
-74.876999
30
-11.185000
70
192
0
VERTEX
8
OBJECT__39
10
0.000000
20
-81.598999
30
-20.436001
70
192
0
VERTEX
8
OBJECT__39
10
6.000000
20
-72.500000
30
0.000000
70
192
0
VERTEX
8
OBJECT__39
10
0.000000
20
-74.876999
30
-11.185000
70
192
0
VERTEX
8
OBJECT__39
10
0.000000
20
-74.876999
30
11.185000
70
192
0
VERTEX
8
OBJECT__39
10
6.000000
20
-74.876999
30
11.185000
70
192
0
VERTEX
8
OBJECT__39
10
0.000000
20
-81.598999
30
20.436001
70
192
0
VERTEX
8
OBJECT__39
10
6.000000
20
-81.598999
30
20.436001
70
192
0
VERTEX
8
OBJECT__39
10
0.000000
20
-91.501999
30
26.153999
70
192
0
VERTEX
8
OBJECT__39
10
6.000000
20
-91.501999
30
26.153999
70
192
0
VERTEX
8
OBJECT__39
10
0.000000
20
-102.875000
30
27.349001
70
192
0
VERTEX
8
OBJECT__39
10
6.000000
20
-102.875000
30
27.349001
70
192
0
VERTEX
8
OBJECT__39
10
0.000000
20
-113.750000
30
23.816000
70
192
0
VERTEX
8
OBJECT__39
10
0.000000
20
-72.500000
30
0.000000
70
192
0
VERTEX
8
OBJECT__39
10
0
20
0
30
0
70
128
71
1
72
2
73
3
0
VERTEX
8
OBJECT__39
10
0
20
0
30
0
70
128
71
2
72
1
73
4
0
VERTEX
8
OBJECT__39
10
0
20
0
30
0
70
128
71
5
72
6
73
4
0
VERTEX
8
OBJECT__39
10
0
20
0
30
0
70
128
71
7
72
5
73
8
0
VERTEX
8
OBJECT__39
10
0
20
0
30
0
70
128
71
9
72
7
73
10
0
VERTEX
8
OBJECT__39
10
0
20
0
30
0
70
128
71
11
72
9
73
12
0
VERTEX
8
OBJECT__39
10
0
20
0
30
0
70
128
71
13
72
11
73
14
0
VERTEX
8
OBJECT__39
10
0
20
0
30
0
70
128
71
15
72
13
73
16
0
VERTEX
8
OBJECT__39
10
0
20
0
30
0
70
128
71
17
72
15
73
18
0
VERTEX
8
OBJECT__39
10
0
20
0
30
0
70
128
71
19
72
17
73
20
0
VERTEX
8
OBJECT__39
10
0
20
0
30
0
70
128
71
21
72
22
73
19
0
VERTEX
8
OBJECT__39
10
0
20
0
30
0
70
128
71
23
72
24
73
22
0
VERTEX
8
OBJECT__39
10
0
20
0
30
0
70
128
71
25
72
26
73
24
0
VERTEX
8
OBJECT__39
10
0
20
0
30
0
70
128
71
27
72
28
73
26
0
VERTEX
8
OBJECT__39
10
0
20
0
30
0
70
128
71
29
72
3
73
28
0
VERTEX
8
OBJECT__39
10
0
20
0
30
0
70
128
71
28
72
27
73
29
0
VERTEX
8
OBJECT__39
10
0
20
0
30
0
70
128
71
26
72
25
73
27
0
VERTEX
8
OBJECT__39
10
0
20
0
30
0
70
128
71
24
72
23
73
25
0
VERTEX
8
OBJECT__39
10
0
20
0
30
0
70
128
71
22
72
21
73
23
0
VERTEX
8
OBJECT__39
10
0
20
0
30
0
70
128
71
19
72
30
73
21
0
VERTEX
8
OBJECT__39
10
0
20
0
30
0
70
128
71
20
72
30
73
19
0
VERTEX
8
OBJECT__39
10
0
20
0
30
0
70
128
71
18
72
20
73
17
0
VERTEX
8
OBJECT__39
10
0
20
0
30
0
70
128
71
16
72
18
73
15
0
VERTEX
8
OBJECT__39
10
0
20
0
30
0
70
128
71
14
72
16
73
13
0
VERTEX
8
OBJECT__39
10
0
20
0
30
0
70
128
71
12
72
14
73
11
0
VERTEX
8
OBJECT__39
10
0
20
0
30
0
70
128
71
10
72
12
73
9
0
VERTEX
8
OBJECT__39
10
0
20
0
30
0
70
128
71
8
72
10
73
7
0
VERTEX
8
OBJECT__39
10
0
20
0
30
0
70
128
71
4
72
8
73
5
0
VERTEX
8
OBJECT__39
10
0
20
0
30
0
70
128
71
4
72
6
73
2
0
VERTEX
8
OBJECT__39
10
0
20
0
30
0
70
128
71
3
72
29
73
1
0
SEQEND
8
OBJECT__39
0
POLYLINE
8
OBJECT__40
66
1
70
64
71
15
72
13
62
253
0
VERTEX
8
OBJECT__40
10
0.000000
20
-74.876999
30
-11.185000
70
192
0
VERTEX
8
OBJECT__40
10
0.000000
20
-81.598999
30
-20.436001
70
192
0
VERTEX
8
OBJECT__40
10
0.000000
20
-91.501999
30
-26.153999
70
192
0
VERTEX
8
OBJECT__40
10
0.000000
20
-91.501999
30
26.153999
70
192
0
VERTEX
8
OBJECT__40
10
0.000000
20
-74.876999
30
11.185000
70
192
0
VERTEX
8
OBJECT__40
10
0.000000
20
-72.500000
30
0.000000
70
192
0
VERTEX
8
OBJECT__40
10
0.000000
20
-113.750000
30
23.816000
70
192
0
VERTEX
8
OBJECT__40
10
0.000000
20
-102.875000
30
27.349001
70
192
0
VERTEX
8
OBJECT__40
10
0.000000
20
-113.750000
30
-23.816000
70
192
0
VERTEX
8
OBJECT__40
10
0.000000
20
-122.248001
30
-16.164000
70
192
0
VERTEX
8
OBJECT__40
10
0.000000
20
-102.875000
30
-27.349001
70
192
0
VERTEX
8
OBJECT__40
10
0.000000
20
-81.598999
30
20.436001
70
192
0
VERTEX
8
OBJECT__40
10
0.000000
20
-122.248001
30
16.164000
70
192
0
VERTEX
8
OBJECT__40
10
0.000000
20
-126.899002
30
-5.718000
70
192
0
VERTEX
8
OBJECT__40
10
0.000000
20
-126.899002
30
5.718000
70
192
0
VERTEX
8
OBJECT__40
10
0
20
0
30
0
70
128
71
1
72
2
73
3
0
VERTEX
8
OBJECT__40
10
0
20
0
30
0
70
128
71
4
72
5
73
6
0
VERTEX
8
OBJECT__40
10
0
20
0
30
0
70
128
71
1
72
7
73
8
0
VERTEX
8
OBJECT__40
10
0
20
0
30
0
70
128
71
1
72
9
73
10
0
VERTEX
8
OBJECT__40
10
0
20
0
30
0
70
128
71
3
72
11
73
1
0
VERTEX
8
OBJECT__40
10
0
20
0
30
0
70
128
71
4
72
12
73
5
0
VERTEX
8
OBJECT__40
10
0
20
0
30
0
70
128
71
1
72
13
73
7
0
VERTEX
8
OBJECT__40
10
0
20
0
30
0
70
128
71
11
72
9
73
1
0
VERTEX
8
OBJECT__40
10
0
20
0
30
0
70
128
71
8
72
4
73
1
0
VERTEX
8
OBJECT__40
10
0
20
0
30
0
70
128
71
10
72
14
73
1
0
VERTEX
8
OBJECT__40
10
0
20
0
30
0
70
128
71
1
72
15
73
13
0
VERTEX
8
OBJECT__40
10
0
20
0
30
0
70
128
71
6
72
1
73
4
0
VERTEX
8
OBJECT__40
10
0
20
0
30
0
70
128
71
14
72
15
73
1
0
SEQEND
8
OBJECT__40
0
POLYLINE
8
OBJECT__41
66
1
70
64
71
8
72
6
62
253
0
VERTEX
8
OBJECT__41
10
64.050003
20
101.334999
30
37.500000
70
192
0
VERTEX
8
OBJECT__41
10
75.750000
20
101.334999
30
37.500000
70
192
0
VERTEX
8
OBJECT__41
10
72.502998
20
105.405998
30
37.500000
70
192
0
VERTEX
8
OBJECT__41
10
74.591003
20
96.259003
30
37.500000
70
192
0
VERTEX
8
OBJECT__41
10
65.209000
20
96.259003
30
37.500000
70
192
0
VERTEX
8
OBJECT__41
10
75.900002
20
100.000000
30
37.500000
70
192
0
VERTEX
8
OBJECT__41
10
69.900002
20
94.000000
30
37.500000
70
192
0
VERTEX
8
OBJECT__41
10
67.296997
20
105.405998
30
37.500000
70
192
0
VERTEX
8
OBJECT__41
10
0
20
0
30
0
70
128
71
1
72
2
73
3
0
VERTEX
8
OBJECT__41
10
0
20
0
30
0
70
128
71
4
72
1
73
5
0
VERTEX
8
OBJECT__41
10
0
20
0
30
0
70
128
71
1
72
6
73
2
0
VERTEX
8
OBJECT__41
10
0
20
0
30
0
70
128
71
5
72
7
73
4
0
VERTEX
8
OBJECT__41
10
0
20
0
30
0
70
128
71
4
72
6
73
1
0
VERTEX
8
OBJECT__41
10
0
20
0
30
0
70
128
71
3
72
8
73
1
0
SEQEND
8
OBJECT__41
0
POLYLINE
8
OBJECT__42
66
1
70
64
71
39
72
39
62
253
0
VERTEX
8
OBJECT__42
10
69.900002
20
94.000000
30
37.500000
70
192
0
VERTEX
8
OBJECT__42
10
73.827003
20
95.462997
30
8.630000
70
192
0
VERTEX
8
OBJECT__42
10
74.540001
20
96.303001
30
8.991000
70
192
0
VERTEX
8
OBJECT__42
10
70.393997
20
94.019997
30
7.701000
70
192
0
VERTEX
8
OBJECT__42
10
72.031998
20
94.390999
30
7.975000
70
192
0
VERTEX
8
OBJECT__42
10
69.900002
20
94.000000
30
7.685000
70
192
0
VERTEX
8
OBJECT__42
10
74.591003
20
96.259003
30
37.500000
70
192
0
VERTEX
8
OBJECT__42
10
75.686996
20
98.415001
30
9.620000
70
192
0
VERTEX
8
OBJECT__42
10
75.897003
20
100.185997
30
9.748000
70
192
0
VERTEX
8
OBJECT__42
10
75.750000
20
101.334999
30
37.500000
70
192
0
VERTEX
8
OBJECT__42
10
75.900002
20
100.000000
30
37.500000
70
192
0
VERTEX
8
OBJECT__42
10
74.851997
20
96.670998
30
9.149000
70
192
0
VERTEX
8
OBJECT__42
10
75.012001
20
96.859001
30
9.230000
70
192
0
VERTEX
8
OBJECT__42
10
72.502998
20
105.405998
30
37.500000
70
192
0
VERTEX
8
OBJECT__42
10
74.344002
20
104.030998
30
8.878000
70
192
0
VERTEX
8
OBJECT__42
10
72.910004
20
105.190002
30
8.254000
70
192
0
VERTEX
8
OBJECT__42
10
75.477997
20
102.209999
30
9.496000
70
192
0
VERTEX
8
OBJECT__42
10
74.787003
20
103.320000
30
9.119000
70
192
0
VERTEX
8
OBJECT__42
10
75.663002
20
101.317001
30
9.607000
70
192
0
VERTEX
8
OBJECT__42
10
67.296997
20
105.405998
30
37.500000
70
192
0
VERTEX
8
OBJECT__42
10
71.445000
20
105.797997
30
7.839000
70
192
0
VERTEX
8
OBJECT__42
10
69.810997
20
105.999001
30
7.686000
70
192
0
VERTEX
8
OBJECT__42
10
68.190002
20
105.750999
30
7.873000
70
192
0
VERTEX
8
OBJECT__42
10
72.487000
20
105.365997
30
8.134000
70
192
0
VERTEX
8
OBJECT__42
10
64.211998
20
101.910004
30
9.561000
70
192
0
VERTEX
8
OBJECT__42
10
64.107002
20
101.324997
30
9.625000
70
192
0
VERTEX
8
OBJECT__42
10
64.981003
20
103.434998
30
9.125000
70
192
0
VERTEX
8
OBJECT__42
10
64.929001
20
103.332001
30
9.154000
70
192
0
VERTEX
8
OBJECT__42
10
67.338997
20
105.320999
30
8.150000
70
192
0
VERTEX
8
OBJECT__42
10
66.282997
20
104.787003
30
8.494000
70
192
0
VERTEX
8
OBJECT__42
10
65.209000
20
96.259003
30
37.500000
70
192
0
VERTEX
8
OBJECT__42
10
64.176003
20
98.202003
30
9.583000
70
192
0
VERTEX
8
OBJECT__42
10
64.982002
20
96.675003
30
9.130000
70
192
0
VERTEX
8
OBJECT__42
10
65.188004
20
96.285004
30
9.015000
70
192
0
VERTEX
8
OBJECT__42
10
64.050003
20
101.334999
30
37.500000
70
192
0
VERTEX
8
OBJECT__42
10
63.903000
20
100.192001
30
9.748000
70
192
0
VERTEX
8
OBJECT__42
10
66.589996
20
94.995003
30
8.368000
70
192
0
VERTEX
8
OBJECT__42
10
68.139999
20
94.264000
30
7.884000
70
192
0
VERTEX
8
OBJECT__42
10
65.212997
20
96.263000
30
9.003000
70
192
0
VERTEX
8
OBJECT__42
10
0
20
0
30
0
70
128
71
1
72
2
73
3
0
VERTEX
8
OBJECT__42
10
0
20
0
30
0
70
128
71
1
72
4
73
5
0
VERTEX
8
OBJECT__42
10
0
20
0
30
0
70
128
71
1
72
6
73
4
0
VERTEX
8
OBJECT__42
10
0
20
0
30
0
70
128
71
5
72
2
73
1
0
VERTEX
8
OBJECT__42
10
0
20
0
30
0
70
128
71
7
72
8
73
9
0
VERTEX
8
OBJECT__42
10
0
20
0
30
0
70
128
71
9
72
10
73
11
0
VERTEX
8
OBJECT__42
10
0
20
0
30
0
70
128
71
7
72
3
73
12
0
VERTEX
8
OBJECT__42
10
0
20
0
30
0
70
128
71
12
72
13
73
7
0
VERTEX
8
OBJECT__42
10
0
20
0
30
0
70
128
71
13
72
8
73
7
0
VERTEX
8
OBJECT__42
10
0
20
0
30
0
70
128
71
9
72
11
73
7
0
VERTEX
8
OBJECT__42
10
0
20
0
30
0
70
128
71
14
72
15
73
16
0
VERTEX
8
OBJECT__42
10
0
20
0
30
0
70
128
71
14
72
17
73
18
0
VERTEX
8
OBJECT__42
10
0
20
0
30
0
70
128
71
18
72
15
73
14
0
VERTEX
8
OBJECT__42
10
0
20
0
30
0
70
128
71
14
72
10
73
19
0
VERTEX
8
OBJECT__42
10
0
20
0
30
0
70
128
71
19
72
17
73
14
0
VERTEX
8
OBJECT__42
10
0
20
0
30
0
70
128
71
20
72
21
73
22
0
VERTEX
8
OBJECT__42
10
0
20
0
30
0
70
128
71
22
72
23
73
20
0
VERTEX
8
OBJECT__42
10
0
20
0
30
0
70
128
71
20
72
14
73
24
0
VERTEX
8
OBJECT__42
10
0
20
0
30
0
70
128
71
24
72
21
73
20
0
VERTEX
8
OBJECT__42
10
0
20
0
30
0
70
128
71
20
72
25
73
26
0
VERTEX
8
OBJECT__42
10
0
20
0
30
0
70
128
71
20
72
27
73
28
0
VERTEX
8
OBJECT__42
10
0
20
0
30
0
70
128
71
20
72
29
73
30
0
VERTEX
8
OBJECT__42
10
0
20
0
30
0
70
128
71
30
72
27
73
20
0
VERTEX
8
OBJECT__42
10
0
20
0
30
0
70
128
71
28
72
25
73
20
0
VERTEX
8
OBJECT__42
10
0
20
0
30
0
70
128
71
31
72
32
73
33
0
VERTEX
8
OBJECT__42
10
0
20
0
30
0
70
128
71
33
72
34
73
31
0
VERTEX
8
OBJECT__42
10
0
20
0
30
0
70
128
71
31
72
35
73
36
0
VERTEX
8
OBJECT__42
10
0
20
0
30
0
70
128
71
36
72
32
73
31
0
VERTEX
8
OBJECT__42
10
0
20
0
30
0
70
128
71
35
72
26
73
36
0
VERTEX
8
OBJECT__42
10
0
20
0
30
0
70
128
71
1
72
37
73
38
0
VERTEX
8
OBJECT__42
10
0
20
0
30
0
70
128
71
1
72
31
73
39
0
VERTEX
8
OBJECT__42
10
0
20
0
30
0
70
128
71
39
72
37
73
1
0
VERTEX
8
OBJECT__42
10
0
20
0
30
0
70
128
71
38
72
6
73
1
0
VERTEX
8
OBJECT__42
10
0
20
0
30
0
70
128
71
34
72
39
73
31
0
VERTEX
8
OBJECT__42
10
0
20
0
30
0
70
128
71
26
72
35
73
20
0
VERTEX
8
OBJECT__42
10
0
20
0
30
0
70
128
71
23
72
29
73
20
0
VERTEX
8
OBJECT__42
10
0
20
0
30
0
70
128
71
16
72
24
73
14
0
VERTEX
8
OBJECT__42
10
0
20
0
30
0
70
128
71
9
72
19
73
10
0
VERTEX
8
OBJECT__42
10
0
20
0
30
0
70
128
71
3
72
7
73
1
0
SEQEND
8
OBJECT__42
0
POLYLINE
8
OBJECT__44
66
1
70
64
71
113
72
119
62
253
0
VERTEX
8
OBJECT__44
10
54.400002
20
90.398003
30
-1.693000
70
192
0
VERTEX
8
OBJECT__44
10
63.903000
20
91.461998
30
-4.707000
70
192
0
VERTEX
8
OBJECT__44
10
64.107002
20
91.001999
30
-3.665000
70
192
0
VERTEX
8
OBJECT__44
10
64.211998
20
90.764999
30
-3.127000
70
192
0
VERTEX
8
OBJECT__44
10
54.400002
20
93.733002
30
-7.469000
70
192
0
VERTEX
8
OBJECT__44
10
64.176003
20
92.599998
30
-6.349000
70
192
0
VERTEX
8
OBJECT__44
10
64.982002
20
93.755997
30
-7.445000
70
192
0
VERTEX
8
OBJECT__44
10
77.400002
20
91.556000
30
4.875000
70
192
0
VERTEX
8
OBJECT__44
10
74.344002
20
90.295998
30
-0.948000
70
192
0
VERTEX
8
OBJECT__44
10
74.787003
20
90.443001
30
-1.684000
70
192
0
VERTEX
8
OBJECT__44
10
71.445000
20
90.311996
30
1.101000
70
192
0
VERTEX
8
OBJECT__44
10
72.487000
20
90.273003
30
0.580000
70
192
0
VERTEX
8
OBJECT__44
10
72.910004
20
90.257004
30
0.368000
70
192
0
VERTEX
8
OBJECT__44
10
69.810997
20
90.344002
30
1.353000
70
192
0
VERTEX
8
OBJECT__44
10
54.400002
20
91.556000
30
4.875000
70
192
0
VERTEX
8
OBJECT__44
10
68.190002
20
90.306000
30
1.044000
70
192
0
VERTEX
8
OBJECT__44
10
66.282997
20
90.250999
30
-0.101000
70
192
0
VERTEX
8
OBJECT__44
10
67.338997
20
90.280998
30
0.533000
70
192
0
VERTEX
8
OBJECT__44
10
64.929001
20
90.405998
30
-1.691000
70
192
0
VERTEX
8
OBJECT__44
10
64.981003
20
90.379997
30
-1.588000
70
192
0
VERTEX
8
OBJECT__44
10
77.400002
20
93.733002
30
-7.469000
70
192
0
VERTEX
8
OBJECT__44
10
77.400002
20
90.398003
30
-1.693000
70
192
0
VERTEX
8
OBJECT__44
10
75.897003
20
91.464996
30
-4.713000
70
192
0
VERTEX
8
OBJECT__44
10
75.686996
20
92.460999
30
-6.183000
70
192
0
VERTEX
8
OBJECT__44
10
75.012001
20
93.577003
30
-7.335000
70
192
0
VERTEX
8
OBJECT__44
10
75.477997
20
90.670998
30
-2.834000
70
192
0
VERTEX
8
OBJECT__44
10
75.663002
20
91.021004
30
-3.663000
70
192
0
VERTEX
8
OBJECT__44
10
54.400002
20
100.000000
30
-9.750000
70
192
0
VERTEX
8
OBJECT__44
10
65.188004
20
94.051003
30
-7.724000
70
192
0
VERTEX
8
OBJECT__44
10
66.589996
20
95.255997
30
-8.518000
70
192
0
VERTEX
8
OBJECT__44
10
65.212997
20
94.070999
30
-7.738000
70
192
0
VERTEX
8
OBJECT__44
10
68.139999
20
96.040001
30
-8.910000
70
192
0
VERTEX
8
OBJECT__44
10
77.400002
20
100.000000
30
-9.750000
70
192
0
VERTEX
8
OBJECT__44
10
69.900002
20
96.344002
30
-9.039000
70
192
0
VERTEX
8
OBJECT__44
10
72.031998
20
95.897003
30
-8.845000
70
192
0
VERTEX
8
OBJECT__44
10
70.393997
20
96.320000
30
-9.029000
70
192
0
VERTEX
8
OBJECT__44
10
74.851997
20
93.740997
30
-7.458000
70
192
0
VERTEX
8
OBJECT__44
10
74.540001
20
94.061996
30
-7.698000
70
192
0
VERTEX
8
OBJECT__44
10
73.827003
20
94.793999
30
-8.244000
70
192
0
VERTEX
8
OBJECT__44
10
54.400002
20
106.266998
30
-7.469000
70
192
0
VERTEX
8
OBJECT__44
10
54.400002
20
108.444000
30
-4.875000
70
192
0
VERTEX
8
OBJECT__44
10
63.903000
20
108.348999
30
-5.035000
70
192
0
VERTEX
8
OBJECT__44
10
64.137001
20
107.662003
30
-5.944000
70
192
0
VERTEX
8
OBJECT__44
10
54.400002
20
109.601997
30
-1.693000
70
192
0
VERTEX
8
OBJECT__44
10
64.112999
20
109.124001
30
-3.438000
70
192
0
VERTEX
8
OBJECT__44
10
64.947998
20
109.587997
30
-1.691000
70
192
0
VERTEX
8
OBJECT__44
10
64.788002
20
109.564003
30
-1.895000
70
192
0
VERTEX
8
OBJECT__44
10
64.321999
20
107.119003
30
-6.662000
70
192
0
VERTEX
8
OBJECT__44
10
77.400002
20
106.266998
30
-7.469000
70
192
0
VERTEX
8
OBJECT__44
10
74.819000
20
106.184998
30
-7.537000
70
192
0
VERTEX
8
OBJECT__44
10
73.516998
20
104.961998
30
-8.393000
70
192
0
VERTEX
8
OBJECT__44
10
71.610001
20
103.943001
30
-8.917000
70
192
0
VERTEX
8
OBJECT__44
10
72.460999
20
104.397003
30
-8.683000
70
192
0
VERTEX
8
OBJECT__44
10
68.355003
20
103.889999
30
-8.940000
70
192
0
VERTEX
8
OBJECT__44
10
69.988998
20
103.655998
30
-9.038000
70
192
0
VERTEX
8
OBJECT__44
10
66.889999
20
104.553001
30
-8.622000
70
192
0
VERTEX
8
OBJECT__44
10
67.313004
20
104.361000
30
-8.714000
70
192
0
VERTEX
8
OBJECT__44
10
65.456001
20
105.672997
30
-7.930000
70
192
0
VERTEX
8
OBJECT__44
10
65.013000
20
106.237000
30
-7.435000
70
192
0
VERTEX
8
OBJECT__44
10
77.400002
20
108.444000
30
-4.875000
70
192
0
VERTEX
8
OBJECT__44
10
75.897003
20
108.346001
30
-5.041000
70
192
0
VERTEX
8
OBJECT__44
10
75.624001
20
109.197998
30
-3.234000
70
192
0
VERTEX
8
OBJECT__44
10
75.693001
20
107.672997
30
-5.960000
70
192
0
VERTEX
8
OBJECT__44
10
75.587997
20
107.324997
30
-6.434000
70
192
0
VERTEX
8
OBJECT__44
10
74.871002
20
106.262001
30
-7.463000
70
192
0
VERTEX
8
OBJECT__44
10
77.400002
20
109.601997
30
-1.693000
70
192
0
VERTEX
8
OBJECT__44
10
54.400002
20
108.444000
30
4.875000
70
192
0
VERTEX
8
OBJECT__44
10
65.260002
20
109.635002
30
-1.294000
70
192
0
VERTEX
8
OBJECT__44
10
65.973000
20
109.741997
30
-0.386000
70
192
0
VERTEX
8
OBJECT__44
10
67.767998
20
109.710999
30
0.869000
70
192
0
VERTEX
8
OBJECT__44
10
77.400002
20
108.444000
30
4.875000
70
192
0
VERTEX
8
OBJECT__44
10
69.900002
20
109.655998
30
1.354000
70
192
0
VERTEX
8
OBJECT__44
10
69.405998
20
109.658997
30
1.328000
70
192
0
VERTEX
8
OBJECT__44
10
71.660004
20
109.695999
30
1.026000
70
192
0
VERTEX
8
OBJECT__44
10
74.612000
20
109.664001
30
-1.290000
70
192
0
VERTEX
8
OBJECT__44
10
74.586998
20
109.666000
30
-1.265000
70
192
0
VERTEX
8
OBJECT__44
10
73.209999
20
109.749001
30
0.150000
70
192
0
VERTEX
8
OBJECT__44
10
74.818001
20
109.569000
30
-1.685000
70
192
0
VERTEX
8
OBJECT__44
10
54.400002
20
103.334999
30
9.162000
70
192
0
VERTEX
8
OBJECT__44
10
63.903000
20
100.192001
30
9.748000
70
192
0
VERTEX
8
OBJECT__44
10
64.107002
20
101.324997
30
9.625000
70
192
0
VERTEX
8
OBJECT__44
10
64.211998
20
101.910004
30
9.561000
70
192
0
VERTEX
8
OBJECT__44
10
54.400002
20
96.665001
30
9.162000
70
192
0
VERTEX
8
OBJECT__44
10
64.176003
20
98.202003
30
9.583000
70
192
0
VERTEX
8
OBJECT__44
10
64.982002
20
96.675003
30
9.130000
70
192
0
VERTEX
8
OBJECT__44
10
74.344002
20
104.030998
30
8.878000
70
192
0
VERTEX
8
OBJECT__44
10
74.787003
20
103.320000
30
9.119000
70
192
0
VERTEX
8
OBJECT__44
10
71.445000
20
105.797997
30
7.839000
70
192
0
VERTEX
8
OBJECT__44
10
72.487000
20
105.365997
30
8.134000
70
192
0
VERTEX
8
OBJECT__44
10
72.910004
20
105.190002
30
8.254000
70
192
0
VERTEX
8
OBJECT__44
10
69.810997
20
105.999001
30
7.686000
70
192
0
VERTEX
8
OBJECT__44
10
68.190002
20
105.750999
30
7.873000
70
192
0
VERTEX
8
OBJECT__44
10
66.282997
20
104.787003
30
8.494000
70
192
0
VERTEX
8
OBJECT__44
10
67.338997
20
105.320999
30
8.150000
70
192
0
VERTEX
8
OBJECT__44
10
64.929001
20
103.332001
30
9.154000
70
192
0
VERTEX
8
OBJECT__44
10
64.981003
20
103.434998
30
9.125000
70
192
0
VERTEX
8
OBJECT__44
10
77.400002
20
96.665001
30
9.162000
70
192
0
VERTEX
8
OBJECT__44
10
77.400002
20
103.334999
30
9.162000
70
192
0
VERTEX
8
OBJECT__44
10
75.897003
20
100.185997
30
9.748000
70
192
0
VERTEX
8
OBJECT__44
10
75.686996
20
98.415001
30
9.620000
70
192
0
VERTEX
8
OBJECT__44
10
75.012001
20
96.859001
30
9.230000
70
192
0
VERTEX
8
OBJECT__44
10
75.477997
20
102.209999
30
9.496000
70
192
0
VERTEX
8
OBJECT__44
10
75.663002
20
101.317001
30
9.607000
70
192
0
VERTEX
8
OBJECT__44
10
65.188004
20
96.285004
30
9.015000
70
192
0
VERTEX
8
OBJECT__44
10
66.589996
20
94.995003
30
8.368000
70
192
0
VERTEX
8
OBJECT__44
10
65.212997
20
96.263000
30
9.003000
70
192
0
VERTEX
8
OBJECT__44
10
68.139999
20
94.264000
30
7.884000
70
192
0
VERTEX
8
OBJECT__44
10
69.900002
20
94.000000
30
7.685000
70
192
0
VERTEX
8
OBJECT__44
10
72.031998
20
94.390999
30
7.975000
70
192
0
VERTEX
8
OBJECT__44
10
70.393997
20
94.019997
30
7.701000
70
192
0
VERTEX
8
OBJECT__44
10
74.851997
20
96.670998
30
9.149000
70
192
0
VERTEX
8
OBJECT__44
10
74.540001
20
96.303001
30
8.991000
70
192
0
VERTEX
8
OBJECT__44
10
73.827003
20
95.462997
30
8.630000
70
192
0
VERTEX
8
OBJECT__44
10
0
20
0
30
0
70
128
71
1
72
2
73
3
0
VERTEX
8
OBJECT__44
10
0
20
0
30
0
70
128
71
3
72
4
73
1
0
VERTEX
8
OBJECT__44
10
0
20
0
30
0
70
128
71
5
72
6
73
2
0
VERTEX
8
OBJECT__44
10
0
20
0
30
0
70
128
71
2
72
1
73
5
0
VERTEX
8
OBJECT__44
10
0
20
0
30
0
70
128
71
5
72
7
73
6
0
VERTEX
8
OBJECT__44
10
0
20
0
30
0
70
128
71
8
72
9
73
10
0
VERTEX
8
OBJECT__44
10
0
20
0
30
0
70
128
71
8
72
11
73
12
0
VERTEX
8
OBJECT__44
10
0
20
0
30
0
70
128
71
12
72
13
73
8
0
VERTEX
8
OBJECT__44
10
0
20
0
30
0
70
128
71
13
72
9
73
8
0
VERTEX
8
OBJECT__44
10
0
20
0
30
0
70
128
71
8
72
14
73
11
0
VERTEX
8
OBJECT__44
10
0
20
0
30
0
70
128
71
15
72
16
73
14
0
VERTEX
8
OBJECT__44
10
0
20
0
30
0
70
128
71
14
72
8
73
15
0
VERTEX
8
OBJECT__44
10
0
20
0
30
0
70
128
71
15
72
17
73
18
0
VERTEX
8
OBJECT__44
10
0
20
0
30
0
70
128
71
15
72
1
73
19
0
VERTEX
8
OBJECT__44
10
0
20
0
30
0
70
128
71
19
72
20
73
15
0
VERTEX
8
OBJECT__44
10
0
20
0
30
0
70
128
71
20
72
17
73
15
0
VERTEX
8
OBJECT__44
10
0
20
0
30
0
70
128
71
18
72
16
73
15
0
VERTEX
8
OBJECT__44
10
0
20
0
30
0
70
128
71
21
72
22
73
23
0
VERTEX
8
OBJECT__44
10
0
20
0
30
0
70
128
71
23
72
24
73
21
0
VERTEX
8
OBJECT__44
10
0
20
0
30
0
70
128
71
24
72
25
73
21
0
VERTEX
8
OBJECT__44
10
0
20
0
30
0
70
128
71
22
72
26
73
27
0
VERTEX
8
OBJECT__44
10
0
20
0
30
0
70
128
71
27
72
23
73
22
0
VERTEX
8
OBJECT__44
10
0
20
0
30
0
70
128
71
22
72
10
73
26
0
VERTEX
8
OBJECT__44
10
0
20
0
30
0
70
128
71
28
72
29
73
7
0
VERTEX
8
OBJECT__44
10
0
20
0
30
0
70
128
71
28
72
30
73
31
0
VERTEX
8
OBJECT__44
10
0
20
0
30
0
70
128
71
28
72
32
73
30
0
VERTEX
8
OBJECT__44
10
0
20
0
30
0
70
128
71
31
72
29
73
28
0
VERTEX
8
OBJECT__44
10
0
20
0
30
0
70
128
71
28
72
33
73
34
0
VERTEX
8
OBJECT__44
10
0
20
0
30
0
70
128
71
33
72
35
73
36
0
VERTEX
8
OBJECT__44
10
0
20
0
30
0
70
128
71
36
72
34
73
33
0
VERTEX
8
OBJECT__44
10
0
20
0
30
0
70
128
71
34
72
32
73
28
0
VERTEX
8
OBJECT__44
10
0
20
0
30
0
70
128
71
33
72
21
73
37
0
VERTEX
8
OBJECT__44
10
0
20
0
30
0
70
128
71
37
72
38
73
33
0
VERTEX
8
OBJECT__44
10
0
20
0
30
0
70
128
71
38
72
39
73
33
0
VERTEX
8
OBJECT__44
10
0
20
0
30
0
70
128
71
39
72
35
73
33
0
VERTEX
8
OBJECT__44
10
0
20
0
30
0
70
128
71
40
72
41
73
42
0
VERTEX
8
OBJECT__44
10
0
20
0
30
0
70
128
71
42
72
43
73
40
0
VERTEX
8
OBJECT__44
10
0
20
0
30
0
70
128
71
44
72
45
73
42
0
VERTEX
8
OBJECT__44
10
0
20
0
30
0
70
128
71
44
72
46
73
47
0
VERTEX
8
OBJECT__44
10
0
20
0
30
0
70
128
71
47
72
45
73
44
0
VERTEX
8
OBJECT__44
10
0
20
0
30
0
70
128
71
42
72
41
73
44
0
VERTEX
8
OBJECT__44
10
0
20
0
30
0
70
128
71
43
72
48
73
40
0
VERTEX
8
OBJECT__44
10
0
20
0
30
0
70
128
71
49
72
33
73
50
0
VERTEX
8
OBJECT__44
10
0
20
0
30
0
70
128
71
33
72
51
73
50
0
VERTEX
8
OBJECT__44
10
0
20
0
30
0
70
128
71
33
72
52
73
53
0
VERTEX
8
OBJECT__44
10
0
20
0
30
0
70
128
71
53
72
51
73
33
0
VERTEX
8
OBJECT__44
10
0
20
0
30
0
70
128
71
28
72
54
73
55
0
VERTEX
8
OBJECT__44
10
0
20
0
30
0
70
128
71
28
72
56
73
57
0
VERTEX
8
OBJECT__44
10
0
20
0
30
0
70
128
71
28
72
58
73
56
0
VERTEX
8
OBJECT__44
10
0
20
0
30
0
70
128
71
28
72
40
73
59
0
VERTEX
8
OBJECT__44
10
0
20
0
30
0
70
128
71
59
72
58
73
28
0
VERTEX
8
OBJECT__44
10
0
20
0
30
0
70
128
71
57
72
54
73
28
0
VERTEX
8
OBJECT__44
10
0
20
0
30
0
70
128
71
55
72
33
73
28
0
VERTEX
8
OBJECT__44
10
0
20
0
30
0
70
128
71
55
72
52
73
33
0
VERTEX
8
OBJECT__44
10
0
20
0
30
0
70
128
71
60
72
61
73
62
0
VERTEX
8
OBJECT__44
10
0
20
0
30
0
70
128
71
60
72
49
73
63
0
VERTEX
8
OBJECT__44
10
0
20
0
30
0
70
128
71
49
72
64
73
63
0
VERTEX
8
OBJECT__44
10
0
20
0
30
0
70
128
71
49
72
65
73
64
0
VERTEX
8
OBJECT__44
10
0
20
0
30
0
70
128
71
63
72
61
73
60
0
VERTEX
8
OBJECT__44
10
0
20
0
30
0
70
128
71
62
72
66
73
60
0
VERTEX
8
OBJECT__44
10
0
20
0
30
0
70
128
71
67
72
68
73
46
0
VERTEX
8
OBJECT__44
10
0
20
0
30
0
70
128
71
67
72
69
73
68
0
VERTEX
8
OBJECT__44
10
0
20
0
30
0
70
128
71
67
72
70
73
69
0
VERTEX
8
OBJECT__44
10
0
20
0
30
0
70
128
71
71
72
72
73
73
0
VERTEX
8
OBJECT__44
10
0
20
0
30
0
70
128
71
73
72
67
73
71
0
VERTEX
8
OBJECT__44
10
0
20
0
30
0
70
128
71
71
72
74
73
72
0
VERTEX
8
OBJECT__44
10
0
20
0
30
0
70
128
71
71
72
75
73
76
0
VERTEX
8
OBJECT__44
10
0
20
0
30
0
70
128
71
76
72
77
73
71
0
VERTEX
8
OBJECT__44
10
0
20
0
30
0
70
128
71
66
72
78
73
75
0
VERTEX
8
OBJECT__44
10
0
20
0
30
0
70
128
71
75
72
71
73
66
0
VERTEX
8
OBJECT__44
10
0
20
0
30
0
70
128
71
77
72
74
73
71
0
VERTEX
8
OBJECT__44
10
0
20
0
30
0
70
128
71
73
72
70
73
67
0
VERTEX
8
OBJECT__44
10
0
20
0
30
0
70
128
71
79
72
80
73
81
0
VERTEX
8
OBJECT__44
10
0
20
0
30
0
70
128
71
81
72
82
73
79
0
VERTEX
8
OBJECT__44
10
0
20
0
30
0
70
128
71
83
72
84
73
80
0
VERTEX
8
OBJECT__44
10
0
20
0
30
0
70
128
71
80
72
79
73
83
0
VERTEX
8
OBJECT__44
10
0
20
0
30
0
70
128
71
83
72
85
73
84
0
VERTEX
8
OBJECT__44
10
0
20
0
30
0
70
128
71
71
72
86
73
87
0
VERTEX
8
OBJECT__44
10
0
20
0
30
0
70
128
71
71
72
88
73
89
0
VERTEX
8
OBJECT__44
10
0
20
0
30
0
70
128
71
89
72
90
73
71
0
VERTEX
8
OBJECT__44
10
0
20
0
30
0
70
128
71
90
72
86
73
71
0
VERTEX
8
OBJECT__44
10
0
20
0
30
0
70
128
71
71
72
91
73
88
0
VERTEX
8
OBJECT__44
10
0
20
0
30
0
70
128
71
67
72
92
73
91
0
VERTEX
8
OBJECT__44
10
0
20
0
30
0
70
128
71
91
72
71
73
67
0
VERTEX
8
OBJECT__44
10
0
20
0
30
0
70
128
71
67
72
93
73
94
0
VERTEX
8
OBJECT__44
10
0
20
0
30
0
70
128
71
67
72
79
73
95
0
VERTEX
8
OBJECT__44
10
0
20
0
30
0
70
128
71
95
72
96
73
67
0
VERTEX
8
OBJECT__44
10
0
20
0
30
0
70
128
71
96
72
93
73
67
0
VERTEX
8
OBJECT__44
10
0
20
0
30
0
70
128
71
94
72
92
73
67
0
VERTEX
8
OBJECT__44
10
0
20
0
30
0
70
128
71
97
72
98
73
99
0
VERTEX
8
OBJECT__44
10
0
20
0
30
0
70
128
71
99
72
100
73
97
0
VERTEX
8
OBJECT__44
10
0
20
0
30
0
70
128
71
100
72
101
73
97
0
VERTEX
8
OBJECT__44
10
0
20
0
30
0
70
128
71
98
72
102
73
103
0
VERTEX
8
OBJECT__44
10
0
20
0
30
0
70
128
71
103
72
99
73
98
0
VERTEX
8
OBJECT__44
10
0
20
0
30
0
70
128
71
98
72
87
73
102
0
VERTEX
8
OBJECT__44
10
0
20
0
30
0
70
128
71
15
72
104
73
85
0
VERTEX
8
OBJECT__44
10
0
20
0
30
0
70
128
71
15
72
105
73
106
0
VERTEX
8
OBJECT__44
10
0
20
0
30
0
70
128
71
15
72
107
73
105
0
VERTEX
8
OBJECT__44
10
0
20
0
30
0
70
128
71
106
72
104
73
15
0
VERTEX
8
OBJECT__44
10
0
20
0
30
0
70
128
71
15
72
8
73
108
0
VERTEX
8
OBJECT__44
10
0
20
0
30
0
70
128
71
8
72
109
73
110
0
VERTEX
8
OBJECT__44
10
0
20
0
30
0
70
128
71
110
72
108
73
8
0
VERTEX
8
OBJECT__44
10
0
20
0
30
0
70
128
71
108
72
107
73
15
0
VERTEX
8
OBJECT__44
10
0
20
0
30
0
70
128
71
8
72
97
73
111
0
VERTEX
8
OBJECT__44
10
0
20
0
30
0
70
128
71
111
72
112
73
8
0
VERTEX
8
OBJECT__44
10
0
20
0
30
0
70
128
71
112
72
113
73
8
0
VERTEX
8
OBJECT__44
10
0
20
0
30
0
70
128
71
113
72
109
73
8
0
VERTEX
8
OBJECT__44
10
0
20
0
30
0
70
128
71
85
72
83
73
15
0
VERTEX
8
OBJECT__44
10
0
20
0
30
0
70
128
71
101
72
111
73
97
0
VERTEX
8
OBJECT__44
10
0
20
0
30
0
70
128
71
87
72
98
73
71
0
VERTEX
8
OBJECT__44
10
0
20
0
30
0
70
128
71
82
72
95
73
79
0
VERTEX
8
OBJECT__44
10
0
20
0
30
0
70
128
71
46
72
44
73
67
0
VERTEX
8
OBJECT__44
10
0
20
0
30
0
70
128
71
62
72
78
73
66
0
VERTEX
8
OBJECT__44
10
0
20
0
30
0
70
128
71
50
72
65
73
49
0
VERTEX
8
OBJECT__44
10
0
20
0
30
0
70
128
71
48
72
59
73
40
0
VERTEX
8
OBJECT__44
10
0
20
0
30
0
70
128
71
7
72
5
73
28
0
VERTEX
8
OBJECT__44
10
0
20
0
30
0
70
128
71
25
72
37
73
21
0
VERTEX
8
OBJECT__44
10
0
20
0
30
0
70
128
71
10
72
22
73
8
0
VERTEX
8
OBJECT__44
10
0
20
0
30
0
70
128
71
4
72
19
73
1
0
SEQEND
8
OBJECT__44
0
POLYLINE
8
OBJECT__45
66
1
70
64
71
10
72
8
62
253
0
VERTEX
8
OBJECT__45
10
77.400002
20
108.444000
30
4.875000
70
192
0
VERTEX
8
OBJECT__45
10
77.400002
20
103.334999
30
9.162000
70
192
0
VERTEX
8
OBJECT__45
10
77.400002
20
96.665001
30
9.162000
70
192
0
VERTEX
8
OBJECT__45
10
77.400002
20
90.398003
30
-1.693000
70
192
0
VERTEX
8
OBJECT__45
10
77.400002
20
93.733002
30
-7.469000
70
192
0
VERTEX
8
OBJECT__45
10
77.400002
20
100.000000
30
-9.750000
70
192
0
VERTEX
8
OBJECT__45
10
77.400002
20
91.556000
30
4.875000
70
192
0
VERTEX
8
OBJECT__45
10
77.400002
20
109.601997
30
-1.693000
70
192
0
VERTEX
8
OBJECT__45
10
77.400002
20
106.266998
30
-7.469000
70
192
0
VERTEX
8
OBJECT__45
10
77.400002
20
108.444000
30
-4.875000
70
192
0
VERTEX
8
OBJECT__45
10
0
20
0
30
0
70
128
71
1
72
2
73
3
0
VERTEX
8
OBJECT__45
10
0
20
0
30
0
70
128
71
4
72
5
73
6
0
VERTEX
8
OBJECT__45
10
0
20
0
30
0
70
128
71
7
72
8
73
1
0
VERTEX
8
OBJECT__45
10
0
20
0
30
0
70
128
71
9
72
7
73
4
0
VERTEX
8
OBJECT__45
10
0
20
0
30
0
70
128
71
7
72
10
73
8
0
VERTEX
8
OBJECT__45
10
0
20
0
30
0
70
128
71
6
72
9
73
4
0
VERTEX
8
OBJECT__45
10
0
20
0
30
0
70
128
71
9
72
10
73
7
0
VERTEX
8
OBJECT__45
10
0
20
0
30
0
70
128
71
3
72
7
73
1
0
SEQEND
8
OBJECT__45
0
POLYLINE
8
OBJECT__46
66
1
70
64
71
39
72
39
62
253
0
VERTEX
8
OBJECT__46
10
69.900002
20
70.524002
30
-23.945999
70
192
0
VERTEX
8
OBJECT__46
10
73.827003
20
94.793999
30
-8.244000
70
192
0
VERTEX
8
OBJECT__46
10
74.540001
20
94.061996
30
-7.698000
70
192
0
VERTEX
8
OBJECT__46
10
70.393997
20
96.320000
30
-9.029000
70
192
0
VERTEX
8
OBJECT__46
10
72.031998
20
95.897003
30
-8.845000
70
192
0
VERTEX
8
OBJECT__46
10
69.900002
20
96.344002
30
-9.039000
70
192
0
VERTEX
8
OBJECT__46
10
74.591003
20
69.394997
30
-21.990000
70
192
0
VERTEX
8
OBJECT__46
10
75.686996
20
92.460999
30
-6.183000
70
192
0
VERTEX
8
OBJECT__46
10
75.897003
20
91.464996
30
-4.713000
70
192
0
VERTEX
8
OBJECT__46
10
75.750000
20
66.856003
30
-17.594000
70
192
0
VERTEX
8
OBJECT__46
10
75.900002
20
67.524002
30
-18.750000
70
192
0
VERTEX
8
OBJECT__46
10
74.851997
20
93.740997
30
-7.458000
70
192
0
VERTEX
8
OBJECT__46
10
75.012001
20
93.577003
30
-7.335000
70
192
0
VERTEX
8
OBJECT__46
10
72.502998
20
64.820999
30
-14.068000
70
192
0
VERTEX
8
OBJECT__46
10
74.344002
20
90.295998
30
-0.948000
70
192
0
VERTEX
8
OBJECT__46
10
72.910004
20
90.257004
30
0.368000
70
192
0
VERTEX
8
OBJECT__46
10
75.477997
20
90.670998
30
-2.834000
70
192
0
VERTEX
8
OBJECT__46
10
74.787003
20
90.443001
30
-1.684000
70
192
0
VERTEX
8
OBJECT__46
10
75.663002
20
91.021004
30
-3.663000
70
192
0
VERTEX
8
OBJECT__46
10
67.296997
20
64.820999
30
-14.068000
70
192
0
VERTEX
8
OBJECT__46
10
71.445000
20
90.311996
30
1.101000
70
192
0
VERTEX
8
OBJECT__46
10
69.810997
20
90.344002
30
1.353000
70
192
0
VERTEX
8
OBJECT__46
10
68.190002
20
90.306000
30
1.044000
70
192
0
VERTEX
8
OBJECT__46
10
72.487000
20
90.273003
30
0.580000
70
192
0
VERTEX
8
OBJECT__46
10
64.211998
20
90.764999
30
-3.127000
70
192
0
VERTEX
8
OBJECT__46
10
64.107002
20
91.001999
30
-3.665000
70
192
0
VERTEX
8
OBJECT__46
10
64.981003
20
90.379997
30
-1.588000
70
192
0
VERTEX
8
OBJECT__46
10
64.929001
20
90.405998
30
-1.691000
70
192
0
VERTEX
8
OBJECT__46
10
67.338997
20
90.280998
30
0.533000
70
192
0
VERTEX
8
OBJECT__46
10
66.282997
20
90.250999
30
-0.101000
70
192
0
VERTEX
8
OBJECT__46
10
65.209000
20
69.394997
30
-21.990000
70
192
0
VERTEX
8
OBJECT__46
10
64.176003
20
92.599998
30
-6.349000
70
192
0
VERTEX
8
OBJECT__46
10
64.982002
20
93.755997
30
-7.445000
70
192
0
VERTEX
8
OBJECT__46
10
65.188004
20
94.051003
30
-7.724000
70
192
0
VERTEX
8
OBJECT__46
10
64.050003
20
66.856003
30
-17.594000
70
192
0
VERTEX
8
OBJECT__46
10
63.903000
20
91.461998
30
-4.707000
70
192
0
VERTEX
8
OBJECT__46
10
66.589996
20
95.255997
30
-8.518000
70
192
0
VERTEX
8
OBJECT__46
10
68.139999
20
96.040001
30
-8.910000
70
192
0
VERTEX
8
OBJECT__46
10
65.212997
20
94.070999
30
-7.738000
70
192
0
VERTEX
8
OBJECT__46
10
0
20
0
30
0
70
128
71
1
72
2
73
3
0
VERTEX
8
OBJECT__46
10
0
20
0
30
0
70
128
71
1
72
4
73
5
0
VERTEX
8
OBJECT__46
10
0
20
0
30
0
70
128
71
1
72
6
73
4
0
VERTEX
8
OBJECT__46
10
0
20
0
30
0
70
128
71
5
72
2
73
1
0
VERTEX
8
OBJECT__46
10
0
20
0
30
0
70
128
71
7
72
8
73
9
0
VERTEX
8
OBJECT__46
10
0
20
0
30
0
70
128
71
9
72
10
73
11
0
VERTEX
8
OBJECT__46
10
0
20
0
30
0
70
128
71
7
72
3
73
12
0
VERTEX
8
OBJECT__46
10
0
20
0
30
0
70
128
71
12
72
13
73
7
0
VERTEX
8
OBJECT__46
10
0
20
0
30
0
70
128
71
13
72
8
73
7
0
VERTEX
8
OBJECT__46
10
0
20
0
30
0
70
128
71
9
72
11
73
7
0
VERTEX
8
OBJECT__46
10
0
20
0
30
0
70
128
71
14
72
15
73
16
0
VERTEX
8
OBJECT__46
10
0
20
0
30
0
70
128
71
14
72
17
73
18
0
VERTEX
8
OBJECT__46
10
0
20
0
30
0
70
128
71
18
72
15
73
14
0
VERTEX
8
OBJECT__46
10
0
20
0
30
0
70
128
71
14
72
10
73
19
0
VERTEX
8
OBJECT__46
10
0
20
0
30
0
70
128
71
19
72
17
73
14
0
VERTEX
8
OBJECT__46
10
0
20
0
30
0
70
128
71
20
72
21
73
22
0
VERTEX
8
OBJECT__46
10
0
20
0
30
0
70
128
71
22
72
23
73
20
0
VERTEX
8
OBJECT__46
10
0
20
0
30
0
70
128
71
20
72
14
73
24
0
VERTEX
8
OBJECT__46
10
0
20
0
30
0
70
128
71
24
72
21
73
20
0
VERTEX
8
OBJECT__46
10
0
20
0
30
0
70
128
71
20
72
25
73
26
0
VERTEX
8
OBJECT__46
10
0
20
0
30
0
70
128
71
20
72
27
73
28
0
VERTEX
8
OBJECT__46
10
0
20
0
30
0
70
128
71
20
72
29
73
30
0
VERTEX
8
OBJECT__46
10
0
20
0
30
0
70
128
71
30
72
27
73
20
0
VERTEX
8
OBJECT__46
10
0
20
0
30
0
70
128
71
28
72
25
73
20
0
VERTEX
8
OBJECT__46
10
0
20
0
30
0
70
128
71
31
72
32
73
33
0
VERTEX
8
OBJECT__46
10
0
20
0
30
0
70
128
71
33
72
34
73
31
0
VERTEX
8
OBJECT__46
10
0
20
0
30
0
70
128
71
31
72
35
73
36
0
VERTEX
8
OBJECT__46
10
0
20
0
30
0
70
128
71
36
72
32
73
31
0
VERTEX
8
OBJECT__46
10
0
20
0
30
0
70
128
71
35
72
26
73
36
0
VERTEX
8
OBJECT__46
10
0
20
0
30
0
70
128
71
1
72
37
73
38
0
VERTEX
8
OBJECT__46
10
0
20
0
30
0
70
128
71
1
72
31
73
39
0
VERTEX
8
OBJECT__46
10
0
20
0
30
0
70
128
71
39
72
37
73
1
0
VERTEX
8
OBJECT__46
10
0
20
0
30
0
70
128
71
38
72
6
73
1
0
VERTEX
8
OBJECT__46
10
0
20
0
30
0
70
128
71
34
72
39
73
31
0
VERTEX
8
OBJECT__46
10
0
20
0
30
0
70
128
71
26
72
35
73
20
0
VERTEX
8
OBJECT__46
10
0
20
0
30
0
70
128
71
23
72
29
73
20
0
VERTEX
8
OBJECT__46
10
0
20
0
30
0
70
128
71
16
72
24
73
14
0
VERTEX
8
OBJECT__46
10
0
20
0
30
0
70
128
71
9
72
19
73
10
0
VERTEX
8
OBJECT__46
10
0
20
0
30
0
70
128
71
3
72
7
73
1
0
SEQEND
8
OBJECT__46
0
POLYLINE
8
OBJECT__47
66
1
70
64
71
8
72
6
62
253
0
VERTEX
8
OBJECT__47
10
64.050003
20
66.856003
30
-17.594000
70
192
0
VERTEX
8
OBJECT__47
10
75.750000
20
66.856003
30
-17.594000
70
192
0
VERTEX
8
OBJECT__47
10
72.502998
20
64.820999
30
-14.068000
70
192
0
VERTEX
8
OBJECT__47
10
74.591003
20
69.394997
30
-21.990000
70
192
0
VERTEX
8
OBJECT__47
10
65.209000
20
69.394997
30
-21.990000
70
192
0
VERTEX
8
OBJECT__47
10
75.900002
20
67.524002
30
-18.750000
70
192
0
VERTEX
8
OBJECT__47
10
69.900002
20
70.524002
30
-23.945999
70
192
0
VERTEX
8
OBJECT__47
10
67.296997
20
64.820999
30
-14.068000
70
192
0
VERTEX
8
OBJECT__47
10
0
20
0
30
0
70
128
71
1
72
2
73
3
0
VERTEX
8
OBJECT__47
10
0
20
0
30
0
70
128
71
4
72
1
73
5
0
VERTEX
8
OBJECT__47
10
0
20
0
30
0
70
128
71
1
72
6
73
2
0
VERTEX
8
OBJECT__47
10
0
20
0
30
0
70
128
71
5
72
7
73
4
0
VERTEX
8
OBJECT__47
10
0
20
0
30
0
70
128
71
4
72
6
73
1
0
VERTEX
8
OBJECT__47
10
0
20
0
30
0
70
128
71
3
72
8
73
1
0
SEQEND
8
OBJECT__47
0
POLYLINE
8
OBJECT__48
66
1
70
64
71
39
72
39
62
253
0
VERTEX
8
OBJECT__48
10
69.900002
20
135.475998
30
-13.554000
70
192
0
VERTEX
8
OBJECT__48
10
73.209999
20
109.749001
30
0.150000
70
192
0
VERTEX
8
OBJECT__48
10
74.586998
20
109.666000
30
-1.265000
70
192
0
VERTEX
8
OBJECT__48
10
69.900002
20
109.655998
30
1.354000
70
192
0
VERTEX
8
OBJECT__48
10
71.660004
20
109.695999
30
1.026000
70
192
0
VERTEX
8
OBJECT__48
10
74.591003
20
134.345993
30
-15.510000
70
192
0
VERTEX
8
OBJECT__48
10
75.624001
20
109.197998
30
-3.234000
70
192
0
VERTEX
8
OBJECT__48
10
75.897003
20
108.346001
30
-5.041000
70
192
0
VERTEX
8
OBJECT__48
10
74.612000
20
109.664001
30
-1.290000
70
192
0
VERTEX
8
OBJECT__48
10
74.818001
20
109.569000
30
-1.685000
70
192
0
VERTEX
8
OBJECT__48
10
75.750000
20
131.807999
30
-19.906000
70
192
0
VERTEX
8
OBJECT__48
10
72.502998
20
129.772995
30
-23.431999
70
192
0
VERTEX
8
OBJECT__48
10
74.819000
20
106.184998
30
-7.537000
70
192
0
VERTEX
8
OBJECT__48
10
73.516998
20
104.961998
30
-8.393000
70
192
0
VERTEX
8
OBJECT__48
10
75.587997
20
107.324997
30
-6.434000
70
192
0
VERTEX
8
OBJECT__48
10
74.871002
20
106.262001
30
-7.463000
70
192
0
VERTEX
8
OBJECT__48
10
75.693001
20
107.672997
30
-5.960000
70
192
0
VERTEX
8
OBJECT__48
10
69.900002
20
129.475998
30
-23.945999
70
192
0
VERTEX
8
OBJECT__48
10
72.460999
20
104.397003
30
-8.683000
70
192
0
VERTEX
8
OBJECT__48
10
71.610001
20
103.943001
30
-8.917000
70
192
0
VERTEX
8
OBJECT__48
10
68.355003
20
103.889999
30
-8.940000
70
192
0
VERTEX
8
OBJECT__48
10
67.313004
20
104.361000
30
-8.714000
70
192
0
VERTEX
8
OBJECT__48
10
69.988998
20
103.655998
30
-9.038000
70
192
0
VERTEX
8
OBJECT__48
10
67.296997
20
129.772995
30
-23.431999
70
192
0
VERTEX
8
OBJECT__48
10
64.321999
20
107.119003
30
-6.662000
70
192
0
VERTEX
8
OBJECT__48
10
64.137001
20
107.662003
30
-5.944000
70
192
0
VERTEX
8
OBJECT__48
10
65.456001
20
105.672997
30
-7.930000
70
192
0
VERTEX
8
OBJECT__48
10
65.013000
20
106.237000
30
-7.435000
70
192
0
VERTEX
8
OBJECT__48
10
66.889999
20
104.553001
30
-8.622000
70
192
0
VERTEX
8
OBJECT__48
10
65.209000
20
134.345993
30
-15.510000
70
192
0
VERTEX
8
OBJECT__48
10
64.788002
20
109.564003
30
-1.895000
70
192
0
VERTEX
8
OBJECT__48
10
64.947998
20
109.587997
30
-1.691000
70
192
0
VERTEX
8
OBJECT__48
10
64.112999
20
109.124001
30
-3.438000
70
192
0
VERTEX
8
OBJECT__48
10
64.050003
20
131.807999
30
-19.906000
70
192
0
VERTEX
8
OBJECT__48
10
63.903000
20
108.348999
30
-5.035000
70
192
0
VERTEX
8
OBJECT__48
10
65.973000
20
109.741997
30
-0.386000
70
192
0
VERTEX
8
OBJECT__48
10
67.767998
20
109.710999
30
0.869000
70
192
0
VERTEX
8
OBJECT__48
10
69.405998
20
109.658997
30
1.328000
70
192
0
VERTEX
8
OBJECT__48
10
65.260002
20
109.635002
30
-1.294000
70
192
0
VERTEX
8
OBJECT__48
10
0
20
0
30
0
70
128
71
1
72
2
73
3
0
VERTEX
8
OBJECT__48
10
0
20
0
30
0
70
128
71
1
72
4
73
5
0
VERTEX
8
OBJECT__48
10
0
20
0
30
0
70
128
71
5
72
2
73
1
0
VERTEX
8
OBJECT__48
10
0
20
0
30
0
70
128
71
6
72
7
73
8
0
VERTEX
8
OBJECT__48
10
0
20
0
30
0
70
128
71
6
72
3
73
9
0
VERTEX
8
OBJECT__48
10
0
20
0
30
0
70
128
71
9
72
10
73
6
0
VERTEX
8
OBJECT__48
10
0
20
0
30
0
70
128
71
10
72
7
73
6
0
VERTEX
8
OBJECT__48
10
0
20
0
30
0
70
128
71
8
72
11
73
6
0
VERTEX
8
OBJECT__48
10
0
20
0
30
0
70
128
71
12
72
13
73
14
0
VERTEX
8
OBJECT__48
10
0
20
0
30
0
70
128
71
12
72
15
73
16
0
VERTEX
8
OBJECT__48
10
0
20
0
30
0
70
128
71
16
72
13
73
12
0
VERTEX
8
OBJECT__48
10
0
20
0
30
0
70
128
71
12
72
11
73
17
0
VERTEX
8
OBJECT__48
10
0
20
0
30
0
70
128
71
17
72
15
73
12
0
VERTEX
8
OBJECT__48
10
0
20
0
30
0
70
128
71
18
72
12
73
19
0
VERTEX
8
OBJECT__48
10
0
20
0
30
0
70
128
71
19
72
20
73
18
0
VERTEX
8
OBJECT__48
10
0
20
0
30
0
70
128
71
18
72
21
73
22
0
VERTEX
8
OBJECT__48
10
0
20
0
30
0
70
128
71
18
72
23
73
21
0
VERTEX
8
OBJECT__48
10
0
20
0
30
0
70
128
71
22
72
24
73
18
0
VERTEX
8
OBJECT__48
10
0
20
0
30
0
70
128
71
24
72
25
73
26
0
VERTEX
8
OBJECT__48
10
0
20
0
30
0
70
128
71
24
72
27
73
28
0
VERTEX
8
OBJECT__48
10
0
20
0
30
0
70
128
71
24
72
22
73
29
0
VERTEX
8
OBJECT__48
10
0
20
0
30
0
70
128
71
29
72
27
73
24
0
VERTEX
8
OBJECT__48
10
0
20
0
30
0
70
128
71
28
72
25
73
24
0
VERTEX
8
OBJECT__48
10
0
20
0
30
0
70
128
71
30
72
31
73
32
0
VERTEX
8
OBJECT__48
10
0
20
0
30
0
70
128
71
30
72
33
73
31
0
VERTEX
8
OBJECT__48
10
0
20
0
30
0
70
128
71
30
72
34
73
35
0
VERTEX
8
OBJECT__48
10
0
20
0
30
0
70
128
71
35
72
33
73
30
0
VERTEX
8
OBJECT__48
10
0
20
0
30
0
70
128
71
34
72
26
73
35
0
VERTEX
8
OBJECT__48
10
0
20
0
30
0
70
128
71
1
72
36
73
37
0
VERTEX
8
OBJECT__48
10
0
20
0
30
0
70
128
71
37
72
38
73
1
0
VERTEX
8
OBJECT__48
10
0
20
0
30
0
70
128
71
1
72
30
73
39
0
VERTEX
8
OBJECT__48
10
0
20
0
30
0
70
128
71
39
72
36
73
1
0
VERTEX
8
OBJECT__48
10
0
20
0
30
0
70
128
71
38
72
4
73
1
0
VERTEX
8
OBJECT__48
10
0
20
0
30
0
70
128
71
32
72
39
73
30
0
VERTEX
8
OBJECT__48
10
0
20
0
30
0
70
128
71
26
72
34
73
24
0
VERTEX
8
OBJECT__48
10
0
20
0
30
0
70
128
71
20
72
23
73
18
0
VERTEX
8
OBJECT__48
10
0
20
0
30
0
70
128
71
14
72
19
73
12
0
VERTEX
8
OBJECT__48
10
0
20
0
30
0
70
128
71
8
72
17
73
11
0
VERTEX
8
OBJECT__48
10
0
20
0
30
0
70
128
71
3
72
6
73
1
0
SEQEND
8
OBJECT__48
0
POLYLINE
8
OBJECT__49
66
1
70
64
71
8
72
6
62
253
0
VERTEX
8
OBJECT__49
10
69.900002
20
135.475998
30
-13.554000
70
192
0
VERTEX
8
OBJECT__49
10
67.296997
20
129.772995
30
-23.431999
70
192
0
VERTEX
8
OBJECT__49
10
64.050003
20
131.807999
30
-19.906000
70
192
0
VERTEX
8
OBJECT__49
10
72.502998
20
129.772995
30
-23.431999
70
192
0
VERTEX
8
OBJECT__49
10
74.591003
20
134.345993
30
-15.510000
70
192
0
VERTEX
8
OBJECT__49
10
69.900002
20
129.475998
30
-23.945999
70
192
0
VERTEX
8
OBJECT__49
10
75.750000
20
131.807999
30
-19.906000
70
192
0
VERTEX
8
OBJECT__49
10
65.209000
20
134.345993
30
-15.510000
70
192
0
VERTEX
8
OBJECT__49
10
0
20
0
30
0
70
128
71
1
72
2
73
3
0
VERTEX
8
OBJECT__49
10
0
20
0
30
0
70
128
71
4
72
1
73
5
0
VERTEX
8
OBJECT__49
10
0
20
0
30
0
70
128
71
1
72
6
73
2
0
VERTEX
8
OBJECT__49
10
0
20
0
30
0
70
128
71
5
72
7
73
4
0
VERTEX
8
OBJECT__49
10
0
20
0
30
0
70
128
71
4
72
6
73
1
0
VERTEX
8
OBJECT__49
10
0
20
0
30
0
70
128
71
3
72
8
73
1
0
SEQEND
8
OBJECT__49
0
POLYLINE
8
OBJECT__50
66
1
70
64
71
21
72
21
62
253
0
VERTEX
8
OBJECT__50
10
181.294998
20
6.760000
30
-23.705000
70
192
0
VERTEX
8
OBJECT__50
10
183.285995
20
0.000000
30
-22.777000
70
192
0
VERTEX
8
OBJECT__50
10
181.776993
20
2.888000
30
-23.481001
70
192
0
VERTEX
8
OBJECT__50
10
181.776993
20
-2.888000
30
-23.481001
70
192
0
VERTEX
8
OBJECT__50
10
181.294998
20
-6.760000
30
-23.705000
70
192
0
VERTEX
8
OBJECT__50
10
178.947006
20
-7.746000
30
-24.801001
70
192
0
VERTEX
8
OBJECT__50
10
176.084000
20
10.937000
30
-26.135000
70
192
0
VERTEX
8
OBJECT__50
10
178.947006
20
7.746000
30
-24.801001
70
192
0
VERTEX
8
OBJECT__50
10
176.084000
20
-10.937000
30
-26.135000
70
192
0
VERTEX
8
OBJECT__50
10
174.184998
20
-10.146000
30
-27.021000
70
192
0
VERTEX
8
OBJECT__50
10
169.641998
20
-10.937000
30
-29.139000
70
192
0
VERTEX
8
OBJECT__50
10
169.003998
20
-9.324000
30
-29.436001
70
192
0
VERTEX
8
OBJECT__50
10
164.431000
20
-6.760000
30
-31.569000
70
192
0
VERTEX
8
OBJECT__50
10
165.048004
20
-5.542000
30
-31.281000
70
192
0
VERTEX
8
OBJECT__50
10
164.431000
20
6.760000
30
-31.569000
70
192
0
VERTEX
8
OBJECT__50
10
169.641998
20
10.937000
30
-29.139000
70
192
0
VERTEX
8
OBJECT__50
10
169.003998
20
9.324000
30
-29.436001
70
192
0
VERTEX
8
OBJECT__50
10
174.184998
20
10.146000
30
-27.021000
70
192
0
VERTEX
8
OBJECT__50
10
162.440994
20
0.000000
30
-32.497002
70
192
0
VERTEX
8
OBJECT__50
10
165.048004
20
5.542000
30
-31.281000
70
192
0
VERTEX
8
OBJECT__50
10
163.572998
20
0.000000
30
-31.969000
70
192
0
VERTEX
8
OBJECT__50
10
0
20
0
30
0
70
128
71
1
72
2
73
3
0
VERTEX
8
OBJECT__50
10
0
20
0
30
0
70
128
71
2
72
4
73
3
0
VERTEX
8
OBJECT__50
10
0
20
0
30
0
70
128
71
5
72
6
73
4
0
VERTEX
8
OBJECT__50
10
0
20
0
30
0
70
128
71
7
72
1
73
8
0
VERTEX
8
OBJECT__50
10
0
20
0
30
0
70
128
71
4
72
2
73
5
0
VERTEX
8
OBJECT__50
10
0
20
0
30
0
70
128
71
3
72
8
73
1
0
VERTEX
8
OBJECT__50
10
0
20
0
30
0
70
128
71
9
72
10
73
6
0
VERTEX
8
OBJECT__50
10
0
20
0
30
0
70
128
71
11
72
12
73
10
0
VERTEX
8
OBJECT__50
10
0
20
0
30
0
70
128
71
13
72
14
73
12
0
VERTEX
8
OBJECT__50
10
0
20
0
30
0
70
128
71
15
72
16
73
17
0
VERTEX
8
OBJECT__50
10
0
20
0
30
0
70
128
71
16
72
7
73
18
0
VERTEX
8
OBJECT__50
10
0
20
0
30
0
70
128
71
6
72
5
73
9
0
VERTEX
8
OBJECT__50
10
0
20
0
30
0
70
128
71
12
72
11
73
13
0
VERTEX
8
OBJECT__50
10
0
20
0
30
0
70
128
71
18
72
17
73
16
0
VERTEX
8
OBJECT__50
10
0
20
0
30
0
70
128
71
10
72
9
73
11
0
VERTEX
8
OBJECT__50
10
0
20
0
30
0
70
128
71
19
72
15
73
20
0
VERTEX
8
OBJECT__50
10
0
20
0
30
0
70
128
71
8
72
18
73
7
0
VERTEX
8
OBJECT__50
10
0
20
0
30
0
70
128
71
17
72
20
73
15
0
VERTEX
8
OBJECT__50
10
0
20
0
30
0
70
128
71
19
72
21
73
14
0
VERTEX
8
OBJECT__50
10
0
20
0
30
0
70
128
71
14
72
13
73
19
0
VERTEX
8
OBJECT__50
10
0
20
0
30
0
70
128
71
20
72
21
73
19
0
SEQEND
8
OBJECT__50
0
POLYLINE
8
OBJECT__51
66
1
70
64
71
34
72
34
62
253
0
VERTEX
8
OBJECT__51
10
181.294998
20
6.760000
30
-23.705000
70
192
0
VERTEX
8
OBJECT__51
10
179.014008
20
6.662000
30
-19.253000
70
192
0
VERTEX
8
OBJECT__51
10
180.873001
20
2.752000
30
-18.385000
70
192
0
VERTEX
8
OBJECT__51
10
183.285995
20
0.000000
30
-22.777000
70
192
0
VERTEX
8
OBJECT__51
10
176.084000
20
10.937000
30
-26.135000
70
192
0
VERTEX
8
OBJECT__51
10
174.449997
20
10.753000
30
-21.381001
70
192
0
VERTEX
8
OBJECT__51
10
178.554993
20
7.626000
30
-19.466000
70
192
0
VERTEX
8
OBJECT__51
10
173.957001
20
10.852000
30
-21.610001
70
192
0
VERTEX
8
OBJECT__51
10
169.641998
20
10.937000
30
-29.139000
70
192
0
VERTEX
8
OBJECT__51
10
169.496994
20
11.416000
30
-23.690001
70
192
0
VERTEX
8
OBJECT__51
10
170.751999
20
11.500000
30
-23.105000
70
192
0
VERTEX
8
OBJECT__51
10
167.632996
20
10.636000
30
-24.559000
70
192
0
VERTEX
8
OBJECT__51
10
164.431000
20
6.760000
30
-31.569000
70
192
0
VERTEX
8
OBJECT__51
10
162.509995
20
6.572000
30
-26.948000
70
192
0
VERTEX
8
OBJECT__51
10
164.832993
20
9.464000
30
-25.865000
70
192
0
VERTEX
8
OBJECT__51
10
162.440994
20
0.000000
30
-32.497002
70
192
0
VERTEX
8
OBJECT__51
10
160.330994
20
0.000000
30
-27.964001
70
192
0
VERTEX
8
OBJECT__51
10
161.524994
20
5.344000
30
-27.407000
70
192
0
VERTEX
8
OBJECT__51
10
164.431000
20
-6.760000
30
-31.569000
70
192
0
VERTEX
8
OBJECT__51
10
161.524994
20
-5.344000
30
-27.407000
70
192
0
VERTEX
8
OBJECT__51
10
162.509995
20
-6.572000
30
-26.948000
70
192
0
VERTEX
8
OBJECT__51
10
169.641998
20
-10.937000
30
-29.139000
70
192
0
VERTEX
8
OBJECT__51
10
164.832993
20
-9.464000
30
-25.865000
70
192
0
VERTEX
8
OBJECT__51
10
167.632996
20
-10.636000
30
-24.559000
70
192
0
VERTEX
8
OBJECT__51
10
176.084000
20
-10.937000
30
-26.135000
70
192
0
VERTEX
8
OBJECT__51
10
170.751999
20
-11.500000
30
-23.105000
70
192
0
VERTEX
8
OBJECT__51
10
169.496994
20
-11.416000
30
-23.690001
70
192
0
VERTEX
8
OBJECT__51
10
173.957001
20
-10.852000
30
-21.610001
70
192
0
VERTEX
8
OBJECT__51
10
181.294998
20
-6.760000
30
-23.705000
70
192
0
VERTEX
8
OBJECT__51
10
178.554993
20
-7.626000
30
-19.466000
70
192
0
VERTEX
8
OBJECT__51
10
174.449997
20
-10.753000
30
-21.381001
70
192
0
VERTEX
8
OBJECT__51
10
179.014008
20
-6.662000
30
-19.253000
70
192
0
VERTEX
8
OBJECT__51
10
180.873001
20
-2.752000
30
-18.385000
70
192
0
VERTEX
8
OBJECT__51
10
180.873001
20
0.000000
30
-18.385000
70
192
0
VERTEX
8
OBJECT__51
10
0
20
0
30
0
70
128
71
1
72
2
73
3
0
VERTEX
8
OBJECT__51
10
0
20
0
30
0
70
128
71
3
72
4
73
1
0
VERTEX
8
OBJECT__51
10
0
20
0
30
0
70
128
71
5
72
6
73
7
0
VERTEX
8
OBJECT__51
10
0
20
0
30
0
70
128
71
5
72
8
73
6
0
VERTEX
8
OBJECT__51
10
0
20
0
30
0
70
128
71
7
72
1
73
5
0
VERTEX
8
OBJECT__51
10
0
20
0
30
0
70
128
71
9
72
10
73
11
0
VERTEX
8
OBJECT__51
10
0
20
0
30
0
70
128
71
9
72
12
73
10
0
VERTEX
8
OBJECT__51
10
0
20
0
30
0
70
128
71
11
72
5
73
9
0
VERTEX
8
OBJECT__51
10
0
20
0
30
0
70
128
71
13
72
14
73
15
0
VERTEX
8
OBJECT__51
10
0
20
0
30
0
70
128
71
15
72
9
73
13
0
VERTEX
8
OBJECT__51
10
0
20
0
30
0
70
128
71
16
72
17
73
18
0
VERTEX
8
OBJECT__51
10
0
20
0
30
0
70
128
71
18
72
13
73
16
0
VERTEX
8
OBJECT__51
10
0
20
0
30
0
70
128
71
16
72
19
73
20
0
VERTEX
8
OBJECT__51
10
0
20
0
30
0
70
128
71
19
72
21
73
20
0
VERTEX
8
OBJECT__51
10
0
20
0
30
0
70
128
71
19
72
22
73
23
0
VERTEX
8
OBJECT__51
10
0
20
0
30
0
70
128
71
22
72
24
73
23
0
VERTEX
8
OBJECT__51
10
0
20
0
30
0
70
128
71
22
72
25
73
26
0
VERTEX
8
OBJECT__51
10
0
20
0
30
0
70
128
71
26
72
27
73
22
0
VERTEX
8
OBJECT__51
10
0
20
0
30
0
70
128
71
25
72
28
73
26
0
VERTEX
8
OBJECT__51
10
0
20
0
30
0
70
128
71
25
72
29
73
30
0
VERTEX
8
OBJECT__51
10
0
20
0
30
0
70
128
71
30
72
31
73
25
0
VERTEX
8
OBJECT__51
10
0
20
0
30
0
70
128
71
29
72
32
73
30
0
VERTEX
8
OBJECT__51
10
0
20
0
30
0
70
128
71
29
72
4
73
33
0
VERTEX
8
OBJECT__51
10
0
20
0
30
0
70
128
71
4
72
34
73
33
0
VERTEX
8
OBJECT__51
10
0
20
0
30
0
70
128
71
33
72
32
73
29
0
VERTEX
8
OBJECT__51
10
0
20
0
30
0
70
128
71
31
72
28
73
25
0
VERTEX
8
OBJECT__51
10
0
20
0
30
0
70
128
71
27
72
24
73
22
0
VERTEX
8
OBJECT__51
10
0
20
0
30
0
70
128
71
23
72
21
73
19
0
VERTEX
8
OBJECT__51
10
0
20
0
30
0
70
128
71
20
72
17
73
16
0
VERTEX
8
OBJECT__51
10
0
20
0
30
0
70
128
71
18
72
14
73
13
0
VERTEX
8
OBJECT__51
10
0
20
0
30
0
70
128
71
15
72
12
73
9
0
VERTEX
8
OBJECT__51
10
0
20
0
30
0
70
128
71
11
72
8
73
5
0
VERTEX
8
OBJECT__51
10
0
20
0
30
0
70
128
71
7
72
2
73
1
0
VERTEX
8
OBJECT__51
10
0
20
0
30
0
70
128
71
3
72
34
73
4
0
SEQEND
8
OBJECT__51
0
POLYLINE
8
OBJECT__53
66
1
70
64
71
111
72
176
62
253
0
VERTEX
8
OBJECT__53
10
138.796005
20
0.000000
30
-11.833000
70
192
0
VERTEX
8
OBJECT__53
10
144.520996
20
0.000000
30
-13.327000
70
192
0
VERTEX
8
OBJECT__53
10
144.985001
20
-5.344000
30
-12.094000
70
192
0
VERTEX
8
OBJECT__53
10
149.815002
20
0.000000
30
-15.971000
70
192
0
VERTEX
8
OBJECT__53
10
150.522003
20
-5.344000
30
-14.860000
70
192
0
VERTEX
8
OBJECT__53
10
154.447998
20
0.000000
30
-19.650999
70
192
0
VERTEX
8
OBJECT__53
10
155.369995
20
-5.344000
30
-18.711000
70
192
0
VERTEX
8
OBJECT__53
10
158.220993
20
0.000000
30
-24.209000
70
192
0
VERTEX
8
OBJECT__53
10
159.317993
20
-5.344000
30
-23.479000
70
192
0
VERTEX
8
OBJECT__53
10
138.994995
20
-5.344000
30
-10.531000
70
192
0
VERTEX
8
OBJECT__53
10
146.268005
20
-9.464000
30
-8.677000
70
192
0
VERTEX
8
OBJECT__53
10
152.483994
20
-9.464000
30
-11.782000
70
192
0
VERTEX
8
OBJECT__53
10
157.923996
20
-9.464000
30
-16.104000
70
192
0
VERTEX
8
OBJECT__53
10
162.354996
20
-9.464000
30
-21.455000
70
192
0
VERTEX
8
OBJECT__53
10
139.544998
20
-9.464000
30
-6.922000
70
192
0
VERTEX
8
OBJECT__53
10
148.076996
20
-11.416000
30
-3.859000
70
192
0
VERTEX
8
OBJECT__53
10
155.248993
20
-11.416000
30
-7.442000
70
192
0
VERTEX
8
OBJECT__53
10
161.526001
20
-11.416000
30
-12.428000
70
192
0
VERTEX
8
OBJECT__53
10
166.639008
20
-11.416000
30
-18.603001
70
192
0
VERTEX
8
OBJECT__53
10
140.320999
20
-11.416000
30
-1.835000
70
192
0
VERTEX
8
OBJECT__53
10
149.998993
20
-10.753000
30
1.256000
70
192
0
VERTEX
8
OBJECT__53
10
158.184998
20
-10.753000
30
-2.833000
70
192
0
VERTEX
8
OBJECT__53
10
165.350998
20
-10.753000
30
-8.525000
70
192
0
VERTEX
8
OBJECT__53
10
171.186996
20
-10.753000
30
-15.574000
70
192
0
VERTEX
8
OBJECT__53
10
141.143997
20
-10.753000
30
3.567000
70
192
0
VERTEX
8
OBJECT__53
10
151.591003
20
-7.626000
30
5.497000
70
192
0
VERTEX
8
OBJECT__53
10
160.619003
20
-7.626000
30
0.987000
70
192
0
VERTEX
8
OBJECT__53
10
168.520996
20
-7.626000
30
-5.289000
70
192
0
VERTEX
8
OBJECT__53
10
174.957001
20
-7.626000
30
-13.063000
70
192
0
VERTEX
8
OBJECT__53
10
141.826996
20
-7.626000
30
8.045000
70
192
0
VERTEX
8
OBJECT__53
10
152.490997
20
-2.752000
30
7.891000
70
192
0
VERTEX
8
OBJECT__53
10
161.994003
20
-2.752000
30
3.144000
70
192
0
VERTEX
8
OBJECT__53
10
170.311005
20
-2.752000
30
-3.462000
70
192
0
VERTEX
8
OBJECT__53
10
177.085999
20
-2.752000
30
-11.645000
70
192
0
VERTEX
8
OBJECT__53
10
142.212006
20
-2.752000
30
10.574000
70
192
0
VERTEX
8
OBJECT__53
10
152.490997
20
2.752000
30
7.891000
70
192
0
VERTEX
8
OBJECT__53
10
161.994003
20
2.752000
30
3.144000
70
192
0
VERTEX
8
OBJECT__53
10
170.311005
20
2.752000
30
-3.462000
70
192
0
VERTEX
8
OBJECT__53
10
177.085999
20
2.752000
30
-11.645000
70
192
0
VERTEX
8
OBJECT__53
10
142.212006
20
2.752000
30
10.574000
70
192
0
VERTEX
8
OBJECT__53
10
151.591003
20
7.626000
30
5.497000
70
192
0
VERTEX
8
OBJECT__53
10
160.619003
20
7.626000
30
0.987000
70
192
0
VERTEX
8
OBJECT__53
10
168.520996
20
7.626000
30
-5.289000
70
192
0
VERTEX
8
OBJECT__53
10
174.957001
20
7.626000
30
-13.063000
70
192
0
VERTEX
8
OBJECT__53
10
141.826996
20
7.626000
30
8.045000
70
192
0
VERTEX
8
OBJECT__53
10
149.998993
20
10.753000
30
1.256000
70
192
0
VERTEX
8
OBJECT__53
10
158.184998
20
10.753000
30
-2.833000
70
192
0
VERTEX
8
OBJECT__53
10
165.350998
20
10.753000
30
-8.525000
70
192
0
VERTEX
8
OBJECT__53
10
171.186996
20
10.753000
30
-15.574000
70
192
0
VERTEX
8
OBJECT__53
10
141.143997
20
10.753000
30
3.567000
70
192
0
VERTEX
8
OBJECT__53
10
148.076996
20
11.416000
30
-3.859000
70
192
0
VERTEX
8
OBJECT__53
10
155.248993
20
11.416000
30
-7.442000
70
192
0
VERTEX
8
OBJECT__53
10
161.526001
20
11.416000
30
-12.428000
70
192
0
VERTEX
8
OBJECT__53
10
166.639008
20
11.416000
30
-18.603001
70
192
0
VERTEX
8
OBJECT__53
10
140.320999
20
11.416000
30
-1.835000
70
192
0
VERTEX
8
OBJECT__53
10
146.268005
20
9.464000
30
-8.677000
70
192
0
VERTEX
8
OBJECT__53
10
152.483994
20
9.464000
30
-11.782000
70
192
0
VERTEX
8
OBJECT__53
10
157.923996
20
9.464000
30
-16.104000
70
192
0
VERTEX
8
OBJECT__53
10
162.354996
20
9.464000
30
-21.455000
70
192
0
VERTEX
8
OBJECT__53
10
139.544998
20
9.464000
30
-6.922000
70
192
0
VERTEX
8
OBJECT__53
10
144.985001
20
5.344000
30
-12.094000
70
192
0
VERTEX
8
OBJECT__53
10
150.522003
20
5.344000
30
-14.860000
70
192
0
VERTEX
8
OBJECT__53
10
155.369995
20
5.344000
30
-18.711000
70
192
0
VERTEX
8
OBJECT__53
10
159.317993
20
5.344000
30
-23.479000
70
192
0
VERTEX
8
OBJECT__53
10
138.994995
20
5.344000
30
-10.531000
70
192
0
VERTEX
8
OBJECT__53
10
174.449997
20
-10.753000
30
-21.381001
70
192
0
VERTEX
8
OBJECT__53
10
179.014008
20
-6.662000
30
-19.253000
70
192
0
VERTEX
8
OBJECT__53
10
178.554993
20
-7.626000
30
-19.466000
70
192
0
VERTEX
8
OBJECT__53
10
180.873001
20
-2.752000
30
-18.385000
70
192
0
VERTEX
8
OBJECT__53
10
180.873001
20
0.000000
30
-18.385000
70
192
0
VERTEX
8
OBJECT__53
10
180.873001
20
2.752000
30
-18.385000
70
192
0
VERTEX
8
OBJECT__53
10
179.014008
20
6.662000
30
-19.253000
70
192
0
VERTEX
8
OBJECT__53
10
178.554993
20
7.626000
30
-19.466000
70
192
0
VERTEX
8
OBJECT__53
10
174.449997
20
10.753000
30
-21.381001
70
192
0
VERTEX
8
OBJECT__53
10
173.957001
20
10.852000
30
-21.610001
70
192
0
VERTEX
8
OBJECT__53
10
170.751999
20
11.500000
30
-23.105000
70
192
0
VERTEX
8
OBJECT__53
10
167.632996
20
10.636000
30
-24.559000
70
192
0
VERTEX
8
OBJECT__53
10
169.496994
20
11.416000
30
-23.690001
70
192
0
VERTEX
8
OBJECT__53
10
164.832993
20
9.464000
30
-25.865000
70
192
0
VERTEX
8
OBJECT__53
10
162.509995
20
6.572000
30
-26.948000
70
192
0
VERTEX
8
OBJECT__53
10
161.524994
20
5.344000
30
-27.407000
70
192
0
VERTEX
8
OBJECT__53
10
160.330994
20
0.000000
30
-27.964001
70
192
0
VERTEX
8
OBJECT__53
10
162.509995
20
-6.572000
30
-26.948000
70
192
0
VERTEX
8
OBJECT__53
10
161.524994
20
-5.344000
30
-27.407000
70
192
0
VERTEX
8
OBJECT__53
10
164.832993
20
-9.464000
30
-25.865000
70
192
0
VERTEX
8
OBJECT__53
10
167.632996
20
-10.636000
30
-24.559000
70
192
0
VERTEX
8
OBJECT__53
10
170.751999
20
-11.500000
30
-23.105000
70
192
0
VERTEX
8
OBJECT__53
10
169.496994
20
-11.416000
30
-23.690001
70
192
0
VERTEX
8
OBJECT__53
10
173.957001
20
-10.852000
30
-21.610001
70
192
0
VERTEX
8
OBJECT__53
10
134.501999
20
5.344000
30
-10.190000
70
192
0
VERTEX
8
OBJECT__53
10
134.501999
20
6.574000
30
-9.101000
70
192
0
VERTEX
8
OBJECT__53
10
134.501999
20
9.464000
30
-6.540000
70
192
0
VERTEX
8
OBJECT__53
10
134.501999
20
10.637000
30
-3.447000
70
192
0
VERTEX
8
OBJECT__53
10
134.501999
20
10.818000
30
3.532000
70
192
0
VERTEX
8
OBJECT__53
10
134.501999
20
11.416000
30
-1.394000
70
192
0
VERTEX
8
OBJECT__53
10
134.501999
20
7.626000
30
8.600000
70
192
0
VERTEX
8
OBJECT__53
10
134.501999
20
6.660000
30
9.107000
70
192
0
VERTEX
8
OBJECT__53
10
134.501999
20
0.000000
30
11.158000
70
192
0
VERTEX
8
OBJECT__53
10
134.501999
20
2.752000
30
11.158000
70
192
0
VERTEX
8
OBJECT__53
10
134.501999
20
-2.752000
30
11.158000
70
192
0
VERTEX
8
OBJECT__53
10
134.501999
20
-6.660000
30
9.107000
70
192
0
VERTEX
8
OBJECT__53
10
134.501999
20
-7.626000
30
8.600000
70
192
0
VERTEX
8
OBJECT__53
10
134.501999
20
-10.753000
30
4.071000
70
192
0
VERTEX
8
OBJECT__53
10
134.501999
20
-10.818000
30
3.532000
70
192
0
VERTEX
8
OBJECT__53
10
134.501999
20
-11.416000
30
-1.394000
70
192
0
VERTEX
8
OBJECT__53
10
134.501999
20
-10.637000
30
-3.447000
70
192
0
VERTEX
8
OBJECT__53
10
134.501999
20
-9.464000
30
-6.540000
70
192
0
VERTEX
8
OBJECT__53
10
134.501999
20
-6.574000
30
-9.101000
70
192
0
VERTEX
8
OBJECT__53
10
134.501999
20
-5.344000
30
-10.190000
70
192
0
VERTEX
8
OBJECT__53
10
134.501999
20
0.000000
30
-11.507000
70
192
0
VERTEX
8
OBJECT__53
10
134.501999
20
10.753000
30
4.071000
70
192
0
VERTEX
8
OBJECT__53
10
0
20
0
30
0
70
128
71
1
72
2
73
3
0
VERTEX
8
OBJECT__53
10
0
20
0
30
0
70
128
71
2
72
4
73
5
0
VERTEX
8
OBJECT__53
10
0
20
0
30
0
70
128
71
4
72
6
73
7
0
VERTEX
8
OBJECT__53
10
0
20
0
30
0
70
128
71
6
72
8
73
9
0
VERTEX
8
OBJECT__53
10
0
20
0
30
0
70
128
71
10
72
3
73
11
0
VERTEX
8
OBJECT__53
10
0
20
0
30
0
70
128
71
3
72
5
73
12
0
VERTEX
8
OBJECT__53
10
0
20
0
30
0
70
128
71
5
72
7
73
13
0
VERTEX
8
OBJECT__53
10
0
20
0
30
0
70
128
71
7
72
9
73
14
0
VERTEX
8
OBJECT__53
10
0
20
0
30
0
70
128
71
15
72
11
73
16
0
VERTEX
8
OBJECT__53
10
0
20
0
30
0
70
128
71
11
72
12
73
17
0
VERTEX
8
OBJECT__53
10
0
20
0
30
0
70
128
71
12
72
13
73
18
0
VERTEX
8
OBJECT__53
10
0
20
0
30
0
70
128
71
13
72
14
73
19
0
VERTEX
8
OBJECT__53
10
0
20
0
30
0
70
128
71
20
72
16
73
21
0
VERTEX
8
OBJECT__53
10
0
20
0
30
0
70
128
71
16
72
17
73
22
0
VERTEX
8
OBJECT__53
10
0
20
0
30
0
70
128
71
17
72
18
73
23
0
VERTEX
8
OBJECT__53
10
0
20
0
30
0
70
128
71
18
72
19
73
24
0
VERTEX
8
OBJECT__53
10
0
20
0
30
0
70
128
71
25
72
21
73
26
0
VERTEX
8
OBJECT__53
10
0
20
0
30
0
70
128
71
21
72
22
73
27
0
VERTEX
8
OBJECT__53
10
0
20
0
30
0
70
128
71
22
72
23
73
28
0
VERTEX
8
OBJECT__53
10
0
20
0
30
0
70
128
71
23
72
24
73
29
0
VERTEX
8
OBJECT__53
10
0
20
0
30
0
70
128
71
30
72
26
73
31
0
VERTEX
8
OBJECT__53
10
0
20
0
30
0
70
128
71
26
72
27
73
32
0
VERTEX
8
OBJECT__53
10
0
20
0
30
0
70
128
71
27
72
28
73
33
0
VERTEX
8
OBJECT__53
10
0
20
0
30
0
70
128
71
28
72
29
73
34
0
VERTEX
8
OBJECT__53
10
0
20
0
30
0
70
128
71
35
72
31
73
36
0
VERTEX
8
OBJECT__53
10
0
20
0
30
0
70
128
71
31
72
32
73
37
0
VERTEX
8
OBJECT__53
10
0
20
0
30
0
70
128
71
32
72
33
73
38
0
VERTEX
8
OBJECT__53
10
0
20
0
30
0
70
128
71
33
72
34
73
39
0
VERTEX
8
OBJECT__53
10
0
20
0
30
0
70
128
71
40
72
36
73
41
0
VERTEX
8
OBJECT__53
10
0
20
0
30
0
70
128
71
36
72
37
73
42
0
VERTEX
8
OBJECT__53
10
0
20
0
30
0
70
128
71
37
72
38
73
43
0
VERTEX
8
OBJECT__53
10
0
20
0
30
0
70
128
71
38
72
39
73
44
0
VERTEX
8
OBJECT__53
10
0
20
0
30
0
70
128
71
45
72
41
73
46
0
VERTEX
8
OBJECT__53
10
0
20
0
30
0
70
128
71
41
72
42
73
47
0
VERTEX
8
OBJECT__53
10
0
20
0
30
0
70
128
71
42
72
43
73
48
0
VERTEX
8
OBJECT__53
10
0
20
0
30
0
70
128
71
43
72
44
73
49
0
VERTEX
8
OBJECT__53
10
0
20
0
30
0
70
128
71
50
72
46
73
51
0
VERTEX
8
OBJECT__53
10
0
20
0
30
0
70
128
71
46
72
47
73
52
0
VERTEX
8
OBJECT__53
10
0
20
0
30
0
70
128
71
47
72
48
73
53
0
VERTEX
8
OBJECT__53
10
0
20
0
30
0
70
128
71
48
72
49
73
54
0
VERTEX
8
OBJECT__53
10
0
20
0
30
0
70
128
71
55
72
51
73
56
0
VERTEX
8
OBJECT__53
10
0
20
0
30
0
70
128
71
51
72
52
73
57
0
VERTEX
8
OBJECT__53
10
0
20
0
30
0
70
128
71
52
72
53
73
58
0
VERTEX
8
OBJECT__53
10
0
20
0
30
0
70
128
71
53
72
54
73
59
0
VERTEX
8
OBJECT__53
10
0
20
0
30
0
70
128
71
60
72
56
73
61
0
VERTEX
8
OBJECT__53
10
0
20
0
30
0
70
128
71
56
72
57
73
62
0
VERTEX
8
OBJECT__53
10
0
20
0
30
0
70
128
71
57
72
58
73
63
0
VERTEX
8
OBJECT__53
10
0
20
0
30
0
70
128
71
58
72
59
73
64
0
VERTEX
8
OBJECT__53
10
0
20
0
30
0
70
128
71
65
72
61
73
2
0
VERTEX
8
OBJECT__53
10
0
20
0
30
0
70
128
71
61
72
62
73
4
0
VERTEX
8
OBJECT__53
10
0
20
0
30
0
70
128
71
62
72
63
73
6
0
VERTEX
8
OBJECT__53
10
0
20
0
30
0
70
128
71
63
72
64
73
8
0
VERTEX
8
OBJECT__53
10
0
20
0
30
0
70
128
71
29
72
24
73
66
0
VERTEX
8
OBJECT__53
10
0
20
0
30
0
70
128
71
34
72
29
73
67
0
VERTEX
8
OBJECT__53
10
0
20
0
30
0
70
128
71
29
72
68
73
67
0
VERTEX
8
OBJECT__53
10
0
20
0
30
0
70
128
71
34
72
69
73
70
0
VERTEX
8
OBJECT__53
10
0
20
0
30
0
70
128
71
70
72
39
73
34
0
VERTEX
8
OBJECT__53
10
0
20
0
30
0
70
128
71
39
72
71
73
72
0
VERTEX
8
OBJECT__53
10
0
20
0
30
0
70
128
71
72
72
44
73
39
0
VERTEX
8
OBJECT__53
10
0
20
0
30
0
70
128
71
44
72
73
73
74
0
VERTEX
8
OBJECT__53
10
0
20
0
30
0
70
128
71
49
72
75
73
76
0
VERTEX
8
OBJECT__53
10
0
20
0
30
0
70
128
71
76
72
54
73
49
0
VERTEX
8
OBJECT__53
10
0
20
0
30
0
70
128
71
49
72
74
73
75
0
VERTEX
8
OBJECT__53
10
0
20
0
30
0
70
128
71
59
72
54
73
77
0
VERTEX
8
OBJECT__53
10
0
20
0
30
0
70
128
71
54
72
78
73
77
0
VERTEX
8
OBJECT__53
10
0
20
0
30
0
70
128
71
59
72
79
73
80
0
VERTEX
8
OBJECT__53
10
0
20
0
30
0
70
128
71
80
72
64
73
59
0
VERTEX
8
OBJECT__53
10
0
20
0
30
0
70
128
71
64
72
81
73
82
0
VERTEX
8
OBJECT__53
10
0
20
0
30
0
70
128
71
9
72
8
73
82
0
VERTEX
8
OBJECT__53
10
0
20
0
30
0
70
128
71
14
72
9
73
83
0
VERTEX
8
OBJECT__53
10
0
20
0
30
0
70
128
71
9
72
84
73
83
0
VERTEX
8
OBJECT__53
10
0
20
0
30
0
70
128
71
14
72
85
73
86
0
VERTEX
8
OBJECT__53
10
0
20
0
30
0
70
128
71
86
72
19
73
14
0
VERTEX
8
OBJECT__53
10
0
20
0
30
0
70
128
71
24
72
19
73
87
0
VERTEX
8
OBJECT__53
10
0
20
0
30
0
70
128
71
19
72
88
73
87
0
VERTEX
8
OBJECT__53
10
0
20
0
30
0
70
128
71
87
72
89
73
24
0
VERTEX
8
OBJECT__53
10
0
20
0
30
0
70
128
71
90
72
65
73
1
0
VERTEX
8
OBJECT__53
10
0
20
0
30
0
70
128
71
60
72
65
73
91
0
VERTEX
8
OBJECT__53
10
0
20
0
30
0
70
128
71
65
72
90
73
91
0
VERTEX
8
OBJECT__53
10
0
20
0
30
0
70
128
71
60
72
92
73
93
0
VERTEX
8
OBJECT__53
10
0
20
0
30
0
70
128
71
93
72
55
73
60
0
VERTEX
8
OBJECT__53
10
0
20
0
30
0
70
128
71
94
72
50
73
55
0
VERTEX
8
OBJECT__53
10
0
20
0
30
0
70
128
71
55
72
95
73
94
0
VERTEX
8
OBJECT__53
10
0
20
0
30
0
70
128
71
96
72
45
73
50
0
VERTEX
8
OBJECT__53
10
0
20
0
30
0
70
128
71
40
72
45
73
97
0
VERTEX
8
OBJECT__53
10
0
20
0
30
0
70
128
71
45
72
96
73
97
0
VERTEX
8
OBJECT__53
10
0
20
0
30
0
70
128
71
35
72
40
73
98
0
VERTEX
8
OBJECT__53
10
0
20
0
30
0
70
128
71
40
72
99
73
98
0
VERTEX
8
OBJECT__53
10
0
20
0
30
0
70
128
71
35
72
100
73
101
0
VERTEX
8
OBJECT__53
10
0
20
0
30
0
70
128
71
101
72
30
73
35
0
VERTEX
8
OBJECT__53
10
0
20
0
30
0
70
128
71
30
72
102
73
103
0
VERTEX
8
OBJECT__53
10
0
20
0
30
0
70
128
71
104
72
105
73
20
0
VERTEX
8
OBJECT__53
10
0
20
0
30
0
70
128
71
25
72
103
73
104
0
VERTEX
8
OBJECT__53
10
0
20
0
30
0
70
128
71
15
72
20
73
106
0
VERTEX
8
OBJECT__53
10
0
20
0
30
0
70
128
71
20
72
105
73
106
0
VERTEX
8
OBJECT__53
10
0
20
0
30
0
70
128
71
15
72
107
73
108
0
VERTEX
8
OBJECT__53
10
0
20
0
30
0
70
128
71
108
72
10
73
15
0
VERTEX
8
OBJECT__53
10
0
20
0
30
0
70
128
71
109
72
110
73
1
0
VERTEX
8
OBJECT__53
10
0
20
0
30
0
70
128
71
1
72
10
73
109
0
VERTEX
8
OBJECT__53
10
0
20
0
30
0
70
128
71
108
72
109
73
10
0
VERTEX
8
OBJECT__53
10
0
20
0
30
0
70
128
71
106
72
107
73
15
0
VERTEX
8
OBJECT__53
10
0
20
0
30
0
70
128
71
20
72
25
73
104
0
VERTEX
8
OBJECT__53
10
0
20
0
30
0
70
128
71
103
72
25
73
30
0
VERTEX
8
OBJECT__53
10
0
20
0
30
0
70
128
71
101
72
102
73
30
0
VERTEX
8
OBJECT__53
10
0
20
0
30
0
70
128
71
98
72
100
73
35
0
VERTEX
8
OBJECT__53
10
0
20
0
30
0
70
128
71
97
72
99
73
40
0
VERTEX
8
OBJECT__53
10
0
20
0
30
0
70
128
71
50
72
111
73
96
0
VERTEX
8
OBJECT__53
10
0
20
0
30
0
70
128
71
94
72
111
73
50
0
VERTEX
8
OBJECT__53
10
0
20
0
30
0
70
128
71
93
72
95
73
55
0
VERTEX
8
OBJECT__53
10
0
20
0
30
0
70
128
71
91
72
92
73
60
0
VERTEX
8
OBJECT__53
10
0
20
0
30
0
70
128
71
1
72
110
73
90
0
VERTEX
8
OBJECT__53
10
0
20
0
30
0
70
128
71
89
72
66
73
24
0
VERTEX
8
OBJECT__53
10
0
20
0
30
0
70
128
71
86
72
88
73
19
0
VERTEX
8
OBJECT__53
10
0
20
0
30
0
70
128
71
83
72
85
73
14
0
VERTEX
8
OBJECT__53
10
0
20
0
30
0
70
128
71
82
72
84
73
9
0
VERTEX
8
OBJECT__53
10
0
20
0
30
0
70
128
71
82
72
8
73
64
0
VERTEX
8
OBJECT__53
10
0
20
0
30
0
70
128
71
80
72
81
73
64
0
VERTEX
8
OBJECT__53
10
0
20
0
30
0
70
128
71
77
72
79
73
59
0
VERTEX
8
OBJECT__53
10
0
20
0
30
0
70
128
71
76
72
78
73
54
0
VERTEX
8
OBJECT__53
10
0
20
0
30
0
70
128
71
74
72
49
73
44
0
VERTEX
8
OBJECT__53
10
0
20
0
30
0
70
128
71
72
72
73
73
44
0
VERTEX
8
OBJECT__53
10
0
20
0
30
0
70
128
71
70
72
71
73
39
0
VERTEX
8
OBJECT__53
10
0
20
0
30
0
70
128
71
67
72
69
73
34
0
VERTEX
8
OBJECT__53
10
0
20
0
30
0
70
128
71
66
72
68
73
29
0
VERTEX
8
OBJECT__53
10
0
20
0
30
0
70
128
71
8
72
6
73
63
0
VERTEX
8
OBJECT__53
10
0
20
0
30
0
70
128
71
6
72
4
73
62
0
VERTEX
8
OBJECT__53
10
0
20
0
30
0
70
128
71
4
72
2
73
61
0
VERTEX
8
OBJECT__53
10
0
20
0
30
0
70
128
71
2
72
1
73
65
0
VERTEX
8
OBJECT__53
10
0
20
0
30
0
70
128
71
64
72
63
73
58
0
VERTEX
8
OBJECT__53
10
0
20
0
30
0
70
128
71
63
72
62
73
57
0
VERTEX
8
OBJECT__53
10
0
20
0
30
0
70
128
71
62
72
61
73
56
0
VERTEX
8
OBJECT__53
10
0
20
0
30
0
70
128
71
61
72
65
73
60
0
VERTEX
8
OBJECT__53
10
0
20
0
30
0
70
128
71
59
72
58
73
53
0
VERTEX
8
OBJECT__53
10
0
20
0
30
0
70
128
71
58
72
57
73
52
0
VERTEX
8
OBJECT__53
10
0
20
0
30
0
70
128
71
57
72
56
73
51
0
VERTEX
8
OBJECT__53
10
0
20
0
30
0
70
128
71
56
72
60
73
55
0
VERTEX
8
OBJECT__53
10
0
20
0
30
0
70
128
71
54
72
53
73
48
0
VERTEX
8
OBJECT__53
10
0
20
0
30
0
70
128
71
53
72
52
73
47
0
VERTEX
8
OBJECT__53
10
0
20
0
30
0
70
128
71
52
72
51
73
46
0
VERTEX
8
OBJECT__53
10
0
20
0
30
0
70
128
71
51
72
55
73
50
0
VERTEX
8
OBJECT__53
10
0
20
0
30
0
70
128
71
49
72
48
73
43
0
VERTEX
8
OBJECT__53
10
0
20
0
30
0
70
128
71
48
72
47
73
42
0
VERTEX
8
OBJECT__53
10
0
20
0
30
0
70
128
71
47
72
46
73
41
0
VERTEX
8
OBJECT__53
10
0
20
0
30
0
70
128
71
46
72
50
73
45
0
VERTEX
8
OBJECT__53
10
0
20
0
30
0
70
128
71
44
72
43
73
38
0
VERTEX
8
OBJECT__53
10
0
20
0
30
0
70
128
71
43
72
42
73
37
0
VERTEX
8
OBJECT__53
10
0
20
0
30
0
70
128
71
42
72
41
73
36
0
VERTEX
8
OBJECT__53
10
0
20
0
30
0
70
128
71
41
72
45
73
40
0
VERTEX
8
OBJECT__53
10
0
20
0
30
0
70
128
71
39
72
38
73
33
0
VERTEX
8
OBJECT__53
10
0
20
0
30
0
70
128
71
38
72
37
73
32
0
VERTEX
8
OBJECT__53
10
0
20
0
30
0
70
128
71
37
72
36
73
31
0
VERTEX
8
OBJECT__53
10
0
20
0
30
0
70
128
71
36
72
40
73
35
0
VERTEX
8
OBJECT__53
10
0
20
0
30
0
70
128
71
34
72
33
73
28
0
VERTEX
8
OBJECT__53
10
0
20
0
30
0
70
128
71
33
72
32
73
27
0
VERTEX
8
OBJECT__53
10
0
20
0
30
0
70
128
71
32
72
31
73
26
0
VERTEX
8
OBJECT__53
10
0
20
0
30
0
70
128
71
31
72
35
73
30
0
VERTEX
8
OBJECT__53
10
0
20
0
30
0
70
128
71
29
72
28
73
23
0
VERTEX
8
OBJECT__53
10
0
20
0
30
0
70
128
71
28
72
27
73
22
0
VERTEX
8
OBJECT__53
10
0
20
0
30
0
70
128
71
27
72
26
73
21
0
VERTEX
8
OBJECT__53
10
0
20
0
30
0
70
128
71
26
72
30
73
25
0
VERTEX
8
OBJECT__53
10
0
20
0
30
0
70
128
71
24
72
23
73
18
0
VERTEX
8
OBJECT__53
10
0
20
0
30
0
70
128
71
23
72
22
73
17
0
VERTEX
8
OBJECT__53
10
0
20
0
30
0
70
128
71
22
72
21
73
16
0
VERTEX
8
OBJECT__53
10
0
20
0
30
0
70
128
71
21
72
25
73
20
0
VERTEX
8
OBJECT__53
10
0
20
0
30
0
70
128
71
19
72
18
73
13
0
VERTEX
8
OBJECT__53
10
0
20
0
30
0
70
128
71
18
72
17
73
12
0
VERTEX
8
OBJECT__53
10
0
20
0
30
0
70
128
71
17
72
16
73
11
0
VERTEX
8
OBJECT__53
10
0
20
0
30
0
70
128
71
16
72
20
73
15
0
VERTEX
8
OBJECT__53
10
0
20
0
30
0
70
128
71
14
72
13
73
7
0
VERTEX
8
OBJECT__53
10
0
20
0
30
0
70
128
71
13
72
12
73
5
0
VERTEX
8
OBJECT__53
10
0
20
0
30
0
70
128
71
12
72
11
73
3
0
VERTEX
8
OBJECT__53
10
0
20
0
30
0
70
128
71
11
72
15
73
10
0
VERTEX
8
OBJECT__53
10
0
20
0
30
0
70
128
71
9
72
7
73
6
0
VERTEX
8
OBJECT__53
10
0
20
0
30
0
70
128
71
7
72
5
73
4
0
VERTEX
8
OBJECT__53
10
0
20
0
30
0
70
128
71
5
72
3
73
2
0
VERTEX
8
OBJECT__53
10
0
20
0
30
0
70
128
71
3
72
10
73
1
0
SEQEND
8
OBJECT__53
0
POLYLINE
8
OBJECT__54
66
1
70
64
71
32
72
32
62
253
0
VERTEX
8
OBJECT__54
10
53.997002
20
6.760000
30
9.299000
70
192
0
VERTEX
8
OBJECT__54
10
53.997002
20
0.000000
30
11.495000
70
192
0
VERTEX
8
OBJECT__54
10
134.501999
20
2.752000
30
11.158000
70
192
0
VERTEX
8
OBJECT__54
10
134.501999
20
0.000000
30
11.158000
70
192
0
VERTEX
8
OBJECT__54
10
53.997002
20
10.937000
30
3.549000
70
192
0
VERTEX
8
OBJECT__54
10
134.501999
20
7.626000
30
8.600000
70
192
0
VERTEX
8
OBJECT__54
10
134.501999
20
6.660000
30
9.107000
70
192
0
VERTEX
8
OBJECT__54
10
134.501999
20
10.753000
30
4.071000
70
192
0
VERTEX
8
OBJECT__54
10
134.501999
20
10.818000
30
3.532000
70
192
0
VERTEX
8
OBJECT__54
10
134.501999
20
11.416000
30
-1.394000
70
192
0
VERTEX
8
OBJECT__54
10
53.997002
20
10.937000
30
-3.558000
70
192
0
VERTEX
8
OBJECT__54
10
53.997002
20
6.760000
30
-9.308000
70
192
0
VERTEX
8
OBJECT__54
10
134.501999
20
9.464000
30
-6.540000
70
192
0
VERTEX
8
OBJECT__54
10
134.501999
20
10.637000
30
-3.447000
70
192
0
VERTEX
8
OBJECT__54
10
53.997002
20
0.000000
30
-11.505000
70
192
0
VERTEX
8
OBJECT__54
10
134.501999
20
5.344000
30
-10.190000
70
192
0
VERTEX
8
OBJECT__54
10
134.501999
20
6.574000
30
-9.101000
70
192
0
VERTEX
8
OBJECT__54
10
134.501999
20
0.000000
30
-11.507000
70
192
0
VERTEX
8
OBJECT__54
10
134.501999
20
-5.344000
30
-10.190000
70
192
0
VERTEX
8
OBJECT__54
10
53.997002
20
-6.760000
30
-9.308000
70
192
0
VERTEX
8
OBJECT__54
10
134.501999
20
-6.574000
30
-9.101000
70
192
0
VERTEX
8
OBJECT__54
10
134.501999
20
-9.464000
30
-6.540000
70
192
0
VERTEX
8
OBJECT__54
10
53.997002
20
-10.937000
30
-3.558000
70
192
0
VERTEX
8
OBJECT__54
10
53.997002
20
-10.937000
30
3.549000
70
192
0
VERTEX
8
OBJECT__54
10
134.501999
20
-11.416000
30
-1.394000
70
192
0
VERTEX
8
OBJECT__54
10
134.501999
20
-10.637000
30
-3.447000
70
192
0
VERTEX
8
OBJECT__54
10
134.501999
20
-10.753000
30
4.071000
70
192
0
VERTEX
8
OBJECT__54
10
134.501999
20
-7.626000
30
8.600000
70
192
0
VERTEX
8
OBJECT__54
10
53.997002
20
-6.760000
30
9.299000
70
192
0
VERTEX
8
OBJECT__54
10
134.501999
20
-10.818000
30
3.532000
70
192
0
VERTEX
8
OBJECT__54
10
134.501999
20
-6.660000
30
9.107000
70
192
0
VERTEX
8
OBJECT__54
10
134.501999
20
-2.752000
30
11.158000
70
192
0
VERTEX
8
OBJECT__54
10
0
20
0
30
0
70
128
71
1
72
2
73
3
0
VERTEX
8
OBJECT__54
10
0
20
0
30
0
70
128
71
2
72
4
73
3
0
VERTEX
8
OBJECT__54
10
0
20
0
30
0
70
128
71
5
72
1
73
6
0
VERTEX
8
OBJECT__54
10
0
20
0
30
0
70
128
71
1
72
7
73
6
0
VERTEX
8
OBJECT__54
10
0
20
0
30
0
70
128
71
6
72
8
73
5
0
VERTEX
8
OBJECT__54
10
0
20
0
30
0
70
128
71
5
72
9
73
10
0
VERTEX
8
OBJECT__54
10
0
20
0
30
0
70
128
71
10
72
11
73
5
0
VERTEX
8
OBJECT__54
10
0
20
0
30
0
70
128
71
12
72
11
73
13
0
VERTEX
8
OBJECT__54
10
0
20
0
30
0
70
128
71
11
72
14
73
13
0
VERTEX
8
OBJECT__54
10
0
20
0
30
0
70
128
71
15
72
12
73
16
0
VERTEX
8
OBJECT__54
10
0
20
0
30
0
70
128
71
12
72
17
73
16
0
VERTEX
8
OBJECT__54
10
0
20
0
30
0
70
128
71
15
72
18
73
19
0
VERTEX
8
OBJECT__54
10
0
20
0
30
0
70
128
71
19
72
20
73
15
0
VERTEX
8
OBJECT__54
10
0
20
0
30
0
70
128
71
20
72
21
73
22
0
VERTEX
8
OBJECT__54
10
0
20
0
30
0
70
128
71
22
72
23
73
20
0
VERTEX
8
OBJECT__54
10
0
20
0
30
0
70
128
71
24
72
23
73
25
0
VERTEX
8
OBJECT__54
10
0
20
0
30
0
70
128
71
23
72
26
73
25
0
VERTEX
8
OBJECT__54
10
0
20
0
30
0
70
128
71
24
72
27
73
28
0
VERTEX
8
OBJECT__54
10
0
20
0
30
0
70
128
71
28
72
29
73
24
0
VERTEX
8
OBJECT__54
10
0
20
0
30
0
70
128
71
24
72
30
73
27
0
VERTEX
8
OBJECT__54
10
0
20
0
30
0
70
128
71
29
72
31
73
32
0
VERTEX
8
OBJECT__54
10
0
20
0
30
0
70
128
71
32
72
2
73
29
0
VERTEX
8
OBJECT__54
10
0
20
0
30
0
70
128
71
32
72
4
73
2
0
VERTEX
8
OBJECT__54
10
0
20
0
30
0
70
128
71
28
72
31
73
29
0
VERTEX
8
OBJECT__54
10
0
20
0
30
0
70
128
71
25
72
30
73
24
0
VERTEX
8
OBJECT__54
10
0
20
0
30
0
70
128
71
22
72
26
73
23
0
VERTEX
8
OBJECT__54
10
0
20
0
30
0
70
128
71
19
72
21
73
20
0
VERTEX
8
OBJECT__54
10
0
20
0
30
0
70
128
71
16
72
18
73
15
0
VERTEX
8
OBJECT__54
10
0
20
0
30
0
70
128
71
13
72
17
73
12
0
VERTEX
8
OBJECT__54
10
0
20
0
30
0
70
128
71
10
72
14
73
11
0
VERTEX
8
OBJECT__54
10
0
20
0
30
0
70
128
71
8
72
9
73
5
0
VERTEX
8
OBJECT__54
10
0
20
0
30
0
70
128
71
3
72
7
73
1
0
SEQEND
8
OBJECT__54
0
POLYLINE
8
OBJECT__55
66
1
70
64
71
22
72
22
62
253
0
VERTEX
8
OBJECT__55
10
53.997002
20
0.000000
30
-11.505000
70
192
0
VERTEX
8
OBJECT__55
10
53.997002
20
0.000000
30
-15.005000
70
192
0
VERTEX
8
OBJECT__55
10
53.997002
20
4.226000
30
-14.397000
70
192
0
VERTEX
8
OBJECT__55
10
53.997002
20
11.336000
30
-9.828000
70
192
0
VERTEX
8
OBJECT__55
10
53.997002
20
6.760000
30
-9.308000
70
192
0
VERTEX
8
OBJECT__55
10
53.997002
20
14.847000
30
-2.139000
70
192
0
VERTEX
8
OBJECT__55
10
53.997002
20
10.937000
30
-3.558000
70
192
0
VERTEX
8
OBJECT__55
10
53.997002
20
13.644000
30
6.227000
70
192
0
VERTEX
8
OBJECT__55
10
53.997002
20
10.937000
30
3.549000
70
192
0
VERTEX
8
OBJECT__55
10
53.998001
20
8.110000
30
12.614000
70
192
0
VERTEX
8
OBJECT__55
10
53.997002
20
6.760000
30
9.299000
70
192
0
VERTEX
8
OBJECT__55
10
53.998001
20
0.000000
30
14.995000
70
192
0
VERTEX
8
OBJECT__55
10
53.997002
20
0.000000
30
11.495000
70
192
0
VERTEX
8
OBJECT__55
10
53.998001
20
-8.110000
30
12.614000
70
192
0
VERTEX
8
OBJECT__55
10
53.997002
20
-6.760000
30
9.299000
70
192
0
VERTEX
8
OBJECT__55
10
53.997002
20
-13.644000
30
6.227000
70
192
0
VERTEX
8
OBJECT__55
10
53.997002
20
-10.937000
30
3.549000
70
192
0
VERTEX
8
OBJECT__55
10
53.997002
20
-14.847000
30
-2.139000
70
192
0
VERTEX
8
OBJECT__55
10
53.997002
20
-10.937000
30
-3.558000
70
192
0
VERTEX
8
OBJECT__55
10
53.997002
20
-6.760000
30
-9.308000
70
192
0
VERTEX
8
OBJECT__55
10
53.997002
20
-4.226000
30
-14.397000
70
192
0
VERTEX
8
OBJECT__55
10
53.997002
20
-11.336000
30
-9.828000
70
192
0
VERTEX
8
OBJECT__55
10
0
20
0
30
0
70
128
71
1
72
2
73
3
0
VERTEX
8
OBJECT__55
10
0
20
0
30
0
70
128
71
3
72
4
73
5
0
VERTEX
8
OBJECT__55
10
0
20
0
30
0
70
128
71
4
72
6
73
7
0
VERTEX
8
OBJECT__55
10
0
20
0
30
0
70
128
71
7
72
5
73
4
0
VERTEX
8
OBJECT__55
10
0
20
0
30
0
70
128
71
6
72
8
73
9
0
VERTEX
8
OBJECT__55
10
0
20
0
30
0
70
128
71
8
72
10
73
11
0
VERTEX
8
OBJECT__55
10
0
20
0
30
0
70
128
71
10
72
12
73
13
0
VERTEX
8
OBJECT__55
10
0
20
0
30
0
70
128
71
14
72
15
73
13
0
VERTEX
8
OBJECT__55
10
0
20
0
30
0
70
128
71
16
72
17
73
15
0
VERTEX
8
OBJECT__55
10
0
20
0
30
0
70
128
71
9
72
7
73
6
0
VERTEX
8
OBJECT__55
10
0
20
0
30
0
70
128
71
13
72
11
73
10
0
VERTEX
8
OBJECT__55
10
0
20
0
30
0
70
128
71
15
72
14
73
16
0
VERTEX
8
OBJECT__55
10
0
20
0
30
0
70
128
71
18
72
19
73
17
0
VERTEX
8
OBJECT__55
10
0
20
0
30
0
70
128
71
1
72
20
73
21
0
VERTEX
8
OBJECT__55
10
0
20
0
30
0
70
128
71
11
72
9
73
8
0
VERTEX
8
OBJECT__55
10
0
20
0
30
0
70
128
71
17
72
16
73
18
0
VERTEX
8
OBJECT__55
10
0
20
0
30
0
70
128
71
22
72
20
73
19
0
VERTEX
8
OBJECT__55
10
0
20
0
30
0
70
128
71
21
72
2
73
1
0
VERTEX
8
OBJECT__55
10
0
20
0
30
0
70
128
71
13
72
12
73
14
0
VERTEX
8
OBJECT__55
10
0
20
0
30
0
70
128
71
20
72
22
73
21
0
VERTEX
8
OBJECT__55
10
0
20
0
30
0
70
128
71
19
72
18
73
22
0
VERTEX
8
OBJECT__55
10
0
20
0
30
0
70
128
71
3
72
5
73
1
0
SEQEND
8
OBJECT__55
0
POLYLINE
8
OBJECT__56
66
1
70
64
71
24
72
24
62
253
0
VERTEX
8
OBJECT__56
10
53.998001
20
8.110000
30
12.614000
70
192
0
VERTEX
8
OBJECT__56
10
49.998001
20
8.110000
30
12.614000
70
192
0
VERTEX
8
OBJECT__56
10
49.998001
20
0.000000
30
14.995000
70
192
0
VERTEX
8
OBJECT__56
10
53.997002
20
13.644000
30
6.227000
70
192
0
VERTEX
8
OBJECT__56
10
49.997002
20
13.644000
30
6.227000
70
192
0
VERTEX
8
OBJECT__56
10
49.997002
20
14.847000
30
-2.139000
70
192
0
VERTEX
8
OBJECT__56
10
53.997002
20
11.336000
30
-9.828000
70
192
0
VERTEX
8
OBJECT__56
10
49.997002
20
11.336000
30
-9.827000
70
192
0
VERTEX
8
OBJECT__56
10
53.997002
20
4.226000
30
-14.397000
70
192
0
VERTEX
8
OBJECT__56
10
49.997002
20
4.226000
30
-14.397000
70
192
0
VERTEX
8
OBJECT__56
10
53.997002
20
-4.226000
30
-14.397000
70
192
0
VERTEX
8
OBJECT__56
10
49.997002
20
-4.226000
30
-14.397000
70
192
0
VERTEX
8
OBJECT__56
10
49.997002
20
0.000000
30
-15.005000
70
192
0
VERTEX
8
OBJECT__56
10
53.997002
20
0.000000
30
-15.005000
70
192
0
VERTEX
8
OBJECT__56
10
49.997002
20
-11.336000
30
-9.827000
70
192
0
VERTEX
8
OBJECT__56
10
49.997002
20
-14.847000
30
-2.139000
70
192
0
VERTEX
8
OBJECT__56
10
53.997002
20
-11.336000
30
-9.828000
70
192
0
VERTEX
8
OBJECT__56
10
53.997002
20
-13.644000
30
6.227000
70
192
0
VERTEX
8
OBJECT__56
10
49.997002
20
-13.644000
30
6.227000
70
192
0
VERTEX
8
OBJECT__56
10
53.998001
20
-8.110000
30
12.614000
70
192
0
VERTEX
8
OBJECT__56
10
49.998001
20
-8.110000
30
12.614000
70
192
0
VERTEX
8
OBJECT__56
10
53.998001
20
0.000000
30
14.995000
70
192
0
VERTEX
8
OBJECT__56
10
53.997002
20
-14.847000
30
-2.139000
70
192
0
VERTEX
8
OBJECT__56
10
53.997002
20
14.847000
30
-2.139000
70
192
0
VERTEX
8
OBJECT__56
10
0
20
0
30
0
70
128
71
1
72
2
73
3
0
VERTEX
8
OBJECT__56
10
0
20
0
30
0
70
128
71
4
72
5
73
2
0
VERTEX
8
OBJECT__56
10
0
20
0
30
0
70
128
71
6
72
5
73
4
0
VERTEX
8
OBJECT__56
10
0
20
0
30
0
70
128
71
7
72
8
73
6
0
VERTEX
8
OBJECT__56
10
0
20
0
30
0
70
128
71
9
72
10
73
8
0
VERTEX
8
OBJECT__56
10
0
20
0
30
0
70
128
71
11
72
12
73
13
0
VERTEX
8
OBJECT__56
10
0
20
0
30
0
70
128
71
10
72
9
73
14
0
VERTEX
8
OBJECT__56
10
0
20
0
30
0
70
128
71
14
72
13
73
10
0
VERTEX
8
OBJECT__56
10
0
20
0
30
0
70
128
71
15
72
12
73
11
0
VERTEX
8
OBJECT__56
10
0
20
0
30
0
70
128
71
16
72
15
73
17
0
VERTEX
8
OBJECT__56
10
0
20
0
30
0
70
128
71
18
72
19
73
16
0
VERTEX
8
OBJECT__56
10
0
20
0
30
0
70
128
71
20
72
21
73
19
0
VERTEX
8
OBJECT__56
10
0
20
0
30
0
70
128
71
3
72
21
73
20
0
VERTEX
8
OBJECT__56
10
0
20
0
30
0
70
128
71
20
72
22
73
3
0
VERTEX
8
OBJECT__56
10
0
20
0
30
0
70
128
71
19
72
18
73
20
0
VERTEX
8
OBJECT__56
10
0
20
0
30
0
70
128
71
16
72
23
73
18
0
VERTEX
8
OBJECT__56
10
0
20
0
30
0
70
128
71
17
72
23
73
16
0
VERTEX
8
OBJECT__56
10
0
20
0
30
0
70
128
71
11
72
17
73
15
0
VERTEX
8
OBJECT__56
10
0
20
0
30
0
70
128
71
13
72
14
73
11
0
VERTEX
8
OBJECT__56
10
0
20
0
30
0
70
128
71
8
72
7
73
9
0
VERTEX
8
OBJECT__56
10
0
20
0
30
0
70
128
71
6
72
24
73
7
0
VERTEX
8
OBJECT__56
10
0
20
0
30
0
70
128
71
4
72
24
73
6
0
VERTEX
8
OBJECT__56
10
0
20
0
30
0
70
128
71
2
72
1
73
4
0
VERTEX
8
OBJECT__56
10
0
20
0
30
0
70
128
71
3
72
22
73
1
0
SEQEND
8
OBJECT__56
0
POLYLINE
8
OBJECT__57
66
1
70
64
71
24
72
24
62
253
0
VERTEX
8
OBJECT__57
10
49.997002
20
18.000000
30
-0.005000
70
192
0
VERTEX
8
OBJECT__57
10
49.997002
20
15.588000
30
8.995000
70
192
0
VERTEX
8
OBJECT__57
10
49.997002
20
13.644000
30
6.227000
70
192
0
VERTEX
8
OBJECT__57
10
49.998001
20
9.000000
30
15.584000
70
192
0
VERTEX
8
OBJECT__57
10
49.998001
20
8.110000
30
12.614000
70
192
0
VERTEX
8
OBJECT__57
10
49.998001
20
0.000000
30
17.995001
70
192
0
VERTEX
8
OBJECT__57
10
49.998001
20
0.000000
30
14.995000
70
192
0
VERTEX
8
OBJECT__57
10
49.995998
20
0.000000
30
-18.004999
70
192
0
VERTEX
8
OBJECT__57
10
49.997002
20
9.000000
30
-15.593000
70
192
0
VERTEX
8
OBJECT__57
10
49.997002
20
4.226000
30
-14.397000
70
192
0
VERTEX
8
OBJECT__57
10
49.997002
20
15.588000
30
-9.005000
70
192
0
VERTEX
8
OBJECT__57
10
49.997002
20
11.336000
30
-9.827000
70
192
0
VERTEX
8
OBJECT__57
10
49.998001
20
-9.000000
30
15.584000
70
192
0
VERTEX
8
OBJECT__57
10
49.998001
20
-8.110000
30
12.614000
70
192
0
VERTEX
8
OBJECT__57
10
49.997002
20
-15.588000
30
8.995000
70
192
0
VERTEX
8
OBJECT__57
10
49.997002
20
-13.644000
30
6.227000
70
192
0
VERTEX
8
OBJECT__57
10
49.997002
20
-18.000000
30
-0.005000
70
192
0
VERTEX
8
OBJECT__57
10
49.997002
20
-14.847000
30
-2.139000
70
192
0
VERTEX
8
OBJECT__57
10
49.997002
20
14.847000
30
-2.139000
70
192
0
VERTEX
8
OBJECT__57
10
49.997002
20
-9.000000
30
-15.593000
70
192
0
VERTEX
8
OBJECT__57
10
49.997002
20
-4.226000
30
-14.397000
70
192
0
VERTEX
8
OBJECT__57
10
49.997002
20
-11.336000
30
-9.827000
70
192
0
VERTEX
8
OBJECT__57
10
49.997002
20
0.000000
30
-15.005000
70
192
0
VERTEX
8
OBJECT__57
10
49.997002
20
-15.588000
30
-9.005000
70
192
0
VERTEX
8
OBJECT__57
10
0
20
0
30
0
70
128
71
1
72
2
73
3
0
VERTEX
8
OBJECT__57
10
0
20
0
30
0
70
128
71
2
72
4
73
5
0
VERTEX
8
OBJECT__57
10
0
20
0
30
0
70
128
71
5
72
3
73
2
0
VERTEX
8
OBJECT__57
10
0
20
0
30
0
70
128
71
4
72
6
73
7
0
VERTEX
8
OBJECT__57
10
0
20
0
30
0
70
128
71
8
72
9
73
10
0
VERTEX
8
OBJECT__57
10
0
20
0
30
0
70
128
71
9
72
11
73
12
0
VERTEX
8
OBJECT__57
10
0
20
0
30
0
70
128
71
7
72
5
73
4
0
VERTEX
8
OBJECT__57
10
0
20
0
30
0
70
128
71
13
72
14
73
7
0
VERTEX
8
OBJECT__57
10
0
20
0
30
0
70
128
71
15
72
16
73
14
0
VERTEX
8
OBJECT__57
10
0
20
0
30
0
70
128
71
17
72
18
73
16
0
VERTEX
8
OBJECT__57
10
0
20
0
30
0
70
128
71
12
72
10
73
9
0
VERTEX
8
OBJECT__57
10
0
20
0
30
0
70
128
71
11
72
1
73
19
0
VERTEX
8
OBJECT__57
10
0
20
0
30
0
70
128
71
7
72
6
73
13
0
VERTEX
8
OBJECT__57
10
0
20
0
30
0
70
128
71
16
72
15
73
17
0
VERTEX
8
OBJECT__57
10
0
20
0
30
0
70
128
71
20
72
21
73
22
0
VERTEX
8
OBJECT__57
10
0
20
0
30
0
70
128
71
8
72
23
73
21
0
VERTEX
8
OBJECT__57
10
0
20
0
30
0
70
128
71
19
72
12
73
11
0
VERTEX
8
OBJECT__57
10
0
20
0
30
0
70
128
71
14
72
13
73
15
0
VERTEX
8
OBJECT__57
10
0
20
0
30
0
70
128
71
24
72
22
73
18
0
VERTEX
8
OBJECT__57
10
0
20
0
30
0
70
128
71
21
72
20
73
8
0
VERTEX
8
OBJECT__57
10
0
20
0
30
0
70
128
71
3
72
19
73
1
0
VERTEX
8
OBJECT__57
10
0
20
0
30
0
70
128
71
22
72
24
73
20
0
VERTEX
8
OBJECT__57
10
0
20
0
30
0
70
128
71
18
72
17
73
24
0
VERTEX
8
OBJECT__57
10
0
20
0
30
0
70
128
71
10
72
23
73
8
0
SEQEND
8
OBJECT__57
0
POLYLINE
8
OBJECT__58
66
1
70
64
71
24
72
24
62
253
0
VERTEX
8
OBJECT__58
10
9.998000
20
9.000000
30
15.585000
70
192
0
VERTEX
8
OBJECT__58
10
9.998000
20
0.000000
30
17.997000
70
192
0
VERTEX
8
OBJECT__58
10
49.998001
20
0.000000
30
17.995001
70
192
0
VERTEX
8
OBJECT__58
10
49.997002
20
15.588000
30
8.995000
70
192
0
VERTEX
8
OBJECT__58
10
9.997000
20
15.588000
30
8.997000
70
192
0
VERTEX
8
OBJECT__58
10
49.997002
20
18.000000
30
-0.005000
70
192
0
VERTEX
8
OBJECT__58
10
9.997000
20
18.000000
30
-0.003000
70
192
0
VERTEX
8
OBJECT__58
10
49.997002
20
15.588000
30
-9.005000
70
192
0
VERTEX
8
OBJECT__58
10
9.997000
20
15.588000
30
-9.003000
70
192
0
VERTEX
8
OBJECT__58
10
49.997002
20
9.000000
30
-15.593000
70
192
0
VERTEX
8
OBJECT__58
10
9.997000
20
9.000000
30
-15.592000
70
192
0
VERTEX
8
OBJECT__58
10
9.996000
20
0.000000
30
-18.003000
70
192
0
VERTEX
8
OBJECT__58
10
49.997002
20
-9.000000
30
-15.593000
70
192
0
VERTEX
8
OBJECT__58
10
9.997000
20
-9.000000
30
-15.592000
70
192
0
VERTEX
8
OBJECT__58
10
9.997000
20
-15.588000
30
-9.003000
70
192
0
VERTEX
8
OBJECT__58
10
49.997002
20
-18.000000
30
-0.005000
70
192
0
VERTEX
8
OBJECT__58
10
9.997000
20
-18.000000
30
-0.003000
70
192
0
VERTEX
8
OBJECT__58
10
49.997002
20
-15.588000
30
8.995000
70
192
0
VERTEX
8
OBJECT__58
10
9.997000
20
-15.588000
30
8.997000
70
192
0
VERTEX
8
OBJECT__58
10
9.998000
20
-9.000000
30
15.585000
70
192
0
VERTEX
8
OBJECT__58
10
49.998001
20
-9.000000
30
15.584000
70
192
0
VERTEX
8
OBJECT__58
10
49.997002
20
-15.588000
30
-9.005000
70
192
0
VERTEX
8
OBJECT__58
10
49.995998
20
0.000000
30
-18.004999
70
192
0
VERTEX
8
OBJECT__58
10
49.998001
20
9.000000
30
15.584000
70
192
0
VERTEX
8
OBJECT__58
10
0
20
0
30
0
70
128
71
1
72
2
73
3
0
VERTEX
8
OBJECT__58
10
0
20
0
30
0
70
128
71
4
72
5
73
1
0
VERTEX
8
OBJECT__58
10
0
20
0
30
0
70
128
71
6
72
7
73
5
0
VERTEX
8
OBJECT__58
10
0
20
0
30
0
70
128
71
8
72
9
73
7
0
VERTEX
8
OBJECT__58
10
0
20
0
30
0
70
128
71
10
72
11
73
9
0
VERTEX
8
OBJECT__58
10
0
20
0
30
0
70
128
71
12
72
11
73
10
0
VERTEX
8
OBJECT__58
10
0
20
0
30
0
70
128
71
13
72
14
73
12
0
VERTEX
8
OBJECT__58
10
0
20
0
30
0
70
128
71
15
72
14
73
13
0
VERTEX
8
OBJECT__58
10
0
20
0
30
0
70
128
71
16
72
17
73
15
0
VERTEX
8
OBJECT__58
10
0
20
0
30
0
70
128
71
18
72
19
73
17
0
VERTEX
8
OBJECT__58
10
0
20
0
30
0
70
128
71
20
72
19
73
18
0
VERTEX
8
OBJECT__58
10
0
20
0
30
0
70
128
71
3
72
2
73
20
0
VERTEX
8
OBJECT__58
10
0
20
0
30
0
70
128
71
20
72
21
73
3
0
VERTEX
8
OBJECT__58
10
0
20
0
30
0
70
128
71
18
72
21
73
20
0
VERTEX
8
OBJECT__58
10
0
20
0
30
0
70
128
71
17
72
16
73
18
0
VERTEX
8
OBJECT__58
10
0
20
0
30
0
70
128
71
15
72
22
73
16
0
VERTEX
8
OBJECT__58
10
0
20
0
30
0
70
128
71
13
72
22
73
15
0
VERTEX
8
OBJECT__58
10
0
20
0
30
0
70
128
71
12
72
23
73
13
0
VERTEX
8
OBJECT__58
10
0
20
0
30
0
70
128
71
10
72
23
73
12
0
VERTEX
8
OBJECT__58
10
0
20
0
30
0
70
128
71
9
72
8
73
10
0
VERTEX
8
OBJECT__58
10
0
20
0
30
0
70
128
71
7
72
6
73
8
0
VERTEX
8
OBJECT__58
10
0
20
0
30
0
70
128
71
5
72
4
73
6
0
VERTEX
8
OBJECT__58
10
0
20
0
30
0
70
128
71
1
72
24
73
4
0
VERTEX
8
OBJECT__58
10
0
20
0
30
0
70
128
71
3
72
24
73
1
0
SEQEND
8
OBJECT__58
0
POLYLINE
8
OBJECT__59
66
1
70
64
71
26
72
26
62
253
0
VERTEX
8
OBJECT__59
10
9.997000
20
21.038000
30
-7.982000
70
192
0
VERTEX
8
OBJECT__59
10
9.997000
20
22.336000
30
2.709000
70
192
0
VERTEX
8
OBJECT__59
10
9.997000
20
18.000000
30
-0.003000
70
192
0
VERTEX
8
OBJECT__59
10
9.998000
20
18.517000
30
12.778000
70
192
0
VERTEX
8
OBJECT__59
10
9.997000
20
15.588000
30
8.997000
70
192
0
VERTEX
8
OBJECT__59
10
9.996000
20
5.385000
30
-21.849001
70
192
0
VERTEX
8
OBJECT__59
10
9.997000
20
14.920000
30
-16.844999
70
192
0
VERTEX
8
OBJECT__59
10
9.997000
20
9.000000
30
-15.592000
70
192
0
VERTEX
8
OBJECT__59
10
9.997000
20
15.588000
30
-9.003000
70
192
0
VERTEX
8
OBJECT__59
10
9.996000
20
-5.385000
30
-21.849001
70
192
0
VERTEX
8
OBJECT__59
10
9.996000
20
0.000000
30
-18.003000
70
192
0
VERTEX
8
OBJECT__59
10
9.997000
20
-9.000000
30
-15.592000
70
192
0
VERTEX
8
OBJECT__59
10
9.996000
20
0.000000
30
-22.503000
70
192
0
VERTEX
8
OBJECT__59
10
9.997000
20
-22.336000
30
2.709000
70
192
0
VERTEX
8
OBJECT__59
10
9.997000
20
-18.000000
30
-0.003000
70
192
0
VERTEX
8
OBJECT__59
10
9.997000
20
-15.588000
30
8.997000
70
192
0
VERTEX
8
OBJECT__59
10
9.997000
20
-21.038000
30
-7.982000
70
192
0
VERTEX
8
OBJECT__59
10
9.997000
20
-15.588000
30
-9.003000
70
192
0
VERTEX
8
OBJECT__59
10
9.997000
20
-14.920000
30
-16.844999
70
192
0
VERTEX
8
OBJECT__59
10
9.998000
20
10.456000
30
19.920000
70
192
0
VERTEX
8
OBJECT__59
10
9.998000
20
9.000000
30
15.585000
70
192
0
VERTEX
8
OBJECT__59
10
9.998000
20
0.000000
30
22.497000
70
192
0
VERTEX
8
OBJECT__59
10
9.998000
20
0.000000
30
17.997000
70
192
0
VERTEX
8
OBJECT__59
10
9.998000
20
-10.456000
30
19.920000
70
192
0
VERTEX
8
OBJECT__59
10
9.998000
20
-9.000000
30
15.585000
70
192
0
VERTEX
8
OBJECT__59
10
9.998000
20
-18.517000
30
12.778000
70
192
0
VERTEX
8
OBJECT__59
10
0
20
0
30
0
70
128
71
1
72
2
73
3
0
VERTEX
8
OBJECT__59
10
0
20
0
30
0
70
128
71
2
72
4
73
5
0
VERTEX
8
OBJECT__59
10
0
20
0
30
0
70
128
71
6
72
7
73
8
0
VERTEX
8
OBJECT__59
10
0
20
0
30
0
70
128
71
7
72
1
73
9
0
VERTEX
8
OBJECT__59
10
0
20
0
30
0
70
128
71
5
72
3
73
2
0
VERTEX
8
OBJECT__59
10
0
20
0
30
0
70
128
71
10
72
11
73
12
0
VERTEX
8
OBJECT__59
10
0
20
0
30
0
70
128
71
11
72
13
73
6
0
VERTEX
8
OBJECT__59
10
0
20
0
30
0
70
128
71
3
72
9
73
1
0
VERTEX
8
OBJECT__59
10
0
20
0
30
0
70
128
71
14
72
15
73
16
0
VERTEX
8
OBJECT__59
10
0
20
0
30
0
70
128
71
17
72
18
73
15
0
VERTEX
8
OBJECT__59
10
0
20
0
30
0
70
128
71
19
72
12
73
18
0
VERTEX
8
OBJECT__59
10
0
20
0
30
0
70
128
71
12
72
19
73
10
0
VERTEX
8
OBJECT__59
10
0
20
0
30
0
70
128
71
9
72
8
73
7
0
VERTEX
8
OBJECT__59
10
0
20
0
30
0
70
128
71
4
72
20
73
21
0
VERTEX
8
OBJECT__59
10
0
20
0
30
0
70
128
71
20
72
22
73
23
0
VERTEX
8
OBJECT__59
10
0
20
0
30
0
70
128
71
24
72
25
73
23
0
VERTEX
8
OBJECT__59
10
0
20
0
30
0
70
128
71
15
72
14
73
17
0
VERTEX
8
OBJECT__59
10
0
20
0
30
0
70
128
71
10
72
13
73
11
0
VERTEX
8
OBJECT__59
10
0
20
0
30
0
70
128
71
21
72
5
73
4
0
VERTEX
8
OBJECT__59
10
0
20
0
30
0
70
128
71
23
72
22
73
24
0
VERTEX
8
OBJECT__59
10
0
20
0
30
0
70
128
71
26
72
16
73
25
0
VERTEX
8
OBJECT__59
10
0
20
0
30
0
70
128
71
18
72
17
73
19
0
VERTEX
8
OBJECT__59
10
0
20
0
30
0
70
128
71
23
72
21
73
20
0
VERTEX
8
OBJECT__59
10
0
20
0
30
0
70
128
71
16
72
26
73
14
0
VERTEX
8
OBJECT__59
10
0
20
0
30
0
70
128
71
25
72
24
73
26
0
VERTEX
8
OBJECT__59
10
0
20
0
30
0
70
128
71
8
72
11
73
6
0
SEQEND
8
OBJECT__59
0
POLYLINE
8
OBJECT__60
66
1
70
64
71
27
72
27
62
253
0
VERTEX
8
OBJECT__60
10
9.998000
20
10.456000
30
19.920000
70
192
0
VERTEX
8
OBJECT__60
10
5.998000
20
10.456000
30
19.920000
70
192
0
VERTEX
8
OBJECT__60
10
5.998000
20
0.000000
30
22.497000
70
192
0
VERTEX
8
OBJECT__60
10
9.998000
20
18.517000
30
12.778000
70
192
0
VERTEX
8
OBJECT__60
10
5.998000
20
18.517000
30
12.778000
70
192
0
VERTEX
8
OBJECT__60
10
9.997000
20
22.336000
30
2.709000
70
192
0
VERTEX
8
OBJECT__60
10
5.997000
20
22.336000
30
2.709000
70
192
0
VERTEX
8
OBJECT__60
10
9.997000
20
21.038000
30
-7.982000
70
192
0
VERTEX
8
OBJECT__60
10
5.997000
20
21.038000
30
-7.982000
70
192
0
VERTEX
8
OBJECT__60
10
9.997000
20
14.920000
30
-16.844999
70
192
0
VERTEX
8
OBJECT__60
10
5.997000
20
14.920000
30
-16.844999
70
192
0
VERTEX
8
OBJECT__60
10
9.996000
20
5.385000
30
-21.849001
70
192
0
VERTEX
8
OBJECT__60
10
5.996000
20
5.385000
30
-21.849001
70
192
0
VERTEX
8
OBJECT__60
10
9.996000
20
0.000000
30
-22.503000
70
192
0
VERTEX
8
OBJECT__60
10
5.996000
20
-5.385000
30
-21.849001
70
192
0
VERTEX
8
OBJECT__60
10
5.997000
20
-14.920000
30
-16.844999
70
192
0
VERTEX
8
OBJECT__60
10
9.996000
20
-5.385000
30
-21.849001
70
192
0
VERTEX
8
OBJECT__60
10
5.997000
20
-21.038000
30
-7.982000
70
192
0
VERTEX
8
OBJECT__60
10
9.997000
20
-14.920000
30
-16.844999
70
192
0
VERTEX
8
OBJECT__60
10
9.997000
20
-22.336000
30
2.709000
70
192
0
VERTEX
8
OBJECT__60
10
5.997000
20
-22.336000
30
2.709000
70
192
0
VERTEX
8
OBJECT__60
10
9.998000
20
-18.517000
30
12.778000
70
192
0
VERTEX
8
OBJECT__60
10
5.998000
20
-18.517000
30
12.778000
70
192
0
VERTEX
8
OBJECT__60
10
9.998000
20
-10.456000
30
19.920000
70
192
0
VERTEX
8
OBJECT__60
10
5.998000
20
-10.456000
30
19.920000
70
192
0
VERTEX
8
OBJECT__60
10
9.998000
20
0.000000
30
22.497000
70
192
0
VERTEX
8
OBJECT__60
10
9.997000
20
-21.038000
30
-7.982000
70
192
0
VERTEX
8
OBJECT__60
10
0
20
0
30
0
70
128
71
1
72
2
73
3
0
VERTEX
8
OBJECT__60
10
0
20
0
30
0
70
128
71
4
72
5
73
2
0
VERTEX
8
OBJECT__60
10
0
20
0
30
0
70
128
71
6
72
7
73
5
0
VERTEX
8
OBJECT__60
10
0
20
0
30
0
70
128
71
8
72
9
73
7
0
VERTEX
8
OBJECT__60
10
0
20
0
30
0
70
128
71
10
72
11
73
9
0
VERTEX
8
OBJECT__60
10
0
20
0
30
0
70
128
71
12
72
13
73
11
0
VERTEX
8
OBJECT__60
10
0
20
0
30
0
70
128
71
13
72
12
73
14
0
VERTEX
8
OBJECT__60
10
0
20
0
30
0
70
128
71
14
72
15
73
13
0
VERTEX
8
OBJECT__60
10
0
20
0
30
0
70
128
71
16
72
15
73
17
0
VERTEX
8
OBJECT__60
10
0
20
0
30
0
70
128
71
18
72
16
73
19
0
VERTEX
8
OBJECT__60
10
0
20
0
30
0
70
128
71
20
72
21
73
18
0
VERTEX
8
OBJECT__60
10
0
20
0
30
0
70
128
71
22
72
23
73
21
0
VERTEX
8
OBJECT__60
10
0
20
0
30
0
70
128
71
24
72
25
73
23
0
VERTEX
8
OBJECT__60
10
0
20
0
30
0
70
128
71
26
72
3
73
25
0
VERTEX
8
OBJECT__60
10
0
20
0
30
0
70
128
71
25
72
24
73
26
0
VERTEX
8
OBJECT__60
10
0
20
0
30
0
70
128
71
23
72
22
73
24
0
VERTEX
8
OBJECT__60
10
0
20
0
30
0
70
128
71
21
72
20
73
22
0
VERTEX
8
OBJECT__60
10
0
20
0
30
0
70
128
71
18
72
27
73
20
0
VERTEX
8
OBJECT__60
10
0
20
0
30
0
70
128
71
19
72
27
73
18
0
VERTEX
8
OBJECT__60
10
0
20
0
30
0
70
128
71
17
72
19
73
16
0
VERTEX
8
OBJECT__60
10
0
20
0
30
0
70
128
71
14
72
17
73
15
0
VERTEX
8
OBJECT__60
10
0
20
0
30
0
70
128
71
11
72
10
73
12
0
VERTEX
8
OBJECT__60
10
0
20
0
30
0
70
128
71
9
72
8
73
10
0
VERTEX
8
OBJECT__60
10
0
20
0
30
0
70
128
71
7
72
6
73
8
0
VERTEX
8
OBJECT__60
10
0
20
0
30
0
70
128
71
5
72
4
73
6
0
VERTEX
8
OBJECT__60
10
0
20
0
30
0
70
128
71
2
72
1
73
4
0
VERTEX
8
OBJECT__60
10
0
20
0
30
0
70
128
71
3
72
26
73
1
0
SEQEND
8
OBJECT__60
0
POLYLINE
8
OBJECT__61
66
1
70
64
71
28
72
28
62
253
0
VERTEX
8
OBJECT__61
10
5.998000
20
20.436001
30
18.398001
70
192
0
VERTEX
8
OBJECT__61
10
5.998000
20
11.185000
30
25.118999
70
192
0
VERTEX
8
OBJECT__61
10
5.998000
20
10.456000
30
19.920000
70
192
0
VERTEX
8
OBJECT__61
10
5.998000
20
0.000000
30
27.497000
70
192
0
VERTEX
8
OBJECT__61
10
5.998000
20
0.000000
30
22.497000
70
192
0
VERTEX
8
OBJECT__61
10
5.997000
20
27.349001
30
-2.878000
70
192
0
VERTEX
8
OBJECT__61
10
5.997000
20
22.336000
30
2.709000
70
192
0
VERTEX
8
OBJECT__61
10
5.997000
20
21.038000
30
-7.982000
70
192
0
VERTEX
8
OBJECT__61
10
5.998000
20
-11.185000
30
25.118999
70
192
0
VERTEX
8
OBJECT__61
10
5.998000
20
-10.456000
30
19.920000
70
192
0
VERTEX
8
OBJECT__61
10
5.998000
20
-20.436001
30
18.398001
70
192
0
VERTEX
8
OBJECT__61
10
5.998000
20
-18.517000
30
12.778000
70
192
0
VERTEX
8
OBJECT__61
10
5.997000
20
-26.153999
30
8.495000
70
192
0
VERTEX
8
OBJECT__61
10
5.997000
20
-22.336000
30
2.709000
70
192
0
VERTEX
8
OBJECT__61
10
5.997000
20
23.816000
30
-13.753000
70
192
0
VERTEX
8
OBJECT__61
10
5.997000
20
26.153999
30
8.495000
70
192
0
VERTEX
8
OBJECT__61
10
5.998000
20
18.517000
30
12.778000
70
192
0
VERTEX
8
OBJECT__61
10
5.997000
20
-27.349001
30
-2.878000
70
192
0
VERTEX
8
OBJECT__61
10
5.997000
20
-23.816000
30
-13.753000
70
192
0
VERTEX
8
OBJECT__61
10
5.997000
20
-21.038000
30
-7.982000
70
192
0
VERTEX
8
OBJECT__61
10
5.996000
20
-5.718000
30
-26.902000
70
192
0
VERTEX
8
OBJECT__61
10
5.996000
20
5.718000
30
-26.902000
70
192
0
VERTEX
8
OBJECT__61
10
5.996000
20
5.385000
30
-21.849001
70
192
0
VERTEX
8
OBJECT__61
10
5.996000
20
16.164000
30
-22.250999
70
192
0
VERTEX
8
OBJECT__61
10
5.997000
20
14.920000
30
-16.844999
70
192
0
VERTEX
8
OBJECT__61
10
5.996000
20
-16.164000
30
-22.250999
70
192
0
VERTEX
8
OBJECT__61
10
5.997000
20
-14.920000
30
-16.844999
70
192
0
VERTEX
8
OBJECT__61
10
5.996000
20
-5.385000
30
-21.849001
70
192
0
VERTEX
8
OBJECT__61
10
0
20
0
30
0
70
128
71
1
72
2
73
3
0
VERTEX
8
OBJECT__61
10
0
20
0
30
0
70
128
71
2
72
4
73
5
0
VERTEX
8
OBJECT__61
10
0
20
0
30
0
70
128
71
6
72
7
73
8
0
VERTEX
8
OBJECT__61
10
0
20
0
30
0
70
128
71
5
72
3
73
2
0
VERTEX
8
OBJECT__61
10
0
20
0
30
0
70
128
71
9
72
10
73
5
0
VERTEX
8
OBJECT__61
10
0
20
0
30
0
70
128
71
11
72
12
73
10
0
VERTEX
8
OBJECT__61
10
0
20
0
30
0
70
128
71
13
72
14
73
12
0
VERTEX
8
OBJECT__61
10
0
20
0
30
0
70
128
71
8
72
15
73
6
0
VERTEX
8
OBJECT__61
10
0
20
0
30
0
70
128
71
16
72
1
73
17
0
VERTEX
8
OBJECT__61
10
0
20
0
30
0
70
128
71
5
72
4
73
9
0
VERTEX
8
OBJECT__61
10
0
20
0
30
0
70
128
71
12
72
11
73
13
0
VERTEX
8
OBJECT__61
10
0
20
0
30
0
70
128
71
18
72
19
73
20
0
VERTEX
8
OBJECT__61
10
0
20
0
30
0
70
128
71
21
72
22
73
23
0
VERTEX
8
OBJECT__61
10
0
20
0
30
0
70
128
71
24
72
25
73
23
0
VERTEX
8
OBJECT__61
10
0
20
0
30
0
70
128
71
15
72
8
73
25
0
VERTEX
8
OBJECT__61
10
0
20
0
30
0
70
128
71
17
72
7
73
16
0
VERTEX
8
OBJECT__61
10
0
20
0
30
0
70
128
71
10
72
9
73
11
0
VERTEX
8
OBJECT__61
10
0
20
0
30
0
70
128
71
14
72
13
73
18
0
VERTEX
8
OBJECT__61
10
0
20
0
30
0
70
128
71
19
72
26
73
27
0
VERTEX
8
OBJECT__61
10
0
20
0
30
0
70
128
71
26
72
21
73
28
0
VERTEX
8
OBJECT__61
10
0
20
0
30
0
70
128
71
23
72
22
73
24
0
VERTEX
8
OBJECT__61
10
0
20
0
30
0
70
128
71
6
72
16
73
7
0
VERTEX
8
OBJECT__61
10
0
20
0
30
0
70
128
71
20
72
14
73
18
0
VERTEX
8
OBJECT__61
10
0
20
0
30
0
70
128
71
28
72
27
73
26
0
VERTEX
8
OBJECT__61
10
0
20
0
30
0
70
128
71
25
72
24
73
15
0
VERTEX
8
OBJECT__61
10
0
20
0
30
0
70
128
71
27
72
20
73
19
0
VERTEX
8
OBJECT__61
10
0
20
0
30
0
70
128
71
3
72
17
73
1
0
VERTEX
8
OBJECT__61
10
0
20
0
30
0
70
128
71
23
72
28
73
21
0
SEQEND
8
OBJECT__61
0
POLYLINE
8
OBJECT__62
66
1
70
64
71
31
72
31
62
253
0
VERTEX
8
OBJECT__62
10
5.998000
20
11.185000
30
25.118999
70
192
0
VERTEX
8
OBJECT__62
10
-0.002000
20
11.185000
30
25.120001
70
192
0
VERTEX
8
OBJECT__62
10
-0.002000
20
0.000000
30
27.497000
70
192
0
VERTEX
8
OBJECT__62
10
5.998000
20
20.436001
30
18.398001
70
192
0
VERTEX
8
OBJECT__62
10
-0.002000
20
20.436001
30
18.398001
70
192
0
VERTEX
8
OBJECT__62
10
5.997000
20
26.153999
30
8.495000
70
192
0
VERTEX
8
OBJECT__62
10
-0.003000
20
26.153999
30
8.495000
70
192
0
VERTEX
8
OBJECT__62
10
5.997000
20
27.349001
30
-2.878000
70
192
0
VERTEX
8
OBJECT__62
10
-0.003000
20
27.500000
30
-0.003000
70
192
0
VERTEX
8
OBJECT__62
10
-0.003000
20
27.349001
30
-2.877000
70
192
0
VERTEX
8
OBJECT__62
10
5.997000
20
23.816000
30
-13.753000
70
192
0
VERTEX
8
OBJECT__62
10
-0.003000
20
23.816000
30
-13.753000
70
192
0
VERTEX
8
OBJECT__62
10
5.996000
20
16.164000
30
-22.250999
70
192
0
VERTEX
8
OBJECT__62
10
-0.004000
20
16.164000
30
-22.250999
70
192
0
VERTEX
8
OBJECT__62
10
5.996000
20
5.718000
30
-26.902000
70
192
0
VERTEX
8
OBJECT__62
10
-0.004000
20
5.718000
30
-26.902000
70
192
0
VERTEX
8
OBJECT__62
10
5.996000
20
-5.718000
30
-26.902000
70
192
0
VERTEX
8
OBJECT__62
10
-0.004000
20
-5.718000
30
-26.902000
70
192
0
VERTEX
8
OBJECT__62
10
-0.004000
20
-16.164000
30
-22.250999
70
192
0
VERTEX
8
OBJECT__62
10
-0.003000
20
-23.816000
30
-13.753000
70
192
0
VERTEX
8
OBJECT__62
10
5.996000
20
-16.164000
30
-22.250999
70
192
0
VERTEX
8
OBJECT__62
10
-0.003000
20
-27.349001
30
-2.877000
70
192
0
VERTEX
8
OBJECT__62
10
5.997000
20
-23.816000
30
-13.753000
70
192
0
VERTEX
8
OBJECT__62
10
-0.003000
20
-26.153999
30
8.495000
70
192
0
VERTEX
8
OBJECT__62
10
5.997000
20
-27.349001
30
-2.878000
70
192
0
VERTEX
8
OBJECT__62
10
-0.002000
20
-20.436001
30
18.398001
70
192
0
VERTEX
8
OBJECT__62
10
5.997000
20
-26.153999
30
8.495000
70
192
0
VERTEX
8
OBJECT__62
10
-0.002000
20
-11.185000
30
25.120001
70
192
0
VERTEX
8
OBJECT__62
10
5.998000
20
-20.436001
30
18.398001
70
192
0
VERTEX
8
OBJECT__62
10
5.998000
20
-11.185000
30
25.118999
70
192
0
VERTEX
8
OBJECT__62
10
5.998000
20
0.000000
30
27.497000
70
192
0
VERTEX
8
OBJECT__62
10
0
20
0
30
0
70
128
71
1
72
2
73
3
0
VERTEX
8
OBJECT__62
10
0
20
0
30
0
70
128
71
4
72
5
73
2
0
VERTEX
8
OBJECT__62
10
0
20
0
30
0
70
128
71
6
72
7
73
5
0
VERTEX
8
OBJECT__62
10
0
20
0
30
0
70
128
71
6
72
8
73
9
0
VERTEX
8
OBJECT__62
10
0
20
0
30
0
70
128
71
8
72
10
73
9
0
VERTEX
8
OBJECT__62
10
0
20
0
30
0
70
128
71
11
72
12
73
10
0
VERTEX
8
OBJECT__62
10
0
20
0
30
0
70
128
71
13
72
14
73
12
0
VERTEX
8
OBJECT__62
10
0
20
0
30
0
70
128
71
15
72
16
73
14
0
VERTEX
8
OBJECT__62
10
0
20
0
30
0
70
128
71
17
72
18
73
16
0
VERTEX
8
OBJECT__62
10
0
20
0
30
0
70
128
71
19
72
18
73
17
0
VERTEX
8
OBJECT__62
10
0
20
0
30
0
70
128
71
20
72
19
73
21
0
VERTEX
8
OBJECT__62
10
0
20
0
30
0
70
128
71
22
72
20
73
23
0
VERTEX
8
OBJECT__62
10
0
20
0
30
0
70
128
71
24
72
22
73
25
0
VERTEX
8
OBJECT__62
10
0
20
0
30
0
70
128
71
26
72
24
73
27
0
VERTEX
8
OBJECT__62
10
0
20
0
30
0
70
128
71
28
72
26
73
29
0
VERTEX
8
OBJECT__62
10
0
20
0
30
0
70
128
71
3
72
28
73
30
0
VERTEX
8
OBJECT__62
10
0
20
0
30
0
70
128
71
30
72
31
73
3
0
VERTEX
8
OBJECT__62
10
0
20
0
30
0
70
128
71
29
72
30
73
28
0
VERTEX
8
OBJECT__62
10
0
20
0
30
0
70
128
71
27
72
29
73
26
0
VERTEX
8
OBJECT__62
10
0
20
0
30
0
70
128
71
25
72
27
73
24
0
VERTEX
8
OBJECT__62
10
0
20
0
30
0
70
128
71
23
72
25
73
22
0
VERTEX
8
OBJECT__62
10
0
20
0
30
0
70
128
71
21
72
23
73
20
0
VERTEX
8
OBJECT__62
10
0
20
0
30
0
70
128
71
17
72
21
73
19
0
VERTEX
8
OBJECT__62
10
0
20
0
30
0
70
128
71
16
72
15
73
17
0
VERTEX
8
OBJECT__62
10
0
20
0
30
0
70
128
71
14
72
13
73
15
0
VERTEX
8
OBJECT__62
10
0
20
0
30
0
70
128
71
12
72
11
73
13
0
VERTEX
8
OBJECT__62
10
0
20
0
30
0
70
128
71
10
72
8
73
11
0
VERTEX
8
OBJECT__62
10
0
20
0
30
0
70
128
71
9
72
7
73
6
0
VERTEX
8
OBJECT__62
10
0
20
0
30
0
70
128
71
5
72
4
73
6
0
VERTEX
8
OBJECT__62
10
0
20
0
30
0
70
128
71
2
72
1
73
4
0
VERTEX
8
OBJECT__62
10
0
20
0
30
0
70
128
71
3
72
31
73
1
0
SEQEND
8
OBJECT__62
0
POLYLINE
8
OBJECT__63
66
1
70
64
71
16
72
14
62
253
0
VERTEX
8
OBJECT__63
10
-0.004000
20
-5.718000
30
-26.902000
70
192
0
VERTEX
8
OBJECT__63
10
-0.004000
20
-16.164000
30
-22.250999
70
192
0
VERTEX
8
OBJECT__63
10
-0.003000
20
-23.816000
30
-13.753000
70
192
0
VERTEX
8
OBJECT__63
10
-0.003000
20
-27.349001
30
-2.877000
70
192
0
VERTEX
8
OBJECT__63
10
-0.004000
20
5.718000
30
-26.902000
70
192
0
VERTEX
8
OBJECT__63
10
-0.003000
20
23.816000
30
-13.753000
70
192
0
VERTEX
8
OBJECT__63
10
-0.004000
20
16.164000
30
-22.250999
70
192
0
VERTEX
8
OBJECT__63
10
-0.002000
20
-20.436001
30
18.398001
70
192
0
VERTEX
8
OBJECT__63
10
-0.002000
20
11.185000
30
25.120001
70
192
0
VERTEX
8
OBJECT__63
10
-0.002000
20
20.436001
30
18.398001
70
192
0
VERTEX
8
OBJECT__63
10
-0.002000
20
-11.185000
30
25.120001
70
192
0
VERTEX
8
OBJECT__63
10
-0.002000
20
0.000000
30
27.497000
70
192
0
VERTEX
8
OBJECT__63
10
-0.003000
20
26.153999
30
8.495000
70
192
0
VERTEX
8
OBJECT__63
10
-0.003000
20
-26.153999
30
8.495000
70
192
0
VERTEX
8
OBJECT__63
10
-0.003000
20
27.349001
30
-2.877000
70
192
0
VERTEX
8
OBJECT__63
10
-0.003000
20
27.500000
30
-0.003000
70
192
0
VERTEX
8
OBJECT__63
10
0
20
0
30
0
70
128
71
1
72
2
73
3
0
VERTEX
8
OBJECT__63
10
0
20
0
30
0
70
128
71
4
72
5
73
1
0
VERTEX
8
OBJECT__63
10
0
20
0
30
0
70
128
71
4
72
6
73
7
0
VERTEX
8
OBJECT__63
10
0
20
0
30
0
70
128
71
8
72
9
73
10
0
VERTEX
8
OBJECT__63
10
0
20
0
30
0
70
128
71
8
72
11
73
12
0
VERTEX
8
OBJECT__63
10
0
20
0
30
0
70
128
71
7
72
5
73
4
0
VERTEX
8
OBJECT__63
10
0
20
0
30
0
70
128
71
12
72
9
73
8
0
VERTEX
8
OBJECT__63
10
0
20
0
30
0
70
128
71
13
72
4
73
14
0
VERTEX
8
OBJECT__63
10
0
20
0
30
0
70
128
71
4
72
15
73
6
0
VERTEX
8
OBJECT__63
10
0
20
0
30
0
70
128
71
14
72
8
73
13
0
VERTEX
8
OBJECT__63
10
0
20
0
30
0
70
128
71
4
72
16
73
15
0
VERTEX
8
OBJECT__63
10
0
20
0
30
0
70
128
71
10
72
13
73
8
0
VERTEX
8
OBJECT__63
10
0
20
0
30
0
70
128
71
13
72
16
73
4
0
VERTEX
8
OBJECT__63
10
0
20
0
30
0
70
128
71
3
72
4
73
1
0
SEQEND
8
OBJECT__63
0
ENDSEC
0
EOF
